  0
SECTION
  2
HEADER
  9
$ACADVER
  1
AC1024
  9
$ACADMAINTVER
 70
     6
  9
$DWGCODEPAGE
  3
UNDEFINED
  9
$INSBASE
 10
0.0
 20
0.0
 30
0.0
  9
$EXTMIN
 10
1.000000000000000E+20
 20
1.000000000000000E+20
 30
1.000000000000000E+20
  9
$EXTMAX
 10
-1.000000000000000E+20
 20
-1.000000000000000E+20
 30
-1.000000000000000E+20
  9
$LIMMIN
 10
0.0
 20
0.0
  9
$LIMMAX
 10
12.0
 20
9.0
  9
$ORTHOMODE
 70
     0
  9
$REGENMODE
 70
     1
  9
$FILLMODE
 70
     1
  9
$QTEXTMODE
 70
     0
  9
$MIRRTEXT
 70
     1
  9
$LTSCALE
 40
1.0
  9
$ATTMODE
 70
     1
  9
$TEXTSIZE
 40
0.2
  9
$TRACEWID
 40
0.05
  9
$TEXTSTYLE
  7
Standard
  9
$CLAYER
  8
0
  9
$CELTYPE
  6
ByLayer
  9
$CECOLOR
 62
   256
  9
$CELTSCALE
 40
1.0
  9
$DISPSILH
 70
     0
  9
$DIMSCALE
 40
1.0
  9
$DIMASZ
 40
0.18
  9
$DIMEXO
 40
0.0625
  9
$DIMDLI
 40
0.38
  9
$DIMRND
 40
0.0
  9
$DIMDLE
 40
0.0
  9
$DIMEXE
 40
0.18
  9
$DIMTP
 40
0.0
  9
$DIMTM
 40
0.0
  9
$DIMTXT
 40
0.18
  9
$DIMCEN
 40
0.09
  9
$DIMTSZ
 40
0.0
  9
$DIMTOL
 70
     0
  9
$DIMLIM
 70
     0
  9
$DIMTIH
 70
     1
  9
$DIMTOH
 70
     1
  9
$DIMSE1
 70
     0
  9
$DIMSE2
 70
     0
  9
$DIMTAD
 70
     0
  9
$DIMZIN
 70
     0
  9
$DIMBLK
  1

  9
$DIMASO
 70
     1
  9
$DIMSHO
 70
     1
  9
$DIMPOST
  1

  9
$DIMAPOST
  1

  9
$DIMALT
 70
     0
  9
$DIMALTD
 70
     2
  9
$DIMALTF
 40
25.4
  9
$DIMLFAC
 40
1.0
  9
$DIMTOFL
 70
     0
  9
$DIMTVP
 40
0.0
  9
$DIMTIX
 70
     0
  9
$DIMSOXD
 70
     0
  9
$DIMSAH
 70
     0
  9
$DIMBLK1
  1

  9
$DIMBLK2
  1

  9
$DIMSTYLE
  2
Standard
  9
$DIMCLRD
 70
     0
  9
$DIMCLRE
 70
     0
  9
$DIMCLRT
 70
     0
  9
$DIMTFAC
 40
1.0
  9
$DIMGAP
 40
0.09
  9
$DIMJUST
 70
     0
  9
$DIMSD1
 70
     0
  9
$DIMSD2
 70
     0
  9
$DIMTOLJ
 70
     1
  9
$DIMTZIN
 70
     0
  9
$DIMALTZ
 70
     0
  9
$DIMALTTZ
 70
     0
  9
$DIMUPT
 70
     0
  9
$DIMDEC
 70
     4
  9
$DIMTDEC
 70
     4
  9
$DIMALTU
 70
     2
  9
$DIMALTTD
 70
     2
  9
$DIMTXSTY
  7
Standard
  9
$DIMAUNIT
 70
     0
  9
$DIMADEC
 70
     0
  9
$DIMALTRND
 40
0.0
  9
$DIMAZIN
 70
     0
  9
$DIMDSEP
 70
    46
  9
$DIMATFIT
 70
     3
  9
$DIMFRAC
 70
     0
  9
$DIMLDRBLK
  1

  9
$DIMLUNIT
 70
     2
  9
$DIMLWD
 70
    -2
  9
$DIMLWE
 70
    -2
  9
$DIMTMOVE
 70
     0
  9
$DIMFXL
 40
1.0
  9
$DIMFXLON
 70
     0
  9
$DIMJOGANG
 40
0.7853981633974483
  9
$DIMTFILL
 70
     0
  9
$DIMTFILLCLR
 70
     0
  9
$DIMARCSYM
 70
     0
  9
$DIMLTYPE
  6

  9
$DIMLTEX1
  6

  9
$DIMLTEX2
  6

  9
$DIMTXTDIRECTION
 70
     0
  9
$LUNITS
 70
     2
  9
$LUPREC
 70
     4
  9
$SKETCHINC
 40
0.1
  9
$FILLETRAD
 40
0.5
  9
$AUNITS
 70
     0
  9
$AUPREC
 70
     0
  9
$MENU
  1
.
  9
$ELEVATION
 40
0.0
  9
$PELEVATION
 40
0.0
  9
$THICKNESS
 40
0.0
  9
$LIMCHECK
 70
     0
  9
$CHAMFERA
 40
0.5
  9
$CHAMFERB
 40
0.5
  9
$CHAMFERC
 40
1.0
  9
$CHAMFERD
 40
0.0
  9
$SKPOLY
 70
     0
  9
$TDCREATE
 40
2457917.612951389
  9
$TDUCREATE
 40
2457917.237951389
  9
$TDUPDATE
 40
2457917.612951389
  9
$TDUUPDATE
 40
2457917.237951389
  9
$TDINDWG
 40
0.0000000116
  9
$TDUSRTIMER
 40
0.0000000116
  9
$USRTIMER
 70
     1
  9
$ANGBASE
 50
0.0
  9
$ANGDIR
 70
     0
  9
$PDMODE
 70
     0
  9
$PDSIZE
 40
0.0
  9
$PLINEWID
 40
0.0
  9
$SPLFRAME
 70
     0
  9
$SPLINETYPE
 70
     6
  9
$SPLINESEGS
 70
     8
  9
$HANDSEED
  5
145
  9
$SURFTAB1
 70
     6
  9
$SURFTAB2
 70
     6
  9
$SURFTYPE
 70
     6
  9
$SURFU
 70
     6
  9
$SURFV
 70
     6
  9
$UCSBASE
  2

  9
$UCSNAME
  2

  9
$UCSORG
 10
0.0
 20
0.0
 30
0.0
  9
$UCSXDIR
 10
1.0
 20
0.0
 30
0.0
  9
$UCSYDIR
 10
0.0
 20
1.0
 30
0.0
  9
$UCSORTHOREF
  2

  9
$UCSORTHOVIEW
 70
     0
  9
$UCSORGTOP
 10
0.0
 20
0.0
 30
0.0
  9
$UCSORGBOTTOM
 10
0.0
 20
0.0
 30
0.0
  9
$UCSORGLEFT
 10
0.0
 20
0.0
 30
0.0
  9
$UCSORGRIGHT
 10
0.0
 20
0.0
 30
0.0
  9
$UCSORGFRONT
 10
0.0
 20
0.0
 30
0.0
  9
$UCSORGBACK
 10
0.0
 20
0.0
 30
0.0
  9
$PUCSBASE
  2

  9
$PUCSNAME
  2

  9
$PUCSORG
 10
0.0
 20
0.0
 30
0.0
  9
$PUCSXDIR
 10
1.0
 20
0.0
 30
0.0
  9
$PUCSYDIR
 10
0.0
 20
1.0
 30
0.0
  9
$PUCSORTHOREF
  2

  9
$PUCSORTHOVIEW
 70
     0
  9
$PUCSORGTOP
 10
0.0
 20
0.0
 30
0.0
  9
$PUCSORGBOTTOM
 10
0.0
 20
0.0
 30
0.0
  9
$PUCSORGLEFT
 10
0.0
 20
0.0
 30
0.0
  9
$PUCSORGRIGHT
 10
0.0
 20
0.0
 30
0.0
  9
$PUCSORGFRONT
 10
0.0
 20
0.0
 30
0.0
  9
$PUCSORGBACK
 10
0.0
 20
0.0
 30
0.0
  9
$USERI1
 70
     0
  9
$USERI2
 70
     0
  9
$USERI3
 70
     0
  9
$USERI4
 70
     0
  9
$USERI5
 70
     0
  9
$USERR1
 40
0.0
  9
$USERR2
 40
0.0
  9
$USERR3
 40
0.0
  9
$USERR4
 40
0.0
  9
$USERR5
 40
0.0
  9
$WORLDVIEW
 70
     1
  9
$SHADEDGE
 70
     3
  9
$SHADEDIF
 70
    70
  9
$TILEMODE
 70
     1
  9
$MAXACTVP
 70
    64
  9
$PINSBASE
 10
0.0
 20
0.0
 30
0.0
  9
$PLIMCHECK
 70
     0
  9
$PEXTMIN
 10
1.000000000000000E+20
 20
1.000000000000000E+20
 30
1.000000000000000E+20
  9
$PEXTMAX
 10
-1.000000000000000E+20
 20
-1.000000000000000E+20
 30
-1.000000000000000E+20
  9
$PLIMMIN
 10
0.0
 20
0.0
  9
$PLIMMAX
 10
12.0
 20
9.0
  9
$UNITMODE
 70
     0
  9
$VISRETAIN
 70
     1
  9
$PLINEGEN
 70
     0
  9
$PSLTSCALE
 70
     1
  9
$TREEDEPTH
 70
  3020
  9
$CMLSTYLE
  2
Standard
  9
$CMLJUST
 70
     0
  9
$CMLSCALE
 40
1.0
  9
$PROXYGRAPHICS
 70
     1
  9
$MEASUREMENT
 70
     0
  9
$CELWEIGHT
370
    -1
  9
$ENDCAPS
280
     0
  9
$JOINSTYLE
280
     0
  9
$LWDISPLAY
290
     1
  9
$INSUNITS
 70
     1
  9
$HYPERLINKBASE
  1

  9
$STYLESHEET
  1

  9
$XEDIT
290
     1
  9
$CEPSNTYPE
380
     0
  9
$PSTYLEMODE
290
     1
  9
$FINGERPRINTGUID
  2
{3600895C-ED83-FDD8-8911-68D4DB7A17AE}
  9
$VERSIONGUID
  2
{FAEB1C32-E019-11D5-929B-00C0DF256EC4}
  9
$EXTNAMES
290
     1
  9
$PSVPSCALE
 40
0.0
  9
$OLESTARTUP
290
     0
  9
$SORTENTS
280
   127
  9
$INDEXCTL
280
     0
  9
$HIDETEXT
280
     1
  9
$XCLIPFRAME
280
     2
  9
$HALOGAP
280
     0
  9
$OBSCOLOR
 70
   257
  9
$OBSLTYPE
280
     0
  9
$INTERSECTIONDISPLAY
280
     0
  9
$INTERSECTIONCOLOR
 70
   257
  9
$DIMASSOC
280
     2
  9
$PROJECTNAME
  1

  9
$CAMERADISPLAY
290
     0
  9
$LENSLENGTH
 40
50.0
  9
$CAMERAHEIGHT
 40
0.0
  9
$STEPSPERSEC
 40
2.0
  9
$STEPSIZE
 40
6.0
  9
$3DDWFPREC
 40
2.0
  9
$PSOLWIDTH
 40
0.25
  9
$PSOLHEIGHT
 40
4.0
  9
$LOFTANG1
 40
1.570796326794897
  9
$LOFTANG2
 40
1.570796326794897
  9
$LOFTMAG1
 40
0.0
  9
$LOFTMAG2
 40
0.0
  9
$LOFTPARAM
 70
     7
  9
$LOFTNORMALS
280
     1
  9
$LATITUDE
 40
37.795
  9
$LONGITUDE
 40
-122.394
  9
$NORTHDIRECTION
 40
0.0
  9
$TIMEZONE
 70
 -8000
  9
$LIGHTGLYPHDISPLAY
280
     1
  9
$TILEMODELIGHTSYNCH
280
     1
  9
$CMATERIAL
347
3C
  9
$SOLIDHIST
280
     1
  9
$SHOWHIST
280
     1
  9
$DWFFRAME
280
     2
  9
$DGNFRAME
280
     2
  9
$REALWORLDSCALE
290
     1
  9
$INTERFERECOLOR
 62
   256
  9
$CSHADOW
280
     0
  9
$SHADOWPLANELOCATION
 40
0.0
  0
ENDSEC
  0
SECTION
  2
CLASSES
  0
CLASS
  1
ACDBDICTIONARYWDFLT
  2
AcDbDictionaryWithDefault
  3
ObjectDBX Classes
 90
        0
 91
        4
280
     0
281
     0
  0
CLASS
  1
VISUALSTYLE
  2
AcDbVisualStyle
  3
ObjectDBX Classes
 90
     4095
 91
        4
280
     0
281
     0
  0
CLASS
  1
MATERIAL
  2
AcDbMaterial
  3
ObjectDBX Classes
 90
     1153
 91
        4
280
     0
281
     0
  0
CLASS
  1
SUN
  2
AcDbSun
  3
SCENEOE
 90
     1024
 91
        4
280
     0
281
     0
  0
ENDSEC
  0
SECTION
  2
TABLES
  0
TABLE
  2
VPORT
  5
8
330
0
100
AcDbSymbolTable
 70
     1
  0
VPORT
  5
29
330
8
100
AcDbSymbolTableRecord
100
AcDbViewportTableRecord
  2
*Active
 70
     0
 10
0.0
 20
0.0
 11
1.0
 21
1.0
 12
0.0
 22
0.0
 13
0.0
 23
0.0
 14
0.5
 24
0.5
 15
0.5
 25
0.5
 16
0.0
 26
0.0
 36
1.0
 17
91.00082462281999
 27
-128.4993055234307
 37
0.0
 40
256.9986110468615
 41
0.7081814508812795
 42
50.0
 43
0.0
 44
0.0
 50
0.0
 51
0.0
 71
     0
 72
   100
 73
     1
 74
     3
 75
     0
 76
     0
 77
     0
 78
     0
281
     0
 65
     1
110
0.0
120
0.0
130
0.0
111
1.0
121
0.0
131
0.0
112
0.0
122
1.0
132
0.0
 79
     0
146
0.0
 60
     3
 61
     5
292
     1
282
     1
141
0.0
142
0.0
 63
   250
361
3F
  0
ENDTAB
  0
TABLE
  2
LTYPE
  5
5
330
0
100
AcDbSymbolTable
 70
     1
  0
LTYPE
  5
14
330
5
100
AcDbSymbolTableRecord
100
AcDbLinetypeTableRecord
  2
ByBlock
 70
     0
  3

 72
    65
 73
     0
 40
0.0
  0
LTYPE
  5
15
330
5
100
AcDbSymbolTableRecord
100
AcDbLinetypeTableRecord
  2
ByLayer
 70
     0
  3

 72
    65
 73
     0
 40
0.0
  0
LTYPE
  5
16
330
5
100
AcDbSymbolTableRecord
100
AcDbLinetypeTableRecord
  2
Continuous
 70
     0
  3
Solid line
 72
    65
 73
     0
 40
0.0
  0
ENDTAB
  0
TABLE
  2
LAYER
  5
2
330
0
100
AcDbSymbolTable
 70
     2
  0
LAYER
  5
10
330
2
100
AcDbSymbolTableRecord
100
AcDbLayerTableRecord
  2
0
 70
     0
 62
     7
  6
Continuous
370
    -3
390
F
347
3E
  0
LAYER
  5
40
330
2
100
AcDbSymbolTableRecord
100
AcDbLayerTableRecord
  2
_U+30EC_U+30A4_U+30E4_U+30FC 1
 70
     0
 62
     7
  6
Continuous
370
    -3
390
F
347
3E
  0
ENDTAB
  0
TABLE
  2
STYLE
  5
3
330
0
100
AcDbSymbolTable
 70
     1
  0
STYLE
  5
11
330
3
100
AcDbSymbolTableRecord
100
AcDbTextStyleTableRecord
  2
Standard
 70
     0
 40
0.0
 41
1.0
 50
0.0
 71
     0
 42
0.2
  3
txt
  4

  0
ENDTAB
  0
TABLE
  2
VIEW
  5
6
330
0
100
AcDbSymbolTable
 70
     0
  0
ENDTAB
  0
TABLE
  2
UCS
  5
7
330
0
100
AcDbSymbolTable
 70
     0
  0
ENDTAB
  0
TABLE
  2
APPID
  5
9
330
0
100
AcDbSymbolTable
 70
     1
  0
APPID
  5
12
330
9
100
AcDbSymbolTableRecord
100
AcDbRegAppTableRecord
  2
ACAD
 70
     0
  0
ENDTAB
  0
TABLE
  2
DIMSTYLE
  5
A
330
0
100
AcDbSymbolTable
 70
     1
100
AcDbDimStyleTable
  0
DIMSTYLE
105
27
330
A
100
AcDbSymbolTableRecord
100
AcDbDimStyleTableRecord
  2
Standard
 70
     0
178
     0
340
11
  0
ENDTAB
  0
TABLE
  2
BLOCK_RECORD
  5
1
330
0
100
AcDbSymbolTable
 70
     7
  0
BLOCK_RECORD
  5
1F
330
1
100
AcDbSymbolTableRecord
100
AcDbBlockTableRecord
  2
*Model_Space
340
22
 70
     0
280
     1
281
     0
  0
BLOCK_RECORD
  5
1B
330
1
100
AcDbSymbolTableRecord
100
AcDbBlockTableRecord
  2
*Paper_Space
340
1E
 70
     0
280
     1
281
     0
  0
BLOCK_RECORD
  5
23
330
1
100
AcDbSymbolTableRecord
100
AcDbBlockTableRecord
  2
*Paper_Space0
340
26
 70
     0
280
     1
281
     0
  0
BLOCK_RECORD
  5
CD
330
1
100
AcDbSymbolTableRecord
100
AcDbBlockTableRecord
  2
block 2
340
0
102
{BLKREFS
331
CE
102
}
 70
     0
280
     1
281
     0
  0
BLOCK_RECORD
  5
F5
330
1
100
AcDbSymbolTableRecord
100
AcDbBlockTableRecord
  2
block 3
340
0
102
{BLKREFS
331
F6
102
}
 70
     0
280
     1
281
     0
  0
BLOCK_RECORD
  5
106
330
1
100
AcDbSymbolTableRecord
100
AcDbBlockTableRecord
  2
block 4
340
0
102
{BLKREFS
331
107
102
}
 70
     0
280
     1
281
     0
  0
BLOCK_RECORD
  5
11E
330
1
100
AcDbSymbolTableRecord
100
AcDbBlockTableRecord
  2
block 5
340
0
102
{BLKREFS
331
11F
102
}
 70
     0
280
     1
281
     0
  0
BLOCK_RECORD
  5
12C
330
1
100
AcDbSymbolTableRecord
100
AcDbBlockTableRecord
  2
block 6
340
0
102
{BLKREFS
331
12D
102
}
 70
     0
280
     1
281
     0
  0
BLOCK_RECORD
  5
13D
330
1
100
AcDbSymbolTableRecord
100
AcDbBlockTableRecord
  2
block 7
340
0
102
{BLKREFS
331
13E
102
}
 70
     0
280
     1
281
     0
  0
ENDTAB
  0
ENDSEC
  0
SECTION
  2
BLOCKS
  0
BLOCK
  5
20
330
1F
100
AcDbEntity
  8
0
100
AcDbBlockBegin
  2
*Model_Space
 70
     0
 10
0.0
 20
0.0
 30
0.0
  3
*Model_Space
  1

  0
ENDBLK
  5
21
330
1F
100
AcDbEntity
  8
0
100
AcDbBlockEnd
  0
BLOCK
  5
1C
330
1B
100
AcDbEntity
 67
     1
  8
0
100
AcDbBlockBegin
  2
*Paper_Space
 70
     0
 10
0.0
 20
0.0
 30
0.0
  3
*Paper_Space
  1

  0
ENDBLK
  5
1D
330
1B
100
AcDbEntity
 67
     1
  8
0
100
AcDbBlockEnd
  0
BLOCK
  5
24
330
23
100
AcDbEntity
  8
0
100
AcDbBlockBegin
  2
*Paper_Space0
 70
     0
 10
0.0
 20
0.0
 30
0.0
  3
*Paper_Space0
  1

  0
ENDBLK
  5
25
330
23
100
AcDbEntity
  8
0
100
AcDbBlockEnd
  0
BLOCK
  5
CF
330
CD
100
AcDbEntity
  8
0
100
AcDbBlockBegin
  2
block 2
 70
     0
 10
0.0
 20
0.0
 30
0.0
  3
block 2
  1

  0
POLYLINE
  5
D1
330
CD
100
AcDbEntity
  8
_U+30EC_U+30A4_U+30E4_U+30FC 1
370
     0
100
AcDb2dPolyline
 66
     1
 10
0.0
 20
0.0
 30
0.0
  0
VERTEX
  5
D2
330
D1
100
AcDbEntity
  8
_U+30EC_U+30A4_U+30E4_U+30FC 1
370
     0
100
AcDbVertex
100
AcDb2dVertex
 10
88.08144529047965
 20
-117.9151109188719
 30
0.0
  0
VERTEX
  5
D3
330
D1
100
AcDbEntity
  8
_U+30EC_U+30A4_U+30E4_U+30FC 1
370
     0
100
AcDbVertex
100
AcDb2dVertex
 10
88.08144529047965
 20
-118.2620320342366
 30
0.0
  0
VERTEX
  5
D4
330
D1
100
AcDbEntity
  8
_U+30EC_U+30A4_U+30E4_U+30FC 1
370
     0
100
AcDbVertex
100
AcDb2dVertex
 10
87.86354300103758
 20
-118.2620320342366
 30
0.0
  0
VERTEX
  5
D5
330
D1
100
AcDbEntity
  8
_U+30EC_U+30A4_U+30E4_U+30FC 1
370
     0
100
AcDbVertex
100
AcDb2dVertex
 10
87.86354300103758
 20
-117.9151109188719
 30
0.0
  0
VERTEX
  5
D6
330
D1
100
AcDbEntity
  8
_U+30EC_U+30A4_U+30E4_U+30FC 1
370
     0
100
AcDbVertex
100
AcDb2dVertex
 10
87.20776907542029
 20
-117.9151109188719
 30
0.0
  0
VERTEX
  5
D7
330
D1
100
AcDbEntity
  8
_U+30EC_U+30A4_U+30E4_U+30FC 1
370
     0
100
AcDbVertex
100
AcDb2dVertex
 10
87.20776907542029
 20
-117.6908352027822
 30
0.0
  0
VERTEX
  5
D8
330
D1
100
AcDbEntity
  8
_U+30EC_U+30A4_U+30E4_U+30FC 1
370
     0
100
AcDbVertex
100
AcDb2dVertex
 10
87.88679739556302
 20
-116.7177679829733
 30
0.0
  0
VERTEX
  5
D9
330
D1
100
AcDbEntity
  8
_U+30EC_U+30A4_U+30E4_U+30FC 1
370
     0
100
AcDbVertex
100
AcDb2dVertex
 10
88.08144529047965
 20
-116.7177679829733
 30
0.0
  0
VERTEX
  5
DA
330
D1
100
AcDbEntity
  8
_U+30EC_U+30A4_U+30E4_U+30FC 1
370
     0
100
AcDbVertex
100
AcDb2dVertex
 10
88.08144529047965
 20
-117.7161566545987
 30
0.0
  0
VERTEX
  5
DB
330
D1
100
AcDbEntity
  8
_U+30EC_U+30A4_U+30E4_U+30FC 1
370
     0
100
AcDbVertex
100
AcDb2dVertex
 10
88.28884003869169
 20
-117.7161566545987
 30
0.0
  0
VERTEX
  5
DC
330
D1
100
AcDbEntity
  8
_U+30EC_U+30A4_U+30E4_U+30FC 1
370
     0
100
AcDbVertex
100
AcDb2dVertex
 10
88.28884003869169
 20
-117.9151109188719
 30
0.0
  0
VERTEX
  5
DD
330
D1
100
AcDbEntity
  8
_U+30EC_U+30A4_U+30E4_U+30FC 1
370
     0
100
AcDbVertex
100
AcDb2dVertex
 10
88.08144529047965
 20
-117.9151109188719
 30
0.0
  0
SEQEND
  5
DE
330
D1
100
AcDbEntity
  8
_U+30EC_U+30A4_U+30E4_U+30FC 1
370
     0
  0
POLYLINE
  5
DF
330
CD
100
AcDbEntity
  8
_U+30EC_U+30A4_U+30E4_U+30FC 1
370
     0
100
AcDb2dPolyline
 66
     1
 10
0.0
 20
0.0
 30
0.0
  0
VERTEX
  5
E0
330
DF
100
AcDbEntity
  8
_U+30EC_U+30A4_U+30E4_U+30FC 1
370
     0
100
AcDbVertex
100
AcDb2dVertex
 10
87.86354300103758
 20
-117.0603827289814
 30
0.0
  0
VERTEX
  5
E1
330
DF
100
AcDbEntity
  8
_U+30EC_U+30A4_U+30E4_U+30FC 1
370
     0
100
AcDbVertex
100
AcDb2dVertex
 10
87.40672333969346
 20
-117.7161566545987
 30
0.0
  0
VERTEX
  5
E2
330
DF
100
AcDbEntity
  8
_U+30EC_U+30A4_U+30E4_U+30FC 1
370
     0
100
AcDbVertex
100
AcDb2dVertex
 10
87.86354300103758
 20
-117.7161566545987
 30
0.0
  0
VERTEX
  5
E3
330
DF
100
AcDbEntity
  8
_U+30EC_U+30A4_U+30E4_U+30FC 1
370
     0
100
AcDbVertex
100
AcDb2dVertex
 10
87.86354300103758
 20
-117.0603827289814
 30
0.0
  0
SEQEND
  5
E4
330
DF
100
AcDbEntity
  8
_U+30EC_U+30A4_U+30E4_U+30FC 1
370
     0
  0
HATCH
  5
E5
330
CD
100
AcDbEntity
  8
_U+30EC_U+30A4_U+30E4_U+30FC 1
 62
     7
420
 16777215
100
AcDbHatch
 10
0.0
 20
0.0
 30
0.0
210
0.0
220
0.0
230
1.0
  2
SOLID
 70
     1
 71
     0
 91
        2
 92
        1
 93
       11
 72
     1
 10
88.08144529047965
 20
-117.9151109188719
 11
88.08144529047965
 21
-118.2620320342366
 72
     1
 10
88.08144529047965
 20
-118.2620320342366
 11
87.86354300103758
 21
-118.2620320342366
 72
     1
 10
87.86354300103758
 20
-118.2620320342366
 11
87.86354300103758
 21
-117.9151109188719
 72
     1
 10
87.86354300103758
 20
-117.9151109188719
 11
87.20776907542029
 21
-117.9151109188719
 72
     1
 10
87.20776907542029
 20
-117.9151109188719
 11
87.20776907542029
 21
-117.6908352027822
 72
     1
 10
87.20776907542029
 20
-117.6908352027822
 11
87.88679739556302
 21
-116.7177679829733
 72
     1
 10
87.88679739556302
 20
-116.7177679829733
 11
88.08144529047965
 21
-116.7177679829733
 72
     1
 10
88.08144529047965
 20
-116.7177679829733
 11
88.08144529047965
 21
-117.7161566545987
 72
     1
 10
88.08144529047965
 20
-117.7161566545987
 11
88.28884003869169
 21
-117.7161566545987
 72
     1
 10
88.28884003869169
 20
-117.7161566545987
 11
88.28884003869169
 21
-117.9151109188719
 72
     1
 10
88.28884003869169
 20
-117.9151109188719
 11
88.08144529047965
 21
-117.9151109188719
 97
        0
 92
        1
 93
        3
 72
     1
 10
87.86354300103758
 20
-117.0603827289814
 11
87.40672333969346
 21
-117.7161566545987
 72
     1
 10
87.40672333969346
 20
-117.7161566545987
 11
87.86354300103758
 21
-117.7161566545987
 72
     1
 10
87.86354300103758
 20
-117.7161566545987
 11
87.86354300103758
 21
-117.0603827289814
 97
        0
 75
     2
 76
     1
 98
        0
  0
SPLINE
  5
E6
330
CD
100
AcDbEntity
  8
_U+30EC_U+30A4_U+30E4_U+30FC 1
370
     0
100
AcDbSpline
210
0.0
220
0.0
230
1.0
 70
    11
 71
     3
 72
    29
 73
    25
 74
     0
 42
0.0000000001
 43
0.0000000001
 12
1.0
 22
0.0
 32
0.0
 13
1.0
 23
0.0
 33
0.0
 40
0.0
 40
0.0
 40
0.0
 40
0.0
 40
1.0
 40
1.0
 40
1.0
 40
2.0
 40
2.0
 40
2.0
 40
3.0
 40
3.0
 40
3.0
 40
4.0
 40
4.0
 40
4.0
 40
5.0
 40
5.0
 40
5.0
 40
6.0
 40
6.0
 40
6.0
 40
7.0
 40
7.0
 40
7.0
 40
8.0
 40
8.0
 40
8.0
 40
8.0
 10
89.323918977235
 20
-118.0842651071977
 30
0.0
 10
89.21608748854668
 20
-118.2937269127009
 30
0.0
 10
89.04262693086434
 20
-118.312847192644
 30
0.0
 10
88.9261827034629
 20
-118.312847192644
 30
0.0
 10
88.76546899907599
 20
-118.312847192644
 30
0.0
 10
88.62370331985797
 20
-118.2663384035931
 30
0.0
 10
88.5284464296908
 20
-118.0842651071977
 30
0.0
 10
88.42492131035905
 20
-117.8896172122811
 30
0.0
 10
88.40580103041592
 20
-117.6527668976701
 30
0.0
 10
88.40580103041592
 20
-117.4898138812178
 30
0.0
 10
88.40580103041592
 20
-117.3459811447086
 30
0.0
 10
88.42268199829364
 20
-117.0943169195111
 30
0.0
 10
88.5284464296908
 20
-116.895362655238
 30
0.0
 10
88.63645017315339
 20
-116.6922742763825
 30
0.0
 10
88.7971638775403
 20
-116.6690198818571
 30
0.0
 10
88.9261827034629
 20
-116.6690198818571
 30
0.0
 10
89.08482935055866
 20
-116.6690198818571
 30
0.0
 10
89.22866208706783
 20
-116.7134616136168
 30
0.0
 10
89.323918977235
 20
-116.895362655238
 30
0.0
 10
89.42330998198446
 20
-117.0879434928634
 30
0.0
 10
89.4465643765099
 20
-117.3163533235355
 30
0.0
 10
89.4465643765099
 20
-117.4898138812178
 30
0.0
 10
89.4465643765099
 20
-117.661207381609
 30
0.0
 10
89.42554929404987
 20
-117.8918565243465
 30
0.0
 10
89.323918977235
 20
-118.0842651071977
 30
0.0
  0
SPLINE
  5
E7
330
CD
100
AcDbEntity
  8
_U+30EC_U+30A4_U+30E4_U+30FC 1
370
     0
100
AcDbSpline
210
0.0
220
0.0
230
1.0
 70
    11
 71
     3
 72
    17
 73
    13
 74
     0
 42
0.0000000001
 43
0.0000000001
 12
1.0
 22
0.0
 32
0.0
 13
1.0
 23
0.0
 33
0.0
 40
0.0
 40
0.0
 40
0.0
 40
0.0
 40
1.0
 40
1.0
 40
1.0
 40
2.0
 40
2.0
 40
2.0
 40
3.0
 40
3.0
 40
3.0
 40
4.0
 40
4.0
 40
4.0
 40
4.0
 10
88.9261827034629
 20
-116.8616007194825
 30
0.0
 10
88.67658553555655
 20
-116.8616007194825
 30
0.0
 10
88.63007674650568
 20
-117.1451320779186
 30
0.0
 10
88.63007674650568
 20
-117.4898138812178
 30
0.0
 10
88.63007674650568
 20
-117.8093464874748
 30
0.0
 10
88.66607799432654
 20
-118.1181992977274
 30
0.0
 10
88.9261827034629
 20
-118.1181992977274
 30
0.0
 10
89.1737128140781
 20
-118.1181992977274
 30
0.0
 10
89.22246091519439
 20
-117.8367349965825
 30
0.0
 10
89.22246091519439
 20
-117.4898138812178
 30
0.0
 10
89.22246091519439
 20
-117.1704535297352
 30
0.0
 10
89.18422035530811
 20
-116.8616007194825
 30
0.0
 10
88.9261827034629
 20
-116.8616007194825
 30
0.0
  0
HATCH
  5
E8
330
CD
100
AcDbEntity
  8
_U+30EC_U+30A4_U+30E4_U+30FC 1
 62
     7
420
 16777215
100
AcDbHatch
 10
0.0
 20
0.0
 30
0.0
210
0.0
220
0.0
230
1.0
  2
SOLID
 70
     1
 71
     0
 91
        2
 92
        1
 93
        1
 72
     4
 94
        3
 73
     0
 74
     1
 95
       29
 96
       25
 40
0.0
 40
0.0
 40
0.0
 40
0.0
 40
1.0
 40
1.0
 40
1.0
 40
2.0
 40
2.0
 40
2.0
 40
3.0
 40
3.0
 40
3.0
 40
4.0
 40
4.0
 40
4.0
 40
5.0
 40
5.0
 40
5.0
 40
6.0
 40
6.0
 40
6.0
 40
7.0
 40
7.0
 40
7.0
 40
8.0
 40
8.0
 40
8.0
 40
8.0
 10
89.323918977235
 20
-118.0842651071977
 10
89.21608748854668
 20
-118.2937269127009
 10
89.04262693086434
 20
-118.312847192644
 10
88.9261827034629
 20
-118.312847192644
 10
88.76546899907599
 20
-118.312847192644
 10
88.62370331985797
 20
-118.2663384035931
 10
88.5284464296908
 20
-118.0842651071977
 10
88.42492131035905
 20
-117.8896172122811
 10
88.40580103041592
 20
-117.6527668976701
 10
88.40580103041592
 20
-117.4898138812178
 10
88.40580103041592
 20
-117.3459811447086
 10
88.42268199829364
 20
-117.0943169195111
 10
88.5284464296908
 20
-116.895362655238
 10
88.63645017315339
 20
-116.6922742763825
 10
88.7971638775403
 20
-116.6690198818571
 10
88.9261827034629
 20
-116.6690198818571
 10
89.08482935055866
 20
-116.6690198818571
 10
89.22866208706783
 20
-116.7134616136168
 10
89.323918977235
 20
-116.895362655238
 10
89.42330998198446
 20
-117.0879434928634
 10
89.4465643765099
 20
-117.3163533235355
 10
89.4465643765099
 20
-117.4898138812178
 10
89.4465643765099
 20
-117.661207381609
 10
89.42554929404987
 20
-117.8918565243465
 10
89.323918977235
 20
-118.0842651071977
 97
        0
 97
        0
 92
        1
 93
        1
 72
     4
 94
        3
 73
     0
 74
     1
 95
       17
 96
       13
 40
0.0
 40
0.0
 40
0.0
 40
0.0
 40
1.0
 40
1.0
 40
1.0
 40
2.0
 40
2.0
 40
2.0
 40
3.0
 40
3.0
 40
3.0
 40
4.0
 40
4.0
 40
4.0
 40
4.0
 10
88.9261827034629
 20
-116.8616007194825
 10
88.67658553555655
 20
-116.8616007194825
 10
88.63007674650568
 20
-117.1451320779186
 10
88.63007674650568
 20
-117.4898138812178
 10
88.63007674650568
 20
-117.8093464874748
 10
88.66607799432654
 20
-118.1181992977274
 10
88.9261827034629
 20
-118.1181992977274
 10
89.1737128140781
 20
-118.1181992977274
 10
89.22246091519439
 20
-117.8367349965825
 10
89.22246091519439
 20
-117.4898138812178
 10
89.22246091519439
 20
-117.1704535297352
 10
89.18422035530811
 20
-116.8616007194825
 10
88.9261827034629
 20
-116.8616007194825
 97
        0
 97
        0
 75
     2
 76
     1
 98
        0
  0
ENDBLK
  5
D0
330
CD
100
AcDbEntity
  8
0
100
AcDbBlockEnd
  0
BLOCK
  5
F7
330
F5
100
AcDbEntity
  8
0
100
AcDbBlockBegin
  2
block 3
 70
     0
 10
0.0
 20
0.0
 30
0.0
  3
block 3
  1

  0
SPLINE
  5
F9
330
F5
100
AcDbEntity
  8
_U+30EC_U+30A4_U+30E4_U+30FC 1
370
     0
100
AcDbSpline
210
0.0
220
0.0
230
1.0
 70
    11
 71
     3
 72
    26
 73
    22
 74
     0
 42
0.0000000001
 43
0.0000000001
 12
1.0
 22
0.0
 32
0.0
 13
1.0
 23
0.0
 33
0.0
 40
0.0
 40
0.0
 40
0.0
 40
0.0
 40
1.0
 40
1.0
 40
1.0
 40
2.0
 40
2.0
 40
2.0
 40
3.0
 40
3.0
 40
3.0
 40
4.0
 40
4.0
 40
4.0
 40
5.0
 40
5.0
 40
5.0
 40
6.0
 40
6.0
 40
6.0
 40
7.0
 40
7.0
 40
7.0
 40
7.0
 10
72.70098875135601
 20
-140.2622395482678
 30
0.0
 10
72.70098875135601
 20
-140.2622395482678
 30
0.0
 10
72.70098875135601
 20
-139.1577419356967
 30
0.0
 10
72.70098875135601
 20
-139.1577419356967
 30
0.0
 10
72.70098875135601
 20
-139.1577419356967
 30
0.0
 10
72.37094860386907
 20
-139.1577419356967
 30
0.0
 10
72.37094860386907
 20
-139.1577419356967
 30
0.0
 10
72.37094860386907
 20
-139.1577419356967
 30
0.0
 10
72.37094860386907
 20
-139.0099473393795
 30
0.0
 10
72.37094860386907
 20
-139.0099473393795
 30
0.0
 10
72.70305580864715
 20
-138.9951334287929
 30
0.0
 10
72.74956459769803
 20
-138.8321804123406
 30
0.0
 10
72.77919241887118
 20
-138.7178032422303
 30
0.0
 10
72.77919241887118
 20
-138.7178032422303
 30
0.0
 10
72.92526446744577
 20
-138.7178032422303
 30
0.0
 10
72.92526446744577
 20
-138.7178032422303
 30
0.0
 10
72.92526446744577
 20
-138.7178032422303
 30
0.0
 10
72.92526446744577
 20
-140.2622395482678
 30
0.0
 10
72.92526446744577
 20
-140.2622395482678
 30
0.0
 10
72.92526446744577
 20
-140.2622395482678
 30
0.0
 10
72.70098875135601
 20
-140.2622395482678
 30
0.0
 10
72.70098875135601
 20
-140.2622395482678
 30
0.0
  0
HATCH
  5
FA
330
F5
100
AcDbEntity
  8
_U+30EC_U+30A4_U+30E4_U+30FC 1
 62
     7
420
 16777215
100
AcDbHatch
 10
0.0
 20
0.0
 30
0.0
210
0.0
220
0.0
230
1.0
  2
SOLID
 70
     1
 71
     0
 91
        1
 92
        1
 93
        1
 72
     4
 94
        3
 73
     0
 74
     1
 95
       26
 96
       22
 40
0.0
 40
0.0
 40
0.0
 40
0.0
 40
1.0
 40
1.0
 40
1.0
 40
2.0
 40
2.0
 40
2.0
 40
3.0
 40
3.0
 40
3.0
 40
4.0
 40
4.0
 40
4.0
 40
5.0
 40
5.0
 40
5.0
 40
6.0
 40
6.0
 40
6.0
 40
7.0
 40
7.0
 40
7.0
 40
7.0
 10
72.70098875135601
 20
-140.2622395482678
 10
72.70098875135601
 20
-140.2622395482678
 10
72.70098875135601
 20
-139.1577419356967
 10
72.70098875135601
 20
-139.1577419356967
 10
72.70098875135601
 20
-139.1577419356967
 10
72.37094860386907
 20
-139.1577419356967
 10
72.37094860386907
 20
-139.1577419356967
 10
72.37094860386907
 20
-139.1577419356967
 10
72.37094860386907
 20
-139.0099473393795
 10
72.37094860386907
 20
-139.0099473393795
 10
72.70305580864715
 20
-138.9951334287929
 10
72.74956459769803
 20
-138.8321804123406
 10
72.77919241887118
 20
-138.7178032422303
 10
72.77919241887118
 20
-138.7178032422303
 10
72.92526446744577
 20
-138.7178032422303
 10
72.92526446744577
 20
-138.7178032422303
 10
72.92526446744577
 20
-138.7178032422303
 10
72.92526446744577
 20
-140.2622395482678
 10
72.92526446744577
 20
-140.2622395482678
 10
72.92526446744577
 20
-140.2622395482678
 10
72.70098875135601
 20
-140.2622395482678
 10
72.70098875135601
 20
-140.2622395482678
 97
        0
 97
        0
 75
     2
 76
     1
 98
        0
  0
SPLINE
  5
FB
330
F5
100
AcDbEntity
  8
_U+30EC_U+30A4_U+30E4_U+30FC 1
370
     0
100
AcDbSpline
210
0.0
220
0.0
230
1.0
 70
    11
 71
     3
 72
    29
 73
    25
 74
     0
 42
0.0000000001
 43
0.0000000001
 12
1.0
 22
0.0
 32
0.0
 13
1.0
 23
0.0
 33
0.0
 40
0.0
 40
0.0
 40
0.0
 40
0.0
 40
1.0
 40
1.0
 40
1.0
 40
2.0
 40
2.0
 40
2.0
 40
3.0
 40
3.0
 40
3.0
 40
4.0
 40
4.0
 40
4.0
 40
5.0
 40
5.0
 40
5.0
 40
6.0
 40
6.0
 40
6.0
 40
7.0
 40
7.0
 40
7.0
 40
8.0
 40
8.0
 40
8.0
 40
8.0
 10
74.32414548923147
 20
-140.0844726212289
 30
0.0
 10
74.21631400054315
 20
-140.2939344267321
 30
0.0
 10
74.04285344286082
 20
-140.3128824519009
 30
0.0
 10
73.92640921545937
 20
-140.3128824519009
 30
0.0
 10
73.76569551107247
 20
-140.3128824519009
 30
0.0
 10
73.62392983185444
 20
-140.2663736628501
 30
0.0
 10
73.52867294168728
 20
-140.0844726212289
 30
0.0
 10
73.42514782235553
 20
-139.8898247263123
 30
0.0
 10
73.40602754241239
 20
-139.6528021569271
 30
0.0
 10
73.40602754241239
 20
-139.4898491404748
 30
0.0
 10
73.40602754241239
 20
-139.3461886587398
 30
0.0
 10
73.42290851029011
 20
-139.0943521787681
 30
0.0
 10
73.52867294168728
 20
-138.8955701692692
 30
0.0
 10
73.63667668514987
 20
-138.6923095356394
 30
0.0
 10
73.79739038953677
 20
-138.6692273958882
 30
0.0
 10
73.92640921545937
 20
-138.6692273958882
 30
0.0
 10
74.08505586255512
 20
-138.6692273958882
 30
0.0
 10
74.2288885990643
 20
-138.713669127648
 30
0.0
 10
74.32414548923147
 20
-138.8955701692692
 30
0.0
 10
74.42353649398092
 20
-139.0881510068946
 30
0.0
 10
74.44679088850636
 20
-139.3165608375667
 30
0.0
 10
74.44679088850636
 20
-139.4898491404748
 30
0.0
 10
74.44679088850636
 20
-139.6614148956402
 30
0.0
 10
74.42577580604633
 20
-139.8918917836034
 30
0.0
 10
74.32414548923147
 20
-140.0844726212289
 30
0.0
  0
SPLINE
  5
FC
330
F5
100
AcDbEntity
  8
_U+30EC_U+30A4_U+30E4_U+30FC 1
370
     0
100
AcDbSpline
210
0.0
220
0.0
230
1.0
 70
    11
 71
     3
 72
    17
 73
    13
 74
     0
 42
0.0000000001
 43
0.0000000001
 12
1.0
 22
0.0
 32
0.0
 13
1.0
 23
0.0
 33
0.0
 40
0.0
 40
0.0
 40
0.0
 40
0.0
 40
1.0
 40
1.0
 40
1.0
 40
2.0
 40
2.0
 40
2.0
 40
3.0
 40
3.0
 40
3.0
 40
4.0
 40
4.0
 40
4.0
 40
4.0
 10
73.92640921545937
 20
-138.8618082335137
 30
0.0
 10
73.67681204755303
 20
-138.8618082335137
 30
0.0
 10
73.63030325850215
 20
-139.1453395919498
 30
0.0
 10
73.63030325850215
 20
-139.4898491404748
 30
0.0
 10
73.63030325850215
 20
-139.8095540015059
 30
0.0
 10
73.66630450632302
 20
-140.1182345569843
 30
0.0
 10
73.92640921545937
 20
-140.1182345569843
 30
0.0
 10
74.17393932607457
 20
-140.1182345569843
 30
0.0
 10
74.22268742719086
 20
-139.8367702558394
 30
0.0
 10
74.22268742719086
 20
-139.4898491404748
 30
0.0
 10
74.22268742719086
 20
-139.1704887889921
 30
0.0
 10
74.18444686730459
 20
-138.8618082335137
 30
0.0
 10
73.92640921545937
 20
-138.8618082335137
 30
0.0
  0
HATCH
  5
FD
330
F5
100
AcDbEntity
  8
_U+30EC_U+30A4_U+30E4_U+30FC 1
 62
     7
420
 16777215
100
AcDbHatch
 10
0.0
 20
0.0
 30
0.0
210
0.0
220
0.0
230
1.0
  2
SOLID
 70
     1
 71
     0
 91
        2
 92
        1
 93
        1
 72
     4
 94
        3
 73
     0
 74
     1
 95
       29
 96
       25
 40
0.0
 40
0.0
 40
0.0
 40
0.0
 40
1.0
 40
1.0
 40
1.0
 40
2.0
 40
2.0
 40
2.0
 40
3.0
 40
3.0
 40
3.0
 40
4.0
 40
4.0
 40
4.0
 40
5.0
 40
5.0
 40
5.0
 40
6.0
 40
6.0
 40
6.0
 40
7.0
 40
7.0
 40
7.0
 40
8.0
 40
8.0
 40
8.0
 40
8.0
 10
74.32414548923147
 20
-140.0844726212289
 10
74.21631400054315
 20
-140.2939344267321
 10
74.04285344286082
 20
-140.3128824519009
 10
73.92640921545937
 20
-140.3128824519009
 10
73.76569551107247
 20
-140.3128824519009
 10
73.62392983185444
 20
-140.2663736628501
 10
73.52867294168728
 20
-140.0844726212289
 10
73.42514782235553
 20
-139.8898247263123
 10
73.40602754241239
 20
-139.6528021569271
 10
73.40602754241239
 20
-139.4898491404748
 10
73.40602754241239
 20
-139.3461886587398
 10
73.42290851029011
 20
-139.0943521787681
 10
73.52867294168728
 20
-138.8955701692692
 10
73.63667668514987
 20
-138.6923095356394
 10
73.79739038953677
 20
-138.6692273958882
 10
73.92640921545937
 20
-138.6692273958882
 10
74.08505586255512
 20
-138.6692273958882
 10
74.2288885990643
 20
-138.713669127648
 10
74.32414548923147
 20
-138.8955701692692
 10
74.42353649398092
 20
-139.0881510068946
 10
74.44679088850636
 20
-139.3165608375667
 10
74.44679088850636
 20
-139.4898491404748
 10
74.44679088850636
 20
-139.6614148956402
 10
74.42577580604633
 20
-139.8918917836034
 10
74.32414548923147
 20
-140.0844726212289
 97
        0
 97
        0
 92
        1
 93
        1
 72
     4
 94
        3
 73
     0
 74
     1
 95
       17
 96
       13
 40
0.0
 40
0.0
 40
0.0
 40
0.0
 40
1.0
 40
1.0
 40
1.0
 40
2.0
 40
2.0
 40
2.0
 40
3.0
 40
3.0
 40
3.0
 40
4.0
 40
4.0
 40
4.0
 40
4.0
 10
73.92640921545937
 20
-138.8618082335137
 10
73.67681204755303
 20
-138.8618082335137
 10
73.63030325850215
 20
-139.1453395919498
 10
73.63030325850215
 20
-139.4898491404748
 10
73.63030325850215
 20
-139.8095540015059
 10
73.66630450632302
 20
-140.1182345569843
 10
73.92640921545937
 20
-140.1182345569843
 10
74.17393932607457
 20
-140.1182345569843
 10
74.22268742719086
 20
-139.8367702558394
 10
74.22268742719086
 20
-139.4898491404748
 10
74.22268742719086
 20
-139.1704887889921
 10
74.18444686730459
 20
-138.8618082335137
 10
73.92640921545937
 20
-138.8618082335137
 97
        0
 97
        0
 75
     2
 76
     1
 98
        0
  0
ENDBLK
  5
F8
330
F5
100
AcDbEntity
  8
0
100
AcDbBlockEnd
  0
BLOCK
  5
108
330
106
100
AcDbEntity
  8
0
100
AcDbBlockBegin
  2
block 4
 70
     0
 10
0.0
 20
0.0
 30
0.0
  3
block 4
  1

  0
SPLINE
  5
10A
330
106
100
AcDbEntity
  8
_U+30EC_U+30A4_U+30E4_U+30FC 1
370
     0
100
AcDbSpline
210
0.0
220
0.0
230
1.0
 70
    11
 71
     3
 72
    26
 73
    22
 74
     0
 42
0.0000000001
 43
0.0000000001
 12
1.0
 22
0.0
 32
0.0
 13
1.0
 23
0.0
 33
0.0
 40
0.0
 40
0.0
 40
0.0
 40
0.0
 40
1.0
 40
1.0
 40
1.0
 40
2.0
 40
2.0
 40
2.0
 40
3.0
 40
3.0
 40
3.0
 40
4.0
 40
4.0
 40
4.0
 40
5.0
 40
5.0
 40
5.0
 40
6.0
 40
6.0
 40
6.0
 40
7.0
 40
7.0
 40
7.0
 40
7.0
 10
85.20117321003652
 20
-140.2622395482678
 30
0.0
 10
85.20117321003652
 20
-140.2622395482678
 30
0.0
 10
85.20117321003652
 20
-139.1577419356967
 30
0.0
 10
85.20117321003652
 20
-139.1577419356967
 30
0.0
 10
85.20117321003652
 20
-139.1577419356967
 30
0.0
 10
84.87113306254957
 20
-139.1577419356967
 30
0.0
 10
84.87113306254957
 20
-139.1577419356967
 30
0.0
 10
84.87113306254957
 20
-139.1577419356967
 30
0.0
 10
84.87113306254957
 20
-139.0099473393795
 30
0.0
 10
84.87113306254957
 20
-139.0099473393795
 30
0.0
 10
85.20324026732767
 20
-138.9951334287929
 30
0.0
 10
85.24974905637853
 20
-138.8321804123406
 30
0.0
 10
85.27937687755168
 20
-138.7178032422303
 30
0.0
 10
85.27937687755168
 20
-138.7178032422303
 30
0.0
 10
85.42544892612628
 20
-138.7178032422303
 30
0.0
 10
85.42544892612628
 20
-138.7178032422303
 30
0.0
 10
85.42544892612628
 20
-138.7178032422303
 30
0.0
 10
85.42544892612628
 20
-140.2622395482678
 30
0.0
 10
85.42544892612628
 20
-140.2622395482678
 30
0.0
 10
85.42544892612628
 20
-140.2622395482678
 30
0.0
 10
85.20117321003652
 20
-140.2622395482678
 30
0.0
 10
85.20117321003652
 20
-140.2622395482678
 30
0.0
  0
HATCH
  5
10B
330
106
100
AcDbEntity
  8
_U+30EC_U+30A4_U+30E4_U+30FC 1
 62
     7
420
 16777215
100
AcDbHatch
 10
0.0
 20
0.0
 30
0.0
210
0.0
220
0.0
230
1.0
  2
SOLID
 70
     1
 71
     0
 91
        1
 92
        1
 93
        1
 72
     4
 94
        3
 73
     0
 74
     1
 95
       26
 96
       22
 40
0.0
 40
0.0
 40
0.0
 40
0.0
 40
1.0
 40
1.0
 40
1.0
 40
2.0
 40
2.0
 40
2.0
 40
3.0
 40
3.0
 40
3.0
 40
4.0
 40
4.0
 40
4.0
 40
5.0
 40
5.0
 40
5.0
 40
6.0
 40
6.0
 40
6.0
 40
7.0
 40
7.0
 40
7.0
 40
7.0
 10
85.20117321003652
 20
-140.2622395482678
 10
85.20117321003652
 20
-140.2622395482678
 10
85.20117321003652
 20
-139.1577419356967
 10
85.20117321003652
 20
-139.1577419356967
 10
85.20117321003652
 20
-139.1577419356967
 10
84.87113306254957
 20
-139.1577419356967
 10
84.87113306254957
 20
-139.1577419356967
 10
84.87113306254957
 20
-139.1577419356967
 10
84.87113306254957
 20
-139.0099473393795
 10
84.87113306254957
 20
-139.0099473393795
 10
85.20324026732767
 20
-138.9951334287929
 10
85.24974905637853
 20
-138.8321804123406
 10
85.27937687755168
 20
-138.7178032422303
 10
85.27937687755168
 20
-138.7178032422303
 10
85.42544892612628
 20
-138.7178032422303
 10
85.42544892612628
 20
-138.7178032422303
 10
85.42544892612628
 20
-138.7178032422303
 10
85.42544892612628
 20
-140.2622395482678
 10
85.42544892612628
 20
-140.2622395482678
 10
85.42544892612628
 20
-140.2622395482678
 10
85.20117321003652
 20
-140.2622395482678
 10
85.20117321003652
 20
-140.2622395482678
 97
        0
 97
        0
 75
     2
 76
     1
 98
        0
  0
SPLINE
  5
10C
330
106
100
AcDbEntity
  8
_U+30EC_U+30A4_U+30E4_U+30FC 1
370
     0
100
AcDbSpline
210
0.0
220
0.0
230
1.0
 70
    11
 71
     3
 72
    53
 73
    49
 74
     0
 42
0.0000000001
 43
0.0000000001
 12
1.0
 22
0.0
 32
0.0
 13
1.0
 23
0.0
 33
0.0
 40
0.0
 40
0.0
 40
0.0
 40
0.0
 40
1.0
 40
1.0
 40
1.0
 40
2.0
 40
2.0
 40
2.0
 40
3.0
 40
3.0
 40
3.0
 40
4.0
 40
4.0
 40
4.0
 40
5.0
 40
5.0
 40
5.0
 40
6.0
 40
6.0
 40
6.0
 40
7.0
 40
7.0
 40
7.0
 40
8.0
 40
8.0
 40
8.0
 40
9.0
 40
9.0
 40
9.0
 40
10.0
 40
10.0
 40
10.0
 40
11.0
 40
11.0
 40
11.0
 40
12.0
 40
12.0
 40
12.0
 40
13.0
 40
13.0
 40
13.0
 40
14.0
 40
14.0
 40
14.0
 40
15.0
 40
15.0
 40
15.0
 40
16.0
 40
16.0
 40
16.0
 40
16.0
 10
86.40764564897101
 20
-140.3128824519009
 30
0.0
 10
86.32926972668157
 20
-140.3128824519009
 30
0.0
 10
86.22781166464097
 20
-140.2960014840232
 30
0.0
 10
86.12618134782609
 20
-140.2326117270946
 30
0.0
 10
85.95272079014377
 20
-140.1223686715666
 30
0.0
 10
85.93153345290948
 20
-139.9914550431271
 30
0.0
 10
85.91258542774061
 20
-139.8836235544388
 30
0.0
 10
85.91258542774061
 20
-139.8836235544388
 30
0.0
 10
86.13462183176496
 20
-139.8836235544388
 30
0.0
 10
86.13462183176496
 20
-139.8836235544388
 30
0.0
 10
86.18974335952896
 20
-140.0824055639377
 30
0.0
 10
86.31669512816042
 20
-140.1120333851109
 30
0.0
 10
86.40971270626216
 20
-140.1120333851109
 30
0.0
 10
86.54923907341478
 20
-140.1120333851109
 30
0.0
 10
86.70168454863709
 20
-140.0124701255872
 30
0.0
 10
86.70168454863709
 20
-139.7799261803328
 30
0.0
 10
86.70168454863709
 20
-139.5239555857787
 30
0.0
 10
86.52185056430704
 20
-139.4540201474282
 30
0.0
 10
86.4012722223233
 20
-139.4540201474282
 30
0.0
 10
86.36957734385899
 20
-139.4540201474282
 30
0.0
 10
86.22781166464097
 20
-139.4540201474282
 30
0.0
 10
86.13892820112152
 20
-139.583211228125
 30
0.0
 10
86.13892820112152
 20
-139.583211228125
 30
0.0
 10
85.96340058614804
 20
-139.5639186934076
 30
0.0
 10
85.96340058614804
 20
-139.5639186934076
 30
0.0
 10
85.96340058614804
 20
-139.5639186934076
 30
0.0
 10
86.08397892813178
 20
-138.7178032422303
 30
0.0
 10
86.08397892813178
 20
-138.7178032422303
 30
0.0
 10
86.08397892813178
 20
-138.7178032422303
 30
0.0
 10
86.86239825302398
 20
-138.7178032422303
 30
0.0
 10
86.86239825302398
 20
-138.7178032422303
 30
0.0
 10
86.86239825302398
 20
-138.7178032422303
 30
0.0
 10
86.86239825302398
 20
-138.9124511371469
 30
0.0
 10
86.86239825302398
 20
-138.9124511371469
 30
0.0
 10
86.86239825302398
 20
-138.9124511371469
 30
0.0
 10
86.24675968980983
 20
-138.9124511371469
 30
0.0
 10
86.24675968980983
 20
-138.9124511371469
 30
0.0
 10
86.24675968980983
 20
-138.9124511371469
 30
0.0
 10
86.18130287559009
 20
-139.3355088627356
 30
0.0
 10
86.18130287559009
 20
-139.3355088627356
 30
0.0
 10
86.24262557522754
 20
-139.3017469269801
 30
0.0
 10
86.32513561209927
 20
-139.2614393098027
 30
0.0
 10
86.4434746420176
 20
-139.2614393098027
 30
0.0
 10
86.69737817928052
 20
-139.2614393098027
 30
0.0
 10
86.93440074866571
 20
-139.4478189755547
 30
0.0
 10
86.93440074866571
 20
-139.7606336456154
 30
0.0
 10
86.93440074866571
 20
-140.0782714493554
 30
0.0
 10
86.71012503257595
 20
-140.3128824519009
 30
0.0
 10
86.40764564897101
 20
-140.3128824519009
 30
0.0
  0
HATCH
  5
10D
330
106
100
AcDbEntity
  8
_U+30EC_U+30A4_U+30E4_U+30FC 1
 62
     7
420
 16777215
100
AcDbHatch
 10
0.0
 20
0.0
 30
0.0
210
0.0
220
0.0
230
1.0
  2
SOLID
 70
     1
 71
     0
 91
        1
 92
        1
 93
        1
 72
     4
 94
        3
 73
     0
 74
     1
 95
       53
 96
       49
 40
0.0
 40
0.0
 40
0.0
 40
0.0
 40
1.0
 40
1.0
 40
1.0
 40
2.0
 40
2.0
 40
2.0
 40
3.0
 40
3.0
 40
3.0
 40
4.0
 40
4.0
 40
4.0
 40
5.0
 40
5.0
 40
5.0
 40
6.0
 40
6.0
 40
6.0
 40
7.0
 40
7.0
 40
7.0
 40
8.0
 40
8.0
 40
8.0
 40
9.0
 40
9.0
 40
9.0
 40
10.0
 40
10.0
 40
10.0
 40
11.0
 40
11.0
 40
11.0
 40
12.0
 40
12.0
 40
12.0
 40
13.0
 40
13.0
 40
13.0
 40
14.0
 40
14.0
 40
14.0
 40
15.0
 40
15.0
 40
15.0
 40
16.0
 40
16.0
 40
16.0
 40
16.0
 10
86.40764564897101
 20
-140.3128824519009
 10
86.32926972668157
 20
-140.3128824519009
 10
86.22781166464097
 20
-140.2960014840232
 10
86.12618134782609
 20
-140.2326117270946
 10
85.95272079014377
 20
-140.1223686715666
 10
85.93153345290948
 20
-139.9914550431271
 10
85.91258542774061
 20
-139.8836235544388
 10
85.91258542774061
 20
-139.8836235544388
 10
86.13462183176496
 20
-139.8836235544388
 10
86.13462183176496
 20
-139.8836235544388
 10
86.18974335952896
 20
-140.0824055639377
 10
86.31669512816042
 20
-140.1120333851109
 10
86.40971270626216
 20
-140.1120333851109
 10
86.54923907341478
 20
-140.1120333851109
 10
86.70168454863709
 20
-140.0124701255872
 10
86.70168454863709
 20
-139.7799261803328
 10
86.70168454863709
 20
-139.5239555857787
 10
86.52185056430704
 20
-139.4540201474282
 10
86.4012722223233
 20
-139.4540201474282
 10
86.36957734385899
 20
-139.4540201474282
 10
86.22781166464097
 20
-139.4540201474282
 10
86.13892820112152
 20
-139.583211228125
 10
86.13892820112152
 20
-139.583211228125
 10
85.96340058614804
 20
-139.5639186934076
 10
85.96340058614804
 20
-139.5639186934076
 10
85.96340058614804
 20
-139.5639186934076
 10
86.08397892813178
 20
-138.7178032422303
 10
86.08397892813178
 20
-138.7178032422303
 10
86.08397892813178
 20
-138.7178032422303
 10
86.86239825302398
 20
-138.7178032422303
 10
86.86239825302398
 20
-138.7178032422303
 10
86.86239825302398
 20
-138.7178032422303
 10
86.86239825302398
 20
-138.9124511371469
 10
86.86239825302398
 20
-138.9124511371469
 10
86.86239825302398
 20
-138.9124511371469
 10
86.24675968980983
 20
-138.9124511371469
 10
86.24675968980983
 20
-138.9124511371469
 10
86.24675968980983
 20
-138.9124511371469
 10
86.18130287559009
 20
-139.3355088627356
 10
86.18130287559009
 20
-139.3355088627356
 10
86.24262557522754
 20
-139.3017469269801
 10
86.32513561209927
 20
-139.2614393098027
 10
86.4434746420176
 20
-139.2614393098027
 10
86.69737817928052
 20
-139.2614393098027
 10
86.93440074866571
 20
-139.4478189755547
 10
86.93440074866571
 20
-139.7606336456154
 10
86.93440074866571
 20
-140.0782714493554
 10
86.71012503257595
 20
-140.3128824519009
 10
86.40764564897101
 20
-140.3128824519009
 97
        0
 97
        0
 75
     2
 76
     1
 98
        0
  0
ENDBLK
  5
109
330
106
100
AcDbEntity
  8
0
100
AcDbBlockEnd
  0
BLOCK
  5
120
330
11E
100
AcDbEntity
  8
0
100
AcDbBlockBegin
  2
block 5
 70
     0
 10
0.0
 20
0.0
 30
0.0
  3
block 5
  1

  0
SPLINE
  5
122
330
11E
100
AcDbEntity
  8
_U+30EC_U+30A4_U+30E4_U+30FC 1
370
     0
100
AcDbSpline
210
0.0
220
0.0
230
1.0
 70
    11
 71
     3
 72
    26
 73
    22
 74
     0
 42
0.0000000001
 43
0.0000000001
 12
1.0
 22
0.0
 32
0.0
 13
1.0
 23
0.0
 33
0.0
 40
0.0
 40
0.0
 40
0.0
 40
0.0
 40
1.0
 40
1.0
 40
1.0
 40
2.0
 40
2.0
 40
2.0
 40
3.0
 40
3.0
 40
3.0
 40
4.0
 40
4.0
 40
4.0
 40
5.0
 40
5.0
 40
5.0
 40
6.0
 40
6.0
 40
6.0
 40
7.0
 40
7.0
 40
7.0
 40
7.0
 10
111.3392849114013
 20
-123.4842800255526
 30
0.0
 10
111.3392849114013
 20
-123.4842800255526
 30
0.0
 10
110.2351318083787
 20
-123.4842800255526
 30
0.0
 10
110.2351318083787
 20
-123.4842800255526
 30
0.0
 10
110.2351318083787
 20
-123.4842800255526
 30
0.0
 10
110.2351318083787
 20
-123.8143201730395
 30
0.0
 10
110.2351318083787
 20
-123.8143201730395
 30
0.0
 10
110.2351318083787
 20
-123.8143201730395
 30
0.0
 10
110.086992702513
 20
-123.8143201730395
 30
0.0
 10
110.086992702513
 20
-123.8143201730395
 30
0.0
 10
110.0721787919264
 20
-123.4822129682614
 30
0.0
 10
109.9092257754741
 20
-123.4357041792105
 30
0.0
 10
109.7948486053638
 20
-123.4060763580374
 30
0.0
 10
109.7948486053638
 20
-123.4060763580374
 30
0.0
 10
109.7948486053638
 20
-123.2600043094628
 30
0.0
 10
109.7948486053638
 20
-123.2600043094628
 30
0.0
 10
109.7948486053638
 20
-123.2600043094628
 30
0.0
 10
111.3392849114013
 20
-123.2600043094628
 30
0.0
 10
111.3392849114013
 20
-123.2600043094628
 30
0.0
 10
111.3392849114013
 20
-123.2600043094628
 30
0.0
 10
111.3392849114013
 20
-123.4842800255526
 30
0.0
 10
111.3392849114013
 20
-123.4842800255526
 30
0.0
  0
HATCH
  5
123
330
11E
100
AcDbEntity
  8
_U+30EC_U+30A4_U+30E4_U+30FC 1
 62
     7
420
 16777215
100
AcDbHatch
 10
0.0
 20
0.0
 30
0.0
210
0.0
220
0.0
230
1.0
  2
SOLID
 70
     1
 71
     0
 91
        1
 92
        1
 93
        1
 72
     4
 94
        3
 73
     0
 74
     1
 95
       26
 96
       22
 40
0.0
 40
0.0
 40
0.0
 40
0.0
 40
1.0
 40
1.0
 40
1.0
 40
2.0
 40
2.0
 40
2.0
 40
3.0
 40
3.0
 40
3.0
 40
4.0
 40
4.0
 40
4.0
 40
5.0
 40
5.0
 40
5.0
 40
6.0
 40
6.0
 40
6.0
 40
7.0
 40
7.0
 40
7.0
 40
7.0
 10
111.3392849114013
 20
-123.4842800255526
 10
111.3392849114013
 20
-123.4842800255526
 10
110.2351318083787
 20
-123.4842800255526
 10
110.2351318083787
 20
-123.4842800255526
 10
110.2351318083787
 20
-123.4842800255526
 10
110.2351318083787
 20
-123.8143201730395
 10
110.2351318083787
 20
-123.8143201730395
 10
110.2351318083787
 20
-123.8143201730395
 10
110.086992702513
 20
-123.8143201730395
 10
110.086992702513
 20
-123.8143201730395
 10
110.0721787919264
 20
-123.4822129682614
 10
109.9092257754741
 20
-123.4357041792105
 10
109.7948486053638
 20
-123.4060763580374
 10
109.7948486053638
 20
-123.4060763580374
 10
109.7948486053638
 20
-123.2600043094628
 10
109.7948486053638
 20
-123.2600043094628
 10
109.7948486053638
 20
-123.2600043094628
 10
111.3392849114013
 20
-123.2600043094628
 10
111.3392849114013
 20
-123.2600043094628
 10
111.3392849114013
 20
-123.2600043094628
 10
111.3392849114013
 20
-123.4842800255526
 10
111.3392849114013
 20
-123.4842800255526
 97
        0
 97
        0
 75
     2
 76
     1
 98
        0
  0
ENDBLK
  5
121
330
11E
100
AcDbEntity
  8
0
100
AcDbBlockEnd
  0
BLOCK
  5
12E
330
12C
100
AcDbEntity
  8
0
100
AcDbBlockBegin
  2
block 6
 70
     0
 10
0.0
 20
0.0
 30
0.0
  3
block 6
  1

  0
SPLINE
  5
130
330
12C
100
AcDbEntity
  8
_U+30EC_U+30A4_U+30E4_U+30FC 1
370
     0
100
AcDbSpline
210
0.0
220
0.0
230
1.0
 70
    11
 71
     3
 72
    26
 73
    22
 74
     0
 42
0.0000000001
 43
0.0000000001
 12
1.0
 22
0.0
 32
0.0
 13
1.0
 23
0.0
 33
0.0
 40
0.0
 40
0.0
 40
0.0
 40
0.0
 40
1.0
 40
1.0
 40
1.0
 40
2.0
 40
2.0
 40
2.0
 40
3.0
 40
3.0
 40
3.0
 40
4.0
 40
4.0
 40
4.0
 40
5.0
 40
5.0
 40
5.0
 40
6.0
 40
6.0
 40
6.0
 40
7.0
 40
7.0
 40
7.0
 40
7.0
 10
111.3392849114013
 20
-129.5448920032041
 30
0.0
 10
111.3392849114013
 20
-129.5448920032041
 30
0.0
 10
110.2351318083787
 20
-129.5448920032041
 30
0.0
 10
110.2351318083787
 20
-129.5448920032041
 30
0.0
 10
110.2351318083787
 20
-129.5448920032041
 30
0.0
 10
110.2351318083787
 20
-129.874932150691
 30
0.0
 10
110.2351318083787
 20
-129.874932150691
 30
0.0
 10
110.2351318083787
 20
-129.874932150691
 30
0.0
 10
110.086992702513
 20
-129.874932150691
 30
0.0
 10
110.086992702513
 20
-129.874932150691
 30
0.0
 10
110.0721787919264
 20
-129.5428249459129
 30
0.0
 10
109.9092257754741
 20
-129.496316156862
 30
0.0
 10
109.7948486053638
 20
-129.4666883356889
 30
0.0
 10
109.7948486053638
 20
-129.4666883356889
 30
0.0
 10
109.7948486053638
 20
-129.3206162871143
 30
0.0
 10
109.7948486053638
 20
-129.3206162871143
 30
0.0
 10
109.7948486053638
 20
-129.3206162871143
 30
0.0
 10
111.3392849114013
 20
-129.3206162871143
 30
0.0
 10
111.3392849114013
 20
-129.3206162871143
 30
0.0
 10
111.3392849114013
 20
-129.3206162871143
 30
0.0
 10
111.3392849114013
 20
-129.5448920032041
 30
0.0
 10
111.3392849114013
 20
-129.5448920032041
 30
0.0
  0
HATCH
  5
131
330
12C
100
AcDbEntity
  8
_U+30EC_U+30A4_U+30E4_U+30FC 1
 62
     7
420
 16777215
100
AcDbHatch
 10
0.0
 20
0.0
 30
0.0
210
0.0
220
0.0
230
1.0
  2
SOLID
 70
     1
 71
     0
 91
        1
 92
        1
 93
        1
 72
     4
 94
        3
 73
     0
 74
     1
 95
       26
 96
       22
 40
0.0
 40
0.0
 40
0.0
 40
0.0
 40
1.0
 40
1.0
 40
1.0
 40
2.0
 40
2.0
 40
2.0
 40
3.0
 40
3.0
 40
3.0
 40
4.0
 40
4.0
 40
4.0
 40
5.0
 40
5.0
 40
5.0
 40
6.0
 40
6.0
 40
6.0
 40
7.0
 40
7.0
 40
7.0
 40
7.0
 10
111.3392849114013
 20
-129.5448920032041
 10
111.3392849114013
 20
-129.5448920032041
 10
110.2351318083787
 20
-129.5448920032041
 10
110.2351318083787
 20
-129.5448920032041
 10
110.2351318083787
 20
-129.5448920032041
 10
110.2351318083787
 20
-129.874932150691
 10
110.2351318083787
 20
-129.874932150691
 10
110.2351318083787
 20
-129.874932150691
 10
110.086992702513
 20
-129.874932150691
 10
110.086992702513
 20
-129.874932150691
 10
110.0721787919264
 20
-129.5428249459129
 10
109.9092257754741
 20
-129.496316156862
 10
109.7948486053638
 20
-129.4666883356889
 10
109.7948486053638
 20
-129.4666883356889
 10
109.7948486053638
 20
-129.3206162871143
 10
109.7948486053638
 20
-129.3206162871143
 10
109.7948486053638
 20
-129.3206162871143
 10
111.3392849114013
 20
-129.3206162871143
 10
111.3392849114013
 20
-129.3206162871143
 10
111.3392849114013
 20
-129.3206162871143
 10
111.3392849114013
 20
-129.5448920032041
 10
111.3392849114013
 20
-129.5448920032041
 97
        0
 97
        0
 75
     2
 76
     1
 98
        0
  0
SPLINE
  5
132
330
12C
100
AcDbEntity
  8
_U+30EC_U+30A4_U+30E4_U+30FC 1
370
     0
100
AcDbSpline
210
0.0
220
0.0
230
1.0
 70
    11
 71
     3
 72
    29
 73
    25
 74
     0
 42
0.0000000001
 43
0.0000000001
 12
1.0
 22
0.0
 32
0.0
 13
1.0
 23
0.0
 33
0.0
 40
0.0
 40
0.0
 40
0.0
 40
0.0
 40
1.0
 40
1.0
 40
1.0
 40
2.0
 40
2.0
 40
2.0
 40
3.0
 40
3.0
 40
3.0
 40
4.0
 40
4.0
 40
4.0
 40
5.0
 40
5.0
 40
5.0
 40
6.0
 40
6.0
 40
6.0
 40
7.0
 40
7.0
 40
7.0
 40
8.0
 40
8.0
 40
8.0
 40
8.0
 10
111.1615179843624
 20
-127.9215630105543
 30
0.0
 10
111.3709797898656
 20
-128.0297390087912
 30
0.0
 10
111.3899278150345
 20
-128.2030273116993
 30
0.0
 10
111.3899278150345
 20
-128.3194715391007
 30
0.0
 10
111.3899278150345
 20
-128.4803574982619
 30
0.0
 10
111.3434190259836
 20
-128.6219509227056
 30
0.0
 10
111.1615179843624
 20
-128.7170355580985
 30
0.0
 10
110.9668700894458
 20
-128.8207329322045
 30
0.0
 10
110.7298475200606
 20
-128.8396809573734
 30
0.0
 10
110.5672390131568
 20
-128.8396809573734
 30
0.0
 10
110.4232340218734
 20
-128.8396809573734
 30
0.0
 10
110.1713975419016
 20
-128.8227999894957
 30
0.0
 10
109.9726155324027
 20
-128.7170355580985
 30
0.0
 10
109.7696994083215
 20
-128.6092040694102
 30
0.0
 10
109.7462727590218
 20
-128.448318110249
 30
0.0
 10
109.7462727590218
 20
-128.3194715391007
 30
0.0
 10
109.7462727590218
 20
-128.1606526372307
 30
0.0
 10
109.7907144907815
 20
-128.0169921554958
 30
0.0
 10
109.9726155324027
 20
-127.9215630105543
 30
0.0
 10
110.1651963700282
 20
-127.8223442605791
 30
0.0
 10
110.3936062007002
 20
-127.7989176112794
 30
0.0
 10
110.5672390131568
 20
-127.7989176112794
 30
0.0
 10
110.7384602587737
 20
-127.7989176112794
 30
0.0
 10
110.9689371467369
 20
-127.820277203288
 30
0.0
 10
111.1615179843624
 20
-127.9215630105543
 30
0.0
  0
SPLINE
  5
133
330
12C
100
AcDbEntity
  8
_U+30EC_U+30A4_U+30E4_U+30FC 1
370
     0
100
AcDbSpline
210
0.0
220
0.0
230
1.0
 70
    11
 71
     3
 72
    17
 73
    13
 74
     0
 42
0.0000000001
 43
0.0000000001
 12
1.0
 22
0.0
 32
0.0
 13
1.0
 23
0.0
 33
0.0
 40
0.0
 40
0.0
 40
0.0
 40
0.0
 40
1.0
 40
1.0
 40
1.0
 40
2.0
 40
2.0
 40
2.0
 40
3.0
 40
3.0
 40
3.0
 40
4.0
 40
4.0
 40
4.0
 40
4.0
 10
109.9388535966472
 20
-128.3194715391007
 30
0.0
 10
109.9388535966472
 20
-128.5688964522328
 30
0.0
 10
110.2223849550833
 20
-128.6157497508322
 30
0.0
 10
110.5672390131568
 20
-128.6157497508322
 30
0.0
 10
110.8865993646395
 20
-128.6157497508322
 30
0.0
 10
111.1952799201179
 20
-128.5795762482371
 30
0.0
 10
111.1952799201179
 20
-128.3194715391007
 30
0.0
 10
111.1952799201179
 20
-128.0717691737112
 30
0.0
 10
110.9141601285215
 20
-128.0231933273692
 30
0.0
 10
110.5672390131568
 20
-128.0231933273692
 30
0.0
 10
110.2475341521256
 20
-128.0231933273692
 30
0.0
 10
109.9388535966472
 20
-128.0614338872555
 30
0.0
 10
109.9388535966472
 20
-128.3194715391007
 30
0.0
  0
HATCH
  5
134
330
12C
100
AcDbEntity
  8
_U+30EC_U+30A4_U+30E4_U+30FC 1
 62
     7
420
 16777215
100
AcDbHatch
 10
0.0
 20
0.0
 30
0.0
210
0.0
220
0.0
230
1.0
  2
SOLID
 70
     1
 71
     0
 91
        2
 92
        1
 93
        1
 72
     4
 94
        3
 73
     0
 74
     1
 95
       29
 96
       25
 40
0.0
 40
0.0
 40
0.0
 40
0.0
 40
1.0
 40
1.0
 40
1.0
 40
2.0
 40
2.0
 40
2.0
 40
3.0
 40
3.0
 40
3.0
 40
4.0
 40
4.0
 40
4.0
 40
5.0
 40
5.0
 40
5.0
 40
6.0
 40
6.0
 40
6.0
 40
7.0
 40
7.0
 40
7.0
 40
8.0
 40
8.0
 40
8.0
 40
8.0
 10
111.1615179843624
 20
-127.9215630105543
 10
111.3709797898656
 20
-128.0297390087912
 10
111.3899278150345
 20
-128.2030273116993
 10
111.3899278150345
 20
-128.3194715391007
 10
111.3899278150345
 20
-128.4803574982619
 10
111.3434190259836
 20
-128.6219509227056
 10
111.1615179843624
 20
-128.7170355580985
 10
110.9668700894458
 20
-128.8207329322045
 10
110.7298475200606
 20
-128.8396809573734
 10
110.5672390131568
 20
-128.8396809573734
 10
110.4232340218734
 20
-128.8396809573734
 10
110.1713975419016
 20
-128.8227999894957
 10
109.9726155324027
 20
-128.7170355580985
 10
109.7696994083215
 20
-128.6092040694102
 10
109.7462727590218
 20
-128.448318110249
 10
109.7462727590218
 20
-128.3194715391007
 10
109.7462727590218
 20
-128.1606526372307
 10
109.7907144907815
 20
-128.0169921554958
 10
109.9726155324027
 20
-127.9215630105543
 10
110.1651963700282
 20
-127.8223442605791
 10
110.3936062007002
 20
-127.7989176112794
 10
110.5672390131568
 20
-127.7989176112794
 10
110.7384602587737
 20
-127.7989176112794
 10
110.9689371467369
 20
-127.820277203288
 10
111.1615179843624
 20
-127.9215630105543
 97
        0
 97
        0
 92
        1
 93
        1
 72
     4
 94
        3
 73
     0
 74
     1
 95
       17
 96
       13
 40
0.0
 40
0.0
 40
0.0
 40
0.0
 40
1.0
 40
1.0
 40
1.0
 40
2.0
 40
2.0
 40
2.0
 40
3.0
 40
3.0
 40
3.0
 40
4.0
 40
4.0
 40
4.0
 40
4.0
 10
109.9388535966472
 20
-128.3194715391007
 10
109.9388535966472
 20
-128.5688964522328
 10
110.2223849550833
 20
-128.6157497508322
 10
110.5672390131568
 20
-128.6157497508322
 10
110.8865993646395
 20
-128.6157497508322
 10
111.1952799201179
 20
-128.5795762482371
 10
111.1952799201179
 20
-128.3194715391007
 10
111.1952799201179
 20
-128.0717691737112
 10
110.9141601285215
 20
-128.0231933273692
 10
110.5672390131568
 20
-128.0231933273692
 10
110.2475341521256
 20
-128.0231933273692
 10
109.9388535966472
 20
-128.0614338872555
 10
109.9388535966472
 20
-128.3194715391007
 97
        0
 97
        0
 75
     2
 76
     1
 98
        0
  0
ENDBLK
  5
12F
330
12C
100
AcDbEntity
  8
0
100
AcDbBlockEnd
  0
BLOCK
  5
13F
330
13D
100
AcDbEntity
  8
0
100
AcDbBlockBegin
  2
block 7
 70
     0
 10
0.0
 20
0.0
 30
0.0
  3
block 7
  1

  0
SPLINE
  5
141
330
13D
100
AcDbEntity
  8
_U+30EC_U+30A4_U+30E4_U+30FC 1
370
     0
100
AcDbSpline
210
0.0
220
0.0
230
1.0
 70
    11
 71
     3
 72
    62
 73
    58
 74
     0
 42
0.0000000001
 43
0.0000000001
 12
1.0
 22
0.0
 32
0.0
 13
1.0
 23
0.0
 33
0.0
 40
0.0
 40
0.0
 40
0.0
 40
0.0
 40
1.0
 40
1.0
 40
1.0
 40
2.0
 40
2.0
 40
2.0
 40
3.0
 40
3.0
 40
3.0
 40
4.0
 40
4.0
 40
4.0
 40
5.0
 40
5.0
 40
5.0
 40
6.0
 40
6.0
 40
6.0
 40
7.0
 40
7.0
 40
7.0
 40
8.0
 40
8.0
 40
8.0
 40
9.0
 40
9.0
 40
9.0
 40
10.0
 40
10.0
 40
10.0
 40
11.0
 40
11.0
 40
11.0
 40
12.0
 40
12.0
 40
12.0
 40
13.0
 40
13.0
 40
13.0
 40
14.0
 40
14.0
 40
14.0
 40
15.0
 40
15.0
 40
15.0
 40
16.0
 40
16.0
 40
16.0
 40
17.0
 40
17.0
 40
17.0
 40
18.0
 40
18.0
 40
18.0
 40
19.0
 40
19.0
 40
19.0
 40
19.0
 10
111.3899278150345
 20
-135.4163682387154
 30
0.0
 10
111.3899278150345
 20
-135.5117973836568
 30
0.0
 10
111.3689127325744
 20
-135.7295274183246
 30
0.0
 10
111.182877576371
 20
-135.8545843844391
 30
0.0
 10
111.0705674635518
 20
-135.9283094278235
 30
0.0
 10
110.9713487135766
 20
-135.9327880519543
 30
0.0
 10
110.8865993646395
 20
-135.9369221665366
 30
0.0
 10
110.8865993646395
 20
-135.9369221665366
 30
0.0
 10
110.8865993646395
 20
-135.7167805650292
 30
0.0
 10
110.8865993646395
 20
-135.7167805650292
 30
0.0
 10
110.9606689175723
 20
-135.714713507738
 30
0.0
 10
111.1952799201179
 20
-135.7043782212822
 30
0.0
 10
111.1952799201179
 20
-135.4208468628462
 30
0.0
 10
111.1952799201179
 20
-135.2833875529847
 30
0.0
 10
111.1256889913158
 20
-135.1307698229882
 30
0.0
 10
110.8972791606437
 20
-135.1307698229882
 30
0.0
 10
110.7808349332423
 20
-135.1307698229882
 30
0.0
 10
110.7322590869003
 20
-135.1690103828744
 30
0.0
 10
110.700564208436
 20
-135.2007052613387
 30
0.0
 10
110.6264946555031
 20
-135.2747748142716
 30
0.0
 10
110.6137478022077
 20
-135.391219041673
 30
0.0
 10
110.6137478022077
 20
-135.4459960598885
 30
0.0
 10
110.6137478022077
 20
-135.4652885946059
 30
0.0
 10
110.6158148594988
 20
-135.5011175876525
 30
0.0
 10
110.6199489740811
 20
-135.5286783515345
 30
0.0
 10
110.6199489740811
 20
-135.5286783515345
 30
0.0
 10
110.4253010791645
 20
-135.5286783515345
 30
0.0
 10
110.4253010791645
 20
-135.5286783515345
 30
0.0
 10
110.4318467605865
 20
-135.4904377916482
 30
0.0
 10
110.4339138178776
 20
-135.4484076267282
 30
0.0
 10
110.4339138178776
 20
-135.4418619453062
 30
0.0
 10
110.4339138178776
 20
-135.3764051310865
 30
0.0
 10
110.4125542258691
 20
-135.1776231215875
 30
0.0
 10
110.1758761660324
 20
-135.1776231215875
 30
0.0
 10
109.9981092389935
 20
-135.1776231215875
 30
0.0
 10
109.9429877112295
 20
-135.308536750027
 30
0.0
 10
109.9429877112295
 20
-135.418779805555
 30
0.0
 10
109.9429877112295
 20
-135.6830186292737
 30
0.0
 10
110.1758761660324
 20
-135.6916313679868
 30
0.0
 10
110.2475341521256
 20
-135.6957654825691
 30
0.0
 10
110.2475341521256
 20
-135.6957654825691
 30
0.0
 10
110.2475341521256
 20
-135.8990261161989
 30
0.0
 10
110.2475341521256
 20
-135.8990261161989
 30
0.0
 10
110.1228216955596
 20
-135.8904133774857
 30
0.0
 10
109.7462727590218
 20
-135.8628526136037
 30
0.0
 10
109.7462727590218
 20
-135.4060329522596
 30
0.0
 10
109.7462727590218
 20
-135.1817572361699
 30
0.0
 10
109.8733967824275
 20
-134.9406005522024
 30
0.0
 10
110.1693304846105
 20
-134.9406005522024
 30
0.0
 10
110.3557101503625
 20
-134.9406005522024
 30
0.0
 10
110.4380479324599
 20
-135.0356851875952
 30
0.0
 10
110.4993706320974
 20
-135.135248447119
 30
0.0
 10
110.5269313959794
 20
-135.0739257474815
 30
0.0
 10
110.6072021207857
 20
-134.8920247058603
 30
0.0
 10
110.8845323073483
 20
-134.8920247058603
 30
0.0
 10
111.2228406839998
 20
-134.8920247058603
 30
0.0
 10
111.3899278150345
 20
-135.1393825617013
 30
0.0
 10
111.3899278150345
 20
-135.4163682387154
 30
0.0
  0
HATCH
  5
142
330
13D
100
AcDbEntity
  8
_U+30EC_U+30A4_U+30E4_U+30FC 1
 62
     7
420
 16777215
100
AcDbHatch
 10
0.0
 20
0.0
 30
0.0
210
0.0
220
0.0
230
1.0
  2
SOLID
 70
     1
 71
     0
 91
        1
 92
        1
 93
        1
 72
     4
 94
        3
 73
     0
 74
     1
 95
       62
 96
       58
 40
0.0
 40
0.0
 40
0.0
 40
0.0
 40
1.0
 40
1.0
 40
1.0
 40
2.0
 40
2.0
 40
2.0
 40
3.0
 40
3.0
 40
3.0
 40
4.0
 40
4.0
 40
4.0
 40
5.0
 40
5.0
 40
5.0
 40
6.0
 40
6.0
 40
6.0
 40
7.0
 40
7.0
 40
7.0
 40
8.0
 40
8.0
 40
8.0
 40
9.0
 40
9.0
 40
9.0
 40
10.0
 40
10.0
 40
10.0
 40
11.0
 40
11.0
 40
11.0
 40
12.0
 40
12.0
 40
12.0
 40
13.0
 40
13.0
 40
13.0
 40
14.0
 40
14.0
 40
14.0
 40
15.0
 40
15.0
 40
15.0
 40
16.0
 40
16.0
 40
16.0
 40
17.0
 40
17.0
 40
17.0
 40
18.0
 40
18.0
 40
18.0
 40
19.0
 40
19.0
 40
19.0
 40
19.0
 10
111.3899278150345
 20
-135.4163682387154
 10
111.3899278150345
 20
-135.5117973836568
 10
111.3689127325744
 20
-135.7295274183246
 10
111.182877576371
 20
-135.8545843844391
 10
111.0705674635518
 20
-135.9283094278235
 10
110.9713487135766
 20
-135.9327880519543
 10
110.8865993646395
 20
-135.9369221665366
 10
110.8865993646395
 20
-135.9369221665366
 10
110.8865993646395
 20
-135.7167805650292
 10
110.8865993646395
 20
-135.7167805650292
 10
110.9606689175723
 20
-135.714713507738
 10
111.1952799201179
 20
-135.7043782212822
 10
111.1952799201179
 20
-135.4208468628462
 10
111.1952799201179
 20
-135.2833875529847
 10
111.1256889913158
 20
-135.1307698229882
 10
110.8972791606437
 20
-135.1307698229882
 10
110.7808349332423
 20
-135.1307698229882
 10
110.7322590869003
 20
-135.1690103828744
 10
110.700564208436
 20
-135.2007052613387
 10
110.6264946555031
 20
-135.2747748142716
 10
110.6137478022077
 20
-135.391219041673
 10
110.6137478022077
 20
-135.4459960598885
 10
110.6137478022077
 20
-135.4652885946059
 10
110.6158148594988
 20
-135.5011175876525
 10
110.6199489740811
 20
-135.5286783515345
 10
110.6199489740811
 20
-135.5286783515345
 10
110.4253010791645
 20
-135.5286783515345
 10
110.4253010791645
 20
-135.5286783515345
 10
110.4318467605865
 20
-135.4904377916482
 10
110.4339138178776
 20
-135.4484076267282
 10
110.4339138178776
 20
-135.4418619453062
 10
110.4339138178776
 20
-135.3764051310865
 10
110.4125542258691
 20
-135.1776231215875
 10
110.1758761660324
 20
-135.1776231215875
 10
109.9981092389935
 20
-135.1776231215875
 10
109.9429877112295
 20
-135.308536750027
 10
109.9429877112295
 20
-135.418779805555
 10
109.9429877112295
 20
-135.6830186292737
 10
110.1758761660324
 20
-135.6916313679868
 10
110.2475341521256
 20
-135.6957654825691
 10
110.2475341521256
 20
-135.6957654825691
 10
110.2475341521256
 20
-135.8990261161989
 10
110.2475341521256
 20
-135.8990261161989
 10
110.1228216955596
 20
-135.8904133774857
 10
109.7462727590218
 20
-135.8628526136037
 10
109.7462727590218
 20
-135.4060329522596
 10
109.7462727590218
 20
-135.1817572361699
 10
109.8733967824275
 20
-134.9406005522024
 10
110.1693304846105
 20
-134.9406005522024
 10
110.3557101503625
 20
-134.9406005522024
 10
110.4380479324599
 20
-135.0356851875952
 10
110.4993706320974
 20
-135.135248447119
 10
110.5269313959794
 20
-135.0739257474815
 10
110.6072021207857
 20
-134.8920247058603
 10
110.8845323073483
 20
-134.8920247058603
 10
111.2228406839998
 20
-134.8920247058603
 10
111.3899278150345
 20
-135.1393825617013
 10
111.3899278150345
 20
-135.4163682387154
 97
        0
 97
        0
 75
     2
 76
     1
 98
        0
  0
ENDBLK
  5
140
330
13D
100
AcDbEntity
  8
0
100
AcDbBlockEnd
  0
ENDSEC
  0
SECTION
  2
ENTITIES
  0
POLYLINE
  5
41
330
1F
100
AcDbEntity
  8
_U+30EC_U+30A4_U+30E4_U+30FC 1
370
     0
100
AcDb2dPolyline
 66
     1
 10
0.0
 20
0.0
 30
0.0
  0
VERTEX
  5
42
330
41
100
AcDbEntity
  8
_U+30EC_U+30A4_U+30E4_U+30FC 1
370
     0
100
AcDbVertex
100
AcDb2dVertex
 10
68.33880408986519
 20
-123.9075146912454
 30
0.0
  0
VERTEX
  5
43
330
41
100
AcDbEntity
  8
_U+30EC_U+30A4_U+30E4_U+30FC 1
370
     0
100
AcDbVertex
100
AcDb2dVertex
 10
78.33853886930422
 20
-123.9075146912454
 30
0.0
  0
VERTEX
  5
44
330
41
100
AcDbEntity
  8
_U+30EC_U+30A4_U+30E4_U+30FC 1
370
     0
100
AcDbVertex
100
AcDb2dVertex
 10
78.33853886930422
 20
-136.9080813546619
 30
0.0
  0
VERTEX
  5
45
330
41
100
AcDbEntity
  8
_U+30EC_U+30A4_U+30E4_U+30FC 1
370
     0
100
AcDbVertex
100
AcDb2dVertex
 10
93.33864997666547
 20
-136.9080813546619
 30
0.0
  0
VERTEX
  5
46
330
41
100
AcDbEntity
  8
_U+30EC_U+30A4_U+30E4_U+30FC 1
370
     0
100
AcDbVertex
100
AcDb2dVertex
 10
93.33864997666547
 20
-133.9080944109675
 30
0.0
  0
VERTEX
  5
47
330
41
100
AcDbEntity
  8
_U+30EC_U+30A4_U+30E4_U+30FC 1
370
     0
100
AcDbVertex
100
AcDb2dVertex
 10
92.33887775469292
 20
-133.9080944109675
 30
0.0
  0
VERTEX
  5
48
330
41
100
AcDbEntity
  8
_U+30EC_U+30A4_U+30E4_U+30FC 1
370
     0
100
AcDbVertex
100
AcDb2dVertex
 10
92.33887775469292
 20
-135.907638854912
 30
0.0
  0
VERTEX
  5
49
330
41
100
AcDbEntity
  8
_U+30EC_U+30A4_U+30E4_U+30FC 1
370
     0
100
AcDbVertex
100
AcDb2dVertex
 10
79.23840242290439
 20
-135.907638854912
 30
0.0
  0
VERTEX
  5
4A
330
41
100
AcDbEntity
  8
_U+30EC_U+30A4_U+30E4_U+30FC 1
370
     0
100
AcDbVertex
100
AcDb2dVertex
 10
79.23840242290439
 20
-123.9075146912454
 30
0.0
  0
VERTEX
  5
4B
330
41
100
AcDbEntity
  8
_U+30EC_U+30A4_U+30E4_U+30FC 1
370
     0
100
AcDbVertex
100
AcDb2dVertex
 10
96.33863448664111
 20
-123.9075146912454
 30
0.0
  0
VERTEX
  5
4C
330
41
100
AcDbEntity
  8
_U+30EC_U+30A4_U+30E4_U+30FC 1
370
     0
100
AcDbVertex
100
AcDb2dVertex
 10
97.03868669100352
 20
-123.45758191358
 30
0.0
  0
VERTEX
  5
4D
330
41
100
AcDbEntity
  8
_U+30EC_U+30A4_U+30E4_U+30FC 1
370
     0
100
AcDbVertex
100
AcDb2dVertex
 10
97.73873889536593
 20
-123.9075146912454
 30
0.0
  0
VERTEX
  5
4E
330
41
100
AcDbEntity
  8
_U+30EC_U+30A4_U+30E4_U+30FC 1
370
     0
100
AcDbVertex
100
AcDb2dVertex
 10
98.43879109972832
 20
-123.45758191358
 30
0.0
  0
VERTEX
  5
4F
330
41
100
AcDbEntity
  8
_U+30EC_U+30A4_U+30E4_U+30FC 1
370
     0
100
AcDbVertex
100
AcDb2dVertex
 10
99.13880802631385
 20
-123.9075146912454
 30
0.0
  0
VERTEX
  5
50
330
41
100
AcDbEntity
  8
_U+30EC_U+30A4_U+30E4_U+30FC 1
370
     0
100
AcDbVertex
100
AcDb2dVertex
 10
99.83886023067625
 20
-123.45758191358
 30
0.0
  0
VERTEX
  5
51
330
41
100
AcDbEntity
  8
_U+30EC_U+30A4_U+30E4_U+30FC 1
370
     0
100
AcDbVertex
100
AcDb2dVertex
 10
100.5389124350387
 20
-123.9075146912454
 30
0.0
  0
VERTEX
  5
52
330
41
100
AcDbEntity
  8
_U+30EC_U+30A4_U+30E4_U+30FC 1
370
     0
100
AcDbVertex
100
AcDb2dVertex
 10
101.2389646394011
 20
-123.45758191358
 30
0.0
  0
VERTEX
  5
53
330
41
100
AcDbEntity
  8
_U+30EC_U+30A4_U+30E4_U+30FC 1
370
     0
100
AcDbVertex
100
AcDb2dVertex
 10
101.9389815659866
 20
-123.9075146912454
 30
0.0
  0
VERTEX
  5
54
330
41
100
AcDbEntity
  8
_U+30EC_U+30A4_U+30E4_U+30FC 1
370
     0
100
AcDbVertex
100
AcDb2dVertex
 10
102.6383634925883
 20
-123.45758191358
 30
0.0
  0
VERTEX
  5
55
330
41
100
AcDbEntity
  8
_U+30EC_U+30A4_U+30E4_U+30FC 1
370
     0
100
AcDbVertex
100
AcDb2dVertex
 10
103.3383804191738
 20
-123.9075146912454
 30
0.0
  0
VERTEX
  5
56
330
41
100
AcDbEntity
  8
_U+30EC_U+30A4_U+30E4_U+30FC 1
370
     0
100
AcDbVertex
100
AcDb2dVertex
 10
108.3386172360516
 20
-123.9075146912454
 30
0.0
  0
VERTEX
  5
57
330
41
100
AcDbEntity
  8
_U+30EC_U+30A4_U+30E4_U+30FC 1
370
     0
100
AcDbVertex
100
AcDb2dVertex
 10
108.3386172360516
 20
-122.9077424692732
 30
0.0
  0
VERTEX
  5
58
330
41
100
AcDbEntity
  8
_U+30EC_U+30A4_U+30E4_U+30FC 1
370
     0
100
AcDbVertex
100
AcDb2dVertex
 10
68.33880408986519
 20
-122.9077424692732
 30
0.0
  0
VERTEX
  5
59
330
41
100
AcDbEntity
  8
_U+30EC_U+30A4_U+30E4_U+30FC 1
370
     0
100
AcDbVertex
100
AcDb2dVertex
 10
68.33880408986519
 20
-123.9075146912454
 30
0.0
  0
SEQEND
  5
5B
330
41
100
AcDbEntity
  8
_U+30EC_U+30A4_U+30E4_U+30FC 1
370
     0
  0
HATCH
  5
5A
330
1F
100
AcDbEntity
  8
_U+30EC_U+30A4_U+30E4_U+30FC 1
 62
   253
420
 11711154
100
AcDbHatch
 10
0.0
 20
0.0
 30
0.0
210
0.0
220
0.0
230
1.0
  2
SOLID
 70
     1
 71
     0
 91
        1
 92
        1
 93
       23
 72
     1
 10
68.33880408986519
 20
-123.9075146912454
 11
78.33853886930422
 21
-123.9075146912454
 72
     1
 10
78.33853886930422
 20
-123.9075146912454
 11
78.33853886930422
 21
-136.9080813546619
 72
     1
 10
78.33853886930422
 20
-136.9080813546619
 11
93.33864997666547
 21
-136.9080813546619
 72
     1
 10
93.33864997666547
 20
-136.9080813546619
 11
93.33864997666547
 21
-133.9080944109675
 72
     1
 10
93.33864997666547
 20
-133.9080944109675
 11
92.33887775469292
 21
-133.9080944109675
 72
     1
 10
92.33887775469292
 20
-133.9080944109675
 11
92.33887775469292
 21
-135.907638854912
 72
     1
 10
92.33887775469292
 20
-135.907638854912
 11
79.23840242290439
 21
-135.907638854912
 72
     1
 10
79.23840242290439
 20
-135.907638854912
 11
79.23840242290439
 21
-123.9075146912454
 72
     1
 10
79.23840242290439
 20
-123.9075146912454
 11
96.33863448664111
 21
-123.9075146912454
 72
     1
 10
96.33863448664111
 20
-123.9075146912454
 11
97.03868669100352
 21
-123.45758191358
 72
     1
 10
97.03868669100352
 20
-123.45758191358
 11
97.73873889536593
 21
-123.9075146912454
 72
     1
 10
97.73873889536593
 20
-123.9075146912454
 11
98.43879109972832
 21
-123.45758191358
 72
     1
 10
98.43879109972832
 20
-123.45758191358
 11
99.13880802631385
 21
-123.9075146912454
 72
     1
 10
99.13880802631385
 20
-123.9075146912454
 11
99.83886023067625
 21
-123.45758191358
 72
     1
 10
99.83886023067625
 20
-123.45758191358
 11
100.5389124350387
 21
-123.9075146912454
 72
     1
 10
100.5389124350387
 20
-123.9075146912454
 11
101.2389646394011
 21
-123.45758191358
 72
     1
 10
101.2389646394011
 20
-123.45758191358
 11
101.9389815659866
 21
-123.9075146912454
 72
     1
 10
101.9389815659866
 20
-123.9075146912454
 11
102.6383634925883
 21
-123.45758191358
 72
     1
 10
102.6383634925883
 20
-123.45758191358
 11
103.3383804191738
 21
-123.9075146912454
 72
     1
 10
103.3383804191738
 20
-123.9075146912454
 11
108.3386172360516
 21
-123.9075146912454
 72
     1
 10
108.3386172360516
 20
-123.9075146912454
 11
108.3386172360516
 21
-122.9077424692732
 72
     1
 10
108.3386172360516
 20
-122.9077424692732
 11
68.33880408986519
 21
-122.9077424692732
 72
     1
 10
68.33880408986519
 20
-122.9077424692732
 11
68.33880408986519
 21
-123.9075146912454
 97
        0
 75
     2
 76
     1
 98
        0
  0
POLYLINE
  5
5C
330
1F
100
AcDbEntity
  8
_U+30EC_U+30A4_U+30E4_U+30FC 1
 62
     7
420
 16777215
370
    25
100
AcDb2dPolyline
 66
     1
 10
0.0
 20
0.0
 30
0.0
  0
VERTEX
  5
5D
330
5C
100
AcDbEntity
  8
_U+30EC_U+30A4_U+30E4_U+30FC 1
 62
     7
420
 16777215
370
    25
100
AcDbVertex
100
AcDb2dVertex
 10
68.33880408986519
 20
-122.9077424692732
 30
0.0
  0
VERTEX
  5
5E
330
5C
100
AcDbEntity
  8
_U+30EC_U+30A4_U+30E4_U+30FC 1
 62
     7
420
 16777215
370
    25
100
AcDbVertex
100
AcDb2dVertex
 10
108.3386172360516
 20
-122.9077424692732
 30
0.0
  0
SEQEND
  5
5F
330
5C
100
AcDbEntity
  8
_U+30EC_U+30A4_U+30E4_U+30FC 1
 62
     7
420
 16777215
370
    25
  0
POLYLINE
  5
60
330
1F
100
AcDbEntity
  8
_U+30EC_U+30A4_U+30E4_U+30FC 1
 62
     7
420
 16777215
370
    25
100
AcDb2dPolyline
 66
     1
 10
0.0
 20
0.0
 30
0.0
  0
VERTEX
  5
61
330
60
100
AcDbEntity
  8
_U+30EC_U+30A4_U+30E4_U+30FC 1
 62
     7
420
 16777215
370
    25
100
AcDbVertex
100
AcDb2dVertex
 10
68.33880408986519
 20
-123.9075146912454
 30
0.0
  0
VERTEX
  5
62
330
60
100
AcDbEntity
  8
_U+30EC_U+30A4_U+30E4_U+30FC 1
 62
     7
420
 16777215
370
    25
100
AcDbVertex
100
AcDb2dVertex
 10
78.33853886930422
 20
-123.9075146912454
 30
0.0
  0
SEQEND
  5
63
330
60
100
AcDbEntity
  8
_U+30EC_U+30A4_U+30E4_U+30FC 1
 62
     7
420
 16777215
370
    25
  0
POLYLINE
  5
64
330
1F
100
AcDbEntity
  8
_U+30EC_U+30A4_U+30E4_U+30FC 1
 62
     7
420
 16777215
370
    25
100
AcDb2dPolyline
 66
     1
 10
0.0
 20
0.0
 30
0.0
  0
VERTEX
  5
65
330
64
100
AcDbEntity
  8
_U+30EC_U+30A4_U+30E4_U+30FC 1
 62
     7
420
 16777215
370
    25
100
AcDbVertex
100
AcDb2dVertex
 10
108.3386172360516
 20
-123.9075146912454
 30
0.0
  0
VERTEX
  5
66
330
64
100
AcDbEntity
  8
_U+30EC_U+30A4_U+30E4_U+30FC 1
 62
     7
420
 16777215
370
    25
100
AcDbVertex
100
AcDb2dVertex
 10
108.3386172360516
 20
-122.9077424692732
 30
0.0
  0
SEQEND
  5
67
330
64
100
AcDbEntity
  8
_U+30EC_U+30A4_U+30E4_U+30FC 1
 62
     7
420
 16777215
370
    25
  0
POLYLINE
  5
68
330
1F
100
AcDbEntity
  8
_U+30EC_U+30A4_U+30E4_U+30FC 1
 62
     7
420
 16777215
370
    25
100
AcDb2dPolyline
 66
     1
 10
0.0
 20
0.0
 30
0.0
  0
VERTEX
  5
69
330
68
100
AcDbEntity
  8
_U+30EC_U+30A4_U+30E4_U+30FC 1
 62
     7
420
 16777215
370
    25
100
AcDbVertex
100
AcDb2dVertex
 10
79.23840242290439
 20
-123.9075146912454
 30
0.0
  0
VERTEX
  5
6A
330
68
100
AcDbEntity
  8
_U+30EC_U+30A4_U+30E4_U+30FC 1
 62
     7
420
 16777215
370
    25
100
AcDbVertex
100
AcDb2dVertex
 10
96.33863448664111
 20
-123.9075146912454
 30
0.0
  0
SEQEND
  5
6B
330
68
100
AcDbEntity
  8
_U+30EC_U+30A4_U+30E4_U+30FC 1
 62
     7
420
 16777215
370
    25
  0
POLYLINE
  5
6C
330
1F
100
AcDbEntity
  8
_U+30EC_U+30A4_U+30E4_U+30FC 1
 62
     7
420
 16777215
370
    25
100
AcDb2dPolyline
 66
     1
 10
0.0
 20
0.0
 30
0.0
  0
VERTEX
  5
6D
330
6C
100
AcDbEntity
  8
_U+30EC_U+30A4_U+30E4_U+30FC 1
 62
     7
420
 16777215
370
    25
100
AcDbVertex
100
AcDb2dVertex
 10
101.9389815659866
 20
-123.9075146912454
 30
0.0
  0
VERTEX
  5
6E
330
6C
100
AcDbEntity
  8
_U+30EC_U+30A4_U+30E4_U+30FC 1
 62
     7
420
 16777215
370
    25
100
AcDbVertex
100
AcDb2dVertex
 10
102.6383634925883
 20
-123.45758191358
 30
0.0
  0
SEQEND
  5
6F
330
6C
100
AcDbEntity
  8
_U+30EC_U+30A4_U+30E4_U+30FC 1
 62
     7
420
 16777215
370
    25
  0
POLYLINE
  5
70
330
1F
100
AcDbEntity
  8
_U+30EC_U+30A4_U+30E4_U+30FC 1
 62
     7
420
 16777215
370
    25
100
AcDb2dPolyline
 66
     1
 10
0.0
 20
0.0
 30
0.0
  0
VERTEX
  5
71
330
70
100
AcDbEntity
  8
_U+30EC_U+30A4_U+30E4_U+30FC 1
 62
     7
420
 16777215
370
    25
100
AcDbVertex
100
AcDb2dVertex
 10
103.3383804191738
 20
-123.9075146912454
 30
0.0
  0
VERTEX
  5
72
330
70
100
AcDbEntity
  8
_U+30EC_U+30A4_U+30E4_U+30FC 1
 62
     7
420
 16777215
370
    25
100
AcDbVertex
100
AcDb2dVertex
 10
102.6383634925883
 20
-123.45758191358
 30
0.0
  0
SEQEND
  5
73
330
70
100
AcDbEntity
  8
_U+30EC_U+30A4_U+30E4_U+30FC 1
 62
     7
420
 16777215
370
    25
  0
POLYLINE
  5
74
330
1F
100
AcDbEntity
  8
_U+30EC_U+30A4_U+30E4_U+30FC 1
 62
     7
420
 16777215
370
    25
100
AcDb2dPolyline
 66
     1
 10
0.0
 20
0.0
 30
0.0
  0
VERTEX
  5
75
330
74
100
AcDbEntity
  8
_U+30EC_U+30A4_U+30E4_U+30FC 1
 62
     7
420
 16777215
370
    25
100
AcDbVertex
100
AcDb2dVertex
 10
101.9389815659866
 20
-123.9075146912454
 30
0.0
  0
VERTEX
  5
76
330
74
100
AcDbEntity
  8
_U+30EC_U+30A4_U+30E4_U+30FC 1
 62
     7
420
 16777215
370
    25
100
AcDbVertex
100
AcDb2dVertex
 10
101.2389646394011
 20
-123.45758191358
 30
0.0
  0
SEQEND
  5
77
330
74
100
AcDbEntity
  8
_U+30EC_U+30A4_U+30E4_U+30FC 1
 62
     7
420
 16777215
370
    25
  0
POLYLINE
  5
78
330
1F
100
AcDbEntity
  8
_U+30EC_U+30A4_U+30E4_U+30FC 1
 62
     7
420
 16777215
370
    25
100
AcDb2dPolyline
 66
     1
 10
0.0
 20
0.0
 30
0.0
  0
VERTEX
  5
79
330
78
100
AcDbEntity
  8
_U+30EC_U+30A4_U+30E4_U+30FC 1
 62
     7
420
 16777215
370
    25
100
AcDbVertex
100
AcDb2dVertex
 10
100.5389124350387
 20
-123.9075146912454
 30
0.0
  0
VERTEX
  5
7A
330
78
100
AcDbEntity
  8
_U+30EC_U+30A4_U+30E4_U+30FC 1
 62
     7
420
 16777215
370
    25
100
AcDbVertex
100
AcDb2dVertex
 10
101.2389646394011
 20
-123.45758191358
 30
0.0
  0
SEQEND
  5
7B
330
78
100
AcDbEntity
  8
_U+30EC_U+30A4_U+30E4_U+30FC 1
 62
     7
420
 16777215
370
    25
  0
POLYLINE
  5
7C
330
1F
100
AcDbEntity
  8
_U+30EC_U+30A4_U+30E4_U+30FC 1
 62
     7
420
 16777215
370
    25
100
AcDb2dPolyline
 66
     1
 10
0.0
 20
0.0
 30
0.0
  0
VERTEX
  5
7D
330
7C
100
AcDbEntity
  8
_U+30EC_U+30A4_U+30E4_U+30FC 1
 62
     7
420
 16777215
370
    25
100
AcDbVertex
100
AcDb2dVertex
 10
99.13880802631385
 20
-123.9075146912454
 30
0.0
  0
VERTEX
  5
7E
330
7C
100
AcDbEntity
  8
_U+30EC_U+30A4_U+30E4_U+30FC 1
 62
     7
420
 16777215
370
    25
100
AcDbVertex
100
AcDb2dVertex
 10
99.83886023067625
 20
-123.45758191358
 30
0.0
  0
SEQEND
  5
7F
330
7C
100
AcDbEntity
  8
_U+30EC_U+30A4_U+30E4_U+30FC 1
 62
     7
420
 16777215
370
    25
  0
POLYLINE
  5
80
330
1F
100
AcDbEntity
  8
_U+30EC_U+30A4_U+30E4_U+30FC 1
 62
     7
420
 16777215
370
    25
100
AcDb2dPolyline
 66
     1
 10
0.0
 20
0.0
 30
0.0
  0
VERTEX
  5
81
330
80
100
AcDbEntity
  8
_U+30EC_U+30A4_U+30E4_U+30FC 1
 62
     7
420
 16777215
370
    25
100
AcDbVertex
100
AcDb2dVertex
 10
100.5389124350387
 20
-123.9075146912454
 30
0.0
  0
VERTEX
  5
82
330
80
100
AcDbEntity
  8
_U+30EC_U+30A4_U+30E4_U+30FC 1
 62
     7
420
 16777215
370
    25
100
AcDbVertex
100
AcDb2dVertex
 10
99.83886023067625
 20
-123.45758191358
 30
0.0
  0
SEQEND
  5
83
330
80
100
AcDbEntity
  8
_U+30EC_U+30A4_U+30E4_U+30FC 1
 62
     7
420
 16777215
370
    25
  0
POLYLINE
  5
84
330
1F
100
AcDbEntity
  8
_U+30EC_U+30A4_U+30E4_U+30FC 1
 62
     7
420
 16777215
370
    25
100
AcDb2dPolyline
 66
     1
 10
0.0
 20
0.0
 30
0.0
  0
VERTEX
  5
85
330
84
100
AcDbEntity
  8
_U+30EC_U+30A4_U+30E4_U+30FC 1
 62
     7
420
 16777215
370
    25
100
AcDbVertex
100
AcDb2dVertex
 10
99.13880802631385
 20
-123.9075146912454
 30
0.0
  0
VERTEX
  5
86
330
84
100
AcDbEntity
  8
_U+30EC_U+30A4_U+30E4_U+30FC 1
 62
     7
420
 16777215
370
    25
100
AcDbVertex
100
AcDb2dVertex
 10
98.43879109972832
 20
-123.45758191358
 30
0.0
  0
SEQEND
  5
87
330
84
100
AcDbEntity
  8
_U+30EC_U+30A4_U+30E4_U+30FC 1
 62
     7
420
 16777215
370
    25
  0
POLYLINE
  5
88
330
1F
100
AcDbEntity
  8
_U+30EC_U+30A4_U+30E4_U+30FC 1
 62
     7
420
 16777215
370
    25
100
AcDb2dPolyline
 66
     1
 10
0.0
 20
0.0
 30
0.0
  0
VERTEX
  5
89
330
88
100
AcDbEntity
  8
_U+30EC_U+30A4_U+30E4_U+30FC 1
 62
     7
420
 16777215
370
    25
100
AcDbVertex
100
AcDb2dVertex
 10
97.73873889536593
 20
-123.9075146912454
 30
0.0
  0
VERTEX
  5
8A
330
88
100
AcDbEntity
  8
_U+30EC_U+30A4_U+30E4_U+30FC 1
 62
     7
420
 16777215
370
    25
100
AcDbVertex
100
AcDb2dVertex
 10
98.43879109972832
 20
-123.45758191358
 30
0.0
  0
SEQEND
  5
8B
330
88
100
AcDbEntity
  8
_U+30EC_U+30A4_U+30E4_U+30FC 1
 62
     7
420
 16777215
370
    25
  0
POLYLINE
  5
8C
330
1F
100
AcDbEntity
  8
_U+30EC_U+30A4_U+30E4_U+30FC 1
 62
     7
420
 16777215
370
    25
100
AcDb2dPolyline
 66
     1
 10
0.0
 20
0.0
 30
0.0
  0
VERTEX
  5
8D
330
8C
100
AcDbEntity
  8
_U+30EC_U+30A4_U+30E4_U+30FC 1
 62
     7
420
 16777215
370
    25
100
AcDbVertex
100
AcDb2dVertex
 10
97.73873889536593
 20
-123.9075146912454
 30
0.0
  0
VERTEX
  5
8E
330
8C
100
AcDbEntity
  8
_U+30EC_U+30A4_U+30E4_U+30FC 1
 62
     7
420
 16777215
370
    25
100
AcDbVertex
100
AcDb2dVertex
 10
97.03868669100352
 20
-123.45758191358
 30
0.0
  0
SEQEND
  5
8F
330
8C
100
AcDbEntity
  8
_U+30EC_U+30A4_U+30E4_U+30FC 1
 62
     7
420
 16777215
370
    25
  0
POLYLINE
  5
90
330
1F
100
AcDbEntity
  8
_U+30EC_U+30A4_U+30E4_U+30FC 1
 62
     7
420
 16777215
370
    25
100
AcDb2dPolyline
 66
     1
 10
0.0
 20
0.0
 30
0.0
  0
VERTEX
  5
91
330
90
100
AcDbEntity
  8
_U+30EC_U+30A4_U+30E4_U+30FC 1
 62
     7
420
 16777215
370
    25
100
AcDbVertex
100
AcDb2dVertex
 10
96.33863448664111
 20
-123.9075146912454
 30
0.0
  0
VERTEX
  5
92
330
90
100
AcDbEntity
  8
_U+30EC_U+30A4_U+30E4_U+30FC 1
 62
     7
420
 16777215
370
    25
100
AcDbVertex
100
AcDb2dVertex
 10
97.03868669100352
 20
-123.45758191358
 30
0.0
  0
SEQEND
  5
93
330
90
100
AcDbEntity
  8
_U+30EC_U+30A4_U+30E4_U+30FC 1
 62
     7
420
 16777215
370
    25
  0
POLYLINE
  5
94
330
1F
100
AcDbEntity
  8
_U+30EC_U+30A4_U+30E4_U+30FC 1
 62
     7
420
 16777215
370
    25
100
AcDb2dPolyline
 66
     1
 10
0.0
 20
0.0
 30
0.0
  0
VERTEX
  5
95
330
94
100
AcDbEntity
  8
_U+30EC_U+30A4_U+30E4_U+30FC 1
 62
     7
420
 16777215
370
    25
100
AcDbVertex
100
AcDb2dVertex
 10
103.3383804191738
 20
-123.9075146912454
 30
0.0
  0
VERTEX
  5
96
330
94
100
AcDbEntity
  8
_U+30EC_U+30A4_U+30E4_U+30FC 1
 62
     7
420
 16777215
370
    25
100
AcDbVertex
100
AcDb2dVertex
 10
108.3386172360516
 20
-123.9075146912454
 30
0.0
  0
SEQEND
  5
97
330
94
100
AcDbEntity
  8
_U+30EC_U+30A4_U+30E4_U+30FC 1
 62
     7
420
 16777215
370
    25
  0
POLYLINE
  5
98
330
1F
100
AcDbEntity
  8
_U+30EC_U+30A4_U+30E4_U+30FC 1
 62
     7
420
 16777215
370
    25
100
AcDb2dPolyline
 66
     1
 10
0.0
 20
0.0
 30
0.0
  0
VERTEX
  5
99
330
98
100
AcDbEntity
  8
_U+30EC_U+30A4_U+30E4_U+30FC 1
 62
     7
420
 16777215
370
    25
100
AcDbVertex
100
AcDb2dVertex
 10
68.33880408986519
 20
-123.9075146912454
 30
0.0
  0
VERTEX
  5
9A
330
98
100
AcDbEntity
  8
_U+30EC_U+30A4_U+30E4_U+30FC 1
 62
     7
420
 16777215
370
    25
100
AcDbVertex
100
AcDb2dVertex
 10
68.33880408986519
 20
-122.9077424692732
 30
0.0
  0
SEQEND
  5
9B
330
98
100
AcDbEntity
  8
_U+30EC_U+30A4_U+30E4_U+30FC 1
 62
     7
420
 16777215
370
    25
  0
POLYLINE
  5
9C
330
1F
100
AcDbEntity
  8
_U+30EC_U+30A4_U+30E4_U+30FC 1
 62
     7
420
 16777215
370
    25
100
AcDb2dPolyline
 66
     1
 10
0.0
 20
0.0
 30
0.0
  0
VERTEX
  5
9D
330
9C
100
AcDbEntity
  8
_U+30EC_U+30A4_U+30E4_U+30FC 1
 62
     7
420
 16777215
370
    25
100
AcDbVertex
100
AcDb2dVertex
 10
78.33853886930422
 20
-136.9080813546619
 30
0.0
  0
VERTEX
  5
9E
330
9C
100
AcDbEntity
  8
_U+30EC_U+30A4_U+30E4_U+30FC 1
 62
     7
420
 16777215
370
    25
100
AcDbVertex
100
AcDb2dVertex
 10
78.33853886930422
 20
-123.9075146912454
 30
0.0
  0
SEQEND
  5
9F
330
9C
100
AcDbEntity
  8
_U+30EC_U+30A4_U+30E4_U+30FC 1
 62
     7
420
 16777215
370
    25
  0
POLYLINE
  5
A0
330
1F
100
AcDbEntity
  8
_U+30EC_U+30A4_U+30E4_U+30FC 1
 62
     7
420
 16777215
370
    25
100
AcDb2dPolyline
 66
     1
 10
0.0
 20
0.0
 30
0.0
  0
VERTEX
  5
A1
330
A0
100
AcDbEntity
  8
_U+30EC_U+30A4_U+30E4_U+30FC 1
 62
     7
420
 16777215
370
    25
100
AcDbVertex
100
AcDb2dVertex
 10
92.33887775469292
 20
-133.9080944109675
 30
0.0
  0
VERTEX
  5
A2
330
A0
100
AcDbEntity
  8
_U+30EC_U+30A4_U+30E4_U+30FC 1
 62
     7
420
 16777215
370
    25
100
AcDbVertex
100
AcDb2dVertex
 10
93.33864997666547
 20
-133.9080944109675
 30
0.0
  0
SEQEND
  5
A3
330
A0
100
AcDbEntity
  8
_U+30EC_U+30A4_U+30E4_U+30FC 1
 62
     7
420
 16777215
370
    25
  0
POLYLINE
  5
A4
330
1F
100
AcDbEntity
  8
_U+30EC_U+30A4_U+30E4_U+30FC 1
 62
     7
420
 16777215
370
    25
100
AcDb2dPolyline
 66
     1
 10
0.0
 20
0.0
 30
0.0
  0
VERTEX
  5
A5
330
A4
100
AcDbEntity
  8
_U+30EC_U+30A4_U+30E4_U+30FC 1
 62
     7
420
 16777215
370
    25
100
AcDbVertex
100
AcDb2dVertex
 10
78.33853886930422
 20
-136.9080813546619
 30
0.0
  0
VERTEX
  5
A6
330
A4
100
AcDbEntity
  8
_U+30EC_U+30A4_U+30E4_U+30FC 1
 62
     7
420
 16777215
370
    25
100
AcDbVertex
100
AcDb2dVertex
 10
93.33864997666547
 20
-136.9080813546619
 30
0.0
  0
SEQEND
  5
A7
330
A4
100
AcDbEntity
  8
_U+30EC_U+30A4_U+30E4_U+30FC 1
 62
     7
420
 16777215
370
    25
  0
POLYLINE
  5
A8
330
1F
100
AcDbEntity
  8
_U+30EC_U+30A4_U+30E4_U+30FC 1
 62
     7
420
 16777215
370
    25
100
AcDb2dPolyline
 66
     1
 10
0.0
 20
0.0
 30
0.0
  0
VERTEX
  5
A9
330
A8
100
AcDbEntity
  8
_U+30EC_U+30A4_U+30E4_U+30FC 1
 62
     7
420
 16777215
370
    25
100
AcDbVertex
100
AcDb2dVertex
 10
79.23840242290439
 20
-135.907638854912
 30
0.0
  0
VERTEX
  5
AA
330
A8
100
AcDbEntity
  8
_U+30EC_U+30A4_U+30E4_U+30FC 1
 62
     7
420
 16777215
370
    25
100
AcDbVertex
100
AcDb2dVertex
 10
92.33887775469292
 20
-135.907638854912
 30
0.0
  0
SEQEND
  5
AB
330
A8
100
AcDbEntity
  8
_U+30EC_U+30A4_U+30E4_U+30FC 1
 62
     7
420
 16777215
370
    25
  0
POLYLINE
  5
AC
330
1F
100
AcDbEntity
  8
_U+30EC_U+30A4_U+30E4_U+30FC 1
 62
     7
420
 16777215
370
    25
100
AcDb2dPolyline
 66
     1
 10
0.0
 20
0.0
 30
0.0
  0
VERTEX
  5
AD
330
AC
100
AcDbEntity
  8
_U+30EC_U+30A4_U+30E4_U+30FC 1
 62
     7
420
 16777215
370
    25
100
AcDbVertex
100
AcDb2dVertex
 10
93.33864997666547
 20
-136.9080813546619
 30
0.0
  0
VERTEX
  5
AE
330
AC
100
AcDbEntity
  8
_U+30EC_U+30A4_U+30E4_U+30FC 1
 62
     7
420
 16777215
370
    25
100
AcDbVertex
100
AcDb2dVertex
 10
93.33864997666547
 20
-133.9080944109675
 30
0.0
  0
SEQEND
  5
AF
330
AC
100
AcDbEntity
  8
_U+30EC_U+30A4_U+30E4_U+30FC 1
 62
     7
420
 16777215
370
    25
  0
POLYLINE
  5
B0
330
1F
100
AcDbEntity
  8
_U+30EC_U+30A4_U+30E4_U+30FC 1
 62
     7
420
 16777215
370
    25
100
AcDb2dPolyline
 66
     1
 10
0.0
 20
0.0
 30
0.0
  0
VERTEX
  5
B1
330
B0
100
AcDbEntity
  8
_U+30EC_U+30A4_U+30E4_U+30FC 1
 62
     7
420
 16777215
370
    25
100
AcDbVertex
100
AcDb2dVertex
 10
92.33887775469292
 20
-135.907638854912
 30
0.0
  0
VERTEX
  5
B2
330
B0
100
AcDbEntity
  8
_U+30EC_U+30A4_U+30E4_U+30FC 1
 62
     7
420
 16777215
370
    25
100
AcDbVertex
100
AcDb2dVertex
 10
92.33887775469292
 20
-133.9080944109675
 30
0.0
  0
SEQEND
  5
B3
330
B0
100
AcDbEntity
  8
_U+30EC_U+30A4_U+30E4_U+30FC 1
 62
     7
420
 16777215
370
    25
  0
POLYLINE
  5
B4
330
1F
100
AcDbEntity
  8
_U+30EC_U+30A4_U+30E4_U+30FC 1
 62
     7
420
 16777215
370
    25
100
AcDb2dPolyline
 66
     1
 10
0.0
 20
0.0
 30
0.0
  0
VERTEX
  5
B5
330
B4
100
AcDbEntity
  8
_U+30EC_U+30A4_U+30E4_U+30FC 1
 62
     7
420
 16777215
370
    25
100
AcDbVertex
100
AcDb2dVertex
 10
79.23840242290439
 20
-135.907638854912
 30
0.0
  0
VERTEX
  5
B6
330
B4
100
AcDbEntity
  8
_U+30EC_U+30A4_U+30E4_U+30FC 1
 62
     7
420
 16777215
370
    25
100
AcDbVertex
100
AcDb2dVertex
 10
79.23840242290439
 20
-123.9075146912454
 30
0.0
  0
SEQEND
  5
B7
330
B4
100
AcDbEntity
  8
_U+30EC_U+30A4_U+30E4_U+30FC 1
 62
     7
420
 16777215
370
    25
  0
SPLINE
  5
B8
330
1F
100
AcDbEntity
  8
_U+30EC_U+30A4_U+30E4_U+30FC 1
 62
     7
420
 16777215
370
     9
100
AcDbSpline
210
0.0
220
0.0
230
1.0
 70
    11
 71
     3
 72
    17
 73
    13
 74
     0
 42
0.0000000001
 43
0.0000000001
 12
1.0
 22
0.0
 32
0.0
 13
1.0
 23
0.0
 33
0.0
 40
0.0
 40
0.0
 40
0.0
 40
0.0
 40
1.0
 40
1.0
 40
1.0
 40
2.0
 40
2.0
 40
2.0
 40
3.0
 40
3.0
 40
3.0
 40
4.0
 40
4.0
 40
4.0
 40
4.0
 10
68.43871075398303
 20
-118.9073130258286
 30
0.0
 10
68.43871075398303
 20
-118.8521738591759
 30
0.0
 10
68.39394325512514
 20
-118.807406359187
 30
0.0
 10
68.33880408986519
 20
-118.807406359187
 30
0.0
 10
68.28370020238212
 20
-118.807406359187
 30
0.0
 10
68.23889742574735
 20
-118.8521738591759
 30
0.0
 10
68.23889742574735
 20
-118.9073130258286
 30
0.0
 10
68.23889742574735
 20
-118.9631224702594
 30
0.0
 10
68.28370020238212
 20
-119.0078899702479
 30
0.0
 10
68.33880408986519
 20
-119.0078899702479
 30
0.0
 10
68.39394325512514
 20
-119.0078899702479
 30
0.0
 10
68.43871075398303
 20
-118.9631224702594
 30
0.0
 10
68.43871075398303
 20
-118.9073130258286
 30
0.0
  0
SPLINE
  5
B9
330
1F
100
AcDbEntity
  8
_U+30EC_U+30A4_U+30E4_U+30FC 1
 62
     7
420
 16777215
370
     9
100
AcDbSpline
210
0.0
220
0.0
230
1.0
 70
    11
 71
     3
 72
    17
 73
    13
 74
     0
 42
0.0000000001
 43
0.0000000001
 12
1.0
 22
0.0
 32
0.0
 13
1.0
 23
0.0
 33
0.0
 40
0.0
 40
0.0
 40
0.0
 40
0.0
 40
1.0
 40
1.0
 40
1.0
 40
2.0
 40
2.0
 40
2.0
 40
3.0
 40
3.0
 40
3.0
 40
4.0
 40
4.0
 40
4.0
 40
4.0
 10
108.4385239001694
 20
-118.9073130258286
 30
0.0
 10
108.4385239001694
 20
-118.8521738591759
 30
0.0
 10
108.3937211235347
 20
-118.807406359187
 30
0.0
 10
108.3386172360516
 20
-118.807406359187
 30
0.0
 10
108.2834780707917
 20
-118.807406359187
 30
0.0
 10
108.2387105719338
 20
-118.8521738591759
 30
0.0
 10
108.2387105719338
 20
-118.9073130258286
 30
0.0
 10
108.2387105719338
 20
-118.9631224702594
 30
0.0
 10
108.2834780707917
 20
-119.0078899702479
 30
0.0
 10
108.3386172360516
 20
-119.0078899702479
 30
0.0
 10
108.3937211235347
 20
-119.0078899702479
 30
0.0
 10
108.4385239001694
 20
-118.9631224702594
 30
0.0
 10
108.4385239001694
 20
-118.9073130258286
 30
0.0
  0
SPLINE
  5
BA
330
1F
100
AcDbEntity
  8
_U+30EC_U+30A4_U+30E4_U+30FC 1
 62
     7
420
 16777215
370
     9
100
AcDbSpline
210
0.0
220
0.0
230
1.0
 70
    11
 71
     3
 72
    17
 73
    13
 74
     0
 42
0.0000000001
 43
0.0000000001
 12
1.0
 22
0.0
 32
0.0
 13
1.0
 23
0.0
 33
0.0
 40
0.0
 40
0.0
 40
0.0
 40
0.0
 40
1.0
 40
1.0
 40
1.0
 40
2.0
 40
2.0
 40
2.0
 40
3.0
 40
3.0
 40
3.0
 40
4.0
 40
4.0
 40
4.0
 40
4.0
 10
112.4389532425544
 20
-122.9077424692732
 30
0.0
 10
112.4389532425544
 20
-122.852638580398
 30
0.0
 10
112.3941857436965
 20
-122.8078358026316
 30
0.0
 10
112.3383763006759
 20
-122.8078358026316
 30
0.0
 10
112.283237135416
 20
-122.8078358026316
 30
0.0
 10
112.2384696365581
 20
-122.852638580398
 30
0.0
 10
112.2384696365581
 20
-122.9077424692732
 30
0.0
 10
112.2384696365581
 20
-122.962881635926
 30
0.0
 10
112.283237135416
 20
-123.0076491359148
 30
0.0
 10
112.3383763006759
 20
-123.0076491359148
 30
0.0
 10
112.3941857436965
 20
-123.0076491359148
 30
0.0
 10
112.4389532425544
 20
-122.962881635926
 30
0.0
 10
112.4389532425544
 20
-122.9077424692732
 30
0.0
  0
SPLINE
  5
BB
330
1F
100
AcDbEntity
  8
_U+30EC_U+30A4_U+30E4_U+30FC 1
 62
     7
420
 16777215
370
     9
100
AcDbSpline
210
0.0
220
0.0
230
1.0
 70
    11
 71
     3
 72
    17
 73
    13
 74
     0
 42
0.0000000001
 43
0.0000000001
 12
1.0
 22
0.0
 32
0.0
 13
1.0
 23
0.0
 33
0.0
 40
0.0
 40
0.0
 40
0.0
 40
0.0
 40
1.0
 40
1.0
 40
1.0
 40
2.0
 40
2.0
 40
2.0
 40
3.0
 40
3.0
 40
3.0
 40
4.0
 40
4.0
 40
4.0
 40
4.0
 10
112.4389532425544
 20
-123.9075146912454
 30
0.0
 10
112.4389532425544
 20
-123.8523755245923
 30
0.0
 10
112.3941857436965
 20
-123.8076080246038
 30
0.0
 10
112.3383763006759
 20
-123.8076080246038
 30
0.0
 10
112.283237135416
 20
-123.8076080246038
 30
0.0
 10
112.2384696365581
 20
-123.8523755245923
 30
0.0
 10
112.2384696365581
 20
-123.9075146912454
 30
0.0
 10
112.2384696365581
 20
-123.9626185801203
 30
0.0
 10
112.283237135416
 20
-124.0074213578871
 30
0.0
 10
112.3383763006759
 20
-124.0074213578871
 30
0.0
 10
112.3941857436965
 20
-124.0074213578871
 30
0.0
 10
112.4389532425544
 20
-123.9626185801203
 30
0.0
 10
112.4389532425544
 20
-123.9075146912454
 30
0.0
  0
SPLINE
  5
BC
330
1F
100
AcDbEntity
  8
_U+30EC_U+30A4_U+30E4_U+30FC 1
 62
     7
420
 16777215
370
     9
100
AcDbSpline
210
0.0
220
0.0
230
1.0
 70
    11
 71
     3
 72
    17
 73
    13
 74
     0
 42
0.0000000001
 43
0.0000000001
 12
1.0
 22
0.0
 32
0.0
 13
1.0
 23
0.0
 33
0.0
 40
0.0
 40
0.0
 40
0.0
 40
0.0
 40
1.0
 40
1.0
 40
1.0
 40
2.0
 40
2.0
 40
2.0
 40
3.0
 40
3.0
 40
3.0
 40
4.0
 40
4.0
 40
4.0
 40
4.0
 10
112.4389532425544
 20
-133.9080944109675
 30
0.0
 10
112.4389532425544
 20
-133.8522849665371
 30
0.0
 10
112.3941857436965
 20
-133.8075174665479
 30
0.0
 10
112.3383763006759
 20
-133.8075174665479
 30
0.0
 10
112.283237135416
 20
-133.8075174665479
 30
0.0
 10
112.2384696365581
 20
-133.8522849665371
 30
0.0
 10
112.2384696365581
 20
-133.9080944109675
 30
0.0
 10
112.2384696365581
 20
-133.9632335776206
 30
0.0
 10
112.283237135416
 20
-134.0080010776092
 30
0.0
 10
112.3383763006759
 20
-134.0080010776092
 30
0.0
 10
112.3941857436965
 20
-134.0080010776092
 30
0.0
 10
112.4389532425544
 20
-133.9632335776206
 30
0.0
 10
112.4389532425544
 20
-133.9080944109675
 30
0.0
  0
SPLINE
  5
BD
330
1F
100
AcDbEntity
  8
_U+30EC_U+30A4_U+30E4_U+30FC 1
 62
     7
420
 16777215
370
     9
100
AcDbSpline
210
0.0
220
0.0
230
1.0
 70
    11
 71
     3
 72
    17
 73
    13
 74
     0
 42
0.0000000001
 43
0.0000000001
 12
1.0
 22
0.0
 32
0.0
 13
1.0
 23
0.0
 33
0.0
 40
0.0
 40
0.0
 40
0.0
 40
0.0
 40
1.0
 40
1.0
 40
1.0
 40
2.0
 40
2.0
 40
2.0
 40
3.0
 40
3.0
 40
3.0
 40
4.0
 40
4.0
 40
4.0
 40
4.0
 10
112.4389532425544
 20
-136.9080813546619
 30
0.0
 10
112.4389532425544
 20
-136.8522719102315
 30
0.0
 10
112.3941857436965
 20
-136.8075044102429
 30
0.0
 10
112.3383763006759
 20
-136.8075044102429
 30
0.0
 10
112.283237135416
 20
-136.8075044102429
 30
0.0
 10
112.2384696365581
 20
-136.8522719102315
 30
0.0
 10
112.2384696365581
 20
-136.9080813546619
 30
0.0
 10
112.2384696365581
 20
-136.963220521315
 30
0.0
 10
112.283237135416
 20
-137.0079880213035
 30
0.0
 10
112.3383763006759
 20
-137.0079880213035
 30
0.0
 10
112.3941857436965
 20
-137.0079880213035
 30
0.0
 10
112.4389532425544
 20
-136.963220521315
 30
0.0
 10
112.4389532425544
 20
-136.9080813546619
 30
0.0
  0
SPLINE
  5
BE
330
1F
100
AcDbEntity
  8
_U+30EC_U+30A4_U+30E4_U+30FC 1
 62
     7
420
 16777215
370
     9
100
AcDbSpline
210
0.0
220
0.0
230
1.0
 70
    11
 71
     3
 72
    17
 73
    13
 74
     0
 42
0.0000000001
 43
0.0000000001
 12
1.0
 22
0.0
 32
0.0
 13
1.0
 23
0.0
 33
0.0
 40
0.0
 40
0.0
 40
0.0
 40
0.0
 40
1.0
 40
1.0
 40
1.0
 40
2.0
 40
2.0
 40
2.0
 40
3.0
 40
3.0
 40
3.0
 40
4.0
 40
4.0
 40
4.0
 40
4.0
 10
78.43844355442414
 20
-140.9078405203288
 30
0.0
 10
78.43844355442414
 20
-140.8527366314532
 30
0.0
 10
78.39367605556626
 20
-140.8079338536871
 30
0.0
 10
78.33853886930422
 20
-140.8079338536871
 30
0.0
 10
78.28343300282324
 20
-140.8079338536871
 30
0.0
 10
78.23863022618848
 20
-140.8527366314532
 30
0.0
 10
78.23863022618848
 20
-140.9078405203288
 30
0.0
 10
78.23863022618848
 20
-140.9629796869812
 30
0.0
 10
78.28343300282324
 20
-141.0077471869704
 30
0.0
 10
78.33853886930422
 20
-141.0077471869704
 30
0.0
 10
78.39367605556626
 20
-141.0077471869704
 30
0.0
 10
78.43844355442414
 20
-140.9629796869812
 30
0.0
 10
78.43844355442414
 20
-140.9078405203288
 30
0.0
  0
SPLINE
  5
BF
330
1F
100
AcDbEntity
  8
_U+30EC_U+30A4_U+30E4_U+30FC 1
 62
     7
420
 16777215
370
     9
100
AcDbSpline
210
0.0
220
0.0
230
1.0
 70
    11
 71
     3
 72
    17
 73
    13
 74
     0
 42
0.0000000001
 43
0.0000000001
 12
1.0
 22
0.0
 32
0.0
 13
1.0
 23
0.0
 33
0.0
 40
0.0
 40
0.0
 40
0.0
 40
0.0
 40
1.0
 40
1.0
 40
1.0
 40
2.0
 40
2.0
 40
2.0
 40
3.0
 40
3.0
 40
3.0
 40
4.0
 40
4.0
 40
4.0
 40
4.0
 10
93.43855428285055
 20
-140.9078405203288
 30
0.0
 10
93.43855428285055
 20
-140.8527366314532
 30
0.0
 10
93.39378678399267
 20
-140.8079338536871
 30
0.0
 10
93.33864997666547
 20
-140.8079338536871
 30
0.0
 10
93.28354373124964
 20
-140.8079338536871
 30
0.0
 10
93.23874095461488
 20
-140.8527366314532
 30
0.0
 10
93.23874095461488
 20
-140.9078405203288
 30
0.0
 10
93.23874095461488
 20
-140.9629796869812
 30
0.0
 10
93.28354373124964
 20
-141.0077471869704
 30
0.0
 10
93.33864997666547
 20
-141.0077471869704
 30
0.0
 10
93.39378678399267
 20
-141.0077471869704
 30
0.0
 10
93.43855428285055
 20
-140.9629796869812
 30
0.0
 10
93.43855428285055
 20
-140.9078405203288
 30
0.0
  0
SPLINE
  5
C0
330
1F
100
AcDbEntity
  8
_U+30EC_U+30A4_U+30E4_U+30FC 1
 62
     7
420
 16777215
370
     9
100
AcDbSpline
210
0.0
220
0.0
230
1.0
 70
    11
 71
     3
 72
    17
 73
    13
 74
     0
 42
0.0000000001
 43
0.0000000001
 12
1.0
 22
0.0
 32
0.0
 13
1.0
 23
0.0
 33
0.0
 40
0.0
 40
0.0
 40
0.0
 40
0.0
 40
1.0
 40
1.0
 40
1.0
 40
2.0
 40
2.0
 40
2.0
 40
3.0
 40
3.0
 40
3.0
 40
4.0
 40
4.0
 40
4.0
 40
4.0
 10
68.43871075398303
 20
-140.9078405203288
 30
0.0
 10
68.43871075398303
 20
-140.8527366314532
 30
0.0
 10
68.39394325512514
 20
-140.8079338536871
 30
0.0
 10
68.33880408986519
 20
-140.8079338536871
 30
0.0
 10
68.28370020238212
 20
-140.8079338536871
 30
0.0
 10
68.23889742574735
 20
-140.8527366314532
 30
0.0
 10
68.23889742574735
 20
-140.9078405203288
 30
0.0
 10
68.23889742574735
 20
-140.9629796869812
 30
0.0
 10
68.28370020238212
 20
-141.0077471869704
 30
0.0
 10
68.33880408986519
 20
-141.0077471869704
 30
0.0
 10
68.39394325512514
 20
-141.0077471869704
 30
0.0
 10
68.43871075398303
 20
-140.9629796869812
 30
0.0
 10
68.43871075398303
 20
-140.9078405203288
 30
0.0
  0
POLYLINE
  5
C1
330
1F
100
AcDbEntity
  8
_U+30EC_U+30A4_U+30E4_U+30FC 1
 62
     7
420
 16777215
370
     9
100
AcDb2dPolyline
 66
     1
 10
0.0
 20
0.0
 30
0.0
  0
VERTEX
  5
C2
330
C1
100
AcDbEntity
  8
_U+30EC_U+30A4_U+30E4_U+30FC 1
 62
     7
420
 16777215
370
     9
100
AcDbVertex
100
AcDb2dVertex
 10
68.33880408986519
 20
-118.9073130258286
 30
0.0
  0
VERTEX
  5
C3
330
C1
100
AcDbEntity
  8
_U+30EC_U+30A4_U+30E4_U+30FC 1
 62
     7
420
 16777215
370
     9
100
AcDbVertex
100
AcDb2dVertex
 10
108.3386172360516
 20
-118.9073130258286
 30
0.0
  0
SEQEND
  5
C4
330
C1
100
AcDbEntity
  8
_U+30EC_U+30A4_U+30E4_U+30FC 1
 62
     7
420
 16777215
370
     9
  0
POLYLINE
  5
C5
330
1F
100
AcDbEntity
  8
_U+30EC_U+30A4_U+30E4_U+30FC 1
 62
     7
420
 16777215
370
     9
100
AcDb2dPolyline
 66
     1
 10
0.0
 20
0.0
 30
0.0
  0
VERTEX
  5
C6
330
C5
100
AcDbEntity
  8
_U+30EC_U+30A4_U+30E4_U+30FC 1
 62
     7
420
 16777215
370
     9
100
AcDbVertex
100
AcDb2dVertex
 10
68.33880408986519
 20
-120.3673191365748
 30
0.0
  0
VERTEX
  5
C7
330
C5
100
AcDbEntity
  8
_U+30EC_U+30A4_U+30E4_U+30FC 1
 62
     7
420
 16777215
370
     9
100
AcDbVertex
100
AcDb2dVertex
 10
68.33880408986519
 20
-117.9075408038564
 30
0.0
  0
SEQEND
  5
C8
330
C5
100
AcDbEntity
  8
_U+30EC_U+30A4_U+30E4_U+30FC 1
 62
     7
420
 16777215
370
     9
  0
POLYLINE
  5
C9
330
1F
100
AcDbEntity
  8
_U+30EC_U+30A4_U+30E4_U+30FC 1
 62
     7
420
 16777215
370
     9
100
AcDb2dPolyline
 66
     1
 10
0.0
 20
0.0
 30
0.0
  0
VERTEX
  5
CA
330
C9
100
AcDbEntity
  8
_U+30EC_U+30A4_U+30E4_U+30FC 1
 62
     7
420
 16777215
370
     9
100
AcDbVertex
100
AcDb2dVertex
 10
108.3386172360516
 20
-120.3673191365748
 30
0.0
  0
VERTEX
  5
CB
330
C9
100
AcDbEntity
  8
_U+30EC_U+30A4_U+30E4_U+30FC 1
 62
     7
420
 16777215
370
     9
100
AcDbVertex
100
AcDb2dVertex
 10
108.3386172360516
 20
-117.9075408038564
 30
0.0
  0
SEQEND
  5
CC
330
C9
100
AcDbEntity
  8
_U+30EC_U+30A4_U+30E4_U+30FC 1
 62
     7
420
 16777215
370
     9
  0
INSERT
  5
CE
330
1F
100
AcDbEntity
  8
_U+30EC_U+30A4_U+30E4_U+30FC 1
100
AcDbBlockReference
  2
block 2
 10
0.0
 20
0.0
 30
0.0
  0
POLYLINE
  5
E9
330
1F
100
AcDbEntity
  8
_U+30EC_U+30A4_U+30E4_U+30FC 1
 62
     7
420
 16777215
370
     9
100
AcDb2dPolyline
 66
     1
 10
0.0
 20
0.0
 30
0.0
  0
VERTEX
  5
EA
330
E9
100
AcDbEntity
  8
_U+30EC_U+30A4_U+30E4_U+30FC 1
 62
     7
420
 16777215
370
     9
100
AcDbVertex
100
AcDb2dVertex
 10
68.33880408986519
 20
-140.9078405203288
 30
0.0
  0
VERTEX
  5
EB
330
E9
100
AcDbEntity
  8
_U+30EC_U+30A4_U+30E4_U+30FC 1
 62
     7
420
 16777215
370
     9
100
AcDbVertex
100
AcDb2dVertex
 10
78.33853886930422
 20
-140.9078405203288
 30
0.0
  0
SEQEND
  5
EC
330
E9
100
AcDbEntity
  8
_U+30EC_U+30A4_U+30E4_U+30FC 1
 62
     7
420
 16777215
370
     9
  0
POLYLINE
  5
ED
330
1F
100
AcDbEntity
  8
_U+30EC_U+30A4_U+30E4_U+30FC 1
 62
     7
420
 16777215
370
     9
100
AcDb2dPolyline
 66
     1
 10
0.0
 20
0.0
 30
0.0
  0
VERTEX
  5
EE
330
ED
100
AcDbEntity
  8
_U+30EC_U+30A4_U+30E4_U+30FC 1
 62
     7
420
 16777215
370
     9
100
AcDbVertex
100
AcDb2dVertex
 10
68.33880408986519
 20
-126.4479380239435
 30
0.0
  0
VERTEX
  5
EF
330
ED
100
AcDbEntity
  8
_U+30EC_U+30A4_U+30E4_U+30FC 1
 62
     7
420
 16777215
370
     9
100
AcDbVertex
100
AcDb2dVertex
 10
68.33880408986519
 20
-141.9076127423007
 30
0.0
  0
SEQEND
  5
F0
330
ED
100
AcDbEntity
  8
_U+30EC_U+30A4_U+30E4_U+30FC 1
 62
     7
420
 16777215
370
     9
  0
POLYLINE
  5
F1
330
1F
100
AcDbEntity
  8
_U+30EC_U+30A4_U+30E4_U+30FC 1
 62
     7
420
 16777215
370
     9
100
AcDb2dPolyline
 66
     1
 10
0.0
 20
0.0
 30
0.0
  0
VERTEX
  5
F2
330
F1
100
AcDbEntity
  8
_U+30EC_U+30A4_U+30E4_U+30FC 1
 62
     7
420
 16777215
370
     9
100
AcDbVertex
100
AcDb2dVertex
 10
78.33853886930422
 20
-139.4478344095826
 30
0.0
  0
VERTEX
  5
F3
330
F1
100
AcDbEntity
  8
_U+30EC_U+30A4_U+30E4_U+30FC 1
 62
     7
420
 16777215
370
     9
100
AcDbVertex
100
AcDb2dVertex
 10
78.33853886930422
 20
-141.9076127423007
 30
0.0
  0
SEQEND
  5
F4
330
F1
100
AcDbEntity
  8
_U+30EC_U+30A4_U+30E4_U+30FC 1
 62
     7
420
 16777215
370
     9
  0
INSERT
  5
F6
330
1F
100
AcDbEntity
  8
_U+30EC_U+30A4_U+30E4_U+30FC 1
100
AcDbBlockReference
  2
block 3
 10
0.0
 20
0.0
 30
0.0
  0
POLYLINE
  5
FE
330
1F
100
AcDbEntity
  8
_U+30EC_U+30A4_U+30E4_U+30FC 1
 62
     7
420
 16777215
370
     9
100
AcDb2dPolyline
 66
     1
 10
0.0
 20
0.0
 30
0.0
  0
VERTEX
  5
FF
330
FE
100
AcDbEntity
  8
_U+30EC_U+30A4_U+30E4_U+30FC 1
 62
     7
420
 16777215
370
     9
100
AcDbVertex
100
AcDb2dVertex
 10
78.33853886930422
 20
-140.9078405203288
 30
0.0
  0
VERTEX
  5
100
330
FE
100
AcDbEntity
  8
_U+30EC_U+30A4_U+30E4_U+30FC 1
 62
     7
420
 16777215
370
     9
100
AcDbVertex
100
AcDb2dVertex
 10
93.33864997666547
 20
-140.9078405203288
 30
0.0
  0
SEQEND
  5
101
330
FE
100
AcDbEntity
  8
_U+30EC_U+30A4_U+30E4_U+30FC 1
 62
     7
420
 16777215
370
     9
  0
POLYLINE
  5
102
330
1F
100
AcDbEntity
  8
_U+30EC_U+30A4_U+30E4_U+30FC 1
 62
     7
420
 16777215
370
     9
100
AcDb2dPolyline
 66
     1
 10
0.0
 20
0.0
 30
0.0
  0
VERTEX
  5
103
330
102
100
AcDbEntity
  8
_U+30EC_U+30A4_U+30E4_U+30FC 1
 62
     7
420
 16777215
370
     9
100
AcDbVertex
100
AcDb2dVertex
 10
93.33864997666547
 20
-139.4478344095826
 30
0.0
  0
VERTEX
  5
104
330
102
100
AcDbEntity
  8
_U+30EC_U+30A4_U+30E4_U+30FC 1
 62
     7
420
 16777215
370
     9
100
AcDbVertex
100
AcDb2dVertex
 10
93.33864997666547
 20
-141.9076127423007
 30
0.0
  0
SEQEND
  5
105
330
102
100
AcDbEntity
  8
_U+30EC_U+30A4_U+30E4_U+30FC 1
 62
     7
420
 16777215
370
     9
  0
INSERT
  5
107
330
1F
100
AcDbEntity
  8
_U+30EC_U+30A4_U+30E4_U+30FC 1
100
AcDbBlockReference
  2
block 4
 10
0.0
 20
0.0
 30
0.0
  0
POLYLINE
  5
10E
330
1F
100
AcDbEntity
  8
_U+30EC_U+30A4_U+30E4_U+30FC 1
 62
     7
420
 16777215
370
     9
100
AcDb2dPolyline
 66
     1
 10
0.0
 20
0.0
 30
0.0
  0
VERTEX
  5
10F
330
10E
100
AcDbEntity
  8
_U+30EC_U+30A4_U+30E4_U+30FC 1
 62
     7
420
 16777215
370
     9
100
AcDbVertex
100
AcDb2dVertex
 10
112.3383763006759
 20
-122.9077424692732
 30
0.0
  0
VERTEX
  5
110
330
10E
100
AcDbEntity
  8
_U+30EC_U+30A4_U+30E4_U+30FC 1
 62
     7
420
 16777215
370
     9
100
AcDbVertex
100
AcDb2dVertex
 10
112.3383763006759
 20
-119.1374299702158
 30
0.0
  0
SEQEND
  5
111
330
10E
100
AcDbEntity
  8
_U+30EC_U+30A4_U+30E4_U+30FC 1
 62
     7
420
 16777215
370
     9
  0
POLYLINE
  5
112
330
1F
100
AcDbEntity
  8
_U+30EC_U+30A4_U+30E4_U+30FC 1
 62
     7
420
 16777215
370
     9
100
AcDb2dPolyline
 66
     1
 10
0.0
 20
0.0
 30
0.0
  0
VERTEX
  5
113
330
112
100
AcDbEntity
  8
_U+30EC_U+30A4_U+30E4_U+30FC 1
 62
     7
420
 16777215
370
     9
100
AcDbVertex
100
AcDb2dVertex
 10
112.3383763006759
 20
-122.9077424692732
 30
0.0
  0
VERTEX
  5
114
330
112
100
AcDbEntity
  8
_U+30EC_U+30A4_U+30E4_U+30FC 1
 62
     7
420
 16777215
370
     9
100
AcDbVertex
100
AcDb2dVertex
 10
112.3383763006759
 20
-123.9075146912454
 30
0.0
  0
SEQEND
  5
115
330
112
100
AcDbEntity
  8
_U+30EC_U+30A4_U+30E4_U+30FC 1
 62
     7
420
 16777215
370
     9
  0
POLYLINE
  5
116
330
1F
100
AcDbEntity
  8
_U+30EC_U+30A4_U+30E4_U+30FC 1
 62
     7
420
 16777215
370
     9
100
AcDb2dPolyline
 66
     1
 10
0.0
 20
0.0
 30
0.0
  0
VERTEX
  5
117
330
116
100
AcDbEntity
  8
_U+30EC_U+30A4_U+30E4_U+30FC 1
 62
     7
420
 16777215
370
     9
100
AcDbVertex
100
AcDb2dVertex
 10
110.8783349490358
 20
-122.9077424692732
 30
0.0
  0
VERTEX
  5
118
330
116
100
AcDbEntity
  8
_U+30EC_U+30A4_U+30E4_U+30FC 1
 62
     7
420
 16777215
370
     9
100
AcDbVertex
100
AcDb2dVertex
 10
113.3388187751525
 20
-122.9077424692732
 30
0.0
  0
SEQEND
  5
119
330
116
100
AcDbEntity
  8
_U+30EC_U+30A4_U+30E4_U+30FC 1
 62
     7
420
 16777215
370
     9
  0
POLYLINE
  5
11A
330
1F
100
AcDbEntity
  8
_U+30EC_U+30A4_U+30E4_U+30FC 1
 62
     7
420
 16777215
370
     9
100
AcDb2dPolyline
 66
     1
 10
0.0
 20
0.0
 30
0.0
  0
VERTEX
  5
11B
330
11A
100
AcDbEntity
  8
_U+30EC_U+30A4_U+30E4_U+30FC 1
 62
     7
420
 16777215
370
     9
100
AcDbVertex
100
AcDb2dVertex
 10
110.8783349490358
 20
-123.9075146912454
 30
0.0
  0
VERTEX
  5
11C
330
11A
100
AcDbEntity
  8
_U+30EC_U+30A4_U+30E4_U+30FC 1
 62
     7
420
 16777215
370
     9
100
AcDbVertex
100
AcDb2dVertex
 10
113.3388187751525
 20
-123.9075146912454
 30
0.0
  0
SEQEND
  5
11D
330
11A
100
AcDbEntity
  8
_U+30EC_U+30A4_U+30E4_U+30FC 1
 62
     7
420
 16777215
370
     9
  0
INSERT
  5
11F
330
1F
100
AcDbEntity
  8
_U+30EC_U+30A4_U+30E4_U+30FC 1
100
AcDbBlockReference
  2
block 5
 10
0.0
 20
0.0
 30
0.0
  0
POLYLINE
  5
124
330
1F
100
AcDbEntity
  8
_U+30EC_U+30A4_U+30E4_U+30FC 1
 62
     7
420
 16777215
370
     9
100
AcDb2dPolyline
 66
     1
 10
0.0
 20
0.0
 30
0.0
  0
VERTEX
  5
125
330
124
100
AcDbEntity
  8
_U+30EC_U+30A4_U+30E4_U+30FC 1
 62
     7
420
 16777215
370
     9
100
AcDbVertex
100
AcDb2dVertex
 10
112.3383763006759
 20
-123.9075146912454
 30
0.0
  0
VERTEX
  5
126
330
124
100
AcDbEntity
  8
_U+30EC_U+30A4_U+30E4_U+30FC 1
 62
     7
420
 16777215
370
     9
100
AcDbVertex
100
AcDb2dVertex
 10
112.3383763006759
 20
-133.9080944109675
 30
0.0
  0
SEQEND
  5
127
330
124
100
AcDbEntity
  8
_U+30EC_U+30A4_U+30E4_U+30FC 1
 62
     7
420
 16777215
370
     9
  0
POLYLINE
  5
128
330
1F
100
AcDbEntity
  8
_U+30EC_U+30A4_U+30E4_U+30FC 1
 62
     7
420
 16777215
370
     9
100
AcDb2dPolyline
 66
     1
 10
0.0
 20
0.0
 30
0.0
  0
VERTEX
  5
129
330
128
100
AcDbEntity
  8
_U+30EC_U+30A4_U+30E4_U+30FC 1
 62
     7
420
 16777215
370
     9
100
AcDbVertex
100
AcDb2dVertex
 10
95.87840060949377
 20
-133.9080944109675
 30
0.0
  0
VERTEX
  5
12A
330
128
100
AcDbEntity
  8
_U+30EC_U+30A4_U+30E4_U+30FC 1
 62
     7
420
 16777215
370
     9
100
AcDbVertex
100
AcDb2dVertex
 10
113.3388187751525
 20
-133.9080944109675
 30
0.0
  0
SEQEND
  5
12B
330
128
100
AcDbEntity
  8
_U+30EC_U+30A4_U+30E4_U+30FC 1
 62
     7
420
 16777215
370
     9
  0
INSERT
  5
12D
330
1F
100
AcDbEntity
  8
_U+30EC_U+30A4_U+30E4_U+30FC 1
100
AcDbBlockReference
  2
block 6
 10
0.0
 20
0.0
 30
0.0
  0
POLYLINE
  5
135
330
1F
100
AcDbEntity
  8
_U+30EC_U+30A4_U+30E4_U+30FC 1
 62
     7
420
 16777215
370
     9
100
AcDb2dPolyline
 66
     1
 10
0.0
 20
0.0
 30
0.0
  0
VERTEX
  5
136
330
135
100
AcDbEntity
  8
_U+30EC_U+30A4_U+30E4_U+30FC 1
 62
     7
420
 16777215
370
     9
100
AcDbVertex
100
AcDb2dVertex
 10
112.3383763006759
 20
-136.9080813546619
 30
0.0
  0
VERTEX
  5
137
330
135
100
AcDbEntity
  8
_U+30EC_U+30A4_U+30E4_U+30FC 1
 62
     7
420
 16777215
370
     9
100
AcDbVertex
100
AcDb2dVertex
 10
112.3383763006759
 20
-133.9080944109675
 30
0.0
  0
SEQEND
  5
138
330
135
100
AcDbEntity
  8
_U+30EC_U+30A4_U+30E4_U+30FC 1
 62
     7
420
 16777215
370
     9
  0
POLYLINE
  5
139
330
1F
100
AcDbEntity
  8
_U+30EC_U+30A4_U+30E4_U+30FC 1
 62
     7
420
 16777215
370
     9
100
AcDb2dPolyline
 66
     1
 10
0.0
 20
0.0
 30
0.0
  0
VERTEX
  5
13A
330
139
100
AcDbEntity
  8
_U+30EC_U+30A4_U+30E4_U+30FC 1
 62
     7
420
 16777215
370
     9
100
AcDbVertex
100
AcDb2dVertex
 10
95.87840060949377
 20
-136.9080813546619
 30
0.0
  0
VERTEX
  5
13B
330
139
100
AcDbEntity
  8
_U+30EC_U+30A4_U+30E4_U+30FC 1
 62
     7
420
 16777215
370
     9
100
AcDbVertex
100
AcDb2dVertex
 10
113.3388187751525
 20
-136.9080813546619
 30
0.0
  0
SEQEND
  5
13C
330
139
100
AcDbEntity
  8
_U+30EC_U+30A4_U+30E4_U+30FC 1
 62
     7
420
 16777215
370
     9
  0
INSERT
  5
13E
330
1F
100
AcDbEntity
  8
_U+30EC_U+30A4_U+30E4_U+30FC 1
100
AcDbBlockReference
  2
block 7
 10
0.0
 20
0.0
 30
0.0
  0
ENDSEC
  0
SECTION
  2
OBJECTS
  0
DICTIONARY
  5
C
330
0
100
AcDbDictionary
281
     1
  3
ACAD_GROUP
350
D
  3
ACAD_LAYOUT
350
1A
  3
ACAD_MATERIAL
350
3B
  3
ACAD_MLEADERSTYLE
350
144
  3
ACAD_MLINESTYLE
350
17
  3
ACAD_PLOTSETTINGS
350
19
  3
ACAD_PLOTSTYLENAME
350
E
  3
ACAD_TABLESTYLE
350
143
  3
ACAD_VISUALSTYLE
350
2A
  0
SUN
  5
3F
330
29
100
AcDbSun
 90
        1
290
     0
 63
     7
421
 16777215
 40
1.0
291
     1
 91
  2455826
 92
 54000000
292
     0
 70
     2
 71
   256
280
     1
  0
DICTIONARY
  5
D
102
{ACAD_REACTORS
330
C
102
}
330
C
100
AcDbDictionary
281
     1
  0
DICTIONARY
  5
1A
102
{ACAD_REACTORS
330
C
102
}
330
C
100
AcDbDictionary
281
     1
  3
Layout1
350
1E
  3
Layout2
350
26
  3
Model
350
22
  0
DICTIONARY
  5
3B
102
{ACAD_REACTORS
330
C
102
}
330
C
100
AcDbDictionary
281
     1
  3
ByBlock
350
3D
  3
ByLayer
350
3C
  3
Global
350
3E
  0
DICTIONARY
  5
144
102
{ACAD_REACTORS
330
C
102
}
330
C
100
AcDbDictionary
281
     1
  0
DICTIONARY
  5
17
102
{ACAD_REACTORS
330
C
102
}
330
C
100
AcDbDictionary
281
     1
  3
Standard
350
18
  0
DICTIONARY
  5
19
102
{ACAD_REACTORS
330
C
102
}
330
C
100
AcDbDictionary
281
     1
  0
ACDBDICTIONARYWDFLT
  5
E
102
{ACAD_REACTORS
330
C
102
}
330
C
100
AcDbDictionary
281
     1
  3
Normal
350
F
100
AcDbDictionaryWithDefault
340
F
  0
DICTIONARY
  5
143
102
{ACAD_REACTORS
330
C
102
}
330
C
100
AcDbDictionary
281
     1
  0
DICTIONARY
  5
2A
102
{ACAD_REACTORS
330
C
102
}
330
C
100
AcDbDictionary
281
     1
  3
2dWireframe
350
2F
  3
3D Hidden
350
31
  3
3dWireframe
350
30
  3
Basic
350
32
  3
Brighten
350
36
  3
ColorChange
350
3A
  3
Conceptual
350
34
  3
Dim
350
35
  3
Facepattern
350
39
  3
Flat
350
2B
  3
FlatWithEdges
350
2C
  3
Gouraud
350
2D
  3
GouraudWithEdges
350
2E
  3
Linepattern
350
38
  3
Realistic
350
33
  3
Thicken
350
37
  0
LAYOUT
  5
1E
102
{ACAD_REACTORS
330
1A
102
}
330
1A
100
AcDbPlotSettings
  1

  2
none_device
  4

  6

 40
0.0
 41
0.0
 42
0.0
 43
0.0
 44
0.0
 45
0.0
 46
0.0
 47
0.0
 48
0.0
 49
0.0
140
0.0
141
0.0
142
1.0
143
1.0
 70
   688
 72
     0
 73
     0
 74
     5
  7

 75
    16
 76
     0
 77
     2
 78
   300
147
1.0
148
0.0
149
0.0
100
AcDbLayout
  1
Layout1
 70
     1
 71
     1
 10
0.0
 20
0.0
 11
12.0
 21
9.0
 12
0.0
 22
0.0
 32
0.0
 14
1.000000000000000E+20
 24
1.000000000000000E+20
 34
1.000000000000000E+20
 15
-1.000000000000000E+20
 25
-1.000000000000000E+20
 35
-1.000000000000000E+20
146
0.0
 13
0.0
 23
0.0
 33
0.0
 16
1.0
 26
0.0
 36
0.0
 17
0.0
 27
1.0
 37
0.0
 76
     0
330
1B
  0
LAYOUT
  5
26
102
{ACAD_REACTORS
330
1A
102
}
330
1A
100
AcDbPlotSettings
  1

  2
none_device
  4

  6

 40
0.0
 41
0.0
 42
0.0
 43
0.0
 44
0.0
 45
0.0
 46
0.0
 47
0.0
 48
0.0
 49
0.0
140
0.0
141
0.0
142
1.0
143
1.0
 70
   688
 72
     0
 73
     0
 74
     5
  7

 75
    16
 76
     0
 77
     2
 78
   300
147
1.0
148
0.0
149
0.0
100
AcDbLayout
  1
Layout2
 70
     1
 71
     2
 10
0.0
 20
0.0
 11
0.0
 21
0.0
 12
0.0
 22
0.0
 32
0.0
 14
0.0
 24
0.0
 34
0.0
 15
0.0
 25
0.0
 35
0.0
146
0.0
 13
0.0
 23
0.0
 33
0.0
 16
1.0
 26
0.0
 36
0.0
 17
0.0
 27
1.0
 37
0.0
 76
     0
330
23
  0
LAYOUT
  5
22
102
{ACAD_REACTORS
330
1A
102
}
330
1A
100
AcDbPlotSettings
  1

  2
none_device
  4

  6

 40
0.0
 41
0.0
 42
0.0
 43
0.0
 44
0.0
 45
0.0
 46
0.0
 47
0.0
 48
0.0
 49
0.0
140
0.0
141
0.0
142
1.0
143
1.0
 70
  1712
 72
     0
 73
     0
 74
     0
  7

 75
     0
 76
     0
 77
     2
 78
   300
147
1.0
148
0.0
149
0.0
100
AcDbLayout
  1
Model
 70
     1
 71
     0
 10
0.0
 20
0.0
 11
12.0
 21
9.0
 12
0.0
 22
0.0
 32
0.0
 14
1.000000000000000E+20
 24
1.000000000000000E+20
 34
1.000000000000000E+20
 15
-1.000000000000000E+20
 25
-1.000000000000000E+20
 35
-1.000000000000000E+20
146
0.0
 13
0.0
 23
0.0
 33
0.0
 16
1.0
 26
0.0
 36
0.0
 17
0.0
 27
1.0
 37
0.0
 76
     0
330
1F
331
29
  0
MATERIAL
  5
3D
102
{ACAD_REACTORS
330
3B
102
}
330
3B
100
AcDbMaterial
  1
ByBlock
 72
     1
 94
      127
  0
MATERIAL
  5
3C
102
{ACAD_REACTORS
330
3B
102
}
330
3B
100
AcDbMaterial
  1
ByLayer
 72
     1
 94
      127
  0
MATERIAL
  5
3E
102
{ACAD_REACTORS
330
3B
102
}
330
3B
100
AcDbMaterial
  1
Global
 72
     1
 94
      127
  0
MLINESTYLE
  5
18
102
{ACAD_REACTORS
330
17
102
}
330
17
100
AcDbMlineStyle
  2
Standard
 70
     0
  3

 62
   256
 51
90.0
 52
90.0
 71
     2
 49
0.5
 62
   256
  6
BYLAYER
 49
-0.5
 62
   256
  6
BYLAYER
  0
ACDBPLACEHOLDER
  5
F
102
{ACAD_REACTORS
330
E
102
}
330
E
  0
VISUALSTYLE
  5
2F
102
{ACAD_REACTORS
330
2A
102
}
330
2A
100
AcDbVisualStyle
  2
2dWireframe
 70
     4
177
     2
291
     0
 71
     0
176
     1
 72
     2
176
     1
 73
     0
176
     1
 90
        0
176
     1
 40
-0.6
176
     1
 41
-30.0
176
     1
 62
     5
 63
     7
421
 16777215
176
     1
 74
     1
176
     1
 91
        4
176
     1
 64
     7
176
     1
 65
   257
176
     1
 75
     1
176
     1
175
     1
176
     1
 42
1.0
176
     1
 92
        0
176
     1
 66
   257
176
     1
 43
1.0
176
     1
 76
     1
176
     1
 77
     6
176
     1
 78
     2
176
     1
 67
     7
176
     1
 79
     5
176
     1
170
     0
176
     1
171
     0
176
     1
290
     0
176
     1
 93
        1
176
     1
 44
0.0
176
     1
173
     0
176
     1
  0
VISUALSTYLE
  5
31
102
{ACAD_REACTORS
330
2A
102
}
330
2A
100
AcDbVisualStyle
  2
3D Hidden
 70
     6
177
     2
291
     0
 71
     1
176
     1
 72
     2
176
     1
 73
     2
176
     1
 90
        0
176
     1
 40
-0.6
176
     1
 41
-30.0
176
     1
 62
     5
 63
     7
421
 16777215
176
     1
 74
     2
176
     1
 91
        2
176
     1
 64
     7
176
     1
 65
   257
176
     1
 75
     2
176
     1
175
     1
176
     1
 42
40.0
176
     1
 92
        0
176
     1
 66
   257
176
     1
 43
1.0
176
     1
 76
     1
176
     1
 77
     6
176
     1
 78
     2
176
     1
 67
     7
176
     1
 79
     3
176
     1
170
     0
176
     1
171
     0
176
     1
290
     0
176
     1
 93
        1
176
     1
 44
0.0
176
     1
173
     0
176
     1
  0
VISUALSTYLE
  5
30
102
{ACAD_REACTORS
330
2A
102
}
330
2A
100
AcDbVisualStyle
  2
3dWireframe
 70
     5
177
     2
291
     0
 71
     0
176
     1
 72
     2
176
     1
 73
     0
176
     1
 90
        0
176
     1
 40
-0.6
176
     1
 41
-30.0
176
     1
 62
     5
 63
     7
421
 16777215
176
     1
 74
     1
176
     1
 91
        4
176
     1
 64
     7
176
     1
 65
   257
176
     1
 75
     1
176
     1
175
     1
176
     1
 42
1.0
176
     1
 92
        0
176
     1
 66
   257
176
     1
 43
1.0
176
     1
 76
     1
176
     1
 77
     6
176
     1
 78
     2
176
     1
 67
     7
176
     1
 79
     5
176
     1
170
     0
176
     1
171
     0
176
     1
290
     0
176
     1
 93
        1
176
     1
 44
0.0
176
     1
173
     0
176
     1
  0
VISUALSTYLE
  5
32
102
{ACAD_REACTORS
330
2A
102
}
330
2A
100
AcDbVisualStyle
  2
Basic
 70
     7
177
     2
291
     1
 71
     1
176
     1
 72
     0
176
     1
 73
     1
176
     1
 90
        0
176
     1
 40
-0.6
176
     1
 41
-30.0
176
     1
 62
     5
 63
     7
421
 16777215
176
     1
 74
     0
176
     1
 91
        4
176
     1
 64
     7
176
     1
 65
   257
176
     1
 75
     1
176
     1
175
     1
176
     1
 42
1.0
176
     1
 92
        8
176
     1
 66
     7
176
     1
 43
1.0
176
     1
 76
     1
176
     1
 77
     6
176
     1
 78
     2
176
     1
 67
     7
176
     1
 79
     5
176
     1
170
     0
176
     1
171
     0
176
     1
290
     0
176
     1
 93
        1
176
     1
 44
0.0
176
     1
173
     0
176
     1
  0
VISUALSTYLE
  5
36
102
{ACAD_REACTORS
330
2A
102
}
330
2A
100
AcDbVisualStyle
  2
Brighten
 70
    12
177
     2
291
     1
 71
     2
176
     1
 72
     2
176
     1
 73
     0
176
     1
 90
        0
176
     1
 40
-0.6
176
     1
 41
-30.0
176
     1
 62
     5
 63
     7
421
 16777215
176
     1
 74
     1
176
     1
 91
        4
176
     1
 64
     7
176
     1
 65
   257
176
     1
 75
     1
176
     1
175
     1
176
     1
 42
1.0
176
     1
 92
        8
176
     1
 66
     7
176
     1
 43
1.0
176
     1
 76
     1
176
     1
 77
     6
176
     1
 78
     2
176
     1
 67
     7
176
     1
 79
     5
176
     1
170
     0
176
     1
171
     0
176
     1
290
     0
176
     1
 93
        1
176
     1
 44
50.0
176
     1
173
     0
176
     1
  0
VISUALSTYLE
  5
3A
102
{ACAD_REACTORS
330
2A
102
}
330
2A
100
AcDbVisualStyle
  2
ColorChange
 70
    16
177
     2
291
     1
 71
     2
176
     1
 72
     2
176
     1
 73
     3
176
     1
 90
        0
176
     1
 40
-0.6
176
     1
 41
-30.0
176
     1
 62
     5
 63
     8
421
  8421504
176
     1
 74
     1
176
     1
 91
        4
176
     1
 64
     7
176
     1
 65
   257
176
     1
 75
     1
176
     1
175
     1
176
     1
 42
1.0
176
     1
 92
        8
176
     1
 66
     8
424
  8421504
176
     1
 43
1.0
176
     1
 76
     1
176
     1
 77
     6
176
     1
 78
     2
176
     1
 67
     7
176
     1
 79
     5
176
     1
170
     0
176
     1
171
     0
176
     1
290
     0
176
     1
 93
        1
176
     1
 44
0.0
176
     1
173
     0
176
     1
  0
VISUALSTYLE
  5
34
102
{ACAD_REACTORS
330
2A
102
}
330
2A
100
AcDbVisualStyle
  2
Conceptual
 70
     9
177
     2
291
     0
 71
     3
176
     1
 72
     2
176
     1
 73
     0
176
     1
 90
        0
176
     1
 40
-0.6
176
     1
 41
-30.0
176
     1
 62
     5
 63
     7
421
 16777215
176
     1
 74
     2
176
     1
 91
        2
176
     1
 64
     7
176
     1
 65
   257
176
     1
 75
     1
176
     1
175
     1
176
     1
 42
40.0
176
     1
 92
        8
176
     1
 66
     7
176
     1
 43
1.0
176
     1
 76
     1
176
     1
 77
     6
176
     1
 78
     2
176
     1
 67
     7
176
     1
 79
     3
176
     1
170
     0
176
     1
171
     0
176
     1
290
     0
176
     1
 93
        1
176
     1
 44
0.0
176
     1
173
     0
176
     1
  0
VISUALSTYLE
  5
35
102
{ACAD_REACTORS
330
2A
102
}
330
2A
100
AcDbVisualStyle
  2
Dim
 70
    11
177
     2
291
     1
 71
     2
176
     1
 72
     2
176
     1
 73
     0
176
     1
 90
        0
176
     1
 40
-0.6
176
     1
 41
-30.0
176
     1
 62
     5
 63
     7
421
 16777215
176
     1
 74
     1
176
     1
 91
        4
176
     1
 64
     7
176
     1
 65
   257
176
     1
 75
     1
176
     1
175
     1
176
     1
 42
1.0
176
     1
 92
        8
176
     1
 66
     7
176
     1
 43
1.0
176
     1
 76
     1
176
     1
 77
     6
176
     1
 78
     2
176
     1
 67
     7
176
     1
 79
     5
176
     1
170
     0
176
     1
171
     0
176
     1
290
     0
176
     1
 93
        1
176
     1
 44
-50.0
176
     1
173
     0
176
     1
  0
VISUALSTYLE
  5
39
102
{ACAD_REACTORS
330
2A
102
}
330
2A
100
AcDbVisualStyle
  2
Facepattern
 70
    15
177
     2
291
     1
 71
     2
176
     1
 72
     2
176
     1
 73
     0
176
     1
 90
        0
176
     1
 40
-0.6
176
     1
 41
-30.0
176
     1
 62
     5
 63
     7
421
 16777215
176
     1
 74
     1
176
     1
 91
        4
176
     1
 64
     7
176
     1
 65
   257
176
     1
 75
     1
176
     1
175
     1
176
     1
 42
1.0
176
     1
 92
        8
176
     1
 66
     7
176
     1
 43
1.0
176
     1
 76
     1
176
     1
 77
     6
176
     1
 78
     2
176
     1
 67
     7
176
     1
 79
     5
176
     1
170
     0
176
     1
171
     0
176
     1
290
     0
176
     1
 93
        1
176
     1
 44
0.0
176
     1
173
     0
176
     1
  0
VISUALSTYLE
  5
2B
102
{ACAD_REACTORS
330
2A
102
}
330
2A
100
AcDbVisualStyle
  2
Flat
 70
     0
177
     2
291
     1
 71
     2
176
     1
 72
     1
176
     1
 73
     1
176
     1
 90
        2
176
     1
 40
-0.6
176
     1
 41
30.0
176
     1
 62
     5
 63
     7
421
 16777215
176
     1
 74
     0
176
     1
 91
        4
176
     1
 64
     7
176
     1
 65
   257
176
     1
 75
     1
176
     1
175
     1
176
     1
 42
1.0
176
     1
 92
        8
176
     1
 66
     7
176
     1
 43
1.0
176
     1
 76
     1
176
     1
 77
     6
176
     1
 78
     2
176
     1
 67
     7
176
     1
 79
     5
176
     1
170
     0
176
     1
171
     0
176
     1
290
     0
176
     1
 93
       13
176
     1
 44
0.0
176
     1
173
     0
176
     1
  0
VISUALSTYLE
  5
2C
102
{ACAD_REACTORS
330
2A
102
}
330
2A
100
AcDbVisualStyle
  2
FlatWithEdges
 70
     1
177
     2
291
     1
 71
     2
176
     1
 72
     1
176
     1
 73
     1
176
     1
 90
        2
176
     1
 40
-0.6
176
     1
 41
30.0
176
     1
 62
     5
 63
     7
421
 16777215
176
     1
 74
     1
176
     1
 91
        4
176
     1
 64
     7
176
     1
 65
   257
176
     1
 75
     1
176
     1
175
     1
176
     1
 42
1.0
176
     1
 92
        0
176
     1
 66
   257
176
     1
 43
1.0
176
     1
 76
     1
176
     1
 77
     6
176
     1
 78
     2
176
     1
 67
     7
176
     1
 79
     5
176
     1
170
     0
176
     1
171
     0
176
     1
290
     0
176
     1
 93
       13
176
     1
 44
0.0
176
     1
173
     0
176
     1
  0
VISUALSTYLE
  5
2D
102
{ACAD_REACTORS
330
2A
102
}
330
2A
100
AcDbVisualStyle
  2
Gouraud
 70
     2
177
     2
291
     1
 71
     2
176
     1
 72
     2
176
     1
 73
     1
176
     1
 90
        2
176
     1
 40
-0.6
176
     1
 41
30.0
176
     1
 62
     5
 63
     7
421
 16777215
176
     1
 74
     0
176
     1
 91
        4
176
     1
 64
     7
176
     1
 65
   257
176
     1
 75
     1
176
     1
175
     1
176
     1
 42
1.0
176
     1
 92
        0
176
     1
 66
     7
176
     1
 43
1.0
176
     1
 76
     1
176
     1
 77
     6
176
     1
 78
     2
176
     1
 67
     7
176
     1
 79
     5
176
     1
170
     0
176
     1
171
     0
176
     1
290
     0
176
     1
 93
       13
176
     1
 44
0.0
176
     1
173
     0
176
     1
  0
VISUALSTYLE
  5
2E
102
{ACAD_REACTORS
330
2A
102
}
330
2A
100
AcDbVisualStyle
  2
GouraudWithEdges
 70
     3
177
     2
291
     1
 71
     2
176
     1
 72
     2
176
     1
 73
     1
176
     1
 90
        2
176
     1
 40
-0.6
176
     1
 41
30.0
176
     1
 62
     5
 63
     7
421
 16777215
176
     1
 74
     1
176
     1
 91
        4
176
     1
 64
     7
176
     1
 65
   257
176
     1
 75
     1
176
     1
175
     1
176
     1
 42
1.0
176
     1
 92
        0
176
     1
 66
   257
176
     1
 43
1.0
176
     1
 76
     1
176
     1
 77
     6
176
     1
 78
     2
176
     1
 67
     7
176
     1
 79
     5
176
     1
170
     0
176
     1
171
     0
176
     1
290
     0
176
     1
 93
       13
176
     1
 44
0.0
176
     1
173
     0
176
     1
  0
VISUALSTYLE
  5
38
102
{ACAD_REACTORS
330
2A
102
}
330
2A
100
AcDbVisualStyle
  2
Linepattern
 70
    14
177
     2
291
     1
 71
     2
176
     1
 72
     2
176
     1
 73
     0
176
     1
 90
        0
176
     1
 40
-0.6
176
     1
 41
-30.0
176
     1
 62
     5
 63
     7
421
 16777215
176
     1
 74
     1
176
     1
 91
        4
176
     1
 64
     7
176
     1
 65
   257
176
     1
 75
     7
176
     1
175
     7
176
     1
 42
1.0
176
     1
 92
        8
176
     1
 66
     7
176
     1
 43
1.0
176
     1
 76
     1
176
     1
 77
     6
176
     1
 78
     2
176
     1
 67
     7
176
     1
 79
     5
176
     1
170
     0
176
     1
171
     0
176
     1
290
     0
176
     1
 93
        1
176
     1
 44
0.0
176
     1
173
     0
176
     1
  0
VISUALSTYLE
  5
33
102
{ACAD_REACTORS
330
2A
102
}
330
2A
100
AcDbVisualStyle
  2
Realistic
 70
     8
177
     2
291
     0
 71
     2
176
     1
 72
     2
176
     1
 73
     0
176
     1
 90
        0
176
     1
 40
-0.6
176
     1
 41
-30.0
176
     1
 62
     5
 63
     7
421
 16777215
176
     1
 74
     1
176
     1
 91
        0
176
     1
 64
     7
176
     1
 65
   257
176
     1
 75
     1
176
     1
175
     1
176
     1
 42
1.0
176
     1
 92
        8
176
     1
 66
     8
424
  7895160
176
     1
 43
1.0
176
     1
 76
     1
176
     1
 77
     6
176
     1
 78
     2
176
     1
 67
     7
176
     1
 79
     5
176
     1
170
     0
176
     1
171
     0
176
     1
290
     0
176
     1
 93
       13
176
     1
 44
0.0
176
     1
173
     0
176
     1
  0
VISUALSTYLE
  5
37
102
{ACAD_REACTORS
330
2A
102
}
330
2A
100
AcDbVisualStyle
  2
Thicken
 70
    13
177
     2
291
     1
 71
     2
176
     1
 72
     2
176
     1
 73
     0
176
     1
 90
        0
176
     1
 40
-0.6
176
     1
 41
-30.0
176
     1
 62
     5
 63
     7
421
 16777215
176
     1
 74
     1
176
     1
 91
        4
176
     1
 64
     7
176
     1
 65
   257
176
     1
 75
     1
176
     1
175
     1
176
     1
 42
1.0
176
     1
 92
       12
176
     1
 66
     7
176
     1
 43
1.0
176
     1
 76
     1
176
     1
 77
     6
176
     1
 78
     2
176
     1
 67
     7
176
     1
 79
     5
176
     1
170
     0
176
     1
171
     0
176
     1
290
     0
176
     1
 93
        1
176
     1
 44
0.0
176
     1
173
     0
176
     1
  0
ENDSEC
  0
EOF
