  0
SECTION
  2
HEADER
  9
$ACADVER
  1
AC1024
  9
$ACADMAINTVER
 70
     6
  9
$DWGCODEPAGE
  3
UNDEFINED
  9
$INSBASE
 10
0.0
 20
0.0
 30
0.0
  9
$EXTMIN
 10
1.000000000000000E+20
 20
1.000000000000000E+20
 30
1.000000000000000E+20
  9
$EXTMAX
 10
-1.000000000000000E+20
 20
-1.000000000000000E+20
 30
-1.000000000000000E+20
  9
$LIMMIN
 10
0.0
 20
0.0
  9
$LIMMAX
 10
12.0
 20
9.0
  9
$ORTHOMODE
 70
     0
  9
$REGENMODE
 70
     1
  9
$FILLMODE
 70
     1
  9
$QTEXTMODE
 70
     0
  9
$MIRRTEXT
 70
     1
  9
$LTSCALE
 40
1.0
  9
$ATTMODE
 70
     1
  9
$TEXTSIZE
 40
0.2
  9
$TRACEWID
 40
0.05
  9
$TEXTSTYLE
  7
Standard
  9
$CLAYER
  8
0
  9
$CELTYPE
  6
ByLayer
  9
$CECOLOR
 62
   256
  9
$CELTSCALE
 40
1.0
  9
$DISPSILH
 70
     0
  9
$DIMSCALE
 40
1.0
  9
$DIMASZ
 40
0.18
  9
$DIMEXO
 40
0.0625
  9
$DIMDLI
 40
0.38
  9
$DIMRND
 40
0.0
  9
$DIMDLE
 40
0.0
  9
$DIMEXE
 40
0.18
  9
$DIMTP
 40
0.0
  9
$DIMTM
 40
0.0
  9
$DIMTXT
 40
0.18
  9
$DIMCEN
 40
0.09
  9
$DIMTSZ
 40
0.0
  9
$DIMTOL
 70
     0
  9
$DIMLIM
 70
     0
  9
$DIMTIH
 70
     1
  9
$DIMTOH
 70
     1
  9
$DIMSE1
 70
     0
  9
$DIMSE2
 70
     0
  9
$DIMTAD
 70
     0
  9
$DIMZIN
 70
     0
  9
$DIMBLK
  1

  9
$DIMASO
 70
     1
  9
$DIMSHO
 70
     1
  9
$DIMPOST
  1

  9
$DIMAPOST
  1

  9
$DIMALT
 70
     0
  9
$DIMALTD
 70
     2
  9
$DIMALTF
 40
25.4
  9
$DIMLFAC
 40
1.0
  9
$DIMTOFL
 70
     0
  9
$DIMTVP
 40
0.0
  9
$DIMTIX
 70
     0
  9
$DIMSOXD
 70
     0
  9
$DIMSAH
 70
     0
  9
$DIMBLK1
  1

  9
$DIMBLK2
  1

  9
$DIMSTYLE
  2
Standard
  9
$DIMCLRD
 70
     0
  9
$DIMCLRE
 70
     0
  9
$DIMCLRT
 70
     0
  9
$DIMTFAC
 40
1.0
  9
$DIMGAP
 40
0.09
  9
$DIMJUST
 70
     0
  9
$DIMSD1
 70
     0
  9
$DIMSD2
 70
     0
  9
$DIMTOLJ
 70
     1
  9
$DIMTZIN
 70
     0
  9
$DIMALTZ
 70
     0
  9
$DIMALTTZ
 70
     0
  9
$DIMUPT
 70
     0
  9
$DIMDEC
 70
     4
  9
$DIMTDEC
 70
     4
  9
$DIMALTU
 70
     2
  9
$DIMALTTD
 70
     2
  9
$DIMTXSTY
  7
Standard
  9
$DIMAUNIT
 70
     0
  9
$DIMADEC
 70
     0
  9
$DIMALTRND
 40
0.0
  9
$DIMAZIN
 70
     0
  9
$DIMDSEP
 70
    46
  9
$DIMATFIT
 70
     3
  9
$DIMFRAC
 70
     0
  9
$DIMLDRBLK
  1

  9
$DIMLUNIT
 70
     2
  9
$DIMLWD
 70
    -2
  9
$DIMLWE
 70
    -2
  9
$DIMTMOVE
 70
     0
  9
$DIMFXL
 40
1.0
  9
$DIMFXLON
 70
     0
  9
$DIMJOGANG
 40
0.7853981633974483
  9
$DIMTFILL
 70
     0
  9
$DIMTFILLCLR
 70
     0
  9
$DIMARCSYM
 70
     0
  9
$DIMLTYPE
  6

  9
$DIMLTEX1
  6

  9
$DIMLTEX2
  6

  9
$DIMTXTDIRECTION
 70
     0
  9
$LUNITS
 70
     2
  9
$LUPREC
 70
     4
  9
$SKETCHINC
 40
0.1
  9
$FILLETRAD
 40
0.5
  9
$AUNITS
 70
     0
  9
$AUPREC
 70
     0
  9
$MENU
  1
.
  9
$ELEVATION
 40
0.0
  9
$PELEVATION
 40
0.0
  9
$THICKNESS
 40
0.0
  9
$LIMCHECK
 70
     0
  9
$CHAMFERA
 40
0.5
  9
$CHAMFERB
 40
0.5
  9
$CHAMFERC
 40
1.0
  9
$CHAMFERD
 40
0.0
  9
$SKPOLY
 70
     0
  9
$TDCREATE
 40
2457917.612928229
  9
$TDUCREATE
 40
2457917.237928241
  9
$TDUPDATE
 40
2457917.612928229
  9
$TDUUPDATE
 40
2457917.237928241
  9
$TDINDWG
 40
0.0000000116
  9
$TDUSRTIMER
 40
0.0000000116
  9
$USRTIMER
 70
     1
  9
$ANGBASE
 50
0.0
  9
$ANGDIR
 70
     0
  9
$PDMODE
 70
     0
  9
$PDSIZE
 40
0.0
  9
$PLINEWID
 40
0.0
  9
$SPLFRAME
 70
     0
  9
$SPLINETYPE
 70
     6
  9
$SPLINESEGS
 70
     8
  9
$HANDSEED
  5
103
  9
$SURFTAB1
 70
     6
  9
$SURFTAB2
 70
     6
  9
$SURFTYPE
 70
     6
  9
$SURFU
 70
     6
  9
$SURFV
 70
     6
  9
$UCSBASE
  2

  9
$UCSNAME
  2

  9
$UCSORG
 10
0.0
 20
0.0
 30
0.0
  9
$UCSXDIR
 10
1.0
 20
0.0
 30
0.0
  9
$UCSYDIR
 10
0.0
 20
1.0
 30
0.0
  9
$UCSORTHOREF
  2

  9
$UCSORTHOVIEW
 70
     0
  9
$UCSORGTOP
 10
0.0
 20
0.0
 30
0.0
  9
$UCSORGBOTTOM
 10
0.0
 20
0.0
 30
0.0
  9
$UCSORGLEFT
 10
0.0
 20
0.0
 30
0.0
  9
$UCSORGRIGHT
 10
0.0
 20
0.0
 30
0.0
  9
$UCSORGFRONT
 10
0.0
 20
0.0
 30
0.0
  9
$UCSORGBACK
 10
0.0
 20
0.0
 30
0.0
  9
$PUCSBASE
  2

  9
$PUCSNAME
  2

  9
$PUCSORG
 10
0.0
 20
0.0
 30
0.0
  9
$PUCSXDIR
 10
1.0
 20
0.0
 30
0.0
  9
$PUCSYDIR
 10
0.0
 20
1.0
 30
0.0
  9
$PUCSORTHOREF
  2

  9
$PUCSORTHOVIEW
 70
     0
  9
$PUCSORGTOP
 10
0.0
 20
0.0
 30
0.0
  9
$PUCSORGBOTTOM
 10
0.0
 20
0.0
 30
0.0
  9
$PUCSORGLEFT
 10
0.0
 20
0.0
 30
0.0
  9
$PUCSORGRIGHT
 10
0.0
 20
0.0
 30
0.0
  9
$PUCSORGFRONT
 10
0.0
 20
0.0
 30
0.0
  9
$PUCSORGBACK
 10
0.0
 20
0.0
 30
0.0
  9
$USERI1
 70
     0
  9
$USERI2
 70
     0
  9
$USERI3
 70
     0
  9
$USERI4
 70
     0
  9
$USERI5
 70
     0
  9
$USERR1
 40
0.0
  9
$USERR2
 40
0.0
  9
$USERR3
 40
0.0
  9
$USERR4
 40
0.0
  9
$USERR5
 40
0.0
  9
$WORLDVIEW
 70
     1
  9
$SHADEDGE
 70
     3
  9
$SHADEDIF
 70
    70
  9
$TILEMODE
 70
     1
  9
$MAXACTVP
 70
    64
  9
$PINSBASE
 10
0.0
 20
0.0
 30
0.0
  9
$PLIMCHECK
 70
     0
  9
$PEXTMIN
 10
1.000000000000000E+20
 20
1.000000000000000E+20
 30
1.000000000000000E+20
  9
$PEXTMAX
 10
-1.000000000000000E+20
 20
-1.000000000000000E+20
 30
-1.000000000000000E+20
  9
$PLIMMIN
 10
0.0
 20
0.0
  9
$PLIMMAX
 10
12.0
 20
9.0
  9
$UNITMODE
 70
     0
  9
$VISRETAIN
 70
     1
  9
$PLINEGEN
 70
     0
  9
$PSLTSCALE
 70
     1
  9
$TREEDEPTH
 70
  3020
  9
$CMLSTYLE
  2
Standard
  9
$CMLJUST
 70
     0
  9
$CMLSCALE
 40
1.0
  9
$PROXYGRAPHICS
 70
     1
  9
$MEASUREMENT
 70
     0
  9
$CELWEIGHT
370
    -1
  9
$ENDCAPS
280
     0
  9
$JOINSTYLE
280
     0
  9
$LWDISPLAY
290
     1
  9
$INSUNITS
 70
     1
  9
$HYPERLINKBASE
  1

  9
$STYLESHEET
  1

  9
$XEDIT
290
     1
  9
$CEPSNTYPE
380
     0
  9
$PSTYLEMODE
290
     1
  9
$FINGERPRINTGUID
  2
{CC61B215-6E74-85C5-904F-41A498611507}
  9
$VERSIONGUID
  2
{FAEB1C32-E019-11D5-929B-00C0DF256EC4}
  9
$EXTNAMES
290
     1
  9
$PSVPSCALE
 40
0.0
  9
$OLESTARTUP
290
     0
  9
$SORTENTS
280
   127
  9
$INDEXCTL
280
     0
  9
$HIDETEXT
280
     1
  9
$XCLIPFRAME
280
     2
  9
$HALOGAP
280
     0
  9
$OBSCOLOR
 70
   257
  9
$OBSLTYPE
280
     0
  9
$INTERSECTIONDISPLAY
280
     0
  9
$INTERSECTIONCOLOR
 70
   257
  9
$DIMASSOC
280
     2
  9
$PROJECTNAME
  1

  9
$CAMERADISPLAY
290
     0
  9
$LENSLENGTH
 40
50.0
  9
$CAMERAHEIGHT
 40
0.0
  9
$STEPSPERSEC
 40
2.0
  9
$STEPSIZE
 40
6.0
  9
$3DDWFPREC
 40
2.0
  9
$PSOLWIDTH
 40
0.25
  9
$PSOLHEIGHT
 40
4.0
  9
$LOFTANG1
 40
1.570796326794897
  9
$LOFTANG2
 40
1.570796326794897
  9
$LOFTMAG1
 40
0.0
  9
$LOFTMAG2
 40
0.0
  9
$LOFTPARAM
 70
     7
  9
$LOFTNORMALS
280
     1
  9
$LATITUDE
 40
37.795
  9
$LONGITUDE
 40
-122.394
  9
$NORTHDIRECTION
 40
0.0
  9
$TIMEZONE
 70
 -8000
  9
$LIGHTGLYPHDISPLAY
280
     1
  9
$TILEMODELIGHTSYNCH
280
     1
  9
$CMATERIAL
347
3C
  9
$SOLIDHIST
280
     1
  9
$SHOWHIST
280
     1
  9
$DWFFRAME
280
     2
  9
$DGNFRAME
280
     2
  9
$REALWORLDSCALE
290
     1
  9
$INTERFERECOLOR
 62
   256
  9
$CSHADOW
280
     0
  9
$SHADOWPLANELOCATION
 40
0.0
  0
ENDSEC
  0
SECTION
  2
CLASSES
  0
CLASS
  1
ACDBDICTIONARYWDFLT
  2
AcDbDictionaryWithDefault
  3
ObjectDBX Classes
 90
        0
 91
        4
280
     0
281
     0
  0
CLASS
  1
VISUALSTYLE
  2
AcDbVisualStyle
  3
ObjectDBX Classes
 90
     4095
 91
        4
280
     0
281
     0
  0
CLASS
  1
MATERIAL
  2
AcDbMaterial
  3
ObjectDBX Classes
 90
     1153
 91
        4
280
     0
281
     0
  0
CLASS
  1
SUN
  2
AcDbSun
  3
SCENEOE
 90
     1024
 91
        4
280
     0
281
     0
  0
ENDSEC
  0
SECTION
  2
TABLES
  0
TABLE
  2
VPORT
  5
8
330
0
100
AcDbSymbolTable
 70
     1
  0
VPORT
  5
29
330
8
100
AcDbSymbolTableRecord
100
AcDbViewportTableRecord
  2
*Active
 70
     0
 10
0.0
 20
0.0
 11
1.0
 21
1.0
 12
0.0
 22
0.0
 13
0.0
 23
0.0
 14
0.5
 24
0.5
 15
0.5
 25
0.5
 16
0.0
 26
0.0
 36
1.0
 17
91.00082462281999
 27
-128.4993055234307
 37
0.0
 40
256.9986110468615
 41
0.7081814508812795
 42
50.0
 43
0.0
 44
0.0
 50
0.0
 51
0.0
 71
     0
 72
   100
 73
     1
 74
     3
 75
     0
 76
     0
 77
     0
 78
     0
281
     0
 65
     1
110
0.0
120
0.0
130
0.0
111
1.0
121
0.0
131
0.0
112
0.0
122
1.0
132
0.0
 79
     0
146
0.0
 60
     3
 61
     5
292
     1
282
     1
141
0.0
142
0.0
 63
   250
361
3F
  0
ENDTAB
  0
TABLE
  2
LTYPE
  5
5
330
0
100
AcDbSymbolTable
 70
     1
  0
LTYPE
  5
14
330
5
100
AcDbSymbolTableRecord
100
AcDbLinetypeTableRecord
  2
ByBlock
 70
     0
  3

 72
    65
 73
     0
 40
0.0
  0
LTYPE
  5
15
330
5
100
AcDbSymbolTableRecord
100
AcDbLinetypeTableRecord
  2
ByLayer
 70
     0
  3

 72
    65
 73
     0
 40
0.0
  0
LTYPE
  5
16
330
5
100
AcDbSymbolTableRecord
100
AcDbLinetypeTableRecord
  2
Continuous
 70
     0
  3
Solid line
 72
    65
 73
     0
 40
0.0
  0
ENDTAB
  0
TABLE
  2
LAYER
  5
2
330
0
100
AcDbSymbolTable
 70
     2
  0
LAYER
  5
10
330
2
100
AcDbSymbolTableRecord
100
AcDbLayerTableRecord
  2
0
 70
     0
 62
     7
  6
Continuous
370
    -3
390
F
347
3E
  0
LAYER
  5
40
330
2
100
AcDbSymbolTableRecord
100
AcDbLayerTableRecord
  2
_U+30EC_U+30A4_U+30E4_U+30FC 1
 70
     0
 62
     7
  6
Continuous
370
    -3
390
F
347
3E
  0
ENDTAB
  0
TABLE
  2
STYLE
  5
3
330
0
100
AcDbSymbolTable
 70
     1
  0
STYLE
  5
11
330
3
100
AcDbSymbolTableRecord
100
AcDbTextStyleTableRecord
  2
Standard
 70
     0
 40
0.0
 41
1.0
 50
0.0
 71
     0
 42
0.2
  3
txt
  4

  0
ENDTAB
  0
TABLE
  2
VIEW
  5
6
330
0
100
AcDbSymbolTable
 70
     0
  0
ENDTAB
  0
TABLE
  2
UCS
  5
7
330
0
100
AcDbSymbolTable
 70
     0
  0
ENDTAB
  0
TABLE
  2
APPID
  5
9
330
0
100
AcDbSymbolTable
 70
     1
  0
APPID
  5
12
330
9
100
AcDbSymbolTableRecord
100
AcDbRegAppTableRecord
  2
ACAD
 70
     0
  0
ENDTAB
  0
TABLE
  2
DIMSTYLE
  5
A
330
0
100
AcDbSymbolTable
 70
     1
100
AcDbDimStyleTable
  0
DIMSTYLE
105
27
330
A
100
AcDbSymbolTableRecord
100
AcDbDimStyleTableRecord
  2
Standard
 70
     0
178
     0
340
11
  0
ENDTAB
  0
TABLE
  2
BLOCK_RECORD
  5
1
330
0
100
AcDbSymbolTable
 70
     7
  0
BLOCK_RECORD
  5
1F
330
1
100
AcDbSymbolTableRecord
100
AcDbBlockTableRecord
  2
*Model_Space
340
22
 70
     0
280
     1
281
     0
  0
BLOCK_RECORD
  5
1B
330
1
100
AcDbSymbolTableRecord
100
AcDbBlockTableRecord
  2
*Paper_Space
340
1E
 70
     0
280
     1
281
     0
  0
BLOCK_RECORD
  5
23
330
1
100
AcDbSymbolTableRecord
100
AcDbBlockTableRecord
  2
*Paper_Space0
340
26
 70
     0
280
     1
281
     0
  0
BLOCK_RECORD
  5
90
330
1
100
AcDbSymbolTableRecord
100
AcDbBlockTableRecord
  2
block 2
340
0
102
{BLKREFS
331
91
102
}
 70
     0
280
     1
281
     0
  0
BLOCK_RECORD
  5
A9
330
1
100
AcDbSymbolTableRecord
100
AcDbBlockTableRecord
  2
block 3
340
0
102
{BLKREFS
331
AA
102
}
 70
     0
280
     1
281
     0
  0
BLOCK_RECORD
  5
BB
330
1
100
AcDbSymbolTableRecord
100
AcDbBlockTableRecord
  2
block 4
340
0
102
{BLKREFS
331
BC
102
}
 70
     0
280
     1
281
     0
  0
BLOCK_RECORD
  5
CF
330
1
100
AcDbSymbolTableRecord
100
AcDbBlockTableRecord
  2
block 5
340
0
102
{BLKREFS
331
D0
102
}
 70
     0
280
     1
281
     0
  0
BLOCK_RECORD
  5
E5
330
1
100
AcDbSymbolTableRecord
100
AcDbBlockTableRecord
  2
block 6
340
0
102
{BLKREFS
331
E6
102
}
 70
     0
280
     1
281
     0
  0
BLOCK_RECORD
  5
EF
330
1
100
AcDbSymbolTableRecord
100
AcDbBlockTableRecord
  2
block 7
340
0
102
{BLKREFS
331
F0
102
}
 70
     0
280
     1
281
     0
  0
ENDTAB
  0
ENDSEC
  0
SECTION
  2
BLOCKS
  0
BLOCK
  5
20
330
1F
100
AcDbEntity
  8
0
100
AcDbBlockBegin
  2
*Model_Space
 70
     0
 10
0.0
 20
0.0
 30
0.0
  3
*Model_Space
  1

  0
ENDBLK
  5
21
330
1F
100
AcDbEntity
  8
0
100
AcDbBlockEnd
  0
BLOCK
  5
1C
330
1B
100
AcDbEntity
 67
     1
  8
0
100
AcDbBlockBegin
  2
*Paper_Space
 70
     0
 10
0.0
 20
0.0
 30
0.0
  3
*Paper_Space
  1

  0
ENDBLK
  5
1D
330
1B
100
AcDbEntity
 67
     1
  8
0
100
AcDbBlockEnd
  0
BLOCK
  5
24
330
23
100
AcDbEntity
  8
0
100
AcDbBlockBegin
  2
*Paper_Space0
 70
     0
 10
0.0
 20
0.0
 30
0.0
  3
*Paper_Space0
  1

  0
ENDBLK
  5
25
330
23
100
AcDbEntity
  8
0
100
AcDbBlockEnd
  0
BLOCK
  5
92
330
90
100
AcDbEntity
  8
0
100
AcDbBlockBegin
  2
block 2
 70
     0
 10
0.0
 20
0.0
 30
0.0
  3
block 2
  1

  0
SPLINE
  5
94
330
90
100
AcDbEntity
  8
_U+30EC_U+30A4_U+30E4_U+30FC 1
370
     0
100
AcDbSpline
210
0.0
220
0.0
230
1.0
 70
    11
 71
     3
 72
    26
 73
    22
 74
     0
 42
0.0000000001
 43
0.0000000001
 12
1.0
 22
0.0
 32
0.0
 13
1.0
 23
0.0
 33
0.0
 40
0.0
 40
0.0
 40
0.0
 40
0.0
 40
1.0
 40
1.0
 40
1.0
 40
2.0
 40
2.0
 40
2.0
 40
3.0
 40
3.0
 40
3.0
 40
4.0
 40
4.0
 40
4.0
 40
5.0
 40
5.0
 40
5.0
 40
6.0
 40
6.0
 40
6.0
 40
7.0
 40
7.0
 40
7.0
 40
7.0
 10
87.3643486652249
 20
-143.0737819737802
 30
0.0
 10
87.3643486652249
 20
-143.0737819737802
 30
0.0
 10
87.3643486652249
 20
-141.9696288707576
 30
0.0
 10
87.3643486652249
 20
-141.9696288707576
 30
0.0
 10
87.3643486652249
 20
-141.9696288707576
 30
0.0
 10
87.03430851773795
 20
-141.9696288707576
 30
0.0
 10
87.03430851773795
 20
-141.9696288707576
 30
0.0
 10
87.03430851773795
 20
-141.9696288707576
 30
0.0
 10
87.03430851773795
 20
-141.8214897648919
 30
0.0
 10
87.03430851773795
 20
-141.8214897648919
 30
0.0
 10
87.36641572251604
 20
-141.8066758543053
 30
0.0
 10
87.41292451156691
 20
-141.643722837853
 30
0.0
 10
87.44255233274006
 20
-141.5293456677427
 30
0.0
 10
87.44255233274006
 20
-141.5293456677427
 30
0.0
 10
87.58862438131466
 20
-141.5293456677427
 30
0.0
 10
87.58862438131466
 20
-141.5293456677427
 30
0.0
 10
87.58862438131466
 20
-141.5293456677427
 30
0.0
 10
87.58862438131466
 20
-143.0737819737802
 30
0.0
 10
87.58862438131466
 20
-143.0737819737802
 30
0.0
 10
87.58862438131466
 20
-143.0737819737802
 30
0.0
 10
87.3643486652249
 20
-143.0737819737802
 30
0.0
 10
87.3643486652249
 20
-143.0737819737802
 30
0.0
  0
HATCH
  5
95
330
90
100
AcDbEntity
  8
_U+30EC_U+30A4_U+30E4_U+30FC 1
 62
     7
420
 16777215
100
AcDbHatch
 10
0.0
 20
0.0
 30
0.0
210
0.0
220
0.0
230
1.0
  2
SOLID
 70
     1
 71
     0
 91
        1
 92
        1
 93
        1
 72
     4
 94
        3
 73
     0
 74
     1
 95
       26
 96
       22
 40
0.0
 40
0.0
 40
0.0
 40
0.0
 40
1.0
 40
1.0
 40
1.0
 40
2.0
 40
2.0
 40
2.0
 40
3.0
 40
3.0
 40
3.0
 40
4.0
 40
4.0
 40
4.0
 40
5.0
 40
5.0
 40
5.0
 40
6.0
 40
6.0
 40
6.0
 40
7.0
 40
7.0
 40
7.0
 40
7.0
 10
87.3643486652249
 20
-143.0737819737802
 10
87.3643486652249
 20
-143.0737819737802
 10
87.3643486652249
 20
-141.9696288707576
 10
87.3643486652249
 20
-141.9696288707576
 10
87.3643486652249
 20
-141.9696288707576
 10
87.03430851773795
 20
-141.9696288707576
 10
87.03430851773795
 20
-141.9696288707576
 10
87.03430851773795
 20
-141.9696288707576
 10
87.03430851773795
 20
-141.8214897648919
 10
87.03430851773795
 20
-141.8214897648919
 10
87.36641572251604
 20
-141.8066758543053
 10
87.41292451156691
 20
-141.643722837853
 10
87.44255233274006
 20
-141.5293456677427
 10
87.44255233274006
 20
-141.5293456677427
 10
87.58862438131466
 20
-141.5293456677427
 10
87.58862438131466
 20
-141.5293456677427
 10
87.58862438131466
 20
-141.5293456677427
 10
87.58862438131466
 20
-143.0737819737802
 10
87.58862438131466
 20
-143.0737819737802
 10
87.58862438131466
 20
-143.0737819737802
 10
87.3643486652249
 20
-143.0737819737802
 10
87.3643486652249
 20
-143.0737819737802
 97
        0
 97
        0
 75
     2
 76
     1
 98
        0
  0
SPLINE
  5
96
330
90
100
AcDbEntity
  8
_U+30EC_U+30A4_U+30E4_U+30FC 1
370
     0
100
AcDbSpline
210
0.0
220
0.0
230
1.0
 70
    11
 71
     3
 72
    29
 73
    25
 74
     0
 42
0.0000000001
 43
0.0000000001
 12
1.0
 22
0.0
 32
0.0
 13
1.0
 23
0.0
 33
0.0
 40
0.0
 40
0.0
 40
0.0
 40
0.0
 40
1.0
 40
1.0
 40
1.0
 40
2.0
 40
2.0
 40
2.0
 40
3.0
 40
3.0
 40
3.0
 40
4.0
 40
4.0
 40
4.0
 40
5.0
 40
5.0
 40
5.0
 40
6.0
 40
6.0
 40
6.0
 40
7.0
 40
7.0
 40
7.0
 40
8.0
 40
8.0
 40
8.0
 40
8.0
 10
88.98767765787461
 20
-142.8960150467413
 30
0.0
 10
88.87950165963777
 20
-143.1054768522445
 30
0.0
 10
88.7062133567297
 20
-143.1244248774133
 30
0.0
 10
88.58976912932826
 20
-143.1244248774133
 30
0.0
 10
88.42888317016708
 20
-143.1244248774133
 30
0.0
 10
88.28728974572331
 20
-143.0779160883625
 30
0.0
 10
88.19220511033042
 20
-142.8960150467413
 30
0.0
 10
88.0885077362244
 20
-142.7013671518247
 30
0.0
 10
88.069215201507
 20
-142.4643445824395
 30
0.0
 10
88.069215201507
 20
-142.3017360755357
 30
0.0
 10
88.069215201507
 20
-142.1577310842522
 30
0.0
 10
88.08644067893326
 20
-141.9058946042805
 30
0.0
 10
88.19220511033042
 20
-141.7071125947816
 30
0.0
 10
88.30003659901874
 20
-141.5041964707004
 30
0.0
 10
88.46092255817992
 20
-141.4807698214007
 30
0.0
 10
88.58976912932826
 20
-141.4807698214007
 30
0.0
 10
88.74858803119827
 20
-141.4807698214007
 30
0.0
 10
88.8922485129332
 20
-141.5252115531604
 30
0.0
 10
88.98767765787461
 20
-141.7071125947816
 30
0.0
 10
89.0868964078498
 20
-141.899693432407
 30
0.0
 10
89.1103230571495
 20
-142.1281032630791
 30
0.0
 10
89.1103230571495
 20
-142.3017360755357
 30
0.0
 10
89.1103230571495
 20
-142.4729573211526
 30
0.0
 10
89.08896346514096
 20
-142.7034342091158
 30
0.0
 10
88.98767765787461
 20
-142.8960150467413
 30
0.0
  0
SPLINE
  5
97
330
90
100
AcDbEntity
  8
_U+30EC_U+30A4_U+30E4_U+30FC 1
370
     0
100
AcDbSpline
210
0.0
220
0.0
230
1.0
 70
    11
 71
     3
 72
    17
 73
    13
 74
     0
 42
0.0000000001
 43
0.0000000001
 12
1.0
 22
0.0
 32
0.0
 13
1.0
 23
0.0
 33
0.0
 40
0.0
 40
0.0
 40
0.0
 40
0.0
 40
1.0
 40
1.0
 40
1.0
 40
2.0
 40
2.0
 40
2.0
 40
3.0
 40
3.0
 40
3.0
 40
4.0
 40
4.0
 40
4.0
 40
4.0
 10
88.58976912932826
 20
-141.6733506590261
 30
0.0
 10
88.33999970664765
 20
-141.6733506590261
 30
0.0
 10
88.29349091759677
 20
-141.9568820174622
 30
0.0
 10
88.29349091759677
 20
-142.3017360755357
 30
0.0
 10
88.29349091759677
 20
-142.6210964270183
 30
0.0
 10
88.32966442019189
 20
-142.9297769824967
 30
0.0
 10
88.58976912932826
 20
-142.9297769824967
 30
0.0
 10
88.83747149471772
 20
-142.9297769824967
 30
0.0
 10
88.88604734105974
 20
-142.6486571909003
 30
0.0
 10
88.88604734105974
 20
-142.3017360755357
 30
0.0
 10
88.88604734105974
 20
-141.9820312145045
 30
0.0
 10
88.84780678117347
 20
-141.6733506590261
 30
0.0
 10
88.58976912932826
 20
-141.6733506590261
 30
0.0
  0
HATCH
  5
98
330
90
100
AcDbEntity
  8
_U+30EC_U+30A4_U+30E4_U+30FC 1
 62
     7
420
 16777215
100
AcDbHatch
 10
0.0
 20
0.0
 30
0.0
210
0.0
220
0.0
230
1.0
  2
SOLID
 70
     1
 71
     0
 91
        2
 92
        1
 93
        1
 72
     4
 94
        3
 73
     0
 74
     1
 95
       29
 96
       25
 40
0.0
 40
0.0
 40
0.0
 40
0.0
 40
1.0
 40
1.0
 40
1.0
 40
2.0
 40
2.0
 40
2.0
 40
3.0
 40
3.0
 40
3.0
 40
4.0
 40
4.0
 40
4.0
 40
5.0
 40
5.0
 40
5.0
 40
6.0
 40
6.0
 40
6.0
 40
7.0
 40
7.0
 40
7.0
 40
8.0
 40
8.0
 40
8.0
 40
8.0
 10
88.98767765787461
 20
-142.8960150467413
 10
88.87950165963777
 20
-143.1054768522445
 10
88.7062133567297
 20
-143.1244248774133
 10
88.58976912932826
 20
-143.1244248774133
 10
88.42888317016708
 20
-143.1244248774133
 10
88.28728974572331
 20
-143.0779160883625
 10
88.19220511033042
 20
-142.8960150467413
 10
88.0885077362244
 20
-142.7013671518247
 10
88.069215201507
 20
-142.4643445824395
 10
88.069215201507
 20
-142.3017360755357
 10
88.069215201507
 20
-142.1577310842522
 10
88.08644067893326
 20
-141.9058946042805
 10
88.19220511033042
 20
-141.7071125947816
 10
88.30003659901874
 20
-141.5041964707004
 10
88.46092255817992
 20
-141.4807698214007
 10
88.58976912932826
 20
-141.4807698214007
 10
88.74858803119827
 20
-141.4807698214007
 10
88.8922485129332
 20
-141.5252115531604
 10
88.98767765787461
 20
-141.7071125947816
 10
89.0868964078498
 20
-141.899693432407
 10
89.1103230571495
 20
-142.1281032630791
 10
89.1103230571495
 20
-142.3017360755357
 10
89.1103230571495
 20
-142.4729573211526
 10
89.08896346514096
 20
-142.7034342091158
 10
88.98767765787461
 20
-142.8960150467413
 97
        0
 97
        0
 92
        1
 93
        1
 72
     4
 94
        3
 73
     0
 74
     1
 95
       17
 96
       13
 40
0.0
 40
0.0
 40
0.0
 40
0.0
 40
1.0
 40
1.0
 40
1.0
 40
2.0
 40
2.0
 40
2.0
 40
3.0
 40
3.0
 40
3.0
 40
4.0
 40
4.0
 40
4.0
 40
4.0
 10
88.58976912932826
 20
-141.6733506590261
 10
88.33999970664765
 20
-141.6733506590261
 10
88.29349091759677
 20
-141.9568820174622
 10
88.29349091759677
 20
-142.3017360755357
 10
88.29349091759677
 20
-142.6210964270183
 10
88.32966442019189
 20
-142.9297769824967
 10
88.58976912932826
 20
-142.9297769824967
 10
88.83747149471772
 20
-142.9297769824967
 10
88.88604734105974
 20
-142.6486571909003
 10
88.88604734105974
 20
-142.3017360755357
 10
88.88604734105974
 20
-141.9820312145045
 10
88.84780678117347
 20
-141.6733506590261
 10
88.58976912932826
 20
-141.6733506590261
 97
        0
 97
        0
 75
     2
 76
     1
 98
        0
  0
ENDBLK
  5
93
330
90
100
AcDbEntity
  8
0
100
AcDbBlockEnd
  0
BLOCK
  5
AB
330
A9
100
AcDbEntity
  8
0
100
AcDbBlockBegin
  2
block 3
 70
     0
 10
0.0
 20
0.0
 30
0.0
  3
block 3
  1

  0
SPLINE
  5
AD
330
A9
100
AcDbEntity
  8
_U+30EC_U+30A4_U+30E4_U+30FC 1
370
     0
100
AcDbSpline
210
0.0
220
0.0
230
1.0
 70
    11
 71
     3
 72
    26
 73
    22
 74
     0
 42
0.0000000001
 43
0.0000000001
 12
1.0
 22
0.0
 32
0.0
 13
1.0
 23
0.0
 33
0.0
 40
0.0
 40
0.0
 40
0.0
 40
0.0
 40
1.0
 40
1.0
 40
1.0
 40
2.0
 40
2.0
 40
2.0
 40
3.0
 40
3.0
 40
3.0
 40
4.0
 40
4.0
 40
4.0
 40
5.0
 40
5.0
 40
5.0
 40
6.0
 40
6.0
 40
6.0
 40
7.0
 40
7.0
 40
7.0
 40
7.0
 10
108.7030978460881
 20
-120.5197753604951
 30
0.0
 10
108.7030978460881
 20
-120.5197753604951
 30
0.0
 10
107.5989447430655
 20
-120.5197753604951
 30
0.0
 10
107.5989447430655
 20
-120.5197753604951
 30
0.0
 10
107.5989447430655
 20
-120.5197753604951
 30
0.0
 10
107.5989447430655
 20
-120.849815507982
 30
0.0
 10
107.5989447430655
 20
-120.849815507982
 30
0.0
 10
107.5989447430655
 20
-120.849815507982
 30
0.0
 10
107.4508056371998
 20
-120.849815507982
 30
0.0
 10
107.4508056371998
 20
-120.849815507982
 30
0.0
 10
107.4359917266132
 20
-120.5177083032039
 30
0.0
 10
107.2730387101609
 20
-120.471199514153
 30
0.0
 10
107.1586615400506
 20
-120.4415716929799
 30
0.0
 10
107.1586615400506
 20
-120.4415716929799
 30
0.0
 10
107.1586615400506
 20
-120.2954996444053
 30
0.0
 10
107.1586615400506
 20
-120.2954996444053
 30
0.0
 10
107.1586615400506
 20
-120.2954996444053
 30
0.0
 10
108.7030978460881
 20
-120.2954996444053
 30
0.0
 10
108.7030978460881
 20
-120.2954996444053
 30
0.0
 10
108.7030978460881
 20
-120.2954996444053
 30
0.0
 10
108.7030978460881
 20
-120.5197753604951
 30
0.0
 10
108.7030978460881
 20
-120.5197753604951
 30
0.0
  0
HATCH
  5
AE
330
A9
100
AcDbEntity
  8
_U+30EC_U+30A4_U+30E4_U+30FC 1
 62
     7
420
 16777215
100
AcDbHatch
 10
0.0
 20
0.0
 30
0.0
210
0.0
220
0.0
230
1.0
  2
SOLID
 70
     1
 71
     0
 91
        1
 92
        1
 93
        1
 72
     4
 94
        3
 73
     0
 74
     1
 95
       26
 96
       22
 40
0.0
 40
0.0
 40
0.0
 40
0.0
 40
1.0
 40
1.0
 40
1.0
 40
2.0
 40
2.0
 40
2.0
 40
3.0
 40
3.0
 40
3.0
 40
4.0
 40
4.0
 40
4.0
 40
5.0
 40
5.0
 40
5.0
 40
6.0
 40
6.0
 40
6.0
 40
7.0
 40
7.0
 40
7.0
 40
7.0
 10
108.7030978460881
 20
-120.5197753604951
 10
108.7030978460881
 20
-120.5197753604951
 10
107.5989447430655
 20
-120.5197753604951
 10
107.5989447430655
 20
-120.5197753604951
 10
107.5989447430655
 20
-120.5197753604951
 10
107.5989447430655
 20
-120.849815507982
 10
107.5989447430655
 20
-120.849815507982
 10
107.5989447430655
 20
-120.849815507982
 10
107.4508056371998
 20
-120.849815507982
 10
107.4508056371998
 20
-120.849815507982
 10
107.4359917266132
 20
-120.5177083032039
 10
107.2730387101609
 20
-120.471199514153
 10
107.1586615400506
 20
-120.4415716929799
 10
107.1586615400506
 20
-120.4415716929799
 10
107.1586615400506
 20
-120.2954996444053
 10
107.1586615400506
 20
-120.2954996444053
 10
107.1586615400506
 20
-120.2954996444053
 10
108.7030978460881
 20
-120.2954996444053
 10
108.7030978460881
 20
-120.2954996444053
 10
108.7030978460881
 20
-120.2954996444053
 10
108.7030978460881
 20
-120.5197753604951
 10
108.7030978460881
 20
-120.5197753604951
 97
        0
 97
        0
 75
     2
 76
     1
 98
        0
  0
ENDBLK
  5
AC
330
A9
100
AcDbEntity
  8
0
100
AcDbBlockEnd
  0
BLOCK
  5
BD
330
BB
100
AcDbEntity
  8
0
100
AcDbBlockBegin
  2
block 4
 70
     0
 10
0.0
 20
0.0
 30
0.0
  3
block 4
  1

  0
SPLINE
  5
BF
330
BB
100
AcDbEntity
  8
_U+30EC_U+30A4_U+30E4_U+30FC 1
370
     0
100
AcDbSpline
210
0.0
220
0.0
230
1.0
 70
    11
 71
     3
 72
    62
 73
    58
 74
     0
 42
0.0000000001
 43
0.0000000001
 12
1.0
 22
0.0
 32
0.0
 13
1.0
 23
0.0
 33
0.0
 40
0.0
 40
0.0
 40
0.0
 40
0.0
 40
1.0
 40
1.0
 40
1.0
 40
2.0
 40
2.0
 40
2.0
 40
3.0
 40
3.0
 40
3.0
 40
4.0
 40
4.0
 40
4.0
 40
5.0
 40
5.0
 40
5.0
 40
6.0
 40
6.0
 40
6.0
 40
7.0
 40
7.0
 40
7.0
 40
8.0
 40
8.0
 40
8.0
 40
9.0
 40
9.0
 40
9.0
 40
10.0
 40
10.0
 40
10.0
 40
11.0
 40
11.0
 40
11.0
 40
12.0
 40
12.0
 40
12.0
 40
13.0
 40
13.0
 40
13.0
 40
14.0
 40
14.0
 40
14.0
 40
15.0
 40
15.0
 40
15.0
 40
16.0
 40
16.0
 40
16.0
 40
17.0
 40
17.0
 40
17.0
 40
18.0
 40
18.0
 40
18.0
 40
19.0
 40
19.0
 40
19.0
 40
19.0
 10
87.21948240007013
 20
-115.2310370263138
 30
0.0
 10
87.12405325512871
 20
-115.2310370263138
 30
0.0
 10
86.90632322046092
 20
-115.2098496890795
 30
0.0
 10
86.78126625434635
 20
-115.0236422781017
 30
0.0
 10
86.70719670141348
 20
-114.9115044200569
 30
0.0
 10
86.70306258683118
 20
-114.8121134153074
 30
0.0
 10
86.69892847224888
 20
-114.7275363211445
 30
0.0
 10
86.69892847224888
 20
-114.7275363211445
 30
0.0
 10
86.91907007375634
 20
-114.7275363211445
 30
0.0
 10
86.91907007375634
 20
-114.7275363211445
 30
0.0
 10
86.9211371310475
 20
-114.8016058740774
 30
0.0
 10
86.93147241750324
 20
-115.0363891313972
 30
0.0
 10
87.21500377593931
 20
-115.0363891313972
 30
0.0
 10
87.35246308580078
 20
-115.0363891313972
 30
0.0
 10
87.50508081579734
 20
-114.9666259478208
 30
0.0
 10
87.50508081579734
 20
-114.7380438623745
 30
0.0
 10
87.50508081579734
 20
-114.6217718897473
 30
0.0
 10
87.46684025591107
 20
-114.5730237886311
 30
0.0
 10
87.43514537744677
 20
-114.5413289101668
 30
0.0
 10
87.3610758245139
 20
-114.4672593572339
 30
0.0
 10
87.24463159711246
 20
-114.4546847587127
 30
0.0
 10
87.18985457889698
 20
-114.4546847587127
 30
0.0
 10
87.17056204417959
 20
-114.4546847587127
 30
0.0
 10
87.13473305113298
 20
-114.4567518160039
 30
0.0
 10
87.10717228725099
 20
-114.4608859305862
 30
0.0
 10
87.10717228725099
 20
-114.4608859305862
 30
0.0
 10
87.10717228725099
 20
-114.2662380356696
 30
0.0
 10
87.10717228725099
 20
-114.2662380356696
 30
0.0
 10
87.14541284713727
 20
-114.2726114623173
 30
0.0
 10
87.18744301205732
 20
-114.2748507743827
 30
0.0
 10
87.19398869347928
 20
-114.2748507743827
 30
0.0
 10
87.25944550769903
 20
-114.2748507743827
 30
0.0
 10
87.45822751719794
 20
-114.2536634371484
 30
0.0
 10
87.45822751719794
 20
-114.0166408677632
 30
0.0
 10
87.45822751719794
 20
-113.8390461954986
 30
0.0
 10
87.32731388875845
 20
-113.7839246677346
 30
0.0
 10
87.21707083323045
 20
-113.7839246677346
 30
0.0
 10
86.9528320095118
 20
-113.7839246677346
 30
0.0
 10
86.94421927079867
 20
-114.0166408677632
 30
0.0
 10
86.94008515621637
 20
-114.0886433634049
 30
0.0
 10
86.94008515621637
 20
-114.0886433634049
 30
0.0
 10
86.73682452258663
 20
-114.0886433634049
 30
0.0
 10
86.73682452258663
 20
-114.0886433634049
 30
0.0
 10
86.74543726129976
 20
-113.9637586520646
 30
0.0
 10
86.77299802518175
 20
-113.5872097155268
 30
0.0
 10
87.22981768652588
 20
-113.5872097155268
 30
0.0
 10
87.45409340261564
 20
-113.5872097155268
 30
0.0
 10
87.69525008658313
 20
-113.7141614841583
 30
0.0
 10
87.69525008658313
 20
-114.0102674411155
 30
0.0
 10
87.69525008658313
 20
-114.1964748520932
 30
0.0
 10
87.60016545119024
 20
-114.278984888965
 30
0.0
 10
87.50060219166652
 20
-114.3403075886024
 30
0.0
 10
87.56192489130397
 20
-114.3678683524844
 30
0.0
 10
87.74382593292516
 20
-114.448311332065
 30
0.0
 10
87.74382593292516
 20
-114.7254692638534
 30
0.0
 10
87.74382593292516
 20
-115.0639498952792
 30
0.0
 10
87.49646807708422
 20
-115.2310370263138
 30
0.0
 10
87.21948240007013
 20
-115.2310370263138
 30
0.0
  0
HATCH
  5
C0
330
BB
100
AcDbEntity
  8
_U+30EC_U+30A4_U+30E4_U+30FC 1
 62
     7
420
 16777215
100
AcDbHatch
 10
0.0
 20
0.0
 30
0.0
210
0.0
220
0.0
230
1.0
  2
SOLID
 70
     1
 71
     0
 91
        1
 92
        1
 93
        1
 72
     4
 94
        3
 73
     0
 74
     1
 95
       62
 96
       58
 40
0.0
 40
0.0
 40
0.0
 40
0.0
 40
1.0
 40
1.0
 40
1.0
 40
2.0
 40
2.0
 40
2.0
 40
3.0
 40
3.0
 40
3.0
 40
4.0
 40
4.0
 40
4.0
 40
5.0
 40
5.0
 40
5.0
 40
6.0
 40
6.0
 40
6.0
 40
7.0
 40
7.0
 40
7.0
 40
8.0
 40
8.0
 40
8.0
 40
9.0
 40
9.0
 40
9.0
 40
10.0
 40
10.0
 40
10.0
 40
11.0
 40
11.0
 40
11.0
 40
12.0
 40
12.0
 40
12.0
 40
13.0
 40
13.0
 40
13.0
 40
14.0
 40
14.0
 40
14.0
 40
15.0
 40
15.0
 40
15.0
 40
16.0
 40
16.0
 40
16.0
 40
17.0
 40
17.0
 40
17.0
 40
18.0
 40
18.0
 40
18.0
 40
19.0
 40
19.0
 40
19.0
 40
19.0
 10
87.21948240007013
 20
-115.2310370263138
 10
87.12405325512871
 20
-115.2310370263138
 10
86.90632322046092
 20
-115.2098496890795
 10
86.78126625434635
 20
-115.0236422781017
 10
86.70719670141348
 20
-114.9115044200569
 10
86.70306258683118
 20
-114.8121134153074
 10
86.69892847224888
 20
-114.7275363211445
 10
86.69892847224888
 20
-114.7275363211445
 10
86.91907007375634
 20
-114.7275363211445
 10
86.91907007375634
 20
-114.7275363211445
 10
86.9211371310475
 20
-114.8016058740774
 10
86.93147241750324
 20
-115.0363891313972
 10
87.21500377593931
 20
-115.0363891313972
 10
87.35246308580078
 20
-115.0363891313972
 10
87.50508081579734
 20
-114.9666259478208
 10
87.50508081579734
 20
-114.7380438623745
 10
87.50508081579734
 20
-114.6217718897473
 10
87.46684025591107
 20
-114.5730237886311
 10
87.43514537744677
 20
-114.5413289101668
 10
87.3610758245139
 20
-114.4672593572339
 10
87.24463159711246
 20
-114.4546847587127
 10
87.18985457889698
 20
-114.4546847587127
 10
87.17056204417959
 20
-114.4546847587127
 10
87.13473305113298
 20
-114.4567518160039
 10
87.10717228725099
 20
-114.4608859305862
 10
87.10717228725099
 20
-114.4608859305862
 10
87.10717228725099
 20
-114.2662380356696
 10
87.10717228725099
 20
-114.2662380356696
 10
87.14541284713727
 20
-114.2726114623173
 10
87.18744301205732
 20
-114.2748507743827
 10
87.19398869347928
 20
-114.2748507743827
 10
87.25944550769903
 20
-114.2748507743827
 10
87.45822751719794
 20
-114.2536634371484
 10
87.45822751719794
 20
-114.0166408677632
 10
87.45822751719794
 20
-113.8390461954986
 10
87.32731388875845
 20
-113.7839246677346
 10
87.21707083323045
 20
-113.7839246677346
 10
86.9528320095118
 20
-113.7839246677346
 10
86.94421927079867
 20
-114.0166408677632
 10
86.94008515621637
 20
-114.0886433634049
 10
86.94008515621637
 20
-114.0886433634049
 10
86.73682452258663
 20
-114.0886433634049
 10
86.73682452258663
 20
-114.0886433634049
 10
86.74543726129976
 20
-113.9637586520646
 10
86.77299802518175
 20
-113.5872097155268
 10
87.22981768652588
 20
-113.5872097155268
 10
87.45409340261564
 20
-113.5872097155268
 10
87.69525008658313
 20
-113.7141614841583
 10
87.69525008658313
 20
-114.0102674411155
 10
87.69525008658313
 20
-114.1964748520932
 10
87.60016545119024
 20
-114.278984888965
 10
87.50060219166652
 20
-114.3403075886024
 10
87.56192489130397
 20
-114.3678683524844
 10
87.74382593292516
 20
-114.448311332065
 10
87.74382593292516
 20
-114.7254692638534
 10
87.74382593292516
 20
-115.0639498952792
 10
87.49646807708422
 20
-115.2310370263138
 10
87.21948240007013
 20
-115.2310370263138
 97
        0
 97
        0
 75
     2
 76
     1
 98
        0
  0
SPLINE
  5
C1
330
BB
100
AcDbEntity
  8
_U+30EC_U+30A4_U+30E4_U+30FC 1
370
     0
100
AcDbSpline
210
0.0
220
0.0
230
1.0
 70
    11
 71
     3
 72
    53
 73
    49
 74
     0
 42
0.0000000001
 43
0.0000000001
 12
1.0
 22
0.0
 32
0.0
 13
1.0
 23
0.0
 33
0.0
 40
0.0
 40
0.0
 40
0.0
 40
0.0
 40
1.0
 40
1.0
 40
1.0
 40
2.0
 40
2.0
 40
2.0
 40
3.0
 40
3.0
 40
3.0
 40
4.0
 40
4.0
 40
4.0
 40
5.0
 40
5.0
 40
5.0
 40
6.0
 40
6.0
 40
6.0
 40
7.0
 40
7.0
 40
7.0
 40
8.0
 40
8.0
 40
8.0
 40
9.0
 40
9.0
 40
9.0
 40
10.0
 40
10.0
 40
10.0
 40
11.0
 40
11.0
 40
11.0
 40
12.0
 40
12.0
 40
12.0
 40
13.0
 40
13.0
 40
13.0
 40
14.0
 40
14.0
 40
14.0
 40
15.0
 40
15.0
 40
15.0
 40
16.0
 40
16.0
 40
16.0
 40
16.0
 10
88.3856472218272
 20
-115.2310370263138
 30
0.0
 10
88.30744355431203
 20
-115.2310370263138
 30
0.0
 10
88.20581323749717
 20
-115.2139838036618
 30
0.0
 10
88.10418292068229
 20
-115.1505940467332
 30
0.0
 10
87.93089461777423
 20
-115.0405232459795
 30
0.0
 10
87.90953502576568
 20
-114.9094373627657
 30
0.0
 10
87.8905870005968
 20
-114.8016058740774
 30
0.0
 10
87.8905870005968
 20
-114.8016058740774
 30
0.0
 10
88.11279565939542
 20
-114.8016058740774
 30
0.0
 10
88.11279565939542
 20
-114.8016058740774
 30
0.0
 10
88.16757267761089
 20
-115.0003878835763
 30
0.0
 10
88.2946967010166
 20
-115.0300157047494
 30
0.0
 10
88.38771427911836
 20
-115.0300157047494
 30
0.0
 10
88.52724064627097
 20
-115.0300157047494
 30
0.0
 10
88.67951386671902
 20
-114.9306247
 30
0.0
 10
88.67951386671902
 20
-114.6979084999714
 30
0.0
 10
88.67951386671902
 20
-114.4419379054173
 30
0.0
 10
88.49967988238897
 20
-114.372174721841
 30
0.0
 10
88.37910154040523
 20
-114.372174721841
 30
0.0
 10
88.34740666194094
 20
-114.372174721841
 30
0.0
 10
88.20581323749717
 20
-114.372174721841
 30
0.0
 10
88.11692977397772
 20
-114.5011935477636
 30
0.0
 10
88.11692977397772
 20
-114.5011935477636
 30
0.0
 10
87.94122990422997
 20
-114.4820732678205
 30
0.0
 10
87.94122990422997
 20
-114.4820732678205
 30
0.0
 10
87.94122990422997
 20
-114.4820732678205
 30
0.0
 10
88.06180824621372
 20
-113.6359578166431
 30
0.0
 10
88.06180824621372
 20
-113.6359578166431
 30
0.0
 10
88.06180824621372
 20
-113.6359578166431
 30
0.0
 10
88.84039982588018
 20
-113.6359578166431
 30
0.0
 10
88.84039982588018
 20
-113.6359578166431
 30
0.0
 10
88.84039982588018
 20
-113.6359578166431
 30
0.0
 10
88.84039982588018
 20
-113.8306057115597
 30
0.0
 10
88.84039982588018
 20
-113.8306057115597
 30
0.0
 10
88.84039982588018
 20
-113.8306057115597
 30
0.0
 10
88.22476126266604
 20
-113.8306057115597
 30
0.0
 10
88.22476126266604
 20
-113.8306057115597
 30
0.0
 10
88.22476126266604
 20
-113.8306057115597
 30
0.0
 10
88.15930444844629
 20
-114.2536634371484
 30
0.0
 10
88.15930444844629
 20
-114.2536634371484
 30
0.0
 10
88.22062714808374
 20
-114.2197292466187
 30
0.0
 10
88.3029649301812
 20
-114.1795938842155
 30
0.0
 10
88.4214762148738
 20
-114.1795938842155
 30
0.0
 10
88.67537975213672
 20
-114.1795938842155
 30
0.0
 10
88.91240232152191
 20
-114.3658012951933
 30
0.0
 10
88.91240232152191
 20
-114.6787882200282
 30
0.0
 10
88.91240232152191
 20
-114.996253768994
 30
0.0
 10
88.68812660543215
 20
-115.2310370263138
 30
0.0
 10
88.3856472218272
 20
-115.2310370263138
 30
0.0
  0
HATCH
  5
C2
330
BB
100
AcDbEntity
  8
_U+30EC_U+30A4_U+30E4_U+30FC 1
 62
     7
420
 16777215
100
AcDbHatch
 10
0.0
 20
0.0
 30
0.0
210
0.0
220
0.0
230
1.0
  2
SOLID
 70
     1
 71
     0
 91
        1
 92
        1
 93
        1
 72
     4
 94
        3
 73
     0
 74
     1
 95
       53
 96
       49
 40
0.0
 40
0.0
 40
0.0
 40
0.0
 40
1.0
 40
1.0
 40
1.0
 40
2.0
 40
2.0
 40
2.0
 40
3.0
 40
3.0
 40
3.0
 40
4.0
 40
4.0
 40
4.0
 40
5.0
 40
5.0
 40
5.0
 40
6.0
 40
6.0
 40
6.0
 40
7.0
 40
7.0
 40
7.0
 40
8.0
 40
8.0
 40
8.0
 40
9.0
 40
9.0
 40
9.0
 40
10.0
 40
10.0
 40
10.0
 40
11.0
 40
11.0
 40
11.0
 40
12.0
 40
12.0
 40
12.0
 40
13.0
 40
13.0
 40
13.0
 40
14.0
 40
14.0
 40
14.0
 40
15.0
 40
15.0
 40
15.0
 40
16.0
 40
16.0
 40
16.0
 40
16.0
 10
88.3856472218272
 20
-115.2310370263138
 10
88.30744355431203
 20
-115.2310370263138
 10
88.20581323749717
 20
-115.2139838036618
 10
88.10418292068229
 20
-115.1505940467332
 10
87.93089461777423
 20
-115.0405232459795
 10
87.90953502576568
 20
-114.9094373627657
 10
87.8905870005968
 20
-114.8016058740774
 10
87.8905870005968
 20
-114.8016058740774
 10
88.11279565939542
 20
-114.8016058740774
 10
88.11279565939542
 20
-114.8016058740774
 10
88.16757267761089
 20
-115.0003878835763
 10
88.2946967010166
 20
-115.0300157047494
 10
88.38771427911836
 20
-115.0300157047494
 10
88.52724064627097
 20
-115.0300157047494
 10
88.67951386671902
 20
-114.9306247
 10
88.67951386671902
 20
-114.6979084999714
 10
88.67951386671902
 20
-114.4419379054173
 10
88.49967988238897
 20
-114.372174721841
 10
88.37910154040523
 20
-114.372174721841
 10
88.34740666194094
 20
-114.372174721841
 10
88.20581323749717
 20
-114.372174721841
 10
88.11692977397772
 20
-114.5011935477636
 10
88.11692977397772
 20
-114.5011935477636
 10
87.94122990422997
 20
-114.4820732678205
 10
87.94122990422997
 20
-114.4820732678205
 10
87.94122990422997
 20
-114.4820732678205
 10
88.06180824621372
 20
-113.6359578166431
 10
88.06180824621372
 20
-113.6359578166431
 10
88.06180824621372
 20
-113.6359578166431
 10
88.84039982588018
 20
-113.6359578166431
 10
88.84039982588018
 20
-113.6359578166431
 10
88.84039982588018
 20
-113.6359578166431
 10
88.84039982588018
 20
-113.8306057115597
 10
88.84039982588018
 20
-113.8306057115597
 10
88.84039982588018
 20
-113.8306057115597
 10
88.22476126266604
 20
-113.8306057115597
 10
88.22476126266604
 20
-113.8306057115597
 10
88.22476126266604
 20
-113.8306057115597
 10
88.15930444844629
 20
-114.2536634371484
 10
88.15930444844629
 20
-114.2536634371484
 10
88.22062714808374
 20
-114.2197292466187
 10
88.3029649301812
 20
-114.1795938842155
 10
88.4214762148738
 20
-114.1795938842155
 10
88.67537975213672
 20
-114.1795938842155
 10
88.91240232152191
 20
-114.3658012951933
 10
88.91240232152191
 20
-114.6787882200282
 10
88.91240232152191
 20
-114.996253768994
 10
88.68812660543215
 20
-115.2310370263138
 10
88.3856472218272
 20
-115.2310370263138
 97
        0
 97
        0
 75
     2
 76
     1
 98
        0
  0
ENDBLK
  5
BE
330
BB
100
AcDbEntity
  8
0
100
AcDbBlockEnd
  0
BLOCK
  5
D1
330
CF
100
AcDbEntity
  8
0
100
AcDbBlockBegin
  2
block 5
 70
     0
 10
0.0
 20
0.0
 30
0.0
  3
block 5
  1

  0
SPLINE
  5
D3
330
CF
100
AcDbEntity
  8
_U+30EC_U+30A4_U+30E4_U+30FC 1
370
     0
100
AcDbSpline
210
0.0
220
0.0
230
1.0
 70
    11
 71
     3
 72
    26
 73
    22
 74
     0
 42
0.0000000001
 43
0.0000000001
 12
1.0
 22
0.0
 32
0.0
 13
1.0
 23
0.0
 33
0.0
 40
0.0
 40
0.0
 40
0.0
 40
0.0
 40
1.0
 40
1.0
 40
1.0
 40
2.0
 40
2.0
 40
2.0
 40
3.0
 40
3.0
 40
3.0
 40
4.0
 40
4.0
 40
4.0
 40
5.0
 40
5.0
 40
5.0
 40
6.0
 40
6.0
 40
6.0
 40
7.0
 40
7.0
 40
7.0
 40
7.0
 10
76.02516138507357
 20
-143.0737819737802
 30
0.0
 10
76.02516138507357
 20
-143.0737819737802
 30
0.0
 10
76.02516138507357
 20
-141.9696288707576
 30
0.0
 10
76.02516138507357
 20
-141.9696288707576
 30
0.0
 10
76.02516138507357
 20
-141.9696288707576
 30
0.0
 10
75.69512123758663
 20
-141.9696288707576
 30
0.0
 10
75.69512123758663
 20
-141.9696288707576
 30
0.0
 10
75.69512123758663
 20
-141.9696288707576
 30
0.0
 10
75.69512123758663
 20
-141.8214897648919
 30
0.0
 10
75.69512123758663
 20
-141.8214897648919
 30
0.0
 10
76.02722844236473
 20
-141.8066758543053
 30
0.0
 10
76.07373723141559
 20
-141.643722837853
 30
0.0
 10
76.10336505258874
 20
-141.5293456677427
 30
0.0
 10
76.10336505258874
 20
-141.5293456677427
 30
0.0
 10
76.24943710116334
 20
-141.5293456677427
 30
0.0
 10
76.24943710116334
 20
-141.5293456677427
 30
0.0
 10
76.24943710116334
 20
-141.5293456677427
 30
0.0
 10
76.24943710116334
 20
-143.0737819737802
 30
0.0
 10
76.24943710116334
 20
-143.0737819737802
 30
0.0
 10
76.24943710116334
 20
-143.0737819737802
 30
0.0
 10
76.02516138507357
 20
-143.0737819737802
 30
0.0
 10
76.02516138507357
 20
-143.0737819737802
 30
0.0
  0
HATCH
  5
D4
330
CF
100
AcDbEntity
  8
_U+30EC_U+30A4_U+30E4_U+30FC 1
 62
     7
420
 16777215
100
AcDbHatch
 10
0.0
 20
0.0
 30
0.0
210
0.0
220
0.0
230
1.0
  2
SOLID
 70
     1
 71
     0
 91
        1
 92
        1
 93
        1
 72
     4
 94
        3
 73
     0
 74
     1
 95
       26
 96
       22
 40
0.0
 40
0.0
 40
0.0
 40
0.0
 40
1.0
 40
1.0
 40
1.0
 40
2.0
 40
2.0
 40
2.0
 40
3.0
 40
3.0
 40
3.0
 40
4.0
 40
4.0
 40
4.0
 40
5.0
 40
5.0
 40
5.0
 40
6.0
 40
6.0
 40
6.0
 40
7.0
 40
7.0
 40
7.0
 40
7.0
 10
76.02516138507357
 20
-143.0737819737802
 10
76.02516138507357
 20
-143.0737819737802
 10
76.02516138507357
 20
-141.9696288707576
 10
76.02516138507357
 20
-141.9696288707576
 10
76.02516138507357
 20
-141.9696288707576
 10
75.69512123758663
 20
-141.9696288707576
 10
75.69512123758663
 20
-141.9696288707576
 10
75.69512123758663
 20
-141.9696288707576
 10
75.69512123758663
 20
-141.8214897648919
 10
75.69512123758663
 20
-141.8214897648919
 10
76.02722844236473
 20
-141.8066758543053
 10
76.07373723141559
 20
-141.643722837853
 10
76.10336505258874
 20
-141.5293456677427
 10
76.10336505258874
 20
-141.5293456677427
 10
76.24943710116334
 20
-141.5293456677427
 10
76.24943710116334
 20
-141.5293456677427
 10
76.24943710116334
 20
-141.5293456677427
 10
76.24943710116334
 20
-143.0737819737802
 10
76.24943710116334
 20
-143.0737819737802
 10
76.24943710116334
 20
-143.0737819737802
 10
76.02516138507357
 20
-143.0737819737802
 10
76.02516138507357
 20
-143.0737819737802
 97
        0
 97
        0
 75
     2
 76
     1
 98
        0
  0
SPLINE
  5
D5
330
CF
100
AcDbEntity
  8
_U+30EC_U+30A4_U+30E4_U+30FC 1
370
     0
100
AcDbSpline
210
0.0
220
0.0
230
1.0
 70
    11
 71
     3
 72
    44
 73
    40
 74
     0
 42
0.0000000001
 43
0.0000000001
 12
1.0
 22
0.0
 32
0.0
 13
1.0
 23
0.0
 33
0.0
 40
0.0
 40
0.0
 40
0.0
 40
0.0
 40
1.0
 40
1.0
 40
1.0
 40
2.0
 40
2.0
 40
2.0
 40
3.0
 40
3.0
 40
3.0
 40
4.0
 40
4.0
 40
4.0
 40
5.0
 40
5.0
 40
5.0
 40
6.0
 40
6.0
 40
6.0
 40
7.0
 40
7.0
 40
7.0
 40
8.0
 40
8.0
 40
8.0
 40
9.0
 40
9.0
 40
9.0
 40
10.0
 40
10.0
 40
10.0
 40
11.0
 40
11.0
 40
11.0
 40
12.0
 40
12.0
 40
12.0
 40
13.0
 40
13.0
 40
13.0
 40
13.0
 10
77.34377168205295
 20
-142.4919053463215
 30
0.0
 10
77.1258693926109
 20
-142.6507242481915
 30
0.0
 10
77.03267955973489
 20
-142.7247938011244
 30
0.0
 10
76.98410371339287
 20
-142.8684542828593
 30
0.0
 10
76.98410371339287
 20
-142.8684542828593
 30
0.0
 10
77.76252303828507
 20
-142.8684542828593
 30
0.0
 10
77.76252303828507
 20
-142.8684542828593
 30
0.0
 10
77.76252303828507
 20
-142.8684542828593
 30
0.0
 10
77.76252303828507
 20
-143.0737819737802
 30
0.0
 10
77.76252303828507
 20
-143.0737819737802
 30
0.0
 10
77.76252303828507
 20
-143.0737819737802
 30
0.0
 10
76.73450654548651
 20
-143.0737819737802
 30
0.0
 10
76.73450654548651
 20
-143.0737819737802
 30
0.0
 10
76.76620142395082
 20
-142.7161810624112
 30
0.0
 10
76.83165823817056
 20
-142.6379773948961
 30
0.0
 10
77.21681991342149
 20
-142.3396321258734
 30
0.0
 10
77.47279050797556
 20
-142.1408501163745
 30
0.0
 10
77.5382473221953
 20
-142.0729817353151
 30
0.0
 10
77.5382473221953
 20
-141.9355224254536
 30
0.0
 10
77.5382473221953
 20
-141.817011140761
 30
0.0
 10
77.46641708132785
 20
-141.6860975123215
 30
0.0
 10
77.26970212912008
 20
-141.6860975123215
 30
0.0
 10
77.00942516520945
 20
-141.6860975123215
 30
0.0
 10
77.0009846812706
 20
-141.9165744002848
 30
0.0
 10
76.99667831191402
 20
-142.0330186276862
 30
0.0
 10
76.99667831191402
 20
-142.0330186276862
 30
0.0
 10
76.77257485059853
 20
-142.0330186276862
 30
0.0
 10
76.77257485059853
 20
-142.0330186276862
 30
0.0
 10
76.78101533453739
 20
-141.9058946042805
 30
0.0
 10
76.7915228757674
 20
-141.7939290010099
 30
0.0
 10
76.87196585534798
 20
-141.6754177163173
 30
0.0
 10
76.98186440132746
 20
-141.5148762667046
 30
0.0
 10
77.16807181230521
 20
-141.4807698214007
 30
0.0
 10
77.28451603970666
 20
-141.4807698214007
 30
0.0
 10
77.561673971495
 20
-141.4807698214007
 30
0.0
 10
77.76889646493278
 20
-141.664737920313
 30
0.0
 10
77.76889646493278
 20
-141.9375894827448
 30
0.0
 10
77.76889646493278
 20
-142.1663438229654
 30
0.0
 10
77.65262449230559
 20
-142.2655625729406
 30
0.0
 10
77.34377168205295
 20
-142.4919053463215
 30
0.0
  0
HATCH
  5
D6
330
CF
100
AcDbEntity
  8
_U+30EC_U+30A4_U+30E4_U+30FC 1
 62
     7
420
 16777215
100
AcDbHatch
 10
0.0
 20
0.0
 30
0.0
210
0.0
220
0.0
230
1.0
  2
SOLID
 70
     1
 71
     0
 91
        1
 92
        1
 93
        1
 72
     4
 94
        3
 73
     0
 74
     1
 95
       44
 96
       40
 40
0.0
 40
0.0
 40
0.0
 40
0.0
 40
1.0
 40
1.0
 40
1.0
 40
2.0
 40
2.0
 40
2.0
 40
3.0
 40
3.0
 40
3.0
 40
4.0
 40
4.0
 40
4.0
 40
5.0
 40
5.0
 40
5.0
 40
6.0
 40
6.0
 40
6.0
 40
7.0
 40
7.0
 40
7.0
 40
8.0
 40
8.0
 40
8.0
 40
9.0
 40
9.0
 40
9.0
 40
10.0
 40
10.0
 40
10.0
 40
11.0
 40
11.0
 40
11.0
 40
12.0
 40
12.0
 40
12.0
 40
13.0
 40
13.0
 40
13.0
 40
13.0
 10
77.34377168205295
 20
-142.4919053463215
 10
77.1258693926109
 20
-142.6507242481915
 10
77.03267955973489
 20
-142.7247938011244
 10
76.98410371339287
 20
-142.8684542828593
 10
76.98410371339287
 20
-142.8684542828593
 10
77.76252303828507
 20
-142.8684542828593
 10
77.76252303828507
 20
-142.8684542828593
 10
77.76252303828507
 20
-142.8684542828593
 10
77.76252303828507
 20
-143.0737819737802
 10
77.76252303828507
 20
-143.0737819737802
 10
77.76252303828507
 20
-143.0737819737802
 10
76.73450654548651
 20
-143.0737819737802
 10
76.73450654548651
 20
-143.0737819737802
 10
76.76620142395082
 20
-142.7161810624112
 10
76.83165823817056
 20
-142.6379773948961
 10
77.21681991342149
 20
-142.3396321258734
 10
77.47279050797556
 20
-142.1408501163745
 10
77.5382473221953
 20
-142.0729817353151
 10
77.5382473221953
 20
-141.9355224254536
 10
77.5382473221953
 20
-141.817011140761
 10
77.46641708132785
 20
-141.6860975123215
 10
77.26970212912008
 20
-141.6860975123215
 10
77.00942516520945
 20
-141.6860975123215
 10
77.0009846812706
 20
-141.9165744002848
 10
76.99667831191402
 20
-142.0330186276862
 10
76.99667831191402
 20
-142.0330186276862
 10
76.77257485059853
 20
-142.0330186276862
 10
76.77257485059853
 20
-142.0330186276862
 10
76.78101533453739
 20
-141.9058946042805
 10
76.7915228757674
 20
-141.7939290010099
 10
76.87196585534798
 20
-141.6754177163173
 10
76.98186440132746
 20
-141.5148762667046
 10
77.16807181230521
 20
-141.4807698214007
 10
77.28451603970666
 20
-141.4807698214007
 10
77.561673971495
 20
-141.4807698214007
 10
77.76889646493278
 20
-141.664737920313
 10
77.76889646493278
 20
-141.9375894827448
 10
77.76889646493278
 20
-142.1663438229654
 10
77.65262449230559
 20
-142.2655625729406
 10
77.34377168205295
 20
-142.4919053463215
 97
        0
 97
        0
 75
     2
 76
     1
 98
        0
  0
ENDBLK
  5
D2
330
CF
100
AcDbEntity
  8
0
100
AcDbBlockEnd
  0
BLOCK
  5
E7
330
E5
100
AcDbEntity
  8
0
100
AcDbBlockBegin
  2
block 6
 70
     0
 10
0.0
 20
0.0
 30
0.0
  3
block 6
  1

  0
SPLINE
  5
E9
330
E5
100
AcDbEntity
  8
_U+30EC_U+30A4_U+30E4_U+30FC 1
370
     0
100
AcDbSpline
210
0.0
220
0.0
230
1.0
 70
    11
 71
     3
 72
    62
 73
    58
 74
     0
 42
0.0000000001
 43
0.0000000001
 12
1.0
 22
0.0
 32
0.0
 13
1.0
 23
0.0
 33
0.0
 40
0.0
 40
0.0
 40
0.0
 40
0.0
 40
1.0
 40
1.0
 40
1.0
 40
2.0
 40
2.0
 40
2.0
 40
3.0
 40
3.0
 40
3.0
 40
4.0
 40
4.0
 40
4.0
 40
5.0
 40
5.0
 40
5.0
 40
6.0
 40
6.0
 40
6.0
 40
7.0
 40
7.0
 40
7.0
 40
8.0
 40
8.0
 40
8.0
 40
9.0
 40
9.0
 40
9.0
 40
10.0
 40
10.0
 40
10.0
 40
11.0
 40
11.0
 40
11.0
 40
12.0
 40
12.0
 40
12.0
 40
13.0
 40
13.0
 40
13.0
 40
14.0
 40
14.0
 40
14.0
 40
15.0
 40
15.0
 40
15.0
 40
16.0
 40
16.0
 40
16.0
 40
17.0
 40
17.0
 40
17.0
 40
18.0
 40
18.0
 40
18.0
 40
19.0
 40
19.0
 40
19.0
 40
19.0
 10
108.7537407497213
 20
-137.8740993578926
 30
0.0
 10
108.7537407497213
 20
-137.969528502834
 30
0.0
 10
108.7327256672613
 20
-138.1872585375018
 30
0.0
 10
108.5466905110578
 20
-138.3123155036164
 30
0.0
 10
108.4343803982386
 20
-138.3860405470007
 30
0.0
 10
108.3351616482634
 20
-138.3905191711315
 30
0.0
 10
108.2504122993263
 20
-138.3946532857138
 30
0.0
 10
108.2504122993263
 20
-138.3946532857138
 30
0.0
 10
108.2504122993263
 20
-138.1745116842064
 30
0.0
 10
108.2504122993263
 20
-138.1745116842064
 30
0.0
 10
108.3244818522592
 20
-138.1724446269152
 30
0.0
 10
108.5590928548047
 20
-138.1621093404595
 30
0.0
 10
108.5590928548047
 20
-137.8785779820234
 30
0.0
 10
108.5590928548047
 20
-137.7411186721619
 30
0.0
 10
108.4895019260026
 20
-137.5885009421654
 30
0.0
 10
108.2610920953306
 20
-137.5885009421654
 30
0.0
 10
108.1446478679291
 20
-137.5885009421654
 30
0.0
 10
108.0960720215871
 20
-137.6267415020517
 30
0.0
 10
108.0643771431228
 20
-137.658436380516
 30
0.0
 10
107.9903075901899
 20
-137.7325059334488
 30
0.0
 10
107.9775607368945
 20
-137.8489501608503
 30
0.0
 10
107.9775607368945
 20
-137.9037271790658
 30
0.0
 10
107.9775607368945
 20
-137.9230197137831
 30
0.0
 10
107.9796277941857
 20
-137.9588487068297
 30
0.0
 10
107.983761908768
 20
-137.9864094707117
 30
0.0
 10
107.983761908768
 20
-137.9864094707117
 30
0.0
 10
107.7891140138513
 20
-137.9864094707117
 30
0.0
 10
107.7891140138513
 20
-137.9864094707117
 30
0.0
 10
107.7956596952733
 20
-137.9481689108255
 30
0.0
 10
107.7977267525645
 20
-137.9061387459054
 30
0.0
 10
107.7977267525645
 20
-137.8995930644834
 30
0.0
 10
107.7977267525645
 20
-137.8341362502637
 30
0.0
 10
107.7763671605559
 20
-137.6353542407648
 30
0.0
 10
107.5396891007192
 20
-137.6353542407648
 30
0.0
 10
107.3619221736804
 20
-137.6353542407648
 30
0.0
 10
107.3068006459164
 20
-137.7662678692043
 30
0.0
 10
107.3068006459164
 20
-137.8765109247323
 30
0.0
 10
107.3068006459164
 20
-138.1407497484509
 30
0.0
 10
107.5396891007192
 20
-138.149362487164
 30
0.0
 10
107.6113470868124
 20
-138.1534966017464
 30
0.0
 10
107.6113470868124
 20
-138.1534966017464
 30
0.0
 10
107.6113470868124
 20
-138.3567572353761
 30
0.0
 10
107.6113470868124
 20
-138.3567572353761
 30
0.0
 10
107.4866346302464
 20
-138.348144496663
 30
0.0
 10
107.1100856937086
 20
-138.320583732781
 30
0.0
 10
107.1100856937086
 20
-137.8637640714368
 30
0.0
 10
107.1100856937086
 20
-137.6394883553471
 30
0.0
 10
107.2372097171143
 20
-137.3983316713796
 30
0.0
 10
107.5331434192973
 20
-137.3983316713796
 30
0.0
 10
107.7195230850493
 20
-137.3983316713796
 30
0.0
 10
107.8018608671468
 20
-137.4934163067725
 30
0.0
 10
107.8631835667842
 20
-137.5929795662962
 30
0.0
 10
107.8907443306662
 20
-137.5316568666588
 30
0.0
 10
107.9710150554725
 20
-137.3497558250376
 30
0.0
 10
108.2483452420351
 20
-137.3497558250376
 30
0.0
 10
108.5866536186867
 20
-137.3497558250376
 30
0.0
 10
108.7537407497213
 20
-137.5971136808785
 30
0.0
 10
108.7537407497213
 20
-137.8740993578926
 30
0.0
  0
HATCH
  5
EA
330
E5
100
AcDbEntity
  8
_U+30EC_U+30A4_U+30E4_U+30FC 1
 62
     7
420
 16777215
100
AcDbHatch
 10
0.0
 20
0.0
 30
0.0
210
0.0
220
0.0
230
1.0
  2
SOLID
 70
     1
 71
     0
 91
        1
 92
        1
 93
        1
 72
     4
 94
        3
 73
     0
 74
     1
 95
       62
 96
       58
 40
0.0
 40
0.0
 40
0.0
 40
0.0
 40
1.0
 40
1.0
 40
1.0
 40
2.0
 40
2.0
 40
2.0
 40
3.0
 40
3.0
 40
3.0
 40
4.0
 40
4.0
 40
4.0
 40
5.0
 40
5.0
 40
5.0
 40
6.0
 40
6.0
 40
6.0
 40
7.0
 40
7.0
 40
7.0
 40
8.0
 40
8.0
 40
8.0
 40
9.0
 40
9.0
 40
9.0
 40
10.0
 40
10.0
 40
10.0
 40
11.0
 40
11.0
 40
11.0
 40
12.0
 40
12.0
 40
12.0
 40
13.0
 40
13.0
 40
13.0
 40
14.0
 40
14.0
 40
14.0
 40
15.0
 40
15.0
 40
15.0
 40
16.0
 40
16.0
 40
16.0
 40
17.0
 40
17.0
 40
17.0
 40
18.0
 40
18.0
 40
18.0
 40
19.0
 40
19.0
 40
19.0
 40
19.0
 10
108.7537407497213
 20
-137.8740993578926
 10
108.7537407497213
 20
-137.969528502834
 10
108.7327256672613
 20
-138.1872585375018
 10
108.5466905110578
 20
-138.3123155036164
 10
108.4343803982386
 20
-138.3860405470007
 10
108.3351616482634
 20
-138.3905191711315
 10
108.2504122993263
 20
-138.3946532857138
 10
108.2504122993263
 20
-138.3946532857138
 10
108.2504122993263
 20
-138.1745116842064
 10
108.2504122993263
 20
-138.1745116842064
 10
108.3244818522592
 20
-138.1724446269152
 10
108.5590928548047
 20
-138.1621093404595
 10
108.5590928548047
 20
-137.8785779820234
 10
108.5590928548047
 20
-137.7411186721619
 10
108.4895019260026
 20
-137.5885009421654
 10
108.2610920953306
 20
-137.5885009421654
 10
108.1446478679291
 20
-137.5885009421654
 10
108.0960720215871
 20
-137.6267415020517
 10
108.0643771431228
 20
-137.658436380516
 10
107.9903075901899
 20
-137.7325059334488
 10
107.9775607368945
 20
-137.8489501608503
 10
107.9775607368945
 20
-137.9037271790658
 10
107.9775607368945
 20
-137.9230197137831
 10
107.9796277941857
 20
-137.9588487068297
 10
107.983761908768
 20
-137.9864094707117
 10
107.983761908768
 20
-137.9864094707117
 10
107.7891140138513
 20
-137.9864094707117
 10
107.7891140138513
 20
-137.9864094707117
 10
107.7956596952733
 20
-137.9481689108255
 10
107.7977267525645
 20
-137.9061387459054
 10
107.7977267525645
 20
-137.8995930644834
 10
107.7977267525645
 20
-137.8341362502637
 10
107.7763671605559
 20
-137.6353542407648
 10
107.5396891007192
 20
-137.6353542407648
 10
107.3619221736804
 20
-137.6353542407648
 10
107.3068006459164
 20
-137.7662678692043
 10
107.3068006459164
 20
-137.8765109247323
 10
107.3068006459164
 20
-138.1407497484509
 10
107.5396891007192
 20
-138.149362487164
 10
107.6113470868124
 20
-138.1534966017464
 10
107.6113470868124
 20
-138.1534966017464
 10
107.6113470868124
 20
-138.3567572353761
 10
107.6113470868124
 20
-138.3567572353761
 10
107.4866346302464
 20
-138.348144496663
 10
107.1100856937086
 20
-138.320583732781
 10
107.1100856937086
 20
-137.8637640714368
 10
107.1100856937086
 20
-137.6394883553471
 10
107.2372097171143
 20
-137.3983316713796
 10
107.5331434192973
 20
-137.3983316713796
 10
107.7195230850493
 20
-137.3983316713796
 10
107.8018608671468
 20
-137.4934163067725
 10
107.8631835667842
 20
-137.5929795662962
 10
107.8907443306662
 20
-137.5316568666588
 10
107.9710150554725
 20
-137.3497558250376
 10
108.2483452420351
 20
-137.3497558250376
 10
108.5866536186867
 20
-137.3497558250376
 10
108.7537407497213
 20
-137.5971136808785
 10
108.7537407497213
 20
-137.8740993578926
 97
        0
 97
        0
 75
     2
 76
     1
 98
        0
  0
ENDBLK
  5
E8
330
E5
100
AcDbEntity
  8
0
100
AcDbBlockEnd
  0
BLOCK
  5
F1
330
EF
100
AcDbEntity
  8
0
100
AcDbBlockBegin
  2
block 7
 70
     0
 10
0.0
 20
0.0
 30
0.0
  3
block 7
  1

  0
SPLINE
  5
F3
330
EF
100
AcDbEntity
  8
_U+30EC_U+30A4_U+30E4_U+30FC 1
370
     0
100
AcDbSpline
210
0.0
220
0.0
230
1.0
 70
    11
 71
     3
 72
    26
 73
    22
 74
     0
 42
0.0000000001
 43
0.0000000001
 12
1.0
 22
0.0
 32
0.0
 13
1.0
 23
0.0
 33
0.0
 40
0.0
 40
0.0
 40
0.0
 40
0.0
 40
1.0
 40
1.0
 40
1.0
 40
2.0
 40
2.0
 40
2.0
 40
3.0
 40
3.0
 40
3.0
 40
4.0
 40
4.0
 40
4.0
 40
5.0
 40
5.0
 40
5.0
 40
6.0
 40
6.0
 40
6.0
 40
7.0
 40
7.0
 40
7.0
 40
7.0
 10
108.7030978460881
 20
-131.1475504229423
 30
0.0
 10
108.7030978460881
 20
-131.1475504229423
 30
0.0
 10
107.5989447430655
 20
-131.1475504229423
 30
0.0
 10
107.5989447430655
 20
-131.1475504229423
 30
0.0
 10
107.5989447430655
 20
-131.1475504229423
 30
0.0
 10
107.5989447430655
 20
-131.4775905704292
 30
0.0
 10
107.5989447430655
 20
-131.4775905704292
 30
0.0
 10
107.5989447430655
 20
-131.4775905704292
 30
0.0
 10
107.4508056371998
 20
-131.4775905704292
 30
0.0
 10
107.4508056371998
 20
-131.4775905704292
 30
0.0
 10
107.4359917266132
 20
-131.1454833656511
 30
0.0
 10
107.2730387101609
 20
-131.0989745766003
 30
0.0
 10
107.1586615400506
 20
-131.0693467554271
 30
0.0
 10
107.1586615400506
 20
-131.0693467554271
 30
0.0
 10
107.1586615400506
 20
-130.9232747068525
 30
0.0
 10
107.1586615400506
 20
-130.9232747068525
 30
0.0
 10
107.1586615400506
 20
-130.9232747068525
 30
0.0
 10
108.7030978460881
 20
-130.9232747068525
 30
0.0
 10
108.7030978460881
 20
-130.9232747068525
 30
0.0
 10
108.7030978460881
 20
-130.9232747068525
 30
0.0
 10
108.7030978460881
 20
-131.1475504229423
 30
0.0
 10
108.7030978460881
 20
-131.1475504229423
 30
0.0
  0
HATCH
  5
F4
330
EF
100
AcDbEntity
  8
_U+30EC_U+30A4_U+30E4_U+30FC 1
 62
     7
420
 16777215
100
AcDbHatch
 10
0.0
 20
0.0
 30
0.0
210
0.0
220
0.0
230
1.0
  2
SOLID
 70
     1
 71
     0
 91
        1
 92
        1
 93
        1
 72
     4
 94
        3
 73
     0
 74
     1
 95
       26
 96
       22
 40
0.0
 40
0.0
 40
0.0
 40
0.0
 40
1.0
 40
1.0
 40
1.0
 40
2.0
 40
2.0
 40
2.0
 40
3.0
 40
3.0
 40
3.0
 40
4.0
 40
4.0
 40
4.0
 40
5.0
 40
5.0
 40
5.0
 40
6.0
 40
6.0
 40
6.0
 40
7.0
 40
7.0
 40
7.0
 40
7.0
 10
108.7030978460881
 20
-131.1475504229423
 10
108.7030978460881
 20
-131.1475504229423
 10
107.5989447430655
 20
-131.1475504229423
 10
107.5989447430655
 20
-131.1475504229423
 10
107.5989447430655
 20
-131.1475504229423
 10
107.5989447430655
 20
-131.4775905704292
 10
107.5989447430655
 20
-131.4775905704292
 10
107.5989447430655
 20
-131.4775905704292
 10
107.4508056371998
 20
-131.4775905704292
 10
107.4508056371998
 20
-131.4775905704292
 10
107.4359917266132
 20
-131.1454833656511
 10
107.2730387101609
 20
-131.0989745766003
 10
107.1586615400506
 20
-131.0693467554271
 10
107.1586615400506
 20
-131.0693467554271
 10
107.1586615400506
 20
-130.9232747068525
 10
107.1586615400506
 20
-130.9232747068525
 10
107.1586615400506
 20
-130.9232747068525
 10
108.7030978460881
 20
-130.9232747068525
 10
108.7030978460881
 20
-130.9232747068525
 10
108.7030978460881
 20
-130.9232747068525
 10
108.7030978460881
 20
-131.1475504229423
 10
108.7030978460881
 20
-131.1475504229423
 97
        0
 97
        0
 75
     2
 76
     1
 98
        0
  0
SPLINE
  5
F5
330
EF
100
AcDbEntity
  8
_U+30EC_U+30A4_U+30E4_U+30FC 1
370
     0
100
AcDbSpline
210
0.0
220
0.0
230
1.0
 70
    11
 71
     3
 72
    53
 73
    49
 74
     0
 42
0.0000000001
 43
0.0000000001
 12
1.0
 22
0.0
 32
0.0
 13
1.0
 23
0.0
 33
0.0
 40
0.0
 40
0.0
 40
0.0
 40
0.0
 40
1.0
 40
1.0
 40
1.0
 40
2.0
 40
2.0
 40
2.0
 40
3.0
 40
3.0
 40
3.0
 40
4.0
 40
4.0
 40
4.0
 40
5.0
 40
5.0
 40
5.0
 40
6.0
 40
6.0
 40
6.0
 40
7.0
 40
7.0
 40
7.0
 40
8.0
 40
8.0
 40
8.0
 40
9.0
 40
9.0
 40
9.0
 40
10.0
 40
10.0
 40
10.0
 40
11.0
 40
11.0
 40
11.0
 40
12.0
 40
12.0
 40
12.0
 40
13.0
 40
13.0
 40
13.0
 40
14.0
 40
14.0
 40
14.0
 40
15.0
 40
15.0
 40
15.0
 40
16.0
 40
16.0
 40
16.0
 40
16.0
 10
108.7537407497213
 20
-129.9410779840078
 30
0.0
 10
108.7537407497213
 20
-130.019281651523
 30
0.0
 10
108.7368597818436
 20
-130.1209119683378
 30
0.0
 10
108.673470024915
 20
-130.2225422851527
 30
0.0
 10
108.5635714789355
 20
-130.3958305880608
 30
0.0
 10
108.4323133409475
 20
-130.4171901800693
 30
0.0
 10
108.3244818522592
 20
-130.4361382052382
 30
0.0
 10
108.3244818522592
 20
-130.4361382052382
 30
0.0
 10
108.3244818522592
 20
-130.2139295464396
 30
0.0
 10
108.3244818522592
 20
-130.2139295464396
 30
0.0
 10
108.5232638617581
 20
-130.1591525282241
 30
0.0
 10
108.5528916829312
 20
-130.0320285048184
 30
0.0
 10
108.5528916829312
 20
-129.9390109267166
 30
0.0
 10
108.5528916829312
 20
-129.799484559564
 30
0.0
 10
108.4533284234075
 20
-129.647211339116
 30
0.0
 10
108.2207844781531
 20
-129.647211339116
 30
0.0
 10
107.9648138835991
 20
-129.647211339116
 30
0.0
 10
107.8948784452485
 20
-129.827045323446
 30
0.0
 10
107.8948784452485
 20
-129.9476236654298
 30
0.0
 10
107.8948784452485
 20
-129.9793185438941
 30
0.0
 10
107.8948784452485
 20
-130.1209119683378
 30
0.0
 10
108.0240695259454
 20
-130.2097954318573
 30
0.0
 10
108.0240695259454
 20
-130.2097954318573
 30
0.0
 10
108.0051215007765
 20
-130.385495301605
 30
0.0
 10
108.0051215007765
 20
-130.385495301605
 30
0.0
 10
108.0051215007765
 20
-130.385495301605
 30
0.0
 10
107.1586615400506
 20
-130.2649169596213
 30
0.0
 10
107.1586615400506
 20
-130.2649169596213
 30
0.0
 10
107.1586615400506
 20
-130.2649169596213
 30
0.0
 10
107.1586615400506
 20
-129.4863253799548
 30
0.0
 10
107.1586615400506
 20
-129.4863253799548
 30
0.0
 10
107.1586615400506
 20
-129.4863253799548
 30
0.0
 10
107.3533094349672
 20
-129.4863253799548
 30
0.0
 10
107.3533094349672
 20
-129.4863253799548
 30
0.0
 10
107.3533094349672
 20
-129.4863253799548
 30
0.0
 10
107.3533094349672
 20
-130.101963943169
 30
0.0
 10
107.3533094349672
 20
-130.101963943169
 30
0.0
 10
107.3533094349672
 20
-130.101963943169
 30
0.0
 10
107.7763671605559
 20
-130.1674207573887
 30
0.0
 10
107.7763671605559
 20
-130.1674207573887
 30
0.0
 10
107.7426052248005
 20
-130.1060980577513
 30
0.0
 10
107.702297607623
 20
-130.0237602756538
 30
0.0
 10
107.702297607623
 20
-129.9052489909612
 30
0.0
 10
107.702297607623
 20
-129.6513454536983
 30
0.0
 10
107.8886772733751
 20
-129.4143228843131
 30
0.0
 10
108.2018364529843
 20
-129.4143228843131
 30
0.0
 10
108.5191297471758
 20
-129.4143228843131
 30
0.0
 10
108.7537407497213
 20
-129.6385986004028
 30
0.0
 10
108.7537407497213
 20
-129.9410779840078
 30
0.0
  0
HATCH
  5
F6
330
EF
100
AcDbEntity
  8
_U+30EC_U+30A4_U+30E4_U+30FC 1
 62
     7
420
 16777215
100
AcDbHatch
 10
0.0
 20
0.0
 30
0.0
210
0.0
220
0.0
230
1.0
  2
SOLID
 70
     1
 71
     0
 91
        1
 92
        1
 93
        1
 72
     4
 94
        3
 73
     0
 74
     1
 95
       53
 96
       49
 40
0.0
 40
0.0
 40
0.0
 40
0.0
 40
1.0
 40
1.0
 40
1.0
 40
2.0
 40
2.0
 40
2.0
 40
3.0
 40
3.0
 40
3.0
 40
4.0
 40
4.0
 40
4.0
 40
5.0
 40
5.0
 40
5.0
 40
6.0
 40
6.0
 40
6.0
 40
7.0
 40
7.0
 40
7.0
 40
8.0
 40
8.0
 40
8.0
 40
9.0
 40
9.0
 40
9.0
 40
10.0
 40
10.0
 40
10.0
 40
11.0
 40
11.0
 40
11.0
 40
12.0
 40
12.0
 40
12.0
 40
13.0
 40
13.0
 40
13.0
 40
14.0
 40
14.0
 40
14.0
 40
15.0
 40
15.0
 40
15.0
 40
16.0
 40
16.0
 40
16.0
 40
16.0
 10
108.7537407497213
 20
-129.9410779840078
 10
108.7537407497213
 20
-130.019281651523
 10
108.7368597818436
 20
-130.1209119683378
 10
108.673470024915
 20
-130.2225422851527
 10
108.5635714789355
 20
-130.3958305880608
 10
108.4323133409475
 20
-130.4171901800693
 10
108.3244818522592
 20
-130.4361382052382
 10
108.3244818522592
 20
-130.4361382052382
 10
108.3244818522592
 20
-130.2139295464396
 10
108.3244818522592
 20
-130.2139295464396
 10
108.5232638617581
 20
-130.1591525282241
 10
108.5528916829312
 20
-130.0320285048184
 10
108.5528916829312
 20
-129.9390109267166
 10
108.5528916829312
 20
-129.799484559564
 10
108.4533284234075
 20
-129.647211339116
 10
108.2207844781531
 20
-129.647211339116
 10
107.9648138835991
 20
-129.647211339116
 10
107.8948784452485
 20
-129.827045323446
 10
107.8948784452485
 20
-129.9476236654298
 10
107.8948784452485
 20
-129.9793185438941
 10
107.8948784452485
 20
-130.1209119683378
 10
108.0240695259454
 20
-130.2097954318573
 10
108.0240695259454
 20
-130.2097954318573
 10
108.0051215007765
 20
-130.385495301605
 10
108.0051215007765
 20
-130.385495301605
 10
108.0051215007765
 20
-130.385495301605
 10
107.1586615400506
 20
-130.2649169596213
 10
107.1586615400506
 20
-130.2649169596213
 10
107.1586615400506
 20
-130.2649169596213
 10
107.1586615400506
 20
-129.4863253799548
 10
107.1586615400506
 20
-129.4863253799548
 10
107.1586615400506
 20
-129.4863253799548
 10
107.3533094349672
 20
-129.4863253799548
 10
107.3533094349672
 20
-129.4863253799548
 10
107.3533094349672
 20
-129.4863253799548
 10
107.3533094349672
 20
-130.101963943169
 10
107.3533094349672
 20
-130.101963943169
 10
107.3533094349672
 20
-130.101963943169
 10
107.7763671605559
 20
-130.1674207573887
 10
107.7763671605559
 20
-130.1674207573887
 10
107.7426052248005
 20
-130.1060980577513
 10
107.702297607623
 20
-130.0237602756538
 10
107.702297607623
 20
-129.9052489909612
 10
107.702297607623
 20
-129.6513454536983
 10
107.8886772733751
 20
-129.4143228843131
 10
108.2018364529843
 20
-129.4143228843131
 10
108.5191297471758
 20
-129.4143228843131
 10
108.7537407497213
 20
-129.6385986004028
 10
108.7537407497213
 20
-129.9410779840078
 97
        0
 97
        0
 75
     2
 76
     1
 98
        0
  0
POLYLINE
  5
F7
330
EF
100
AcDbEntity
  8
_U+30EC_U+30A4_U+30E4_U+30FC 1
370
     0
100
AcDb2dPolyline
 66
     1
 10
0.0
 20
0.0
 30
0.0
  0
VERTEX
  5
F8
330
F7
100
AcDbEntity
  8
_U+30EC_U+30A4_U+30E4_U+30FC 1
370
     0
100
AcDbVertex
100
AcDb2dVertex
 10
108.7030978460881
 20
-129.185224034544
 30
0.0
  0
VERTEX
  5
F9
330
F7
100
AcDbEntity
  8
_U+30EC_U+30A4_U+30E4_U+30FC 1
370
     0
100
AcDbVertex
100
AcDb2dVertex
 10
108.4512613661164
 20
-129.185224034544
 30
0.0
  0
VERTEX
  5
FA
330
F7
100
AcDbEntity
  8
_U+30EC_U+30A4_U+30E4_U+30FC 1
370
     0
100
AcDbVertex
100
AcDb2dVertex
 10
108.4512613661164
 20
-128.9333875545722
 30
0.0
  0
VERTEX
  5
FB
330
F7
100
AcDbEntity
  8
_U+30EC_U+30A4_U+30E4_U+30FC 1
370
     0
100
AcDbVertex
100
AcDb2dVertex
 10
108.7030978460881
 20
-128.9333875545722
 30
0.0
  0
VERTEX
  5
FC
330
F7
100
AcDbEntity
  8
_U+30EC_U+30A4_U+30E4_U+30FC 1
370
     0
100
AcDbVertex
100
AcDb2dVertex
 10
108.7030978460881
 20
-129.185224034544
 30
0.0
  0
SEQEND
  5
FD
330
F7
100
AcDbEntity
  8
_U+30EC_U+30A4_U+30E4_U+30FC 1
370
     0
  0
HATCH
  5
FE
330
EF
100
AcDbEntity
  8
_U+30EC_U+30A4_U+30E4_U+30FC 1
 62
     7
420
 16777215
100
AcDbHatch
 10
0.0
 20
0.0
 30
0.0
210
0.0
220
0.0
230
1.0
  2
SOLID
 70
     1
 71
     0
 91
        1
 92
        1
 93
        4
 72
     1
 10
108.7030978460881
 20
-129.185224034544
 11
108.4512613661164
 21
-129.185224034544
 72
     1
 10
108.4512613661164
 20
-129.185224034544
 11
108.4512613661164
 21
-128.9333875545722
 72
     1
 10
108.4512613661164
 20
-128.9333875545722
 11
108.7030978460881
 21
-128.9333875545722
 72
     1
 10
108.7030978460881
 20
-128.9333875545722
 11
108.7030978460881
 21
-129.185224034544
 97
        0
 75
     2
 76
     1
 98
        0
  0
SPLINE
  5
FF
330
EF
100
AcDbEntity
  8
_U+30EC_U+30A4_U+30E4_U+30FC 1
370
     0
100
AcDbSpline
210
0.0
220
0.0
230
1.0
 70
    11
 71
     3
 72
    53
 73
    49
 74
     0
 42
0.0000000001
 43
0.0000000001
 12
1.0
 22
0.0
 32
0.0
 13
1.0
 23
0.0
 33
0.0
 40
0.0
 40
0.0
 40
0.0
 40
0.0
 40
1.0
 40
1.0
 40
1.0
 40
2.0
 40
2.0
 40
2.0
 40
3.0
 40
3.0
 40
3.0
 40
4.0
 40
4.0
 40
4.0
 40
5.0
 40
5.0
 40
5.0
 40
6.0
 40
6.0
 40
6.0
 40
7.0
 40
7.0
 40
7.0
 40
8.0
 40
8.0
 40
8.0
 40
9.0
 40
9.0
 40
9.0
 40
10.0
 40
10.0
 40
10.0
 40
11.0
 40
11.0
 40
11.0
 40
12.0
 40
12.0
 40
12.0
 40
13.0
 40
13.0
 40
13.0
 40
14.0
 40
14.0
 40
14.0
 40
15.0
 40
15.0
 40
15.0
 40
16.0
 40
16.0
 40
16.0
 40
16.0
 10
108.7537407497213
 20
-128.2161186745432
 30
0.0
 10
108.7537407497213
 20
-128.2943223420584
 30
0.0
 10
108.7368597818436
 20
-128.3959526588732
 30
0.0
 10
108.673470024915
 20
-128.4975829756881
 30
0.0
 10
108.5635714789355
 20
-128.6708712785962
 30
0.0
 10
108.4323133409475
 20
-128.6922308706047
 30
0.0
 10
108.3244818522592
 20
-128.7111788957736
 30
0.0
 10
108.3244818522592
 20
-128.7111788957736
 30
0.0
 10
108.3244818522592
 20
-128.488970236975
 30
0.0
 10
108.3244818522592
 20
-128.488970236975
 30
0.0
 10
108.5232638617581
 20
-128.4341932187595
 30
0.0
 10
108.5528916829312
 20
-128.3070691953538
 30
0.0
 10
108.5528916829312
 20
-128.214051617252
 30
0.0
 10
108.5528916829312
 20
-128.0745252500994
 30
0.0
 10
108.4533284234075
 20
-127.9222520296514
 30
0.0
 10
108.2207844781531
 20
-127.9222520296514
 30
0.0
 10
107.9648138835991
 20
-127.9222520296514
 30
0.0
 10
107.8948784452485
 20
-128.1020860139814
 30
0.0
 10
107.8948784452485
 20
-128.2226643559652
 30
0.0
 10
107.8948784452485
 20
-128.2543592344295
 30
0.0
 10
107.8948784452485
 20
-128.3959526588732
 30
0.0
 10
108.0240695259454
 20
-128.4848361223927
 30
0.0
 10
108.0240695259454
 20
-128.4848361223927
 30
0.0
 10
108.0051215007765
 20
-128.6605359921404
 30
0.0
 10
108.0051215007765
 20
-128.6605359921404
 30
0.0
 10
108.0051215007765
 20
-128.6605359921404
 30
0.0
 10
107.1586615400506
 20
-128.5399576501567
 30
0.0
 10
107.1586615400506
 20
-128.5399576501567
 30
0.0
 10
107.1586615400506
 20
-128.5399576501567
 30
0.0
 10
107.1586615400506
 20
-127.7613660704902
 30
0.0
 10
107.1586615400506
 20
-127.7613660704902
 30
0.0
 10
107.1586615400506
 20
-127.7613660704902
 30
0.0
 10
107.3533094349672
 20
-127.7613660704902
 30
0.0
 10
107.3533094349672
 20
-127.7613660704902
 30
0.0
 10
107.3533094349672
 20
-127.7613660704902
 30
0.0
 10
107.3533094349672
 20
-128.3770046337044
 30
0.0
 10
107.3533094349672
 20
-128.3770046337044
 30
0.0
 10
107.3533094349672
 20
-128.3770046337044
 30
0.0
 10
107.7763671605559
 20
-128.4424614479241
 30
0.0
 10
107.7763671605559
 20
-128.4424614479241
 30
0.0
 10
107.7426052248005
 20
-128.3811387482867
 30
0.0
 10
107.702297607623
 20
-128.2988009661892
 30
0.0
 10
107.702297607623
 20
-128.1802896814966
 30
0.0
 10
107.702297607623
 20
-127.9263861442337
 30
0.0
 10
107.8886772733751
 20
-127.6893635748485
 30
0.0
 10
108.2018364529843
 20
-127.6893635748485
 30
0.0
 10
108.5191297471758
 20
-127.6893635748485
 30
0.0
 10
108.7537407497213
 20
-127.9136392909383
 30
0.0
 10
108.7537407497213
 20
-128.2161186745432
 30
0.0
  0
HATCH
  5
100
330
EF
100
AcDbEntity
  8
_U+30EC_U+30A4_U+30E4_U+30FC 1
 62
     7
420
 16777215
100
AcDbHatch
 10
0.0
 20
0.0
 30
0.0
210
0.0
220
0.0
230
1.0
  2
SOLID
 70
     1
 71
     0
 91
        1
 92
        1
 93
        1
 72
     4
 94
        3
 73
     0
 74
     1
 95
       53
 96
       49
 40
0.0
 40
0.0
 40
0.0
 40
0.0
 40
1.0
 40
1.0
 40
1.0
 40
2.0
 40
2.0
 40
2.0
 40
3.0
 40
3.0
 40
3.0
 40
4.0
 40
4.0
 40
4.0
 40
5.0
 40
5.0
 40
5.0
 40
6.0
 40
6.0
 40
6.0
 40
7.0
 40
7.0
 40
7.0
 40
8.0
 40
8.0
 40
8.0
 40
9.0
 40
9.0
 40
9.0
 40
10.0
 40
10.0
 40
10.0
 40
11.0
 40
11.0
 40
11.0
 40
12.0
 40
12.0
 40
12.0
 40
13.0
 40
13.0
 40
13.0
 40
14.0
 40
14.0
 40
14.0
 40
15.0
 40
15.0
 40
15.0
 40
16.0
 40
16.0
 40
16.0
 40
16.0
 10
108.7537407497213
 20
-128.2161186745432
 10
108.7537407497213
 20
-128.2943223420584
 10
108.7368597818436
 20
-128.3959526588732
 10
108.673470024915
 20
-128.4975829756881
 10
108.5635714789355
 20
-128.6708712785962
 10
108.4323133409475
 20
-128.6922308706047
 10
108.3244818522592
 20
-128.7111788957736
 10
108.3244818522592
 20
-128.7111788957736
 10
108.3244818522592
 20
-128.488970236975
 10
108.3244818522592
 20
-128.488970236975
 10
108.5232638617581
 20
-128.4341932187595
 10
108.5528916829312
 20
-128.3070691953538
 10
108.5528916829312
 20
-128.214051617252
 10
108.5528916829312
 20
-128.0745252500994
 10
108.4533284234075
 20
-127.9222520296514
 10
108.2207844781531
 20
-127.9222520296514
 10
107.9648138835991
 20
-127.9222520296514
 10
107.8948784452485
 20
-128.1020860139814
 10
107.8948784452485
 20
-128.2226643559652
 10
107.8948784452485
 20
-128.2543592344295
 10
107.8948784452485
 20
-128.3959526588732
 10
108.0240695259454
 20
-128.4848361223927
 10
108.0240695259454
 20
-128.4848361223927
 10
108.0051215007765
 20
-128.6605359921404
 10
108.0051215007765
 20
-128.6605359921404
 10
108.0051215007765
 20
-128.6605359921404
 10
107.1586615400506
 20
-128.5399576501567
 10
107.1586615400506
 20
-128.5399576501567
 10
107.1586615400506
 20
-128.5399576501567
 10
107.1586615400506
 20
-127.7613660704902
 10
107.1586615400506
 20
-127.7613660704902
 10
107.1586615400506
 20
-127.7613660704902
 10
107.3533094349672
 20
-127.7613660704902
 10
107.3533094349672
 20
-127.7613660704902
 10
107.3533094349672
 20
-127.7613660704902
 10
107.3533094349672
 20
-128.3770046337044
 10
107.3533094349672
 20
-128.3770046337044
 10
107.3533094349672
 20
-128.3770046337044
 10
107.7763671605559
 20
-128.4424614479241
 10
107.7763671605559
 20
-128.4424614479241
 10
107.7426052248005
 20
-128.3811387482867
 10
107.702297607623
 20
-128.2988009661892
 10
107.702297607623
 20
-128.1802896814966
 10
107.702297607623
 20
-127.9263861442337
 10
107.8886772733751
 20
-127.6893635748485
 10
108.2018364529843
 20
-127.6893635748485
 10
108.5191297471758
 20
-127.6893635748485
 10
108.7537407497213
 20
-127.9136392909383
 10
108.7537407497213
 20
-128.2161186745432
 97
        0
 97
        0
 75
     2
 76
     1
 98
        0
  0
ENDBLK
  5
F2
330
EF
100
AcDbEntity
  8
0
100
AcDbBlockEnd
  0
ENDSEC
  0
SECTION
  2
ENTITIES
  0
POLYLINE
  5
41
330
1F
100
AcDbEntity
  8
_U+30EC_U+30A4_U+30E4_U+30FC 1
 62
   253
420
 11711154
370
     9
100
AcDb2dPolyline
 66
     1
 10
0.0
 20
0.0
 30
0.0
  0
VERTEX
  5
42
330
41
100
AcDbEntity
  8
_U+30EC_U+30A4_U+30E4_U+30FC 1
 62
   253
420
 11711154
370
     9
100
AcDbVertex
100
AcDb2dVertex
 10
70.7391745841822
 20
-119.8566027478137
 30
0.0
  0
VERTEX
  5
43
330
41
100
AcDbEntity
  8
_U+30EC_U+30A4_U+30E4_U+30FC 1
 62
   253
420
 11711154
370
     9
100
AcDbVertex
100
AcDb2dVertex
 10
70.7391745841822
 20
-120.771602469807
 30
0.0
  0
VERTEX
  5
44
330
41
100
AcDbEntity
  8
_U+30EC_U+30A4_U+30E4_U+30FC 1
 62
   253
420
 11711154
370
     9
100
AcDbVertex
100
AcDb2dVertex
 10
82.63371205850504
 20
-120.771602469807
 30
0.0
  0
VERTEX
  5
45
330
41
100
AcDbEntity
  8
_U+30EC_U+30A4_U+30E4_U+30FC 1
 62
   253
420
 11711154
370
     9
100
AcDbVertex
100
AcDb2dVertex
 10
82.63371205850504
 20
-139.4013030207052
 30
0.0
  0
VERTEX
  5
46
330
41
100
AcDbEntity
  8
_U+30EC_U+30A4_U+30E4_U+30FC 1
 62
   253
420
 11711154
370
     9
100
AcDbVertex
100
AcDb2dVertex
 10
92.84567596464281
 20
-139.4013030207052
 30
0.0
  0
VERTEX
  5
47
330
41
100
AcDbEntity
  8
_U+30EC_U+30A4_U+30E4_U+30FC 1
 62
   253
420
 11711154
370
     9
100
AcDbVertex
100
AcDb2dVertex
 10
92.84567596464281
 20
-136.4364527436686
 30
0.0
  0
VERTEX
  5
48
330
41
100
AcDbEntity
  8
_U+30EC_U+30A4_U+30E4_U+30FC 1
 62
   253
420
 11711154
370
     9
100
AcDbVertex
100
AcDb2dVertex
 10
91.82039793524427
 20
-136.4364527436686
 30
0.0
  0
VERTEX
  5
49
330
41
100
AcDbEntity
  8
_U+30EC_U+30A4_U+30E4_U+30FC 1
 62
   253
420
 11711154
370
     9
100
AcDbVertex
100
AcDb2dVertex
 10
91.82039793524427
 20
-138.4497907987207
 30
0.0
  0
VERTEX
  5
4A
330
41
100
AcDbEntity
  8
_U+30EC_U+30A4_U+30E4_U+30FC 1
 62
   253
420
 11711154
370
     9
100
AcDbVertex
100
AcDb2dVertex
 10
83.65899008790358
 20
-138.4497907987207
 30
0.0
  0
VERTEX
  5
4B
330
41
100
AcDbEntity
  8
_U+30EC_U+30A4_U+30E4_U+30FC 1
 62
   253
420
 11711154
370
     9
100
AcDbVertex
100
AcDb2dVertex
 10
83.65899008790358
 20
-120.8088205253534
 30
0.0
  0
VERTEX
  5
4C
330
41
100
AcDbEntity
  8
_U+30EC_U+30A4_U+30E4_U+30FC 1
 62
   253
420
 11711154
370
     9
100
AcDbVertex
100
AcDb2dVertex
 10
105.8384811887243
 20
-120.8088205253534
 30
0.0
  0
VERTEX
  5
4D
330
41
100
AcDbEntity
  8
_U+30EC_U+30A4_U+30E4_U+30FC 1
 62
   253
420
 11711154
370
     9
100
AcDbVertex
100
AcDb2dVertex
 10
105.8384811887243
 20
-119.8200902478228
 30
0.0
  0
VERTEX
  5
4E
330
41
100
AcDbEntity
  8
_U+30EC_U+30A4_U+30E4_U+30FC 1
 62
   253
420
 11711154
370
     9
100
AcDbVertex
100
AcDb2dVertex
 10
70.7391745841822
 20
-119.8566027478137
 30
0.0
  0
SEQEND
  5
50
330
41
100
AcDbEntity
  8
_U+30EC_U+30A4_U+30E4_U+30FC 1
 62
   253
420
 11711154
370
     9
  0
HATCH
  5
4F
330
1F
100
AcDbEntity
  8
_U+30EC_U+30A4_U+30E4_U+30FC 1
 62
   253
420
 11711154
100
AcDbHatch
 10
0.0
 20
0.0
 30
0.0
210
0.0
220
0.0
230
1.0
  2
SOLID
 70
     1
 71
     0
 91
        1
 92
        1
 93
       12
 72
     1
 10
70.7391745841822
 20
-119.8566027478137
 11
70.7391745841822
 21
-120.771602469807
 72
     1
 10
70.7391745841822
 20
-120.771602469807
 11
82.63371205850504
 21
-120.771602469807
 72
     1
 10
82.63371205850504
 20
-120.771602469807
 11
82.63371205850504
 21
-139.4013030207052
 72
     1
 10
82.63371205850504
 20
-139.4013030207052
 11
92.84567596464281
 21
-139.4013030207052
 72
     1
 10
92.84567596464281
 20
-139.4013030207052
 11
92.84567596464281
 21
-136.4364527436686
 72
     1
 10
92.84567596464281
 20
-136.4364527436686
 11
91.82039793524427
 21
-136.4364527436686
 72
     1
 10
91.82039793524427
 20
-136.4364527436686
 11
91.82039793524427
 21
-138.4497907987207
 72
     1
 10
91.82039793524427
 20
-138.4497907987207
 11
83.65899008790358
 21
-138.4497907987207
 72
     1
 10
83.65899008790358
 20
-138.4497907987207
 11
83.65899008790358
 21
-120.8088205253534
 72
     1
 10
83.65899008790358
 20
-120.8088205253534
 11
105.8384811887243
 21
-120.8088205253534
 72
     1
 10
105.8384811887243
 20
-120.8088205253534
 11
105.8384811887243
 21
-119.8200902478228
 72
     1
 10
105.8384811887243
 20
-119.8200902478228
 11
70.7391745841822
 21
-119.8566027478137
 97
        0
 75
     2
 76
     1
 98
        0
  0
POLYLINE
  5
51
330
1F
100
AcDbEntity
  8
_U+30EC_U+30A4_U+30E4_U+30FC 1
 62
     7
420
 16777215
370
    25
100
AcDb2dPolyline
 66
     1
 10
0.0
 20
0.0
 30
0.0
  0
VERTEX
  5
52
330
51
100
AcDbEntity
  8
_U+30EC_U+30A4_U+30E4_U+30FC 1
 62
     7
420
 16777215
370
    25
100
AcDbVertex
100
AcDb2dVertex
 10
70.75088680610561
 20
-119.8255935811546
 30
0.0
  0
VERTEX
  5
53
330
51
100
AcDbEntity
  8
_U+30EC_U+30A4_U+30E4_U+30FC 1
 62
     7
420
 16777215
370
    25
100
AcDbVertex
100
AcDb2dVertex
 10
105.7509923020674
 20
-119.8255935811546
 30
0.0
  0
SEQEND
  5
54
330
51
100
AcDbEntity
  8
_U+30EC_U+30A4_U+30E4_U+30FC 1
 62
     7
420
 16777215
370
    25
  0
POLYLINE
  5
55
330
1F
100
AcDbEntity
  8
_U+30EC_U+30A4_U+30E4_U+30FC 1
 62
     7
420
 16777215
370
    25
100
AcDb2dPolyline
 66
     1
 10
0.0
 20
0.0
 30
0.0
  0
VERTEX
  5
56
330
55
100
AcDbEntity
  8
_U+30EC_U+30A4_U+30E4_U+30FC 1
 62
     7
420
 16777215
370
    25
100
AcDbVertex
100
AcDb2dVertex
 10
70.75088680610561
 20
-120.8253658031269
 30
0.0
  0
VERTEX
  5
57
330
55
100
AcDbEntity
  8
_U+30EC_U+30A4_U+30E4_U+30FC 1
 62
     7
420
 16777215
370
    25
100
AcDbVertex
100
AcDb2dVertex
 10
82.75083427773923
 20
-120.8253658031269
 30
0.0
  0
SEQEND
  5
58
330
55
100
AcDbEntity
  8
_U+30EC_U+30A4_U+30E4_U+30FC 1
 62
     7
420
 16777215
370
    25
  0
POLYLINE
  5
59
330
1F
100
AcDbEntity
  8
_U+30EC_U+30A4_U+30E4_U+30FC 1
 62
     7
420
 16777215
370
    25
100
AcDb2dPolyline
 66
     1
 10
0.0
 20
0.0
 30
0.0
  0
VERTEX
  5
5A
330
59
100
AcDbEntity
  8
_U+30EC_U+30A4_U+30E4_U+30FC 1
 62
     7
420
 16777215
370
    25
100
AcDbVertex
100
AcDb2dVertex
 10
105.8026742451933
 20
-120.8253658031269
 30
0.0
  0
VERTEX
  5
5B
330
59
100
AcDbEntity
  8
_U+30EC_U+30A4_U+30E4_U+30FC 1
 62
     7
420
 16777215
370
    25
100
AcDbVertex
100
AcDb2dVertex
 10
105.8026742451933
 20
-119.8255935811546
 30
0.0
  0
SEQEND
  5
5C
330
59
100
AcDbEntity
  8
_U+30EC_U+30A4_U+30E4_U+30FC 1
 62
     7
420
 16777215
370
    25
  0
POLYLINE
  5
5D
330
1F
100
AcDbEntity
  8
_U+30EC_U+30A4_U+30E4_U+30FC 1
 62
     7
420
 16777215
370
    25
100
AcDb2dPolyline
 66
     1
 10
0.0
 20
0.0
 30
0.0
  0
VERTEX
  5
5E
330
5D
100
AcDbEntity
  8
_U+30EC_U+30A4_U+30E4_U+30FC 1
 62
     7
420
 16777215
370
    25
100
AcDbVertex
100
AcDb2dVertex
 10
83.65140536587485
 20
-120.8253658031269
 30
0.0
  0
VERTEX
  5
5F
330
5D
100
AcDbEntity
  8
_U+30EC_U+30A4_U+30E4_U+30FC 1
 62
     7
420
 16777215
370
    25
100
AcDbVertex
100
AcDb2dVertex
 10
105.8026742451933
 20
-120.8253658031269
 30
0.0
  0
SEQEND
  5
60
330
5D
100
AcDbEntity
  8
_U+30EC_U+30A4_U+30E4_U+30FC 1
 62
     7
420
 16777215
370
    25
  0
POLYLINE
  5
61
330
1F
100
AcDbEntity
  8
_U+30EC_U+30A4_U+30E4_U+30FC 1
 62
     7
420
 16777215
370
    25
100
AcDb2dPolyline
 66
     1
 10
0.0
 20
0.0
 30
0.0
  0
VERTEX
  5
62
330
61
100
AcDbEntity
  8
_U+30EC_U+30A4_U+30E4_U+30FC 1
 62
     7
420
 16777215
370
    25
100
AcDbVertex
100
AcDb2dVertex
 10
70.7915268050688
 20
-120.8253658031269
 30
0.0
  0
VERTEX
  5
63
330
61
100
AcDbEntity
  8
_U+30EC_U+30A4_U+30E4_U+30FC 1
 62
     7
420
 16777215
370
    25
100
AcDbVertex
100
AcDb2dVertex
 10
70.7915268050688
 20
-119.8255935811546
 30
0.0
  0
SEQEND
  5
64
330
61
100
AcDbEntity
  8
_U+30EC_U+30A4_U+30E4_U+30FC 1
 62
     7
420
 16777215
370
    25
  0
POLYLINE
  5
65
330
1F
100
AcDbEntity
  8
_U+30EC_U+30A4_U+30E4_U+30FC 1
 62
     7
420
 16777215
370
    25
100
AcDb2dPolyline
 66
     1
 10
0.0
 20
0.0
 30
0.0
  0
VERTEX
  5
66
330
65
100
AcDbEntity
  8
_U+30EC_U+30A4_U+30E4_U+30FC 1
 62
     7
420
 16777215
370
    25
100
AcDbVertex
100
AcDb2dVertex
 10
82.75083427773923
 20
-139.4936249651269
 30
0.0
  0
VERTEX
  5
67
330
65
100
AcDbEntity
  8
_U+30EC_U+30A4_U+30E4_U+30FC 1
 62
     7
420
 16777215
370
    25
100
AcDbVertex
100
AcDb2dVertex
 10
82.75083427773923
 20
-120.8253658031269
 30
0.0
  0
SEQEND
  5
68
330
65
100
AcDbEntity
  8
_U+30EC_U+30A4_U+30E4_U+30FC 1
 62
     7
420
 16777215
370
    25
  0
POLYLINE
  5
69
330
1F
100
AcDbEntity
  8
_U+30EC_U+30A4_U+30E4_U+30FC 1
 62
     7
420
 16777215
370
    25
100
AcDb2dPolyline
 66
     1
 10
0.0
 20
0.0
 30
0.0
  0
VERTEX
  5
6A
330
69
100
AcDbEntity
  8
_U+30EC_U+30A4_U+30E4_U+30FC 1
 62
     7
420
 16777215
370
    25
100
AcDbVertex
100
AcDb2dVertex
 10
82.75083427773923
 20
-139.4936249651269
 30
0.0
  0
VERTEX
  5
6B
330
69
100
AcDbEntity
  8
_U+30EC_U+30A4_U+30E4_U+30FC 1
 62
     7
420
 16777215
370
    25
100
AcDbVertex
100
AcDb2dVertex
 10
92.751274976812
 20
-139.4936249651269
 30
0.0
  0
SEQEND
  5
6C
330
69
100
AcDbEntity
  8
_U+30EC_U+30A4_U+30E4_U+30FC 1
 62
     7
420
 16777215
370
    25
  0
POLYLINE
  5
6D
330
1F
100
AcDbEntity
  8
_U+30EC_U+30A4_U+30E4_U+30FC 1
 62
     7
420
 16777215
370
    25
100
AcDb2dPolyline
 66
     1
 10
0.0
 20
0.0
 30
0.0
  0
VERTEX
  5
6E
330
6D
100
AcDbEntity
  8
_U+30EC_U+30A4_U+30E4_U+30FC 1
 62
     7
420
 16777215
370
    25
100
AcDbVertex
100
AcDb2dVertex
 10
83.65140536587485
 20
-138.4938880209319
 30
0.0
  0
VERTEX
  5
6F
330
6D
100
AcDbEntity
  8
_U+30EC_U+30A4_U+30E4_U+30FC 1
 62
     7
420
 16777215
370
    25
100
AcDbVertex
100
AcDb2dVertex
 10
91.84107071249464
 20
-138.4938880209319
 30
0.0
  0
SEQEND
  5
70
330
6D
100
AcDbEntity
  8
_U+30EC_U+30A4_U+30E4_U+30FC 1
 62
     7
420
 16777215
370
    25
  0
POLYLINE
  5
71
330
1F
100
AcDbEntity
  8
_U+30EC_U+30A4_U+30E4_U+30FC 1
 62
     7
420
 16777215
370
    25
100
AcDb2dPolyline
 66
     1
 10
0.0
 20
0.0
 30
0.0
  0
VERTEX
  5
72
330
71
100
AcDbEntity
  8
_U+30EC_U+30A4_U+30E4_U+30FC 1
 62
     7
420
 16777215
370
    25
100
AcDbVertex
100
AcDb2dVertex
 10
91.81627043534957
 20
-136.4936380214319
 30
0.0
  0
VERTEX
  5
73
330
71
100
AcDbEntity
  8
_U+30EC_U+30A4_U+30E4_U+30FC 1
 62
     7
420
 16777215
370
    25
100
AcDbVertex
100
AcDb2dVertex
 10
92.81671290982615
 20
-136.4936380214319
 30
0.0
  0
SEQEND
  5
74
330
71
100
AcDbEntity
  8
_U+30EC_U+30A4_U+30E4_U+30FC 1
 62
     7
420
 16777215
370
    25
  0
POLYLINE
  5
75
330
1F
100
AcDbEntity
  8
_U+30EC_U+30A4_U+30E4_U+30FC 1
 62
     7
420
 16777215
370
    25
100
AcDb2dPolyline
 66
     1
 10
0.0
 20
0.0
 30
0.0
  0
VERTEX
  5
76
330
75
100
AcDbEntity
  8
_U+30EC_U+30A4_U+30E4_U+30FC 1
 62
     7
420
 16777215
370
    25
100
AcDbVertex
100
AcDb2dVertex
 10
92.81671290982615
 20
-139.4936249651269
 30
0.0
  0
VERTEX
  5
77
330
75
100
AcDbEntity
  8
_U+30EC_U+30A4_U+30E4_U+30FC 1
 62
     7
420
 16777215
370
    25
100
AcDbVertex
100
AcDb2dVertex
 10
92.81671290982615
 20
-136.4936380214319
 30
0.0
  0
SEQEND
  5
78
330
75
100
AcDbEntity
  8
_U+30EC_U+30A4_U+30E4_U+30FC 1
 62
     7
420
 16777215
370
    25
  0
POLYLINE
  5
79
330
1F
100
AcDbEntity
  8
_U+30EC_U+30A4_U+30E4_U+30FC 1
 62
     7
420
 16777215
370
    25
100
AcDb2dPolyline
 66
     1
 10
0.0
 20
0.0
 30
0.0
  0
VERTEX
  5
7A
330
79
100
AcDbEntity
  8
_U+30EC_U+30A4_U+30E4_U+30FC 1
 62
     7
420
 16777215
370
    25
100
AcDbVertex
100
AcDb2dVertex
 10
91.81627043534957
 20
-138.4938880209319
 30
0.0
  0
VERTEX
  5
7B
330
79
100
AcDbEntity
  8
_U+30EC_U+30A4_U+30E4_U+30FC 1
 62
     7
420
 16777215
370
    25
100
AcDbVertex
100
AcDb2dVertex
 10
91.81627043534957
 20
-136.4936380214319
 30
0.0
  0
SEQEND
  5
7C
330
79
100
AcDbEntity
  8
_U+30EC_U+30A4_U+30E4_U+30FC 1
 62
     7
420
 16777215
370
    25
  0
POLYLINE
  5
7D
330
1F
100
AcDbEntity
  8
_U+30EC_U+30A4_U+30E4_U+30FC 1
 62
     7
420
 16777215
370
    25
100
AcDb2dPolyline
 66
     1
 10
0.0
 20
0.0
 30
0.0
  0
VERTEX
  5
7E
330
7D
100
AcDbEntity
  8
_U+30EC_U+30A4_U+30E4_U+30FC 1
 62
     7
420
 16777215
370
    25
100
AcDbVertex
100
AcDb2dVertex
 10
83.65140536587485
 20
-138.4938880209319
 30
0.0
  0
VERTEX
  5
7F
330
7D
100
AcDbEntity
  8
_U+30EC_U+30A4_U+30E4_U+30FC 1
 62
     7
420
 16777215
370
    25
100
AcDbVertex
100
AcDb2dVertex
 10
83.65140536587485
 20
-120.8253658031269
 30
0.0
  0
SEQEND
  5
80
330
7D
100
AcDbEntity
  8
_U+30EC_U+30A4_U+30E4_U+30FC 1
 62
     7
420
 16777215
370
    25
  0
SPLINE
  5
81
330
1F
100
AcDbEntity
  8
_U+30EC_U+30A4_U+30E4_U+30FC 1
 62
     7
420
 16777215
370
     9
100
AcDbSpline
210
0.0
220
0.0
230
1.0
 70
    11
 71
     3
 72
    17
 73
    13
 74
     0
 42
0.0000000001
 43
0.0000000001
 12
1.0
 22
0.0
 32
0.0
 13
1.0
 23
0.0
 33
0.0
 40
0.0
 40
0.0
 40
0.0
 40
0.0
 40
1.0
 40
1.0
 40
1.0
 40
2.0
 40
2.0
 40
2.0
 40
3.0
 40
3.0
 40
3.0
 40
4.0
 40
4.0
 40
4.0
 40
4.0
 10
70.81911402658721
 20
-115.8251288599325
 30
0.0
 10
70.81911402658721
 20
-115.7700249710576
 30
0.0
 10
70.77431124995245
 20
-115.7252221932909
 30
0.0
 10
70.71920736246938
 20
-115.7252221932909
 30
0.0
 10
70.66406819720943
 20
-115.7252221932909
 30
0.0
 10
70.61930069835154
 20
-115.7700249710576
 30
0.0
 10
70.61930069835154
 20
-115.8251288599325
 30
0.0
 10
70.61930069835154
 20
-115.880938304363
 30
0.0
 10
70.66406819720943
 20
-115.9257410821297
 30
0.0
 10
70.71920736246938
 20
-115.9257410821297
 30
0.0
 10
70.77431124995245
 20
-115.9257410821297
 30
0.0
 10
70.81911402658721
 20
-115.880938304363
 30
0.0
 10
70.81911402658721
 20
-115.8251288599325
 30
0.0
  0
SPLINE
  5
82
330
1F
100
AcDbEntity
  8
_U+30EC_U+30A4_U+30E4_U+30FC 1
 62
     7
420
 16777215
370
     9
100
AcDbSpline
210
0.0
220
0.0
230
1.0
 70
    11
 71
     3
 72
    17
 73
    13
 74
     0
 42
0.0000000001
 43
0.0000000001
 12
1.0
 22
0.0
 32
0.0
 13
1.0
 23
0.0
 33
0.0
 40
0.0
 40
0.0
 40
0.0
 40
0.0
 40
1.0
 40
1.0
 40
1.0
 40
2.0
 40
2.0
 40
2.0
 40
3.0
 40
3.0
 40
3.0
 40
4.0
 40
4.0
 40
4.0
 40
4.0
 10
105.7193128584312
 20
-115.8251288599325
 30
0.0
 10
105.7193128584312
 20
-115.7700249710576
 30
0.0
 10
105.6745100817964
 20
-115.7252221932909
 30
0.0
 10
105.6194061943134
 20
-115.7252221932909
 30
0.0
 10
105.5642670290534
 20
-115.7252221932909
 30
0.0
 10
105.5194995301955
 20
-115.7700249710576
 30
0.0
 10
105.5194995301955
 20
-115.8251288599325
 30
0.0
 10
105.5194995301955
 20
-115.880938304363
 30
0.0
 10
105.5642670290534
 20
-115.9257410821297
 30
0.0
 10
105.6194061943134
 20
-115.9257410821297
 30
0.0
 10
105.6745100817964
 20
-115.9257410821297
 30
0.0
 10
105.7193128584312
 20
-115.880938304363
 30
0.0
 10
105.7193128584312
 20
-115.8251288599325
 30
0.0
  0
SPLINE
  5
83
330
1F
100
AcDbEntity
  8
_U+30EC_U+30A4_U+30E4_U+30FC 1
 62
     7
420
 16777215
370
     9
100
AcDbSpline
210
0.0
220
0.0
230
1.0
 70
    11
 71
     3
 72
    17
 73
    13
 74
     0
 42
0.0000000001
 43
0.0000000001
 12
1.0
 22
0.0
 32
0.0
 13
1.0
 23
0.0
 33
0.0
 40
0.0
 40
0.0
 40
0.0
 40
0.0
 40
1.0
 40
1.0
 40
1.0
 40
2.0
 40
2.0
 40
2.0
 40
3.0
 40
3.0
 40
3.0
 40
4.0
 40
4.0
 40
4.0
 40
4.0
 10
109.9192055280759
 20
-119.8255935811546
 30
0.0
 10
109.9192055280759
 20
-119.7704544145019
 30
0.0
 10
109.8744352524252
 20
-119.725686914513
 30
0.0
 10
109.8192960871652
 20
-119.725686914513
 30
0.0
 10
109.7641921996822
 20
-119.725686914513
 30
0.0
 10
109.7193894230474
 20
-119.7704544145019
 30
0.0
 10
109.7193894230474
 20
-119.8255935811546
 30
0.0
 10
109.7193894230474
 20
-119.8806974700299
 30
0.0
 10
109.7641921996822
 20
-119.9255002477963
 30
0.0
 10
109.8192960871652
 20
-119.9255002477963
 30
0.0
 10
109.8744352524252
 20
-119.9255002477963
 30
0.0
 10
109.9192055280759
 20
-119.8806974700299
 30
0.0
 10
109.9192055280759
 20
-119.8255935811546
 30
0.0
  0
SPLINE
  5
84
330
1F
100
AcDbEntity
  8
_U+30EC_U+30A4_U+30E4_U+30FC 1
 62
     7
420
 16777215
370
     9
100
AcDbSpline
210
0.0
220
0.0
230
1.0
 70
    11
 71
     3
 72
    17
 73
    13
 74
     0
 42
0.0000000001
 43
0.0000000001
 12
1.0
 22
0.0
 32
0.0
 13
1.0
 23
0.0
 33
0.0
 40
0.0
 40
0.0
 40
0.0
 40
0.0
 40
1.0
 40
1.0
 40
1.0
 40
2.0
 40
2.0
 40
2.0
 40
3.0
 40
3.0
 40
3.0
 40
4.0
 40
4.0
 40
4.0
 40
4.0
 10
109.9192055280759
 20
-120.8253658031269
 30
0.0
 10
109.9192055280759
 20
-120.7702266364741
 30
0.0
 10
109.8744352524252
 20
-120.7254591364852
 30
0.0
 10
109.8192960871652
 20
-120.7254591364852
 30
0.0
 10
109.7641921996822
 20
-120.7254591364852
 30
0.0
 10
109.7193894230474
 20
-120.7702266364741
 30
0.0
 10
109.7193894230474
 20
-120.8253658031269
 30
0.0
 10
109.7193894230474
 20
-120.8804696920021
 30
0.0
 10
109.7641921996822
 20
-120.9252724697688
 30
0.0
 10
109.8192960871652
 20
-120.9252724697688
 30
0.0
 10
109.8744352524252
 20
-120.9252724697688
 30
0.0
 10
109.9192055280759
 20
-120.8804696920021
 30
0.0
 10
109.9192055280759
 20
-120.8253658031269
 30
0.0
  0
SPLINE
  5
85
330
1F
100
AcDbEntity
  8
_U+30EC_U+30A4_U+30E4_U+30FC 1
 62
     7
420
 16777215
370
     9
100
AcDbSpline
210
0.0
220
0.0
230
1.0
 70
    11
 71
     3
 72
    17
 73
    13
 74
     0
 42
0.0000000001
 43
0.0000000001
 12
1.0
 22
0.0
 32
0.0
 13
1.0
 23
0.0
 33
0.0
 40
0.0
 40
0.0
 40
0.0
 40
0.0
 40
1.0
 40
1.0
 40
1.0
 40
2.0
 40
2.0
 40
2.0
 40
3.0
 40
3.0
 40
3.0
 40
4.0
 40
4.0
 40
4.0
 40
4.0
 10
82.85144649739462
 20
-143.7194088529588
 30
0.0
 10
82.85144649739462
 20
-143.6642696863064
 30
0.0
 10
82.80664372075985
 20
-143.6195021863172
 30
0.0
 10
82.75083427773923
 20
-143.6195021863172
 30
0.0
 10
82.69573039025616
 20
-143.6195021863172
 30
0.0
 10
82.65092761362139
 20
-143.6642696863064
 30
0.0
 10
82.65092761362139
 20
-143.7194088529588
 30
0.0
 10
82.65092761362139
 20
-143.7745127418344
 30
0.0
 10
82.69573039025616
 20
-143.8193155196005
 30
0.0
 10
82.75083427773923
 20
-143.8193155196005
 30
0.0
 10
82.80664372075985
 20
-143.8193155196005
 30
0.0
 10
82.85144649739462
 20
-143.7745127418344
 30
0.0
 10
82.85144649739462
 20
-143.7194088529588
 30
0.0
  0
SPLINE
  5
86
330
1F
100
AcDbEntity
  8
_U+30EC_U+30A4_U+30E4_U+30FC 1
 62
     7
420
 16777215
370
     9
100
AcDbSpline
210
0.0
220
0.0
230
1.0
 70
    11
 71
     3
 72
    17
 73
    13
 74
     0
 42
0.0000000001
 43
0.0000000001
 12
1.0
 22
0.0
 32
0.0
 13
1.0
 23
0.0
 33
0.0
 40
0.0
 40
0.0
 40
0.0
 40
0.0
 40
1.0
 40
1.0
 40
1.0
 40
2.0
 40
2.0
 40
2.0
 40
3.0
 40
3.0
 40
3.0
 40
4.0
 40
4.0
 40
4.0
 40
4.0
 10
93.00206234954194
 20
-143.7194088529588
 30
0.0
 10
93.00206234954194
 20
-143.6642696863064
 30
0.0
 10
92.95729719898297
 20
-143.6195021863172
 30
0.0
 10
92.9021556854241
 20
-143.6195021863172
 30
0.0
 10
92.84705179794103
 20
-143.6195021863172
 30
0.0
 10
92.80224902130627
 20
-143.6642696863064
 30
0.0
 10
92.80224902130627
 20
-143.7194088529588
 30
0.0
 10
92.80224902130627
 20
-143.7745127418344
 30
0.0
 10
92.84705179794103
 20
-143.8193155196005
 30
0.0
 10
92.9021556854241
 20
-143.8193155196005
 30
0.0
 10
92.95729719898297
 20
-143.8193155196005
 30
0.0
 10
93.00206234954194
 20
-143.7745127418344
 30
0.0
 10
93.00206234954194
 20
-143.7194088529588
 30
0.0
  0
SPLINE
  5
87
330
1F
100
AcDbEntity
  8
_U+30EC_U+30A4_U+30E4_U+30FC 1
 62
     7
420
 16777215
370
     9
100
AcDbSpline
210
0.0
220
0.0
230
1.0
 70
    11
 71
     3
 72
    17
 73
    13
 74
     0
 42
0.0000000001
 43
0.0000000001
 12
1.0
 22
0.0
 32
0.0
 13
1.0
 23
0.0
 33
0.0
 40
0.0
 40
0.0
 40
0.0
 40
0.0
 40
1.0
 40
1.0
 40
1.0
 40
2.0
 40
2.0
 40
2.0
 40
3.0
 40
3.0
 40
3.0
 40
4.0
 40
4.0
 40
4.0
 40
4.0
 10
70.96449374510048
 20
-143.7194088529588
 30
0.0
 10
70.96449374510048
 20
-143.6642696863064
 30
0.0
 10
70.91969096846573
 20
-143.6195021863172
 30
0.0
 10
70.86458887117281
 20
-143.6195021863172
 30
0.0
 10
70.80877763796202
 20
-143.6195021863172
 30
0.0
 10
70.76397486132727
 20
-143.6642696863064
 30
0.0
 10
70.76397486132727
 20
-143.7194088529588
 30
0.0
 10
70.76397486132727
 20
-143.7745127418344
 30
0.0
 10
70.80877763796202
 20
-143.8193155196005
 30
0.0
 10
70.86458887117281
 20
-143.8193155196005
 30
0.0
 10
70.91969096846573
 20
-143.8193155196005
 30
0.0
 10
70.96449374510048
 20
-143.7745127418344
 30
0.0
 10
70.96449374510048
 20
-143.7194088529588
 30
0.0
  0
POLYLINE
  5
88
330
1F
100
AcDbEntity
  8
_U+30EC_U+30A4_U+30E4_U+30FC 1
 62
     7
420
 16777215
370
     9
100
AcDb2dPolyline
 66
     1
 10
0.0
 20
0.0
 30
0.0
  0
VERTEX
  5
89
330
88
100
AcDbEntity
  8
_U+30EC_U+30A4_U+30E4_U+30FC 1
 62
     7
420
 16777215
370
     9
100
AcDbVertex
100
AcDb2dVertex
 10
82.75083427773923
 20
-143.7194088529588
 30
0.0
  0
VERTEX
  5
8A
330
88
100
AcDbEntity
  8
_U+30EC_U+30A4_U+30E4_U+30FC 1
 62
     7
420
 16777215
370
     9
100
AcDbVertex
100
AcDb2dVertex
 10
92.751274976812
 20
-143.7194088529588
 30
0.0
  0
SEQEND
  5
8B
330
88
100
AcDbEntity
  8
_U+30EC_U+30A4_U+30E4_U+30FC 1
 62
     7
420
 16777215
370
     9
  0
POLYLINE
  5
8C
330
1F
100
AcDbEntity
  8
_U+30EC_U+30A4_U+30E4_U+30FC 1
 62
     7
420
 16777215
370
     9
100
AcDb2dPolyline
 66
     1
 10
0.0
 20
0.0
 30
0.0
  0
VERTEX
  5
8D
330
8C
100
AcDbEntity
  8
_U+30EC_U+30A4_U+30E4_U+30FC 1
 62
     7
420
 16777215
370
     9
100
AcDbVertex
100
AcDb2dVertex
 10
92.9021556854241
 20
-142.2593674644351
 30
0.0
  0
VERTEX
  5
8E
330
8C
100
AcDbEntity
  8
_U+30EC_U+30A4_U+30E4_U+30FC 1
 62
     7
420
 16777215
370
     9
100
AcDbVertex
100
AcDb2dVertex
 10
92.9021556854241
 20
-144.7191457971539
 30
0.0
  0
SEQEND
  5
8F
330
8C
100
AcDbEntity
  8
_U+30EC_U+30A4_U+30E4_U+30FC 1
 62
     7
420
 16777215
370
     9
  0
INSERT
  5
91
330
1F
100
AcDbEntity
  8
_U+30EC_U+30A4_U+30E4_U+30FC 1
100
AcDbBlockReference
  2
block 2
 10
0.0
 20
0.0
 30
0.0
  0
POLYLINE
  5
99
330
1F
100
AcDbEntity
  8
_U+30EC_U+30A4_U+30E4_U+30FC 1
 62
     7
420
 16777215
370
     9
100
AcDb2dPolyline
 66
     1
 10
0.0
 20
0.0
 30
0.0
  0
VERTEX
  5
9A
330
99
100
AcDbEntity
  8
_U+30EC_U+30A4_U+30E4_U+30FC 1
 62
     7
420
 16777215
370
     9
100
AcDbVertex
100
AcDb2dVertex
 10
109.8192960871652
 20
-119.8255935811546
 30
0.0
  0
VERTEX
  5
9B
330
99
100
AcDbEntity
  8
_U+30EC_U+30A4_U+30E4_U+30FC 1
 62
     7
420
 16777215
370
     9
100
AcDbVertex
100
AcDb2dVertex
 10
109.8192960871652
 20
-116.0552810820972
 30
0.0
  0
SEQEND
  5
9C
330
99
100
AcDbEntity
  8
_U+30EC_U+30A4_U+30E4_U+30FC 1
 62
     7
420
 16777215
370
     9
  0
POLYLINE
  5
9D
330
1F
100
AcDbEntity
  8
_U+30EC_U+30A4_U+30E4_U+30FC 1
 62
     7
420
 16777215
370
     9
100
AcDb2dPolyline
 66
     1
 10
0.0
 20
0.0
 30
0.0
  0
VERTEX
  5
9E
330
9D
100
AcDbEntity
  8
_U+30EC_U+30A4_U+30E4_U+30FC 1
 62
     7
420
 16777215
370
     9
100
AcDbVertex
100
AcDb2dVertex
 10
109.8192960871652
 20
-119.8255935811546
 30
0.0
  0
VERTEX
  5
9F
330
9D
100
AcDbEntity
  8
_U+30EC_U+30A4_U+30E4_U+30FC 1
 62
     7
420
 16777215
370
     9
100
AcDbVertex
100
AcDb2dVertex
 10
109.8192960871652
 20
-120.8253658031269
 30
0.0
  0
SEQEND
  5
A0
330
9D
100
AcDbEntity
  8
_U+30EC_U+30A4_U+30E4_U+30FC 1
 62
     7
420
 16777215
370
     9
  0
POLYLINE
  5
A1
330
1F
100
AcDbEntity
  8
_U+30EC_U+30A4_U+30E4_U+30FC 1
 62
     7
420
 16777215
370
     9
100
AcDb2dPolyline
 66
     1
 10
0.0
 20
0.0
 30
0.0
  0
VERTEX
  5
A2
330
A1
100
AcDbEntity
  8
_U+30EC_U+30A4_U+30E4_U+30FC 1
 62
     7
420
 16777215
370
     9
100
AcDbVertex
100
AcDb2dVertex
 10
108.359290013302
 20
-119.8255935811546
 30
0.0
  0
VERTEX
  5
A3
330
A1
100
AcDbEntity
  8
_U+30EC_U+30A4_U+30E4_U+30FC 1
 62
     7
420
 16777215
370
     9
100
AcDbVertex
100
AcDb2dVertex
 10
110.8190682838811
 20
-119.8255935811546
 30
0.0
  0
SEQEND
  5
A4
330
A1
100
AcDbEntity
  8
_U+30EC_U+30A4_U+30E4_U+30FC 1
 62
     7
420
 16777215
370
     9
  0
POLYLINE
  5
A5
330
1F
100
AcDbEntity
  8
_U+30EC_U+30A4_U+30E4_U+30FC 1
 62
     7
420
 16777215
370
     9
100
AcDb2dPolyline
 66
     1
 10
0.0
 20
0.0
 30
0.0
  0
VERTEX
  5
A6
330
A5
100
AcDbEntity
  8
_U+30EC_U+30A4_U+30E4_U+30FC 1
 62
     7
420
 16777215
370
     9
100
AcDbVertex
100
AcDb2dVertex
 10
108.359290013302
 20
-120.8253658031269
 30
0.0
  0
VERTEX
  5
A7
330
A5
100
AcDbEntity
  8
_U+30EC_U+30A4_U+30E4_U+30FC 1
 62
     7
420
 16777215
370
     9
100
AcDbVertex
100
AcDb2dVertex
 10
110.8190682838811
 20
-120.8253658031269
 30
0.0
  0
SEQEND
  5
A8
330
A5
100
AcDbEntity
  8
_U+30EC_U+30A4_U+30E4_U+30FC 1
 62
     7
420
 16777215
370
     9
  0
INSERT
  5
AA
330
1F
100
AcDbEntity
  8
_U+30EC_U+30A4_U+30E4_U+30FC 1
100
AcDbBlockReference
  2
block 3
 10
0.0
 20
0.0
 30
0.0
  0
POLYLINE
  5
AF
330
1F
100
AcDbEntity
  8
_U+30EC_U+30A4_U+30E4_U+30FC 1
 62
     7
420
 16777215
370
     9
100
AcDb2dPolyline
 66
     1
 10
0.0
 20
0.0
 30
0.0
  0
VERTEX
  5
B0
330
AF
100
AcDbEntity
  8
_U+30EC_U+30A4_U+30E4_U+30FC 1
 62
     7
420
 16777215
370
     9
100
AcDbVertex
100
AcDb2dVertex
 10
70.71920736246938
 20
-115.8251288599325
 30
0.0
  0
VERTEX
  5
B1
330
AF
100
AcDbEntity
  8
_U+30EC_U+30A4_U+30E4_U+30FC 1
 62
     7
420
 16777215
370
     9
100
AcDbVertex
100
AcDb2dVertex
 10
105.7193128584312
 20
-115.8251288599325
 30
0.0
  0
SEQEND
  5
B2
330
AF
100
AcDbEntity
  8
_U+30EC_U+30A4_U+30E4_U+30FC 1
 62
     7
420
 16777215
370
     9
  0
POLYLINE
  5
B3
330
1F
100
AcDbEntity
  8
_U+30EC_U+30A4_U+30E4_U+30FC 1
 62
     7
420
 16777215
370
     9
100
AcDb2dPolyline
 66
     1
 10
0.0
 20
0.0
 30
0.0
  0
VERTEX
  5
B4
330
B3
100
AcDbEntity
  8
_U+30EC_U+30A4_U+30E4_U+30FC 1
 62
     7
420
 16777215
370
     9
100
AcDbVertex
100
AcDb2dVertex
 10
70.71920736246938
 20
-117.2851702484566
 30
0.0
  0
VERTEX
  5
B5
330
B3
100
AcDbEntity
  8
_U+30EC_U+30A4_U+30E4_U+30FC 1
 62
     7
420
 16777215
370
     9
100
AcDbVertex
100
AcDb2dVertex
 10
70.71920736246938
 20
-114.8253919157382
 30
0.0
  0
SEQEND
  5
B6
330
B3
100
AcDbEntity
  8
_U+30EC_U+30A4_U+30E4_U+30FC 1
 62
     7
420
 16777215
370
     9
  0
POLYLINE
  5
B7
330
1F
100
AcDbEntity
  8
_U+30EC_U+30A4_U+30E4_U+30FC 1
 62
     7
420
 16777215
370
     9
100
AcDb2dPolyline
 66
     1
 10
0.0
 20
0.0
 30
0.0
  0
VERTEX
  5
B8
330
B7
100
AcDbEntity
  8
_U+30EC_U+30A4_U+30E4_U+30FC 1
 62
     7
420
 16777215
370
     9
100
AcDbVertex
100
AcDb2dVertex
 10
105.6194061943134
 20
-117.2851702484566
 30
0.0
  0
VERTEX
  5
B9
330
B7
100
AcDbEntity
  8
_U+30EC_U+30A4_U+30E4_U+30FC 1
 62
     7
420
 16777215
370
     9
100
AcDbVertex
100
AcDb2dVertex
 10
105.6194061943134
 20
-114.8253919157382
 30
0.0
  0
SEQEND
  5
BA
330
B7
100
AcDbEntity
  8
_U+30EC_U+30A4_U+30E4_U+30FC 1
 62
     7
420
 16777215
370
     9
  0
INSERT
  5
BC
330
1F
100
AcDbEntity
  8
_U+30EC_U+30A4_U+30E4_U+30FC 1
100
AcDbBlockReference
  2
block 4
 10
0.0
 20
0.0
 30
0.0
  0
POLYLINE
  5
C3
330
1F
100
AcDbEntity
  8
_U+30EC_U+30A4_U+30E4_U+30FC 1
 62
     7
420
 16777215
370
     9
100
AcDb2dPolyline
 66
     1
 10
0.0
 20
0.0
 30
0.0
  0
VERTEX
  5
C4
330
C3
100
AcDbEntity
  8
_U+30EC_U+30A4_U+30E4_U+30FC 1
 62
     7
420
 16777215
370
     9
100
AcDbVertex
100
AcDb2dVertex
 10
70.75088680610561
 20
-143.7194088529588
 30
0.0
  0
VERTEX
  5
C5
330
C3
100
AcDbEntity
  8
_U+30EC_U+30A4_U+30E4_U+30FC 1
 62
     7
420
 16777215
370
     9
100
AcDbVertex
100
AcDb2dVertex
 10
82.75083427773923
 20
-143.7194088529588
 30
0.0
  0
SEQEND
  5
C6
330
C3
100
AcDbEntity
  8
_U+30EC_U+30A4_U+30E4_U+30FC 1
 62
     7
420
 16777215
370
     9
  0
POLYLINE
  5
C7
330
1F
100
AcDbEntity
  8
_U+30EC_U+30A4_U+30E4_U+30FC 1
 62
     7
420
 16777215
370
     9
100
AcDb2dPolyline
 66
     1
 10
0.0
 20
0.0
 30
0.0
  0
VERTEX
  5
C8
330
C7
100
AcDbEntity
  8
_U+30EC_U+30A4_U+30E4_U+30FC 1
 62
     7
420
 16777215
370
     9
100
AcDbVertex
100
AcDb2dVertex
 10
70.86458887117281
 20
-123.3657538580474
 30
0.0
  0
VERTEX
  5
C9
330
C7
100
AcDbEntity
  8
_U+30EC_U+30A4_U+30E4_U+30FC 1
 62
     7
420
 16777215
370
     9
100
AcDbVertex
100
AcDb2dVertex
 10
70.86458887117281
 20
-144.7191457971539
 30
0.0
  0
SEQEND
  5
CA
330
C7
100
AcDbEntity
  8
_U+30EC_U+30A4_U+30E4_U+30FC 1
 62
     7
420
 16777215
370
     9
  0
POLYLINE
  5
CB
330
1F
100
AcDbEntity
  8
_U+30EC_U+30A4_U+30E4_U+30FC 1
 62
     7
420
 16777215
370
     9
100
AcDb2dPolyline
 66
     1
 10
0.0
 20
0.0
 30
0.0
  0
VERTEX
  5
CC
330
CB
100
AcDbEntity
  8
_U+30EC_U+30A4_U+30E4_U+30FC 1
 62
     7
420
 16777215
370
     9
100
AcDbVertex
100
AcDb2dVertex
 10
82.75083427773923
 20
-142.2593674644351
 30
0.0
  0
VERTEX
  5
CD
330
CB
100
AcDbEntity
  8
_U+30EC_U+30A4_U+30E4_U+30FC 1
 62
     7
420
 16777215
370
     9
100
AcDbVertex
100
AcDb2dVertex
 10
82.75083427773923
 20
-144.7191457971539
 30
0.0
  0
SEQEND
  5
CE
330
CB
100
AcDbEntity
  8
_U+30EC_U+30A4_U+30E4_U+30FC 1
 62
     7
420
 16777215
370
     9
  0
INSERT
  5
D0
330
1F
100
AcDbEntity
  8
_U+30EC_U+30A4_U+30E4_U+30FC 1
100
AcDbBlockReference
  2
block 5
 10
0.0
 20
0.0
 30
0.0
  0
POLYLINE
  5
D7
330
1F
100
AcDbEntity
  8
_U+30EC_U+30A4_U+30E4_U+30FC 1
 62
     7
420
 16777215
370
     9
100
AcDb2dPolyline
 66
     1
 10
0.0
 20
0.0
 30
0.0
  0
VERTEX
  5
D8
330
D7
100
AcDbEntity
  8
_U+30EC_U+30A4_U+30E4_U+30FC 1
 62
     7
420
 16777215
370
     9
100
AcDbVertex
100
AcDb2dVertex
 10
109.8192960871652
 20
-136.3255394103632
 30
0.0
  0
VERTEX
  5
D9
330
D7
100
AcDbEntity
  8
_U+30EC_U+30A4_U+30E4_U+30FC 1
 62
     7
420
 16777215
370
     9
100
AcDbVertex
100
AcDb2dVertex
 10
109.8192960871652
 20
-120.8253658031269
 30
0.0
  0
SEQEND
  5
DA
330
D7
100
AcDbEntity
  8
_U+30EC_U+30A4_U+30E4_U+30FC 1
 62
     7
420
 16777215
370
     9
  0
SPLINE
  5
DB
330
1F
100
AcDbEntity
  8
_U+30EC_U+30A4_U+30E4_U+30FC 1
 62
     7
420
 16777215
370
     9
100
AcDbSpline
210
0.0
220
0.0
230
1.0
 70
    11
 71
     3
 72
    17
 73
    13
 74
     0
 42
0.0000000001
 43
0.0000000001
 12
1.0
 22
0.0
 32
0.0
 13
1.0
 23
0.0
 33
0.0
 40
0.0
 40
0.0
 40
0.0
 40
0.0
 40
1.0
 40
1.0
 40
1.0
 40
2.0
 40
2.0
 40
2.0
 40
3.0
 40
3.0
 40
3.0
 40
4.0
 40
4.0
 40
4.0
 40
4.0
 10
109.9192055280759
 20
-136.3655091325751
 30
0.0
 10
109.9192055280759
 20
-136.3096644103672
 30
0.0
 10
109.8744352524252
 20
-136.264896910378
 30
0.0
 10
109.8192960871652
 20
-136.264896910378
 30
0.0
 10
109.7641921996822
 20
-136.264896910378
 30
0.0
 10
109.7193894230474
 20
-136.3096644103672
 30
0.0
 10
109.7193894230474
 20
-136.3655091325751
 30
0.0
 10
109.7193894230474
 20
-136.4206130214507
 30
0.0
 10
109.7641921996822
 20
-136.4654157992168
 30
0.0
 10
109.8192960871652
 20
-136.4654157992168
 30
0.0
 10
109.8744352524252
 20
-136.4654157992168
 30
0.0
 10
109.9192055280759
 20
-136.4206130214507
 30
0.0
 10
109.9192055280759
 20
-136.3655091325751
 30
0.0
  0
SPLINE
  5
DC
330
1F
100
AcDbEntity
  8
_U+30EC_U+30A4_U+30E4_U+30FC 1
 62
     7
420
 16777215
370
     9
100
AcDbSpline
210
0.0
220
0.0
230
1.0
 70
    11
 71
     3
 72
    17
 73
    13
 74
     0
 42
0.0000000001
 43
0.0000000001
 12
1.0
 22
0.0
 32
0.0
 13
1.0
 23
0.0
 33
0.0
 40
0.0
 40
0.0
 40
0.0
 40
0.0
 40
1.0
 40
1.0
 40
1.0
 40
2.0
 40
2.0
 40
2.0
 40
3.0
 40
3.0
 40
3.0
 40
4.0
 40
4.0
 40
4.0
 40
4.0
 10
109.9192055280759
 20
-139.3654960762695
 30
0.0
 10
109.9192055280759
 20
-139.309686631839
 30
0.0
 10
109.8744352524252
 20
-139.264883854073
 30
0.0
 10
109.8192960871652
 20
-139.264883854073
 30
0.0
 10
109.7641921996822
 20
-139.264883854073
 30
0.0
 10
109.7193894230474
 20
-139.309686631839
 30
0.0
 10
109.7193894230474
 20
-139.3654960762695
 30
0.0
 10
109.7193894230474
 20
-139.420599965145
 30
0.0
 10
109.7641921996822
 20
-139.4654027429111
 30
0.0
 10
109.8192960871652
 20
-139.4654027429111
 30
0.0
 10
109.8744352524252
 20
-139.4654027429111
 30
0.0
 10
109.9192055280759
 20
-139.420599965145
 30
0.0
 10
109.9192055280759
 20
-139.3654960762695
 30
0.0
  0
POLYLINE
  5
DD
330
1F
100
AcDbEntity
  8
_U+30EC_U+30A4_U+30E4_U+30FC 1
 62
     7
420
 16777215
370
     9
100
AcDb2dPolyline
 66
     1
 10
0.0
 20
0.0
 30
0.0
  0
VERTEX
  5
DE
330
DD
100
AcDbEntity
  8
_U+30EC_U+30A4_U+30E4_U+30FC 1
 62
     7
420
 16777215
370
     9
100
AcDbVertex
100
AcDb2dVertex
 10
109.8192960871652
 20
-139.3654960762695
 30
0.0
  0
VERTEX
  5
DF
330
DD
100
AcDbEntity
  8
_U+30EC_U+30A4_U+30E4_U+30FC 1
 62
     7
420
 16777215
370
     9
100
AcDbVertex
100
AcDb2dVertex
 10
109.8192960871652
 20
-136.3655091325751
 30
0.0
  0
SEQEND
  5
E0
330
DD
100
AcDbEntity
  8
_U+30EC_U+30A4_U+30E4_U+30FC 1
 62
     7
420
 16777215
370
     9
  0
POLYLINE
  5
E1
330
1F
100
AcDbEntity
  8
_U+30EC_U+30A4_U+30E4_U+30FC 1
 62
     7
420
 16777215
370
     9
100
AcDb2dPolyline
 66
     1
 10
0.0
 20
0.0
 30
0.0
  0
VERTEX
  5
E2
330
E1
100
AcDbEntity
  8
_U+30EC_U+30A4_U+30E4_U+30FC 1
 62
     7
420
 16777215
370
     9
100
AcDbVertex
100
AcDb2dVertex
 10
95.38056062219474
 20
-139.3654960762695
 30
0.0
  0
VERTEX
  5
E3
330
E1
100
AcDbEntity
  8
_U+30EC_U+30A4_U+30E4_U+30FC 1
 62
     7
420
 16777215
370
     9
100
AcDbVertex
100
AcDb2dVertex
 10
110.8190682838811
 20
-139.3654960762695
 30
0.0
  0
SEQEND
  5
E4
330
E1
100
AcDbEntity
  8
_U+30EC_U+30A4_U+30E4_U+30FC 1
 62
     7
420
 16777215
370
     9
  0
INSERT
  5
E6
330
1F
100
AcDbEntity
  8
_U+30EC_U+30A4_U+30E4_U+30FC 1
100
AcDbBlockReference
  2
block 6
 10
0.0
 20
0.0
 30
0.0
  0
POLYLINE
  5
EB
330
1F
100
AcDbEntity
  8
_U+30EC_U+30A4_U+30E4_U+30FC 1
 62
     7
420
 16777215
370
     9
100
AcDb2dPolyline
 66
     1
 10
0.0
 20
0.0
 30
0.0
  0
VERTEX
  5
EC
330
EB
100
AcDbEntity
  8
_U+30EC_U+30A4_U+30E4_U+30FC 1
 62
     7
420
 16777215
370
     9
100
AcDbVertex
100
AcDb2dVertex
 10
95.38056062219474
 20
-136.3655091325751
 30
0.0
  0
VERTEX
  5
ED
330
EB
100
AcDbEntity
  8
_U+30EC_U+30A4_U+30E4_U+30FC 1
 62
     7
420
 16777215
370
     9
100
AcDbVertex
100
AcDb2dVertex
 10
110.8190682838811
 20
-136.3655091325751
 30
0.0
  0
SEQEND
  5
EE
330
EB
100
AcDbEntity
  8
_U+30EC_U+30A4_U+30E4_U+30FC 1
 62
     7
420
 16777215
370
     9
  0
INSERT
  5
F0
330
1F
100
AcDbEntity
  8
_U+30EC_U+30A4_U+30E4_U+30FC 1
100
AcDbBlockReference
  2
block 7
 10
0.0
 20
0.0
 30
0.0
  0
ENDSEC
  0
SECTION
  2
OBJECTS
  0
DICTIONARY
  5
C
330
0
100
AcDbDictionary
281
     1
  3
ACAD_GROUP
350
D
  3
ACAD_LAYOUT
350
1A
  3
ACAD_MATERIAL
350
3B
  3
ACAD_MLEADERSTYLE
350
102
  3
ACAD_MLINESTYLE
350
17
  3
ACAD_PLOTSETTINGS
350
19
  3
ACAD_PLOTSTYLENAME
350
E
  3
ACAD_TABLESTYLE
350
101
  3
ACAD_VISUALSTYLE
350
2A
  0
SUN
  5
3F
330
29
100
AcDbSun
 90
        1
290
     0
 63
     7
421
 16777215
 40
1.0
291
     1
 91
  2455826
 92
 54000000
292
     0
 70
     2
 71
   256
280
     1
  0
DICTIONARY
  5
D
102
{ACAD_REACTORS
330
C
102
}
330
C
100
AcDbDictionary
281
     1
  0
DICTIONARY
  5
1A
102
{ACAD_REACTORS
330
C
102
}
330
C
100
AcDbDictionary
281
     1
  3
Layout1
350
1E
  3
Layout2
350
26
  3
Model
350
22
  0
DICTIONARY
  5
3B
102
{ACAD_REACTORS
330
C
102
}
330
C
100
AcDbDictionary
281
     1
  3
ByBlock
350
3D
  3
ByLayer
350
3C
  3
Global
350
3E
  0
DICTIONARY
  5
102
102
{ACAD_REACTORS
330
C
102
}
330
C
100
AcDbDictionary
281
     1
  0
DICTIONARY
  5
17
102
{ACAD_REACTORS
330
C
102
}
330
C
100
AcDbDictionary
281
     1
  3
Standard
350
18
  0
DICTIONARY
  5
19
102
{ACAD_REACTORS
330
C
102
}
330
C
100
AcDbDictionary
281
     1
  0
ACDBDICTIONARYWDFLT
  5
E
102
{ACAD_REACTORS
330
C
102
}
330
C
100
AcDbDictionary
281
     1
  3
Normal
350
F
100
AcDbDictionaryWithDefault
340
F
  0
DICTIONARY
  5
101
102
{ACAD_REACTORS
330
C
102
}
330
C
100
AcDbDictionary
281
     1
  0
DICTIONARY
  5
2A
102
{ACAD_REACTORS
330
C
102
}
330
C
100
AcDbDictionary
281
     1
  3
2dWireframe
350
2F
  3
3D Hidden
350
31
  3
3dWireframe
350
30
  3
Basic
350
32
  3
Brighten
350
36
  3
ColorChange
350
3A
  3
Conceptual
350
34
  3
Dim
350
35
  3
Facepattern
350
39
  3
Flat
350
2B
  3
FlatWithEdges
350
2C
  3
Gouraud
350
2D
  3
GouraudWithEdges
350
2E
  3
Linepattern
350
38
  3
Realistic
350
33
  3
Thicken
350
37
  0
LAYOUT
  5
1E
102
{ACAD_REACTORS
330
1A
102
}
330
1A
100
AcDbPlotSettings
  1

  2
none_device
  4

  6

 40
0.0
 41
0.0
 42
0.0
 43
0.0
 44
0.0
 45
0.0
 46
0.0
 47
0.0
 48
0.0
 49
0.0
140
0.0
141
0.0
142
1.0
143
1.0
 70
   688
 72
     0
 73
     0
 74
     5
  7

 75
    16
 76
     0
 77
     2
 78
   300
147
1.0
148
0.0
149
0.0
100
AcDbLayout
  1
Layout1
 70
     1
 71
     1
 10
0.0
 20
0.0
 11
12.0
 21
9.0
 12
0.0
 22
0.0
 32
0.0
 14
1.000000000000000E+20
 24
1.000000000000000E+20
 34
1.000000000000000E+20
 15
-1.000000000000000E+20
 25
-1.000000000000000E+20
 35
-1.000000000000000E+20
146
0.0
 13
0.0
 23
0.0
 33
0.0
 16
1.0
 26
0.0
 36
0.0
 17
0.0
 27
1.0
 37
0.0
 76
     0
330
1B
  0
LAYOUT
  5
26
102
{ACAD_REACTORS
330
1A
102
}
330
1A
100
AcDbPlotSettings
  1

  2
none_device
  4

  6

 40
0.0
 41
0.0
 42
0.0
 43
0.0
 44
0.0
 45
0.0
 46
0.0
 47
0.0
 48
0.0
 49
0.0
140
0.0
141
0.0
142
1.0
143
1.0
 70
   688
 72
     0
 73
     0
 74
     5
  7

 75
    16
 76
     0
 77
     2
 78
   300
147
1.0
148
0.0
149
0.0
100
AcDbLayout
  1
Layout2
 70
     1
 71
     2
 10
0.0
 20
0.0
 11
0.0
 21
0.0
 12
0.0
 22
0.0
 32
0.0
 14
0.0
 24
0.0
 34
0.0
 15
0.0
 25
0.0
 35
0.0
146
0.0
 13
0.0
 23
0.0
 33
0.0
 16
1.0
 26
0.0
 36
0.0
 17
0.0
 27
1.0
 37
0.0
 76
     0
330
23
  0
LAYOUT
  5
22
102
{ACAD_REACTORS
330
1A
102
}
330
1A
100
AcDbPlotSettings
  1

  2
none_device
  4

  6

 40
0.0
 41
0.0
 42
0.0
 43
0.0
 44
0.0
 45
0.0
 46
0.0
 47
0.0
 48
0.0
 49
0.0
140
0.0
141
0.0
142
1.0
143
1.0
 70
  1712
 72
     0
 73
     0
 74
     0
  7

 75
     0
 76
     0
 77
     2
 78
   300
147
1.0
148
0.0
149
0.0
100
AcDbLayout
  1
Model
 70
     1
 71
     0
 10
0.0
 20
0.0
 11
12.0
 21
9.0
 12
0.0
 22
0.0
 32
0.0
 14
1.000000000000000E+20
 24
1.000000000000000E+20
 34
1.000000000000000E+20
 15
-1.000000000000000E+20
 25
-1.000000000000000E+20
 35
-1.000000000000000E+20
146
0.0
 13
0.0
 23
0.0
 33
0.0
 16
1.0
 26
0.0
 36
0.0
 17
0.0
 27
1.0
 37
0.0
 76
     0
330
1F
331
29
  0
MATERIAL
  5
3D
102
{ACAD_REACTORS
330
3B
102
}
330
3B
100
AcDbMaterial
  1
ByBlock
 72
     1
 94
      127
  0
MATERIAL
  5
3C
102
{ACAD_REACTORS
330
3B
102
}
330
3B
100
AcDbMaterial
  1
ByLayer
 72
     1
 94
      127
  0
MATERIAL
  5
3E
102
{ACAD_REACTORS
330
3B
102
}
330
3B
100
AcDbMaterial
  1
Global
 72
     1
 94
      127
  0
MLINESTYLE
  5
18
102
{ACAD_REACTORS
330
17
102
}
330
17
100
AcDbMlineStyle
  2
Standard
 70
     0
  3

 62
   256
 51
90.0
 52
90.0
 71
     2
 49
0.5
 62
   256
  6
BYLAYER
 49
-0.5
 62
   256
  6
BYLAYER
  0
ACDBPLACEHOLDER
  5
F
102
{ACAD_REACTORS
330
E
102
}
330
E
  0
VISUALSTYLE
  5
2F
102
{ACAD_REACTORS
330
2A
102
}
330
2A
100
AcDbVisualStyle
  2
2dWireframe
 70
     4
177
     2
291
     0
 71
     0
176
     1
 72
     2
176
     1
 73
     0
176
     1
 90
        0
176
     1
 40
-0.6
176
     1
 41
-30.0
176
     1
 62
     5
 63
     7
421
 16777215
176
     1
 74
     1
176
     1
 91
        4
176
     1
 64
     7
176
     1
 65
   257
176
     1
 75
     1
176
     1
175
     1
176
     1
 42
1.0
176
     1
 92
        0
176
     1
 66
   257
176
     1
 43
1.0
176
     1
 76
     1
176
     1
 77
     6
176
     1
 78
     2
176
     1
 67
     7
176
     1
 79
     5
176
     1
170
     0
176
     1
171
     0
176
     1
290
     0
176
     1
 93
        1
176
     1
 44
0.0
176
     1
173
     0
176
     1
  0
VISUALSTYLE
  5
31
102
{ACAD_REACTORS
330
2A
102
}
330
2A
100
AcDbVisualStyle
  2
3D Hidden
 70
     6
177
     2
291
     0
 71
     1
176
     1
 72
     2
176
     1
 73
     2
176
     1
 90
        0
176
     1
 40
-0.6
176
     1
 41
-30.0
176
     1
 62
     5
 63
     7
421
 16777215
176
     1
 74
     2
176
     1
 91
        2
176
     1
 64
     7
176
     1
 65
   257
176
     1
 75
     2
176
     1
175
     1
176
     1
 42
40.0
176
     1
 92
        0
176
     1
 66
   257
176
     1
 43
1.0
176
     1
 76
     1
176
     1
 77
     6
176
     1
 78
     2
176
     1
 67
     7
176
     1
 79
     3
176
     1
170
     0
176
     1
171
     0
176
     1
290
     0
176
     1
 93
        1
176
     1
 44
0.0
176
     1
173
     0
176
     1
  0
VISUALSTYLE
  5
30
102
{ACAD_REACTORS
330
2A
102
}
330
2A
100
AcDbVisualStyle
  2
3dWireframe
 70
     5
177
     2
291
     0
 71
     0
176
     1
 72
     2
176
     1
 73
     0
176
     1
 90
        0
176
     1
 40
-0.6
176
     1
 41
-30.0
176
     1
 62
     5
 63
     7
421
 16777215
176
     1
 74
     1
176
     1
 91
        4
176
     1
 64
     7
176
     1
 65
   257
176
     1
 75
     1
176
     1
175
     1
176
     1
 42
1.0
176
     1
 92
        0
176
     1
 66
   257
176
     1
 43
1.0
176
     1
 76
     1
176
     1
 77
     6
176
     1
 78
     2
176
     1
 67
     7
176
     1
 79
     5
176
     1
170
     0
176
     1
171
     0
176
     1
290
     0
176
     1
 93
        1
176
     1
 44
0.0
176
     1
173
     0
176
     1
  0
VISUALSTYLE
  5
32
102
{ACAD_REACTORS
330
2A
102
}
330
2A
100
AcDbVisualStyle
  2
Basic
 70
     7
177
     2
291
     1
 71
     1
176
     1
 72
     0
176
     1
 73
     1
176
     1
 90
        0
176
     1
 40
-0.6
176
     1
 41
-30.0
176
     1
 62
     5
 63
     7
421
 16777215
176
     1
 74
     0
176
     1
 91
        4
176
     1
 64
     7
176
     1
 65
   257
176
     1
 75
     1
176
     1
175
     1
176
     1
 42
1.0
176
     1
 92
        8
176
     1
 66
     7
176
     1
 43
1.0
176
     1
 76
     1
176
     1
 77
     6
176
     1
 78
     2
176
     1
 67
     7
176
     1
 79
     5
176
     1
170
     0
176
     1
171
     0
176
     1
290
     0
176
     1
 93
        1
176
     1
 44
0.0
176
     1
173
     0
176
     1
  0
VISUALSTYLE
  5
36
102
{ACAD_REACTORS
330
2A
102
}
330
2A
100
AcDbVisualStyle
  2
Brighten
 70
    12
177
     2
291
     1
 71
     2
176
     1
 72
     2
176
     1
 73
     0
176
     1
 90
        0
176
     1
 40
-0.6
176
     1
 41
-30.0
176
     1
 62
     5
 63
     7
421
 16777215
176
     1
 74
     1
176
     1
 91
        4
176
     1
 64
     7
176
     1
 65
   257
176
     1
 75
     1
176
     1
175
     1
176
     1
 42
1.0
176
     1
 92
        8
176
     1
 66
     7
176
     1
 43
1.0
176
     1
 76
     1
176
     1
 77
     6
176
     1
 78
     2
176
     1
 67
     7
176
     1
 79
     5
176
     1
170
     0
176
     1
171
     0
176
     1
290
     0
176
     1
 93
        1
176
     1
 44
50.0
176
     1
173
     0
176
     1
  0
VISUALSTYLE
  5
3A
102
{ACAD_REACTORS
330
2A
102
}
330
2A
100
AcDbVisualStyle
  2
ColorChange
 70
    16
177
     2
291
     1
 71
     2
176
     1
 72
     2
176
     1
 73
     3
176
     1
 90
        0
176
     1
 40
-0.6
176
     1
 41
-30.0
176
     1
 62
     5
 63
     8
421
  8421504
176
     1
 74
     1
176
     1
 91
        4
176
     1
 64
     7
176
     1
 65
   257
176
     1
 75
     1
176
     1
175
     1
176
     1
 42
1.0
176
     1
 92
        8
176
     1
 66
     8
424
  8421504
176
     1
 43
1.0
176
     1
 76
     1
176
     1
 77
     6
176
     1
 78
     2
176
     1
 67
     7
176
     1
 79
     5
176
     1
170
     0
176
     1
171
     0
176
     1
290
     0
176
     1
 93
        1
176
     1
 44
0.0
176
     1
173
     0
176
     1
  0
VISUALSTYLE
  5
34
102
{ACAD_REACTORS
330
2A
102
}
330
2A
100
AcDbVisualStyle
  2
Conceptual
 70
     9
177
     2
291
     0
 71
     3
176
     1
 72
     2
176
     1
 73
     0
176
     1
 90
        0
176
     1
 40
-0.6
176
     1
 41
-30.0
176
     1
 62
     5
 63
     7
421
 16777215
176
     1
 74
     2
176
     1
 91
        2
176
     1
 64
     7
176
     1
 65
   257
176
     1
 75
     1
176
     1
175
     1
176
     1
 42
40.0
176
     1
 92
        8
176
     1
 66
     7
176
     1
 43
1.0
176
     1
 76
     1
176
     1
 77
     6
176
     1
 78
     2
176
     1
 67
     7
176
     1
 79
     3
176
     1
170
     0
176
     1
171
     0
176
     1
290
     0
176
     1
 93
        1
176
     1
 44
0.0
176
     1
173
     0
176
     1
  0
VISUALSTYLE
  5
35
102
{ACAD_REACTORS
330
2A
102
}
330
2A
100
AcDbVisualStyle
  2
Dim
 70
    11
177
     2
291
     1
 71
     2
176
     1
 72
     2
176
     1
 73
     0
176
     1
 90
        0
176
     1
 40
-0.6
176
     1
 41
-30.0
176
     1
 62
     5
 63
     7
421
 16777215
176
     1
 74
     1
176
     1
 91
        4
176
     1
 64
     7
176
     1
 65
   257
176
     1
 75
     1
176
     1
175
     1
176
     1
 42
1.0
176
     1
 92
        8
176
     1
 66
     7
176
     1
 43
1.0
176
     1
 76
     1
176
     1
 77
     6
176
     1
 78
     2
176
     1
 67
     7
176
     1
 79
     5
176
     1
170
     0
176
     1
171
     0
176
     1
290
     0
176
     1
 93
        1
176
     1
 44
-50.0
176
     1
173
     0
176
     1
  0
VISUALSTYLE
  5
39
102
{ACAD_REACTORS
330
2A
102
}
330
2A
100
AcDbVisualStyle
  2
Facepattern
 70
    15
177
     2
291
     1
 71
     2
176
     1
 72
     2
176
     1
 73
     0
176
     1
 90
        0
176
     1
 40
-0.6
176
     1
 41
-30.0
176
     1
 62
     5
 63
     7
421
 16777215
176
     1
 74
     1
176
     1
 91
        4
176
     1
 64
     7
176
     1
 65
   257
176
     1
 75
     1
176
     1
175
     1
176
     1
 42
1.0
176
     1
 92
        8
176
     1
 66
     7
176
     1
 43
1.0
176
     1
 76
     1
176
     1
 77
     6
176
     1
 78
     2
176
     1
 67
     7
176
     1
 79
     5
176
     1
170
     0
176
     1
171
     0
176
     1
290
     0
176
     1
 93
        1
176
     1
 44
0.0
176
     1
173
     0
176
     1
  0
VISUALSTYLE
  5
2B
102
{ACAD_REACTORS
330
2A
102
}
330
2A
100
AcDbVisualStyle
  2
Flat
 70
     0
177
     2
291
     1
 71
     2
176
     1
 72
     1
176
     1
 73
     1
176
     1
 90
        2
176
     1
 40
-0.6
176
     1
 41
30.0
176
     1
 62
     5
 63
     7
421
 16777215
176
     1
 74
     0
176
     1
 91
        4
176
     1
 64
     7
176
     1
 65
   257
176
     1
 75
     1
176
     1
175
     1
176
     1
 42
1.0
176
     1
 92
        8
176
     1
 66
     7
176
     1
 43
1.0
176
     1
 76
     1
176
     1
 77
     6
176
     1
 78
     2
176
     1
 67
     7
176
     1
 79
     5
176
     1
170
     0
176
     1
171
     0
176
     1
290
     0
176
     1
 93
       13
176
     1
 44
0.0
176
     1
173
     0
176
     1
  0
VISUALSTYLE
  5
2C
102
{ACAD_REACTORS
330
2A
102
}
330
2A
100
AcDbVisualStyle
  2
FlatWithEdges
 70
     1
177
     2
291
     1
 71
     2
176
     1
 72
     1
176
     1
 73
     1
176
     1
 90
        2
176
     1
 40
-0.6
176
     1
 41
30.0
176
     1
 62
     5
 63
     7
421
 16777215
176
     1
 74
     1
176
     1
 91
        4
176
     1
 64
     7
176
     1
 65
   257
176
     1
 75
     1
176
     1
175
     1
176
     1
 42
1.0
176
     1
 92
        0
176
     1
 66
   257
176
     1
 43
1.0
176
     1
 76
     1
176
     1
 77
     6
176
     1
 78
     2
176
     1
 67
     7
176
     1
 79
     5
176
     1
170
     0
176
     1
171
     0
176
     1
290
     0
176
     1
 93
       13
176
     1
 44
0.0
176
     1
173
     0
176
     1
  0
VISUALSTYLE
  5
2D
102
{ACAD_REACTORS
330
2A
102
}
330
2A
100
AcDbVisualStyle
  2
Gouraud
 70
     2
177
     2
291
     1
 71
     2
176
     1
 72
     2
176
     1
 73
     1
176
     1
 90
        2
176
     1
 40
-0.6
176
     1
 41
30.0
176
     1
 62
     5
 63
     7
421
 16777215
176
     1
 74
     0
176
     1
 91
        4
176
     1
 64
     7
176
     1
 65
   257
176
     1
 75
     1
176
     1
175
     1
176
     1
 42
1.0
176
     1
 92
        0
176
     1
 66
     7
176
     1
 43
1.0
176
     1
 76
     1
176
     1
 77
     6
176
     1
 78
     2
176
     1
 67
     7
176
     1
 79
     5
176
     1
170
     0
176
     1
171
     0
176
     1
290
     0
176
     1
 93
       13
176
     1
 44
0.0
176
     1
173
     0
176
     1
  0
VISUALSTYLE
  5
2E
102
{ACAD_REACTORS
330
2A
102
}
330
2A
100
AcDbVisualStyle
  2
GouraudWithEdges
 70
     3
177
     2
291
     1
 71
     2
176
     1
 72
     2
176
     1
 73
     1
176
     1
 90
        2
176
     1
 40
-0.6
176
     1
 41
30.0
176
     1
 62
     5
 63
     7
421
 16777215
176
     1
 74
     1
176
     1
 91
        4
176
     1
 64
     7
176
     1
 65
   257
176
     1
 75
     1
176
     1
175
     1
176
     1
 42
1.0
176
     1
 92
        0
176
     1
 66
   257
176
     1
 43
1.0
176
     1
 76
     1
176
     1
 77
     6
176
     1
 78
     2
176
     1
 67
     7
176
     1
 79
     5
176
     1
170
     0
176
     1
171
     0
176
     1
290
     0
176
     1
 93
       13
176
     1
 44
0.0
176
     1
173
     0
176
     1
  0
VISUALSTYLE
  5
38
102
{ACAD_REACTORS
330
2A
102
}
330
2A
100
AcDbVisualStyle
  2
Linepattern
 70
    14
177
     2
291
     1
 71
     2
176
     1
 72
     2
176
     1
 73
     0
176
     1
 90
        0
176
     1
 40
-0.6
176
     1
 41
-30.0
176
     1
 62
     5
 63
     7
421
 16777215
176
     1
 74
     1
176
     1
 91
        4
176
     1
 64
     7
176
     1
 65
   257
176
     1
 75
     7
176
     1
175
     7
176
     1
 42
1.0
176
     1
 92
        8
176
     1
 66
     7
176
     1
 43
1.0
176
     1
 76
     1
176
     1
 77
     6
176
     1
 78
     2
176
     1
 67
     7
176
     1
 79
     5
176
     1
170
     0
176
     1
171
     0
176
     1
290
     0
176
     1
 93
        1
176
     1
 44
0.0
176
     1
173
     0
176
     1
  0
VISUALSTYLE
  5
33
102
{ACAD_REACTORS
330
2A
102
}
330
2A
100
AcDbVisualStyle
  2
Realistic
 70
     8
177
     2
291
     0
 71
     2
176
     1
 72
     2
176
     1
 73
     0
176
     1
 90
        0
176
     1
 40
-0.6
176
     1
 41
-30.0
176
     1
 62
     5
 63
     7
421
 16777215
176
     1
 74
     1
176
     1
 91
        0
176
     1
 64
     7
176
     1
 65
   257
176
     1
 75
     1
176
     1
175
     1
176
     1
 42
1.0
176
     1
 92
        8
176
     1
 66
     8
424
  7895160
176
     1
 43
1.0
176
     1
 76
     1
176
     1
 77
     6
176
     1
 78
     2
176
     1
 67
     7
176
     1
 79
     5
176
     1
170
     0
176
     1
171
     0
176
     1
290
     0
176
     1
 93
       13
176
     1
 44
0.0
176
     1
173
     0
176
     1
  0
VISUALSTYLE
  5
37
102
{ACAD_REACTORS
330
2A
102
}
330
2A
100
AcDbVisualStyle
  2
Thicken
 70
    13
177
     2
291
     1
 71
     2
176
     1
 72
     2
176
     1
 73
     0
176
     1
 90
        0
176
     1
 40
-0.6
176
     1
 41
-30.0
176
     1
 62
     5
 63
     7
421
 16777215
176
     1
 74
     1
176
     1
 91
        4
176
     1
 64
     7
176
     1
 65
   257
176
     1
 75
     1
176
     1
175
     1
176
     1
 42
1.0
176
     1
 92
       12
176
     1
 66
     7
176
     1
 43
1.0
176
     1
 76
     1
176
     1
 77
     6
176
     1
 78
     2
176
     1
 67
     7
176
     1
 79
     5
176
     1
170
     0
176
     1
171
     0
176
     1
290
     0
176
     1
 93
        1
176
     1
 44
0.0
176
     1
173
     0
176
     1
  0
ENDSEC
  0
EOF
