  0
SECTION
  2
HEADER
  9
$ACADVER
  1
AC1024
  9
$ACADMAINTVER
 70
     6
  9
$DWGCODEPAGE
  3
UNDEFINED
  9
$INSBASE
 10
0.0
 20
0.0
 30
0.0
  9
$EXTMIN
 10
1.000000000000000E+20
 20
1.000000000000000E+20
 30
1.000000000000000E+20
  9
$EXTMAX
 10
-1.000000000000000E+20
 20
-1.000000000000000E+20
 30
-1.000000000000000E+20
  9
$LIMMIN
 10
0.0
 20
0.0
  9
$LIMMAX
 10
12.0
 20
9.0
  9
$ORTHOMODE
 70
     0
  9
$REGENMODE
 70
     1
  9
$FILLMODE
 70
     1
  9
$QTEXTMODE
 70
     0
  9
$MIRRTEXT
 70
     1
  9
$LTSCALE
 40
1.0
  9
$ATTMODE
 70
     1
  9
$TEXTSIZE
 40
0.2
  9
$TRACEWID
 40
0.05
  9
$TEXTSTYLE
  7
Standard
  9
$CLAYER
  8
0
  9
$CELTYPE
  6
ByLayer
  9
$CECOLOR
 62
   256
  9
$CELTSCALE
 40
1.0
  9
$DISPSILH
 70
     0
  9
$DIMSCALE
 40
1.0
  9
$DIMASZ
 40
0.18
  9
$DIMEXO
 40
0.0625
  9
$DIMDLI
 40
0.38
  9
$DIMRND
 40
0.0
  9
$DIMDLE
 40
0.0
  9
$DIMEXE
 40
0.18
  9
$DIMTP
 40
0.0
  9
$DIMTM
 40
0.0
  9
$DIMTXT
 40
0.18
  9
$DIMCEN
 40
0.09
  9
$DIMTSZ
 40
0.0
  9
$DIMTOL
 70
     0
  9
$DIMLIM
 70
     0
  9
$DIMTIH
 70
     1
  9
$DIMTOH
 70
     1
  9
$DIMSE1
 70
     0
  9
$DIMSE2
 70
     0
  9
$DIMTAD
 70
     0
  9
$DIMZIN
 70
     0
  9
$DIMBLK
  1

  9
$DIMASO
 70
     1
  9
$DIMSHO
 70
     1
  9
$DIMPOST
  1

  9
$DIMAPOST
  1

  9
$DIMALT
 70
     0
  9
$DIMALTD
 70
     2
  9
$DIMALTF
 40
25.4
  9
$DIMLFAC
 40
1.0
  9
$DIMTOFL
 70
     0
  9
$DIMTVP
 40
0.0
  9
$DIMTIX
 70
     0
  9
$DIMSOXD
 70
     0
  9
$DIMSAH
 70
     0
  9
$DIMBLK1
  1

  9
$DIMBLK2
  1

  9
$DIMSTYLE
  2
Standard
  9
$DIMCLRD
 70
     0
  9
$DIMCLRE
 70
     0
  9
$DIMCLRT
 70
     0
  9
$DIMTFAC
 40
1.0
  9
$DIMGAP
 40
0.09
  9
$DIMJUST
 70
     0
  9
$DIMSD1
 70
     0
  9
$DIMSD2
 70
     0
  9
$DIMTOLJ
 70
     1
  9
$DIMTZIN
 70
     0
  9
$DIMALTZ
 70
     0
  9
$DIMALTTZ
 70
     0
  9
$DIMUPT
 70
     0
  9
$DIMDEC
 70
     4
  9
$DIMTDEC
 70
     4
  9
$DIMALTU
 70
     2
  9
$DIMALTTD
 70
     2
  9
$DIMTXSTY
  7
Standard
  9
$DIMAUNIT
 70
     0
  9
$DIMADEC
 70
     0
  9
$DIMALTRND
 40
0.0
  9
$DIMAZIN
 70
     0
  9
$DIMDSEP
 70
    46
  9
$DIMATFIT
 70
     3
  9
$DIMFRAC
 70
     0
  9
$DIMLDRBLK
  1

  9
$DIMLUNIT
 70
     2
  9
$DIMLWD
 70
    -2
  9
$DIMLWE
 70
    -2
  9
$DIMTMOVE
 70
     0
  9
$DIMFXL
 40
1.0
  9
$DIMFXLON
 70
     0
  9
$DIMJOGANG
 40
0.7853981633974483
  9
$DIMTFILL
 70
     0
  9
$DIMTFILLCLR
 70
     0
  9
$DIMARCSYM
 70
     0
  9
$DIMLTYPE
  6

  9
$DIMLTEX1
  6

  9
$DIMLTEX2
  6

  9
$DIMTXTDIRECTION
 70
     0
  9
$LUNITS
 70
     2
  9
$LUPREC
 70
     4
  9
$SKETCHINC
 40
0.1
  9
$FILLETRAD
 40
0.5
  9
$AUNITS
 70
     0
  9
$AUPREC
 70
     0
  9
$MENU
  1
.
  9
$ELEVATION
 40
0.0
  9
$PELEVATION
 40
0.0
  9
$THICKNESS
 40
0.0
  9
$LIMCHECK
 70
     0
  9
$CHAMFERA
 40
0.5
  9
$CHAMFERB
 40
0.5
  9
$CHAMFERC
 40
1.0
  9
$CHAMFERD
 40
0.0
  9
$SKPOLY
 70
     0
  9
$TDCREATE
 40
2457917.612893519
  9
$TDUCREATE
 40
2457917.237893519
  9
$TDUPDATE
 40
2457917.612893519
  9
$TDUUPDATE
 40
2457917.237893519
  9
$TDINDWG
 40
0.0000000116
  9
$TDUSRTIMER
 40
0.0000000116
  9
$USRTIMER
 70
     1
  9
$ANGBASE
 50
0.0
  9
$ANGDIR
 70
     0
  9
$PDMODE
 70
     0
  9
$PDSIZE
 40
0.0
  9
$PLINEWID
 40
0.0
  9
$SPLFRAME
 70
     0
  9
$SPLINETYPE
 70
     6
  9
$SPLINESEGS
 70
     8
  9
$HANDSEED
  5
15A
  9
$SURFTAB1
 70
     6
  9
$SURFTAB2
 70
     6
  9
$SURFTYPE
 70
     6
  9
$SURFU
 70
     6
  9
$SURFV
 70
     6
  9
$UCSBASE
  2

  9
$UCSNAME
  2

  9
$UCSORG
 10
0.0
 20
0.0
 30
0.0
  9
$UCSXDIR
 10
1.0
 20
0.0
 30
0.0
  9
$UCSYDIR
 10
0.0
 20
1.0
 30
0.0
  9
$UCSORTHOREF
  2

  9
$UCSORTHOVIEW
 70
     0
  9
$UCSORGTOP
 10
0.0
 20
0.0
 30
0.0
  9
$UCSORGBOTTOM
 10
0.0
 20
0.0
 30
0.0
  9
$UCSORGLEFT
 10
0.0
 20
0.0
 30
0.0
  9
$UCSORGRIGHT
 10
0.0
 20
0.0
 30
0.0
  9
$UCSORGFRONT
 10
0.0
 20
0.0
 30
0.0
  9
$UCSORGBACK
 10
0.0
 20
0.0
 30
0.0
  9
$PUCSBASE
  2

  9
$PUCSNAME
  2

  9
$PUCSORG
 10
0.0
 20
0.0
 30
0.0
  9
$PUCSXDIR
 10
1.0
 20
0.0
 30
0.0
  9
$PUCSYDIR
 10
0.0
 20
1.0
 30
0.0
  9
$PUCSORTHOREF
  2

  9
$PUCSORTHOVIEW
 70
     0
  9
$PUCSORGTOP
 10
0.0
 20
0.0
 30
0.0
  9
$PUCSORGBOTTOM
 10
0.0
 20
0.0
 30
0.0
  9
$PUCSORGLEFT
 10
0.0
 20
0.0
 30
0.0
  9
$PUCSORGRIGHT
 10
0.0
 20
0.0
 30
0.0
  9
$PUCSORGFRONT
 10
0.0
 20
0.0
 30
0.0
  9
$PUCSORGBACK
 10
0.0
 20
0.0
 30
0.0
  9
$USERI1
 70
     0
  9
$USERI2
 70
     0
  9
$USERI3
 70
     0
  9
$USERI4
 70
     0
  9
$USERI5
 70
     0
  9
$USERR1
 40
0.0
  9
$USERR2
 40
0.0
  9
$USERR3
 40
0.0
  9
$USERR4
 40
0.0
  9
$USERR5
 40
0.0
  9
$WORLDVIEW
 70
     1
  9
$SHADEDGE
 70
     3
  9
$SHADEDIF
 70
    70
  9
$TILEMODE
 70
     1
  9
$MAXACTVP
 70
    64
  9
$PINSBASE
 10
0.0
 20
0.0
 30
0.0
  9
$PLIMCHECK
 70
     0
  9
$PEXTMIN
 10
1.000000000000000E+20
 20
1.000000000000000E+20
 30
1.000000000000000E+20
  9
$PEXTMAX
 10
-1.000000000000000E+20
 20
-1.000000000000000E+20
 30
-1.000000000000000E+20
  9
$PLIMMIN
 10
0.0
 20
0.0
  9
$PLIMMAX
 10
12.0
 20
9.0
  9
$UNITMODE
 70
     0
  9
$VISRETAIN
 70
     1
  9
$PLINEGEN
 70
     0
  9
$PSLTSCALE
 70
     1
  9
$TREEDEPTH
 70
  3020
  9
$CMLSTYLE
  2
Standard
  9
$CMLJUST
 70
     0
  9
$CMLSCALE
 40
1.0
  9
$PROXYGRAPHICS
 70
     1
  9
$MEASUREMENT
 70
     0
  9
$CELWEIGHT
370
    -1
  9
$ENDCAPS
280
     0
  9
$JOINSTYLE
280
     0
  9
$LWDISPLAY
290
     1
  9
$INSUNITS
 70
     1
  9
$HYPERLINKBASE
  1

  9
$STYLESHEET
  1

  9
$XEDIT
290
     1
  9
$CEPSNTYPE
380
     0
  9
$PSTYLEMODE
290
     1
  9
$FINGERPRINTGUID
  2
{A8EDCBE6-E56D-68CE-349D-02035181BEB4}
  9
$VERSIONGUID
  2
{FAEB1C32-E019-11D5-929B-00C0DF256EC4}
  9
$EXTNAMES
290
     1
  9
$PSVPSCALE
 40
0.0
  9
$OLESTARTUP
290
     0
  9
$SORTENTS
280
   127
  9
$INDEXCTL
280
     0
  9
$HIDETEXT
280
     1
  9
$XCLIPFRAME
280
     2
  9
$HALOGAP
280
     0
  9
$OBSCOLOR
 70
   257
  9
$OBSLTYPE
280
     0
  9
$INTERSECTIONDISPLAY
280
     0
  9
$INTERSECTIONCOLOR
 70
   257
  9
$DIMASSOC
280
     2
  9
$PROJECTNAME
  1

  9
$CAMERADISPLAY
290
     0
  9
$LENSLENGTH
 40
50.0
  9
$CAMERAHEIGHT
 40
0.0
  9
$STEPSPERSEC
 40
2.0
  9
$STEPSIZE
 40
6.0
  9
$3DDWFPREC
 40
2.0
  9
$PSOLWIDTH
 40
0.25
  9
$PSOLHEIGHT
 40
4.0
  9
$LOFTANG1
 40
1.570796326794897
  9
$LOFTANG2
 40
1.570796326794897
  9
$LOFTMAG1
 40
0.0
  9
$LOFTMAG2
 40
0.0
  9
$LOFTPARAM
 70
     7
  9
$LOFTNORMALS
280
     1
  9
$LATITUDE
 40
37.795
  9
$LONGITUDE
 40
-122.394
  9
$NORTHDIRECTION
 40
0.0
  9
$TIMEZONE
 70
 -8000
  9
$LIGHTGLYPHDISPLAY
280
     1
  9
$TILEMODELIGHTSYNCH
280
     1
  9
$CMATERIAL
347
3C
  9
$SOLIDHIST
280
     1
  9
$SHOWHIST
280
     1
  9
$DWFFRAME
280
     2
  9
$DGNFRAME
280
     2
  9
$REALWORLDSCALE
290
     1
  9
$INTERFERECOLOR
 62
   256
  9
$CSHADOW
280
     0
  9
$SHADOWPLANELOCATION
 40
0.0
  0
ENDSEC
  0
SECTION
  2
CLASSES
  0
CLASS
  1
ACDBDICTIONARYWDFLT
  2
AcDbDictionaryWithDefault
  3
ObjectDBX Classes
 90
        0
 91
        4
280
     0
281
     0
  0
CLASS
  1
VISUALSTYLE
  2
AcDbVisualStyle
  3
ObjectDBX Classes
 90
     4095
 91
        4
280
     0
281
     0
  0
CLASS
  1
MATERIAL
  2
AcDbMaterial
  3
ObjectDBX Classes
 90
     1153
 91
        4
280
     0
281
     0
  0
CLASS
  1
SUN
  2
AcDbSun
  3
SCENEOE
 90
     1024
 91
        4
280
     0
281
     0
  0
ENDSEC
  0
SECTION
  2
TABLES
  0
TABLE
  2
VPORT
  5
8
330
0
100
AcDbSymbolTable
 70
     1
  0
VPORT
  5
29
330
8
100
AcDbSymbolTableRecord
100
AcDbViewportTableRecord
  2
*Active
 70
     0
 10
0.0
 20
0.0
 11
1.0
 21
1.0
 12
0.0
 22
0.0
 13
0.0
 23
0.0
 14
0.5
 24
0.5
 15
0.5
 25
0.5
 16
0.0
 26
0.0
 36
1.0
 17
91.00082462281999
 27
-128.4993055234307
 37
0.0
 40
256.9986110468615
 41
0.7081814508812795
 42
50.0
 43
0.0
 44
0.0
 50
0.0
 51
0.0
 71
     0
 72
   100
 73
     1
 74
     3
 75
     0
 76
     0
 77
     0
 78
     0
281
     0
 65
     1
110
0.0
120
0.0
130
0.0
111
1.0
121
0.0
131
0.0
112
0.0
122
1.0
132
0.0
 79
     0
146
0.0
 60
     3
 61
     5
292
     1
282
     1
141
0.0
142
0.0
 63
   250
361
3F
  0
ENDTAB
  0
TABLE
  2
LTYPE
  5
5
330
0
100
AcDbSymbolTable
 70
     1
  0
LTYPE
  5
14
330
5
100
AcDbSymbolTableRecord
100
AcDbLinetypeTableRecord
  2
ByBlock
 70
     0
  3

 72
    65
 73
     0
 40
0.0
  0
LTYPE
  5
15
330
5
100
AcDbSymbolTableRecord
100
AcDbLinetypeTableRecord
  2
ByLayer
 70
     0
  3

 72
    65
 73
     0
 40
0.0
  0
LTYPE
  5
16
330
5
100
AcDbSymbolTableRecord
100
AcDbLinetypeTableRecord
  2
Continuous
 70
     0
  3
Solid line
 72
    65
 73
     0
 40
0.0
  0
ENDTAB
  0
TABLE
  2
LAYER
  5
2
330
0
100
AcDbSymbolTable
 70
     2
  0
LAYER
  5
10
330
2
100
AcDbSymbolTableRecord
100
AcDbLayerTableRecord
  2
0
 70
     0
 62
     7
  6
Continuous
370
    -3
390
F
347
3E
  0
LAYER
  5
40
330
2
100
AcDbSymbolTableRecord
100
AcDbLayerTableRecord
  2
_U+30EC_U+30A4_U+30E4_U+30FC 1
 70
     0
 62
     7
  6
Continuous
370
    -3
390
F
347
3E
  0
ENDTAB
  0
TABLE
  2
STYLE
  5
3
330
0
100
AcDbSymbolTable
 70
     1
  0
STYLE
  5
11
330
3
100
AcDbSymbolTableRecord
100
AcDbTextStyleTableRecord
  2
Standard
 70
     0
 40
0.0
 41
1.0
 50
0.0
 71
     0
 42
0.2
  3
txt
  4

  0
ENDTAB
  0
TABLE
  2
VIEW
  5
6
330
0
100
AcDbSymbolTable
 70
     0
  0
ENDTAB
  0
TABLE
  2
UCS
  5
7
330
0
100
AcDbSymbolTable
 70
     0
  0
ENDTAB
  0
TABLE
  2
APPID
  5
9
330
0
100
AcDbSymbolTable
 70
     1
  0
APPID
  5
12
330
9
100
AcDbSymbolTableRecord
100
AcDbRegAppTableRecord
  2
ACAD
 70
     0
  0
ENDTAB
  0
TABLE
  2
DIMSTYLE
  5
A
330
0
100
AcDbSymbolTable
 70
     1
100
AcDbDimStyleTable
  0
DIMSTYLE
105
27
330
A
100
AcDbSymbolTableRecord
100
AcDbDimStyleTableRecord
  2
Standard
 70
     0
178
     0
340
11
  0
ENDTAB
  0
TABLE
  2
BLOCK_RECORD
  5
1
330
0
100
AcDbSymbolTable
 70
    13
  0
BLOCK_RECORD
  5
1F
330
1
100
AcDbSymbolTableRecord
100
AcDbBlockTableRecord
  2
*Model_Space
340
22
 70
     0
280
     1
281
     0
  0
BLOCK_RECORD
  5
1B
330
1
100
AcDbSymbolTableRecord
100
AcDbBlockTableRecord
  2
*Paper_Space
340
1E
 70
     0
280
     1
281
     0
  0
BLOCK_RECORD
  5
23
330
1
100
AcDbSymbolTableRecord
100
AcDbBlockTableRecord
  2
*Paper_Space0
340
26
 70
     0
280
     1
281
     0
  0
BLOCK_RECORD
  5
C1
330
1
100
AcDbSymbolTableRecord
100
AcDbBlockTableRecord
  2
block 2
340
0
102
{BLKREFS
331
C2
102
}
 70
     0
280
     1
281
     0
  0
BLOCK_RECORD
  5
D1
330
1
100
AcDbSymbolTableRecord
100
AcDbBlockTableRecord
  2
block 3
340
0
102
{BLKREFS
331
D2
102
}
 70
     0
280
     1
281
     0
  0
BLOCK_RECORD
  5
EC
330
1
100
AcDbSymbolTableRecord
100
AcDbBlockTableRecord
  2
block 4
340
0
102
{BLKREFS
331
ED
102
}
 70
     0
280
     1
281
     0
  0
BLOCK_RECORD
  5
FC
330
1
100
AcDbSymbolTableRecord
100
AcDbBlockTableRecord
  2
block 5
340
0
102
{BLKREFS
331
FD
102
}
 70
     0
280
     1
281
     0
  0
BLOCK_RECORD
  5
104
330
1
100
AcDbSymbolTableRecord
100
AcDbBlockTableRecord
  2
block 6
340
0
102
{BLKREFS
331
105
102
}
 70
     0
280
     1
281
     0
  0
BLOCK_RECORD
  5
110
330
1
100
AcDbSymbolTableRecord
100
AcDbBlockTableRecord
  2
block 7
340
0
102
{BLKREFS
331
111
102
}
 70
     0
280
     1
281
     0
  0
BLOCK_RECORD
  5
118
330
1
100
AcDbSymbolTableRecord
100
AcDbBlockTableRecord
  2
block 8
340
0
102
{BLKREFS
331
119
102
}
 70
     0
280
     1
281
     0
  0
BLOCK_RECORD
  5
12C
330
1
100
AcDbSymbolTableRecord
100
AcDbBlockTableRecord
  2
block 9
340
0
102
{BLKREFS
331
12D
102
}
 70
     0
280
     1
281
     0
  0
BLOCK_RECORD
  5
132
330
1
100
AcDbSymbolTableRecord
100
AcDbBlockTableRecord
  2
block 10
340
0
102
{BLKREFS
331
133
102
}
 70
     0
280
     1
281
     0
  0
BLOCK_RECORD
  5
13E
330
1
100
AcDbSymbolTableRecord
100
AcDbBlockTableRecord
  2
block 11
340
0
102
{BLKREFS
331
13F
102
}
 70
     0
280
     1
281
     0
  0
BLOCK_RECORD
  5
144
330
1
100
AcDbSymbolTableRecord
100
AcDbBlockTableRecord
  2
block 12
340
0
102
{BLKREFS
331
145
102
}
 70
     0
280
     1
281
     0
  0
BLOCK_RECORD
  5
150
330
1
100
AcDbSymbolTableRecord
100
AcDbBlockTableRecord
  2
block 13
340
0
102
{BLKREFS
331
151
102
}
 70
     0
280
     1
281
     0
  0
ENDTAB
  0
ENDSEC
  0
SECTION
  2
BLOCKS
  0
BLOCK
  5
20
330
1F
100
AcDbEntity
  8
0
100
AcDbBlockBegin
  2
*Model_Space
 70
     0
 10
0.0
 20
0.0
 30
0.0
  3
*Model_Space
  1

  0
ENDBLK
  5
21
330
1F
100
AcDbEntity
  8
0
100
AcDbBlockEnd
  0
BLOCK
  5
1C
330
1B
100
AcDbEntity
 67
     1
  8
0
100
AcDbBlockBegin
  2
*Paper_Space
 70
     0
 10
0.0
 20
0.0
 30
0.0
  3
*Paper_Space
  1

  0
ENDBLK
  5
1D
330
1B
100
AcDbEntity
 67
     1
  8
0
100
AcDbBlockEnd
  0
BLOCK
  5
24
330
23
100
AcDbEntity
  8
0
100
AcDbBlockBegin
  2
*Paper_Space0
 70
     0
 10
0.0
 20
0.0
 30
0.0
  3
*Paper_Space0
  1

  0
ENDBLK
  5
25
330
23
100
AcDbEntity
  8
0
100
AcDbBlockEnd
  0
BLOCK
  5
C3
330
C1
100
AcDbEntity
  8
0
100
AcDbBlockBegin
  2
block 2
 70
     0
 10
0.0
 20
0.0
 30
0.0
  3
block 2
  1

  0
POLYLINE
  5
C5
330
C1
100
AcDbEntity
  8
_U+30EC_U+30A4_U+30E4_U+30FC 1
 62
     7
420
 16777215
370
     9
100
AcDb2dPolyline
 66
     1
 10
0.0
 20
0.0
 30
0.0
  0
VERTEX
  5
C6
330
C5
100
AcDbEntity
  8
_U+30EC_U+30A4_U+30E4_U+30FC 1
 62
     7
420
 16777215
370
     9
100
AcDbVertex
100
AcDb2dVertex
 10
65.75259026695612
 20
-117.2696833040158
 30
0.0
  0
VERTEX
  5
C7
330
C5
100
AcDbEntity
  8
_U+30EC_U+30A4_U+30E4_U+30FC 1
 62
     7
420
 16777215
370
     9
100
AcDbVertex
100
AcDb2dVertex
 10
110.7518993967059
 20
-117.2696833040158
 30
0.0
  0
SEQEND
  5
C8
330
C5
100
AcDbEntity
  8
_U+30EC_U+30A4_U+30E4_U+30FC 1
 62
     7
420
 16777215
370
     9
  0
POLYLINE
  5
C9
330
C1
100
AcDbEntity
  8
_U+30EC_U+30A4_U+30E4_U+30FC 1
 62
     7
420
 16777215
370
     9
100
AcDb2dPolyline
 66
     1
 10
0.0
 20
0.0
 30
0.0
  0
VERTEX
  5
CA
330
C9
100
AcDbEntity
  8
_U+30EC_U+30A4_U+30E4_U+30FC 1
 62
     7
420
 16777215
370
     9
100
AcDbVertex
100
AcDb2dVertex
 10
65.75259026695612
 20
-118.729689414762
 30
0.0
  0
VERTEX
  5
CB
330
C9
100
AcDbEntity
  8
_U+30EC_U+30A4_U+30E4_U+30FC 1
 62
     7
420
 16777215
370
     9
100
AcDbVertex
100
AcDb2dVertex
 10
65.75259026695612
 20
-116.2699110820436
 30
0.0
  0
SEQEND
  5
CC
330
C9
100
AcDbEntity
  8
_U+30EC_U+30A4_U+30E4_U+30FC 1
 62
     7
420
 16777215
370
     9
  0
POLYLINE
  5
CD
330
C1
100
AcDbEntity
  8
_U+30EC_U+30A4_U+30E4_U+30FC 1
 62
     7
420
 16777215
370
     9
100
AcDb2dPolyline
 66
     1
 10
0.0
 20
0.0
 30
0.0
  0
VERTEX
  5
CE
330
CD
100
AcDbEntity
  8
_U+30EC_U+30A4_U+30E4_U+30FC 1
 62
     7
420
 16777215
370
     9
100
AcDbVertex
100
AcDb2dVertex
 10
110.7518993967059
 20
-118.729689414762
 30
0.0
  0
VERTEX
  5
CF
330
CD
100
AcDbEntity
  8
_U+30EC_U+30A4_U+30E4_U+30FC 1
 62
     7
420
 16777215
370
     9
100
AcDbVertex
100
AcDb2dVertex
 10
110.7518993967059
 20
-116.2699110820436
 30
0.0
  0
SEQEND
  5
D0
330
CD
100
AcDbEntity
  8
_U+30EC_U+30A4_U+30E4_U+30FC 1
 62
     7
420
 16777215
370
     9
  0
INSERT
  5
D2
330
C1
100
AcDbEntity
  8
_U+30EC_U+30A4_U+30E4_U+30FC 1
100
AcDbBlockReference
  2
block 3
 10
0.0
 20
0.0
 30
0.0
  0
ENDBLK
  5
C4
330
C1
100
AcDbEntity
  8
0
100
AcDbBlockEnd
  0
BLOCK
  5
D3
330
D1
100
AcDbEntity
  8
0
100
AcDbBlockBegin
  2
block 3
 70
     0
 10
0.0
 20
0.0
 30
0.0
  3
block 3
  1

  0
POLYLINE
  5
D5
330
D1
100
AcDbEntity
  8
_U+30EC_U+30A4_U+30E4_U+30FC 1
370
     0
100
AcDb2dPolyline
 66
     1
 10
0.0
 20
0.0
 30
0.0
  0
VERTEX
  5
D6
330
D5
100
AcDbEntity
  8
_U+30EC_U+30A4_U+30E4_U+30FC 1
370
     0
100
AcDbVertex
100
AcDb2dVertex
 10
87.99514564857414
 20
-116.2762789965386
 30
0.0
  0
VERTEX
  5
D7
330
D5
100
AcDbEntity
  8
_U+30EC_U+30A4_U+30E4_U+30FC 1
370
     0
100
AcDbVertex
100
AcDb2dVertex
 10
87.99514564857414
 20
-116.6232001119032
 30
0.0
  0
VERTEX
  5
D8
330
D5
100
AcDbEntity
  8
_U+30EC_U+30A4_U+30E4_U+30FC 1
370
     0
100
AcDbVertex
100
AcDb2dVertex
 10
87.77724335913209
 20
-116.6232001119032
 30
0.0
  0
VERTEX
  5
D9
330
D5
100
AcDbEntity
  8
_U+30EC_U+30A4_U+30E4_U+30FC 1
370
     0
100
AcDbVertex
100
AcDb2dVertex
 10
87.77724335913209
 20
-116.2762789965386
 30
0.0
  0
VERTEX
  5
DA
330
D5
100
AcDbEntity
  8
_U+30EC_U+30A4_U+30E4_U+30FC 1
370
     0
100
AcDbVertex
100
AcDb2dVertex
 10
87.12146943351478
 20
-116.2762789965386
 30
0.0
  0
VERTEX
  5
DB
330
D5
100
AcDbEntity
  8
_U+30EC_U+30A4_U+30E4_U+30FC 1
370
     0
100
AcDbVertex
100
AcDb2dVertex
 10
87.12146943351478
 20
-116.0520032804488
 30
0.0
  0
VERTEX
  5
DC
330
D5
100
AcDbEntity
  8
_U+30EC_U+30A4_U+30E4_U+30FC 1
370
     0
100
AcDbVertex
100
AcDb2dVertex
 10
87.80049775365752
 20
-115.07893606064
 30
0.0
  0
VERTEX
  5
DD
330
D5
100
AcDbEntity
  8
_U+30EC_U+30A4_U+30E4_U+30FC 1
370
     0
100
AcDbVertex
100
AcDb2dVertex
 10
87.99514564857414
 20
-115.07893606064
 30
0.0
  0
VERTEX
  5
DE
330
D5
100
AcDbEntity
  8
_U+30EC_U+30A4_U+30E4_U+30FC 1
370
     0
100
AcDbVertex
100
AcDb2dVertex
 10
87.99514564857414
 20
-116.0773247322654
 30
0.0
  0
VERTEX
  5
DF
330
D5
100
AcDbEntity
  8
_U+30EC_U+30A4_U+30E4_U+30FC 1
370
     0
100
AcDbVertex
100
AcDb2dVertex
 10
88.20254039678618
 20
-116.0773247322654
 30
0.0
  0
VERTEX
  5
E0
330
D5
100
AcDbEntity
  8
_U+30EC_U+30A4_U+30E4_U+30FC 1
370
     0
100
AcDbVertex
100
AcDb2dVertex
 10
88.20254039678618
 20
-116.2762789965386
 30
0.0
  0
VERTEX
  5
E1
330
D5
100
AcDbEntity
  8
_U+30EC_U+30A4_U+30E4_U+30FC 1
370
     0
100
AcDbVertex
100
AcDb2dVertex
 10
87.99514564857414
 20
-116.2762789965386
 30
0.0
  0
SEQEND
  5
E2
330
D5
100
AcDbEntity
  8
_U+30EC_U+30A4_U+30E4_U+30FC 1
370
     0
  0
POLYLINE
  5
E3
330
D1
100
AcDbEntity
  8
_U+30EC_U+30A4_U+30E4_U+30FC 1
370
     0
100
AcDb2dPolyline
 66
     1
 10
0.0
 20
0.0
 30
0.0
  0
VERTEX
  5
E4
330
E3
100
AcDbEntity
  8
_U+30EC_U+30A4_U+30E4_U+30FC 1
370
     0
100
AcDbVertex
100
AcDb2dVertex
 10
87.77724335913209
 20
-115.4215508066481
 30
0.0
  0
VERTEX
  5
E5
330
E3
100
AcDbEntity
  8
_U+30EC_U+30A4_U+30E4_U+30FC 1
370
     0
100
AcDbVertex
100
AcDb2dVertex
 10
87.32042369778796
 20
-116.0773247322654
 30
0.0
  0
VERTEX
  5
E6
330
E3
100
AcDbEntity
  8
_U+30EC_U+30A4_U+30E4_U+30FC 1
370
     0
100
AcDbVertex
100
AcDb2dVertex
 10
87.77724335913209
 20
-116.0773247322654
 30
0.0
  0
VERTEX
  5
E7
330
E3
100
AcDbEntity
  8
_U+30EC_U+30A4_U+30E4_U+30FC 1
370
     0
100
AcDbVertex
100
AcDb2dVertex
 10
87.77724335913209
 20
-115.4215508066481
 30
0.0
  0
SEQEND
  5
E8
330
E3
100
AcDbEntity
  8
_U+30EC_U+30A4_U+30E4_U+30FC 1
370
     0
  0
HATCH
  5
E9
330
D1
100
AcDbEntity
  8
_U+30EC_U+30A4_U+30E4_U+30FC 1
 62
     7
420
 16777215
100
AcDbHatch
 10
0.0
 20
0.0
 30
0.0
210
0.0
220
0.0
230
1.0
  2
SOLID
 70
     1
 71
     0
 91
        2
 92
        1
 93
       11
 72
     1
 10
87.99514564857414
 20
-116.2762789965386
 11
87.99514564857414
 21
-116.6232001119032
 72
     1
 10
87.99514564857414
 20
-116.6232001119032
 11
87.77724335913209
 21
-116.6232001119032
 72
     1
 10
87.77724335913209
 20
-116.6232001119032
 11
87.77724335913209
 21
-116.2762789965386
 72
     1
 10
87.77724335913209
 20
-116.2762789965386
 11
87.12146943351478
 21
-116.2762789965386
 72
     1
 10
87.12146943351478
 20
-116.2762789965386
 11
87.12146943351478
 21
-116.0520032804488
 72
     1
 10
87.12146943351478
 20
-116.0520032804488
 11
87.80049775365752
 21
-115.07893606064
 72
     1
 10
87.80049775365752
 20
-115.07893606064
 11
87.99514564857414
 21
-115.07893606064
 72
     1
 10
87.99514564857414
 20
-115.07893606064
 11
87.99514564857414
 21
-116.0773247322654
 72
     1
 10
87.99514564857414
 20
-116.0773247322654
 11
88.20254039678618
 21
-116.0773247322654
 72
     1
 10
88.20254039678618
 20
-116.0773247322654
 11
88.20254039678618
 21
-116.2762789965386
 72
     1
 10
88.20254039678618
 20
-116.2762789965386
 11
87.99514564857414
 21
-116.2762789965386
 97
        0
 92
        1
 93
        3
 72
     1
 10
87.77724335913209
 20
-115.4215508066481
 11
87.32042369778796
 21
-116.0773247322654
 72
     1
 10
87.32042369778796
 20
-116.0773247322654
 11
87.77724335913209
 21
-116.0773247322654
 72
     1
 10
87.77724335913209
 20
-116.0773247322654
 11
87.77724335913209
 21
-115.4215508066481
 97
        0
 75
     2
 76
     1
 98
        0
  0
SPLINE
  5
EA
330
D1
100
AcDbEntity
  8
_U+30EC_U+30A4_U+30E4_U+30FC 1
370
     0
100
AcDbSpline
210
0.0
220
0.0
230
1.0
 70
    11
 71
     3
 72
    53
 73
    49
 74
     0
 42
0.0000000001
 43
0.0000000001
 12
1.0
 22
0.0
 32
0.0
 13
1.0
 23
0.0
 33
0.0
 40
0.0
 40
0.0
 40
0.0
 40
0.0
 40
1.0
 40
1.0
 40
1.0
 40
2.0
 40
2.0
 40
2.0
 40
3.0
 40
3.0
 40
3.0
 40
4.0
 40
4.0
 40
4.0
 40
5.0
 40
5.0
 40
5.0
 40
6.0
 40
6.0
 40
6.0
 40
7.0
 40
7.0
 40
7.0
 40
8.0
 40
8.0
 40
8.0
 40
9.0
 40
9.0
 40
9.0
 40
10.0
 40
10.0
 40
10.0
 40
11.0
 40
11.0
 40
11.0
 40
12.0
 40
12.0
 40
12.0
 40
13.0
 40
13.0
 40
13.0
 40
14.0
 40
14.0
 40
14.0
 40
15.0
 40
15.0
 40
15.0
 40
16.0
 40
16.0
 40
16.0
 40
16.0
 10
88.82093503638852
 20
-116.6740152703107
 30
0.0
 10
88.74255911409908
 20
-116.6740152703107
 30
0.0
 10
88.64110105205847
 20
-116.6569620476587
 30
0.0
 10
88.53947073524361
 20
-116.5935722907301
 30
0.0
 10
88.36601017756128
 20
-116.4835014899763
 30
0.0
 10
88.344822840327
 20
-116.3524156067626
 30
0.0
 10
88.32587481515812
 20
-116.2445841180743
 30
0.0
 10
88.32587481515812
 20
-116.2445841180743
 30
0.0
 10
88.54791121918247
 20
-116.2445841180743
 30
0.0
 10
88.54791121918247
 20
-116.2445841180743
 30
0.0
 10
88.60303274694647
 20
-116.4433661275732
 30
0.0
 10
88.72998451557793
 20
-116.4729939487463
 30
0.0
 10
88.82300209367968
 20
-116.4729939487463
 30
0.0
 10
88.96270071560654
 20
-116.4729939487463
 30
0.0
 10
89.1149739360546
 20
-116.3736029439969
 30
0.0
 10
89.1149739360546
 20
-116.1408867439683
 30
0.0
 10
89.1149739360546
 20
-115.8849161494142
 30
0.0
 10
88.93513995172455
 20
-115.8151529658379
 30
0.0
 10
88.8145616097408
 20
-115.8151529658379
 30
0.0
 10
88.78286673127651
 20
-115.8151529658379
 30
0.0
 10
88.64110105205847
 20
-115.8151529658379
 30
0.0
 10
88.55221758853904
 20
-115.9441717917605
 30
0.0
 10
88.55221758853904
 20
-115.9441717917605
 30
0.0
 10
88.37668997356555
 20
-115.9250515118174
 30
0.0
 10
88.37668997356555
 20
-115.9250515118174
 30
0.0
 10
88.37668997356555
 20
-115.9250515118174
 30
0.0
 10
88.49726831554929
 20
-115.07893606064
 30
0.0
 10
88.49726831554929
 20
-115.07893606064
 30
0.0
 10
88.49726831554929
 20
-115.07893606064
 30
0.0
 10
89.2756876404415
 20
-115.07893606064
 30
0.0
 10
89.2756876404415
 20
-115.07893606064
 30
0.0
 10
89.2756876404415
 20
-115.07893606064
 30
0.0
 10
89.2756876404415
 20
-115.2735839555566
 30
0.0
 10
89.2756876404415
 20
-115.2735839555566
 30
0.0
 10
89.2756876404415
 20
-115.2735839555566
 30
0.0
 10
88.66004907722736
 20
-115.2735839555566
 30
0.0
 10
88.66004907722736
 20
-115.2735839555566
 30
0.0
 10
88.66004907722736
 20
-115.2735839555566
 30
0.0
 10
88.59459226300761
 20
-115.6966416811453
 30
0.0
 10
88.59459226300761
 20
-115.6966416811453
 30
0.0
 10
88.65591496264506
 20
-115.6627074906156
 30
0.0
 10
88.73842499951678
 20
-115.6225721282124
 30
0.0
 10
88.85676402943511
 20
-115.6225721282124
 30
0.0
 10
89.11066756669803
 20
-115.6225721282124
 30
0.0
 10
89.34769013608322
 20
-115.8087795391902
 30
0.0
 10
89.34769013608322
 20
-116.1217664640251
 30
0.0
 10
89.34769013608322
 20
-116.4392320129909
 30
0.0
 10
89.12341441999345
 20
-116.6740152703107
 30
0.0
 10
88.82093503638852
 20
-116.6740152703107
 30
0.0
  0
HATCH
  5
EB
330
D1
100
AcDbEntity
  8
_U+30EC_U+30A4_U+30E4_U+30FC 1
 62
     7
420
 16777215
100
AcDbHatch
 10
0.0
 20
0.0
 30
0.0
210
0.0
220
0.0
230
1.0
  2
SOLID
 70
     1
 71
     0
 91
        1
 92
        1
 93
        1
 72
     4
 94
        3
 73
     0
 74
     1
 95
       53
 96
       49
 40
0.0
 40
0.0
 40
0.0
 40
0.0
 40
1.0
 40
1.0
 40
1.0
 40
2.0
 40
2.0
 40
2.0
 40
3.0
 40
3.0
 40
3.0
 40
4.0
 40
4.0
 40
4.0
 40
5.0
 40
5.0
 40
5.0
 40
6.0
 40
6.0
 40
6.0
 40
7.0
 40
7.0
 40
7.0
 40
8.0
 40
8.0
 40
8.0
 40
9.0
 40
9.0
 40
9.0
 40
10.0
 40
10.0
 40
10.0
 40
11.0
 40
11.0
 40
11.0
 40
12.0
 40
12.0
 40
12.0
 40
13.0
 40
13.0
 40
13.0
 40
14.0
 40
14.0
 40
14.0
 40
15.0
 40
15.0
 40
15.0
 40
16.0
 40
16.0
 40
16.0
 40
16.0
 10
88.82093503638852
 20
-116.6740152703107
 10
88.74255911409908
 20
-116.6740152703107
 10
88.64110105205847
 20
-116.6569620476587
 10
88.53947073524361
 20
-116.5935722907301
 10
88.36601017756128
 20
-116.4835014899763
 10
88.344822840327
 20
-116.3524156067626
 10
88.32587481515812
 20
-116.2445841180743
 10
88.32587481515812
 20
-116.2445841180743
 10
88.54791121918247
 20
-116.2445841180743
 10
88.54791121918247
 20
-116.2445841180743
 10
88.60303274694647
 20
-116.4433661275732
 10
88.72998451557793
 20
-116.4729939487463
 10
88.82300209367968
 20
-116.4729939487463
 10
88.96270071560654
 20
-116.4729939487463
 10
89.1149739360546
 20
-116.3736029439969
 10
89.1149739360546
 20
-116.1408867439683
 10
89.1149739360546
 20
-115.8849161494142
 10
88.93513995172455
 20
-115.8151529658379
 10
88.8145616097408
 20
-115.8151529658379
 10
88.78286673127651
 20
-115.8151529658379
 10
88.64110105205847
 20
-115.8151529658379
 10
88.55221758853904
 20
-115.9441717917605
 10
88.55221758853904
 20
-115.9441717917605
 10
88.37668997356555
 20
-115.9250515118174
 10
88.37668997356555
 20
-115.9250515118174
 10
88.37668997356555
 20
-115.9250515118174
 10
88.49726831554929
 20
-115.07893606064
 10
88.49726831554929
 20
-115.07893606064
 10
88.49726831554929
 20
-115.07893606064
 10
89.2756876404415
 20
-115.07893606064
 10
89.2756876404415
 20
-115.07893606064
 10
89.2756876404415
 20
-115.07893606064
 10
89.2756876404415
 20
-115.2735839555566
 10
89.2756876404415
 20
-115.2735839555566
 10
89.2756876404415
 20
-115.2735839555566
 10
88.66004907722736
 20
-115.2735839555566
 10
88.66004907722736
 20
-115.2735839555566
 10
88.66004907722736
 20
-115.2735839555566
 10
88.59459226300761
 20
-115.6966416811453
 10
88.59459226300761
 20
-115.6966416811453
 10
88.65591496264506
 20
-115.6627074906156
 10
88.73842499951678
 20
-115.6225721282124
 10
88.85676402943511
 20
-115.6225721282124
 10
89.11066756669803
 20
-115.6225721282124
 10
89.34769013608322
 20
-115.8087795391902
 10
89.34769013608322
 20
-116.1217664640251
 10
89.34769013608322
 20
-116.4392320129909
 10
89.12341441999345
 20
-116.6740152703107
 10
88.82093503638852
 20
-116.6740152703107
 97
        0
 97
        0
 75
     2
 76
     1
 98
        0
  0
ENDBLK
  5
D4
330
D1
100
AcDbEntity
  8
0
100
AcDbBlockEnd
  0
BLOCK
  5
EE
330
EC
100
AcDbEntity
  8
0
100
AcDbBlockBegin
  2
block 4
 70
     0
 10
0.0
 20
0.0
 30
0.0
  3
block 4
  1

  0
POLYLINE
  5
F0
330
EC
100
AcDbEntity
  8
_U+30EC_U+30A4_U+30E4_U+30FC 1
 62
     7
420
 16777215
370
     9
100
AcDb2dPolyline
 66
     1
 10
0.0
 20
0.0
 30
0.0
  0
VERTEX
  5
F1
330
F0
100
AcDbEntity
  8
_U+30EC_U+30A4_U+30E4_U+30FC 1
 62
     7
420
 16777215
370
     9
100
AcDbVertex
100
AcDb2dVertex
 10
65.75259026695612
 20
-142.2693510755437
 30
0.0
  0
VERTEX
  5
F2
330
F0
100
AcDbEntity
  8
_U+30EC_U+30A4_U+30E4_U+30FC 1
 62
     7
420
 16777215
370
     9
100
AcDbVertex
100
AcDb2dVertex
 10
80.75252460649813
 20
-142.2693510755437
 30
0.0
  0
SEQEND
  5
F3
330
F0
100
AcDbEntity
  8
_U+30EC_U+30A4_U+30E4_U+30FC 1
 62
     7
420
 16777215
370
     9
  0
POLYLINE
  5
F4
330
EC
100
AcDbEntity
  8
_U+30EC_U+30A4_U+30E4_U+30FC 1
 62
     7
420
 16777215
370
     9
100
AcDb2dPolyline
 66
     1
 10
0.0
 20
0.0
 30
0.0
  0
VERTEX
  5
F5
330
F4
100
AcDbEntity
  8
_U+30EC_U+30A4_U+30E4_U+30FC 1
 62
     7
420
 16777215
370
     9
100
AcDbVertex
100
AcDb2dVertex
 10
65.75259026695612
 20
-124.8096027465754
 30
0.0
  0
VERTEX
  5
F6
330
F4
100
AcDbEntity
  8
_U+30EC_U+30A4_U+30E4_U+30FC 1
 62
     7
420
 16777215
370
     9
100
AcDbVertex
100
AcDb2dVertex
 10
65.75259026695612
 20
-143.2697935752936
 30
0.0
  0
SEQEND
  5
F7
330
F4
100
AcDbEntity
  8
_U+30EC_U+30A4_U+30E4_U+30FC 1
 62
     7
420
 16777215
370
     9
  0
POLYLINE
  5
F8
330
EC
100
AcDbEntity
  8
_U+30EC_U+30A4_U+30E4_U+30FC 1
 62
     7
420
 16777215
370
     9
100
AcDb2dPolyline
 66
     1
 10
0.0
 20
0.0
 30
0.0
  0
VERTEX
  5
F9
330
F8
100
AcDbEntity
  8
_U+30EC_U+30A4_U+30E4_U+30FC 1
 62
     7
420
 16777215
370
     9
100
AcDbVertex
100
AcDb2dVertex
 10
80.75252460649813
 20
-140.80930968702
 30
0.0
  0
VERTEX
  5
FA
330
F8
100
AcDbEntity
  8
_U+30EC_U+30A4_U+30E4_U+30FC 1
 62
     7
420
 16777215
370
     9
100
AcDbVertex
100
AcDb2dVertex
 10
80.75252460649813
 20
-143.2697935752936
 30
0.0
  0
SEQEND
  5
FB
330
F8
100
AcDbEntity
  8
_U+30EC_U+30A4_U+30E4_U+30FC 1
 62
     7
420
 16777215
370
     9
  0
INSERT
  5
FD
330
EC
100
AcDbEntity
  8
_U+30EC_U+30A4_U+30E4_U+30FC 1
100
AcDbBlockReference
  2
block 5
 10
0.0
 20
0.0
 30
0.0
  0
ENDBLK
  5
EF
330
EC
100
AcDbEntity
  8
0
100
AcDbBlockEnd
  0
BLOCK
  5
FE
330
FC
100
AcDbEntity
  8
0
100
AcDbBlockBegin
  2
block 5
 70
     0
 10
0.0
 20
0.0
 30
0.0
  3
block 5
  1

  0
SPLINE
  5
100
330
FC
100
AcDbEntity
  8
_U+30EC_U+30A4_U+30E4_U+30FC 1
370
     0
100
AcDbSpline
210
0.0
220
0.0
230
1.0
 70
    11
 71
     3
 72
    26
 73
    22
 74
     0
 42
0.0000000001
 43
0.0000000001
 12
1.0
 22
0.0
 32
0.0
 13
1.0
 23
0.0
 33
0.0
 40
0.0
 40
0.0
 40
0.0
 40
0.0
 40
1.0
 40
1.0
 40
1.0
 40
2.0
 40
2.0
 40
2.0
 40
3.0
 40
3.0
 40
3.0
 40
4.0
 40
4.0
 40
4.0
 40
5.0
 40
5.0
 40
5.0
 40
6.0
 40
6.0
 40
6.0
 40
7.0
 40
7.0
 40
7.0
 40
7.0
 10
72.61486136422477
 20
-141.62339677449
 30
0.0
 10
72.61486136422477
 20
-141.62339677449
 30
0.0
 10
72.61486136422477
 20
-140.5192436714674
 30
0.0
 10
72.61486136422477
 20
-140.5192436714674
 30
0.0
 10
72.61486136422477
 20
-140.5192436714674
 30
0.0
 10
72.28482121673783
 20
-140.5192436714674
 30
0.0
 10
72.28482121673783
 20
-140.5192436714674
 30
0.0
 10
72.28482121673783
 20
-140.5192436714674
 30
0.0
 10
72.28482121673783
 20
-140.3711045656017
 30
0.0
 10
72.28482121673783
 20
-140.3711045656017
 30
0.0
 10
72.61692842151591
 20
-140.3562906550151
 30
0.0
 10
72.66343721056678
 20
-140.1933376385628
 30
0.0
 10
72.69306503173993
 20
-140.0789604684525
 30
0.0
 10
72.69306503173993
 20
-140.0789604684525
 30
0.0
 10
72.83913708031453
 20
-140.0789604684525
 30
0.0
 10
72.83913708031453
 20
-140.0789604684525
 30
0.0
 10
72.83913708031453
 20
-140.0789604684525
 30
0.0
 10
72.83913708031453
 20
-141.62339677449
 30
0.0
 10
72.83913708031453
 20
-141.62339677449
 30
0.0
 10
72.83913708031453
 20
-141.62339677449
 30
0.0
 10
72.61486136422477
 20
-141.62339677449
 30
0.0
 10
72.61486136422477
 20
-141.62339677449
 30
0.0
  0
HATCH
  5
101
330
FC
100
AcDbEntity
  8
_U+30EC_U+30A4_U+30E4_U+30FC 1
 62
     7
420
 16777215
100
AcDbHatch
 10
0.0
 20
0.0
 30
0.0
210
0.0
220
0.0
230
1.0
  2
SOLID
 70
     1
 71
     0
 91
        1
 92
        1
 93
        1
 72
     4
 94
        3
 73
     0
 74
     1
 95
       26
 96
       22
 40
0.0
 40
0.0
 40
0.0
 40
0.0
 40
1.0
 40
1.0
 40
1.0
 40
2.0
 40
2.0
 40
2.0
 40
3.0
 40
3.0
 40
3.0
 40
4.0
 40
4.0
 40
4.0
 40
5.0
 40
5.0
 40
5.0
 40
6.0
 40
6.0
 40
6.0
 40
7.0
 40
7.0
 40
7.0
 40
7.0
 10
72.61486136422477
 20
-141.62339677449
 10
72.61486136422477
 20
-141.62339677449
 10
72.61486136422477
 20
-140.5192436714674
 10
72.61486136422477
 20
-140.5192436714674
 10
72.61486136422477
 20
-140.5192436714674
 10
72.28482121673783
 20
-140.5192436714674
 10
72.28482121673783
 20
-140.5192436714674
 10
72.28482121673783
 20
-140.5192436714674
 10
72.28482121673783
 20
-140.3711045656017
 10
72.28482121673783
 20
-140.3711045656017
 10
72.61692842151591
 20
-140.3562906550151
 10
72.66343721056678
 20
-140.1933376385628
 10
72.69306503173993
 20
-140.0789604684525
 10
72.69306503173993
 20
-140.0789604684525
 10
72.83913708031453
 20
-140.0789604684525
 10
72.83913708031453
 20
-140.0789604684525
 10
72.83913708031453
 20
-140.0789604684525
 10
72.83913708031453
 20
-141.62339677449
 10
72.83913708031453
 20
-141.62339677449
 10
72.83913708031453
 20
-141.62339677449
 10
72.61486136422477
 20
-141.62339677449
 10
72.61486136422477
 20
-141.62339677449
 97
        0
 97
        0
 75
     2
 76
     1
 98
        0
  0
SPLINE
  5
102
330
FC
100
AcDbEntity
  8
_U+30EC_U+30A4_U+30E4_U+30FC 1
370
     0
100
AcDbSpline
210
0.0
220
0.0
230
1.0
 70
    11
 71
     3
 72
    53
 73
    49
 74
     0
 42
0.0000000001
 43
0.0000000001
 12
1.0
 22
0.0
 32
0.0
 13
1.0
 23
0.0
 33
0.0
 40
0.0
 40
0.0
 40
0.0
 40
0.0
 40
1.0
 40
1.0
 40
1.0
 40
2.0
 40
2.0
 40
2.0
 40
3.0
 40
3.0
 40
3.0
 40
4.0
 40
4.0
 40
4.0
 40
5.0
 40
5.0
 40
5.0
 40
6.0
 40
6.0
 40
6.0
 40
7.0
 40
7.0
 40
7.0
 40
8.0
 40
8.0
 40
8.0
 40
9.0
 40
9.0
 40
9.0
 40
10.0
 40
10.0
 40
10.0
 40
11.0
 40
11.0
 40
11.0
 40
12.0
 40
12.0
 40
12.0
 40
13.0
 40
13.0
 40
13.0
 40
14.0
 40
14.0
 40
14.0
 40
15.0
 40
15.0
 40
15.0
 40
16.0
 40
16.0
 40
16.0
 40
16.0
 10
73.82133380315925
 20
-141.6740396781232
 30
0.0
 10
73.74295788086982
 20
-141.6740396781232
 30
0.0
 10
73.64149981882922
 20
-141.6571587102454
 30
0.0
 10
73.53986950201434
 20
-141.5937689533168
 30
0.0
 10
73.36640894433201
 20
-141.4838704073374
 30
0.0
 10
73.34522160709773
 20
-141.3526122693494
 30
0.0
 10
73.32627358192885
 20
-141.244780780661
 30
0.0
 10
73.32627358192885
 20
-141.244780780661
 30
0.0
 10
73.54830998595321
 20
-141.244780780661
 30
0.0
 10
73.54830998595321
 20
-141.244780780661
 30
0.0
 10
73.6034315137172
 20
-141.4435627901599
 30
0.0
 10
73.73038328234865
 20
-141.4731906113331
 30
0.0
 10
73.8234008604504
 20
-141.4731906113331
 30
0.0
 10
73.96309948237729
 20
-141.4731906113331
 30
0.0
 10
74.11537270282533
 20
-141.3736273518094
 30
0.0
 10
74.11537270282533
 20
-141.141083406555
 30
0.0
 10
74.11537270282533
 20
-140.885112812001
 30
0.0
 10
73.93553871849528
 20
-140.8151773736504
 30
0.0
 10
73.81496037651154
 20
-140.8151773736504
 30
0.0
 10
73.78326549804724
 20
-140.8151773736504
 30
0.0
 10
73.64149981882922
 20
-140.8151773736504
 30
0.0
 10
73.55261635530977
 20
-140.9443684543473
 30
0.0
 10
73.55261635530977
 20
-140.9443684543473
 30
0.0
 10
73.37708874033629
 20
-140.9254204291784
 30
0.0
 10
73.37708874033629
 20
-140.9254204291784
 30
0.0
 10
73.37708874033629
 20
-140.9254204291784
 30
0.0
 10
73.49766708232004
 20
-140.0789604684525
 30
0.0
 10
73.49766708232004
 20
-140.0789604684525
 30
0.0
 10
73.49766708232004
 20
-140.0789604684525
 30
0.0
 10
74.27608640721223
 20
-140.0789604684525
 30
0.0
 10
74.27608640721223
 20
-140.0789604684525
 30
0.0
 10
74.27608640721223
 20
-140.0789604684525
 30
0.0
 10
74.27608640721223
 20
-140.2736083633691
 30
0.0
 10
74.27608640721223
 20
-140.2736083633691
 30
0.0
 10
74.27608640721223
 20
-140.2736083633691
 30
0.0
 10
73.66044784399809
 20
-140.2736083633691
 30
0.0
 10
73.66044784399809
 20
-140.2736083633691
 30
0.0
 10
73.66044784399809
 20
-140.2736083633691
 30
0.0
 10
73.59499102977834
 20
-140.6966660889578
 30
0.0
 10
73.59499102977834
 20
-140.6966660889578
 30
0.0
 10
73.65631372941579
 20
-140.6629041532023
 30
0.0
 10
73.73882376628752
 20
-140.6225965360249
 30
0.0
 10
73.85716279620586
 20
-140.6225965360249
 30
0.0
 10
74.11106633346877
 20
-140.6225965360249
 30
0.0
 10
74.34808890285396
 20
-140.8089762017769
 30
0.0
 10
74.34808890285396
 20
-141.1221353813861
 30
0.0
 10
74.34808890285396
 20
-141.4394286755777
 30
0.0
 10
74.1238131867642
 20
-141.6740396781232
 30
0.0
 10
73.82133380315925
 20
-141.6740396781232
 30
0.0
  0
HATCH
  5
103
330
FC
100
AcDbEntity
  8
_U+30EC_U+30A4_U+30E4_U+30FC 1
 62
     7
420
 16777215
100
AcDbHatch
 10
0.0
 20
0.0
 30
0.0
210
0.0
220
0.0
230
1.0
  2
SOLID
 70
     1
 71
     0
 91
        1
 92
        1
 93
        1
 72
     4
 94
        3
 73
     0
 74
     1
 95
       53
 96
       49
 40
0.0
 40
0.0
 40
0.0
 40
0.0
 40
1.0
 40
1.0
 40
1.0
 40
2.0
 40
2.0
 40
2.0
 40
3.0
 40
3.0
 40
3.0
 40
4.0
 40
4.0
 40
4.0
 40
5.0
 40
5.0
 40
5.0
 40
6.0
 40
6.0
 40
6.0
 40
7.0
 40
7.0
 40
7.0
 40
8.0
 40
8.0
 40
8.0
 40
9.0
 40
9.0
 40
9.0
 40
10.0
 40
10.0
 40
10.0
 40
11.0
 40
11.0
 40
11.0
 40
12.0
 40
12.0
 40
12.0
 40
13.0
 40
13.0
 40
13.0
 40
14.0
 40
14.0
 40
14.0
 40
15.0
 40
15.0
 40
15.0
 40
16.0
 40
16.0
 40
16.0
 40
16.0
 10
73.82133380315925
 20
-141.6740396781232
 10
73.74295788086982
 20
-141.6740396781232
 10
73.64149981882922
 20
-141.6571587102454
 10
73.53986950201434
 20
-141.5937689533168
 10
73.36640894433201
 20
-141.4838704073374
 10
73.34522160709773
 20
-141.3526122693494
 10
73.32627358192885
 20
-141.244780780661
 10
73.32627358192885
 20
-141.244780780661
 10
73.54830998595321
 20
-141.244780780661
 10
73.54830998595321
 20
-141.244780780661
 10
73.6034315137172
 20
-141.4435627901599
 10
73.73038328234865
 20
-141.4731906113331
 10
73.8234008604504
 20
-141.4731906113331
 10
73.96309948237729
 20
-141.4731906113331
 10
74.11537270282533
 20
-141.3736273518094
 10
74.11537270282533
 20
-141.141083406555
 10
74.11537270282533
 20
-140.885112812001
 10
73.93553871849528
 20
-140.8151773736504
 10
73.81496037651154
 20
-140.8151773736504
 10
73.78326549804724
 20
-140.8151773736504
 10
73.64149981882922
 20
-140.8151773736504
 10
73.55261635530977
 20
-140.9443684543473
 10
73.55261635530977
 20
-140.9443684543473
 10
73.37708874033629
 20
-140.9254204291784
 10
73.37708874033629
 20
-140.9254204291784
 10
73.37708874033629
 20
-140.9254204291784
 10
73.49766708232004
 20
-140.0789604684525
 10
73.49766708232004
 20
-140.0789604684525
 10
73.49766708232004
 20
-140.0789604684525
 10
74.27608640721223
 20
-140.0789604684525
 10
74.27608640721223
 20
-140.0789604684525
 10
74.27608640721223
 20
-140.0789604684525
 10
74.27608640721223
 20
-140.2736083633691
 10
74.27608640721223
 20
-140.2736083633691
 10
74.27608640721223
 20
-140.2736083633691
 10
73.66044784399809
 20
-140.2736083633691
 10
73.66044784399809
 20
-140.2736083633691
 10
73.66044784399809
 20
-140.2736083633691
 10
73.59499102977834
 20
-140.6966660889578
 10
73.59499102977834
 20
-140.6966660889578
 10
73.65631372941579
 20
-140.6629041532023
 10
73.73882376628752
 20
-140.6225965360249
 10
73.85716279620586
 20
-140.6225965360249
 10
74.11106633346877
 20
-140.6225965360249
 10
74.34808890285396
 20
-140.8089762017769
 10
74.34808890285396
 20
-141.1221353813861
 10
74.34808890285396
 20
-141.4394286755777
 10
74.1238131867642
 20
-141.6740396781232
 10
73.82133380315925
 20
-141.6740396781232
 97
        0
 97
        0
 75
     2
 76
     1
 98
        0
  0
ENDBLK
  5
FF
330
FC
100
AcDbEntity
  8
0
100
AcDbBlockEnd
  0
BLOCK
  5
106
330
104
100
AcDbEntity
  8
0
100
AcDbBlockBegin
  2
block 6
 70
     0
 10
0.0
 20
0.0
 30
0.0
  3
block 6
  1

  0
POLYLINE
  5
108
330
104
100
AcDbEntity
  8
_U+30EC_U+30A4_U+30E4_U+30FC 1
 62
     7
420
 16777215
370
     9
100
AcDb2dPolyline
 66
     1
 10
0.0
 20
0.0
 30
0.0
  0
VERTEX
  5
109
330
108
100
AcDbEntity
  8
_U+30EC_U+30A4_U+30E4_U+30FC 1
 62
     7
420
 16777215
370
     9
100
AcDbVertex
100
AcDb2dVertex
 10
80.75252460649813
 20
-142.2693510755437
 30
0.0
  0
VERTEX
  5
10A
330
108
100
AcDbEntity
  8
_U+30EC_U+30A4_U+30E4_U+30FC 1
 62
     7
420
 16777215
370
     9
100
AcDbVertex
100
AcDb2dVertex
 10
95.75196505716386
 20
-142.2693510755437
 30
0.0
  0
SEQEND
  5
10B
330
108
100
AcDbEntity
  8
_U+30EC_U+30A4_U+30E4_U+30FC 1
 62
     7
420
 16777215
370
     9
  0
POLYLINE
  5
10C
330
104
100
AcDbEntity
  8
_U+30EC_U+30A4_U+30E4_U+30FC 1
 62
     7
420
 16777215
370
     9
100
AcDb2dPolyline
 66
     1
 10
0.0
 20
0.0
 30
0.0
  0
VERTEX
  5
10D
330
10C
100
AcDbEntity
  8
_U+30EC_U+30A4_U+30E4_U+30FC 1
 62
     7
420
 16777215
370
     9
100
AcDbVertex
100
AcDb2dVertex
 10
95.75196505716386
 20
-140.80930968702
 30
0.0
  0
VERTEX
  5
10E
330
10C
100
AcDbEntity
  8
_U+30EC_U+30A4_U+30E4_U+30FC 1
 62
     7
420
 16777215
370
     9
100
AcDbVertex
100
AcDb2dVertex
 10
95.75196505716386
 20
-143.2697935752936
 30
0.0
  0
SEQEND
  5
10F
330
10C
100
AcDbEntity
  8
_U+30EC_U+30A4_U+30E4_U+30FC 1
 62
     7
420
 16777215
370
     9
  0
INSERT
  5
111
330
104
100
AcDbEntity
  8
_U+30EC_U+30A4_U+30E4_U+30FC 1
100
AcDbBlockReference
  2
block 7
 10
0.0
 20
0.0
 30
0.0
  0
ENDBLK
  5
107
330
104
100
AcDbEntity
  8
0
100
AcDbBlockEnd
  0
BLOCK
  5
112
330
110
100
AcDbEntity
  8
0
100
AcDbBlockBegin
  2
block 7
 70
     0
 10
0.0
 20
0.0
 30
0.0
  3
block 7
  1

  0
SPLINE
  5
114
330
110
100
AcDbEntity
  8
_U+30EC_U+30A4_U+30E4_U+30FC 1
370
     0
100
AcDbSpline
210
0.0
220
0.0
230
1.0
 70
    11
 71
     3
 72
    26
 73
    22
 74
     0
 42
0.0000000001
 43
0.0000000001
 12
1.0
 22
0.0
 32
0.0
 13
1.0
 23
0.0
 33
0.0
 40
0.0
 40
0.0
 40
0.0
 40
0.0
 40
1.0
 40
1.0
 40
1.0
 40
2.0
 40
2.0
 40
2.0
 40
3.0
 40
3.0
 40
3.0
 40
4.0
 40
4.0
 40
4.0
 40
5.0
 40
5.0
 40
5.0
 40
6.0
 40
6.0
 40
6.0
 40
7.0
 40
7.0
 40
7.0
 40
7.0
 10
87.61446259745402
 20
-141.62339677449
 30
0.0
 10
87.61446259745402
 20
-141.62339677449
 30
0.0
 10
87.61446259745402
 20
-140.5192436714674
 30
0.0
 10
87.61446259745402
 20
-140.5192436714674
 30
0.0
 10
87.61446259745402
 20
-140.5192436714674
 30
0.0
 10
87.2844224499671
 20
-140.5192436714674
 30
0.0
 10
87.2844224499671
 20
-140.5192436714674
 30
0.0
 10
87.2844224499671
 20
-140.5192436714674
 30
0.0
 10
87.2844224499671
 20
-140.3711045656017
 30
0.0
 10
87.2844224499671
 20
-140.3711045656017
 30
0.0
 10
87.61652965474518
 20
-140.3562906550151
 30
0.0
 10
87.66303844379605
 20
-140.1933376385628
 30
0.0
 10
87.6926662649692
 20
-140.0789604684525
 30
0.0
 10
87.6926662649692
 20
-140.0789604684525
 30
0.0
 10
87.83873831354379
 20
-140.0789604684525
 30
0.0
 10
87.83873831354379
 20
-140.0789604684525
 30
0.0
 10
87.83873831354379
 20
-140.0789604684525
 30
0.0
 10
87.83873831354379
 20
-141.62339677449
 30
0.0
 10
87.83873831354379
 20
-141.62339677449
 30
0.0
 10
87.83873831354379
 20
-141.62339677449
 30
0.0
 10
87.61446259745402
 20
-141.62339677449
 30
0.0
 10
87.61446259745402
 20
-141.62339677449
 30
0.0
  0
HATCH
  5
115
330
110
100
AcDbEntity
  8
_U+30EC_U+30A4_U+30E4_U+30FC 1
 62
     7
420
 16777215
100
AcDbHatch
 10
0.0
 20
0.0
 30
0.0
210
0.0
220
0.0
230
1.0
  2
SOLID
 70
     1
 71
     0
 91
        1
 92
        1
 93
        1
 72
     4
 94
        3
 73
     0
 74
     1
 95
       26
 96
       22
 40
0.0
 40
0.0
 40
0.0
 40
0.0
 40
1.0
 40
1.0
 40
1.0
 40
2.0
 40
2.0
 40
2.0
 40
3.0
 40
3.0
 40
3.0
 40
4.0
 40
4.0
 40
4.0
 40
5.0
 40
5.0
 40
5.0
 40
6.0
 40
6.0
 40
6.0
 40
7.0
 40
7.0
 40
7.0
 40
7.0
 10
87.61446259745402
 20
-141.62339677449
 10
87.61446259745402
 20
-141.62339677449
 10
87.61446259745402
 20
-140.5192436714674
 10
87.61446259745402
 20
-140.5192436714674
 10
87.61446259745402
 20
-140.5192436714674
 10
87.2844224499671
 20
-140.5192436714674
 10
87.2844224499671
 20
-140.5192436714674
 10
87.2844224499671
 20
-140.5192436714674
 10
87.2844224499671
 20
-140.3711045656017
 10
87.2844224499671
 20
-140.3711045656017
 10
87.61652965474518
 20
-140.3562906550151
 10
87.66303844379605
 20
-140.1933376385628
 10
87.6926662649692
 20
-140.0789604684525
 10
87.6926662649692
 20
-140.0789604684525
 10
87.83873831354379
 20
-140.0789604684525
 10
87.83873831354379
 20
-140.0789604684525
 10
87.83873831354379
 20
-140.0789604684525
 10
87.83873831354379
 20
-141.62339677449
 10
87.83873831354379
 20
-141.62339677449
 10
87.83873831354379
 20
-141.62339677449
 10
87.61446259745402
 20
-141.62339677449
 10
87.61446259745402
 20
-141.62339677449
 97
        0
 97
        0
 75
     2
 76
     1
 98
        0
  0
SPLINE
  5
116
330
110
100
AcDbEntity
  8
_U+30EC_U+30A4_U+30E4_U+30FC 1
370
     0
100
AcDbSpline
210
0.0
220
0.0
230
1.0
 70
    11
 71
     3
 72
    53
 73
    49
 74
     0
 42
0.0000000001
 43
0.0000000001
 12
1.0
 22
0.0
 32
0.0
 13
1.0
 23
0.0
 33
0.0
 40
0.0
 40
0.0
 40
0.0
 40
0.0
 40
1.0
 40
1.0
 40
1.0
 40
2.0
 40
2.0
 40
2.0
 40
3.0
 40
3.0
 40
3.0
 40
4.0
 40
4.0
 40
4.0
 40
5.0
 40
5.0
 40
5.0
 40
6.0
 40
6.0
 40
6.0
 40
7.0
 40
7.0
 40
7.0
 40
8.0
 40
8.0
 40
8.0
 40
9.0
 40
9.0
 40
9.0
 40
10.0
 40
10.0
 40
10.0
 40
11.0
 40
11.0
 40
11.0
 40
12.0
 40
12.0
 40
12.0
 40
13.0
 40
13.0
 40
13.0
 40
14.0
 40
14.0
 40
14.0
 40
15.0
 40
15.0
 40
15.0
 40
16.0
 40
16.0
 40
16.0
 40
16.0
 10
88.82093503638852
 20
-141.6740396781232
 30
0.0
 10
88.74255911409908
 20
-141.6740396781232
 30
0.0
 10
88.64110105205847
 20
-141.6571587102454
 30
0.0
 10
88.53947073524361
 20
-141.5937689533168
 30
0.0
 10
88.36601017756128
 20
-141.4838704073374
 30
0.0
 10
88.344822840327
 20
-141.3526122693494
 30
0.0
 10
88.32587481515812
 20
-141.244780780661
 30
0.0
 10
88.32587481515812
 20
-141.244780780661
 30
0.0
 10
88.54791121918247
 20
-141.244780780661
 30
0.0
 10
88.54791121918247
 20
-141.244780780661
 30
0.0
 10
88.60303274694647
 20
-141.4435627901599
 30
0.0
 10
88.72998451557793
 20
-141.4731906113331
 30
0.0
 10
88.82300209367968
 20
-141.4731906113331
 30
0.0
 10
88.96270071560654
 20
-141.4731906113331
 30
0.0
 10
89.1149739360546
 20
-141.3736273518094
 30
0.0
 10
89.1149739360546
 20
-141.141083406555
 30
0.0
 10
89.1149739360546
 20
-140.885112812001
 30
0.0
 10
88.93513995172455
 20
-140.8151773736504
 30
0.0
 10
88.8145616097408
 20
-140.8151773736504
 30
0.0
 10
88.78286673127651
 20
-140.8151773736504
 30
0.0
 10
88.64110105205847
 20
-140.8151773736504
 30
0.0
 10
88.55221758853904
 20
-140.9443684543473
 30
0.0
 10
88.55221758853904
 20
-140.9443684543473
 30
0.0
 10
88.37668997356555
 20
-140.9254204291784
 30
0.0
 10
88.37668997356555
 20
-140.9254204291784
 30
0.0
 10
88.37668997356555
 20
-140.9254204291784
 30
0.0
 10
88.49726831554929
 20
-140.0789604684525
 30
0.0
 10
88.49726831554929
 20
-140.0789604684525
 30
0.0
 10
88.49726831554929
 20
-140.0789604684525
 30
0.0
 10
89.2756876404415
 20
-140.0789604684525
 30
0.0
 10
89.2756876404415
 20
-140.0789604684525
 30
0.0
 10
89.2756876404415
 20
-140.0789604684525
 30
0.0
 10
89.2756876404415
 20
-140.2736083633691
 30
0.0
 10
89.2756876404415
 20
-140.2736083633691
 30
0.0
 10
89.2756876404415
 20
-140.2736083633691
 30
0.0
 10
88.66004907722736
 20
-140.2736083633691
 30
0.0
 10
88.66004907722736
 20
-140.2736083633691
 30
0.0
 10
88.66004907722736
 20
-140.2736083633691
 30
0.0
 10
88.59459226300761
 20
-140.6966660889578
 30
0.0
 10
88.59459226300761
 20
-140.6966660889578
 30
0.0
 10
88.65591496264506
 20
-140.6629041532023
 30
0.0
 10
88.73842499951678
 20
-140.6225965360249
 30
0.0
 10
88.85676402943511
 20
-140.6225965360249
 30
0.0
 10
89.11066756669803
 20
-140.6225965360249
 30
0.0
 10
89.34769013608322
 20
-140.8089762017769
 30
0.0
 10
89.34769013608322
 20
-141.1221353813861
 30
0.0
 10
89.34769013608322
 20
-141.4394286755777
 30
0.0
 10
89.12341441999345
 20
-141.6740396781232
 30
0.0
 10
88.82093503638852
 20
-141.6740396781232
 30
0.0
  0
HATCH
  5
117
330
110
100
AcDbEntity
  8
_U+30EC_U+30A4_U+30E4_U+30FC 1
 62
     7
420
 16777215
100
AcDbHatch
 10
0.0
 20
0.0
 30
0.0
210
0.0
220
0.0
230
1.0
  2
SOLID
 70
     1
 71
     0
 91
        1
 92
        1
 93
        1
 72
     4
 94
        3
 73
     0
 74
     1
 95
       53
 96
       49
 40
0.0
 40
0.0
 40
0.0
 40
0.0
 40
1.0
 40
1.0
 40
1.0
 40
2.0
 40
2.0
 40
2.0
 40
3.0
 40
3.0
 40
3.0
 40
4.0
 40
4.0
 40
4.0
 40
5.0
 40
5.0
 40
5.0
 40
6.0
 40
6.0
 40
6.0
 40
7.0
 40
7.0
 40
7.0
 40
8.0
 40
8.0
 40
8.0
 40
9.0
 40
9.0
 40
9.0
 40
10.0
 40
10.0
 40
10.0
 40
11.0
 40
11.0
 40
11.0
 40
12.0
 40
12.0
 40
12.0
 40
13.0
 40
13.0
 40
13.0
 40
14.0
 40
14.0
 40
14.0
 40
15.0
 40
15.0
 40
15.0
 40
16.0
 40
16.0
 40
16.0
 40
16.0
 10
88.82093503638852
 20
-141.6740396781232
 10
88.74255911409908
 20
-141.6740396781232
 10
88.64110105205847
 20
-141.6571587102454
 10
88.53947073524361
 20
-141.5937689533168
 10
88.36601017756128
 20
-141.4838704073374
 10
88.344822840327
 20
-141.3526122693494
 10
88.32587481515812
 20
-141.244780780661
 10
88.32587481515812
 20
-141.244780780661
 10
88.54791121918247
 20
-141.244780780661
 10
88.54791121918247
 20
-141.244780780661
 10
88.60303274694647
 20
-141.4435627901599
 10
88.72998451557793
 20
-141.4731906113331
 10
88.82300209367968
 20
-141.4731906113331
 10
88.96270071560654
 20
-141.4731906113331
 10
89.1149739360546
 20
-141.3736273518094
 10
89.1149739360546
 20
-141.141083406555
 10
89.1149739360546
 20
-140.885112812001
 10
88.93513995172455
 20
-140.8151773736504
 10
88.8145616097408
 20
-140.8151773736504
 10
88.78286673127651
 20
-140.8151773736504
 10
88.64110105205847
 20
-140.8151773736504
 10
88.55221758853904
 20
-140.9443684543473
 10
88.55221758853904
 20
-140.9443684543473
 10
88.37668997356555
 20
-140.9254204291784
 10
88.37668997356555
 20
-140.9254204291784
 10
88.37668997356555
 20
-140.9254204291784
 10
88.49726831554929
 20
-140.0789604684525
 10
88.49726831554929
 20
-140.0789604684525
 10
88.49726831554929
 20
-140.0789604684525
 10
89.2756876404415
 20
-140.0789604684525
 10
89.2756876404415
 20
-140.0789604684525
 10
89.2756876404415
 20
-140.0789604684525
 10
89.2756876404415
 20
-140.2736083633691
 10
89.2756876404415
 20
-140.2736083633691
 10
89.2756876404415
 20
-140.2736083633691
 10
88.66004907722736
 20
-140.2736083633691
 10
88.66004907722736
 20
-140.2736083633691
 10
88.66004907722736
 20
-140.2736083633691
 10
88.59459226300761
 20
-140.6966660889578
 10
88.59459226300761
 20
-140.6966660889578
 10
88.65591496264506
 20
-140.6629041532023
 10
88.73842499951678
 20
-140.6225965360249
 10
88.85676402943511
 20
-140.6225965360249
 10
89.11066756669803
 20
-140.6225965360249
 10
89.34769013608322
 20
-140.8089762017769
 10
89.34769013608322
 20
-141.1221353813861
 10
89.34769013608322
 20
-141.4394286755777
 10
89.12341441999345
 20
-141.6740396781232
 10
88.82093503638852
 20
-141.6740396781232
 97
        0
 97
        0
 75
     2
 76
     1
 98
        0
  0
ENDBLK
  5
113
330
110
100
AcDbEntity
  8
0
100
AcDbBlockEnd
  0
BLOCK
  5
11A
330
118
100
AcDbEntity
  8
0
100
AcDbBlockBegin
  2
block 8
 70
     0
 10
0.0
 20
0.0
 30
0.0
  3
block 8
  1

  0
POLYLINE
  5
11C
330
118
100
AcDbEntity
  8
_U+30EC_U+30A4_U+30E4_U+30FC 1
 62
     7
420
 16777215
370
     9
100
AcDb2dPolyline
 66
     1
 10
0.0
 20
0.0
 30
0.0
  0
VERTEX
  5
11D
330
11C
100
AcDbEntity
  8
_U+30EC_U+30A4_U+30E4_U+30FC 1
 62
     7
420
 16777215
370
     9
100
AcDbVertex
100
AcDb2dVertex
 10
114.7516584613302
 20
-121.2694424696827
 30
0.0
  0
VERTEX
  5
11E
330
11C
100
AcDbEntity
  8
_U+30EC_U+30A4_U+30E4_U+30FC 1
 62
     7
420
 16777215
370
     9
100
AcDbVertex
100
AcDb2dVertex
 10
114.7516584613302
 20
-117.4991299706253
 30
0.0
  0
SEQEND
  5
11F
330
11C
100
AcDbEntity
  8
_U+30EC_U+30A4_U+30E4_U+30FC 1
 62
     7
420
 16777215
370
     9
  0
POLYLINE
  5
120
330
118
100
AcDbEntity
  8
_U+30EC_U+30A4_U+30E4_U+30FC 1
 62
     7
420
 16777215
370
     9
100
AcDb2dPolyline
 66
     1
 10
0.0
 20
0.0
 30
0.0
  0
VERTEX
  5
121
330
120
100
AcDbEntity
  8
_U+30EC_U+30A4_U+30E4_U+30FC 1
 62
     7
420
 16777215
370
     9
100
AcDbVertex
100
AcDb2dVertex
 10
114.7516584613302
 20
-121.2694424696827
 30
0.0
  0
VERTEX
  5
122
330
120
100
AcDbEntity
  8
_U+30EC_U+30A4_U+30E4_U+30FC 1
 62
     7
420
 16777215
370
     9
100
AcDbVertex
100
AcDb2dVertex
 10
114.7516584613302
 20
-122.2698849694326
 30
0.0
  0
SEQEND
  5
123
330
120
100
AcDbEntity
  8
_U+30EC_U+30A4_U+30E4_U+30FC 1
 62
     7
420
 16777215
370
     9
  0
POLYLINE
  5
124
330
118
100
AcDbEntity
  8
_U+30EC_U+30A4_U+30E4_U+30FC 1
 62
     7
420
 16777215
370
     9
100
AcDb2dPolyline
 66
     1
 10
0.0
 20
0.0
 30
0.0
  0
VERTEX
  5
125
330
124
100
AcDbEntity
  8
_U+30EC_U+30A4_U+30E4_U+30FC 1
 62
     7
420
 16777215
370
     9
100
AcDbVertex
100
AcDb2dVertex
 10
113.2916171096901
 20
-121.2694424696827
 30
0.0
  0
VERTEX
  5
126
330
124
100
AcDbEntity
  8
_U+30EC_U+30A4_U+30E4_U+30FC 1
 62
     7
420
 16777215
370
     9
100
AcDbVertex
100
AcDb2dVertex
 10
115.7521009358068
 20
-121.2694424696827
 30
0.0
  0
SEQEND
  5
127
330
124
100
AcDbEntity
  8
_U+30EC_U+30A4_U+30E4_U+30FC 1
 62
     7
420
 16777215
370
     9
  0
POLYLINE
  5
128
330
118
100
AcDbEntity
  8
_U+30EC_U+30A4_U+30E4_U+30FC 1
 62
     7
420
 16777215
370
     9
100
AcDb2dPolyline
 66
     1
 10
0.0
 20
0.0
 30
0.0
  0
VERTEX
  5
129
330
128
100
AcDbEntity
  8
_U+30EC_U+30A4_U+30E4_U+30FC 1
 62
     7
420
 16777215
370
     9
100
AcDbVertex
100
AcDb2dVertex
 10
113.2916171096901
 20
-122.2698849694326
 30
0.0
  0
VERTEX
  5
12A
330
128
100
AcDbEntity
  8
_U+30EC_U+30A4_U+30E4_U+30FC 1
 62
     7
420
 16777215
370
     9
100
AcDbVertex
100
AcDb2dVertex
 10
115.7521009358068
 20
-122.2698849694326
 30
0.0
  0
SEQEND
  5
12B
330
128
100
AcDbEntity
  8
_U+30EC_U+30A4_U+30E4_U+30FC 1
 62
     7
420
 16777215
370
     9
  0
INSERT
  5
12D
330
118
100
AcDbEntity
  8
_U+30EC_U+30A4_U+30E4_U+30FC 1
100
AcDbBlockReference
  2
block 9
 10
0.0
 20
0.0
 30
0.0
  0
ENDBLK
  5
11B
330
118
100
AcDbEntity
  8
0
100
AcDbBlockEnd
  0
BLOCK
  5
12E
330
12C
100
AcDbEntity
  8
0
100
AcDbBlockBegin
  2
block 9
 70
     0
 10
0.0
 20
0.0
 30
0.0
  3
block 9
  1

  0
SPLINE
  5
130
330
12C
100
AcDbEntity
  8
_U+30EC_U+30A4_U+30E4_U+30FC 1
370
     0
100
AcDbSpline
210
0.0
220
0.0
230
1.0
 70
    11
 71
     3
 72
    26
 73
    22
 74
     0
 42
0.0000000001
 43
0.0000000001
 12
1.0
 22
0.0
 32
0.0
 13
1.0
 23
0.0
 33
0.0
 40
0.0
 40
0.0
 40
0.0
 40
0.0
 40
1.0
 40
1.0
 40
1.0
 40
2.0
 40
2.0
 40
2.0
 40
3.0
 40
3.0
 40
3.0
 40
4.0
 40
4.0
 40
4.0
 40
5.0
 40
5.0
 40
5.0
 40
6.0
 40
6.0
 40
6.0
 40
7.0
 40
7.0
 40
7.0
 40
7.0
 10
113.7525742988188
 20
-121.8457926127677
 30
0.0
 10
113.7525742988188
 20
-121.8457926127677
 30
0.0
 10
112.6484211957962
 20
-121.8457926127677
 30
0.0
 10
112.6484211957962
 20
-121.8457926127677
 30
0.0
 10
112.6484211957962
 20
-121.8457926127677
 30
0.0
 10
112.6484211957962
 20
-122.1758327602547
 30
0.0
 10
112.6484211957962
 20
-122.1758327602547
 30
0.0
 10
112.6484211957962
 20
-122.1758327602547
 30
0.0
 10
112.5002820899305
 20
-122.1758327602547
 30
0.0
 10
112.5002820899305
 20
-122.1758327602547
 30
0.0
 10
112.4854681793439
 20
-121.8437255554766
 30
0.0
 10
112.3225151628916
 20
-121.7972167664257
 30
0.0
 10
112.2081379927813
 20
-121.7675889452526
 30
0.0
 10
112.2081379927813
 20
-121.7675889452526
 30
0.0
 10
112.2081379927813
 20
-121.621516896678
 30
0.0
 10
112.2081379927813
 20
-121.621516896678
 30
0.0
 10
112.2081379927813
 20
-121.621516896678
 30
0.0
 10
113.7525742988188
 20
-121.621516896678
 30
0.0
 10
113.7525742988188
 20
-121.621516896678
 30
0.0
 10
113.7525742988188
 20
-121.621516896678
 30
0.0
 10
113.7525742988188
 20
-121.8457926127677
 30
0.0
 10
113.7525742988188
 20
-121.8457926127677
 30
0.0
  0
HATCH
  5
131
330
12C
100
AcDbEntity
  8
_U+30EC_U+30A4_U+30E4_U+30FC 1
 62
     7
420
 16777215
100
AcDbHatch
 10
0.0
 20
0.0
 30
0.0
210
0.0
220
0.0
230
1.0
  2
SOLID
 70
     1
 71
     0
 91
        1
 92
        1
 93
        1
 72
     4
 94
        3
 73
     0
 74
     1
 95
       26
 96
       22
 40
0.0
 40
0.0
 40
0.0
 40
0.0
 40
1.0
 40
1.0
 40
1.0
 40
2.0
 40
2.0
 40
2.0
 40
3.0
 40
3.0
 40
3.0
 40
4.0
 40
4.0
 40
4.0
 40
5.0
 40
5.0
 40
5.0
 40
6.0
 40
6.0
 40
6.0
 40
7.0
 40
7.0
 40
7.0
 40
7.0
 10
113.7525742988188
 20
-121.8457926127677
 10
113.7525742988188
 20
-121.8457926127677
 10
112.6484211957962
 20
-121.8457926127677
 10
112.6484211957962
 20
-121.8457926127677
 10
112.6484211957962
 20
-121.8457926127677
 10
112.6484211957962
 20
-122.1758327602547
 10
112.6484211957962
 20
-122.1758327602547
 10
112.6484211957962
 20
-122.1758327602547
 10
112.5002820899305
 20
-122.1758327602547
 10
112.5002820899305
 20
-122.1758327602547
 10
112.4854681793439
 20
-121.8437255554766
 10
112.3225151628916
 20
-121.7972167664257
 10
112.2081379927813
 20
-121.7675889452526
 10
112.2081379927813
 20
-121.7675889452526
 10
112.2081379927813
 20
-121.621516896678
 10
112.2081379927813
 20
-121.621516896678
 10
112.2081379927813
 20
-121.621516896678
 10
113.7525742988188
 20
-121.621516896678
 10
113.7525742988188
 20
-121.621516896678
 10
113.7525742988188
 20
-121.621516896678
 10
113.7525742988188
 20
-121.8457926127677
 10
113.7525742988188
 20
-121.8457926127677
 97
        0
 97
        0
 75
     2
 76
     1
 98
        0
  0
ENDBLK
  5
12F
330
12C
100
AcDbEntity
  8
0
100
AcDbBlockEnd
  0
BLOCK
  5
134
330
132
100
AcDbEntity
  8
0
100
AcDbBlockBegin
  2
block 10
 70
     0
 10
0.0
 20
0.0
 30
0.0
  3
block 10
  1

  0
POLYLINE
  5
136
330
132
100
AcDbEntity
  8
_U+30EC_U+30A4_U+30E4_U+30FC 1
 62
     7
420
 16777215
370
     9
100
AcDb2dPolyline
 66
     1
 10
0.0
 20
0.0
 30
0.0
  0
VERTEX
  5
137
330
136
100
AcDbEntity
  8
_U+30EC_U+30A4_U+30E4_U+30FC 1
 62
     7
420
 16777215
370
     9
100
AcDbVertex
100
AcDb2dVertex
 10
114.7516584613302
 20
-138.2695919098769
 30
0.0
  0
VERTEX
  5
138
330
136
100
AcDbEntity
  8
_U+30EC_U+30A4_U+30E4_U+30FC 1
 62
     7
420
 16777215
370
     9
100
AcDbVertex
100
AcDb2dVertex
 10
114.7516584613302
 20
-135.2696049661825
 30
0.0
  0
SEQEND
  5
139
330
136
100
AcDbEntity
  8
_U+30EC_U+30A4_U+30E4_U+30FC 1
 62
     7
420
 16777215
370
     9
  0
POLYLINE
  5
13A
330
132
100
AcDbEntity
  8
_U+30EC_U+30A4_U+30E4_U+30FC 1
 62
     7
420
 16777215
370
     9
100
AcDb2dPolyline
 66
     1
 10
0.0
 20
0.0
 30
0.0
  0
VERTEX
  5
13B
330
13A
100
AcDbEntity
  8
_U+30EC_U+30A4_U+30E4_U+30FC 1
 62
     7
420
 16777215
370
     9
100
AcDbVertex
100
AcDb2dVertex
 10
98.29168277014804
 20
-138.2695919098769
 30
0.0
  0
VERTEX
  5
13C
330
13A
100
AcDbEntity
  8
_U+30EC_U+30A4_U+30E4_U+30FC 1
 62
     7
420
 16777215
370
     9
100
AcDbVertex
100
AcDb2dVertex
 10
115.7521009358068
 20
-138.2695919098769
 30
0.0
  0
SEQEND
  5
13D
330
13A
100
AcDbEntity
  8
_U+30EC_U+30A4_U+30E4_U+30FC 1
 62
     7
420
 16777215
370
     9
  0
INSERT
  5
13F
330
132
100
AcDbEntity
  8
_U+30EC_U+30A4_U+30E4_U+30FC 1
100
AcDbBlockReference
  2
block 11
 10
0.0
 20
0.0
 30
0.0
  0
ENDBLK
  5
135
330
132
100
AcDbEntity
  8
0
100
AcDbBlockEnd
  0
BLOCK
  5
140
330
13E
100
AcDbEntity
  8
0
100
AcDbBlockBegin
  2
block 11
 70
     0
 10
0.0
 20
0.0
 30
0.0
  3
block 11
  1

  0
SPLINE
  5
142
330
13E
100
AcDbEntity
  8
_U+30EC_U+30A4_U+30E4_U+30FC 1
370
     0
100
AcDbSpline
210
0.0
220
0.0
230
1.0
 70
    11
 71
     3
 72
    62
 73
    58
 74
     0
 42
0.0000000001
 43
0.0000000001
 12
1.0
 22
0.0
 32
0.0
 13
1.0
 23
0.0
 33
0.0
 40
0.0
 40
0.0
 40
0.0
 40
0.0
 40
1.0
 40
1.0
 40
1.0
 40
2.0
 40
2.0
 40
2.0
 40
3.0
 40
3.0
 40
3.0
 40
4.0
 40
4.0
 40
4.0
 40
5.0
 40
5.0
 40
5.0
 40
6.0
 40
6.0
 40
6.0
 40
7.0
 40
7.0
 40
7.0
 40
8.0
 40
8.0
 40
8.0
 40
9.0
 40
9.0
 40
9.0
 40
10.0
 40
10.0
 40
10.0
 40
11.0
 40
11.0
 40
11.0
 40
12.0
 40
12.0
 40
12.0
 40
13.0
 40
13.0
 40
13.0
 40
14.0
 40
14.0
 40
14.0
 40
15.0
 40
15.0
 40
15.0
 40
16.0
 40
16.0
 40
16.0
 40
17.0
 40
17.0
 40
17.0
 40
18.0
 40
18.0
 40
18.0
 40
19.0
 40
19.0
 40
19.0
 40
19.0
 10
113.803217202452
 20
-136.7775254649376
 30
0.0
 10
113.803217202452
 20
-136.872954609879
 30
0.0
 10
113.782202119992
 20
-137.0906846445468
 30
0.0
 10
113.5961669637885
 20
-137.2157416106614
 30
0.0
 10
113.4838568509693
 20
-137.2898111635942
 30
0.0
 10
113.3846381009941
 20
-137.2939452781765
 30
0.0
 10
113.299888752057
 20
-137.2980793927588
 30
0.0
 10
113.299888752057
 20
-137.2980793927588
 30
0.0
 10
113.299888752057
 20
-137.0779377912513
 30
0.0
 10
113.299888752057
 20
-137.0779377912513
 30
0.0
 10
113.3739583049899
 20
-137.0758707339602
 30
0.0
 10
113.6085693075354
 20
-137.0655354475045
 30
0.0
 10
113.6085693075354
 20
-136.7820040890684
 30
0.0
 10
113.6085693075354
 20
-136.6445447792069
 30
0.0
 10
113.5389783787333
 20
-136.4919270492103
 30
0.0
 10
113.3105685480613
 20
-136.4919270492103
 30
0.0
 10
113.1941243206598
 20
-136.4919270492103
 30
0.0
 10
113.1455484743178
 20
-136.5301676090966
 30
0.0
 10
113.1138535958535
 20
-136.5618624875609
 30
0.0
 10
113.0397840429206
 20
-136.6359320404938
 30
0.0
 10
113.0270371896252
 20
-136.7523762678952
 30
0.0
 10
113.0270371896252
 20
-136.8071532861107
 30
0.0
 10
113.0270371896252
 20
-136.8264458208281
 30
0.0
 10
113.0291042469163
 20
-136.8622748138747
 30
0.0
 10
113.0332383614986
 20
-136.8898355777567
 30
0.0
 10
113.0332383614986
 20
-136.8898355777567
 30
0.0
 10
112.838590466582
 20
-136.8898355777567
 30
0.0
 10
112.838590466582
 20
-136.8898355777567
 30
0.0
 10
112.845136148004
 20
-136.8515950178704
 30
0.0
 10
112.8472032052951
 20
-136.8095648529504
 30
0.0
 10
112.8472032052951
 20
-136.8030191715284
 30
0.0
 10
112.8472032052951
 20
-136.7375623573087
 30
0.0
 10
112.8258436132866
 20
-136.5387803478098
 30
0.0
 10
112.5891655534499
 20
-136.5387803478098
 30
0.0
 10
112.411398626411
 20
-136.5387803478098
 30
0.0
 10
112.356277098647
 20
-136.6696939762492
 30
0.0
 10
112.356277098647
 20
-136.7799370317773
 30
0.0
 10
112.356277098647
 20
-137.0441758554959
 30
0.0
 10
112.5891655534499
 20
-137.052788594209
 30
0.0
 10
112.6608235395431
 20
-137.0569227087913
 30
0.0
 10
112.6608235395431
 20
-137.0569227087913
 30
0.0
 10
112.6608235395431
 20
-137.2601833424211
 30
0.0
 10
112.6608235395431
 20
-137.2601833424211
 30
0.0
 10
112.5361110829771
 20
-137.251570603708
 30
0.0
 10
112.1595621464393
 20
-137.224009839826
 30
0.0
 10
112.1595621464393
 20
-136.7671901784818
 30
0.0
 10
112.1595621464393
 20
-136.542914462392
 30
0.0
 10
112.286686169845
 20
-136.3017577784246
 30
0.0
 10
112.582619872028
 20
-136.3017577784246
 30
0.0
 10
112.76899953778
 20
-136.3017577784246
 30
0.0
 10
112.8513373198774
 20
-136.3968424138175
 30
0.0
 10
112.9126600195149
 20
-136.4964056733412
 30
0.0
 10
112.9402207833969
 20
-136.4350829737037
 30
0.0
 10
113.0204915082032
 20
-136.2531819320826
 30
0.0
 10
113.2978216947658
 20
-136.2531819320826
 30
0.0
 10
113.6361300714174
 20
-136.2531819320826
 30
0.0
 10
113.803217202452
 20
-136.5005397879235
 30
0.0
 10
113.803217202452
 20
-136.7775254649376
 30
0.0
  0
HATCH
  5
143
330
13E
100
AcDbEntity
  8
_U+30EC_U+30A4_U+30E4_U+30FC 1
 62
     7
420
 16777215
100
AcDbHatch
 10
0.0
 20
0.0
 30
0.0
210
0.0
220
0.0
230
1.0
  2
SOLID
 70
     1
 71
     0
 91
        1
 92
        1
 93
        1
 72
     4
 94
        3
 73
     0
 74
     1
 95
       62
 96
       58
 40
0.0
 40
0.0
 40
0.0
 40
0.0
 40
1.0
 40
1.0
 40
1.0
 40
2.0
 40
2.0
 40
2.0
 40
3.0
 40
3.0
 40
3.0
 40
4.0
 40
4.0
 40
4.0
 40
5.0
 40
5.0
 40
5.0
 40
6.0
 40
6.0
 40
6.0
 40
7.0
 40
7.0
 40
7.0
 40
8.0
 40
8.0
 40
8.0
 40
9.0
 40
9.0
 40
9.0
 40
10.0
 40
10.0
 40
10.0
 40
11.0
 40
11.0
 40
11.0
 40
12.0
 40
12.0
 40
12.0
 40
13.0
 40
13.0
 40
13.0
 40
14.0
 40
14.0
 40
14.0
 40
15.0
 40
15.0
 40
15.0
 40
16.0
 40
16.0
 40
16.0
 40
17.0
 40
17.0
 40
17.0
 40
18.0
 40
18.0
 40
18.0
 40
19.0
 40
19.0
 40
19.0
 40
19.0
 10
113.803217202452
 20
-136.7775254649376
 10
113.803217202452
 20
-136.872954609879
 10
113.782202119992
 20
-137.0906846445468
 10
113.5961669637885
 20
-137.2157416106614
 10
113.4838568509693
 20
-137.2898111635942
 10
113.3846381009941
 20
-137.2939452781765
 10
113.299888752057
 20
-137.2980793927588
 10
113.299888752057
 20
-137.2980793927588
 10
113.299888752057
 20
-137.0779377912513
 10
113.299888752057
 20
-137.0779377912513
 10
113.3739583049899
 20
-137.0758707339602
 10
113.6085693075354
 20
-137.0655354475045
 10
113.6085693075354
 20
-136.7820040890684
 10
113.6085693075354
 20
-136.6445447792069
 10
113.5389783787333
 20
-136.4919270492103
 10
113.3105685480613
 20
-136.4919270492103
 10
113.1941243206598
 20
-136.4919270492103
 10
113.1455484743178
 20
-136.5301676090966
 10
113.1138535958535
 20
-136.5618624875609
 10
113.0397840429206
 20
-136.6359320404938
 10
113.0270371896252
 20
-136.7523762678952
 10
113.0270371896252
 20
-136.8071532861107
 10
113.0270371896252
 20
-136.8264458208281
 10
113.0291042469163
 20
-136.8622748138747
 10
113.0332383614986
 20
-136.8898355777567
 10
113.0332383614986
 20
-136.8898355777567
 10
112.838590466582
 20
-136.8898355777567
 10
112.838590466582
 20
-136.8898355777567
 10
112.845136148004
 20
-136.8515950178704
 10
112.8472032052951
 20
-136.8095648529504
 10
112.8472032052951
 20
-136.8030191715284
 10
112.8472032052951
 20
-136.7375623573087
 10
112.8258436132866
 20
-136.5387803478098
 10
112.5891655534499
 20
-136.5387803478098
 10
112.411398626411
 20
-136.5387803478098
 10
112.356277098647
 20
-136.6696939762492
 10
112.356277098647
 20
-136.7799370317773
 10
112.356277098647
 20
-137.0441758554959
 10
112.5891655534499
 20
-137.052788594209
 10
112.6608235395431
 20
-137.0569227087913
 10
112.6608235395431
 20
-137.0569227087913
 10
112.6608235395431
 20
-137.2601833424211
 10
112.6608235395431
 20
-137.2601833424211
 10
112.5361110829771
 20
-137.251570603708
 10
112.1595621464393
 20
-137.224009839826
 10
112.1595621464393
 20
-136.7671901784818
 10
112.1595621464393
 20
-136.542914462392
 10
112.286686169845
 20
-136.3017577784246
 10
112.582619872028
 20
-136.3017577784246
 10
112.76899953778
 20
-136.3017577784246
 10
112.8513373198774
 20
-136.3968424138175
 10
112.9126600195149
 20
-136.4964056733412
 10
112.9402207833969
 20
-136.4350829737037
 10
113.0204915082032
 20
-136.2531819320826
 10
113.2978216947658
 20
-136.2531819320826
 10
113.6361300714174
 20
-136.2531819320826
 10
113.803217202452
 20
-136.5005397879235
 10
113.803217202452
 20
-136.7775254649376
 97
        0
 97
        0
 75
     2
 76
     1
 98
        0
  0
ENDBLK
  5
141
330
13E
100
AcDbEntity
  8
0
100
AcDbBlockEnd
  0
BLOCK
  5
146
330
144
100
AcDbEntity
  8
0
100
AcDbBlockBegin
  2
block 12
 70
     0
 10
0.0
 20
0.0
 30
0.0
  3
block 12
  1

  0
POLYLINE
  5
148
330
144
100
AcDbEntity
  8
_U+30EC_U+30A4_U+30E4_U+30FC 1
 62
     7
420
 16777215
370
     9
100
AcDb2dPolyline
 66
     1
 10
0.0
 20
0.0
 30
0.0
  0
VERTEX
  5
149
330
148
100
AcDbEntity
  8
_U+30EC_U+30A4_U+30E4_U+30FC 1
 62
     7
420
 16777215
370
     9
100
AcDbVertex
100
AcDb2dVertex
 10
114.7516584613302
 20
-135.2696049661825
 30
0.0
  0
VERTEX
  5
14A
330
148
100
AcDbEntity
  8
_U+30EC_U+30A4_U+30E4_U+30FC 1
 62
     7
420
 16777215
370
     9
100
AcDbVertex
100
AcDb2dVertex
 10
114.7516584613302
 20
-122.2698849694326
 30
0.0
  0
SEQEND
  5
14B
330
148
100
AcDbEntity
  8
_U+30EC_U+30A4_U+30E4_U+30FC 1
 62
     7
420
 16777215
370
     9
  0
POLYLINE
  5
14C
330
144
100
AcDbEntity
  8
_U+30EC_U+30A4_U+30E4_U+30FC 1
 62
     7
420
 16777215
370
     9
100
AcDb2dPolyline
 66
     1
 10
0.0
 20
0.0
 30
0.0
  0
VERTEX
  5
14D
330
14C
100
AcDbEntity
  8
_U+30EC_U+30A4_U+30E4_U+30FC 1
 62
     7
420
 16777215
370
     9
100
AcDbVertex
100
AcDb2dVertex
 10
98.29168277014804
 20
-135.2696049661825
 30
0.0
  0
VERTEX
  5
14E
330
14C
100
AcDbEntity
  8
_U+30EC_U+30A4_U+30E4_U+30FC 1
 62
     7
420
 16777215
370
     9
100
AcDbVertex
100
AcDb2dVertex
 10
115.7521009358068
 20
-135.2696049661825
 30
0.0
  0
SEQEND
  5
14F
330
14C
100
AcDbEntity
  8
_U+30EC_U+30A4_U+30E4_U+30FC 1
 62
     7
420
 16777215
370
     9
  0
INSERT
  5
151
330
144
100
AcDbEntity
  8
_U+30EC_U+30A4_U+30E4_U+30FC 1
100
AcDbBlockReference
  2
block 13
 10
0.0
 20
0.0
 30
0.0
  0
ENDBLK
  5
147
330
144
100
AcDbEntity
  8
0
100
AcDbBlockEnd
  0
BLOCK
  5
152
330
150
100
AcDbEntity
  8
0
100
AcDbBlockBegin
  2
block 13
 70
     0
 10
0.0
 20
0.0
 30
0.0
  3
block 13
  1

  0
SPLINE
  5
154
330
150
100
AcDbEntity
  8
_U+30EC_U+30A4_U+30E4_U+30FC 1
370
     0
100
AcDbSpline
210
0.0
220
0.0
230
1.0
 70
    11
 71
     3
 72
    26
 73
    22
 74
     0
 42
0.0000000001
 43
0.0000000001
 12
1.0
 22
0.0
 32
0.0
 13
1.0
 23
0.0
 33
0.0
 40
0.0
 40
0.0
 40
0.0
 40
0.0
 40
1.0
 40
1.0
 40
1.0
 40
2.0
 40
2.0
 40
2.0
 40
3.0
 40
3.0
 40
3.0
 40
4.0
 40
4.0
 40
4.0
 40
5.0
 40
5.0
 40
5.0
 40
6.0
 40
6.0
 40
6.0
 40
7.0
 40
7.0
 40
7.0
 40
7.0
 10
113.7525742988188
 20
-129.406399164697
 30
0.0
 10
113.7525742988188
 20
-129.406399164697
 30
0.0
 10
112.6484211957962
 20
-129.406399164697
 30
0.0
 10
112.6484211957962
 20
-129.406399164697
 30
0.0
 10
112.6484211957962
 20
-129.406399164697
 30
0.0
 10
112.6484211957962
 20
-129.736439312184
 30
0.0
 10
112.6484211957962
 20
-129.736439312184
 30
0.0
 10
112.6484211957962
 20
-129.736439312184
 30
0.0
 10
112.5002820899305
 20
-129.736439312184
 30
0.0
 10
112.5002820899305
 20
-129.736439312184
 30
0.0
 10
112.4854681793439
 20
-129.4043321074059
 30
0.0
 10
112.3225151628916
 20
-129.357823318355
 30
0.0
 10
112.2081379927813
 20
-129.3281954971818
 30
0.0
 10
112.2081379927813
 20
-129.3281954971818
 30
0.0
 10
112.2081379927813
 20
-129.1821234486073
 30
0.0
 10
112.2081379927813
 20
-129.1821234486073
 30
0.0
 10
112.2081379927813
 20
-129.1821234486073
 30
0.0
 10
113.7525742988188
 20
-129.1821234486073
 30
0.0
 10
113.7525742988188
 20
-129.1821234486073
 30
0.0
 10
113.7525742988188
 20
-129.1821234486073
 30
0.0
 10
113.7525742988188
 20
-129.406399164697
 30
0.0
 10
113.7525742988188
 20
-129.406399164697
 30
0.0
  0
HATCH
  5
155
330
150
100
AcDbEntity
  8
_U+30EC_U+30A4_U+30E4_U+30FC 1
 62
     7
420
 16777215
100
AcDbHatch
 10
0.0
 20
0.0
 30
0.0
210
0.0
220
0.0
230
1.0
  2
SOLID
 70
     1
 71
     0
 91
        1
 92
        1
 93
        1
 72
     4
 94
        3
 73
     0
 74
     1
 95
       26
 96
       22
 40
0.0
 40
0.0
 40
0.0
 40
0.0
 40
1.0
 40
1.0
 40
1.0
 40
2.0
 40
2.0
 40
2.0
 40
3.0
 40
3.0
 40
3.0
 40
4.0
 40
4.0
 40
4.0
 40
5.0
 40
5.0
 40
5.0
 40
6.0
 40
6.0
 40
6.0
 40
7.0
 40
7.0
 40
7.0
 40
7.0
 10
113.7525742988188
 20
-129.406399164697
 10
113.7525742988188
 20
-129.406399164697
 10
112.6484211957962
 20
-129.406399164697
 10
112.6484211957962
 20
-129.406399164697
 10
112.6484211957962
 20
-129.406399164697
 10
112.6484211957962
 20
-129.736439312184
 10
112.6484211957962
 20
-129.736439312184
 10
112.6484211957962
 20
-129.736439312184
 10
112.5002820899305
 20
-129.736439312184
 10
112.5002820899305
 20
-129.736439312184
 10
112.4854681793439
 20
-129.4043321074059
 10
112.3225151628916
 20
-129.357823318355
 10
112.2081379927813
 20
-129.3281954971818
 10
112.2081379927813
 20
-129.3281954971818
 10
112.2081379927813
 20
-129.1821234486073
 10
112.2081379927813
 20
-129.1821234486073
 10
112.2081379927813
 20
-129.1821234486073
 10
113.7525742988188
 20
-129.1821234486073
 10
113.7525742988188
 20
-129.1821234486073
 10
113.7525742988188
 20
-129.1821234486073
 10
113.7525742988188
 20
-129.406399164697
 10
113.7525742988188
 20
-129.406399164697
 97
        0
 97
        0
 75
     2
 76
     1
 98
        0
  0
SPLINE
  5
156
330
150
100
AcDbEntity
  8
_U+30EC_U+30A4_U+30E4_U+30FC 1
370
     0
100
AcDbSpline
210
0.0
220
0.0
230
1.0
 70
    11
 71
     3
 72
    62
 73
    58
 74
     0
 42
0.0000000001
 43
0.0000000001
 12
1.0
 22
0.0
 32
0.0
 13
1.0
 23
0.0
 33
0.0
 40
0.0
 40
0.0
 40
0.0
 40
0.0
 40
1.0
 40
1.0
 40
1.0
 40
2.0
 40
2.0
 40
2.0
 40
3.0
 40
3.0
 40
3.0
 40
4.0
 40
4.0
 40
4.0
 40
5.0
 40
5.0
 40
5.0
 40
6.0
 40
6.0
 40
6.0
 40
7.0
 40
7.0
 40
7.0
 40
8.0
 40
8.0
 40
8.0
 40
9.0
 40
9.0
 40
9.0
 40
10.0
 40
10.0
 40
10.0
 40
11.0
 40
11.0
 40
11.0
 40
12.0
 40
12.0
 40
12.0
 40
13.0
 40
13.0
 40
13.0
 40
14.0
 40
14.0
 40
14.0
 40
15.0
 40
15.0
 40
15.0
 40
16.0
 40
16.0
 40
16.0
 40
17.0
 40
17.0
 40
17.0
 40
18.0
 40
18.0
 40
18.0
 40
19.0
 40
19.0
 40
19.0
 40
19.0
 10
113.803217202452
 20
-128.1892469297582
 30
0.0
 10
113.803217202452
 20
-128.2846760746997
 30
0.0
 10
113.782202119992
 20
-128.5024061093675
 30
0.0
 10
113.5961669637885
 20
-128.627463075482
 30
0.0
 10
113.4838568509693
 20
-128.7011881188664
 30
0.0
 10
113.3846381009941
 20
-128.7056667429972
 30
0.0
 10
113.299888752057
 20
-128.7098008575795
 30
0.0
 10
113.299888752057
 20
-128.7098008575795
 30
0.0
 10
113.299888752057
 20
-128.489659256072
 30
0.0
 10
113.299888752057
 20
-128.489659256072
 30
0.0
 10
113.3739583049899
 20
-128.4875921987809
 30
0.0
 10
113.6085693075354
 20
-128.4772569123251
 30
0.0
 10
113.6085693075354
 20
-128.1937255538891
 30
0.0
 10
113.6085693075354
 20
-128.0562662440276
 30
0.0
 10
113.5389783787333
 20
-127.903648514031
 30
0.0
 10
113.3105685480613
 20
-127.903648514031
 30
0.0
 10
113.1941243206598
 20
-127.903648514031
 30
0.0
 10
113.1455484743178
 20
-127.9418890739173
 30
0.0
 10
113.1138535958535
 20
-127.9735839523816
 30
0.0
 10
113.0397840429206
 20
-128.0476535053145
 30
0.0
 10
113.0270371896252
 20
-128.1640977327159
 30
0.0
 10
113.0270371896252
 20
-128.2188747509314
 30
0.0
 10
113.0270371896252
 20
-128.2381672856488
 30
0.0
 10
113.0291042469163
 20
-128.2739962786954
 30
0.0
 10
113.0332383614986
 20
-128.3015570425774
 30
0.0
 10
113.0332383614986
 20
-128.3015570425774
 30
0.0
 10
112.838590466582
 20
-128.3015570425774
 30
0.0
 10
112.838590466582
 20
-128.3015570425774
 30
0.0
 10
112.845136148004
 20
-128.2633164826911
 30
0.0
 10
112.8472032052951
 20
-128.2212863177711
 30
0.0
 10
112.8472032052951
 20
-128.2147406363491
 30
0.0
 10
112.8472032052951
 20
-128.1492838221293
 30
0.0
 10
112.8258436132866
 20
-127.9505018126304
 30
0.0
 10
112.5891655534499
 20
-127.9505018126304
 30
0.0
 10
112.411398626411
 20
-127.9505018126304
 30
0.0
 10
112.356277098647
 20
-128.0814154410699
 30
0.0
 10
112.356277098647
 20
-128.1916584965979
 30
0.0
 10
112.356277098647
 20
-128.4558973203166
 30
0.0
 10
112.5891655534499
 20
-128.4645100590297
 30
0.0
 10
112.6608235395431
 20
-128.468644173612
 30
0.0
 10
112.6608235395431
 20
-128.468644173612
 30
0.0
 10
112.6608235395431
 20
-128.6719048072418
 30
0.0
 10
112.6608235395431
 20
-128.6719048072418
 30
0.0
 10
112.5361110829771
 20
-128.6632920685286
 30
0.0
 10
112.1595621464393
 20
-128.6357313046466
 30
0.0
 10
112.1595621464393
 20
-128.1789116433025
 30
0.0
 10
112.1595621464393
 20
-127.9546359272127
 30
0.0
 10
112.286686169845
 20
-127.7134792432452
 30
0.0
 10
112.582619872028
 20
-127.7134792432452
 30
0.0
 10
112.76899953778
 20
-127.7134792432452
 30
0.0
 10
112.8513373198774
 20
-127.8085638786381
 30
0.0
 10
112.9126600195149
 20
-127.9081271381619
 30
0.0
 10
112.9402207833969
 20
-127.8468044385244
 30
0.0
 10
113.0204915082032
 20
-127.6649033969032
 30
0.0
 10
113.2978216947658
 20
-127.6649033969032
 30
0.0
 10
113.6361300714174
 20
-127.6649033969032
 30
0.0
 10
113.803217202452
 20
-127.9122612527442
 30
0.0
 10
113.803217202452
 20
-128.1892469297582
 30
0.0
  0
HATCH
  5
157
330
150
100
AcDbEntity
  8
_U+30EC_U+30A4_U+30E4_U+30FC 1
 62
     7
420
 16777215
100
AcDbHatch
 10
0.0
 20
0.0
 30
0.0
210
0.0
220
0.0
230
1.0
  2
SOLID
 70
     1
 71
     0
 91
        1
 92
        1
 93
        1
 72
     4
 94
        3
 73
     0
 74
     1
 95
       62
 96
       58
 40
0.0
 40
0.0
 40
0.0
 40
0.0
 40
1.0
 40
1.0
 40
1.0
 40
2.0
 40
2.0
 40
2.0
 40
3.0
 40
3.0
 40
3.0
 40
4.0
 40
4.0
 40
4.0
 40
5.0
 40
5.0
 40
5.0
 40
6.0
 40
6.0
 40
6.0
 40
7.0
 40
7.0
 40
7.0
 40
8.0
 40
8.0
 40
8.0
 40
9.0
 40
9.0
 40
9.0
 40
10.0
 40
10.0
 40
10.0
 40
11.0
 40
11.0
 40
11.0
 40
12.0
 40
12.0
 40
12.0
 40
13.0
 40
13.0
 40
13.0
 40
14.0
 40
14.0
 40
14.0
 40
15.0
 40
15.0
 40
15.0
 40
16.0
 40
16.0
 40
16.0
 40
17.0
 40
17.0
 40
17.0
 40
18.0
 40
18.0
 40
18.0
 40
19.0
 40
19.0
 40
19.0
 40
19.0
 10
113.803217202452
 20
-128.1892469297582
 10
113.803217202452
 20
-128.2846760746997
 10
113.782202119992
 20
-128.5024061093675
 10
113.5961669637885
 20
-128.627463075482
 10
113.4838568509693
 20
-128.7011881188664
 10
113.3846381009941
 20
-128.7056667429972
 10
113.299888752057
 20
-128.7098008575795
 10
113.299888752057
 20
-128.7098008575795
 10
113.299888752057
 20
-128.489659256072
 10
113.299888752057
 20
-128.489659256072
 10
113.3739583049899
 20
-128.4875921987809
 10
113.6085693075354
 20
-128.4772569123251
 10
113.6085693075354
 20
-128.1937255538891
 10
113.6085693075354
 20
-128.0562662440276
 10
113.5389783787333
 20
-127.903648514031
 10
113.3105685480613
 20
-127.903648514031
 10
113.1941243206598
 20
-127.903648514031
 10
113.1455484743178
 20
-127.9418890739173
 10
113.1138535958535
 20
-127.9735839523816
 10
113.0397840429206
 20
-128.0476535053145
 10
113.0270371896252
 20
-128.1640977327159
 10
113.0270371896252
 20
-128.2188747509314
 10
113.0270371896252
 20
-128.2381672856488
 10
113.0291042469163
 20
-128.2739962786954
 10
113.0332383614986
 20
-128.3015570425774
 10
113.0332383614986
 20
-128.3015570425774
 10
112.838590466582
 20
-128.3015570425774
 10
112.838590466582
 20
-128.3015570425774
 10
112.845136148004
 20
-128.2633164826911
 10
112.8472032052951
 20
-128.2212863177711
 10
112.8472032052951
 20
-128.2147406363491
 10
112.8472032052951
 20
-128.1492838221293
 10
112.8258436132866
 20
-127.9505018126304
 10
112.5891655534499
 20
-127.9505018126304
 10
112.411398626411
 20
-127.9505018126304
 10
112.356277098647
 20
-128.0814154410699
 10
112.356277098647
 20
-128.1916584965979
 10
112.356277098647
 20
-128.4558973203166
 10
112.5891655534499
 20
-128.4645100590297
 10
112.6608235395431
 20
-128.468644173612
 10
112.6608235395431
 20
-128.468644173612
 10
112.6608235395431
 20
-128.6719048072418
 10
112.6608235395431
 20
-128.6719048072418
 10
112.5361110829771
 20
-128.6632920685286
 10
112.1595621464393
 20
-128.6357313046466
 10
112.1595621464393
 20
-128.1789116433025
 10
112.1595621464393
 20
-127.9546359272127
 10
112.286686169845
 20
-127.7134792432452
 10
112.582619872028
 20
-127.7134792432452
 10
112.76899953778
 20
-127.7134792432452
 10
112.8513373198774
 20
-127.8085638786381
 10
112.9126600195149
 20
-127.9081271381619
 10
112.9402207833969
 20
-127.8468044385244
 10
113.0204915082032
 20
-127.6649033969032
 10
113.2978216947658
 20
-127.6649033969032
 10
113.6361300714174
 20
-127.6649033969032
 10
113.803217202452
 20
-127.9122612527442
 10
113.803217202452
 20
-128.1892469297582
 97
        0
 97
        0
 75
     2
 76
     1
 98
        0
  0
ENDBLK
  5
153
330
150
100
AcDbEntity
  8
0
100
AcDbBlockEnd
  0
ENDSEC
  0
SECTION
  2
ENTITIES
  0
POLYLINE
  5
41
330
1F
100
AcDbEntity
  8
_U+30EC_U+30A4_U+30E4_U+30FC 1
370
     0
100
AcDb2dPolyline
 66
     1
 10
0.0
 20
0.0
 30
0.0
  0
VERTEX
  5
42
330
41
100
AcDbEntity
  8
_U+30EC_U+30A4_U+30E4_U+30FC 1
370
     0
100
AcDbVertex
100
AcDb2dVertex
 10
65.75259026695612
 20
-122.2698849694326
 30
0.0
  0
VERTEX
  5
43
330
41
100
AcDbEntity
  8
_U+30EC_U+30A4_U+30E4_U+30FC 1
370
     0
100
AcDbVertex
100
AcDb2dVertex
 10
80.75252460649813
 20
-122.2698849694326
 30
0.0
  0
VERTEX
  5
44
330
41
100
AcDbEntity
  8
_U+30EC_U+30A4_U+30E4_U+30FC 1
370
     0
100
AcDbVertex
100
AcDb2dVertex
 10
80.75252460649813
 20
-138.2695919098769
 30
0.0
  0
VERTEX
  5
45
330
41
100
AcDbEntity
  8
_U+30EC_U+30A4_U+30E4_U+30FC 1
370
     0
100
AcDbVertex
100
AcDb2dVertex
 10
95.75196505716386
 20
-138.2695919098769
 30
0.0
  0
VERTEX
  5
46
330
41
100
AcDbEntity
  8
_U+30EC_U+30A4_U+30E4_U+30FC 1
370
     0
100
AcDbVertex
100
AcDb2dVertex
 10
95.75196505716386
 20
-135.2696049661825
 30
0.0
  0
VERTEX
  5
47
330
41
100
AcDbEntity
  8
_U+30EC_U+30A4_U+30E4_U+30FC 1
370
     0
100
AcDbVertex
100
AcDb2dVertex
 10
94.75219286044795
 20
-135.2696049661825
 30
0.0
  0
VERTEX
  5
48
330
41
100
AcDbEntity
  8
_U+30EC_U+30A4_U+30E4_U+30FC 1
370
     0
100
AcDbVertex
100
AcDb2dVertex
 10
94.75219286044795
 20
-137.2698196879049
 30
0.0
  0
VERTEX
  5
49
330
41
100
AcDbEntity
  8
_U+30EC_U+30A4_U+30E4_U+30FC 1
370
     0
100
AcDbVertex
100
AcDb2dVertex
 10
81.6523901390962
 20
-137.2698196879049
 30
0.0
  0
VERTEX
  5
4A
330
41
100
AcDbEntity
  8
_U+30EC_U+30A4_U+30E4_U+30FC 1
370
     0
100
AcDbVertex
100
AcDb2dVertex
 10
81.6523901390962
 20
-122.2698849694326
 30
0.0
  0
VERTEX
  5
4B
330
41
100
AcDbEntity
  8
_U+30EC_U+30A4_U+30E4_U+30FC 1
370
     0
100
AcDbVertex
100
AcDb2dVertex
 10
98.75195192507226
 20
-122.2698849694326
 30
0.0
  0
VERTEX
  5
4C
330
41
100
AcDbEntity
  8
_U+30EC_U+30A4_U+30E4_U+30FC 1
370
     0
100
AcDbVertex
100
AcDb2dVertex
 10
99.45196885165778
 20
-121.8199521917671
 30
0.0
  0
VERTEX
  5
4D
330
41
100
AcDbEntity
  8
_U+30EC_U+30A4_U+30E4_U+30FC 1
370
     0
100
AcDbVertex
100
AcDb2dVertex
 10
100.1520210560202
 20
-122.2698849694326
 30
0.0
  0
VERTEX
  5
4E
330
41
100
AcDbEntity
  8
_U+30EC_U+30A4_U+30E4_U+30FC 1
370
     0
100
AcDbVertex
100
AcDb2dVertex
 10
100.8520732603826
 20
-121.8199521917671
 30
0.0
  0
VERTEX
  5
4F
330
41
100
AcDbEntity
  8
_U+30EC_U+30A4_U+30E4_U+30FC 1
370
     0
100
AcDbVertex
100
AcDb2dVertex
 10
101.552125464745
 20
-122.2698849694326
 30
0.0
  0
VERTEX
  5
50
330
41
100
AcDbEntity
  8
_U+30EC_U+30A4_U+30E4_U+30FC 1
370
     0
100
AcDbVertex
100
AcDb2dVertex
 10
102.2521423913305
 20
-121.8199521917671
 30
0.0
  0
VERTEX
  5
51
330
41
100
AcDbEntity
  8
_U+30EC_U+30A4_U+30E4_U+30FC 1
370
     0
100
AcDbVertex
100
AcDb2dVertex
 10
102.9521971964844
 20
-122.2698849694326
 30
0.0
  0
VERTEX
  5
52
330
41
100
AcDbEntity
  8
_U+30EC_U+30A4_U+30E4_U+30FC 1
370
     0
100
AcDbVertex
100
AcDb2dVertex
 10
103.6522468000553
 20
-121.8199521917671
 30
0.0
  0
VERTEX
  5
53
330
41
100
AcDbEntity
  8
_U+30EC_U+30A4_U+30E4_U+30FC 1
370
     0
100
AcDbVertex
100
AcDb2dVertex
 10
104.3522990044177
 20
-122.2698849694326
 30
0.0
  0
VERTEX
  5
54
330
41
100
AcDbEntity
  8
_U+30EC_U+30A4_U+30E4_U+30FC 1
370
     0
100
AcDbVertex
100
AcDb2dVertex
 10
105.0516456532426
 20
-121.8199521917671
 30
0.0
  0
VERTEX
  5
55
330
41
100
AcDbEntity
  8
_U+30EC_U+30A4_U+30E4_U+30FC 1
370
     0
100
AcDbVertex
100
AcDb2dVertex
 10
105.751697857605
 20
-122.2698849694326
 30
0.0
  0
VERTEX
  5
56
330
41
100
AcDbEntity
  8
_U+30EC_U+30A4_U+30E4_U+30FC 1
370
     0
100
AcDbVertex
100
AcDb2dVertex
 10
110.7518993967059
 20
-122.2698849694326
 30
0.0
  0
VERTEX
  5
57
330
41
100
AcDbEntity
  8
_U+30EC_U+30A4_U+30E4_U+30FC 1
370
     0
100
AcDbVertex
100
AcDb2dVertex
 10
110.7518993967059
 20
-121.2694424696827
 30
0.0
  0
VERTEX
  5
58
330
41
100
AcDbEntity
  8
_U+30EC_U+30A4_U+30E4_U+30FC 1
370
     0
100
AcDbVertex
100
AcDb2dVertex
 10
65.75259026695612
 20
-121.2694424696827
 30
0.0
  0
VERTEX
  5
59
330
41
100
AcDbEntity
  8
_U+30EC_U+30A4_U+30E4_U+30FC 1
370
     0
100
AcDbVertex
100
AcDb2dVertex
 10
65.75259026695612
 20
-122.2698849694326
 30
0.0
  0
SEQEND
  5
5B
330
41
100
AcDbEntity
  8
_U+30EC_U+30A4_U+30E4_U+30FC 1
370
     0
  0
HATCH
  5
5A
330
1F
100
AcDbEntity
  8
_U+30EC_U+30A4_U+30E4_U+30FC 1
 62
   253
420
 11711154
100
AcDbHatch
 10
0.0
 20
0.0
 30
0.0
210
0.0
220
0.0
230
1.0
  2
SOLID
 70
     1
 71
     0
 91
        1
 92
        1
 93
       23
 72
     1
 10
65.75259026695612
 20
-122.2698849694326
 11
80.75252460649813
 21
-122.2698849694326
 72
     1
 10
80.75252460649813
 20
-122.2698849694326
 11
80.75252460649813
 21
-138.2695919098769
 72
     1
 10
80.75252460649813
 20
-138.2695919098769
 11
95.75196505716386
 21
-138.2695919098769
 72
     1
 10
95.75196505716386
 20
-138.2695919098769
 11
95.75196505716386
 21
-135.2696049661825
 72
     1
 10
95.75196505716386
 20
-135.2696049661825
 11
94.75219286044795
 21
-135.2696049661825
 72
     1
 10
94.75219286044795
 20
-135.2696049661825
 11
94.75219286044795
 21
-137.2698196879049
 72
     1
 10
94.75219286044795
 20
-137.2698196879049
 11
81.6523901390962
 21
-137.2698196879049
 72
     1
 10
81.6523901390962
 20
-137.2698196879049
 11
81.6523901390962
 21
-122.2698849694326
 72
     1
 10
81.6523901390962
 20
-122.2698849694326
 11
98.75195192507226
 21
-122.2698849694326
 72
     1
 10
98.75195192507226
 20
-122.2698849694326
 11
99.45196885165778
 21
-121.8199521917671
 72
     1
 10
99.45196885165778
 20
-121.8199521917671
 11
100.1520210560202
 21
-122.2698849694326
 72
     1
 10
100.1520210560202
 20
-122.2698849694326
 11
100.8520732603826
 21
-121.8199521917671
 72
     1
 10
100.8520732603826
 20
-121.8199521917671
 11
101.552125464745
 21
-122.2698849694326
 72
     1
 10
101.552125464745
 20
-122.2698849694326
 11
102.2521423913305
 21
-121.8199521917671
 72
     1
 10
102.2521423913305
 20
-121.8199521917671
 11
102.9521971964844
 21
-122.2698849694326
 72
     1
 10
102.9521971964844
 20
-122.2698849694326
 11
103.6522468000553
 21
-121.8199521917671
 72
     1
 10
103.6522468000553
 20
-121.8199521917671
 11
104.3522990044177
 21
-122.2698849694326
 72
     1
 10
104.3522990044177
 20
-122.2698849694326
 11
105.0516456532426
 21
-121.8199521917671
 72
     1
 10
105.0516456532426
 20
-121.8199521917671
 11
105.751697857605
 21
-122.2698849694326
 72
     1
 10
105.751697857605
 20
-122.2698849694326
 11
110.7518993967059
 21
-122.2698849694326
 72
     1
 10
110.7518993967059
 20
-122.2698849694326
 11
110.7518993967059
 21
-121.2694424696827
 72
     1
 10
110.7518993967059
 20
-121.2694424696827
 11
65.75259026695612
 21
-121.2694424696827
 72
     1
 10
65.75259026695612
 20
-121.2694424696827
 11
65.75259026695612
 21
-122.2698849694326
 97
        0
 75
     2
 76
     1
 98
        0
  0
POLYLINE
  5
5C
330
1F
100
AcDbEntity
  8
_U+30EC_U+30A4_U+30E4_U+30FC 1
 62
     7
420
 16777215
370
    25
100
AcDb2dPolyline
 66
     1
 10
0.0
 20
0.0
 30
0.0
  0
VERTEX
  5
5D
330
5C
100
AcDbEntity
  8
_U+30EC_U+30A4_U+30E4_U+30FC 1
 62
     7
420
 16777215
370
    25
100
AcDbVertex
100
AcDb2dVertex
 10
65.75259026695612
 20
-121.2694424696827
 30
0.0
  0
VERTEX
  5
5E
330
5C
100
AcDbEntity
  8
_U+30EC_U+30A4_U+30E4_U+30FC 1
 62
     7
420
 16777215
370
    25
100
AcDbVertex
100
AcDb2dVertex
 10
110.7518993967059
 20
-121.2694424696827
 30
0.0
  0
SEQEND
  5
5F
330
5C
100
AcDbEntity
  8
_U+30EC_U+30A4_U+30E4_U+30FC 1
 62
     7
420
 16777215
370
    25
  0
POLYLINE
  5
60
330
1F
100
AcDbEntity
  8
_U+30EC_U+30A4_U+30E4_U+30FC 1
 62
     7
420
 16777215
370
    25
100
AcDb2dPolyline
 66
     1
 10
0.0
 20
0.0
 30
0.0
  0
VERTEX
  5
61
330
60
100
AcDbEntity
  8
_U+30EC_U+30A4_U+30E4_U+30FC 1
 62
     7
420
 16777215
370
    25
100
AcDbVertex
100
AcDb2dVertex
 10
65.75259026695612
 20
-122.2698849694326
 30
0.0
  0
VERTEX
  5
62
330
60
100
AcDbEntity
  8
_U+30EC_U+30A4_U+30E4_U+30FC 1
 62
     7
420
 16777215
370
    25
100
AcDbVertex
100
AcDb2dVertex
 10
80.75252460649813
 20
-122.2698849694326
 30
0.0
  0
SEQEND
  5
63
330
60
100
AcDbEntity
  8
_U+30EC_U+30A4_U+30E4_U+30FC 1
 62
     7
420
 16777215
370
    25
  0
POLYLINE
  5
64
330
1F
100
AcDbEntity
  8
_U+30EC_U+30A4_U+30E4_U+30FC 1
 62
     7
420
 16777215
370
    25
100
AcDb2dPolyline
 66
     1
 10
0.0
 20
0.0
 30
0.0
  0
VERTEX
  5
65
330
64
100
AcDbEntity
  8
_U+30EC_U+30A4_U+30E4_U+30FC 1
 62
     7
420
 16777215
370
    25
100
AcDbVertex
100
AcDb2dVertex
 10
110.7518993967059
 20
-122.2698849694326
 30
0.0
  0
VERTEX
  5
66
330
64
100
AcDbEntity
  8
_U+30EC_U+30A4_U+30E4_U+30FC 1
 62
     7
420
 16777215
370
    25
100
AcDbVertex
100
AcDb2dVertex
 10
110.7518993967059
 20
-121.2694424696827
 30
0.0
  0
SEQEND
  5
67
330
64
100
AcDbEntity
  8
_U+30EC_U+30A4_U+30E4_U+30FC 1
 62
     7
420
 16777215
370
    25
  0
POLYLINE
  5
68
330
1F
100
AcDbEntity
  8
_U+30EC_U+30A4_U+30E4_U+30FC 1
 62
     7
420
 16777215
370
    25
100
AcDb2dPolyline
 66
     1
 10
0.0
 20
0.0
 30
0.0
  0
VERTEX
  5
69
330
68
100
AcDbEntity
  8
_U+30EC_U+30A4_U+30E4_U+30FC 1
 62
     7
420
 16777215
370
    25
100
AcDbVertex
100
AcDb2dVertex
 10
81.6523901390962
 20
-122.2698849694326
 30
0.0
  0
VERTEX
  5
6A
330
68
100
AcDbEntity
  8
_U+30EC_U+30A4_U+30E4_U+30FC 1
 62
     7
420
 16777215
370
    25
100
AcDbVertex
100
AcDb2dVertex
 10
98.75195192507226
 20
-122.2698849694326
 30
0.0
  0
SEQEND
  5
6B
330
68
100
AcDbEntity
  8
_U+30EC_U+30A4_U+30E4_U+30FC 1
 62
     7
420
 16777215
370
    25
  0
POLYLINE
  5
6C
330
1F
100
AcDbEntity
  8
_U+30EC_U+30A4_U+30E4_U+30FC 1
 62
     7
420
 16777215
370
    25
100
AcDb2dPolyline
 66
     1
 10
0.0
 20
0.0
 30
0.0
  0
VERTEX
  5
6D
330
6C
100
AcDbEntity
  8
_U+30EC_U+30A4_U+30E4_U+30FC 1
 62
     7
420
 16777215
370
    25
100
AcDbVertex
100
AcDb2dVertex
 10
104.3522990044177
 20
-122.2698849694326
 30
0.0
  0
VERTEX
  5
6E
330
6C
100
AcDbEntity
  8
_U+30EC_U+30A4_U+30E4_U+30FC 1
 62
     7
420
 16777215
370
    25
100
AcDbVertex
100
AcDb2dVertex
 10
105.0516456532426
 20
-121.8199521917671
 30
0.0
  0
SEQEND
  5
6F
330
6C
100
AcDbEntity
  8
_U+30EC_U+30A4_U+30E4_U+30FC 1
 62
     7
420
 16777215
370
    25
  0
POLYLINE
  5
70
330
1F
100
AcDbEntity
  8
_U+30EC_U+30A4_U+30E4_U+30FC 1
 62
     7
420
 16777215
370
    25
100
AcDb2dPolyline
 66
     1
 10
0.0
 20
0.0
 30
0.0
  0
VERTEX
  5
71
330
70
100
AcDbEntity
  8
_U+30EC_U+30A4_U+30E4_U+30FC 1
 62
     7
420
 16777215
370
    25
100
AcDbVertex
100
AcDb2dVertex
 10
105.751697857605
 20
-122.2698849694326
 30
0.0
  0
VERTEX
  5
72
330
70
100
AcDbEntity
  8
_U+30EC_U+30A4_U+30E4_U+30FC 1
 62
     7
420
 16777215
370
    25
100
AcDbVertex
100
AcDb2dVertex
 10
105.0516456532426
 20
-121.8199521917671
 30
0.0
  0
SEQEND
  5
73
330
70
100
AcDbEntity
  8
_U+30EC_U+30A4_U+30E4_U+30FC 1
 62
     7
420
 16777215
370
    25
  0
POLYLINE
  5
74
330
1F
100
AcDbEntity
  8
_U+30EC_U+30A4_U+30E4_U+30FC 1
 62
     7
420
 16777215
370
    25
100
AcDb2dPolyline
 66
     1
 10
0.0
 20
0.0
 30
0.0
  0
VERTEX
  5
75
330
74
100
AcDbEntity
  8
_U+30EC_U+30A4_U+30E4_U+30FC 1
 62
     7
420
 16777215
370
    25
100
AcDbVertex
100
AcDb2dVertex
 10
104.3522990044177
 20
-122.2698849694326
 30
0.0
  0
VERTEX
  5
76
330
74
100
AcDbEntity
  8
_U+30EC_U+30A4_U+30E4_U+30FC 1
 62
     7
420
 16777215
370
    25
100
AcDbVertex
100
AcDb2dVertex
 10
103.6522468000553
 20
-121.8199521917671
 30
0.0
  0
SEQEND
  5
77
330
74
100
AcDbEntity
  8
_U+30EC_U+30A4_U+30E4_U+30FC 1
 62
     7
420
 16777215
370
    25
  0
POLYLINE
  5
78
330
1F
100
AcDbEntity
  8
_U+30EC_U+30A4_U+30E4_U+30FC 1
 62
     7
420
 16777215
370
    25
100
AcDb2dPolyline
 66
     1
 10
0.0
 20
0.0
 30
0.0
  0
VERTEX
  5
79
330
78
100
AcDbEntity
  8
_U+30EC_U+30A4_U+30E4_U+30FC 1
 62
     7
420
 16777215
370
    25
100
AcDbVertex
100
AcDb2dVertex
 10
102.9521971964844
 20
-122.2698849694326
 30
0.0
  0
VERTEX
  5
7A
330
78
100
AcDbEntity
  8
_U+30EC_U+30A4_U+30E4_U+30FC 1
 62
     7
420
 16777215
370
    25
100
AcDbVertex
100
AcDb2dVertex
 10
103.6522468000553
 20
-121.8199521917671
 30
0.0
  0
SEQEND
  5
7B
330
78
100
AcDbEntity
  8
_U+30EC_U+30A4_U+30E4_U+30FC 1
 62
     7
420
 16777215
370
    25
  0
POLYLINE
  5
7C
330
1F
100
AcDbEntity
  8
_U+30EC_U+30A4_U+30E4_U+30FC 1
 62
     7
420
 16777215
370
    25
100
AcDb2dPolyline
 66
     1
 10
0.0
 20
0.0
 30
0.0
  0
VERTEX
  5
7D
330
7C
100
AcDbEntity
  8
_U+30EC_U+30A4_U+30E4_U+30FC 1
 62
     7
420
 16777215
370
    25
100
AcDbVertex
100
AcDb2dVertex
 10
101.552125464745
 20
-122.2698849694326
 30
0.0
  0
VERTEX
  5
7E
330
7C
100
AcDbEntity
  8
_U+30EC_U+30A4_U+30E4_U+30FC 1
 62
     7
420
 16777215
370
    25
100
AcDbVertex
100
AcDb2dVertex
 10
102.2521423913305
 20
-121.8199521917671
 30
0.0
  0
SEQEND
  5
7F
330
7C
100
AcDbEntity
  8
_U+30EC_U+30A4_U+30E4_U+30FC 1
 62
     7
420
 16777215
370
    25
  0
POLYLINE
  5
80
330
1F
100
AcDbEntity
  8
_U+30EC_U+30A4_U+30E4_U+30FC 1
 62
     7
420
 16777215
370
    25
100
AcDb2dPolyline
 66
     1
 10
0.0
 20
0.0
 30
0.0
  0
VERTEX
  5
81
330
80
100
AcDbEntity
  8
_U+30EC_U+30A4_U+30E4_U+30FC 1
 62
     7
420
 16777215
370
    25
100
AcDbVertex
100
AcDb2dVertex
 10
102.9521971964844
 20
-122.2698849694326
 30
0.0
  0
VERTEX
  5
82
330
80
100
AcDbEntity
  8
_U+30EC_U+30A4_U+30E4_U+30FC 1
 62
     7
420
 16777215
370
    25
100
AcDbVertex
100
AcDb2dVertex
 10
102.2521423913305
 20
-121.8199521917671
 30
0.0
  0
SEQEND
  5
83
330
80
100
AcDbEntity
  8
_U+30EC_U+30A4_U+30E4_U+30FC 1
 62
     7
420
 16777215
370
    25
  0
POLYLINE
  5
84
330
1F
100
AcDbEntity
  8
_U+30EC_U+30A4_U+30E4_U+30FC 1
 62
     7
420
 16777215
370
    25
100
AcDb2dPolyline
 66
     1
 10
0.0
 20
0.0
 30
0.0
  0
VERTEX
  5
85
330
84
100
AcDbEntity
  8
_U+30EC_U+30A4_U+30E4_U+30FC 1
 62
     7
420
 16777215
370
    25
100
AcDbVertex
100
AcDb2dVertex
 10
101.552125464745
 20
-122.2698849694326
 30
0.0
  0
VERTEX
  5
86
330
84
100
AcDbEntity
  8
_U+30EC_U+30A4_U+30E4_U+30FC 1
 62
     7
420
 16777215
370
    25
100
AcDbVertex
100
AcDb2dVertex
 10
100.8520732603826
 20
-121.8199521917671
 30
0.0
  0
SEQEND
  5
87
330
84
100
AcDbEntity
  8
_U+30EC_U+30A4_U+30E4_U+30FC 1
 62
     7
420
 16777215
370
    25
  0
POLYLINE
  5
88
330
1F
100
AcDbEntity
  8
_U+30EC_U+30A4_U+30E4_U+30FC 1
 62
     7
420
 16777215
370
    25
100
AcDb2dPolyline
 66
     1
 10
0.0
 20
0.0
 30
0.0
  0
VERTEX
  5
89
330
88
100
AcDbEntity
  8
_U+30EC_U+30A4_U+30E4_U+30FC 1
 62
     7
420
 16777215
370
    25
100
AcDbVertex
100
AcDb2dVertex
 10
100.1520210560202
 20
-122.2698849694326
 30
0.0
  0
VERTEX
  5
8A
330
88
100
AcDbEntity
  8
_U+30EC_U+30A4_U+30E4_U+30FC 1
 62
     7
420
 16777215
370
    25
100
AcDbVertex
100
AcDb2dVertex
 10
100.8520732603826
 20
-121.8199521917671
 30
0.0
  0
SEQEND
  5
8B
330
88
100
AcDbEntity
  8
_U+30EC_U+30A4_U+30E4_U+30FC 1
 62
     7
420
 16777215
370
    25
  0
POLYLINE
  5
8C
330
1F
100
AcDbEntity
  8
_U+30EC_U+30A4_U+30E4_U+30FC 1
 62
     7
420
 16777215
370
    25
100
AcDb2dPolyline
 66
     1
 10
0.0
 20
0.0
 30
0.0
  0
VERTEX
  5
8D
330
8C
100
AcDbEntity
  8
_U+30EC_U+30A4_U+30E4_U+30FC 1
 62
     7
420
 16777215
370
    25
100
AcDbVertex
100
AcDb2dVertex
 10
100.1520210560202
 20
-122.2698849694326
 30
0.0
  0
VERTEX
  5
8E
330
8C
100
AcDbEntity
  8
_U+30EC_U+30A4_U+30E4_U+30FC 1
 62
     7
420
 16777215
370
    25
100
AcDbVertex
100
AcDb2dVertex
 10
99.45196885165778
 20
-121.8199521917671
 30
0.0
  0
SEQEND
  5
8F
330
8C
100
AcDbEntity
  8
_U+30EC_U+30A4_U+30E4_U+30FC 1
 62
     7
420
 16777215
370
    25
  0
POLYLINE
  5
90
330
1F
100
AcDbEntity
  8
_U+30EC_U+30A4_U+30E4_U+30FC 1
 62
     7
420
 16777215
370
    25
100
AcDb2dPolyline
 66
     1
 10
0.0
 20
0.0
 30
0.0
  0
VERTEX
  5
91
330
90
100
AcDbEntity
  8
_U+30EC_U+30A4_U+30E4_U+30FC 1
 62
     7
420
 16777215
370
    25
100
AcDbVertex
100
AcDb2dVertex
 10
98.75195192507226
 20
-122.2698849694326
 30
0.0
  0
VERTEX
  5
92
330
90
100
AcDbEntity
  8
_U+30EC_U+30A4_U+30E4_U+30FC 1
 62
     7
420
 16777215
370
    25
100
AcDbVertex
100
AcDb2dVertex
 10
99.45196885165778
 20
-121.8199521917671
 30
0.0
  0
SEQEND
  5
93
330
90
100
AcDbEntity
  8
_U+30EC_U+30A4_U+30E4_U+30FC 1
 62
     7
420
 16777215
370
    25
  0
POLYLINE
  5
94
330
1F
100
AcDbEntity
  8
_U+30EC_U+30A4_U+30E4_U+30FC 1
 62
     7
420
 16777215
370
    25
100
AcDb2dPolyline
 66
     1
 10
0.0
 20
0.0
 30
0.0
  0
VERTEX
  5
95
330
94
100
AcDbEntity
  8
_U+30EC_U+30A4_U+30E4_U+30FC 1
 62
     7
420
 16777215
370
    25
100
AcDbVertex
100
AcDb2dVertex
 10
105.751697857605
 20
-122.2698849694326
 30
0.0
  0
VERTEX
  5
96
330
94
100
AcDbEntity
  8
_U+30EC_U+30A4_U+30E4_U+30FC 1
 62
     7
420
 16777215
370
    25
100
AcDbVertex
100
AcDb2dVertex
 10
110.7518993967059
 20
-122.2698849694326
 30
0.0
  0
SEQEND
  5
97
330
94
100
AcDbEntity
  8
_U+30EC_U+30A4_U+30E4_U+30FC 1
 62
     7
420
 16777215
370
    25
  0
POLYLINE
  5
98
330
1F
100
AcDbEntity
  8
_U+30EC_U+30A4_U+30E4_U+30FC 1
 62
     7
420
 16777215
370
    25
100
AcDb2dPolyline
 66
     1
 10
0.0
 20
0.0
 30
0.0
  0
VERTEX
  5
99
330
98
100
AcDbEntity
  8
_U+30EC_U+30A4_U+30E4_U+30FC 1
 62
     7
420
 16777215
370
    25
100
AcDbVertex
100
AcDb2dVertex
 10
65.75259026695612
 20
-122.2698849694326
 30
0.0
  0
VERTEX
  5
9A
330
98
100
AcDbEntity
  8
_U+30EC_U+30A4_U+30E4_U+30FC 1
 62
     7
420
 16777215
370
    25
100
AcDbVertex
100
AcDb2dVertex
 10
65.75259026695612
 20
-121.2694424696827
 30
0.0
  0
SEQEND
  5
9B
330
98
100
AcDbEntity
  8
_U+30EC_U+30A4_U+30E4_U+30FC 1
 62
     7
420
 16777215
370
    25
  0
POLYLINE
  5
9C
330
1F
100
AcDbEntity
  8
_U+30EC_U+30A4_U+30E4_U+30FC 1
 62
     7
420
 16777215
370
    25
100
AcDb2dPolyline
 66
     1
 10
0.0
 20
0.0
 30
0.0
  0
VERTEX
  5
9D
330
9C
100
AcDbEntity
  8
_U+30EC_U+30A4_U+30E4_U+30FC 1
 62
     7
420
 16777215
370
    25
100
AcDbVertex
100
AcDb2dVertex
 10
80.75252460649813
 20
-138.2695919098769
 30
0.0
  0
VERTEX
  5
9E
330
9C
100
AcDbEntity
  8
_U+30EC_U+30A4_U+30E4_U+30FC 1
 62
     7
420
 16777215
370
    25
100
AcDbVertex
100
AcDb2dVertex
 10
80.75252460649813
 20
-122.2698849694326
 30
0.0
  0
SEQEND
  5
9F
330
9C
100
AcDbEntity
  8
_U+30EC_U+30A4_U+30E4_U+30FC 1
 62
     7
420
 16777215
370
    25
  0
POLYLINE
  5
A0
330
1F
100
AcDbEntity
  8
_U+30EC_U+30A4_U+30E4_U+30FC 1
 62
     7
420
 16777215
370
    25
100
AcDb2dPolyline
 66
     1
 10
0.0
 20
0.0
 30
0.0
  0
VERTEX
  5
A1
330
A0
100
AcDbEntity
  8
_U+30EC_U+30A4_U+30E4_U+30FC 1
 62
     7
420
 16777215
370
    25
100
AcDbVertex
100
AcDb2dVertex
 10
94.75219286044795
 20
-135.2696049661825
 30
0.0
  0
VERTEX
  5
A2
330
A0
100
AcDbEntity
  8
_U+30EC_U+30A4_U+30E4_U+30FC 1
 62
     7
420
 16777215
370
    25
100
AcDbVertex
100
AcDb2dVertex
 10
95.75196505716386
 20
-135.2696049661825
 30
0.0
  0
SEQEND
  5
A3
330
A0
100
AcDbEntity
  8
_U+30EC_U+30A4_U+30E4_U+30FC 1
 62
     7
420
 16777215
370
    25
  0
POLYLINE
  5
A4
330
1F
100
AcDbEntity
  8
_U+30EC_U+30A4_U+30E4_U+30FC 1
 62
     7
420
 16777215
370
    25
100
AcDb2dPolyline
 66
     1
 10
0.0
 20
0.0
 30
0.0
  0
VERTEX
  5
A5
330
A4
100
AcDbEntity
  8
_U+30EC_U+30A4_U+30E4_U+30FC 1
 62
     7
420
 16777215
370
    25
100
AcDbVertex
100
AcDb2dVertex
 10
80.75252460649813
 20
-138.2695919098769
 30
0.0
  0
VERTEX
  5
A6
330
A4
100
AcDbEntity
  8
_U+30EC_U+30A4_U+30E4_U+30FC 1
 62
     7
420
 16777215
370
    25
100
AcDbVertex
100
AcDb2dVertex
 10
95.75196505716386
 20
-138.2695919098769
 30
0.0
  0
SEQEND
  5
A7
330
A4
100
AcDbEntity
  8
_U+30EC_U+30A4_U+30E4_U+30FC 1
 62
     7
420
 16777215
370
    25
  0
POLYLINE
  5
A8
330
1F
100
AcDbEntity
  8
_U+30EC_U+30A4_U+30E4_U+30FC 1
 62
     7
420
 16777215
370
    25
100
AcDb2dPolyline
 66
     1
 10
0.0
 20
0.0
 30
0.0
  0
VERTEX
  5
A9
330
A8
100
AcDbEntity
  8
_U+30EC_U+30A4_U+30E4_U+30FC 1
 62
     7
420
 16777215
370
    25
100
AcDbVertex
100
AcDb2dVertex
 10
81.6523901390962
 20
-137.2698196879049
 30
0.0
  0
VERTEX
  5
AA
330
A8
100
AcDbEntity
  8
_U+30EC_U+30A4_U+30E4_U+30FC 1
 62
     7
420
 16777215
370
    25
100
AcDbVertex
100
AcDb2dVertex
 10
94.75219286044795
 20
-137.2698196879049
 30
0.0
  0
SEQEND
  5
AB
330
A8
100
AcDbEntity
  8
_U+30EC_U+30A4_U+30E4_U+30FC 1
 62
     7
420
 16777215
370
    25
  0
POLYLINE
  5
AC
330
1F
100
AcDbEntity
  8
_U+30EC_U+30A4_U+30E4_U+30FC 1
 62
     7
420
 16777215
370
    25
100
AcDb2dPolyline
 66
     1
 10
0.0
 20
0.0
 30
0.0
  0
VERTEX
  5
AD
330
AC
100
AcDbEntity
  8
_U+30EC_U+30A4_U+30E4_U+30FC 1
 62
     7
420
 16777215
370
    25
100
AcDbVertex
100
AcDb2dVertex
 10
95.75196505716386
 20
-138.2695919098769
 30
0.0
  0
VERTEX
  5
AE
330
AC
100
AcDbEntity
  8
_U+30EC_U+30A4_U+30E4_U+30FC 1
 62
     7
420
 16777215
370
    25
100
AcDbVertex
100
AcDb2dVertex
 10
95.75196505716386
 20
-135.2696049661825
 30
0.0
  0
SEQEND
  5
AF
330
AC
100
AcDbEntity
  8
_U+30EC_U+30A4_U+30E4_U+30FC 1
 62
     7
420
 16777215
370
    25
  0
POLYLINE
  5
B0
330
1F
100
AcDbEntity
  8
_U+30EC_U+30A4_U+30E4_U+30FC 1
 62
     7
420
 16777215
370
    25
100
AcDb2dPolyline
 66
     1
 10
0.0
 20
0.0
 30
0.0
  0
VERTEX
  5
B1
330
B0
100
AcDbEntity
  8
_U+30EC_U+30A4_U+30E4_U+30FC 1
 62
     7
420
 16777215
370
    25
100
AcDbVertex
100
AcDb2dVertex
 10
94.75219286044795
 20
-137.2698196879049
 30
0.0
  0
VERTEX
  5
B2
330
B0
100
AcDbEntity
  8
_U+30EC_U+30A4_U+30E4_U+30FC 1
 62
     7
420
 16777215
370
    25
100
AcDbVertex
100
AcDb2dVertex
 10
94.75219286044795
 20
-135.2696049661825
 30
0.0
  0
SEQEND
  5
B3
330
B0
100
AcDbEntity
  8
_U+30EC_U+30A4_U+30E4_U+30FC 1
 62
     7
420
 16777215
370
    25
  0
POLYLINE
  5
B4
330
1F
100
AcDbEntity
  8
_U+30EC_U+30A4_U+30E4_U+30FC 1
 62
     7
420
 16777215
370
    25
100
AcDb2dPolyline
 66
     1
 10
0.0
 20
0.0
 30
0.0
  0
VERTEX
  5
B5
330
B4
100
AcDbEntity
  8
_U+30EC_U+30A4_U+30E4_U+30FC 1
 62
     7
420
 16777215
370
    25
100
AcDbVertex
100
AcDb2dVertex
 10
81.6523901390962
 20
-137.2698196879049
 30
0.0
  0
VERTEX
  5
B6
330
B4
100
AcDbEntity
  8
_U+30EC_U+30A4_U+30E4_U+30FC 1
 62
     7
420
 16777215
370
    25
100
AcDbVertex
100
AcDb2dVertex
 10
81.6523901390962
 20
-122.2698849694326
 30
0.0
  0
SEQEND
  5
B7
330
B4
100
AcDbEntity
  8
_U+30EC_U+30A4_U+30E4_U+30FC 1
 62
     7
420
 16777215
370
    25
  0
SPLINE
  5
B8
330
1F
100
AcDbEntity
  8
_U+30EC_U+30A4_U+30E4_U+30FC 1
 62
     7
420
 16777215
370
     9
100
AcDbSpline
210
0.0
220
0.0
230
1.0
 70
    11
 71
     3
 72
    17
 73
    13
 74
     0
 42
0.0000000001
 43
0.0000000001
 12
1.0
 22
0.0
 32
0.0
 13
1.0
 23
0.0
 33
0.0
 40
0.0
 40
0.0
 40
0.0
 40
0.0
 40
1.0
 40
1.0
 40
1.0
 40
2.0
 40
2.0
 40
2.0
 40
3.0
 40
3.0
 40
3.0
 40
4.0
 40
4.0
 40
4.0
 40
4.0
 10
65.85249693107394
 20
-117.2696833040158
 30
0.0
 10
65.85249693107394
 20
-117.214544137363
 30
0.0
 10
65.80769415443919
 20
-117.1697766373742
 30
0.0
 10
65.75259026695612
 20
-117.1697766373742
 30
0.0
 10
65.69745276135352
 20
-117.1697766373742
 30
0.0
 10
65.65268360283828
 20
-117.214544137363
 30
0.0
 10
65.65268360283828
 20
-117.2696833040158
 30
0.0
 10
65.65268360283828
 20
-117.324787192891
 30
0.0
 10
65.69745276135352
 20
-117.3695899706578
 30
0.0
 10
65.75259026695612
 20
-117.3695899706578
 30
0.0
 10
65.80769415443919
 20
-117.3695899706578
 30
0.0
 10
65.85249693107394
 20
-117.324787192891
 30
0.0
 10
65.85249693107394
 20
-117.2696833040158
 30
0.0
  0
SPLINE
  5
B9
330
1F
100
AcDbEntity
  8
_U+30EC_U+30A4_U+30E4_U+30FC 1
 62
     7
420
 16777215
370
     9
100
AcDbSpline
210
0.0
220
0.0
230
1.0
 70
    11
 71
     3
 72
    17
 73
    13
 74
     0
 42
0.0000000001
 43
0.0000000001
 12
1.0
 22
0.0
 32
0.0
 13
1.0
 23
0.0
 33
0.0
 40
0.0
 40
0.0
 40
0.0
 40
0.0
 40
1.0
 40
1.0
 40
1.0
 40
2.0
 40
2.0
 40
2.0
 40
3.0
 40
3.0
 40
3.0
 40
4.0
 40
4.0
 40
4.0
 40
4.0
 10
110.8518060608237
 20
-117.2696833040158
 30
0.0
 10
110.8518060608237
 20
-117.214544137363
 30
0.0
 10
110.8070032841889
 20
-117.1697766373742
 30
0.0
 10
110.7518993967059
 20
-117.1697766373742
 30
0.0
 10
110.6967602314459
 20
-117.1697766373742
 30
0.0
 10
110.651992732588
 20
-117.214544137363
 30
0.0
 10
110.651992732588
 20
-117.2696833040158
 30
0.0
 10
110.651992732588
 20
-117.324787192891
 30
0.0
 10
110.6967602314459
 20
-117.3695899706578
 30
0.0
 10
110.7518993967059
 20
-117.3695899706578
 30
0.0
 10
110.8070032841889
 20
-117.3695899706578
 30
0.0
 10
110.8518060608237
 20
-117.324787192891
 30
0.0
 10
110.8518060608237
 20
-117.2696833040158
 30
0.0
  0
SPLINE
  5
BA
330
1F
100
AcDbEntity
  8
_U+30EC_U+30A4_U+30E4_U+30FC 1
 62
     7
420
 16777215
370
     9
100
AcDbSpline
210
0.0
220
0.0
230
1.0
 70
    11
 71
     3
 72
    17
 73
    13
 74
     0
 42
0.0000000001
 43
0.0000000001
 12
1.0
 22
0.0
 32
0.0
 13
1.0
 23
0.0
 33
0.0
 40
0.0
 40
0.0
 40
0.0
 40
0.0
 40
1.0
 40
1.0
 40
1.0
 40
2.0
 40
2.0
 40
2.0
 40
3.0
 40
3.0
 40
3.0
 40
4.0
 40
4.0
 40
4.0
 40
4.0
 10
114.8522354032087
 20
-121.2694424696827
 30
0.0
 10
114.8522354032087
 20
-121.2143033030296
 30
0.0
 10
114.8074679043508
 20
-121.169535803041
 30
0.0
 10
114.7516584613302
 20
-121.169535803041
 30
0.0
 10
114.696522193548
 20
-121.169535803041
 30
0.0
 10
114.6517517972124
 20
-121.2143033030296
 30
0.0
 10
114.6517517972124
 20
-121.2694424696827
 30
0.0
 10
114.6517517972124
 20
-121.3252519141131
 30
0.0
 10
114.696522193548
 20
-121.3693491363243
 30
0.0
 10
114.7516584613302
 20
-121.3693491363243
 30
0.0
 10
114.8074679043508
 20
-121.3693491363243
 30
0.0
 10
114.8522354032087
 20
-121.3252519141131
 30
0.0
 10
114.8522354032087
 20
-121.2694424696827
 30
0.0
  0
SPLINE
  5
BB
330
1F
100
AcDbEntity
  8
_U+30EC_U+30A4_U+30E4_U+30FC 1
 62
     7
420
 16777215
370
     9
100
AcDbSpline
210
0.0
220
0.0
230
1.0
 70
    11
 71
     3
 72
    17
 73
    13
 74
     0
 42
0.0000000001
 43
0.0000000001
 12
1.0
 22
0.0
 32
0.0
 13
1.0
 23
0.0
 33
0.0
 40
0.0
 40
0.0
 40
0.0
 40
0.0
 40
1.0
 40
1.0
 40
1.0
 40
2.0
 40
2.0
 40
2.0
 40
3.0
 40
3.0
 40
3.0
 40
4.0
 40
4.0
 40
4.0
 40
4.0
 10
114.8522354032087
 20
-122.2698849694326
 30
0.0
 10
114.8522354032087
 20
-122.2147458027795
 30
0.0
 10
114.8074679043508
 20
-122.169978302791
 30
0.0
 10
114.7516584613302
 20
-122.169978302791
 30
0.0
 10
114.696522193548
 20
-122.169978302791
 30
0.0
 10
114.6517517972124
 20
-122.2147458027795
 30
0.0
 10
114.6517517972124
 20
-122.2698849694326
 30
0.0
 10
114.6517517972124
 20
-122.3249888583075
 30
0.0
 10
114.696522193548
 20
-122.3697916360742
 30
0.0
 10
114.7516584613302
 20
-122.3697916360742
 30
0.0
 10
114.8074679043508
 20
-122.3697916360742
 30
0.0
 10
114.8522354032087
 20
-122.3249888583075
 30
0.0
 10
114.8522354032087
 20
-122.2698849694326
 30
0.0
  0
SPLINE
  5
BC
330
1F
100
AcDbEntity
  8
_U+30EC_U+30A4_U+30E4_U+30FC 1
 62
     7
420
 16777215
370
     9
100
AcDbSpline
210
0.0
220
0.0
230
1.0
 70
    11
 71
     3
 72
    17
 73
    13
 74
     0
 42
0.0000000001
 43
0.0000000001
 12
1.0
 22
0.0
 32
0.0
 13
1.0
 23
0.0
 33
0.0
 40
0.0
 40
0.0
 40
0.0
 40
0.0
 40
1.0
 40
1.0
 40
1.0
 40
2.0
 40
2.0
 40
2.0
 40
3.0
 40
3.0
 40
3.0
 40
4.0
 40
4.0
 40
4.0
 40
4.0
 10
114.8522354032087
 20
-135.2696049661825
 30
0.0
 10
114.8522354032087
 20
-135.2145010773076
 30
0.0
 10
114.8074679043508
 20
-135.1696982995409
 30
0.0
 10
114.7516584613302
 20
-135.1696982995409
 30
0.0
 10
114.696522193548
 20
-135.1696982995409
 30
0.0
 10
114.6517517972124
 20
-135.2145010773076
 30
0.0
 10
114.6517517972124
 20
-135.2696049661825
 30
0.0
 10
114.6517517972124
 20
-135.3247441328356
 30
0.0
 10
114.696522193548
 20
-135.3695116328241
 30
0.0
 10
114.7516584613302
 20
-135.3695116328241
 30
0.0
 10
114.8074679043508
 20
-135.3695116328241
 30
0.0
 10
114.8522354032087
 20
-135.3247441328356
 30
0.0
 10
114.8522354032087
 20
-135.2696049661825
 30
0.0
  0
SPLINE
  5
BD
330
1F
100
AcDbEntity
  8
_U+30EC_U+30A4_U+30E4_U+30FC 1
 62
     7
420
 16777215
370
     9
100
AcDbSpline
210
0.0
220
0.0
230
1.0
 70
    11
 71
     3
 72
    17
 73
    13
 74
     0
 42
0.0000000001
 43
0.0000000001
 12
1.0
 22
0.0
 32
0.0
 13
1.0
 23
0.0
 33
0.0
 40
0.0
 40
0.0
 40
0.0
 40
0.0
 40
1.0
 40
1.0
 40
1.0
 40
2.0
 40
2.0
 40
2.0
 40
3.0
 40
3.0
 40
3.0
 40
4.0
 40
4.0
 40
4.0
 40
4.0
 10
114.8522354032087
 20
-138.2695919098769
 30
0.0
 10
114.8522354032087
 20
-138.2144880210019
 30
0.0
 10
114.8074679043508
 20
-138.1696852432352
 30
0.0
 10
114.7516584613302
 20
-138.1696852432352
 30
0.0
 10
114.696522193548
 20
-138.1696852432352
 30
0.0
 10
114.6517517972124
 20
-138.2144880210019
 30
0.0
 10
114.6517517972124
 20
-138.2695919098769
 30
0.0
 10
114.6517517972124
 20
-138.3247310765299
 30
0.0
 10
114.696522193548
 20
-138.3694985765185
 30
0.0
 10
114.7516584613302
 20
-138.3694985765185
 30
0.0
 10
114.8074679043508
 20
-138.3694985765185
 30
0.0
 10
114.8522354032087
 20
-138.3247310765299
 30
0.0
 10
114.8522354032087
 20
-138.2695919098769
 30
0.0
  0
SPLINE
  5
BE
330
1F
100
AcDbEntity
  8
_U+30EC_U+30A4_U+30E4_U+30FC 1
 62
     7
420
 16777215
370
     9
100
AcDbSpline
210
0.0
220
0.0
230
1.0
 70
    11
 71
     3
 72
    17
 73
    13
 74
     0
 42
0.0000000001
 43
0.0000000001
 12
1.0
 22
0.0
 32
0.0
 13
1.0
 23
0.0
 33
0.0
 40
0.0
 40
0.0
 40
0.0
 40
0.0
 40
1.0
 40
1.0
 40
1.0
 40
2.0
 40
2.0
 40
2.0
 40
3.0
 40
3.0
 40
3.0
 40
4.0
 40
4.0
 40
4.0
 40
4.0
 10
80.85243331312026
 20
-142.2693510755437
 30
0.0
 10
80.85243331312026
 20
-142.2142471866688
 30
0.0
 10
80.80763053535354
 20
-142.1694444089021
 30
0.0
 10
80.75252460649813
 20
-142.1694444089021
 30
0.0
 10
80.69738544123818
 20
-142.1694444089021
 30
0.0
 10
80.65261794238029
 20
-142.2142471866688
 30
0.0
 10
80.65261794238029
 20
-142.2693510755437
 30
0.0
 10
80.65261794238029
 20
-142.3251605199742
 30
0.0
 10
80.69738544123818
 20
-142.3692577421854
 30
0.0
 10
80.75252460649813
 20
-142.3692577421854
 30
0.0
 10
80.80763053535354
 20
-142.3692577421854
 30
0.0
 10
80.85243331312026
 20
-142.3251605199742
 30
0.0
 10
80.85243331312026
 20
-142.2693510755437
 30
0.0
  0
SPLINE
  5
BF
330
1F
100
AcDbEntity
  8
_U+30EC_U+30A4_U+30E4_U+30FC 1
 62
     7
420
 16777215
370
     9
100
AcDbSpline
210
0.0
220
0.0
230
1.0
 70
    11
 71
     3
 72
    17
 73
    13
 74
     0
 42
0.0000000001
 43
0.0000000001
 12
1.0
 22
0.0
 32
0.0
 13
1.0
 23
0.0
 33
0.0
 40
0.0
 40
0.0
 40
0.0
 40
0.0
 40
1.0
 40
1.0
 40
1.0
 40
2.0
 40
2.0
 40
2.0
 40
3.0
 40
3.0
 40
3.0
 40
4.0
 40
4.0
 40
4.0
 40
4.0
 10
95.8518717212817
 20
-142.2693510755437
 30
0.0
 10
95.8518717212817
 20
-142.2142471866688
 30
0.0
 10
95.80706894464693
 20
-142.1694444089021
 30
0.0
 10
95.75196505716386
 20
-142.1694444089021
 30
0.0
 10
95.69682589190391
 20
-142.1694444089021
 30
0.0
 10
95.65202311526915
 20
-142.2142471866688
 30
0.0
 10
95.65202311526915
 20
-142.2693510755437
 30
0.0
 10
95.65202311526915
 20
-142.3251605199742
 30
0.0
 10
95.69682589190391
 20
-142.3692577421854
 30
0.0
 10
95.75196505716386
 20
-142.3692577421854
 30
0.0
 10
95.80706894464693
 20
-142.3692577421854
 30
0.0
 10
95.8518717212817
 20
-142.3251605199742
 30
0.0
 10
95.8518717212817
 20
-142.2693510755437
 30
0.0
  0
SPLINE
  5
C0
330
1F
100
AcDbEntity
  8
_U+30EC_U+30A4_U+30E4_U+30FC 1
 62
     7
420
 16777215
370
     9
100
AcDbSpline
210
0.0
220
0.0
230
1.0
 70
    11
 71
     3
 72
    17
 73
    13
 74
     0
 42
0.0000000001
 43
0.0000000001
 12
1.0
 22
0.0
 32
0.0
 13
1.0
 23
0.0
 33
0.0
 40
0.0
 40
0.0
 40
0.0
 40
0.0
 40
1.0
 40
1.0
 40
1.0
 40
2.0
 40
2.0
 40
2.0
 40
3.0
 40
3.0
 40
3.0
 40
4.0
 40
4.0
 40
4.0
 40
4.0
 10
65.85249693107394
 20
-142.2693510755437
 30
0.0
 10
65.85249693107394
 20
-142.2142471866688
 30
0.0
 10
65.80769415443919
 20
-142.1694444089021
 30
0.0
 10
65.75259026695612
 20
-142.1694444089021
 30
0.0
 10
65.69745276135352
 20
-142.1694444089021
 30
0.0
 10
65.65268360283828
 20
-142.2142471866688
 30
0.0
 10
65.65268360283828
 20
-142.2693510755437
 30
0.0
 10
65.65268360283828
 20
-142.3251605199742
 30
0.0
 10
65.69745276135352
 20
-142.3692577421854
 30
0.0
 10
65.75259026695612
 20
-142.3692577421854
 30
0.0
 10
65.80769415443919
 20
-142.3692577421854
 30
0.0
 10
65.85249693107394
 20
-142.3251605199742
 30
0.0
 10
65.85249693107394
 20
-142.2693510755437
 30
0.0
  0
INSERT
  5
C2
330
1F
100
AcDbEntity
  8
_U+30EC_U+30A4_U+30E4_U+30FC 1
100
AcDbBlockReference
  2
block 2
 10
0.0
 20
0.0
 30
0.0
  0
INSERT
  5
ED
330
1F
100
AcDbEntity
  8
_U+30EC_U+30A4_U+30E4_U+30FC 1
100
AcDbBlockReference
  2
block 4
 10
0.0
 20
0.0
 30
0.0
  0
INSERT
  5
105
330
1F
100
AcDbEntity
  8
_U+30EC_U+30A4_U+30E4_U+30FC 1
100
AcDbBlockReference
  2
block 6
 10
0.0
 20
0.0
 30
0.0
  0
INSERT
  5
119
330
1F
100
AcDbEntity
  8
_U+30EC_U+30A4_U+30E4_U+30FC 1
100
AcDbBlockReference
  2
block 8
 10
0.0
 20
0.0
 30
0.0
  0
INSERT
  5
133
330
1F
100
AcDbEntity
  8
_U+30EC_U+30A4_U+30E4_U+30FC 1
100
AcDbBlockReference
  2
block 10
 10
0.0
 20
0.0
 30
0.0
  0
INSERT
  5
145
330
1F
100
AcDbEntity
  8
_U+30EC_U+30A4_U+30E4_U+30FC 1
100
AcDbBlockReference
  2
block 12
 10
0.0
 20
0.0
 30
0.0
  0
ENDSEC
  0
SECTION
  2
OBJECTS
  0
DICTIONARY
  5
C
330
0
100
AcDbDictionary
281
     1
  3
ACAD_GROUP
350
D
  3
ACAD_LAYOUT
350
1A
  3
ACAD_MATERIAL
350
3B
  3
ACAD_MLEADERSTYLE
350
159
  3
ACAD_MLINESTYLE
350
17
  3
ACAD_PLOTSETTINGS
350
19
  3
ACAD_PLOTSTYLENAME
350
E
  3
ACAD_TABLESTYLE
350
158
  3
ACAD_VISUALSTYLE
350
2A
  0
SUN
  5
3F
330
29
100
AcDbSun
 90
        1
290
     0
 63
     7
421
 16777215
 40
1.0
291
     1
 91
  2455826
 92
 54000000
292
     0
 70
     2
 71
   256
280
     1
  0
DICTIONARY
  5
D
102
{ACAD_REACTORS
330
C
102
}
330
C
100
AcDbDictionary
281
     1
  0
DICTIONARY
  5
1A
102
{ACAD_REACTORS
330
C
102
}
330
C
100
AcDbDictionary
281
     1
  3
Layout1
350
1E
  3
Layout2
350
26
  3
Model
350
22
  0
DICTIONARY
  5
3B
102
{ACAD_REACTORS
330
C
102
}
330
C
100
AcDbDictionary
281
     1
  3
ByBlock
350
3D
  3
ByLayer
350
3C
  3
Global
350
3E
  0
DICTIONARY
  5
159
102
{ACAD_REACTORS
330
C
102
}
330
C
100
AcDbDictionary
281
     1
  0
DICTIONARY
  5
17
102
{ACAD_REACTORS
330
C
102
}
330
C
100
AcDbDictionary
281
     1
  3
Standard
350
18
  0
DICTIONARY
  5
19
102
{ACAD_REACTORS
330
C
102
}
330
C
100
AcDbDictionary
281
     1
  0
ACDBDICTIONARYWDFLT
  5
E
102
{ACAD_REACTORS
330
C
102
}
330
C
100
AcDbDictionary
281
     1
  3
Normal
350
F
100
AcDbDictionaryWithDefault
340
F
  0
DICTIONARY
  5
158
102
{ACAD_REACTORS
330
C
102
}
330
C
100
AcDbDictionary
281
     1
  0
DICTIONARY
  5
2A
102
{ACAD_REACTORS
330
C
102
}
330
C
100
AcDbDictionary
281
     1
  3
2dWireframe
350
2F
  3
3D Hidden
350
31
  3
3dWireframe
350
30
  3
Basic
350
32
  3
Brighten
350
36
  3
ColorChange
350
3A
  3
Conceptual
350
34
  3
Dim
350
35
  3
Facepattern
350
39
  3
Flat
350
2B
  3
FlatWithEdges
350
2C
  3
Gouraud
350
2D
  3
GouraudWithEdges
350
2E
  3
Linepattern
350
38
  3
Realistic
350
33
  3
Thicken
350
37
  0
LAYOUT
  5
1E
102
{ACAD_REACTORS
330
1A
102
}
330
1A
100
AcDbPlotSettings
  1

  2
none_device
  4

  6

 40
0.0
 41
0.0
 42
0.0
 43
0.0
 44
0.0
 45
0.0
 46
0.0
 47
0.0
 48
0.0
 49
0.0
140
0.0
141
0.0
142
1.0
143
1.0
 70
   688
 72
     0
 73
     0
 74
     5
  7

 75
    16
 76
     0
 77
     2
 78
   300
147
1.0
148
0.0
149
0.0
100
AcDbLayout
  1
Layout1
 70
     1
 71
     1
 10
0.0
 20
0.0
 11
12.0
 21
9.0
 12
0.0
 22
0.0
 32
0.0
 14
1.000000000000000E+20
 24
1.000000000000000E+20
 34
1.000000000000000E+20
 15
-1.000000000000000E+20
 25
-1.000000000000000E+20
 35
-1.000000000000000E+20
146
0.0
 13
0.0
 23
0.0
 33
0.0
 16
1.0
 26
0.0
 36
0.0
 17
0.0
 27
1.0
 37
0.0
 76
     0
330
1B
  0
LAYOUT
  5
26
102
{ACAD_REACTORS
330
1A
102
}
330
1A
100
AcDbPlotSettings
  1

  2
none_device
  4

  6

 40
0.0
 41
0.0
 42
0.0
 43
0.0
 44
0.0
 45
0.0
 46
0.0
 47
0.0
 48
0.0
 49
0.0
140
0.0
141
0.0
142
1.0
143
1.0
 70
   688
 72
     0
 73
     0
 74
     5
  7

 75
    16
 76
     0
 77
     2
 78
   300
147
1.0
148
0.0
149
0.0
100
AcDbLayout
  1
Layout2
 70
     1
 71
     2
 10
0.0
 20
0.0
 11
0.0
 21
0.0
 12
0.0
 22
0.0
 32
0.0
 14
0.0
 24
0.0
 34
0.0
 15
0.0
 25
0.0
 35
0.0
146
0.0
 13
0.0
 23
0.0
 33
0.0
 16
1.0
 26
0.0
 36
0.0
 17
0.0
 27
1.0
 37
0.0
 76
     0
330
23
  0
LAYOUT
  5
22
102
{ACAD_REACTORS
330
1A
102
}
330
1A
100
AcDbPlotSettings
  1

  2
none_device
  4

  6

 40
0.0
 41
0.0
 42
0.0
 43
0.0
 44
0.0
 45
0.0
 46
0.0
 47
0.0
 48
0.0
 49
0.0
140
0.0
141
0.0
142
1.0
143
1.0
 70
  1712
 72
     0
 73
     0
 74
     0
  7

 75
     0
 76
     0
 77
     2
 78
   300
147
1.0
148
0.0
149
0.0
100
AcDbLayout
  1
Model
 70
     1
 71
     0
 10
0.0
 20
0.0
 11
12.0
 21
9.0
 12
0.0
 22
0.0
 32
0.0
 14
1.000000000000000E+20
 24
1.000000000000000E+20
 34
1.000000000000000E+20
 15
-1.000000000000000E+20
 25
-1.000000000000000E+20
 35
-1.000000000000000E+20
146
0.0
 13
0.0
 23
0.0
 33
0.0
 16
1.0
 26
0.0
 36
0.0
 17
0.0
 27
1.0
 37
0.0
 76
     0
330
1F
331
29
  0
MATERIAL
  5
3D
102
{ACAD_REACTORS
330
3B
102
}
330
3B
100
AcDbMaterial
  1
ByBlock
 72
     1
 94
      127
  0
MATERIAL
  5
3C
102
{ACAD_REACTORS
330
3B
102
}
330
3B
100
AcDbMaterial
  1
ByLayer
 72
     1
 94
      127
  0
MATERIAL
  5
3E
102
{ACAD_REACTORS
330
3B
102
}
330
3B
100
AcDbMaterial
  1
Global
 72
     1
 94
      127
  0
MLINESTYLE
  5
18
102
{ACAD_REACTORS
330
17
102
}
330
17
100
AcDbMlineStyle
  2
Standard
 70
     0
  3

 62
   256
 51
90.0
 52
90.0
 71
     2
 49
0.5
 62
   256
  6
BYLAYER
 49
-0.5
 62
   256
  6
BYLAYER
  0
ACDBPLACEHOLDER
  5
F
102
{ACAD_REACTORS
330
E
102
}
330
E
  0
VISUALSTYLE
  5
2F
102
{ACAD_REACTORS
330
2A
102
}
330
2A
100
AcDbVisualStyle
  2
2dWireframe
 70
     4
177
     2
291
     0
 71
     0
176
     1
 72
     2
176
     1
 73
     0
176
     1
 90
        0
176
     1
 40
-0.6
176
     1
 41
-30.0
176
     1
 62
     5
 63
     7
421
 16777215
176
     1
 74
     1
176
     1
 91
        4
176
     1
 64
     7
176
     1
 65
   257
176
     1
 75
     1
176
     1
175
     1
176
     1
 42
1.0
176
     1
 92
        0
176
     1
 66
   257
176
     1
 43
1.0
176
     1
 76
     1
176
     1
 77
     6
176
     1
 78
     2
176
     1
 67
     7
176
     1
 79
     5
176
     1
170
     0
176
     1
171
     0
176
     1
290
     0
176
     1
 93
        1
176
     1
 44
0.0
176
     1
173
     0
176
     1
  0
VISUALSTYLE
  5
31
102
{ACAD_REACTORS
330
2A
102
}
330
2A
100
AcDbVisualStyle
  2
3D Hidden
 70
     6
177
     2
291
     0
 71
     1
176
     1
 72
     2
176
     1
 73
     2
176
     1
 90
        0
176
     1
 40
-0.6
176
     1
 41
-30.0
176
     1
 62
     5
 63
     7
421
 16777215
176
     1
 74
     2
176
     1
 91
        2
176
     1
 64
     7
176
     1
 65
   257
176
     1
 75
     2
176
     1
175
     1
176
     1
 42
40.0
176
     1
 92
        0
176
     1
 66
   257
176
     1
 43
1.0
176
     1
 76
     1
176
     1
 77
     6
176
     1
 78
     2
176
     1
 67
     7
176
     1
 79
     3
176
     1
170
     0
176
     1
171
     0
176
     1
290
     0
176
     1
 93
        1
176
     1
 44
0.0
176
     1
173
     0
176
     1
  0
VISUALSTYLE
  5
30
102
{ACAD_REACTORS
330
2A
102
}
330
2A
100
AcDbVisualStyle
  2
3dWireframe
 70
     5
177
     2
291
     0
 71
     0
176
     1
 72
     2
176
     1
 73
     0
176
     1
 90
        0
176
     1
 40
-0.6
176
     1
 41
-30.0
176
     1
 62
     5
 63
     7
421
 16777215
176
     1
 74
     1
176
     1
 91
        4
176
     1
 64
     7
176
     1
 65
   257
176
     1
 75
     1
176
     1
175
     1
176
     1
 42
1.0
176
     1
 92
        0
176
     1
 66
   257
176
     1
 43
1.0
176
     1
 76
     1
176
     1
 77
     6
176
     1
 78
     2
176
     1
 67
     7
176
     1
 79
     5
176
     1
170
     0
176
     1
171
     0
176
     1
290
     0
176
     1
 93
        1
176
     1
 44
0.0
176
     1
173
     0
176
     1
  0
VISUALSTYLE
  5
32
102
{ACAD_REACTORS
330
2A
102
}
330
2A
100
AcDbVisualStyle
  2
Basic
 70
     7
177
     2
291
     1
 71
     1
176
     1
 72
     0
176
     1
 73
     1
176
     1
 90
        0
176
     1
 40
-0.6
176
     1
 41
-30.0
176
     1
 62
     5
 63
     7
421
 16777215
176
     1
 74
     0
176
     1
 91
        4
176
     1
 64
     7
176
     1
 65
   257
176
     1
 75
     1
176
     1
175
     1
176
     1
 42
1.0
176
     1
 92
        8
176
     1
 66
     7
176
     1
 43
1.0
176
     1
 76
     1
176
     1
 77
     6
176
     1
 78
     2
176
     1
 67
     7
176
     1
 79
     5
176
     1
170
     0
176
     1
171
     0
176
     1
290
     0
176
     1
 93
        1
176
     1
 44
0.0
176
     1
173
     0
176
     1
  0
VISUALSTYLE
  5
36
102
{ACAD_REACTORS
330
2A
102
}
330
2A
100
AcDbVisualStyle
  2
Brighten
 70
    12
177
     2
291
     1
 71
     2
176
     1
 72
     2
176
     1
 73
     0
176
     1
 90
        0
176
     1
 40
-0.6
176
     1
 41
-30.0
176
     1
 62
     5
 63
     7
421
 16777215
176
     1
 74
     1
176
     1
 91
        4
176
     1
 64
     7
176
     1
 65
   257
176
     1
 75
     1
176
     1
175
     1
176
     1
 42
1.0
176
     1
 92
        8
176
     1
 66
     7
176
     1
 43
1.0
176
     1
 76
     1
176
     1
 77
     6
176
     1
 78
     2
176
     1
 67
     7
176
     1
 79
     5
176
     1
170
     0
176
     1
171
     0
176
     1
290
     0
176
     1
 93
        1
176
     1
 44
50.0
176
     1
173
     0
176
     1
  0
VISUALSTYLE
  5
3A
102
{ACAD_REACTORS
330
2A
102
}
330
2A
100
AcDbVisualStyle
  2
ColorChange
 70
    16
177
     2
291
     1
 71
     2
176
     1
 72
     2
176
     1
 73
     3
176
     1
 90
        0
176
     1
 40
-0.6
176
     1
 41
-30.0
176
     1
 62
     5
 63
     8
421
  8421504
176
     1
 74
     1
176
     1
 91
        4
176
     1
 64
     7
176
     1
 65
   257
176
     1
 75
     1
176
     1
175
     1
176
     1
 42
1.0
176
     1
 92
        8
176
     1
 66
     8
424
  8421504
176
     1
 43
1.0
176
     1
 76
     1
176
     1
 77
     6
176
     1
 78
     2
176
     1
 67
     7
176
     1
 79
     5
176
     1
170
     0
176
     1
171
     0
176
     1
290
     0
176
     1
 93
        1
176
     1
 44
0.0
176
     1
173
     0
176
     1
  0
VISUALSTYLE
  5
34
102
{ACAD_REACTORS
330
2A
102
}
330
2A
100
AcDbVisualStyle
  2
Conceptual
 70
     9
177
     2
291
     0
 71
     3
176
     1
 72
     2
176
     1
 73
     0
176
     1
 90
        0
176
     1
 40
-0.6
176
     1
 41
-30.0
176
     1
 62
     5
 63
     7
421
 16777215
176
     1
 74
     2
176
     1
 91
        2
176
     1
 64
     7
176
     1
 65
   257
176
     1
 75
     1
176
     1
175
     1
176
     1
 42
40.0
176
     1
 92
        8
176
     1
 66
     7
176
     1
 43
1.0
176
     1
 76
     1
176
     1
 77
     6
176
     1
 78
     2
176
     1
 67
     7
176
     1
 79
     3
176
     1
170
     0
176
     1
171
     0
176
     1
290
     0
176
     1
 93
        1
176
     1
 44
0.0
176
     1
173
     0
176
     1
  0
VISUALSTYLE
  5
35
102
{ACAD_REACTORS
330
2A
102
}
330
2A
100
AcDbVisualStyle
  2
Dim
 70
    11
177
     2
291
     1
 71
     2
176
     1
 72
     2
176
     1
 73
     0
176
     1
 90
        0
176
     1
 40
-0.6
176
     1
 41
-30.0
176
     1
 62
     5
 63
     7
421
 16777215
176
     1
 74
     1
176
     1
 91
        4
176
     1
 64
     7
176
     1
 65
   257
176
     1
 75
     1
176
     1
175
     1
176
     1
 42
1.0
176
     1
 92
        8
176
     1
 66
     7
176
     1
 43
1.0
176
     1
 76
     1
176
     1
 77
     6
176
     1
 78
     2
176
     1
 67
     7
176
     1
 79
     5
176
     1
170
     0
176
     1
171
     0
176
     1
290
     0
176
     1
 93
        1
176
     1
 44
-50.0
176
     1
173
     0
176
     1
  0
VISUALSTYLE
  5
39
102
{ACAD_REACTORS
330
2A
102
}
330
2A
100
AcDbVisualStyle
  2
Facepattern
 70
    15
177
     2
291
     1
 71
     2
176
     1
 72
     2
176
     1
 73
     0
176
     1
 90
        0
176
     1
 40
-0.6
176
     1
 41
-30.0
176
     1
 62
     5
 63
     7
421
 16777215
176
     1
 74
     1
176
     1
 91
        4
176
     1
 64
     7
176
     1
 65
   257
176
     1
 75
     1
176
     1
175
     1
176
     1
 42
1.0
176
     1
 92
        8
176
     1
 66
     7
176
     1
 43
1.0
176
     1
 76
     1
176
     1
 77
     6
176
     1
 78
     2
176
     1
 67
     7
176
     1
 79
     5
176
     1
170
     0
176
     1
171
     0
176
     1
290
     0
176
     1
 93
        1
176
     1
 44
0.0
176
     1
173
     0
176
     1
  0
VISUALSTYLE
  5
2B
102
{ACAD_REACTORS
330
2A
102
}
330
2A
100
AcDbVisualStyle
  2
Flat
 70
     0
177
     2
291
     1
 71
     2
176
     1
 72
     1
176
     1
 73
     1
176
     1
 90
        2
176
     1
 40
-0.6
176
     1
 41
30.0
176
     1
 62
     5
 63
     7
421
 16777215
176
     1
 74
     0
176
     1
 91
        4
176
     1
 64
     7
176
     1
 65
   257
176
     1
 75
     1
176
     1
175
     1
176
     1
 42
1.0
176
     1
 92
        8
176
     1
 66
     7
176
     1
 43
1.0
176
     1
 76
     1
176
     1
 77
     6
176
     1
 78
     2
176
     1
 67
     7
176
     1
 79
     5
176
     1
170
     0
176
     1
171
     0
176
     1
290
     0
176
     1
 93
       13
176
     1
 44
0.0
176
     1
173
     0
176
     1
  0
VISUALSTYLE
  5
2C
102
{ACAD_REACTORS
330
2A
102
}
330
2A
100
AcDbVisualStyle
  2
FlatWithEdges
 70
     1
177
     2
291
     1
 71
     2
176
     1
 72
     1
176
     1
 73
     1
176
     1
 90
        2
176
     1
 40
-0.6
176
     1
 41
30.0
176
     1
 62
     5
 63
     7
421
 16777215
176
     1
 74
     1
176
     1
 91
        4
176
     1
 64
     7
176
     1
 65
   257
176
     1
 75
     1
176
     1
175
     1
176
     1
 42
1.0
176
     1
 92
        0
176
     1
 66
   257
176
     1
 43
1.0
176
     1
 76
     1
176
     1
 77
     6
176
     1
 78
     2
176
     1
 67
     7
176
     1
 79
     5
176
     1
170
     0
176
     1
171
     0
176
     1
290
     0
176
     1
 93
       13
176
     1
 44
0.0
176
     1
173
     0
176
     1
  0
VISUALSTYLE
  5
2D
102
{ACAD_REACTORS
330
2A
102
}
330
2A
100
AcDbVisualStyle
  2
Gouraud
 70
     2
177
     2
291
     1
 71
     2
176
     1
 72
     2
176
     1
 73
     1
176
     1
 90
        2
176
     1
 40
-0.6
176
     1
 41
30.0
176
     1
 62
     5
 63
     7
421
 16777215
176
     1
 74
     0
176
     1
 91
        4
176
     1
 64
     7
176
     1
 65
   257
176
     1
 75
     1
176
     1
175
     1
176
     1
 42
1.0
176
     1
 92
        0
176
     1
 66
     7
176
     1
 43
1.0
176
     1
 76
     1
176
     1
 77
     6
176
     1
 78
     2
176
     1
 67
     7
176
     1
 79
     5
176
     1
170
     0
176
     1
171
     0
176
     1
290
     0
176
     1
 93
       13
176
     1
 44
0.0
176
     1
173
     0
176
     1
  0
VISUALSTYLE
  5
2E
102
{ACAD_REACTORS
330
2A
102
}
330
2A
100
AcDbVisualStyle
  2
GouraudWithEdges
 70
     3
177
     2
291
     1
 71
     2
176
     1
 72
     2
176
     1
 73
     1
176
     1
 90
        2
176
     1
 40
-0.6
176
     1
 41
30.0
176
     1
 62
     5
 63
     7
421
 16777215
176
     1
 74
     1
176
     1
 91
        4
176
     1
 64
     7
176
     1
 65
   257
176
     1
 75
     1
176
     1
175
     1
176
     1
 42
1.0
176
     1
 92
        0
176
     1
 66
   257
176
     1
 43
1.0
176
     1
 76
     1
176
     1
 77
     6
176
     1
 78
     2
176
     1
 67
     7
176
     1
 79
     5
176
     1
170
     0
176
     1
171
     0
176
     1
290
     0
176
     1
 93
       13
176
     1
 44
0.0
176
     1
173
     0
176
     1
  0
VISUALSTYLE
  5
38
102
{ACAD_REACTORS
330
2A
102
}
330
2A
100
AcDbVisualStyle
  2
Linepattern
 70
    14
177
     2
291
     1
 71
     2
176
     1
 72
     2
176
     1
 73
     0
176
     1
 90
        0
176
     1
 40
-0.6
176
     1
 41
-30.0
176
     1
 62
     5
 63
     7
421
 16777215
176
     1
 74
     1
176
     1
 91
        4
176
     1
 64
     7
176
     1
 65
   257
176
     1
 75
     7
176
     1
175
     7
176
     1
 42
1.0
176
     1
 92
        8
176
     1
 66
     7
176
     1
 43
1.0
176
     1
 76
     1
176
     1
 77
     6
176
     1
 78
     2
176
     1
 67
     7
176
     1
 79
     5
176
     1
170
     0
176
     1
171
     0
176
     1
290
     0
176
     1
 93
        1
176
     1
 44
0.0
176
     1
173
     0
176
     1
  0
VISUALSTYLE
  5
33
102
{ACAD_REACTORS
330
2A
102
}
330
2A
100
AcDbVisualStyle
  2
Realistic
 70
     8
177
     2
291
     0
 71
     2
176
     1
 72
     2
176
     1
 73
     0
176
     1
 90
        0
176
     1
 40
-0.6
176
     1
 41
-30.0
176
     1
 62
     5
 63
     7
421
 16777215
176
     1
 74
     1
176
     1
 91
        0
176
     1
 64
     7
176
     1
 65
   257
176
     1
 75
     1
176
     1
175
     1
176
     1
 42
1.0
176
     1
 92
        8
176
     1
 66
     8
424
  7895160
176
     1
 43
1.0
176
     1
 76
     1
176
     1
 77
     6
176
     1
 78
     2
176
     1
 67
     7
176
     1
 79
     5
176
     1
170
     0
176
     1
171
     0
176
     1
290
     0
176
     1
 93
       13
176
     1
 44
0.0
176
     1
173
     0
176
     1
  0
VISUALSTYLE
  5
37
102
{ACAD_REACTORS
330
2A
102
}
330
2A
100
AcDbVisualStyle
  2
Thicken
 70
    13
177
     2
291
     1
 71
     2
176
     1
 72
     2
176
     1
 73
     0
176
     1
 90
        0
176
     1
 40
-0.6
176
     1
 41
-30.0
176
     1
 62
     5
 63
     7
421
 16777215
176
     1
 74
     1
176
     1
 91
        4
176
     1
 64
     7
176
     1
 65
   257
176
     1
 75
     1
176
     1
175
     1
176
     1
 42
1.0
176
     1
 92
       12
176
     1
 66
     7
176
     1
 43
1.0
176
     1
 76
     1
176
     1
 77
     6
176
     1
 78
     2
176
     1
 67
     7
176
     1
 79
     5
176
     1
170
     0
176
     1
171
     0
176
     1
290
     0
176
     1
 93
        1
176
     1
 44
0.0
176
     1
173
     0
176
     1
  0
ENDSEC
  0
EOF
