  0
SECTION
  2
HEADER
  9
$ACADVER
  1
AC1024
  9
$ACADMAINTVER
 70
     6
  9
$DWGCODEPAGE
  3
UNDEFINED
  9
$INSBASE
 10
0.0
 20
0.0
 30
0.0
  9
$EXTMIN
 10
1.000000000000000E+20
 20
1.000000000000000E+20
 30
1.000000000000000E+20
  9
$EXTMAX
 10
-1.000000000000000E+20
 20
-1.000000000000000E+20
 30
-1.000000000000000E+20
  9
$LIMMIN
 10
0.0
 20
0.0
  9
$LIMMAX
 10
12.0
 20
9.0
  9
$ORTHOMODE
 70
     0
  9
$REGENMODE
 70
     1
  9
$FILLMODE
 70
     1
  9
$QTEXTMODE
 70
     0
  9
$MIRRTEXT
 70
     1
  9
$LTSCALE
 40
1.0
  9
$ATTMODE
 70
     1
  9
$TEXTSIZE
 40
0.2
  9
$TRACEWID
 40
0.05
  9
$TEXTSTYLE
  7
Standard
  9
$CLAYER
  8
0
  9
$CELTYPE
  6
ByLayer
  9
$CECOLOR
 62
   256
  9
$CELTSCALE
 40
1.0
  9
$DISPSILH
 70
     0
  9
$DIMSCALE
 40
1.0
  9
$DIMASZ
 40
0.18
  9
$DIMEXO
 40
0.0625
  9
$DIMDLI
 40
0.38
  9
$DIMRND
 40
0.0
  9
$DIMDLE
 40
0.0
  9
$DIMEXE
 40
0.18
  9
$DIMTP
 40
0.0
  9
$DIMTM
 40
0.0
  9
$DIMTXT
 40
0.18
  9
$DIMCEN
 40
0.09
  9
$DIMTSZ
 40
0.0
  9
$DIMTOL
 70
     0
  9
$DIMLIM
 70
     0
  9
$DIMTIH
 70
     1
  9
$DIMTOH
 70
     1
  9
$DIMSE1
 70
     0
  9
$DIMSE2
 70
     0
  9
$DIMTAD
 70
     0
  9
$DIMZIN
 70
     0
  9
$DIMBLK
  1

  9
$DIMASO
 70
     1
  9
$DIMSHO
 70
     1
  9
$DIMPOST
  1

  9
$DIMAPOST
  1

  9
$DIMALT
 70
     0
  9
$DIMALTD
 70
     2
  9
$DIMALTF
 40
25.4
  9
$DIMLFAC
 40
1.0
  9
$DIMTOFL
 70
     0
  9
$DIMTVP
 40
0.0
  9
$DIMTIX
 70
     0
  9
$DIMSOXD
 70
     0
  9
$DIMSAH
 70
     0
  9
$DIMBLK1
  1

  9
$DIMBLK2
  1

  9
$DIMSTYLE
  2
Standard
  9
$DIMCLRD
 70
     0
  9
$DIMCLRE
 70
     0
  9
$DIMCLRT
 70
     0
  9
$DIMTFAC
 40
1.0
  9
$DIMGAP
 40
0.09
  9
$DIMJUST
 70
     0
  9
$DIMSD1
 70
     0
  9
$DIMSD2
 70
     0
  9
$DIMTOLJ
 70
     1
  9
$DIMTZIN
 70
     0
  9
$DIMALTZ
 70
     0
  9
$DIMALTTZ
 70
     0
  9
$DIMUPT
 70
     0
  9
$DIMDEC
 70
     4
  9
$DIMTDEC
 70
     4
  9
$DIMALTU
 70
     2
  9
$DIMALTTD
 70
     2
  9
$DIMTXSTY
  7
Standard
  9
$DIMAUNIT
 70
     0
  9
$DIMADEC
 70
     0
  9
$DIMALTRND
 40
0.0
  9
$DIMAZIN
 70
     0
  9
$DIMDSEP
 70
    46
  9
$DIMATFIT
 70
     3
  9
$DIMFRAC
 70
     0
  9
$DIMLDRBLK
  1

  9
$DIMLUNIT
 70
     2
  9
$DIMLWD
 70
    -2
  9
$DIMLWE
 70
    -2
  9
$DIMTMOVE
 70
     0
  9
$DIMFXL
 40
1.0
  9
$DIMFXLON
 70
     0
  9
$DIMJOGANG
 40
0.7853981633974483
  9
$DIMTFILL
 70
     0
  9
$DIMTFILLCLR
 70
     0
  9
$DIMARCSYM
 70
     0
  9
$DIMLTYPE
  6

  9
$DIMLTEX1
  6

  9
$DIMLTEX2
  6

  9
$DIMTXTDIRECTION
 70
     0
  9
$LUNITS
 70
     2
  9
$LUPREC
 70
     4
  9
$SKETCHINC
 40
0.1
  9
$FILLETRAD
 40
0.5
  9
$AUNITS
 70
     0
  9
$AUPREC
 70
     0
  9
$MENU
  1
.
  9
$ELEVATION
 40
0.0
  9
$PELEVATION
 40
0.0
  9
$THICKNESS
 40
0.0
  9
$LIMCHECK
 70
     0
  9
$CHAMFERA
 40
0.5
  9
$CHAMFERB
 40
0.5
  9
$CHAMFERC
 40
1.0
  9
$CHAMFERD
 40
0.0
  9
$SKPOLY
 70
     0
  9
$TDCREATE
 40
2457917.612870371
  9
$TDUCREATE
 40
2457917.237870371
  9
$TDUPDATE
 40
2457917.612870371
  9
$TDUUPDATE
 40
2457917.237870371
  9
$TDINDWG
 40
0.0000000116
  9
$TDUSRTIMER
 40
0.0000000116
  9
$USRTIMER
 70
     1
  9
$ANGBASE
 50
0.0
  9
$ANGDIR
 70
     0
  9
$PDMODE
 70
     0
  9
$PDSIZE
 40
0.0
  9
$PLINEWID
 40
0.0
  9
$SPLFRAME
 70
     0
  9
$SPLINETYPE
 70
     6
  9
$SPLINESEGS
 70
     8
  9
$HANDSEED
  5
15B
  9
$SURFTAB1
 70
     6
  9
$SURFTAB2
 70
     6
  9
$SURFTYPE
 70
     6
  9
$SURFU
 70
     6
  9
$SURFV
 70
     6
  9
$UCSBASE
  2

  9
$UCSNAME
  2

  9
$UCSORG
 10
0.0
 20
0.0
 30
0.0
  9
$UCSXDIR
 10
1.0
 20
0.0
 30
0.0
  9
$UCSYDIR
 10
0.0
 20
1.0
 30
0.0
  9
$UCSORTHOREF
  2

  9
$UCSORTHOVIEW
 70
     0
  9
$UCSORGTOP
 10
0.0
 20
0.0
 30
0.0
  9
$UCSORGBOTTOM
 10
0.0
 20
0.0
 30
0.0
  9
$UCSORGLEFT
 10
0.0
 20
0.0
 30
0.0
  9
$UCSORGRIGHT
 10
0.0
 20
0.0
 30
0.0
  9
$UCSORGFRONT
 10
0.0
 20
0.0
 30
0.0
  9
$UCSORGBACK
 10
0.0
 20
0.0
 30
0.0
  9
$PUCSBASE
  2

  9
$PUCSNAME
  2

  9
$PUCSORG
 10
0.0
 20
0.0
 30
0.0
  9
$PUCSXDIR
 10
1.0
 20
0.0
 30
0.0
  9
$PUCSYDIR
 10
0.0
 20
1.0
 30
0.0
  9
$PUCSORTHOREF
  2

  9
$PUCSORTHOVIEW
 70
     0
  9
$PUCSORGTOP
 10
0.0
 20
0.0
 30
0.0
  9
$PUCSORGBOTTOM
 10
0.0
 20
0.0
 30
0.0
  9
$PUCSORGLEFT
 10
0.0
 20
0.0
 30
0.0
  9
$PUCSORGRIGHT
 10
0.0
 20
0.0
 30
0.0
  9
$PUCSORGFRONT
 10
0.0
 20
0.0
 30
0.0
  9
$PUCSORGBACK
 10
0.0
 20
0.0
 30
0.0
  9
$USERI1
 70
     0
  9
$USERI2
 70
     0
  9
$USERI3
 70
     0
  9
$USERI4
 70
     0
  9
$USERI5
 70
     0
  9
$USERR1
 40
0.0
  9
$USERR2
 40
0.0
  9
$USERR3
 40
0.0
  9
$USERR4
 40
0.0
  9
$USERR5
 40
0.0
  9
$WORLDVIEW
 70
     1
  9
$SHADEDGE
 70
     3
  9
$SHADEDIF
 70
    70
  9
$TILEMODE
 70
     1
  9
$MAXACTVP
 70
    64
  9
$PINSBASE
 10
0.0
 20
0.0
 30
0.0
  9
$PLIMCHECK
 70
     0
  9
$PEXTMIN
 10
1.000000000000000E+20
 20
1.000000000000000E+20
 30
1.000000000000000E+20
  9
$PEXTMAX
 10
-1.000000000000000E+20
 20
-1.000000000000000E+20
 30
-1.000000000000000E+20
  9
$PLIMMIN
 10
0.0
 20
0.0
  9
$PLIMMAX
 10
12.0
 20
9.0
  9
$UNITMODE
 70
     0
  9
$VISRETAIN
 70
     1
  9
$PLINEGEN
 70
     0
  9
$PSLTSCALE
 70
     1
  9
$TREEDEPTH
 70
  3020
  9
$CMLSTYLE
  2
Standard
  9
$CMLJUST
 70
     0
  9
$CMLSCALE
 40
1.0
  9
$PROXYGRAPHICS
 70
     1
  9
$MEASUREMENT
 70
     0
  9
$CELWEIGHT
370
    -1
  9
$ENDCAPS
280
     0
  9
$JOINSTYLE
280
     0
  9
$LWDISPLAY
290
     1
  9
$INSUNITS
 70
     1
  9
$HYPERLINKBASE
  1

  9
$STYLESHEET
  1

  9
$XEDIT
290
     1
  9
$CEPSNTYPE
380
     0
  9
$PSTYLEMODE
290
     1
  9
$FINGERPRINTGUID
  2
{5B90049E-0323-0BCD-4DA2-9A4CBC2DDB0E}
  9
$VERSIONGUID
  2
{FAEB1C32-E019-11D5-929B-00C0DF256EC4}
  9
$EXTNAMES
290
     1
  9
$PSVPSCALE
 40
0.0
  9
$OLESTARTUP
290
     0
  9
$SORTENTS
280
   127
  9
$INDEXCTL
280
     0
  9
$HIDETEXT
280
     1
  9
$XCLIPFRAME
280
     2
  9
$HALOGAP
280
     0
  9
$OBSCOLOR
 70
   257
  9
$OBSLTYPE
280
     0
  9
$INTERSECTIONDISPLAY
280
     0
  9
$INTERSECTIONCOLOR
 70
   257
  9
$DIMASSOC
280
     2
  9
$PROJECTNAME
  1

  9
$CAMERADISPLAY
290
     0
  9
$LENSLENGTH
 40
50.0
  9
$CAMERAHEIGHT
 40
0.0
  9
$STEPSPERSEC
 40
2.0
  9
$STEPSIZE
 40
6.0
  9
$3DDWFPREC
 40
2.0
  9
$PSOLWIDTH
 40
0.25
  9
$PSOLHEIGHT
 40
4.0
  9
$LOFTANG1
 40
1.570796326794897
  9
$LOFTANG2
 40
1.570796326794897
  9
$LOFTMAG1
 40
0.0
  9
$LOFTMAG2
 40
0.0
  9
$LOFTPARAM
 70
     7
  9
$LOFTNORMALS
280
     1
  9
$LATITUDE
 40
37.795
  9
$LONGITUDE
 40
-122.394
  9
$NORTHDIRECTION
 40
0.0
  9
$TIMEZONE
 70
 -8000
  9
$LIGHTGLYPHDISPLAY
280
     1
  9
$TILEMODELIGHTSYNCH
280
     1
  9
$CMATERIAL
347
3C
  9
$SOLIDHIST
280
     1
  9
$SHOWHIST
280
     1
  9
$DWFFRAME
280
     2
  9
$DGNFRAME
280
     2
  9
$REALWORLDSCALE
290
     1
  9
$INTERFERECOLOR
 62
   256
  9
$CSHADOW
280
     0
  9
$SHADOWPLANELOCATION
 40
0.0
  0
ENDSEC
  0
SECTION
  2
CLASSES
  0
CLASS
  1
ACDBDICTIONARYWDFLT
  2
AcDbDictionaryWithDefault
  3
ObjectDBX Classes
 90
        0
 91
        4
280
     0
281
     0
  0
CLASS
  1
VISUALSTYLE
  2
AcDbVisualStyle
  3
ObjectDBX Classes
 90
     4095
 91
        4
280
     0
281
     0
  0
CLASS
  1
MATERIAL
  2
AcDbMaterial
  3
ObjectDBX Classes
 90
     1153
 91
        4
280
     0
281
     0
  0
CLASS
  1
SUN
  2
AcDbSun
  3
SCENEOE
 90
     1024
 91
        4
280
     0
281
     0
  0
ENDSEC
  0
SECTION
  2
TABLES
  0
TABLE
  2
VPORT
  5
8
330
0
100
AcDbSymbolTable
 70
     1
  0
VPORT
  5
29
330
8
100
AcDbSymbolTableRecord
100
AcDbViewportTableRecord
  2
*Active
 70
     0
 10
0.0
 20
0.0
 11
1.0
 21
1.0
 12
0.0
 22
0.0
 13
0.0
 23
0.0
 14
0.5
 24
0.5
 15
0.5
 25
0.5
 16
0.0
 26
0.0
 36
1.0
 17
91.00082462281999
 27
-128.4993055234307
 37
0.0
 40
256.9986110468615
 41
0.7081814508812795
 42
50.0
 43
0.0
 44
0.0
 50
0.0
 51
0.0
 71
     0
 72
   100
 73
     1
 74
     3
 75
     0
 76
     0
 77
     0
 78
     0
281
     0
 65
     1
110
0.0
120
0.0
130
0.0
111
1.0
121
0.0
131
0.0
112
0.0
122
1.0
132
0.0
 79
     0
146
0.0
 60
     3
 61
     5
292
     1
282
     1
141
0.0
142
0.0
 63
   250
361
3F
  0
ENDTAB
  0
TABLE
  2
LTYPE
  5
5
330
0
100
AcDbSymbolTable
 70
     1
  0
LTYPE
  5
14
330
5
100
AcDbSymbolTableRecord
100
AcDbLinetypeTableRecord
  2
ByBlock
 70
     0
  3

 72
    65
 73
     0
 40
0.0
  0
LTYPE
  5
15
330
5
100
AcDbSymbolTableRecord
100
AcDbLinetypeTableRecord
  2
ByLayer
 70
     0
  3

 72
    65
 73
     0
 40
0.0
  0
LTYPE
  5
16
330
5
100
AcDbSymbolTableRecord
100
AcDbLinetypeTableRecord
  2
Continuous
 70
     0
  3
Solid line
 72
    65
 73
     0
 40
0.0
  0
ENDTAB
  0
TABLE
  2
LAYER
  5
2
330
0
100
AcDbSymbolTable
 70
     2
  0
LAYER
  5
10
330
2
100
AcDbSymbolTableRecord
100
AcDbLayerTableRecord
  2
0
 70
     0
 62
     7
  6
Continuous
370
    -3
390
F
347
3E
  0
LAYER
  5
40
330
2
100
AcDbSymbolTableRecord
100
AcDbLayerTableRecord
  2
_U+30EC_U+30A4_U+30E4_U+30FC 1
 70
     0
 62
     7
  6
Continuous
370
    -3
390
F
347
3E
  0
ENDTAB
  0
TABLE
  2
STYLE
  5
3
330
0
100
AcDbSymbolTable
 70
     1
  0
STYLE
  5
11
330
3
100
AcDbSymbolTableRecord
100
AcDbTextStyleTableRecord
  2
Standard
 70
     0
 40
0.0
 41
1.0
 50
0.0
 71
     0
 42
0.2
  3
txt
  4

  0
ENDTAB
  0
TABLE
  2
VIEW
  5
6
330
0
100
AcDbSymbolTable
 70
     0
  0
ENDTAB
  0
TABLE
  2
UCS
  5
7
330
0
100
AcDbSymbolTable
 70
     0
  0
ENDTAB
  0
TABLE
  2
APPID
  5
9
330
0
100
AcDbSymbolTable
 70
     1
  0
APPID
  5
12
330
9
100
AcDbSymbolTableRecord
100
AcDbRegAppTableRecord
  2
ACAD
 70
     0
  0
ENDTAB
  0
TABLE
  2
DIMSTYLE
  5
A
330
0
100
AcDbSymbolTable
 70
     1
100
AcDbDimStyleTable
  0
DIMSTYLE
105
27
330
A
100
AcDbSymbolTableRecord
100
AcDbDimStyleTableRecord
  2
Standard
 70
     0
178
     0
340
11
  0
ENDTAB
  0
TABLE
  2
BLOCK_RECORD
  5
1
330
0
100
AcDbSymbolTable
 70
    13
  0
BLOCK_RECORD
  5
1F
330
1
100
AcDbSymbolTableRecord
100
AcDbBlockTableRecord
  2
*Model_Space
340
22
 70
     0
280
     1
281
     0
  0
BLOCK_RECORD
  5
1B
330
1
100
AcDbSymbolTableRecord
100
AcDbBlockTableRecord
  2
*Paper_Space
340
1E
 70
     0
280
     1
281
     0
  0
BLOCK_RECORD
  5
23
330
1
100
AcDbSymbolTableRecord
100
AcDbBlockTableRecord
  2
*Paper_Space0
340
26
 70
     0
280
     1
281
     0
  0
BLOCK_RECORD
  5
C1
330
1
100
AcDbSymbolTableRecord
100
AcDbBlockTableRecord
  2
block 2
340
0
102
{BLKREFS
331
C2
102
}
 70
     0
280
     1
281
     0
  0
BLOCK_RECORD
  5
D1
330
1
100
AcDbSymbolTableRecord
100
AcDbBlockTableRecord
  2
block 3
340
0
102
{BLKREFS
331
D2
102
}
 70
     0
280
     1
281
     0
  0
BLOCK_RECORD
  5
EC
330
1
100
AcDbSymbolTableRecord
100
AcDbBlockTableRecord
  2
block 4
340
0
102
{BLKREFS
331
ED
102
}
 70
     0
280
     1
281
     0
  0
BLOCK_RECORD
  5
FC
330
1
100
AcDbSymbolTableRecord
100
AcDbBlockTableRecord
  2
block 5
340
0
102
{BLKREFS
331
FD
102
}
 70
     0
280
     1
281
     0
  0
BLOCK_RECORD
  5
104
330
1
100
AcDbSymbolTableRecord
100
AcDbBlockTableRecord
  2
block 6
340
0
102
{BLKREFS
331
105
102
}
 70
     0
280
     1
281
     0
  0
BLOCK_RECORD
  5
110
330
1
100
AcDbSymbolTableRecord
100
AcDbBlockTableRecord
  2
block 7
340
0
102
{BLKREFS
331
111
102
}
 70
     0
280
     1
281
     0
  0
BLOCK_RECORD
  5
118
330
1
100
AcDbSymbolTableRecord
100
AcDbBlockTableRecord
  2
block 8
340
0
102
{BLKREFS
331
119
102
}
 70
     0
280
     1
281
     0
  0
BLOCK_RECORD
  5
12C
330
1
100
AcDbSymbolTableRecord
100
AcDbBlockTableRecord
  2
block 9
340
0
102
{BLKREFS
331
12D
102
}
 70
     0
280
     1
281
     0
  0
BLOCK_RECORD
  5
132
330
1
100
AcDbSymbolTableRecord
100
AcDbBlockTableRecord
  2
block 10
340
0
102
{BLKREFS
331
133
102
}
 70
     0
280
     1
281
     0
  0
BLOCK_RECORD
  5
13E
330
1
100
AcDbSymbolTableRecord
100
AcDbBlockTableRecord
  2
block 11
340
0
102
{BLKREFS
331
13F
102
}
 70
     0
280
     1
281
     0
  0
BLOCK_RECORD
  5
147
330
1
100
AcDbSymbolTableRecord
100
AcDbBlockTableRecord
  2
block 12
340
0
102
{BLKREFS
331
148
102
}
 70
     0
280
     1
281
     0
  0
BLOCK_RECORD
  5
153
330
1
100
AcDbSymbolTableRecord
100
AcDbBlockTableRecord
  2
block 13
340
0
102
{BLKREFS
331
154
102
}
 70
     0
280
     1
281
     0
  0
ENDTAB
  0
ENDSEC
  0
SECTION
  2
BLOCKS
  0
BLOCK
  5
20
330
1F
100
AcDbEntity
  8
0
100
AcDbBlockBegin
  2
*Model_Space
 70
     0
 10
0.0
 20
0.0
 30
0.0
  3
*Model_Space
  1

  0
ENDBLK
  5
21
330
1F
100
AcDbEntity
  8
0
100
AcDbBlockEnd
  0
BLOCK
  5
1C
330
1B
100
AcDbEntity
 67
     1
  8
0
100
AcDbBlockBegin
  2
*Paper_Space
 70
     0
 10
0.0
 20
0.0
 30
0.0
  3
*Paper_Space
  1

  0
ENDBLK
  5
1D
330
1B
100
AcDbEntity
 67
     1
  8
0
100
AcDbBlockEnd
  0
BLOCK
  5
24
330
23
100
AcDbEntity
  8
0
100
AcDbBlockBegin
  2
*Paper_Space0
 70
     0
 10
0.0
 20
0.0
 30
0.0
  3
*Paper_Space0
  1

  0
ENDBLK
  5
25
330
23
100
AcDbEntity
  8
0
100
AcDbBlockEnd
  0
BLOCK
  5
C3
330
C1
100
AcDbEntity
  8
0
100
AcDbBlockBegin
  2
block 2
 70
     0
 10
0.0
 20
0.0
 30
0.0
  3
block 2
  1

  0
POLYLINE
  5
C5
330
C1
100
AcDbEntity
  8
_U+30EC_U+30A4_U+30E4_U+30FC 1
 62
     7
420
 16777215
370
     9
100
AcDb2dPolyline
 66
     1
 10
0.0
 20
0.0
 30
0.0
  0
VERTEX
  5
C6
330
C5
100
AcDbEntity
  8
_U+30EC_U+30A4_U+30E4_U+30FC 1
 62
     7
420
 16777215
370
     9
100
AcDbVertex
100
AcDb2dVertex
 10
65.57687166032795
 20
-118.8585591369521
 30
0.0
  0
VERTEX
  5
C7
330
C5
100
AcDbEntity
  8
_U+30EC_U+30A4_U+30E4_U+30FC 1
 62
     7
420
 16777215
370
     9
100
AcDbVertex
100
AcDb2dVertex
 10
110.5768863456153
 20
-118.8585591369521
 30
0.0
  0
SEQEND
  5
C8
330
C5
100
AcDbEntity
  8
_U+30EC_U+30A4_U+30E4_U+30FC 1
 62
     7
420
 16777215
370
     9
  0
POLYLINE
  5
C9
330
C1
100
AcDbEntity
  8
_U+30EC_U+30A4_U+30E4_U+30FC 1
 62
     7
420
 16777215
370
     9
100
AcDb2dPolyline
 66
     1
 10
0.0
 20
0.0
 30
0.0
  0
VERTEX
  5
CA
330
C9
100
AcDbEntity
  8
_U+30EC_U+30A4_U+30E4_U+30FC 1
 62
     7
420
 16777215
370
     9
100
AcDbVertex
100
AcDb2dVertex
 10
65.57687166032795
 20
-120.318565247698
 30
0.0
  0
VERTEX
  5
CB
330
C9
100
AcDbEntity
  8
_U+30EC_U+30A4_U+30E4_U+30FC 1
 62
     7
420
 16777215
370
     9
100
AcDbVertex
100
AcDb2dVertex
 10
65.57687166032795
 20
-117.8587869149799
 30
0.0
  0
SEQEND
  5
CC
330
C9
100
AcDbEntity
  8
_U+30EC_U+30A4_U+30E4_U+30FC 1
 62
     7
420
 16777215
370
     9
  0
POLYLINE
  5
CD
330
C1
100
AcDbEntity
  8
_U+30EC_U+30A4_U+30E4_U+30FC 1
 62
     7
420
 16777215
370
     9
100
AcDb2dPolyline
 66
     1
 10
0.0
 20
0.0
 30
0.0
  0
VERTEX
  5
CE
330
CD
100
AcDbEntity
  8
_U+30EC_U+30A4_U+30E4_U+30FC 1
 62
     7
420
 16777215
370
     9
100
AcDbVertex
100
AcDb2dVertex
 10
110.5768863456153
 20
-120.318565247698
 30
0.0
  0
VERTEX
  5
CF
330
CD
100
AcDbEntity
  8
_U+30EC_U+30A4_U+30E4_U+30FC 1
 62
     7
420
 16777215
370
     9
100
AcDbVertex
100
AcDb2dVertex
 10
110.5768863456153
 20
-117.8587869149799
 30
0.0
  0
SEQEND
  5
D0
330
CD
100
AcDbEntity
  8
_U+30EC_U+30A4_U+30E4_U+30FC 1
 62
     7
420
 16777215
370
     9
  0
INSERT
  5
D2
330
C1
100
AcDbEntity
  8
_U+30EC_U+30A4_U+30E4_U+30FC 1
100
AcDbBlockReference
  2
block 3
 10
0.0
 20
0.0
 30
0.0
  0
ENDBLK
  5
C4
330
C1
100
AcDbEntity
  8
0
100
AcDbBlockEnd
  0
BLOCK
  5
D3
330
D1
100
AcDbEntity
  8
0
100
AcDbBlockBegin
  2
block 3
 70
     0
 10
0.0
 20
0.0
 30
0.0
  3
block 3
  1

  0
POLYLINE
  5
D5
330
D1
100
AcDbEntity
  8
_U+30EC_U+30A4_U+30E4_U+30FC 1
370
     0
100
AcDb2dPolyline
 66
     1
 10
0.0
 20
0.0
 30
0.0
  0
VERTEX
  5
D6
330
D5
100
AcDbEntity
  8
_U+30EC_U+30A4_U+30E4_U+30FC 1
370
     0
100
AcDbVertex
100
AcDb2dVertex
 10
87.8203070526977
 20
-117.8658460534328
 30
0.0
  0
VERTEX
  5
D7
330
D5
100
AcDbEntity
  8
_U+30EC_U+30A4_U+30E4_U+30FC 1
370
     0
100
AcDbVertex
100
AcDb2dVertex
 10
87.8203070526977
 20
-118.2127671687975
 30
0.0
  0
VERTEX
  5
D8
330
D5
100
AcDbEntity
  8
_U+30EC_U+30A4_U+30E4_U+30FC 1
370
     0
100
AcDbVertex
100
AcDb2dVertex
 10
87.60240476325565
 20
-118.2127671687975
 30
0.0
  0
VERTEX
  5
D9
330
D5
100
AcDbEntity
  8
_U+30EC_U+30A4_U+30E4_U+30FC 1
370
     0
100
AcDbVertex
100
AcDb2dVertex
 10
87.60240476325565
 20
-117.8658460534328
 30
0.0
  0
VERTEX
  5
DA
330
D5
100
AcDbEntity
  8
_U+30EC_U+30A4_U+30E4_U+30FC 1
370
     0
100
AcDbVertex
100
AcDb2dVertex
 10
86.94663083763835
 20
-117.8658460534328
 30
0.0
  0
VERTEX
  5
DB
330
D5
100
AcDbEntity
  8
_U+30EC_U+30A4_U+30E4_U+30FC 1
370
     0
100
AcDbVertex
100
AcDb2dVertex
 10
86.94663083763835
 20
-117.6415703373431
 30
0.0
  0
VERTEX
  5
DC
330
D5
100
AcDbEntity
  8
_U+30EC_U+30A4_U+30E4_U+30FC 1
370
     0
100
AcDbVertex
100
AcDb2dVertex
 10
87.62565915778109
 20
-116.6685031175343
 30
0.0
  0
VERTEX
  5
DD
330
D5
100
AcDbEntity
  8
_U+30EC_U+30A4_U+30E4_U+30FC 1
370
     0
100
AcDbVertex
100
AcDb2dVertex
 10
87.8203070526977
 20
-116.6685031175343
 30
0.0
  0
VERTEX
  5
DE
330
D5
100
AcDbEntity
  8
_U+30EC_U+30A4_U+30E4_U+30FC 1
370
     0
100
AcDbVertex
100
AcDb2dVertex
 10
87.8203070526977
 20
-117.6668917891597
 30
0.0
  0
VERTEX
  5
DF
330
D5
100
AcDbEntity
  8
_U+30EC_U+30A4_U+30E4_U+30FC 1
370
     0
100
AcDbVertex
100
AcDb2dVertex
 10
88.02770180090974
 20
-117.6668917891597
 30
0.0
  0
VERTEX
  5
E0
330
D5
100
AcDbEntity
  8
_U+30EC_U+30A4_U+30E4_U+30FC 1
370
     0
100
AcDbVertex
100
AcDb2dVertex
 10
88.02770180090974
 20
-117.8658460534328
 30
0.0
  0
VERTEX
  5
E1
330
D5
100
AcDbEntity
  8
_U+30EC_U+30A4_U+30E4_U+30FC 1
370
     0
100
AcDbVertex
100
AcDb2dVertex
 10
87.8203070526977
 20
-117.8658460534328
 30
0.0
  0
SEQEND
  5
E2
330
D5
100
AcDbEntity
  8
_U+30EC_U+30A4_U+30E4_U+30FC 1
370
     0
  0
POLYLINE
  5
E3
330
D1
100
AcDbEntity
  8
_U+30EC_U+30A4_U+30E4_U+30FC 1
370
     0
100
AcDb2dPolyline
 66
     1
 10
0.0
 20
0.0
 30
0.0
  0
VERTEX
  5
E4
330
E3
100
AcDbEntity
  8
_U+30EC_U+30A4_U+30E4_U+30FC 1
370
     0
100
AcDbVertex
100
AcDb2dVertex
 10
87.60240476325565
 20
-117.0111178635424
 30
0.0
  0
VERTEX
  5
E5
330
E3
100
AcDbEntity
  8
_U+30EC_U+30A4_U+30E4_U+30FC 1
370
     0
100
AcDbVertex
100
AcDb2dVertex
 10
87.14558510191152
 20
-117.6668917891597
 30
0.0
  0
VERTEX
  5
E6
330
E3
100
AcDbEntity
  8
_U+30EC_U+30A4_U+30E4_U+30FC 1
370
     0
100
AcDbVertex
100
AcDb2dVertex
 10
87.60240476325565
 20
-117.6668917891597
 30
0.0
  0
VERTEX
  5
E7
330
E3
100
AcDbEntity
  8
_U+30EC_U+30A4_U+30E4_U+30FC 1
370
     0
100
AcDbVertex
100
AcDb2dVertex
 10
87.60240476325565
 20
-117.0111178635424
 30
0.0
  0
SEQEND
  5
E8
330
E3
100
AcDbEntity
  8
_U+30EC_U+30A4_U+30E4_U+30FC 1
370
     0
  0
HATCH
  5
E9
330
D1
100
AcDbEntity
  8
_U+30EC_U+30A4_U+30E4_U+30FC 1
 62
     7
420
 16777215
100
AcDbHatch
 10
0.0
 20
0.0
 30
0.0
210
0.0
220
0.0
230
1.0
  2
SOLID
 70
     1
 71
     0
 91
        2
 92
        1
 93
       11
 72
     1
 10
87.8203070526977
 20
-117.8658460534328
 11
87.8203070526977
 21
-118.2127671687975
 72
     1
 10
87.8203070526977
 20
-118.2127671687975
 11
87.60240476325565
 21
-118.2127671687975
 72
     1
 10
87.60240476325565
 20
-118.2127671687975
 11
87.60240476325565
 21
-117.8658460534328
 72
     1
 10
87.60240476325565
 20
-117.8658460534328
 11
86.94663083763835
 21
-117.8658460534328
 72
     1
 10
86.94663083763835
 20
-117.8658460534328
 11
86.94663083763835
 21
-117.6415703373431
 72
     1
 10
86.94663083763835
 20
-117.6415703373431
 11
87.62565915778109
 21
-116.6685031175343
 72
     1
 10
87.62565915778109
 20
-116.6685031175343
 11
87.8203070526977
 21
-116.6685031175343
 72
     1
 10
87.8203070526977
 20
-116.6685031175343
 11
87.8203070526977
 21
-117.6668917891597
 72
     1
 10
87.8203070526977
 20
-117.6668917891597
 11
88.02770180090974
 21
-117.6668917891597
 72
     1
 10
88.02770180090974
 20
-117.6668917891597
 11
88.02770180090974
 21
-117.8658460534328
 72
     1
 10
88.02770180090974
 20
-117.8658460534328
 11
87.8203070526977
 21
-117.8658460534328
 97
        0
 92
        1
 93
        3
 72
     1
 10
87.60240476325565
 20
-117.0111178635424
 11
87.14558510191152
 21
-117.6668917891597
 72
     1
 10
87.14558510191152
 20
-117.6668917891597
 11
87.60240476325565
 21
-117.6668917891597
 72
     1
 10
87.60240476325565
 20
-117.6668917891597
 11
87.60240476325565
 21
-117.0111178635424
 97
        0
 75
     2
 76
     1
 98
        0
  0
SPLINE
  5
EA
330
D1
100
AcDbEntity
  8
_U+30EC_U+30A4_U+30E4_U+30FC 1
370
     0
100
AcDbSpline
210
0.0
220
0.0
230
1.0
 70
    11
 71
     3
 72
    53
 73
    49
 74
     0
 42
0.0000000001
 43
0.0000000001
 12
1.0
 22
0.0
 32
0.0
 13
1.0
 23
0.0
 33
0.0
 40
0.0
 40
0.0
 40
0.0
 40
0.0
 40
1.0
 40
1.0
 40
1.0
 40
2.0
 40
2.0
 40
2.0
 40
3.0
 40
3.0
 40
3.0
 40
4.0
 40
4.0
 40
4.0
 40
5.0
 40
5.0
 40
5.0
 40
6.0
 40
6.0
 40
6.0
 40
7.0
 40
7.0
 40
7.0
 40
8.0
 40
8.0
 40
8.0
 40
9.0
 40
9.0
 40
9.0
 40
10.0
 40
10.0
 40
10.0
 40
11.0
 40
11.0
 40
11.0
 40
12.0
 40
12.0
 40
12.0
 40
13.0
 40
13.0
 40
13.0
 40
14.0
 40
14.0
 40
14.0
 40
15.0
 40
15.0
 40
15.0
 40
16.0
 40
16.0
 40
16.0
 40
16.0
 10
88.6460964405121
 20
-118.2635823272049
 30
0.0
 10
88.56772051822266
 20
-118.2635823272049
 30
0.0
 10
88.46626245618205
 20
-118.246529104553
 30
0.0
 10
88.36463213936717
 20
-118.1831393476244
 30
0.0
 10
88.19117158168486
 20
-118.0730685468706
 30
0.0
 10
88.16998424445056
 20
-117.9419826636569
 30
0.0
 10
88.15103621928169
 20
-117.8341511749686
 30
0.0
 10
88.15103621928169
 20
-117.8341511749686
 30
0.0
 10
88.37307262330604
 20
-117.8341511749686
 30
0.0
 10
88.37307262330604
 20
-117.8341511749686
 30
0.0
 10
88.42819415107004
 20
-118.0329331844675
 30
0.0
 10
88.5551459197015
 20
-118.0625610056406
 30
0.0
 10
88.64816349780324
 20
-118.0625610056406
 30
0.0
 10
88.78768986495587
 20
-118.0625610056406
 30
0.0
 10
88.94013534017816
 20
-117.9631700008912
 30
0.0
 10
88.94013534017816
 20
-117.7304538008625
 30
0.0
 10
88.94013534017816
 20
-117.4744832063085
 30
0.0
 10
88.76030135584813
 20
-117.4047200227322
 30
0.0
 10
88.63972301386438
 20
-117.4047200227322
 30
0.0
 10
88.60802813540008
 20
-117.4047200227322
 30
0.0
 10
88.46626245618205
 20
-117.4047200227322
 30
0.0
 10
88.3773789926626
 20
-117.5337388486548
 30
0.0
 10
88.3773789926626
 20
-117.5337388486548
 30
0.0
 10
88.20185137768912
 20
-117.5146185687116
 30
0.0
 10
88.20185137768912
 20
-117.5146185687116
 30
0.0
 10
88.20185137768912
 20
-117.5146185687116
 30
0.0
 10
88.32242971967287
 20
-116.6685031175343
 30
0.0
 10
88.32242971967287
 20
-116.6685031175343
 30
0.0
 10
88.32242971967287
 20
-116.6685031175343
 30
0.0
 10
89.10084904456507
 20
-116.6685031175343
 30
0.0
 10
89.10084904456507
 20
-116.6685031175343
 30
0.0
 10
89.10084904456507
 20
-116.6685031175343
 30
0.0
 10
89.10084904456507
 20
-116.8631510124509
 30
0.0
 10
89.10084904456507
 20
-116.8631510124509
 30
0.0
 10
89.10084904456507
 20
-116.8631510124509
 30
0.0
 10
88.48521048135092
 20
-116.8631510124509
 30
0.0
 10
88.48521048135092
 20
-116.8631510124509
 30
0.0
 10
88.48521048135092
 20
-116.8631510124509
 30
0.0
 10
88.41975366713118
 20
-117.2862087380396
 30
0.0
 10
88.41975366713118
 20
-117.2862087380396
 30
0.0
 10
88.48107636676862
 20
-117.2522745475099
 30
0.0
 10
88.56358640364036
 20
-117.2121391851067
 30
0.0
 10
88.68192543355869
 20
-117.2121391851067
 30
0.0
 10
88.9358289708216
 20
-117.2121391851067
 30
0.0
 10
89.17285154020679
 20
-117.3983465960845
 30
0.0
 10
89.17285154020679
 20
-117.7113335209194
 30
0.0
 10
89.17285154020679
 20
-118.0287990698852
 30
0.0
 10
88.94857582411703
 20
-118.2635823272049
 30
0.0
 10
88.6460964405121
 20
-118.2635823272049
 30
0.0
  0
HATCH
  5
EB
330
D1
100
AcDbEntity
  8
_U+30EC_U+30A4_U+30E4_U+30FC 1
 62
     7
420
 16777215
100
AcDbHatch
 10
0.0
 20
0.0
 30
0.0
210
0.0
220
0.0
230
1.0
  2
SOLID
 70
     1
 71
     0
 91
        1
 92
        1
 93
        1
 72
     4
 94
        3
 73
     0
 74
     1
 95
       53
 96
       49
 40
0.0
 40
0.0
 40
0.0
 40
0.0
 40
1.0
 40
1.0
 40
1.0
 40
2.0
 40
2.0
 40
2.0
 40
3.0
 40
3.0
 40
3.0
 40
4.0
 40
4.0
 40
4.0
 40
5.0
 40
5.0
 40
5.0
 40
6.0
 40
6.0
 40
6.0
 40
7.0
 40
7.0
 40
7.0
 40
8.0
 40
8.0
 40
8.0
 40
9.0
 40
9.0
 40
9.0
 40
10.0
 40
10.0
 40
10.0
 40
11.0
 40
11.0
 40
11.0
 40
12.0
 40
12.0
 40
12.0
 40
13.0
 40
13.0
 40
13.0
 40
14.0
 40
14.0
 40
14.0
 40
15.0
 40
15.0
 40
15.0
 40
16.0
 40
16.0
 40
16.0
 40
16.0
 10
88.6460964405121
 20
-118.2635823272049
 10
88.56772051822266
 20
-118.2635823272049
 10
88.46626245618205
 20
-118.246529104553
 10
88.36463213936717
 20
-118.1831393476244
 10
88.19117158168486
 20
-118.0730685468706
 10
88.16998424445056
 20
-117.9419826636569
 10
88.15103621928169
 20
-117.8341511749686
 10
88.15103621928169
 20
-117.8341511749686
 10
88.37307262330604
 20
-117.8341511749686
 10
88.37307262330604
 20
-117.8341511749686
 10
88.42819415107004
 20
-118.0329331844675
 10
88.5551459197015
 20
-118.0625610056406
 10
88.64816349780324
 20
-118.0625610056406
 10
88.78768986495587
 20
-118.0625610056406
 10
88.94013534017816
 20
-117.9631700008912
 10
88.94013534017816
 20
-117.7304538008625
 10
88.94013534017816
 20
-117.4744832063085
 10
88.76030135584813
 20
-117.4047200227322
 10
88.63972301386438
 20
-117.4047200227322
 10
88.60802813540008
 20
-117.4047200227322
 10
88.46626245618205
 20
-117.4047200227322
 10
88.3773789926626
 20
-117.5337388486548
 10
88.3773789926626
 20
-117.5337388486548
 10
88.20185137768912
 20
-117.5146185687116
 10
88.20185137768912
 20
-117.5146185687116
 10
88.20185137768912
 20
-117.5146185687116
 10
88.32242971967287
 20
-116.6685031175343
 10
88.32242971967287
 20
-116.6685031175343
 10
88.32242971967287
 20
-116.6685031175343
 10
89.10084904456507
 20
-116.6685031175343
 10
89.10084904456507
 20
-116.6685031175343
 10
89.10084904456507
 20
-116.6685031175343
 10
89.10084904456507
 20
-116.8631510124509
 10
89.10084904456507
 20
-116.8631510124509
 10
89.10084904456507
 20
-116.8631510124509
 10
88.48521048135092
 20
-116.8631510124509
 10
88.48521048135092
 20
-116.8631510124509
 10
88.48521048135092
 20
-116.8631510124509
 10
88.41975366713118
 20
-117.2862087380396
 10
88.41975366713118
 20
-117.2862087380396
 10
88.48107636676862
 20
-117.2522745475099
 10
88.56358640364036
 20
-117.2121391851067
 10
88.68192543355869
 20
-117.2121391851067
 10
88.9358289708216
 20
-117.2121391851067
 10
89.17285154020679
 20
-117.3983465960845
 10
89.17285154020679
 20
-117.7113335209194
 10
89.17285154020679
 20
-118.0287990698852
 10
88.94857582411703
 20
-118.2635823272049
 10
88.6460964405121
 20
-118.2635823272049
 97
        0
 97
        0
 75
     2
 76
     1
 98
        0
  0
ENDBLK
  5
D4
330
D1
100
AcDbEntity
  8
0
100
AcDbBlockEnd
  0
BLOCK
  5
EE
330
EC
100
AcDbEntity
  8
0
100
AcDbBlockBegin
  2
block 4
 70
     0
 10
0.0
 20
0.0
 30
0.0
  3
block 4
  1

  0
POLYLINE
  5
F0
330
EC
100
AcDbEntity
  8
_U+30EC_U+30A4_U+30E4_U+30FC 1
 62
     7
420
 16777215
370
     9
100
AcDb2dPolyline
 66
     1
 10
0.0
 20
0.0
 30
0.0
  0
VERTEX
  5
F1
330
F0
100
AcDbEntity
  8
_U+30EC_U+30A4_U+30E4_U+30FC 1
 62
     7
420
 16777215
370
     9
100
AcDbVertex
100
AcDb2dVertex
 10
65.57687166032795
 20
-140.8589455203409
 30
0.0
  0
VERTEX
  5
F2
330
F0
100
AcDbEntity
  8
_U+30EC_U+30A4_U+30E4_U+30FC 1
 62
     7
420
 16777215
370
     9
100
AcDbVertex
100
AcDb2dVertex
 10
80.57680599986998
 20
-140.8589455203409
 30
0.0
  0
SEQEND
  5
F3
330
F0
100
AcDbEntity
  8
_U+30EC_U+30A4_U+30E4_U+30FC 1
 62
     7
420
 16777215
370
     9
  0
POLYLINE
  5
F4
330
EC
100
AcDbEntity
  8
_U+30EC_U+30A4_U+30E4_U+30FC 1
 62
     7
420
 16777215
370
     9
100
AcDb2dPolyline
 66
     1
 10
0.0
 20
0.0
 30
0.0
  0
VERTEX
  5
F5
330
F4
100
AcDbEntity
  8
_U+30EC_U+30A4_U+30E4_U+30FC 1
 62
     7
420
 16777215
370
     9
100
AcDbVertex
100
AcDb2dVertex
 10
65.57687166032795
 20
-126.399184135067
 30
0.0
  0
VERTEX
  5
F6
330
F4
100
AcDbEntity
  8
_U+30EC_U+30A4_U+30E4_U+30FC 1
 62
     7
420
 16777215
370
     9
100
AcDbVertex
100
AcDb2dVertex
 10
65.57687166032795
 20
-141.8586824645353
 30
0.0
  0
SEQEND
  5
F7
330
F4
100
AcDbEntity
  8
_U+30EC_U+30A4_U+30E4_U+30FC 1
 62
     7
420
 16777215
370
     9
  0
POLYLINE
  5
F8
330
EC
100
AcDbEntity
  8
_U+30EC_U+30A4_U+30E4_U+30FC 1
 62
     7
420
 16777215
370
     9
100
AcDb2dPolyline
 66
     1
 10
0.0
 20
0.0
 30
0.0
  0
VERTEX
  5
F9
330
F8
100
AcDbEntity
  8
_U+30EC_U+30A4_U+30E4_U+30FC 1
 62
     7
420
 16777215
370
     9
100
AcDbVertex
100
AcDb2dVertex
 10
80.57680599986998
 20
-139.3989041318172
 30
0.0
  0
VERTEX
  5
FA
330
F8
100
AcDbEntity
  8
_U+30EC_U+30A4_U+30E4_U+30FC 1
 62
     7
420
 16777215
370
     9
100
AcDbVertex
100
AcDb2dVertex
 10
80.57680599986998
 20
-141.8586824645353
 30
0.0
  0
SEQEND
  5
FB
330
F8
100
AcDbEntity
  8
_U+30EC_U+30A4_U+30E4_U+30FC 1
 62
     7
420
 16777215
370
     9
  0
INSERT
  5
FD
330
EC
100
AcDbEntity
  8
_U+30EC_U+30A4_U+30E4_U+30FC 1
100
AcDbBlockReference
  2
block 5
 10
0.0
 20
0.0
 30
0.0
  0
ENDBLK
  5
EF
330
EC
100
AcDbEntity
  8
0
100
AcDbBlockEnd
  0
BLOCK
  5
FE
330
FC
100
AcDbEntity
  8
0
100
AcDbBlockBegin
  2
block 5
 70
     0
 10
0.0
 20
0.0
 30
0.0
  3
block 5
  1

  0
SPLINE
  5
100
330
FC
100
AcDbEntity
  8
_U+30EC_U+30A4_U+30E4_U+30FC 1
370
     0
100
AcDbSpline
210
0.0
220
0.0
230
1.0
 70
    11
 71
     3
 72
    26
 73
    22
 74
     0
 42
0.0000000001
 43
0.0000000001
 12
1.0
 22
0.0
 32
0.0
 13
1.0
 23
0.0
 33
0.0
 40
0.0
 40
0.0
 40
0.0
 40
0.0
 40
1.0
 40
1.0
 40
1.0
 40
2.0
 40
2.0
 40
2.0
 40
3.0
 40
3.0
 40
3.0
 40
4.0
 40
4.0
 40
4.0
 40
5.0
 40
5.0
 40
5.0
 40
6.0
 40
6.0
 40
6.0
 40
7.0
 40
7.0
 40
7.0
 40
7.0
 10
72.4396782587998
 20
-140.2129746828287
 30
0.0
 10
72.4396782587998
 20
-140.2129746828287
 30
0.0
 10
72.4396782587998
 20
-139.1084770702576
 30
0.0
 10
72.4396782587998
 20
-139.1084770702576
 30
0.0
 10
72.4396782587998
 20
-139.1084770702576
 30
0.0
 10
72.10963811131288
 20
-139.1084770702576
 30
0.0
 10
72.10963811131288
 20
-139.1084770702576
 30
0.0
 10
72.10963811131288
 20
-139.1084770702576
 30
0.0
 10
72.10963811131288
 20
-138.9606824739404
 30
0.0
 10
72.10963811131288
 20
-138.9606824739404
 30
0.0
 10
72.44174531609096
 20
-138.9458685633538
 30
0.0
 10
72.48825410514183
 20
-138.7829155469015
 30
0.0
 10
72.51788192631497
 20
-138.6685383767912
 30
0.0
 10
72.51788192631497
 20
-138.6685383767912
 30
0.0
 10
72.66395397488957
 20
-138.6685383767912
 30
0.0
 10
72.66395397488957
 20
-138.6685383767912
 30
0.0
 10
72.66395397488957
 20
-138.6685383767912
 30
0.0
 10
72.66395397488957
 20
-140.2129746828287
 30
0.0
 10
72.66395397488957
 20
-140.2129746828287
 30
0.0
 10
72.66395397488957
 20
-140.2129746828287
 30
0.0
 10
72.4396782587998
 20
-140.2129746828287
 30
0.0
 10
72.4396782587998
 20
-140.2129746828287
 30
0.0
  0
HATCH
  5
101
330
FC
100
AcDbEntity
  8
_U+30EC_U+30A4_U+30E4_U+30FC 1
 62
     7
420
 16777215
100
AcDbHatch
 10
0.0
 20
0.0
 30
0.0
210
0.0
220
0.0
230
1.0
  2
SOLID
 70
     1
 71
     0
 91
        1
 92
        1
 93
        1
 72
     4
 94
        3
 73
     0
 74
     1
 95
       26
 96
       22
 40
0.0
 40
0.0
 40
0.0
 40
0.0
 40
1.0
 40
1.0
 40
1.0
 40
2.0
 40
2.0
 40
2.0
 40
3.0
 40
3.0
 40
3.0
 40
4.0
 40
4.0
 40
4.0
 40
5.0
 40
5.0
 40
5.0
 40
6.0
 40
6.0
 40
6.0
 40
7.0
 40
7.0
 40
7.0
 40
7.0
 10
72.4396782587998
 20
-140.2129746828287
 10
72.4396782587998
 20
-140.2129746828287
 10
72.4396782587998
 20
-139.1084770702576
 10
72.4396782587998
 20
-139.1084770702576
 10
72.4396782587998
 20
-139.1084770702576
 10
72.10963811131288
 20
-139.1084770702576
 10
72.10963811131288
 20
-139.1084770702576
 10
72.10963811131288
 20
-139.1084770702576
 10
72.10963811131288
 20
-138.9606824739404
 10
72.10963811131288
 20
-138.9606824739404
 10
72.44174531609096
 20
-138.9458685633538
 10
72.48825410514183
 20
-138.7829155469015
 10
72.51788192631497
 20
-138.6685383767912
 10
72.51788192631497
 20
-138.6685383767912
 10
72.66395397488957
 20
-138.6685383767912
 10
72.66395397488957
 20
-138.6685383767912
 10
72.66395397488957
 20
-138.6685383767912
 10
72.66395397488957
 20
-140.2129746828287
 10
72.66395397488957
 20
-140.2129746828287
 10
72.66395397488957
 20
-140.2129746828287
 10
72.4396782587998
 20
-140.2129746828287
 10
72.4396782587998
 20
-140.2129746828287
 97
        0
 97
        0
 75
     2
 76
     1
 98
        0
  0
SPLINE
  5
102
330
FC
100
AcDbEntity
  8
_U+30EC_U+30A4_U+30E4_U+30FC 1
370
     0
100
AcDbSpline
210
0.0
220
0.0
230
1.0
 70
    11
 71
     3
 72
    53
 73
    49
 74
     0
 42
0.0000000001
 43
0.0000000001
 12
1.0
 22
0.0
 32
0.0
 13
1.0
 23
0.0
 33
0.0
 40
0.0
 40
0.0
 40
0.0
 40
0.0
 40
1.0
 40
1.0
 40
1.0
 40
2.0
 40
2.0
 40
2.0
 40
3.0
 40
3.0
 40
3.0
 40
4.0
 40
4.0
 40
4.0
 40
5.0
 40
5.0
 40
5.0
 40
6.0
 40
6.0
 40
6.0
 40
7.0
 40
7.0
 40
7.0
 40
8.0
 40
8.0
 40
8.0
 40
9.0
 40
9.0
 40
9.0
 40
10.0
 40
10.0
 40
10.0
 40
11.0
 40
11.0
 40
11.0
 40
12.0
 40
12.0
 40
12.0
 40
13.0
 40
13.0
 40
13.0
 40
14.0
 40
14.0
 40
14.0
 40
15.0
 40
15.0
 40
15.0
 40
16.0
 40
16.0
 40
16.0
 40
16.0
 10
73.6461506977343
 20
-140.2636175864619
 30
0.0
 10
73.56777477544486
 20
-140.2636175864619
 30
0.0
 10
73.46631671340425
 20
-140.2467366185842
 30
0.0
 10
73.36468639658939
 20
-140.1833468616556
 30
0.0
 10
73.19122583890706
 20
-140.0731038061276
 30
0.0
 10
73.17003850167278
 20
-139.9421901776881
 30
0.0
 10
73.1510904765039
 20
-139.8343586889997
 30
0.0
 10
73.1510904765039
 20
-139.8343586889997
 30
0.0
 10
73.37312688052825
 20
-139.8343586889997
 30
0.0
 10
73.37312688052825
 20
-139.8343586889997
 30
0.0
 10
73.42824840829225
 20
-140.0331406984987
 30
0.0
 10
73.5552001769237
 20
-140.0627685196718
 30
0.0
 10
73.64821775502544
 20
-140.0627685196718
 30
0.0
 10
73.78774412217807
 20
-140.0627685196718
 30
0.0
 10
73.94018959740038
 20
-139.9632052601481
 30
0.0
 10
73.94018959740038
 20
-139.7306613148937
 30
0.0
 10
73.94018959740038
 20
-139.4746907203397
 30
0.0
 10
73.76035561307033
 20
-139.4047552819891
 30
0.0
 10
73.63977727108659
 20
-139.4047552819891
 30
0.0
 10
73.6080823926223
 20
-139.4047552819891
 30
0.0
 10
73.46631671340425
 20
-139.4047552819891
 30
0.0
 10
73.37743324988482
 20
-139.533946362686
 30
0.0
 10
73.37743324988482
 20
-139.533946362686
 30
0.0
 10
73.20190563491133
 20
-139.5146538279686
 30
0.0
 10
73.20190563491133
 20
-139.5146538279686
 30
0.0
 10
73.20190563491133
 20
-139.5146538279686
 30
0.0
 10
73.32248397689507
 20
-138.6685383767912
 30
0.0
 10
73.32248397689507
 20
-138.6685383767912
 30
0.0
 10
73.32248397689507
 20
-138.6685383767912
 30
0.0
 10
74.10090330178728
 20
-138.6685383767912
 30
0.0
 10
74.10090330178728
 20
-138.6685383767912
 30
0.0
 10
74.10090330178728
 20
-138.6685383767912
 30
0.0
 10
74.10090330178728
 20
-138.8631862717078
 30
0.0
 10
74.10090330178728
 20
-138.8631862717078
 30
0.0
 10
74.10090330178728
 20
-138.8631862717078
 30
0.0
 10
73.48526473857314
 20
-138.8631862717078
 30
0.0
 10
73.48526473857314
 20
-138.8631862717078
 30
0.0
 10
73.48526473857314
 20
-138.8631862717078
 30
0.0
 10
73.41980792435338
 20
-139.2862439972965
 30
0.0
 10
73.41980792435338
 20
-139.2862439972965
 30
0.0
 10
73.48113062399084
 20
-139.2524820615411
 30
0.0
 10
73.56364066086256
 20
-139.2121744443636
 30
0.0
 10
73.68197969078089
 20
-139.2121744443636
 30
0.0
 10
73.9358832280438
 20
-139.2121744443636
 30
0.0
 10
74.172905797429
 20
-139.3985541101156
 30
0.0
 10
74.172905797429
 20
-139.7113687801763
 30
0.0
 10
74.172905797429
 20
-140.0290065839164
 30
0.0
 10
73.94863008133923
 20
-140.2636175864619
 30
0.0
 10
73.6461506977343
 20
-140.2636175864619
 30
0.0
  0
HATCH
  5
103
330
FC
100
AcDbEntity
  8
_U+30EC_U+30A4_U+30E4_U+30FC 1
 62
     7
420
 16777215
100
AcDbHatch
 10
0.0
 20
0.0
 30
0.0
210
0.0
220
0.0
230
1.0
  2
SOLID
 70
     1
 71
     0
 91
        1
 92
        1
 93
        1
 72
     4
 94
        3
 73
     0
 74
     1
 95
       53
 96
       49
 40
0.0
 40
0.0
 40
0.0
 40
0.0
 40
1.0
 40
1.0
 40
1.0
 40
2.0
 40
2.0
 40
2.0
 40
3.0
 40
3.0
 40
3.0
 40
4.0
 40
4.0
 40
4.0
 40
5.0
 40
5.0
 40
5.0
 40
6.0
 40
6.0
 40
6.0
 40
7.0
 40
7.0
 40
7.0
 40
8.0
 40
8.0
 40
8.0
 40
9.0
 40
9.0
 40
9.0
 40
10.0
 40
10.0
 40
10.0
 40
11.0
 40
11.0
 40
11.0
 40
12.0
 40
12.0
 40
12.0
 40
13.0
 40
13.0
 40
13.0
 40
14.0
 40
14.0
 40
14.0
 40
15.0
 40
15.0
 40
15.0
 40
16.0
 40
16.0
 40
16.0
 40
16.0
 10
73.6461506977343
 20
-140.2636175864619
 10
73.56777477544486
 20
-140.2636175864619
 10
73.46631671340425
 20
-140.2467366185842
 10
73.36468639658939
 20
-140.1833468616556
 10
73.19122583890706
 20
-140.0731038061276
 10
73.17003850167278
 20
-139.9421901776881
 10
73.1510904765039
 20
-139.8343586889997
 10
73.1510904765039
 20
-139.8343586889997
 10
73.37312688052825
 20
-139.8343586889997
 10
73.37312688052825
 20
-139.8343586889997
 10
73.42824840829225
 20
-140.0331406984987
 10
73.5552001769237
 20
-140.0627685196718
 10
73.64821775502544
 20
-140.0627685196718
 10
73.78774412217807
 20
-140.0627685196718
 10
73.94018959740038
 20
-139.9632052601481
 10
73.94018959740038
 20
-139.7306613148937
 10
73.94018959740038
 20
-139.4746907203397
 10
73.76035561307033
 20
-139.4047552819891
 10
73.63977727108659
 20
-139.4047552819891
 10
73.6080823926223
 20
-139.4047552819891
 10
73.46631671340425
 20
-139.4047552819891
 10
73.37743324988482
 20
-139.533946362686
 10
73.37743324988482
 20
-139.533946362686
 10
73.20190563491133
 20
-139.5146538279686
 10
73.20190563491133
 20
-139.5146538279686
 10
73.20190563491133
 20
-139.5146538279686
 10
73.32248397689507
 20
-138.6685383767912
 10
73.32248397689507
 20
-138.6685383767912
 10
73.32248397689507
 20
-138.6685383767912
 10
74.10090330178728
 20
-138.6685383767912
 10
74.10090330178728
 20
-138.6685383767912
 10
74.10090330178728
 20
-138.6685383767912
 10
74.10090330178728
 20
-138.8631862717078
 10
74.10090330178728
 20
-138.8631862717078
 10
74.10090330178728
 20
-138.8631862717078
 10
73.48526473857314
 20
-138.8631862717078
 10
73.48526473857314
 20
-138.8631862717078
 10
73.48526473857314
 20
-138.8631862717078
 10
73.41980792435338
 20
-139.2862439972965
 10
73.41980792435338
 20
-139.2862439972965
 10
73.48113062399084
 20
-139.2524820615411
 10
73.56364066086256
 20
-139.2121744443636
 10
73.68197969078089
 20
-139.2121744443636
 10
73.9358832280438
 20
-139.2121744443636
 10
74.172905797429
 20
-139.3985541101156
 10
74.172905797429
 20
-139.7113687801763
 10
74.172905797429
 20
-140.0290065839164
 10
73.94863008133923
 20
-140.2636175864619
 10
73.6461506977343
 20
-140.2636175864619
 97
        0
 97
        0
 75
     2
 76
     1
 98
        0
  0
ENDBLK
  5
FF
330
FC
100
AcDbEntity
  8
0
100
AcDbBlockEnd
  0
BLOCK
  5
106
330
104
100
AcDbEntity
  8
0
100
AcDbBlockBegin
  2
block 6
 70
     0
 10
0.0
 20
0.0
 30
0.0
  3
block 6
  1

  0
POLYLINE
  5
108
330
104
100
AcDbEntity
  8
_U+30EC_U+30A4_U+30E4_U+30FC 1
 62
     7
420
 16777215
370
     9
100
AcDb2dPolyline
 66
     1
 10
0.0
 20
0.0
 30
0.0
  0
VERTEX
  5
109
330
108
100
AcDbEntity
  8
_U+30EC_U+30A4_U+30E4_U+30FC 1
 62
     7
420
 16777215
370
     9
100
AcDbVertex
100
AcDb2dVertex
 10
80.57680599986998
 20
-140.8589455203409
 30
0.0
  0
VERTEX
  5
10A
330
108
100
AcDbEntity
  8
_U+30EC_U+30A4_U+30E4_U+30FC 1
 62
     7
420
 16777215
370
     9
100
AcDbVertex
100
AcDb2dVertex
 10
95.57695200607326
 20
-140.8589455203409
 30
0.0
  0
SEQEND
  5
10B
330
108
100
AcDbEntity
  8
_U+30EC_U+30A4_U+30E4_U+30FC 1
 62
     7
420
 16777215
370
     9
  0
POLYLINE
  5
10C
330
104
100
AcDbEntity
  8
_U+30EC_U+30A4_U+30E4_U+30FC 1
 62
     7
420
 16777215
370
     9
100
AcDb2dPolyline
 66
     1
 10
0.0
 20
0.0
 30
0.0
  0
VERTEX
  5
10D
330
10C
100
AcDbEntity
  8
_U+30EC_U+30A4_U+30E4_U+30FC 1
 62
     7
420
 16777215
370
     9
100
AcDbVertex
100
AcDb2dVertex
 10
95.57695200607326
 20
-139.3989041318172
 30
0.0
  0
VERTEX
  5
10E
330
10C
100
AcDbEntity
  8
_U+30EC_U+30A4_U+30E4_U+30FC 1
 62
     7
420
 16777215
370
     9
100
AcDbVertex
100
AcDb2dVertex
 10
95.57695200607326
 20
-141.8586824645353
 30
0.0
  0
SEQEND
  5
10F
330
10C
100
AcDbEntity
  8
_U+30EC_U+30A4_U+30E4_U+30FC 1
 62
     7
420
 16777215
370
     9
  0
INSERT
  5
111
330
104
100
AcDbEntity
  8
_U+30EC_U+30A4_U+30E4_U+30FC 1
100
AcDbBlockReference
  2
block 7
 10
0.0
 20
0.0
 30
0.0
  0
ENDBLK
  5
107
330
104
100
AcDbEntity
  8
0
100
AcDbBlockEnd
  0
BLOCK
  5
112
330
110
100
AcDbEntity
  8
0
100
AcDbBlockBegin
  2
block 7
 70
     0
 10
0.0
 20
0.0
 30
0.0
  3
block 7
  1

  0
SPLINE
  5
114
330
110
100
AcDbEntity
  8
_U+30EC_U+30A4_U+30E4_U+30FC 1
370
     0
100
AcDbSpline
210
0.0
220
0.0
230
1.0
 70
    11
 71
     3
 72
    26
 73
    22
 74
     0
 42
0.0000000001
 43
0.0000000001
 12
1.0
 22
0.0
 32
0.0
 13
1.0
 23
0.0
 33
0.0
 40
0.0
 40
0.0
 40
0.0
 40
0.0
 40
1.0
 40
1.0
 40
1.0
 40
2.0
 40
2.0
 40
2.0
 40
3.0
 40
3.0
 40
3.0
 40
4.0
 40
4.0
 40
4.0
 40
5.0
 40
5.0
 40
5.0
 40
6.0
 40
6.0
 40
6.0
 40
7.0
 40
7.0
 40
7.0
 40
7.0
 10
87.4396240015776
 20
-140.2129746828287
 30
0.0
 10
87.4396240015776
 20
-140.2129746828287
 30
0.0
 10
87.4396240015776
 20
-139.1084770702576
 30
0.0
 10
87.4396240015776
 20
-139.1084770702576
 30
0.0
 10
87.4396240015776
 20
-139.1084770702576
 30
0.0
 10
87.10958385409066
 20
-139.1084770702576
 30
0.0
 10
87.10958385409066
 20
-139.1084770702576
 30
0.0
 10
87.10958385409066
 20
-139.1084770702576
 30
0.0
 10
87.10958385409066
 20
-138.9606824739404
 30
0.0
 10
87.10958385409066
 20
-138.9606824739404
 30
0.0
 10
87.44169105886874
 20
-138.9458685633538
 30
0.0
 10
87.48819984791962
 20
-138.7829155469015
 30
0.0
 10
87.51782766909277
 20
-138.6685383767912
 30
0.0
 10
87.51782766909277
 20
-138.6685383767912
 30
0.0
 10
87.66389971766736
 20
-138.6685383767912
 30
0.0
 10
87.66389971766736
 20
-138.6685383767912
 30
0.0
 10
87.66389971766736
 20
-138.6685383767912
 30
0.0
 10
87.66389971766736
 20
-140.2129746828287
 30
0.0
 10
87.66389971766736
 20
-140.2129746828287
 30
0.0
 10
87.66389971766736
 20
-140.2129746828287
 30
0.0
 10
87.4396240015776
 20
-140.2129746828287
 30
0.0
 10
87.4396240015776
 20
-140.2129746828287
 30
0.0
  0
HATCH
  5
115
330
110
100
AcDbEntity
  8
_U+30EC_U+30A4_U+30E4_U+30FC 1
 62
     7
420
 16777215
100
AcDbHatch
 10
0.0
 20
0.0
 30
0.0
210
0.0
220
0.0
230
1.0
  2
SOLID
 70
     1
 71
     0
 91
        1
 92
        1
 93
        1
 72
     4
 94
        3
 73
     0
 74
     1
 95
       26
 96
       22
 40
0.0
 40
0.0
 40
0.0
 40
0.0
 40
1.0
 40
1.0
 40
1.0
 40
2.0
 40
2.0
 40
2.0
 40
3.0
 40
3.0
 40
3.0
 40
4.0
 40
4.0
 40
4.0
 40
5.0
 40
5.0
 40
5.0
 40
6.0
 40
6.0
 40
6.0
 40
7.0
 40
7.0
 40
7.0
 40
7.0
 10
87.4396240015776
 20
-140.2129746828287
 10
87.4396240015776
 20
-140.2129746828287
 10
87.4396240015776
 20
-139.1084770702576
 10
87.4396240015776
 20
-139.1084770702576
 10
87.4396240015776
 20
-139.1084770702576
 10
87.10958385409066
 20
-139.1084770702576
 10
87.10958385409066
 20
-139.1084770702576
 10
87.10958385409066
 20
-139.1084770702576
 10
87.10958385409066
 20
-138.9606824739404
 10
87.10958385409066
 20
-138.9606824739404
 10
87.44169105886874
 20
-138.9458685633538
 10
87.48819984791962
 20
-138.7829155469015
 10
87.51782766909277
 20
-138.6685383767912
 10
87.51782766909277
 20
-138.6685383767912
 10
87.66389971766736
 20
-138.6685383767912
 10
87.66389971766736
 20
-138.6685383767912
 10
87.66389971766736
 20
-138.6685383767912
 10
87.66389971766736
 20
-140.2129746828287
 10
87.66389971766736
 20
-140.2129746828287
 10
87.66389971766736
 20
-140.2129746828287
 10
87.4396240015776
 20
-140.2129746828287
 10
87.4396240015776
 20
-140.2129746828287
 97
        0
 97
        0
 75
     2
 76
     1
 98
        0
  0
SPLINE
  5
116
330
110
100
AcDbEntity
  8
_U+30EC_U+30A4_U+30E4_U+30FC 1
370
     0
100
AcDbSpline
210
0.0
220
0.0
230
1.0
 70
    11
 71
     3
 72
    53
 73
    49
 74
     0
 42
0.0000000001
 43
0.0000000001
 12
1.0
 22
0.0
 32
0.0
 13
1.0
 23
0.0
 33
0.0
 40
0.0
 40
0.0
 40
0.0
 40
0.0
 40
1.0
 40
1.0
 40
1.0
 40
2.0
 40
2.0
 40
2.0
 40
3.0
 40
3.0
 40
3.0
 40
4.0
 40
4.0
 40
4.0
 40
5.0
 40
5.0
 40
5.0
 40
6.0
 40
6.0
 40
6.0
 40
7.0
 40
7.0
 40
7.0
 40
8.0
 40
8.0
 40
8.0
 40
9.0
 40
9.0
 40
9.0
 40
10.0
 40
10.0
 40
10.0
 40
11.0
 40
11.0
 40
11.0
 40
12.0
 40
12.0
 40
12.0
 40
13.0
 40
13.0
 40
13.0
 40
14.0
 40
14.0
 40
14.0
 40
15.0
 40
15.0
 40
15.0
 40
16.0
 40
16.0
 40
16.0
 40
16.0
 10
88.6460964405121
 20
-140.2636175864619
 30
0.0
 10
88.56772051822266
 20
-140.2636175864619
 30
0.0
 10
88.46626245618205
 20
-140.2467366185842
 30
0.0
 10
88.36463213936717
 20
-140.1833468616556
 30
0.0
 10
88.19117158168486
 20
-140.0731038061276
 30
0.0
 10
88.16998424445056
 20
-139.9421901776881
 30
0.0
 10
88.15103621928169
 20
-139.8343586889997
 30
0.0
 10
88.15103621928169
 20
-139.8343586889997
 30
0.0
 10
88.37307262330604
 20
-139.8343586889997
 30
0.0
 10
88.37307262330604
 20
-139.8343586889997
 30
0.0
 10
88.42819415107004
 20
-140.0331406984987
 30
0.0
 10
88.5551459197015
 20
-140.0627685196718
 30
0.0
 10
88.64816349780324
 20
-140.0627685196718
 30
0.0
 10
88.78768986495587
 20
-140.0627685196718
 30
0.0
 10
88.94013534017816
 20
-139.9632052601481
 30
0.0
 10
88.94013534017816
 20
-139.7306613148937
 30
0.0
 10
88.94013534017816
 20
-139.4746907203397
 30
0.0
 10
88.76030135584813
 20
-139.4047552819891
 30
0.0
 10
88.63972301386438
 20
-139.4047552819891
 30
0.0
 10
88.60802813540008
 20
-139.4047552819891
 30
0.0
 10
88.46626245618205
 20
-139.4047552819891
 30
0.0
 10
88.3773789926626
 20
-139.533946362686
 30
0.0
 10
88.3773789926626
 20
-139.533946362686
 30
0.0
 10
88.20185137768912
 20
-139.5146538279686
 30
0.0
 10
88.20185137768912
 20
-139.5146538279686
 30
0.0
 10
88.20185137768912
 20
-139.5146538279686
 30
0.0
 10
88.32242971967287
 20
-138.6685383767912
 30
0.0
 10
88.32242971967287
 20
-138.6685383767912
 30
0.0
 10
88.32242971967287
 20
-138.6685383767912
 30
0.0
 10
89.10084904456507
 20
-138.6685383767912
 30
0.0
 10
89.10084904456507
 20
-138.6685383767912
 30
0.0
 10
89.10084904456507
 20
-138.6685383767912
 30
0.0
 10
89.10084904456507
 20
-138.8631862717078
 30
0.0
 10
89.10084904456507
 20
-138.8631862717078
 30
0.0
 10
89.10084904456507
 20
-138.8631862717078
 30
0.0
 10
88.48521048135092
 20
-138.8631862717078
 30
0.0
 10
88.48521048135092
 20
-138.8631862717078
 30
0.0
 10
88.48521048135092
 20
-138.8631862717078
 30
0.0
 10
88.41975366713118
 20
-139.2862439972965
 30
0.0
 10
88.41975366713118
 20
-139.2862439972965
 30
0.0
 10
88.48107636676862
 20
-139.2524820615411
 30
0.0
 10
88.56358640364036
 20
-139.2121744443636
 30
0.0
 10
88.68192543355869
 20
-139.2121744443636
 30
0.0
 10
88.9358289708216
 20
-139.2121744443636
 30
0.0
 10
89.17285154020679
 20
-139.3985541101156
 30
0.0
 10
89.17285154020679
 20
-139.7113687801763
 30
0.0
 10
89.17285154020679
 20
-140.0290065839164
 30
0.0
 10
88.94857582411703
 20
-140.2636175864619
 30
0.0
 10
88.6460964405121
 20
-140.2636175864619
 30
0.0
  0
HATCH
  5
117
330
110
100
AcDbEntity
  8
_U+30EC_U+30A4_U+30E4_U+30FC 1
 62
     7
420
 16777215
100
AcDbHatch
 10
0.0
 20
0.0
 30
0.0
210
0.0
220
0.0
230
1.0
  2
SOLID
 70
     1
 71
     0
 91
        1
 92
        1
 93
        1
 72
     4
 94
        3
 73
     0
 74
     1
 95
       53
 96
       49
 40
0.0
 40
0.0
 40
0.0
 40
0.0
 40
1.0
 40
1.0
 40
1.0
 40
2.0
 40
2.0
 40
2.0
 40
3.0
 40
3.0
 40
3.0
 40
4.0
 40
4.0
 40
4.0
 40
5.0
 40
5.0
 40
5.0
 40
6.0
 40
6.0
 40
6.0
 40
7.0
 40
7.0
 40
7.0
 40
8.0
 40
8.0
 40
8.0
 40
9.0
 40
9.0
 40
9.0
 40
10.0
 40
10.0
 40
10.0
 40
11.0
 40
11.0
 40
11.0
 40
12.0
 40
12.0
 40
12.0
 40
13.0
 40
13.0
 40
13.0
 40
14.0
 40
14.0
 40
14.0
 40
15.0
 40
15.0
 40
15.0
 40
16.0
 40
16.0
 40
16.0
 40
16.0
 10
88.6460964405121
 20
-140.2636175864619
 10
88.56772051822266
 20
-140.2636175864619
 10
88.46626245618205
 20
-140.2467366185842
 10
88.36463213936717
 20
-140.1833468616556
 10
88.19117158168486
 20
-140.0731038061276
 10
88.16998424445056
 20
-139.9421901776881
 10
88.15103621928169
 20
-139.8343586889997
 10
88.15103621928169
 20
-139.8343586889997
 10
88.37307262330604
 20
-139.8343586889997
 10
88.37307262330604
 20
-139.8343586889997
 10
88.42819415107004
 20
-140.0331406984987
 10
88.5551459197015
 20
-140.0627685196718
 10
88.64816349780324
 20
-140.0627685196718
 10
88.78768986495587
 20
-140.0627685196718
 10
88.94013534017816
 20
-139.9632052601481
 10
88.94013534017816
 20
-139.7306613148937
 10
88.94013534017816
 20
-139.4746907203397
 10
88.76030135584813
 20
-139.4047552819891
 10
88.63972301386438
 20
-139.4047552819891
 10
88.60802813540008
 20
-139.4047552819891
 10
88.46626245618205
 20
-139.4047552819891
 10
88.3773789926626
 20
-139.533946362686
 10
88.3773789926626
 20
-139.533946362686
 10
88.20185137768912
 20
-139.5146538279686
 10
88.20185137768912
 20
-139.5146538279686
 10
88.20185137768912
 20
-139.5146538279686
 10
88.32242971967287
 20
-138.6685383767912
 10
88.32242971967287
 20
-138.6685383767912
 10
88.32242971967287
 20
-138.6685383767912
 10
89.10084904456507
 20
-138.6685383767912
 10
89.10084904456507
 20
-138.6685383767912
 10
89.10084904456507
 20
-138.6685383767912
 10
89.10084904456507
 20
-138.8631862717078
 10
89.10084904456507
 20
-138.8631862717078
 10
89.10084904456507
 20
-138.8631862717078
 10
88.48521048135092
 20
-138.8631862717078
 10
88.48521048135092
 20
-138.8631862717078
 10
88.48521048135092
 20
-138.8631862717078
 10
88.41975366713118
 20
-139.2862439972965
 10
88.41975366713118
 20
-139.2862439972965
 10
88.48107636676862
 20
-139.2524820615411
 10
88.56358640364036
 20
-139.2121744443636
 10
88.68192543355869
 20
-139.2121744443636
 10
88.9358289708216
 20
-139.2121744443636
 10
89.17285154020679
 20
-139.3985541101156
 10
89.17285154020679
 20
-139.7113687801763
 10
89.17285154020679
 20
-140.0290065839164
 10
88.94857582411703
 20
-140.2636175864619
 10
88.6460964405121
 20
-140.2636175864619
 97
        0
 97
        0
 75
     2
 76
     1
 98
        0
  0
ENDBLK
  5
113
330
110
100
AcDbEntity
  8
0
100
AcDbBlockEnd
  0
BLOCK
  5
11A
330
118
100
AcDbEntity
  8
0
100
AcDbBlockBegin
  2
block 8
 70
     0
 10
0.0
 20
0.0
 30
0.0
  3
block 8
  1

  0
POLYLINE
  5
11C
330
118
100
AcDbEntity
  8
_U+30EC_U+30A4_U+30E4_U+30FC 1
 62
     7
420
 16777215
370
     9
100
AcDb2dPolyline
 66
     1
 10
0.0
 20
0.0
 30
0.0
  0
VERTEX
  5
11D
330
11C
100
AcDbEntity
  8
_U+30EC_U+30A4_U+30E4_U+30FC 1
 62
     7
420
 16777215
370
     9
100
AcDbVertex
100
AcDb2dVertex
 10
114.5766454102396
 20
-122.8589885803964
 30
0.0
  0
VERTEX
  5
11E
330
11C
100
AcDbEntity
  8
_U+30EC_U+30A4_U+30E4_U+30FC 1
 62
     7
420
 16777215
370
     9
100
AcDbVertex
100
AcDb2dVertex
 10
114.5766454102396
 20
-119.088676081339
 30
0.0
  0
SEQEND
  5
11F
330
11C
100
AcDbEntity
  8
_U+30EC_U+30A4_U+30E4_U+30FC 1
 62
     7
420
 16777215
370
     9
  0
POLYLINE
  5
120
330
118
100
AcDbEntity
  8
_U+30EC_U+30A4_U+30E4_U+30FC 1
 62
     7
420
 16777215
370
     9
100
AcDb2dPolyline
 66
     1
 10
0.0
 20
0.0
 30
0.0
  0
VERTEX
  5
121
330
120
100
AcDbEntity
  8
_U+30EC_U+30A4_U+30E4_U+30FC 1
 62
     7
420
 16777215
370
     9
100
AcDbVertex
100
AcDb2dVertex
 10
114.5766454102396
 20
-122.8589885803964
 30
0.0
  0
VERTEX
  5
122
330
120
100
AcDbEntity
  8
_U+30EC_U+30A4_U+30E4_U+30FC 1
 62
     7
420
 16777215
370
     9
100
AcDbVertex
100
AcDb2dVertex
 10
114.5766454102396
 20
-123.8587608023686
 30
0.0
  0
SEQEND
  5
123
330
120
100
AcDbEntity
  8
_U+30EC_U+30A4_U+30E4_U+30FC 1
 62
     7
420
 16777215
370
     9
  0
POLYLINE
  5
124
330
118
100
AcDbEntity
  8
_U+30EC_U+30A4_U+30E4_U+30FC 1
 62
     7
420
 16777215
370
     9
100
AcDb2dPolyline
 66
     1
 10
0.0
 20
0.0
 30
0.0
  0
VERTEX
  5
125
330
124
100
AcDbEntity
  8
_U+30EC_U+30A4_U+30E4_U+30FC 1
 62
     7
420
 16777215
370
     9
100
AcDbVertex
100
AcDb2dVertex
 10
113.1166040585994
 20
-122.8589885803964
 30
0.0
  0
VERTEX
  5
126
330
124
100
AcDbEntity
  8
_U+30EC_U+30A4_U+30E4_U+30FC 1
 62
     7
420
 16777215
370
     9
100
AcDbVertex
100
AcDb2dVertex
 10
115.5770878847162
 20
-122.8589885803964
 30
0.0
  0
SEQEND
  5
127
330
124
100
AcDbEntity
  8
_U+30EC_U+30A4_U+30E4_U+30FC 1
 62
     7
420
 16777215
370
     9
  0
POLYLINE
  5
128
330
118
100
AcDbEntity
  8
_U+30EC_U+30A4_U+30E4_U+30FC 1
 62
     7
420
 16777215
370
     9
100
AcDb2dPolyline
 66
     1
 10
0.0
 20
0.0
 30
0.0
  0
VERTEX
  5
129
330
128
100
AcDbEntity
  8
_U+30EC_U+30A4_U+30E4_U+30FC 1
 62
     7
420
 16777215
370
     9
100
AcDbVertex
100
AcDb2dVertex
 10
113.1166040585994
 20
-123.8587608023686
 30
0.0
  0
VERTEX
  5
12A
330
128
100
AcDbEntity
  8
_U+30EC_U+30A4_U+30E4_U+30FC 1
 62
     7
420
 16777215
370
     9
100
AcDbVertex
100
AcDb2dVertex
 10
115.5770878847162
 20
-123.8587608023686
 30
0.0
  0
SEQEND
  5
12B
330
128
100
AcDbEntity
  8
_U+30EC_U+30A4_U+30E4_U+30FC 1
 62
     7
420
 16777215
370
     9
  0
INSERT
  5
12D
330
118
100
AcDbEntity
  8
_U+30EC_U+30A4_U+30E4_U+30FC 1
100
AcDbBlockReference
  2
block 9
 10
0.0
 20
0.0
 30
0.0
  0
ENDBLK
  5
11B
330
118
100
AcDbEntity
  8
0
100
AcDbBlockEnd
  0
BLOCK
  5
12E
330
12C
100
AcDbEntity
  8
0
100
AcDbBlockBegin
  2
block 9
 70
     0
 10
0.0
 20
0.0
 30
0.0
  3
block 9
  1

  0
SPLINE
  5
130
330
12C
100
AcDbEntity
  8
_U+30EC_U+30A4_U+30E4_U+30FC 1
370
     0
100
AcDbSpline
210
0.0
220
0.0
230
1.0
 70
    11
 71
     3
 72
    26
 73
    22
 74
     0
 42
0.0000000001
 43
0.0000000001
 12
1.0
 22
0.0
 32
0.0
 13
1.0
 23
0.0
 33
0.0
 40
0.0
 40
0.0
 40
0.0
 40
0.0
 40
1.0
 40
1.0
 40
1.0
 40
2.0
 40
2.0
 40
2.0
 40
3.0
 40
3.0
 40
3.0
 40
4.0
 40
4.0
 40
4.0
 40
5.0
 40
5.0
 40
5.0
 40
6.0
 40
6.0
 40
6.0
 40
7.0
 40
7.0
 40
7.0
 40
7.0
 10
113.5775634481681
 20
-123.4350151601135
 30
0.0
 10
113.5775634481681
 20
-123.4350151601135
 30
0.0
 10
112.4734103451455
 20
-123.4350151601135
 30
0.0
 10
112.4734103451455
 20
-123.4350151601135
 30
0.0
 10
112.4734103451455
 20
-123.4350151601135
 30
0.0
 10
112.4734103451455
 20
-123.7650553076004
 30
0.0
 10
112.4734103451455
 20
-123.7650553076004
 30
0.0
 10
112.4734103451455
 20
-123.7650553076004
 30
0.0
 10
112.3252712392798
 20
-123.7650553076004
 30
0.0
 10
112.3252712392798
 20
-123.7650553076004
 30
0.0
 10
112.3104573286932
 20
-123.4329481028223
 30
0.0
 10
112.1475043122409
 20
-123.3864393137714
 30
0.0
 10
112.0331271421306
 20
-123.3568114925983
 30
0.0
 10
112.0331271421306
 20
-123.3568114925983
 30
0.0
 10
112.0331271421306
 20
-123.2107394440237
 30
0.0
 10
112.0331271421306
 20
-123.2107394440237
 30
0.0
 10
112.0331271421306
 20
-123.2107394440237
 30
0.0
 10
113.5775634481681
 20
-123.2107394440237
 30
0.0
 10
113.5775634481681
 20
-123.2107394440237
 30
0.0
 10
113.5775634481681
 20
-123.2107394440237
 30
0.0
 10
113.5775634481681
 20
-123.4350151601135
 30
0.0
 10
113.5775634481681
 20
-123.4350151601135
 30
0.0
  0
HATCH
  5
131
330
12C
100
AcDbEntity
  8
_U+30EC_U+30A4_U+30E4_U+30FC 1
 62
     7
420
 16777215
100
AcDbHatch
 10
0.0
 20
0.0
 30
0.0
210
0.0
220
0.0
230
1.0
  2
SOLID
 70
     1
 71
     0
 91
        1
 92
        1
 93
        1
 72
     4
 94
        3
 73
     0
 74
     1
 95
       26
 96
       22
 40
0.0
 40
0.0
 40
0.0
 40
0.0
 40
1.0
 40
1.0
 40
1.0
 40
2.0
 40
2.0
 40
2.0
 40
3.0
 40
3.0
 40
3.0
 40
4.0
 40
4.0
 40
4.0
 40
5.0
 40
5.0
 40
5.0
 40
6.0
 40
6.0
 40
6.0
 40
7.0
 40
7.0
 40
7.0
 40
7.0
 10
113.5775634481681
 20
-123.4350151601135
 10
113.5775634481681
 20
-123.4350151601135
 10
112.4734103451455
 20
-123.4350151601135
 10
112.4734103451455
 20
-123.4350151601135
 10
112.4734103451455
 20
-123.4350151601135
 10
112.4734103451455
 20
-123.7650553076004
 10
112.4734103451455
 20
-123.7650553076004
 10
112.4734103451455
 20
-123.7650553076004
 10
112.3252712392798
 20
-123.7650553076004
 10
112.3252712392798
 20
-123.7650553076004
 10
112.3104573286932
 20
-123.4329481028223
 10
112.1475043122409
 20
-123.3864393137714
 10
112.0331271421306
 20
-123.3568114925983
 10
112.0331271421306
 20
-123.3568114925983
 10
112.0331271421306
 20
-123.2107394440237
 10
112.0331271421306
 20
-123.2107394440237
 10
112.0331271421306
 20
-123.2107394440237
 10
113.5775634481681
 20
-123.2107394440237
 10
113.5775634481681
 20
-123.2107394440237
 10
113.5775634481681
 20
-123.2107394440237
 10
113.5775634481681
 20
-123.4350151601135
 10
113.5775634481681
 20
-123.4350151601135
 97
        0
 97
        0
 75
     2
 76
     1
 98
        0
  0
ENDBLK
  5
12F
330
12C
100
AcDbEntity
  8
0
100
AcDbBlockEnd
  0
BLOCK
  5
134
330
132
100
AcDbEntity
  8
0
100
AcDbBlockBegin
  2
block 10
 70
     0
 10
0.0
 20
0.0
 30
0.0
  3
block 10
  1

  0
POLYLINE
  5
136
330
132
100
AcDbEntity
  8
_U+30EC_U+30A4_U+30E4_U+30FC 1
 62
     7
420
 16777215
370
     9
100
AcDb2dPolyline
 66
     1
 10
0.0
 20
0.0
 30
0.0
  0
VERTEX
  5
137
330
136
100
AcDbEntity
  8
_U+30EC_U+30A4_U+30E4_U+30FC 1
 62
     7
420
 16777215
370
     9
100
AcDbVertex
100
AcDb2dVertex
 10
114.5766454102396
 20
-123.8587608023686
 30
0.0
  0
VERTEX
  5
138
330
136
100
AcDbEntity
  8
_U+30EC_U+30A4_U+30E4_U+30FC 1
 62
     7
420
 16777215
370
     9
100
AcDbVertex
100
AcDb2dVertex
 10
114.5766454102396
 20
-133.8591994109797
 30
0.0
  0
SEQEND
  5
139
330
136
100
AcDbEntity
  8
_U+30EC_U+30A4_U+30E4_U+30FC 1
 62
     7
420
 16777215
370
     9
  0
POLYLINE
  5
13A
330
132
100
AcDbEntity
  8
_U+30EC_U+30A4_U+30E4_U+30FC 1
 62
     7
420
 16777215
370
     9
100
AcDb2dPolyline
 66
     1
 10
0.0
 20
0.0
 30
0.0
  0
VERTEX
  5
13B
330
13A
100
AcDbEntity
  8
_U+30EC_U+30A4_U+30E4_U+30FC 1
 62
     7
420
 16777215
370
     9
100
AcDbVertex
100
AcDb2dVertex
 10
98.11667219769313
 20
-133.8591994109797
 30
0.0
  0
VERTEX
  5
13C
330
13A
100
AcDbEntity
  8
_U+30EC_U+30A4_U+30E4_U+30FC 1
 62
     7
420
 16777215
370
     9
100
AcDbVertex
100
AcDb2dVertex
 10
115.5770878847162
 20
-133.8591994109797
 30
0.0
  0
SEQEND
  5
13D
330
13A
100
AcDbEntity
  8
_U+30EC_U+30A4_U+30E4_U+30FC 1
 62
     7
420
 16777215
370
     9
  0
INSERT
  5
13F
330
132
100
AcDbEntity
  8
_U+30EC_U+30A4_U+30E4_U+30FC 1
100
AcDbBlockReference
  2
block 11
 10
0.0
 20
0.0
 30
0.0
  0
ENDBLK
  5
135
330
132
100
AcDbEntity
  8
0
100
AcDbBlockEnd
  0
BLOCK
  5
140
330
13E
100
AcDbEntity
  8
0
100
AcDbBlockBegin
  2
block 11
 70
     0
 10
0.0
 20
0.0
 30
0.0
  3
block 11
  1

  0
SPLINE
  5
142
330
13E
100
AcDbEntity
  8
_U+30EC_U+30A4_U+30E4_U+30FC 1
370
     0
100
AcDbSpline
210
0.0
220
0.0
230
1.0
 70
    11
 71
     3
 72
    26
 73
    22
 74
     0
 42
0.0000000001
 43
0.0000000001
 12
1.0
 22
0.0
 32
0.0
 13
1.0
 23
0.0
 33
0.0
 40
0.0
 40
0.0
 40
0.0
 40
0.0
 40
1.0
 40
1.0
 40
1.0
 40
2.0
 40
2.0
 40
2.0
 40
3.0
 40
3.0
 40
3.0
 40
4.0
 40
4.0
 40
4.0
 40
5.0
 40
5.0
 40
5.0
 40
6.0
 40
6.0
 40
6.0
 40
7.0
 40
7.0
 40
7.0
 40
7.0
 10
113.5775634481681
 20
-129.495627137765
 30
0.0
 10
113.5775634481681
 20
-129.495627137765
 30
0.0
 10
112.4734103451455
 20
-129.495627137765
 30
0.0
 10
112.4734103451455
 20
-129.495627137765
 30
0.0
 10
112.4734103451455
 20
-129.495627137765
 30
0.0
 10
112.4734103451455
 20
-129.8256672852519
 30
0.0
 10
112.4734103451455
 20
-129.8256672852519
 30
0.0
 10
112.4734103451455
 20
-129.8256672852519
 30
0.0
 10
112.3252712392798
 20
-129.8256672852519
 30
0.0
 10
112.3252712392798
 20
-129.8256672852519
 30
0.0
 10
112.3104573286932
 20
-129.4935600804738
 30
0.0
 10
112.1475043122409
 20
-129.447051291423
 30
0.0
 10
112.0331271421306
 20
-129.4174234702498
 30
0.0
 10
112.0331271421306
 20
-129.4174234702498
 30
0.0
 10
112.0331271421306
 20
-129.2713514216752
 30
0.0
 10
112.0331271421306
 20
-129.2713514216752
 30
0.0
 10
112.0331271421306
 20
-129.2713514216752
 30
0.0
 10
113.5775634481681
 20
-129.2713514216752
 30
0.0
 10
113.5775634481681
 20
-129.2713514216752
 30
0.0
 10
113.5775634481681
 20
-129.2713514216752
 30
0.0
 10
113.5775634481681
 20
-129.495627137765
 30
0.0
 10
113.5775634481681
 20
-129.495627137765
 30
0.0
  0
HATCH
  5
143
330
13E
100
AcDbEntity
  8
_U+30EC_U+30A4_U+30E4_U+30FC 1
 62
     7
420
 16777215
100
AcDbHatch
 10
0.0
 20
0.0
 30
0.0
210
0.0
220
0.0
230
1.0
  2
SOLID
 70
     1
 71
     0
 91
        1
 92
        1
 93
        1
 72
     4
 94
        3
 73
     0
 74
     1
 95
       26
 96
       22
 40
0.0
 40
0.0
 40
0.0
 40
0.0
 40
1.0
 40
1.0
 40
1.0
 40
2.0
 40
2.0
 40
2.0
 40
3.0
 40
3.0
 40
3.0
 40
4.0
 40
4.0
 40
4.0
 40
5.0
 40
5.0
 40
5.0
 40
6.0
 40
6.0
 40
6.0
 40
7.0
 40
7.0
 40
7.0
 40
7.0
 10
113.5775634481681
 20
-129.495627137765
 10
113.5775634481681
 20
-129.495627137765
 10
112.4734103451455
 20
-129.495627137765
 10
112.4734103451455
 20
-129.495627137765
 10
112.4734103451455
 20
-129.495627137765
 10
112.4734103451455
 20
-129.8256672852519
 10
112.4734103451455
 20
-129.8256672852519
 10
112.4734103451455
 20
-129.8256672852519
 10
112.3252712392798
 20
-129.8256672852519
 10
112.3252712392798
 20
-129.8256672852519
 10
112.3104573286932
 20
-129.4935600804738
 10
112.1475043122409
 20
-129.447051291423
 10
112.0331271421306
 20
-129.4174234702498
 10
112.0331271421306
 20
-129.4174234702498
 10
112.0331271421306
 20
-129.2713514216752
 10
112.0331271421306
 20
-129.2713514216752
 10
112.0331271421306
 20
-129.2713514216752
 10
113.5775634481681
 20
-129.2713514216752
 10
113.5775634481681
 20
-129.2713514216752
 10
113.5775634481681
 20
-129.2713514216752
 10
113.5775634481681
 20
-129.495627137765
 10
113.5775634481681
 20
-129.495627137765
 97
        0
 97
        0
 75
     2
 76
     1
 98
        0
  0
SPLINE
  5
144
330
13E
100
AcDbEntity
  8
_U+30EC_U+30A4_U+30E4_U+30FC 1
370
     0
100
AcDbSpline
210
0.0
220
0.0
230
1.0
 70
    11
 71
     3
 72
    29
 73
    25
 74
     0
 42
0.0000000001
 43
0.0000000001
 12
1.0
 22
0.0
 32
0.0
 13
1.0
 23
0.0
 33
0.0
 40
0.0
 40
0.0
 40
0.0
 40
0.0
 40
1.0
 40
1.0
 40
1.0
 40
2.0
 40
2.0
 40
2.0
 40
3.0
 40
3.0
 40
3.0
 40
4.0
 40
4.0
 40
4.0
 40
5.0
 40
5.0
 40
5.0
 40
6.0
 40
6.0
 40
6.0
 40
7.0
 40
7.0
 40
7.0
 40
8.0
 40
8.0
 40
8.0
 40
8.0
 10
113.3997965211292
 20
-127.8722981451153
 30
0.0
 10
113.6092583266324
 20
-127.9804741433521
 30
0.0
 10
113.6282063518013
 20
-128.1537624462602
 30
0.0
 10
113.6282063518013
 20
-128.2702066736616
 30
0.0
 10
113.6282063518013
 20
-128.4310926328228
 30
0.0
 10
113.5816975627504
 20
-128.5726860572666
 30
0.0
 10
113.3997965211292
 20
-128.6677706926594
 30
0.0
 10
113.2051486262126
 20
-128.7714680667655
 30
0.0
 10
112.9681260568274
 20
-128.7907606014829
 30
0.0
 10
112.8055175499236
 20
-128.7907606014829
 30
0.0
 10
112.6615125586402
 20
-128.7907606014829
 30
0.0
 10
112.4096760786684
 20
-128.7735351240566
 30
0.0
 10
112.2108940691695
 20
-128.6677706926594
 30
0.0
 10
112.0079779450883
 20
-128.5599392039711
 30
0.0
 10
111.9845512957886
 20
-128.39905324481
 30
0.0
 10
111.9845512957886
 20
-128.2702066736616
 30
0.0
 10
111.9845512957886
 20
-128.1113877717916
 30
0.0
 10
112.0289930275483
 20
-127.9677272900567
 30
0.0
 10
112.2108940691695
 20
-127.8722981451153
 30
0.0
 10
112.403474906795
 20
-127.7730793951401
 30
0.0
 10
112.631884737467
 20
-127.7496527458404
 30
0.0
 10
112.8055175499236
 20
-127.7496527458404
 30
0.0
 10
112.9767387955405
 20
-127.7496527458404
 30
0.0
 10
113.2072156835038
 20
-127.7710123378489
 30
0.0
 10
113.3997965211292
 20
-127.8722981451153
 30
0.0
  0
SPLINE
  5
145
330
13E
100
AcDbEntity
  8
_U+30EC_U+30A4_U+30E4_U+30FC 1
370
     0
100
AcDbSpline
210
0.0
220
0.0
230
1.0
 70
    11
 71
     3
 72
    17
 73
    13
 74
     0
 42
0.0000000001
 43
0.0000000001
 12
1.0
 22
0.0
 32
0.0
 13
1.0
 23
0.0
 33
0.0
 40
0.0
 40
0.0
 40
0.0
 40
0.0
 40
1.0
 40
1.0
 40
1.0
 40
2.0
 40
2.0
 40
2.0
 40
3.0
 40
3.0
 40
3.0
 40
4.0
 40
4.0
 40
4.0
 40
4.0
 10
112.1771321334141
 20
-128.2702066736616
 30
0.0
 10
112.1771321334141
 20
-128.5199760963422
 30
0.0
 10
112.4606634918501
 20
-128.5664848853931
 30
0.0
 10
112.8055175499236
 20
-128.5664848853931
 30
0.0
 10
113.1248779014063
 20
-128.5664848853931
 30
0.0
 10
113.4335584568847
 20
-128.530311382798
 30
0.0
 10
113.4335584568847
 20
-128.2702066736616
 30
0.0
 10
113.4335584568847
 20
-128.0225043082721
 30
0.0
 10
113.1524386652883
 20
-127.9739284619301
 30
0.0
 10
112.8055175499236
 20
-127.9739284619301
 30
0.0
 10
112.4858126888924
 20
-127.9739284619301
 30
0.0
 10
112.1771321334141
 20
-128.0121690218164
 30
0.0
 10
112.1771321334141
 20
-128.2702066736616
 30
0.0
  0
HATCH
  5
146
330
13E
100
AcDbEntity
  8
_U+30EC_U+30A4_U+30E4_U+30FC 1
 62
     7
420
 16777215
100
AcDbHatch
 10
0.0
 20
0.0
 30
0.0
210
0.0
220
0.0
230
1.0
  2
SOLID
 70
     1
 71
     0
 91
        2
 92
        1
 93
        1
 72
     4
 94
        3
 73
     0
 74
     1
 95
       29
 96
       25
 40
0.0
 40
0.0
 40
0.0
 40
0.0
 40
1.0
 40
1.0
 40
1.0
 40
2.0
 40
2.0
 40
2.0
 40
3.0
 40
3.0
 40
3.0
 40
4.0
 40
4.0
 40
4.0
 40
5.0
 40
5.0
 40
5.0
 40
6.0
 40
6.0
 40
6.0
 40
7.0
 40
7.0
 40
7.0
 40
8.0
 40
8.0
 40
8.0
 40
8.0
 10
113.3997965211292
 20
-127.8722981451153
 10
113.6092583266324
 20
-127.9804741433521
 10
113.6282063518013
 20
-128.1537624462602
 10
113.6282063518013
 20
-128.2702066736616
 10
113.6282063518013
 20
-128.4310926328228
 10
113.5816975627504
 20
-128.5726860572666
 10
113.3997965211292
 20
-128.6677706926594
 10
113.2051486262126
 20
-128.7714680667655
 10
112.9681260568274
 20
-128.7907606014829
 10
112.8055175499236
 20
-128.7907606014829
 10
112.6615125586402
 20
-128.7907606014829
 10
112.4096760786684
 20
-128.7735351240566
 10
112.2108940691695
 20
-128.6677706926594
 10
112.0079779450883
 20
-128.5599392039711
 10
111.9845512957886
 20
-128.39905324481
 10
111.9845512957886
 20
-128.2702066736616
 10
111.9845512957886
 20
-128.1113877717916
 10
112.0289930275483
 20
-127.9677272900567
 10
112.2108940691695
 20
-127.8722981451153
 10
112.403474906795
 20
-127.7730793951401
 10
112.631884737467
 20
-127.7496527458404
 10
112.8055175499236
 20
-127.7496527458404
 10
112.9767387955405
 20
-127.7496527458404
 10
113.2072156835038
 20
-127.7710123378489
 10
113.3997965211292
 20
-127.8722981451153
 97
        0
 97
        0
 92
        1
 93
        1
 72
     4
 94
        3
 73
     0
 74
     1
 95
       17
 96
       13
 40
0.0
 40
0.0
 40
0.0
 40
0.0
 40
1.0
 40
1.0
 40
1.0
 40
2.0
 40
2.0
 40
2.0
 40
3.0
 40
3.0
 40
3.0
 40
4.0
 40
4.0
 40
4.0
 40
4.0
 10
112.1771321334141
 20
-128.2702066736616
 10
112.1771321334141
 20
-128.5199760963422
 10
112.4606634918501
 20
-128.5664848853931
 10
112.8055175499236
 20
-128.5664848853931
 10
113.1248779014063
 20
-128.5664848853931
 10
113.4335584568847
 20
-128.530311382798
 10
113.4335584568847
 20
-128.2702066736616
 10
113.4335584568847
 20
-128.0225043082721
 10
113.1524386652883
 20
-127.9739284619301
 10
112.8055175499236
 20
-127.9739284619301
 10
112.4858126888924
 20
-127.9739284619301
 10
112.1771321334141
 20
-128.0121690218164
 10
112.1771321334141
 20
-128.2702066736616
 97
        0
 97
        0
 75
     2
 76
     1
 98
        0
  0
ENDBLK
  5
141
330
13E
100
AcDbEntity
  8
0
100
AcDbBlockEnd
  0
BLOCK
  5
149
330
147
100
AcDbEntity
  8
0
100
AcDbBlockBegin
  2
block 12
 70
     0
 10
0.0
 20
0.0
 30
0.0
  3
block 12
  1

  0
POLYLINE
  5
14B
330
147
100
AcDbEntity
  8
_U+30EC_U+30A4_U+30E4_U+30FC 1
 62
     7
420
 16777215
370
     9
100
AcDb2dPolyline
 66
     1
 10
0.0
 20
0.0
 30
0.0
  0
VERTEX
  5
14C
330
14B
100
AcDbEntity
  8
_U+30EC_U+30A4_U+30E4_U+30FC 1
 62
     7
420
 16777215
370
     9
100
AcDbVertex
100
AcDb2dVertex
 10
114.5766454102396
 20
-136.859186354674
 30
0.0
  0
VERTEX
  5
14D
330
14B
100
AcDbEntity
  8
_U+30EC_U+30A4_U+30E4_U+30FC 1
 62
     7
420
 16777215
370
     9
100
AcDbVertex
100
AcDb2dVertex
 10
114.5766454102396
 20
-133.8591994109797
 30
0.0
  0
SEQEND
  5
14E
330
14B
100
AcDbEntity
  8
_U+30EC_U+30A4_U+30E4_U+30FC 1
 62
     7
420
 16777215
370
     9
  0
POLYLINE
  5
14F
330
147
100
AcDbEntity
  8
_U+30EC_U+30A4_U+30E4_U+30FC 1
 62
     7
420
 16777215
370
     9
100
AcDb2dPolyline
 66
     1
 10
0.0
 20
0.0
 30
0.0
  0
VERTEX
  5
150
330
14F
100
AcDbEntity
  8
_U+30EC_U+30A4_U+30E4_U+30FC 1
 62
     7
420
 16777215
370
     9
100
AcDbVertex
100
AcDb2dVertex
 10
98.11667219769313
 20
-136.859186354674
 30
0.0
  0
VERTEX
  5
151
330
14F
100
AcDbEntity
  8
_U+30EC_U+30A4_U+30E4_U+30FC 1
 62
     7
420
 16777215
370
     9
100
AcDbVertex
100
AcDb2dVertex
 10
115.5770878847162
 20
-136.859186354674
 30
0.0
  0
SEQEND
  5
152
330
14F
100
AcDbEntity
  8
_U+30EC_U+30A4_U+30E4_U+30FC 1
 62
     7
420
 16777215
370
     9
  0
INSERT
  5
154
330
147
100
AcDbEntity
  8
_U+30EC_U+30A4_U+30E4_U+30FC 1
100
AcDbBlockReference
  2
block 13
 10
0.0
 20
0.0
 30
0.0
  0
ENDBLK
  5
14A
330
147
100
AcDbEntity
  8
0
100
AcDbBlockEnd
  0
BLOCK
  5
155
330
153
100
AcDbEntity
  8
0
100
AcDbBlockBegin
  2
block 13
 70
     0
 10
0.0
 20
0.0
 30
0.0
  3
block 13
  1

  0
SPLINE
  5
157
330
153
100
AcDbEntity
  8
_U+30EC_U+30A4_U+30E4_U+30FC 1
370
     0
100
AcDbSpline
210
0.0
220
0.0
230
1.0
 70
    11
 71
     3
 72
    62
 73
    58
 74
     0
 42
0.0000000001
 43
0.0000000001
 12
1.0
 22
0.0
 32
0.0
 13
1.0
 23
0.0
 33
0.0
 40
0.0
 40
0.0
 40
0.0
 40
0.0
 40
1.0
 40
1.0
 40
1.0
 40
2.0
 40
2.0
 40
2.0
 40
3.0
 40
3.0
 40
3.0
 40
4.0
 40
4.0
 40
4.0
 40
5.0
 40
5.0
 40
5.0
 40
6.0
 40
6.0
 40
6.0
 40
7.0
 40
7.0
 40
7.0
 40
8.0
 40
8.0
 40
8.0
 40
9.0
 40
9.0
 40
9.0
 40
10.0
 40
10.0
 40
10.0
 40
11.0
 40
11.0
 40
11.0
 40
12.0
 40
12.0
 40
12.0
 40
13.0
 40
13.0
 40
13.0
 40
14.0
 40
14.0
 40
14.0
 40
15.0
 40
15.0
 40
15.0
 40
16.0
 40
16.0
 40
16.0
 40
17.0
 40
17.0
 40
17.0
 40
18.0
 40
18.0
 40
18.0
 40
19.0
 40
19.0
 40
19.0
 40
19.0
 10
113.6282063518013
 20
-135.3671033732763
 30
0.0
 10
113.6282063518013
 20
-135.4625325182177
 30
0.0
 10
113.6071912693413
 20
-135.6802625528855
 30
0.0
 10
113.4211561131378
 20
-135.8053195190001
 30
0.0
 10
113.3088460003186
 20
-135.8793890719329
 30
0.0
 10
113.2096272503434
 20
-135.8835231865152
 30
0.0
 10
113.1248779014063
 20
-135.8876573010975
 30
0.0
 10
113.1248779014063
 20
-135.8876573010975
 30
0.0
 10
113.1248779014063
 20
-135.6675156995901
 30
0.0
 10
113.1248779014063
 20
-135.6675156995901
 30
0.0
 10
113.1989474543392
 20
-135.6654486422989
 30
0.0
 10
113.4335584568847
 20
-135.6551133558432
 30
0.0
 10
113.4335584568847
 20
-135.3715819974071
 30
0.0
 10
113.4335584568847
 20
-135.2341226875456
 30
0.0
 10
113.3639675280826
 20
-135.0815049575491
 30
0.0
 10
113.1355576974106
 20
-135.0815049575491
 30
0.0
 10
113.0191134700091
 20
-135.0815049575491
 30
0.0
 10
112.9705376236671
 20
-135.1197455174353
 30
0.0
 10
112.9388427452028
 20
-135.1514403958996
 30
0.0
 10
112.8647731922699
 20
-135.2255099488325
 30
0.0
 10
112.8520263389745
 20
-135.341954176234
 30
0.0
 10
112.8520263389745
 20
-135.3967311944494
 30
0.0
 10
112.8520263389745
 20
-135.4160237291668
 30
0.0
 10
112.8540933962657
 20
-135.4518527222134
 30
0.0
 10
112.858227510848
 20
-135.4794134860954
 30
0.0
 10
112.858227510848
 20
-135.4794134860954
 30
0.0
 10
112.6635796159313
 20
-135.4794134860954
 30
0.0
 10
112.6635796159313
 20
-135.4794134860954
 30
0.0
 10
112.6701252973533
 20
-135.4411729262092
 30
0.0
 10
112.6721923546445
 20
-135.3991427612891
 30
0.0
 10
112.6721923546445
 20
-135.3925970798671
 30
0.0
 10
112.6721923546445
 20
-135.3271402656474
 30
0.0
 10
112.6508327626359
 20
-135.1283582561485
 30
0.0
 10
112.4141547027992
 20
-135.1283582561485
 30
0.0
 10
112.2363877757603
 20
-135.1283582561485
 30
0.0
 10
112.1812662479964
 20
-135.259271884588
 30
0.0
 10
112.1812662479964
 20
-135.3695149401159
 30
0.0
 10
112.1812662479964
 20
-135.6337537638346
 30
0.0
 10
112.4141547027992
 20
-135.6423665025478
 30
0.0
 10
112.4858126888924
 20
-135.64650061713
 30
0.0
 10
112.4858126888924
 20
-135.64650061713
 30
0.0
 10
112.4858126888924
 20
-135.8497612507598
 30
0.0
 10
112.4858126888924
 20
-135.8497612507598
 30
0.0
 10
112.3611002323264
 20
-135.8411485120467
 30
0.0
 10
111.9845512957886
 20
-135.8135877481647
 30
0.0
 10
111.9845512957886
 20
-135.3567680868205
 30
0.0
 10
111.9845512957886
 20
-135.1324923707308
 30
0.0
 10
112.1116753191943
 20
-134.8913356867633
 30
0.0
 10
112.4076090213773
 20
-134.8913356867633
 30
0.0
 10
112.5939886871293
 20
-134.8913356867633
 30
0.0
 10
112.6763264692268
 20
-134.9864203221562
 30
0.0
 10
112.7376491688642
 20
-135.0859835816799
 30
0.0
 10
112.7652099327462
 20
-135.0246608820424
 30
0.0
 10
112.8454806575525
 20
-134.8427598404213
 30
0.0
 10
113.1228108441151
 20
-134.8427598404213
 30
0.0
 10
113.4611192207667
 20
-134.8427598404213
 30
0.0
 10
113.6282063518013
 20
-135.0901176962622
 30
0.0
 10
113.6282063518013
 20
-135.3671033732763
 30
0.0
  0
HATCH
  5
158
330
153
100
AcDbEntity
  8
_U+30EC_U+30A4_U+30E4_U+30FC 1
 62
     7
420
 16777215
100
AcDbHatch
 10
0.0
 20
0.0
 30
0.0
210
0.0
220
0.0
230
1.0
  2
SOLID
 70
     1
 71
     0
 91
        1
 92
        1
 93
        1
 72
     4
 94
        3
 73
     0
 74
     1
 95
       62
 96
       58
 40
0.0
 40
0.0
 40
0.0
 40
0.0
 40
1.0
 40
1.0
 40
1.0
 40
2.0
 40
2.0
 40
2.0
 40
3.0
 40
3.0
 40
3.0
 40
4.0
 40
4.0
 40
4.0
 40
5.0
 40
5.0
 40
5.0
 40
6.0
 40
6.0
 40
6.0
 40
7.0
 40
7.0
 40
7.0
 40
8.0
 40
8.0
 40
8.0
 40
9.0
 40
9.0
 40
9.0
 40
10.0
 40
10.0
 40
10.0
 40
11.0
 40
11.0
 40
11.0
 40
12.0
 40
12.0
 40
12.0
 40
13.0
 40
13.0
 40
13.0
 40
14.0
 40
14.0
 40
14.0
 40
15.0
 40
15.0
 40
15.0
 40
16.0
 40
16.0
 40
16.0
 40
17.0
 40
17.0
 40
17.0
 40
18.0
 40
18.0
 40
18.0
 40
19.0
 40
19.0
 40
19.0
 40
19.0
 10
113.6282063518013
 20
-135.3671033732763
 10
113.6282063518013
 20
-135.4625325182177
 10
113.6071912693413
 20
-135.6802625528855
 10
113.4211561131378
 20
-135.8053195190001
 10
113.3088460003186
 20
-135.8793890719329
 10
113.2096272503434
 20
-135.8835231865152
 10
113.1248779014063
 20
-135.8876573010975
 10
113.1248779014063
 20
-135.8876573010975
 10
113.1248779014063
 20
-135.6675156995901
 10
113.1248779014063
 20
-135.6675156995901
 10
113.1989474543392
 20
-135.6654486422989
 10
113.4335584568847
 20
-135.6551133558432
 10
113.4335584568847
 20
-135.3715819974071
 10
113.4335584568847
 20
-135.2341226875456
 10
113.3639675280826
 20
-135.0815049575491
 10
113.1355576974106
 20
-135.0815049575491
 10
113.0191134700091
 20
-135.0815049575491
 10
112.9705376236671
 20
-135.1197455174353
 10
112.9388427452028
 20
-135.1514403958996
 10
112.8647731922699
 20
-135.2255099488325
 10
112.8520263389745
 20
-135.341954176234
 10
112.8520263389745
 20
-135.3967311944494
 10
112.8520263389745
 20
-135.4160237291668
 10
112.8540933962657
 20
-135.4518527222134
 10
112.858227510848
 20
-135.4794134860954
 10
112.858227510848
 20
-135.4794134860954
 10
112.6635796159313
 20
-135.4794134860954
 10
112.6635796159313
 20
-135.4794134860954
 10
112.6701252973533
 20
-135.4411729262092
 10
112.6721923546445
 20
-135.3991427612891
 10
112.6721923546445
 20
-135.3925970798671
 10
112.6721923546445
 20
-135.3271402656474
 10
112.6508327626359
 20
-135.1283582561485
 10
112.4141547027992
 20
-135.1283582561485
 10
112.2363877757603
 20
-135.1283582561485
 10
112.1812662479964
 20
-135.259271884588
 10
112.1812662479964
 20
-135.3695149401159
 10
112.1812662479964
 20
-135.6337537638346
 10
112.4141547027992
 20
-135.6423665025478
 10
112.4858126888924
 20
-135.64650061713
 10
112.4858126888924
 20
-135.64650061713
 10
112.4858126888924
 20
-135.8497612507598
 10
112.4858126888924
 20
-135.8497612507598
 10
112.3611002323264
 20
-135.8411485120467
 10
111.9845512957886
 20
-135.8135877481647
 10
111.9845512957886
 20
-135.3567680868205
 10
111.9845512957886
 20
-135.1324923707308
 10
112.1116753191943
 20
-134.8913356867633
 10
112.4076090213773
 20
-134.8913356867633
 10
112.5939886871293
 20
-134.8913356867633
 10
112.6763264692268
 20
-134.9864203221562
 10
112.7376491688642
 20
-135.0859835816799
 10
112.7652099327462
 20
-135.0246608820424
 10
112.8454806575525
 20
-134.8427598404213
 10
113.1228108441151
 20
-134.8427598404213
 10
113.4611192207667
 20
-134.8427598404213
 10
113.6282063518013
 20
-135.0901176962622
 10
113.6282063518013
 20
-135.3671033732763
 97
        0
 97
        0
 75
     2
 76
     1
 98
        0
  0
ENDBLK
  5
156
330
153
100
AcDbEntity
  8
0
100
AcDbBlockEnd
  0
ENDSEC
  0
SECTION
  2
ENTITIES
  0
POLYLINE
  5
41
330
1F
100
AcDbEntity
  8
_U+30EC_U+30A4_U+30E4_U+30FC 1
370
     0
100
AcDb2dPolyline
 66
     1
 10
0.0
 20
0.0
 30
0.0
  0
VERTEX
  5
42
330
41
100
AcDbEntity
  8
_U+30EC_U+30A4_U+30E4_U+30FC 1
370
     0
100
AcDbVertex
100
AcDb2dVertex
 10
65.57687166032795
 20
-123.8587608023686
 30
0.0
  0
VERTEX
  5
43
330
41
100
AcDbEntity
  8
_U+30EC_U+30A4_U+30E4_U+30FC 1
370
     0
100
AcDbVertex
100
AcDb2dVertex
 10
80.57680599986998
 20
-123.8587608023686
 30
0.0
  0
VERTEX
  5
44
330
41
100
AcDbEntity
  8
_U+30EC_U+30A4_U+30E4_U+30FC 1
370
     0
100
AcDbVertex
100
AcDb2dVertex
 10
80.57680599986998
 20
-136.859186354674
 30
0.0
  0
VERTEX
  5
45
330
41
100
AcDbEntity
  8
_U+30EC_U+30A4_U+30E4_U+30FC 1
370
     0
100
AcDbVertex
100
AcDb2dVertex
 10
95.57695200607326
 20
-136.859186354674
 30
0.0
  0
VERTEX
  5
46
330
41
100
AcDbEntity
  8
_U+30EC_U+30A4_U+30E4_U+30FC 1
370
     0
100
AcDbVertex
100
AcDb2dVertex
 10
95.57695200607326
 20
-133.8591994109797
 30
0.0
  0
VERTEX
  5
47
330
41
100
AcDbEntity
  8
_U+30EC_U+30A4_U+30E4_U+30FC 1
370
     0
100
AcDbVertex
100
AcDb2dVertex
 10
94.57717980935735
 20
-133.8591994109797
 30
0.0
  0
VERTEX
  5
48
330
41
100
AcDbEntity
  8
_U+30EC_U+30A4_U+30E4_U+30FC 1
370
     0
100
AcDbVertex
100
AcDb2dVertex
 10
94.57717980935735
 20
-135.8587085771466
 30
0.0
  0
VERTEX
  5
49
330
41
100
AcDbEntity
  8
_U+30EC_U+30A4_U+30E4_U+30FC 1
370
     0
100
AcDbVertex
100
AcDb2dVertex
 10
81.47702431023683
 20
-135.8587085771466
 30
0.0
  0
VERTEX
  5
4A
330
41
100
AcDbEntity
  8
_U+30EC_U+30A4_U+30E4_U+30FC 1
370
     0
100
AcDbVertex
100
AcDb2dVertex
 10
81.47702431023683
 20
-123.8587608023686
 30
0.0
  0
VERTEX
  5
4B
330
41
100
AcDbEntity
  8
_U+30EC_U+30A4_U+30E4_U+30FC 1
370
     0
100
AcDbVertex
100
AcDb2dVertex
 10
98.57693887398166
 20
-123.8587608023686
 30
0.0
  0
VERTEX
  5
4C
330
41
100
AcDbEntity
  8
_U+30EC_U+30A4_U+30E4_U+30FC 1
370
     0
100
AcDbVertex
100
AcDb2dVertex
 10
99.27695830851441
 20
-123.4088280247035
 30
0.0
  0
VERTEX
  5
4D
330
41
100
AcDbEntity
  8
_U+30EC_U+30A4_U+30E4_U+30FC 1
370
     0
100
AcDbVertex
100
AcDb2dVertex
 10
99.97700800492959
 20
-123.8587608023686
 30
0.0
  0
VERTEX
  5
4E
330
41
100
AcDbEntity
  8
_U+30EC_U+30A4_U+30E4_U+30FC 1
370
     0
100
AcDbVertex
100
AcDb2dVertex
 10
100.677060209292
 20
-123.4088280247035
 30
0.0
  0
VERTEX
  5
4F
330
41
100
AcDbEntity
  8
_U+30EC_U+30A4_U+30E4_U+30FC 1
370
     0
100
AcDbVertex
100
AcDb2dVertex
 10
101.3771124136544
 20
-123.8587608023686
 30
0.0
  0
VERTEX
  5
50
330
41
100
AcDbEntity
  8
_U+30EC_U+30A4_U+30E4_U+30FC 1
370
     0
100
AcDbVertex
100
AcDb2dVertex
 10
102.0771293402399
 20
-123.4088280247035
 30
0.0
  0
VERTEX
  5
51
330
41
100
AcDbEntity
  8
_U+30EC_U+30A4_U+30E4_U+30FC 1
370
     0
100
AcDbVertex
100
AcDb2dVertex
 10
102.7771815446023
 20
-123.8587608023686
 30
0.0
  0
VERTEX
  5
52
330
41
100
AcDbEntity
  8
_U+30EC_U+30A4_U+30E4_U+30FC 1
370
     0
100
AcDbVertex
100
AcDb2dVertex
 10
103.4772337489647
 20
-123.4088280247035
 30
0.0
  0
VERTEX
  5
53
330
41
100
AcDbEntity
  8
_U+30EC_U+30A4_U+30E4_U+30FC 1
370
     0
100
AcDbVertex
100
AcDb2dVertex
 10
104.1772859533271
 20
-123.8587608023686
 30
0.0
  0
VERTEX
  5
54
330
41
100
AcDbEntity
  8
_U+30EC_U+30A4_U+30E4_U+30FC 1
370
     0
100
AcDbVertex
100
AcDb2dVertex
 10
104.876632602152
 20
-123.4088280247035
 30
0.0
  0
VERTEX
  5
55
330
41
100
AcDbEntity
  8
_U+30EC_U+30A4_U+30E4_U+30FC 1
370
     0
100
AcDbVertex
100
AcDb2dVertex
 10
105.5766848065144
 20
-123.8587608023686
 30
0.0
  0
VERTEX
  5
56
330
41
100
AcDbEntity
  8
_U+30EC_U+30A4_U+30E4_U+30FC 1
370
     0
100
AcDbVertex
100
AcDb2dVertex
 10
110.5768863456153
 20
-123.8587608023686
 30
0.0
  0
VERTEX
  5
57
330
41
100
AcDbEntity
  8
_U+30EC_U+30A4_U+30E4_U+30FC 1
370
     0
100
AcDbVertex
100
AcDb2dVertex
 10
110.5768863456153
 20
-122.8589885803964
 30
0.0
  0
VERTEX
  5
58
330
41
100
AcDbEntity
  8
_U+30EC_U+30A4_U+30E4_U+30FC 1
370
     0
100
AcDbVertex
100
AcDb2dVertex
 10
65.57687166032795
 20
-122.8589885803964
 30
0.0
  0
VERTEX
  5
59
330
41
100
AcDbEntity
  8
_U+30EC_U+30A4_U+30E4_U+30FC 1
370
     0
100
AcDbVertex
100
AcDb2dVertex
 10
65.57687166032795
 20
-123.8587608023686
 30
0.0
  0
SEQEND
  5
5B
330
41
100
AcDbEntity
  8
_U+30EC_U+30A4_U+30E4_U+30FC 1
370
     0
  0
HATCH
  5
5A
330
1F
100
AcDbEntity
  8
_U+30EC_U+30A4_U+30E4_U+30FC 1
 62
   253
420
 11711154
100
AcDbHatch
 10
0.0
 20
0.0
 30
0.0
210
0.0
220
0.0
230
1.0
  2
SOLID
 70
     1
 71
     0
 91
        1
 92
        1
 93
       23
 72
     1
 10
65.57687166032795
 20
-123.8587608023686
 11
80.57680599986998
 21
-123.8587608023686
 72
     1
 10
80.57680599986998
 20
-123.8587608023686
 11
80.57680599986998
 21
-136.859186354674
 72
     1
 10
80.57680599986998
 20
-136.859186354674
 11
95.57695200607326
 21
-136.859186354674
 72
     1
 10
95.57695200607326
 20
-136.859186354674
 11
95.57695200607326
 21
-133.8591994109797
 72
     1
 10
95.57695200607326
 20
-133.8591994109797
 11
94.57717980935735
 21
-133.8591994109797
 72
     1
 10
94.57717980935735
 20
-133.8591994109797
 11
94.57717980935735
 21
-135.8587085771466
 72
     1
 10
94.57717980935735
 20
-135.8587085771466
 11
81.47702431023683
 21
-135.8587085771466
 72
     1
 10
81.47702431023683
 20
-135.8587085771466
 11
81.47702431023683
 21
-123.8587608023686
 72
     1
 10
81.47702431023683
 20
-123.8587608023686
 11
98.57693887398166
 21
-123.8587608023686
 72
     1
 10
98.57693887398166
 20
-123.8587608023686
 11
99.27695830851441
 21
-123.4088280247035
 72
     1
 10
99.27695830851441
 20
-123.4088280247035
 11
99.97700800492959
 21
-123.8587608023686
 72
     1
 10
99.97700800492959
 20
-123.8587608023686
 11
100.677060209292
 21
-123.4088280247035
 72
     1
 10
100.677060209292
 20
-123.4088280247035
 11
101.3771124136544
 21
-123.8587608023686
 72
     1
 10
101.3771124136544
 20
-123.8587608023686
 11
102.0771293402399
 21
-123.4088280247035
 72
     1
 10
102.0771293402399
 20
-123.4088280247035
 11
102.7771815446023
 21
-123.8587608023686
 72
     1
 10
102.7771815446023
 20
-123.8587608023686
 11
103.4772337489647
 21
-123.4088280247035
 72
     1
 10
103.4772337489647
 20
-123.4088280247035
 11
104.1772859533271
 21
-123.8587608023686
 72
     1
 10
104.1772859533271
 20
-123.8587608023686
 11
104.876632602152
 21
-123.4088280247035
 72
     1
 10
104.876632602152
 20
-123.4088280247035
 11
105.5766848065144
 21
-123.8587608023686
 72
     1
 10
105.5766848065144
 20
-123.8587608023686
 11
110.5768863456153
 21
-123.8587608023686
 72
     1
 10
110.5768863456153
 20
-123.8587608023686
 11
110.5768863456153
 21
-122.8589885803964
 72
     1
 10
110.5768863456153
 20
-122.8589885803964
 11
65.57687166032795
 21
-122.8589885803964
 72
     1
 10
65.57687166032795
 20
-122.8589885803964
 11
65.57687166032795
 21
-123.8587608023686
 97
        0
 75
     2
 76
     1
 98
        0
  0
POLYLINE
  5
5C
330
1F
100
AcDbEntity
  8
_U+30EC_U+30A4_U+30E4_U+30FC 1
 62
     7
420
 16777215
370
    25
100
AcDb2dPolyline
 66
     1
 10
0.0
 20
0.0
 30
0.0
  0
VERTEX
  5
5D
330
5C
100
AcDbEntity
  8
_U+30EC_U+30A4_U+30E4_U+30FC 1
 62
     7
420
 16777215
370
    25
100
AcDbVertex
100
AcDb2dVertex
 10
65.57687166032795
 20
-122.8589885803964
 30
0.0
  0
VERTEX
  5
5E
330
5C
100
AcDbEntity
  8
_U+30EC_U+30A4_U+30E4_U+30FC 1
 62
     7
420
 16777215
370
    25
100
AcDbVertex
100
AcDb2dVertex
 10
110.5768863456153
 20
-122.8589885803964
 30
0.0
  0
SEQEND
  5
5F
330
5C
100
AcDbEntity
  8
_U+30EC_U+30A4_U+30E4_U+30FC 1
 62
     7
420
 16777215
370
    25
  0
POLYLINE
  5
60
330
1F
100
AcDbEntity
  8
_U+30EC_U+30A4_U+30E4_U+30FC 1
 62
     7
420
 16777215
370
    25
100
AcDb2dPolyline
 66
     1
 10
0.0
 20
0.0
 30
0.0
  0
VERTEX
  5
61
330
60
100
AcDbEntity
  8
_U+30EC_U+30A4_U+30E4_U+30FC 1
 62
     7
420
 16777215
370
    25
100
AcDbVertex
100
AcDb2dVertex
 10
65.57687166032795
 20
-123.8587608023686
 30
0.0
  0
VERTEX
  5
62
330
60
100
AcDbEntity
  8
_U+30EC_U+30A4_U+30E4_U+30FC 1
 62
     7
420
 16777215
370
    25
100
AcDbVertex
100
AcDb2dVertex
 10
80.57680599986998
 20
-123.8587608023686
 30
0.0
  0
SEQEND
  5
63
330
60
100
AcDbEntity
  8
_U+30EC_U+30A4_U+30E4_U+30FC 1
 62
     7
420
 16777215
370
    25
  0
POLYLINE
  5
64
330
1F
100
AcDbEntity
  8
_U+30EC_U+30A4_U+30E4_U+30FC 1
 62
     7
420
 16777215
370
    25
100
AcDb2dPolyline
 66
     1
 10
0.0
 20
0.0
 30
0.0
  0
VERTEX
  5
65
330
64
100
AcDbEntity
  8
_U+30EC_U+30A4_U+30E4_U+30FC 1
 62
     7
420
 16777215
370
    25
100
AcDbVertex
100
AcDb2dVertex
 10
110.5768863456153
 20
-123.8587608023686
 30
0.0
  0
VERTEX
  5
66
330
64
100
AcDbEntity
  8
_U+30EC_U+30A4_U+30E4_U+30FC 1
 62
     7
420
 16777215
370
    25
100
AcDbVertex
100
AcDb2dVertex
 10
110.5768863456153
 20
-122.8589885803964
 30
0.0
  0
SEQEND
  5
67
330
64
100
AcDbEntity
  8
_U+30EC_U+30A4_U+30E4_U+30FC 1
 62
     7
420
 16777215
370
    25
  0
POLYLINE
  5
68
330
1F
100
AcDbEntity
  8
_U+30EC_U+30A4_U+30E4_U+30FC 1
 62
     7
420
 16777215
370
    25
100
AcDb2dPolyline
 66
     1
 10
0.0
 20
0.0
 30
0.0
  0
VERTEX
  5
69
330
68
100
AcDbEntity
  8
_U+30EC_U+30A4_U+30E4_U+30FC 1
 62
     7
420
 16777215
370
    25
100
AcDbVertex
100
AcDb2dVertex
 10
81.47702431023683
 20
-123.8587608023686
 30
0.0
  0
VERTEX
  5
6A
330
68
100
AcDbEntity
  8
_U+30EC_U+30A4_U+30E4_U+30FC 1
 62
     7
420
 16777215
370
    25
100
AcDbVertex
100
AcDb2dVertex
 10
98.57693887398166
 20
-123.8587608023686
 30
0.0
  0
SEQEND
  5
6B
330
68
100
AcDbEntity
  8
_U+30EC_U+30A4_U+30E4_U+30FC 1
 62
     7
420
 16777215
370
    25
  0
POLYLINE
  5
6C
330
1F
100
AcDbEntity
  8
_U+30EC_U+30A4_U+30E4_U+30FC 1
 62
     7
420
 16777215
370
    25
100
AcDb2dPolyline
 66
     1
 10
0.0
 20
0.0
 30
0.0
  0
VERTEX
  5
6D
330
6C
100
AcDbEntity
  8
_U+30EC_U+30A4_U+30E4_U+30FC 1
 62
     7
420
 16777215
370
    25
100
AcDbVertex
100
AcDb2dVertex
 10
104.1772859533271
 20
-123.8587608023686
 30
0.0
  0
VERTEX
  5
6E
330
6C
100
AcDbEntity
  8
_U+30EC_U+30A4_U+30E4_U+30FC 1
 62
     7
420
 16777215
370
    25
100
AcDbVertex
100
AcDb2dVertex
 10
104.876632602152
 20
-123.4088280247035
 30
0.0
  0
SEQEND
  5
6F
330
6C
100
AcDbEntity
  8
_U+30EC_U+30A4_U+30E4_U+30FC 1
 62
     7
420
 16777215
370
    25
  0
POLYLINE
  5
70
330
1F
100
AcDbEntity
  8
_U+30EC_U+30A4_U+30E4_U+30FC 1
 62
     7
420
 16777215
370
    25
100
AcDb2dPolyline
 66
     1
 10
0.0
 20
0.0
 30
0.0
  0
VERTEX
  5
71
330
70
100
AcDbEntity
  8
_U+30EC_U+30A4_U+30E4_U+30FC 1
 62
     7
420
 16777215
370
    25
100
AcDbVertex
100
AcDb2dVertex
 10
105.5766848065144
 20
-123.8587608023686
 30
0.0
  0
VERTEX
  5
72
330
70
100
AcDbEntity
  8
_U+30EC_U+30A4_U+30E4_U+30FC 1
 62
     7
420
 16777215
370
    25
100
AcDbVertex
100
AcDb2dVertex
 10
104.876632602152
 20
-123.4088280247035
 30
0.0
  0
SEQEND
  5
73
330
70
100
AcDbEntity
  8
_U+30EC_U+30A4_U+30E4_U+30FC 1
 62
     7
420
 16777215
370
    25
  0
POLYLINE
  5
74
330
1F
100
AcDbEntity
  8
_U+30EC_U+30A4_U+30E4_U+30FC 1
 62
     7
420
 16777215
370
    25
100
AcDb2dPolyline
 66
     1
 10
0.0
 20
0.0
 30
0.0
  0
VERTEX
  5
75
330
74
100
AcDbEntity
  8
_U+30EC_U+30A4_U+30E4_U+30FC 1
 62
     7
420
 16777215
370
    25
100
AcDbVertex
100
AcDb2dVertex
 10
104.1772859533271
 20
-123.8587608023686
 30
0.0
  0
VERTEX
  5
76
330
74
100
AcDbEntity
  8
_U+30EC_U+30A4_U+30E4_U+30FC 1
 62
     7
420
 16777215
370
    25
100
AcDbVertex
100
AcDb2dVertex
 10
103.4772337489647
 20
-123.4088280247035
 30
0.0
  0
SEQEND
  5
77
330
74
100
AcDbEntity
  8
_U+30EC_U+30A4_U+30E4_U+30FC 1
 62
     7
420
 16777215
370
    25
  0
POLYLINE
  5
78
330
1F
100
AcDbEntity
  8
_U+30EC_U+30A4_U+30E4_U+30FC 1
 62
     7
420
 16777215
370
    25
100
AcDb2dPolyline
 66
     1
 10
0.0
 20
0.0
 30
0.0
  0
VERTEX
  5
79
330
78
100
AcDbEntity
  8
_U+30EC_U+30A4_U+30E4_U+30FC 1
 62
     7
420
 16777215
370
    25
100
AcDbVertex
100
AcDb2dVertex
 10
102.7771815446023
 20
-123.8587608023686
 30
0.0
  0
VERTEX
  5
7A
330
78
100
AcDbEntity
  8
_U+30EC_U+30A4_U+30E4_U+30FC 1
 62
     7
420
 16777215
370
    25
100
AcDbVertex
100
AcDb2dVertex
 10
103.4772337489647
 20
-123.4088280247035
 30
0.0
  0
SEQEND
  5
7B
330
78
100
AcDbEntity
  8
_U+30EC_U+30A4_U+30E4_U+30FC 1
 62
     7
420
 16777215
370
    25
  0
POLYLINE
  5
7C
330
1F
100
AcDbEntity
  8
_U+30EC_U+30A4_U+30E4_U+30FC 1
 62
     7
420
 16777215
370
    25
100
AcDb2dPolyline
 66
     1
 10
0.0
 20
0.0
 30
0.0
  0
VERTEX
  5
7D
330
7C
100
AcDbEntity
  8
_U+30EC_U+30A4_U+30E4_U+30FC 1
 62
     7
420
 16777215
370
    25
100
AcDbVertex
100
AcDb2dVertex
 10
101.3771124136544
 20
-123.8587608023686
 30
0.0
  0
VERTEX
  5
7E
330
7C
100
AcDbEntity
  8
_U+30EC_U+30A4_U+30E4_U+30FC 1
 62
     7
420
 16777215
370
    25
100
AcDbVertex
100
AcDb2dVertex
 10
102.0771293402399
 20
-123.4088280247035
 30
0.0
  0
SEQEND
  5
7F
330
7C
100
AcDbEntity
  8
_U+30EC_U+30A4_U+30E4_U+30FC 1
 62
     7
420
 16777215
370
    25
  0
POLYLINE
  5
80
330
1F
100
AcDbEntity
  8
_U+30EC_U+30A4_U+30E4_U+30FC 1
 62
     7
420
 16777215
370
    25
100
AcDb2dPolyline
 66
     1
 10
0.0
 20
0.0
 30
0.0
  0
VERTEX
  5
81
330
80
100
AcDbEntity
  8
_U+30EC_U+30A4_U+30E4_U+30FC 1
 62
     7
420
 16777215
370
    25
100
AcDbVertex
100
AcDb2dVertex
 10
102.7771815446023
 20
-123.8587608023686
 30
0.0
  0
VERTEX
  5
82
330
80
100
AcDbEntity
  8
_U+30EC_U+30A4_U+30E4_U+30FC 1
 62
     7
420
 16777215
370
    25
100
AcDbVertex
100
AcDb2dVertex
 10
102.0771293402399
 20
-123.4088280247035
 30
0.0
  0
SEQEND
  5
83
330
80
100
AcDbEntity
  8
_U+30EC_U+30A4_U+30E4_U+30FC 1
 62
     7
420
 16777215
370
    25
  0
POLYLINE
  5
84
330
1F
100
AcDbEntity
  8
_U+30EC_U+30A4_U+30E4_U+30FC 1
 62
     7
420
 16777215
370
    25
100
AcDb2dPolyline
 66
     1
 10
0.0
 20
0.0
 30
0.0
  0
VERTEX
  5
85
330
84
100
AcDbEntity
  8
_U+30EC_U+30A4_U+30E4_U+30FC 1
 62
     7
420
 16777215
370
    25
100
AcDbVertex
100
AcDb2dVertex
 10
101.3771124136544
 20
-123.8587608023686
 30
0.0
  0
VERTEX
  5
86
330
84
100
AcDbEntity
  8
_U+30EC_U+30A4_U+30E4_U+30FC 1
 62
     7
420
 16777215
370
    25
100
AcDbVertex
100
AcDb2dVertex
 10
100.677060209292
 20
-123.4088280247035
 30
0.0
  0
SEQEND
  5
87
330
84
100
AcDbEntity
  8
_U+30EC_U+30A4_U+30E4_U+30FC 1
 62
     7
420
 16777215
370
    25
  0
POLYLINE
  5
88
330
1F
100
AcDbEntity
  8
_U+30EC_U+30A4_U+30E4_U+30FC 1
 62
     7
420
 16777215
370
    25
100
AcDb2dPolyline
 66
     1
 10
0.0
 20
0.0
 30
0.0
  0
VERTEX
  5
89
330
88
100
AcDbEntity
  8
_U+30EC_U+30A4_U+30E4_U+30FC 1
 62
     7
420
 16777215
370
    25
100
AcDbVertex
100
AcDb2dVertex
 10
99.97700800492959
 20
-123.8587608023686
 30
0.0
  0
VERTEX
  5
8A
330
88
100
AcDbEntity
  8
_U+30EC_U+30A4_U+30E4_U+30FC 1
 62
     7
420
 16777215
370
    25
100
AcDbVertex
100
AcDb2dVertex
 10
100.677060209292
 20
-123.4088280247035
 30
0.0
  0
SEQEND
  5
8B
330
88
100
AcDbEntity
  8
_U+30EC_U+30A4_U+30E4_U+30FC 1
 62
     7
420
 16777215
370
    25
  0
POLYLINE
  5
8C
330
1F
100
AcDbEntity
  8
_U+30EC_U+30A4_U+30E4_U+30FC 1
 62
     7
420
 16777215
370
    25
100
AcDb2dPolyline
 66
     1
 10
0.0
 20
0.0
 30
0.0
  0
VERTEX
  5
8D
330
8C
100
AcDbEntity
  8
_U+30EC_U+30A4_U+30E4_U+30FC 1
 62
     7
420
 16777215
370
    25
100
AcDbVertex
100
AcDb2dVertex
 10
99.97700800492959
 20
-123.8587608023686
 30
0.0
  0
VERTEX
  5
8E
330
8C
100
AcDbEntity
  8
_U+30EC_U+30A4_U+30E4_U+30FC 1
 62
     7
420
 16777215
370
    25
100
AcDbVertex
100
AcDb2dVertex
 10
99.27695830851441
 20
-123.4088280247035
 30
0.0
  0
SEQEND
  5
8F
330
8C
100
AcDbEntity
  8
_U+30EC_U+30A4_U+30E4_U+30FC 1
 62
     7
420
 16777215
370
    25
  0
POLYLINE
  5
90
330
1F
100
AcDbEntity
  8
_U+30EC_U+30A4_U+30E4_U+30FC 1
 62
     7
420
 16777215
370
    25
100
AcDb2dPolyline
 66
     1
 10
0.0
 20
0.0
 30
0.0
  0
VERTEX
  5
91
330
90
100
AcDbEntity
  8
_U+30EC_U+30A4_U+30E4_U+30FC 1
 62
     7
420
 16777215
370
    25
100
AcDbVertex
100
AcDb2dVertex
 10
98.57693887398166
 20
-123.8587608023686
 30
0.0
  0
VERTEX
  5
92
330
90
100
AcDbEntity
  8
_U+30EC_U+30A4_U+30E4_U+30FC 1
 62
     7
420
 16777215
370
    25
100
AcDbVertex
100
AcDb2dVertex
 10
99.27695830851441
 20
-123.4088280247035
 30
0.0
  0
SEQEND
  5
93
330
90
100
AcDbEntity
  8
_U+30EC_U+30A4_U+30E4_U+30FC 1
 62
     7
420
 16777215
370
    25
  0
POLYLINE
  5
94
330
1F
100
AcDbEntity
  8
_U+30EC_U+30A4_U+30E4_U+30FC 1
 62
     7
420
 16777215
370
    25
100
AcDb2dPolyline
 66
     1
 10
0.0
 20
0.0
 30
0.0
  0
VERTEX
  5
95
330
94
100
AcDbEntity
  8
_U+30EC_U+30A4_U+30E4_U+30FC 1
 62
     7
420
 16777215
370
    25
100
AcDbVertex
100
AcDb2dVertex
 10
105.5766848065144
 20
-123.8587608023686
 30
0.0
  0
VERTEX
  5
96
330
94
100
AcDbEntity
  8
_U+30EC_U+30A4_U+30E4_U+30FC 1
 62
     7
420
 16777215
370
    25
100
AcDbVertex
100
AcDb2dVertex
 10
110.5768863456153
 20
-123.8587608023686
 30
0.0
  0
SEQEND
  5
97
330
94
100
AcDbEntity
  8
_U+30EC_U+30A4_U+30E4_U+30FC 1
 62
     7
420
 16777215
370
    25
  0
POLYLINE
  5
98
330
1F
100
AcDbEntity
  8
_U+30EC_U+30A4_U+30E4_U+30FC 1
 62
     7
420
 16777215
370
    25
100
AcDb2dPolyline
 66
     1
 10
0.0
 20
0.0
 30
0.0
  0
VERTEX
  5
99
330
98
100
AcDbEntity
  8
_U+30EC_U+30A4_U+30E4_U+30FC 1
 62
     7
420
 16777215
370
    25
100
AcDbVertex
100
AcDb2dVertex
 10
65.57687166032795
 20
-123.8587608023686
 30
0.0
  0
VERTEX
  5
9A
330
98
100
AcDbEntity
  8
_U+30EC_U+30A4_U+30E4_U+30FC 1
 62
     7
420
 16777215
370
    25
100
AcDbVertex
100
AcDb2dVertex
 10
65.57687166032795
 20
-122.8589885803964
 30
0.0
  0
SEQEND
  5
9B
330
98
100
AcDbEntity
  8
_U+30EC_U+30A4_U+30E4_U+30FC 1
 62
     7
420
 16777215
370
    25
  0
POLYLINE
  5
9C
330
1F
100
AcDbEntity
  8
_U+30EC_U+30A4_U+30E4_U+30FC 1
 62
     7
420
 16777215
370
    25
100
AcDb2dPolyline
 66
     1
 10
0.0
 20
0.0
 30
0.0
  0
VERTEX
  5
9D
330
9C
100
AcDbEntity
  8
_U+30EC_U+30A4_U+30E4_U+30FC 1
 62
     7
420
 16777215
370
    25
100
AcDbVertex
100
AcDb2dVertex
 10
80.57680599986998
 20
-136.859186354674
 30
0.0
  0
VERTEX
  5
9E
330
9C
100
AcDbEntity
  8
_U+30EC_U+30A4_U+30E4_U+30FC 1
 62
     7
420
 16777215
370
    25
100
AcDbVertex
100
AcDb2dVertex
 10
80.57680599986998
 20
-123.8587608023686
 30
0.0
  0
SEQEND
  5
9F
330
9C
100
AcDbEntity
  8
_U+30EC_U+30A4_U+30E4_U+30FC 1
 62
     7
420
 16777215
370
    25
  0
POLYLINE
  5
A0
330
1F
100
AcDbEntity
  8
_U+30EC_U+30A4_U+30E4_U+30FC 1
 62
     7
420
 16777215
370
    25
100
AcDb2dPolyline
 66
     1
 10
0.0
 20
0.0
 30
0.0
  0
VERTEX
  5
A1
330
A0
100
AcDbEntity
  8
_U+30EC_U+30A4_U+30E4_U+30FC 1
 62
     7
420
 16777215
370
    25
100
AcDbVertex
100
AcDb2dVertex
 10
94.57717980935735
 20
-133.8591994109797
 30
0.0
  0
VERTEX
  5
A2
330
A0
100
AcDbEntity
  8
_U+30EC_U+30A4_U+30E4_U+30FC 1
 62
     7
420
 16777215
370
    25
100
AcDbVertex
100
AcDb2dVertex
 10
95.57695200607326
 20
-133.8591994109797
 30
0.0
  0
SEQEND
  5
A3
330
A0
100
AcDbEntity
  8
_U+30EC_U+30A4_U+30E4_U+30FC 1
 62
     7
420
 16777215
370
    25
  0
POLYLINE
  5
A4
330
1F
100
AcDbEntity
  8
_U+30EC_U+30A4_U+30E4_U+30FC 1
 62
     7
420
 16777215
370
    25
100
AcDb2dPolyline
 66
     1
 10
0.0
 20
0.0
 30
0.0
  0
VERTEX
  5
A5
330
A4
100
AcDbEntity
  8
_U+30EC_U+30A4_U+30E4_U+30FC 1
 62
     7
420
 16777215
370
    25
100
AcDbVertex
100
AcDb2dVertex
 10
80.57680599986998
 20
-136.859186354674
 30
0.0
  0
VERTEX
  5
A6
330
A4
100
AcDbEntity
  8
_U+30EC_U+30A4_U+30E4_U+30FC 1
 62
     7
420
 16777215
370
    25
100
AcDbVertex
100
AcDb2dVertex
 10
95.57695200607326
 20
-136.859186354674
 30
0.0
  0
SEQEND
  5
A7
330
A4
100
AcDbEntity
  8
_U+30EC_U+30A4_U+30E4_U+30FC 1
 62
     7
420
 16777215
370
    25
  0
POLYLINE
  5
A8
330
1F
100
AcDbEntity
  8
_U+30EC_U+30A4_U+30E4_U+30FC 1
 62
     7
420
 16777215
370
    25
100
AcDb2dPolyline
 66
     1
 10
0.0
 20
0.0
 30
0.0
  0
VERTEX
  5
A9
330
A8
100
AcDbEntity
  8
_U+30EC_U+30A4_U+30E4_U+30FC 1
 62
     7
420
 16777215
370
    25
100
AcDbVertex
100
AcDb2dVertex
 10
81.47702431023683
 20
-135.8587085771466
 30
0.0
  0
VERTEX
  5
AA
330
A8
100
AcDbEntity
  8
_U+30EC_U+30A4_U+30E4_U+30FC 1
 62
     7
420
 16777215
370
    25
100
AcDbVertex
100
AcDb2dVertex
 10
94.57717980935735
 20
-135.8587085771466
 30
0.0
  0
SEQEND
  5
AB
330
A8
100
AcDbEntity
  8
_U+30EC_U+30A4_U+30E4_U+30FC 1
 62
     7
420
 16777215
370
    25
  0
POLYLINE
  5
AC
330
1F
100
AcDbEntity
  8
_U+30EC_U+30A4_U+30E4_U+30FC 1
 62
     7
420
 16777215
370
    25
100
AcDb2dPolyline
 66
     1
 10
0.0
 20
0.0
 30
0.0
  0
VERTEX
  5
AD
330
AC
100
AcDbEntity
  8
_U+30EC_U+30A4_U+30E4_U+30FC 1
 62
     7
420
 16777215
370
    25
100
AcDbVertex
100
AcDb2dVertex
 10
95.57695200607326
 20
-136.859186354674
 30
0.0
  0
VERTEX
  5
AE
330
AC
100
AcDbEntity
  8
_U+30EC_U+30A4_U+30E4_U+30FC 1
 62
     7
420
 16777215
370
    25
100
AcDbVertex
100
AcDb2dVertex
 10
95.57695200607326
 20
-133.8591994109797
 30
0.0
  0
SEQEND
  5
AF
330
AC
100
AcDbEntity
  8
_U+30EC_U+30A4_U+30E4_U+30FC 1
 62
     7
420
 16777215
370
    25
  0
POLYLINE
  5
B0
330
1F
100
AcDbEntity
  8
_U+30EC_U+30A4_U+30E4_U+30FC 1
 62
     7
420
 16777215
370
    25
100
AcDb2dPolyline
 66
     1
 10
0.0
 20
0.0
 30
0.0
  0
VERTEX
  5
B1
330
B0
100
AcDbEntity
  8
_U+30EC_U+30A4_U+30E4_U+30FC 1
 62
     7
420
 16777215
370
    25
100
AcDbVertex
100
AcDb2dVertex
 10
94.57717980935735
 20
-135.8587085771466
 30
0.0
  0
VERTEX
  5
B2
330
B0
100
AcDbEntity
  8
_U+30EC_U+30A4_U+30E4_U+30FC 1
 62
     7
420
 16777215
370
    25
100
AcDbVertex
100
AcDb2dVertex
 10
94.57717980935735
 20
-133.8591994109797
 30
0.0
  0
SEQEND
  5
B3
330
B0
100
AcDbEntity
  8
_U+30EC_U+30A4_U+30E4_U+30FC 1
 62
     7
420
 16777215
370
    25
  0
POLYLINE
  5
B4
330
1F
100
AcDbEntity
  8
_U+30EC_U+30A4_U+30E4_U+30FC 1
 62
     7
420
 16777215
370
    25
100
AcDb2dPolyline
 66
     1
 10
0.0
 20
0.0
 30
0.0
  0
VERTEX
  5
B5
330
B4
100
AcDbEntity
  8
_U+30EC_U+30A4_U+30E4_U+30FC 1
 62
     7
420
 16777215
370
    25
100
AcDbVertex
100
AcDb2dVertex
 10
81.47702431023683
 20
-135.8587085771466
 30
0.0
  0
VERTEX
  5
B6
330
B4
100
AcDbEntity
  8
_U+30EC_U+30A4_U+30E4_U+30FC 1
 62
     7
420
 16777215
370
    25
100
AcDbVertex
100
AcDb2dVertex
 10
81.47702431023683
 20
-123.8587608023686
 30
0.0
  0
SEQEND
  5
B7
330
B4
100
AcDbEntity
  8
_U+30EC_U+30A4_U+30E4_U+30FC 1
 62
     7
420
 16777215
370
    25
  0
SPLINE
  5
B8
330
1F
100
AcDbEntity
  8
_U+30EC_U+30A4_U+30E4_U+30FC 1
 62
     7
420
 16777215
370
     9
100
AcDbSpline
210
0.0
220
0.0
230
1.0
 70
    11
 71
     3
 72
    17
 73
    13
 74
     0
 42
0.0000000001
 43
0.0000000001
 12
1.0
 22
0.0
 32
0.0
 13
1.0
 23
0.0
 33
0.0
 40
0.0
 40
0.0
 40
0.0
 40
0.0
 40
1.0
 40
1.0
 40
1.0
 40
2.0
 40
2.0
 40
2.0
 40
3.0
 40
3.0
 40
3.0
 40
4.0
 40
4.0
 40
4.0
 40
4.0
 10
65.67677832444579
 20
-118.8585591369521
 30
0.0
 10
65.67677832444579
 20
-118.803419970299
 30
0.0
 10
65.63201082558791
 20
-118.7586524703105
 30
0.0
 10
65.57687166032795
 20
-118.7586524703105
 30
0.0
 10
65.52176942806392
 20
-118.7586524703105
 30
0.0
 10
65.47696665029753
 20
-118.803419970299
 30
0.0
 10
65.47696665029753
 20
-118.8585591369521
 30
0.0
 10
65.47696665029753
 20
-118.9143685813826
 30
0.0
 10
65.52176942806392
 20
-118.9591360813715
 30
0.0
 10
65.57687166032795
 20
-118.9591360813715
 30
0.0
 10
65.63201082558791
 20
-118.9591360813715
 30
0.0
 10
65.67677832444579
 20
-118.9143685813826
 30
0.0
 10
65.67677832444579
 20
-118.8585591369521
 30
0.0
  0
SPLINE
  5
B9
330
1F
100
AcDbEntity
  8
_U+30EC_U+30A4_U+30E4_U+30FC 1
 62
     7
420
 16777215
370
     9
100
AcDbSpline
210
0.0
220
0.0
230
1.0
 70
    11
 71
     3
 72
    17
 73
    13
 74
     0
 42
0.0000000001
 43
0.0000000001
 12
1.0
 22
0.0
 32
0.0
 13
1.0
 23
0.0
 33
0.0
 40
0.0
 40
0.0
 40
0.0
 40
0.0
 40
1.0
 40
1.0
 40
1.0
 40
2.0
 40
2.0
 40
2.0
 40
3.0
 40
3.0
 40
3.0
 40
4.0
 40
4.0
 40
4.0
 40
4.0
 10
110.6767930097331
 20
-118.8585591369521
 30
0.0
 10
110.6767930097331
 20
-118.803419970299
 30
0.0
 10
110.6319902330983
 20
-118.7586524703105
 30
0.0
 10
110.5768863456153
 20
-118.7586524703105
 30
0.0
 10
110.5217499723699
 20
-118.7586524703105
 30
0.0
 10
110.4769796814974
 20
-118.803419970299
 30
0.0
 10
110.4769796814974
 20
-118.8585591369521
 30
0.0
 10
110.4769796814974
 20
-118.9143685813826
 30
0.0
 10
110.5217499723699
 20
-118.9591360813715
 30
0.0
 10
110.5768863456153
 20
-118.9591360813715
 30
0.0
 10
110.6319902330983
 20
-118.9591360813715
 30
0.0
 10
110.6767930097331
 20
-118.9143685813826
 30
0.0
 10
110.6767930097331
 20
-118.8585591369521
 30
0.0
  0
SPLINE
  5
BA
330
1F
100
AcDbEntity
  8
_U+30EC_U+30A4_U+30E4_U+30FC 1
 62
     7
420
 16777215
370
     9
100
AcDbSpline
210
0.0
220
0.0
230
1.0
 70
    11
 71
     3
 72
    17
 73
    13
 74
     0
 42
0.0000000001
 43
0.0000000001
 12
1.0
 22
0.0
 32
0.0
 13
1.0
 23
0.0
 33
0.0
 40
0.0
 40
0.0
 40
0.0
 40
0.0
 40
1.0
 40
1.0
 40
1.0
 40
2.0
 40
2.0
 40
2.0
 40
3.0
 40
3.0
 40
3.0
 40
4.0
 40
4.0
 40
4.0
 40
4.0
 10
114.6772223521181
 20
-122.8589885803964
 30
0.0
 10
114.6772223521181
 20
-122.8038846915211
 30
0.0
 10
114.6324548532602
 20
-122.7590819137547
 30
0.0
 10
114.5766454102396
 20
-122.7590819137547
 30
0.0
 10
114.5215062449796
 20
-122.7590819137547
 30
0.0
 10
114.4767416380476
 20
-122.8038846915211
 30
0.0
 10
114.4767416380476
 20
-122.8589885803964
 30
0.0
 10
114.4767416380476
 20
-122.9141277470491
 30
0.0
 10
114.5215062449796
 20
-122.958895247038
 30
0.0
 10
114.5766454102396
 20
-122.958895247038
 30
0.0
 10
114.6324548532602
 20
-122.958895247038
 30
0.0
 10
114.6772223521181
 20
-122.9141277470491
 30
0.0
 10
114.6772223521181
 20
-122.8589885803964
 30
0.0
  0
SPLINE
  5
BB
330
1F
100
AcDbEntity
  8
_U+30EC_U+30A4_U+30E4_U+30FC 1
 62
     7
420
 16777215
370
     9
100
AcDbSpline
210
0.0
220
0.0
230
1.0
 70
    11
 71
     3
 72
    17
 73
    13
 74
     0
 42
0.0000000001
 43
0.0000000001
 12
1.0
 22
0.0
 32
0.0
 13
1.0
 23
0.0
 33
0.0
 40
0.0
 40
0.0
 40
0.0
 40
0.0
 40
1.0
 40
1.0
 40
1.0
 40
2.0
 40
2.0
 40
2.0
 40
3.0
 40
3.0
 40
3.0
 40
4.0
 40
4.0
 40
4.0
 40
4.0
 10
114.6772223521181
 20
-123.8587608023686
 30
0.0
 10
114.6772223521181
 20
-123.8036569134937
 30
0.0
 10
114.6324548532602
 20
-123.758854135727
 30
0.0
 10
114.5766454102396
 20
-123.758854135727
 30
0.0
 10
114.5215062449796
 20
-123.758854135727
 30
0.0
 10
114.4767416380476
 20
-123.8036569134937
 30
0.0
 10
114.4767416380476
 20
-123.8587608023686
 30
0.0
 10
114.4767416380476
 20
-123.9138999690217
 30
0.0
 10
114.5215062449796
 20
-123.9586674690102
 30
0.0
 10
114.5766454102396
 20
-123.9586674690102
 30
0.0
 10
114.6324548532602
 20
-123.9586674690102
 30
0.0
 10
114.6772223521181
 20
-123.9138999690217
 30
0.0
 10
114.6772223521181
 20
-123.8587608023686
 30
0.0
  0
SPLINE
  5
BC
330
1F
100
AcDbEntity
  8
_U+30EC_U+30A4_U+30E4_U+30FC 1
 62
     7
420
 16777215
370
     9
100
AcDbSpline
210
0.0
220
0.0
230
1.0
 70
    11
 71
     3
 72
    17
 73
    13
 74
     0
 42
0.0000000001
 43
0.0000000001
 12
1.0
 22
0.0
 32
0.0
 13
1.0
 23
0.0
 33
0.0
 40
0.0
 40
0.0
 40
0.0
 40
0.0
 40
1.0
 40
1.0
 40
1.0
 40
2.0
 40
2.0
 40
2.0
 40
3.0
 40
3.0
 40
3.0
 40
4.0
 40
4.0
 40
4.0
 40
4.0
 10
114.6772223521181
 20
-133.8591994109797
 30
0.0
 10
114.6772223521181
 20
-133.8033899665492
 30
0.0
 10
114.6324548532602
 20
-133.7585871887825
 30
0.0
 10
114.5766454102396
 20
-133.7585871887825
 30
0.0
 10
114.5215062449796
 20
-133.7585871887825
 30
0.0
 10
114.4767416380476
 20
-133.8033899665492
 30
0.0
 10
114.4767416380476
 20
-133.8591994109797
 30
0.0
 10
114.4767416380476
 20
-133.9143032998546
 30
0.0
 10
114.5215062449796
 20
-133.9591060776213
 30
0.0
 10
114.5766454102396
 20
-133.9591060776213
 30
0.0
 10
114.6324548532602
 20
-133.9591060776213
 30
0.0
 10
114.6772223521181
 20
-133.9143032998546
 30
0.0
 10
114.6772223521181
 20
-133.8591994109797
 30
0.0
  0
SPLINE
  5
BD
330
1F
100
AcDbEntity
  8
_U+30EC_U+30A4_U+30E4_U+30FC 1
 62
     7
420
 16777215
370
     9
100
AcDbSpline
210
0.0
220
0.0
230
1.0
 70
    11
 71
     3
 72
    17
 73
    13
 74
     0
 42
0.0000000001
 43
0.0000000001
 12
1.0
 22
0.0
 32
0.0
 13
1.0
 23
0.0
 33
0.0
 40
0.0
 40
0.0
 40
0.0
 40
0.0
 40
1.0
 40
1.0
 40
1.0
 40
2.0
 40
2.0
 40
2.0
 40
3.0
 40
3.0
 40
3.0
 40
4.0
 40
4.0
 40
4.0
 40
4.0
 10
114.6772223521181
 20
-136.859186354674
 30
0.0
 10
114.6772223521181
 20
-136.8033769102436
 30
0.0
 10
114.6324548532602
 20
-136.7585741324769
 30
0.0
 10
114.5766454102396
 20
-136.7585741324769
 30
0.0
 10
114.5215062449796
 20
-136.7585741324769
 30
0.0
 10
114.4767416380476
 20
-136.8033769102436
 30
0.0
 10
114.4767416380476
 20
-136.859186354674
 30
0.0
 10
114.4767416380476
 20
-136.9142902435489
 30
0.0
 10
114.5215062449796
 20
-136.9590930213157
 30
0.0
 10
114.5766454102396
 20
-136.9590930213157
 30
0.0
 10
114.6324548532602
 20
-136.9590930213157
 30
0.0
 10
114.6772223521181
 20
-136.9142902435489
 30
0.0
 10
114.6772223521181
 20
-136.859186354674
 30
0.0
  0
SPLINE
  5
BE
330
1F
100
AcDbEntity
  8
_U+30EC_U+30A4_U+30E4_U+30FC 1
 62
     7
420
 16777215
370
     9
100
AcDbSpline
210
0.0
220
0.0
230
1.0
 70
    11
 71
     3
 72
    17
 73
    13
 74
     0
 42
0.0000000001
 43
0.0000000001
 12
1.0
 22
0.0
 32
0.0
 13
1.0
 23
0.0
 33
0.0
 40
0.0
 40
0.0
 40
0.0
 40
0.0
 40
1.0
 40
1.0
 40
1.0
 40
2.0
 40
2.0
 40
2.0
 40
3.0
 40
3.0
 40
3.0
 40
4.0
 40
4.0
 40
4.0
 40
4.0
 10
80.67671266398781
 20
-140.8589455203409
 30
0.0
 10
80.67671266398781
 20
-140.8038063536878
 30
0.0
 10
80.63194720206428
 20
-140.7590388536993
 30
0.0
 10
80.57680599986998
 20
-140.7590388536993
 30
0.0
 10
80.5217021123869
 20
-140.7590388536993
 30
0.0
 10
80.47689933575214
 20
-140.8038063536878
 30
0.0
 10
80.47689933575214
 20
-140.8589455203409
 30
0.0
 10
80.47689933575214
 20
-140.9140494092158
 30
0.0
 10
80.5217021123869
 20
-140.9588521869826
 30
0.0
 10
80.57680599986998
 20
-140.9588521869826
 30
0.0
 10
80.63194720206428
 20
-140.9588521869826
 30
0.0
 10
80.67671266398781
 20
-140.9140494092158
 30
0.0
 10
80.67671266398781
 20
-140.8589455203409
 30
0.0
  0
SPLINE
  5
BF
330
1F
100
AcDbEntity
  8
_U+30EC_U+30A4_U+30E4_U+30FC 1
 62
     7
420
 16777215
370
     9
100
AcDbSpline
210
0.0
220
0.0
230
1.0
 70
    11
 71
     3
 72
    17
 73
    13
 74
     0
 42
0.0000000001
 43
0.0000000001
 12
1.0
 22
0.0
 32
0.0
 13
1.0
 23
0.0
 33
0.0
 40
0.0
 40
0.0
 40
0.0
 40
0.0
 40
1.0
 40
1.0
 40
1.0
 40
2.0
 40
2.0
 40
2.0
 40
3.0
 40
3.0
 40
3.0
 40
4.0
 40
4.0
 40
4.0
 40
4.0
 10
95.6768610871916
 20
-140.8589455203409
 30
0.0
 10
95.6768610871916
 20
-140.8038063536878
 30
0.0
 10
95.63205830942552
 20
-140.7590388536993
 30
0.0
 10
95.57695200607326
 20
-140.7590388536993
 30
0.0
 10
95.52181284081331
 20
-140.7590388536993
 30
0.0
 10
95.47704534195542
 20
-140.8038063536878
 30
0.0
 10
95.47704534195542
 20
-140.8589455203409
 30
0.0
 10
95.47704534195542
 20
-140.9140494092158
 30
0.0
 10
95.52181284081331
 20
-140.9588521869826
 30
0.0
 10
95.57695200607326
 20
-140.9588521869826
 30
0.0
 10
95.63205830942552
 20
-140.9588521869826
 30
0.0
 10
95.6768610871916
 20
-140.9140494092158
 30
0.0
 10
95.6768610871916
 20
-140.8589455203409
 30
0.0
  0
SPLINE
  5
C0
330
1F
100
AcDbEntity
  8
_U+30EC_U+30A4_U+30E4_U+30FC 1
 62
     7
420
 16777215
370
     9
100
AcDbSpline
210
0.0
220
0.0
230
1.0
 70
    11
 71
     3
 72
    17
 73
    13
 74
     0
 42
0.0000000001
 43
0.0000000001
 12
1.0
 22
0.0
 32
0.0
 13
1.0
 23
0.0
 33
0.0
 40
0.0
 40
0.0
 40
0.0
 40
0.0
 40
1.0
 40
1.0
 40
1.0
 40
2.0
 40
2.0
 40
2.0
 40
3.0
 40
3.0
 40
3.0
 40
4.0
 40
4.0
 40
4.0
 40
4.0
 10
65.67677832444579
 20
-140.8589455203409
 30
0.0
 10
65.67677832444579
 20
-140.8038063536878
 30
0.0
 10
65.63201082558791
 20
-140.7590388536993
 30
0.0
 10
65.57687166032795
 20
-140.7590388536993
 30
0.0
 10
65.52176942806392
 20
-140.7590388536993
 30
0.0
 10
65.47696665029753
 20
-140.8038063536878
 30
0.0
 10
65.47696665029753
 20
-140.8589455203409
 30
0.0
 10
65.47696665029753
 20
-140.9140494092158
 30
0.0
 10
65.52176942806392
 20
-140.9588521869826
 30
0.0
 10
65.57687166032795
 20
-140.9588521869826
 30
0.0
 10
65.63201082558791
 20
-140.9588521869826
 30
0.0
 10
65.67677832444579
 20
-140.9140494092158
 30
0.0
 10
65.67677832444579
 20
-140.8589455203409
 30
0.0
  0
INSERT
  5
C2
330
1F
100
AcDbEntity
  8
_U+30EC_U+30A4_U+30E4_U+30FC 1
100
AcDbBlockReference
  2
block 2
 10
0.0
 20
0.0
 30
0.0
  0
INSERT
  5
ED
330
1F
100
AcDbEntity
  8
_U+30EC_U+30A4_U+30E4_U+30FC 1
100
AcDbBlockReference
  2
block 4
 10
0.0
 20
0.0
 30
0.0
  0
INSERT
  5
105
330
1F
100
AcDbEntity
  8
_U+30EC_U+30A4_U+30E4_U+30FC 1
100
AcDbBlockReference
  2
block 6
 10
0.0
 20
0.0
 30
0.0
  0
INSERT
  5
119
330
1F
100
AcDbEntity
  8
_U+30EC_U+30A4_U+30E4_U+30FC 1
100
AcDbBlockReference
  2
block 8
 10
0.0
 20
0.0
 30
0.0
  0
INSERT
  5
133
330
1F
100
AcDbEntity
  8
_U+30EC_U+30A4_U+30E4_U+30FC 1
100
AcDbBlockReference
  2
block 10
 10
0.0
 20
0.0
 30
0.0
  0
INSERT
  5
148
330
1F
100
AcDbEntity
  8
_U+30EC_U+30A4_U+30E4_U+30FC 1
100
AcDbBlockReference
  2
block 12
 10
0.0
 20
0.0
 30
0.0
  0
ENDSEC
  0
SECTION
  2
OBJECTS
  0
DICTIONARY
  5
C
330
0
100
AcDbDictionary
281
     1
  3
ACAD_GROUP
350
D
  3
ACAD_LAYOUT
350
1A
  3
ACAD_MATERIAL
350
3B
  3
ACAD_MLEADERSTYLE
350
15A
  3
ACAD_MLINESTYLE
350
17
  3
ACAD_PLOTSETTINGS
350
19
  3
ACAD_PLOTSTYLENAME
350
E
  3
ACAD_TABLESTYLE
350
159
  3
ACAD_VISUALSTYLE
350
2A
  0
SUN
  5
3F
330
29
100
AcDbSun
 90
        1
290
     0
 63
     7
421
 16777215
 40
1.0
291
     1
 91
  2455826
 92
 54000000
292
     0
 70
     2
 71
   256
280
     1
  0
DICTIONARY
  5
D
102
{ACAD_REACTORS
330
C
102
}
330
C
100
AcDbDictionary
281
     1
  0
DICTIONARY
  5
1A
102
{ACAD_REACTORS
330
C
102
}
330
C
100
AcDbDictionary
281
     1
  3
Layout1
350
1E
  3
Layout2
350
26
  3
Model
350
22
  0
DICTIONARY
  5
3B
102
{ACAD_REACTORS
330
C
102
}
330
C
100
AcDbDictionary
281
     1
  3
ByBlock
350
3D
  3
ByLayer
350
3C
  3
Global
350
3E
  0
DICTIONARY
  5
15A
102
{ACAD_REACTORS
330
C
102
}
330
C
100
AcDbDictionary
281
     1
  0
DICTIONARY
  5
17
102
{ACAD_REACTORS
330
C
102
}
330
C
100
AcDbDictionary
281
     1
  3
Standard
350
18
  0
DICTIONARY
  5
19
102
{ACAD_REACTORS
330
C
102
}
330
C
100
AcDbDictionary
281
     1
  0
ACDBDICTIONARYWDFLT
  5
E
102
{ACAD_REACTORS
330
C
102
}
330
C
100
AcDbDictionary
281
     1
  3
Normal
350
F
100
AcDbDictionaryWithDefault
340
F
  0
DICTIONARY
  5
159
102
{ACAD_REACTORS
330
C
102
}
330
C
100
AcDbDictionary
281
     1
  0
DICTIONARY
  5
2A
102
{ACAD_REACTORS
330
C
102
}
330
C
100
AcDbDictionary
281
     1
  3
2dWireframe
350
2F
  3
3D Hidden
350
31
  3
3dWireframe
350
30
  3
Basic
350
32
  3
Brighten
350
36
  3
ColorChange
350
3A
  3
Conceptual
350
34
  3
Dim
350
35
  3
Facepattern
350
39
  3
Flat
350
2B
  3
FlatWithEdges
350
2C
  3
Gouraud
350
2D
  3
GouraudWithEdges
350
2E
  3
Linepattern
350
38
  3
Realistic
350
33
  3
Thicken
350
37
  0
LAYOUT
  5
1E
102
{ACAD_REACTORS
330
1A
102
}
330
1A
100
AcDbPlotSettings
  1

  2
none_device
  4

  6

 40
0.0
 41
0.0
 42
0.0
 43
0.0
 44
0.0
 45
0.0
 46
0.0
 47
0.0
 48
0.0
 49
0.0
140
0.0
141
0.0
142
1.0
143
1.0
 70
   688
 72
     0
 73
     0
 74
     5
  7

 75
    16
 76
     0
 77
     2
 78
   300
147
1.0
148
0.0
149
0.0
100
AcDbLayout
  1
Layout1
 70
     1
 71
     1
 10
0.0
 20
0.0
 11
12.0
 21
9.0
 12
0.0
 22
0.0
 32
0.0
 14
1.000000000000000E+20
 24
1.000000000000000E+20
 34
1.000000000000000E+20
 15
-1.000000000000000E+20
 25
-1.000000000000000E+20
 35
-1.000000000000000E+20
146
0.0
 13
0.0
 23
0.0
 33
0.0
 16
1.0
 26
0.0
 36
0.0
 17
0.0
 27
1.0
 37
0.0
 76
     0
330
1B
  0
LAYOUT
  5
26
102
{ACAD_REACTORS
330
1A
102
}
330
1A
100
AcDbPlotSettings
  1

  2
none_device
  4

  6

 40
0.0
 41
0.0
 42
0.0
 43
0.0
 44
0.0
 45
0.0
 46
0.0
 47
0.0
 48
0.0
 49
0.0
140
0.0
141
0.0
142
1.0
143
1.0
 70
   688
 72
     0
 73
     0
 74
     5
  7

 75
    16
 76
     0
 77
     2
 78
   300
147
1.0
148
0.0
149
0.0
100
AcDbLayout
  1
Layout2
 70
     1
 71
     2
 10
0.0
 20
0.0
 11
0.0
 21
0.0
 12
0.0
 22
0.0
 32
0.0
 14
0.0
 24
0.0
 34
0.0
 15
0.0
 25
0.0
 35
0.0
146
0.0
 13
0.0
 23
0.0
 33
0.0
 16
1.0
 26
0.0
 36
0.0
 17
0.0
 27
1.0
 37
0.0
 76
     0
330
23
  0
LAYOUT
  5
22
102
{ACAD_REACTORS
330
1A
102
}
330
1A
100
AcDbPlotSettings
  1

  2
none_device
  4

  6

 40
0.0
 41
0.0
 42
0.0
 43
0.0
 44
0.0
 45
0.0
 46
0.0
 47
0.0
 48
0.0
 49
0.0
140
0.0
141
0.0
142
1.0
143
1.0
 70
  1712
 72
     0
 73
     0
 74
     0
  7

 75
     0
 76
     0
 77
     2
 78
   300
147
1.0
148
0.0
149
0.0
100
AcDbLayout
  1
Model
 70
     1
 71
     0
 10
0.0
 20
0.0
 11
12.0
 21
9.0
 12
0.0
 22
0.0
 32
0.0
 14
1.000000000000000E+20
 24
1.000000000000000E+20
 34
1.000000000000000E+20
 15
-1.000000000000000E+20
 25
-1.000000000000000E+20
 35
-1.000000000000000E+20
146
0.0
 13
0.0
 23
0.0
 33
0.0
 16
1.0
 26
0.0
 36
0.0
 17
0.0
 27
1.0
 37
0.0
 76
     0
330
1F
331
29
  0
MATERIAL
  5
3D
102
{ACAD_REACTORS
330
3B
102
}
330
3B
100
AcDbMaterial
  1
ByBlock
 72
     1
 94
      127
  0
MATERIAL
  5
3C
102
{ACAD_REACTORS
330
3B
102
}
330
3B
100
AcDbMaterial
  1
ByLayer
 72
     1
 94
      127
  0
MATERIAL
  5
3E
102
{ACAD_REACTORS
330
3B
102
}
330
3B
100
AcDbMaterial
  1
Global
 72
     1
 94
      127
  0
MLINESTYLE
  5
18
102
{ACAD_REACTORS
330
17
102
}
330
17
100
AcDbMlineStyle
  2
Standard
 70
     0
  3

 62
   256
 51
90.0
 52
90.0
 71
     2
 49
0.5
 62
   256
  6
BYLAYER
 49
-0.5
 62
   256
  6
BYLAYER
  0
ACDBPLACEHOLDER
  5
F
102
{ACAD_REACTORS
330
E
102
}
330
E
  0
VISUALSTYLE
  5
2F
102
{ACAD_REACTORS
330
2A
102
}
330
2A
100
AcDbVisualStyle
  2
2dWireframe
 70
     4
177
     2
291
     0
 71
     0
176
     1
 72
     2
176
     1
 73
     0
176
     1
 90
        0
176
     1
 40
-0.6
176
     1
 41
-30.0
176
     1
 62
     5
 63
     7
421
 16777215
176
     1
 74
     1
176
     1
 91
        4
176
     1
 64
     7
176
     1
 65
   257
176
     1
 75
     1
176
     1
175
     1
176
     1
 42
1.0
176
     1
 92
        0
176
     1
 66
   257
176
     1
 43
1.0
176
     1
 76
     1
176
     1
 77
     6
176
     1
 78
     2
176
     1
 67
     7
176
     1
 79
     5
176
     1
170
     0
176
     1
171
     0
176
     1
290
     0
176
     1
 93
        1
176
     1
 44
0.0
176
     1
173
     0
176
     1
  0
VISUALSTYLE
  5
31
102
{ACAD_REACTORS
330
2A
102
}
330
2A
100
AcDbVisualStyle
  2
3D Hidden
 70
     6
177
     2
291
     0
 71
     1
176
     1
 72
     2
176
     1
 73
     2
176
     1
 90
        0
176
     1
 40
-0.6
176
     1
 41
-30.0
176
     1
 62
     5
 63
     7
421
 16777215
176
     1
 74
     2
176
     1
 91
        2
176
     1
 64
     7
176
     1
 65
   257
176
     1
 75
     2
176
     1
175
     1
176
     1
 42
40.0
176
     1
 92
        0
176
     1
 66
   257
176
     1
 43
1.0
176
     1
 76
     1
176
     1
 77
     6
176
     1
 78
     2
176
     1
 67
     7
176
     1
 79
     3
176
     1
170
     0
176
     1
171
     0
176
     1
290
     0
176
     1
 93
        1
176
     1
 44
0.0
176
     1
173
     0
176
     1
  0
VISUALSTYLE
  5
30
102
{ACAD_REACTORS
330
2A
102
}
330
2A
100
AcDbVisualStyle
  2
3dWireframe
 70
     5
177
     2
291
     0
 71
     0
176
     1
 72
     2
176
     1
 73
     0
176
     1
 90
        0
176
     1
 40
-0.6
176
     1
 41
-30.0
176
     1
 62
     5
 63
     7
421
 16777215
176
     1
 74
     1
176
     1
 91
        4
176
     1
 64
     7
176
     1
 65
   257
176
     1
 75
     1
176
     1
175
     1
176
     1
 42
1.0
176
     1
 92
        0
176
     1
 66
   257
176
     1
 43
1.0
176
     1
 76
     1
176
     1
 77
     6
176
     1
 78
     2
176
     1
 67
     7
176
     1
 79
     5
176
     1
170
     0
176
     1
171
     0
176
     1
290
     0
176
     1
 93
        1
176
     1
 44
0.0
176
     1
173
     0
176
     1
  0
VISUALSTYLE
  5
32
102
{ACAD_REACTORS
330
2A
102
}
330
2A
100
AcDbVisualStyle
  2
Basic
 70
     7
177
     2
291
     1
 71
     1
176
     1
 72
     0
176
     1
 73
     1
176
     1
 90
        0
176
     1
 40
-0.6
176
     1
 41
-30.0
176
     1
 62
     5
 63
     7
421
 16777215
176
     1
 74
     0
176
     1
 91
        4
176
     1
 64
     7
176
     1
 65
   257
176
     1
 75
     1
176
     1
175
     1
176
     1
 42
1.0
176
     1
 92
        8
176
     1
 66
     7
176
     1
 43
1.0
176
     1
 76
     1
176
     1
 77
     6
176
     1
 78
     2
176
     1
 67
     7
176
     1
 79
     5
176
     1
170
     0
176
     1
171
     0
176
     1
290
     0
176
     1
 93
        1
176
     1
 44
0.0
176
     1
173
     0
176
     1
  0
VISUALSTYLE
  5
36
102
{ACAD_REACTORS
330
2A
102
}
330
2A
100
AcDbVisualStyle
  2
Brighten
 70
    12
177
     2
291
     1
 71
     2
176
     1
 72
     2
176
     1
 73
     0
176
     1
 90
        0
176
     1
 40
-0.6
176
     1
 41
-30.0
176
     1
 62
     5
 63
     7
421
 16777215
176
     1
 74
     1
176
     1
 91
        4
176
     1
 64
     7
176
     1
 65
   257
176
     1
 75
     1
176
     1
175
     1
176
     1
 42
1.0
176
     1
 92
        8
176
     1
 66
     7
176
     1
 43
1.0
176
     1
 76
     1
176
     1
 77
     6
176
     1
 78
     2
176
     1
 67
     7
176
     1
 79
     5
176
     1
170
     0
176
     1
171
     0
176
     1
290
     0
176
     1
 93
        1
176
     1
 44
50.0
176
     1
173
     0
176
     1
  0
VISUALSTYLE
  5
3A
102
{ACAD_REACTORS
330
2A
102
}
330
2A
100
AcDbVisualStyle
  2
ColorChange
 70
    16
177
     2
291
     1
 71
     2
176
     1
 72
     2
176
     1
 73
     3
176
     1
 90
        0
176
     1
 40
-0.6
176
     1
 41
-30.0
176
     1
 62
     5
 63
     8
421
  8421504
176
     1
 74
     1
176
     1
 91
        4
176
     1
 64
     7
176
     1
 65
   257
176
     1
 75
     1
176
     1
175
     1
176
     1
 42
1.0
176
     1
 92
        8
176
     1
 66
     8
424
  8421504
176
     1
 43
1.0
176
     1
 76
     1
176
     1
 77
     6
176
     1
 78
     2
176
     1
 67
     7
176
     1
 79
     5
176
     1
170
     0
176
     1
171
     0
176
     1
290
     0
176
     1
 93
        1
176
     1
 44
0.0
176
     1
173
     0
176
     1
  0
VISUALSTYLE
  5
34
102
{ACAD_REACTORS
330
2A
102
}
330
2A
100
AcDbVisualStyle
  2
Conceptual
 70
     9
177
     2
291
     0
 71
     3
176
     1
 72
     2
176
     1
 73
     0
176
     1
 90
        0
176
     1
 40
-0.6
176
     1
 41
-30.0
176
     1
 62
     5
 63
     7
421
 16777215
176
     1
 74
     2
176
     1
 91
        2
176
     1
 64
     7
176
     1
 65
   257
176
     1
 75
     1
176
     1
175
     1
176
     1
 42
40.0
176
     1
 92
        8
176
     1
 66
     7
176
     1
 43
1.0
176
     1
 76
     1
176
     1
 77
     6
176
     1
 78
     2
176
     1
 67
     7
176
     1
 79
     3
176
     1
170
     0
176
     1
171
     0
176
     1
290
     0
176
     1
 93
        1
176
     1
 44
0.0
176
     1
173
     0
176
     1
  0
VISUALSTYLE
  5
35
102
{ACAD_REACTORS
330
2A
102
}
330
2A
100
AcDbVisualStyle
  2
Dim
 70
    11
177
     2
291
     1
 71
     2
176
     1
 72
     2
176
     1
 73
     0
176
     1
 90
        0
176
     1
 40
-0.6
176
     1
 41
-30.0
176
     1
 62
     5
 63
     7
421
 16777215
176
     1
 74
     1
176
     1
 91
        4
176
     1
 64
     7
176
     1
 65
   257
176
     1
 75
     1
176
     1
175
     1
176
     1
 42
1.0
176
     1
 92
        8
176
     1
 66
     7
176
     1
 43
1.0
176
     1
 76
     1
176
     1
 77
     6
176
     1
 78
     2
176
     1
 67
     7
176
     1
 79
     5
176
     1
170
     0
176
     1
171
     0
176
     1
290
     0
176
     1
 93
        1
176
     1
 44
-50.0
176
     1
173
     0
176
     1
  0
VISUALSTYLE
  5
39
102
{ACAD_REACTORS
330
2A
102
}
330
2A
100
AcDbVisualStyle
  2
Facepattern
 70
    15
177
     2
291
     1
 71
     2
176
     1
 72
     2
176
     1
 73
     0
176
     1
 90
        0
176
     1
 40
-0.6
176
     1
 41
-30.0
176
     1
 62
     5
 63
     7
421
 16777215
176
     1
 74
     1
176
     1
 91
        4
176
     1
 64
     7
176
     1
 65
   257
176
     1
 75
     1
176
     1
175
     1
176
     1
 42
1.0
176
     1
 92
        8
176
     1
 66
     7
176
     1
 43
1.0
176
     1
 76
     1
176
     1
 77
     6
176
     1
 78
     2
176
     1
 67
     7
176
     1
 79
     5
176
     1
170
     0
176
     1
171
     0
176
     1
290
     0
176
     1
 93
        1
176
     1
 44
0.0
176
     1
173
     0
176
     1
  0
VISUALSTYLE
  5
2B
102
{ACAD_REACTORS
330
2A
102
}
330
2A
100
AcDbVisualStyle
  2
Flat
 70
     0
177
     2
291
     1
 71
     2
176
     1
 72
     1
176
     1
 73
     1
176
     1
 90
        2
176
     1
 40
-0.6
176
     1
 41
30.0
176
     1
 62
     5
 63
     7
421
 16777215
176
     1
 74
     0
176
     1
 91
        4
176
     1
 64
     7
176
     1
 65
   257
176
     1
 75
     1
176
     1
175
     1
176
     1
 42
1.0
176
     1
 92
        8
176
     1
 66
     7
176
     1
 43
1.0
176
     1
 76
     1
176
     1
 77
     6
176
     1
 78
     2
176
     1
 67
     7
176
     1
 79
     5
176
     1
170
     0
176
     1
171
     0
176
     1
290
     0
176
     1
 93
       13
176
     1
 44
0.0
176
     1
173
     0
176
     1
  0
VISUALSTYLE
  5
2C
102
{ACAD_REACTORS
330
2A
102
}
330
2A
100
AcDbVisualStyle
  2
FlatWithEdges
 70
     1
177
     2
291
     1
 71
     2
176
     1
 72
     1
176
     1
 73
     1
176
     1
 90
        2
176
     1
 40
-0.6
176
     1
 41
30.0
176
     1
 62
     5
 63
     7
421
 16777215
176
     1
 74
     1
176
     1
 91
        4
176
     1
 64
     7
176
     1
 65
   257
176
     1
 75
     1
176
     1
175
     1
176
     1
 42
1.0
176
     1
 92
        0
176
     1
 66
   257
176
     1
 43
1.0
176
     1
 76
     1
176
     1
 77
     6
176
     1
 78
     2
176
     1
 67
     7
176
     1
 79
     5
176
     1
170
     0
176
     1
171
     0
176
     1
290
     0
176
     1
 93
       13
176
     1
 44
0.0
176
     1
173
     0
176
     1
  0
VISUALSTYLE
  5
2D
102
{ACAD_REACTORS
330
2A
102
}
330
2A
100
AcDbVisualStyle
  2
Gouraud
 70
     2
177
     2
291
     1
 71
     2
176
     1
 72
     2
176
     1
 73
     1
176
     1
 90
        2
176
     1
 40
-0.6
176
     1
 41
30.0
176
     1
 62
     5
 63
     7
421
 16777215
176
     1
 74
     0
176
     1
 91
        4
176
     1
 64
     7
176
     1
 65
   257
176
     1
 75
     1
176
     1
175
     1
176
     1
 42
1.0
176
     1
 92
        0
176
     1
 66
     7
176
     1
 43
1.0
176
     1
 76
     1
176
     1
 77
     6
176
     1
 78
     2
176
     1
 67
     7
176
     1
 79
     5
176
     1
170
     0
176
     1
171
     0
176
     1
290
     0
176
     1
 93
       13
176
     1
 44
0.0
176
     1
173
     0
176
     1
  0
VISUALSTYLE
  5
2E
102
{ACAD_REACTORS
330
2A
102
}
330
2A
100
AcDbVisualStyle
  2
GouraudWithEdges
 70
     3
177
     2
291
     1
 71
     2
176
     1
 72
     2
176
     1
 73
     1
176
     1
 90
        2
176
     1
 40
-0.6
176
     1
 41
30.0
176
     1
 62
     5
 63
     7
421
 16777215
176
     1
 74
     1
176
     1
 91
        4
176
     1
 64
     7
176
     1
 65
   257
176
     1
 75
     1
176
     1
175
     1
176
     1
 42
1.0
176
     1
 92
        0
176
     1
 66
   257
176
     1
 43
1.0
176
     1
 76
     1
176
     1
 77
     6
176
     1
 78
     2
176
     1
 67
     7
176
     1
 79
     5
176
     1
170
     0
176
     1
171
     0
176
     1
290
     0
176
     1
 93
       13
176
     1
 44
0.0
176
     1
173
     0
176
     1
  0
VISUALSTYLE
  5
38
102
{ACAD_REACTORS
330
2A
102
}
330
2A
100
AcDbVisualStyle
  2
Linepattern
 70
    14
177
     2
291
     1
 71
     2
176
     1
 72
     2
176
     1
 73
     0
176
     1
 90
        0
176
     1
 40
-0.6
176
     1
 41
-30.0
176
     1
 62
     5
 63
     7
421
 16777215
176
     1
 74
     1
176
     1
 91
        4
176
     1
 64
     7
176
     1
 65
   257
176
     1
 75
     7
176
     1
175
     7
176
     1
 42
1.0
176
     1
 92
        8
176
     1
 66
     7
176
     1
 43
1.0
176
     1
 76
     1
176
     1
 77
     6
176
     1
 78
     2
176
     1
 67
     7
176
     1
 79
     5
176
     1
170
     0
176
     1
171
     0
176
     1
290
     0
176
     1
 93
        1
176
     1
 44
0.0
176
     1
173
     0
176
     1
  0
VISUALSTYLE
  5
33
102
{ACAD_REACTORS
330
2A
102
}
330
2A
100
AcDbVisualStyle
  2
Realistic
 70
     8
177
     2
291
     0
 71
     2
176
     1
 72
     2
176
     1
 73
     0
176
     1
 90
        0
176
     1
 40
-0.6
176
     1
 41
-30.0
176
     1
 62
     5
 63
     7
421
 16777215
176
     1
 74
     1
176
     1
 91
        0
176
     1
 64
     7
176
     1
 65
   257
176
     1
 75
     1
176
     1
175
     1
176
     1
 42
1.0
176
     1
 92
        8
176
     1
 66
     8
424
  7895160
176
     1
 43
1.0
176
     1
 76
     1
176
     1
 77
     6
176
     1
 78
     2
176
     1
 67
     7
176
     1
 79
     5
176
     1
170
     0
176
     1
171
     0
176
     1
290
     0
176
     1
 93
       13
176
     1
 44
0.0
176
     1
173
     0
176
     1
  0
VISUALSTYLE
  5
37
102
{ACAD_REACTORS
330
2A
102
}
330
2A
100
AcDbVisualStyle
  2
Thicken
 70
    13
177
     2
291
     1
 71
     2
176
     1
 72
     2
176
     1
 73
     0
176
     1
 90
        0
176
     1
 40
-0.6
176
     1
 41
-30.0
176
     1
 62
     5
 63
     7
421
 16777215
176
     1
 74
     1
176
     1
 91
        4
176
     1
 64
     7
176
     1
 65
   257
176
     1
 75
     1
176
     1
175
     1
176
     1
 42
1.0
176
     1
 92
       12
176
     1
 66
     7
176
     1
 43
1.0
176
     1
 76
     1
176
     1
 77
     6
176
     1
 78
     2
176
     1
 67
     7
176
     1
 79
     5
176
     1
170
     0
176
     1
171
     0
176
     1
290
     0
176
     1
 93
        1
176
     1
 44
0.0
176
     1
173
     0
176
     1
  0
ENDSEC
  0
EOF
