  0
SECTION
  2
HEADER
  9
$ACADVER
  1
AC1014
  9
$ACADMAINTVER
 70
     9
  9
$DWGCODEPAGE
  3
UNDEFINED
  9
$INSBASE
 10
0.0
 20
0.0
 30
0.0
  9
$EXTMIN
 10
1.000000000000000E+20
 20
1.000000000000000E+20
 30
1.000000000000000E+20
  9
$EXTMAX
 10
-1.000000000000000E+20
 20
-1.000000000000000E+20
 30
-1.000000000000000E+20
  9
$LIMMIN
 10
0.0
 20
0.0
  9
$LIMMAX
 10
12.0
 20
9.0
  9
$ORTHOMODE
 70
     0
  9
$REGENMODE
 70
     1
  9
$FILLMODE
 70
     1
  9
$QTEXTMODE
 70
     0
  9
$MIRRTEXT
 70
     1
  9
$DRAGMODE
 70
     2
  9
$LTSCALE
 40
1.0
  9
$OSMODE
 70
    37
  9
$ATTMODE
 70
     1
  9
$TEXTSIZE
 40
0.2
  9
$TRACEWID
 40
0.05
  9
$TEXTSTYLE
  7
STANDARD
  9
$CLAYER
  8
0
  9
$CELTYPE
  6
BYLAYER
  9
$CECOLOR
 62
   256
  9
$CELTSCALE
 40
1.0
  9
$DELOBJ
 70
     1
  9
$DISPSILH
 70
     0
  9
$DIMSCALE
 40
1.0
  9
$DIMASZ
 40
0.18
  9
$DIMEXO
 40
0.0625
  9
$DIMDLI
 40
0.38
  9
$DIMRND
 40
0.0
  9
$DIMDLE
 40
0.0
  9
$DIMEXE
 40
0.18
  9
$DIMTP
 40
0.0
  9
$DIMTM
 40
0.0
  9
$DIMTXT
 40
0.18
  9
$DIMCEN
 40
0.09
  9
$DIMTSZ
 40
0.0
  9
$DIMTOL
 70
     0
  9
$DIMLIM
 70
     0
  9
$DIMTIH
 70
     1
  9
$DIMTOH
 70
     1
  9
$DIMSE1
 70
     0
  9
$DIMSE2
 70
     0
  9
$DIMTAD
 70
     0
  9
$DIMZIN
 70
     0
  9
$DIMBLK
  1

  9
$DIMASO
 70
     1
  9
$DIMSHO
 70
     1
  9
$DIMPOST
  1

  9
$DIMAPOST
  1

  9
$DIMALT
 70
     0
  9
$DIMALTD
 70
     2
  9
$DIMALTF
 40
25.4
  9
$DIMLFAC
 40
1.0
  9
$DIMTOFL
 70
     0
  9
$DIMTVP
 40
0.0
  9
$DIMTIX
 70
     0
  9
$DIMSOXD
 70
     0
  9
$DIMSAH
 70
     0
  9
$DIMBLK1
  1

  9
$DIMBLK2
  1

  9
$DIMSTYLE
  2
STANDARD
  9
$DIMCLRD
 70
     0
  9
$DIMCLRE
 70
     0
  9
$DIMCLRT
 70
     0
  9
$DIMTFAC
 40
1.0
  9
$DIMGAP
 40
0.09
  9
$DIMJUST
 70
     0
  9
$DIMSD1
 70
     0
  9
$DIMSD2
 70
     0
  9
$DIMTOLJ
 70
     1
  9
$DIMTZIN
 70
     0
  9
$DIMALTZ
 70
     0
  9
$DIMALTTZ
 70
     0
  9
$DIMFIT
 70
     3
  9
$DIMUPT
 70
     0
  9
$DIMUNIT
 70
     2
  9
$DIMDEC
 70
     4
  9
$DIMTDEC
 70
     4
  9
$DIMALTU
 70
     2
  9
$DIMALTTD
 70
     2
  9
$DIMTXSTY
  7
STANDARD
  9
$DIMAUNIT
 70
     0
  9
$LUNITS
 70
     2
  9
$LUPREC
 70
     4
  9
$SKETCHINC
 40
0.1
  9
$FILLETRAD
 40
0.5
  9
$AUNITS
 70
     0
  9
$AUPREC
 70
     0
  9
$MENU
  1
.
  9
$ELEVATION
 40
0.0
  9
$PELEVATION
 40
0.0
  9
$THICKNESS
 40
0.0
  9
$LIMCHECK
 70
     0
  9
$CHAMFERA
 40
0.5
  9
$CHAMFERB
 40
0.5
  9
$CHAMFERC
 40
1.0
  9
$CHAMFERD
 40
0.0
  9
$SKPOLY
 70
     0
  9
$TDCREATE
 40
2457956.472141204
  9
$TDUPDATE
 40
2457956.472141204
  9
$TDINDWG
 40
0.0000000116
  9
$TDUSRTIMER
 40
0.0000000116
  9
$USRTIMER
 70
     1
  9
$ANGBASE
 50
0.0
  9
$ANGDIR
 70
     0
  9
$PDMODE
 70
     0
  9
$PDSIZE
 40
0.0
  9
$PLINEWID
 40
0.0
  9
$COORDS
 70
     1
  9
$SPLFRAME
 70
     0
  9
$SPLINETYPE
 70
     6
  9
$SPLINESEGS
 70
     8
  9
$ATTDIA
 70
     0
  9
$ATTREQ
 70
     1
  9
$HANDLING
 70
     1
  9
$HANDSEED
  5
DE
  9
$SURFTAB1
 70
     6
  9
$SURFTAB2
 70
     6
  9
$SURFTYPE
 70
     6
  9
$SURFU
 70
     6
  9
$SURFV
 70
     6
  9
$UCSNAME
  2

  9
$UCSORG
 10
0.0
 20
0.0
 30
0.0
  9
$UCSXDIR
 10
1.0
 20
0.0
 30
0.0
  9
$UCSYDIR
 10
0.0
 20
1.0
 30
0.0
  9
$PUCSNAME
  2

  9
$PUCSORG
 10
0.0
 20
0.0
 30
0.0
  9
$PUCSXDIR
 10
1.0
 20
0.0
 30
0.0
  9
$PUCSYDIR
 10
0.0
 20
1.0
 30
0.0
  9
$USERI1
 70
     0
  9
$USERI2
 70
     0
  9
$USERI3
 70
     0
  9
$USERI4
 70
     0
  9
$USERI5
 70
     0
  9
$USERR1
 40
0.0
  9
$USERR2
 40
0.0
  9
$USERR3
 40
0.0
  9
$USERR4
 40
0.0
  9
$USERR5
 40
0.0
  9
$WORLDVIEW
 70
     1
  9
$SHADEDGE
 70
     3
  9
$SHADEDIF
 70
    70
  9
$TILEMODE
 70
     1
  9
$MAXACTVP
 70
    64
  9
$PINSBASE
 10
0.0
 20
0.0
 30
0.0
  9
$PLIMCHECK
 70
     0
  9
$PEXTMIN
 10
1.000000000000000E+20
 20
1.000000000000000E+20
 30
1.000000000000000E+20
  9
$PEXTMAX
 10
-1.000000000000000E+20
 20
-1.000000000000000E+20
 30
-1.000000000000000E+20
  9
$PLIMMIN
 10
0.0
 20
0.0
  9
$PLIMMAX
 10
12.0
 20
9.0
  9
$UNITMODE
 70
     0
  9
$VISRETAIN
 70
     1
  9
$PLINEGEN
 70
     0
  9
$PSLTSCALE
 70
     1
  9
$TREEDEPTH
 70
  3020
  9
$PICKSTYLE
 70
     1
  9
$CMLSTYLE
  2
STANDARD
  9
$CMLJUST
 70
     0
  9
$CMLSCALE
 40
1.0
  9
$PROXYGRAPHICS
 70
     1
  9
$MEASUREMENT
 70
     0
  0
ENDSEC
  0
SECTION
  2
CLASSES
  0
CLASS
  1
ACDBDICTIONARYWDFLT
  2
AcDbDictionaryWithDefault
  3
ObjectDBX Classes
 90
        0
280
     0
281
     0
  0
CLASS
  1
VISUALSTYLE
  2
AcDbVisualStyle
  3
ObjectDBX Classes
 90
     4095
280
     0
281
     0
  0
CLASS
  1
MATERIAL
  2
AcDbMaterial
  3
ObjectDBX Classes
 90
     1153
280
     0
281
     0
  0
CLASS
  1
SUN
  2
AcDbSun
  3
SCENEOE
 90
     1024
280
     0
281
     0
  0
CLASS
  1
DICTIONARYVAR
  2
AcDbDictionaryVar
  3
ObjectDBX Classes
 90
        0
280
     0
281
     0
  0
CLASS
  1
XRECORD
  2
AcDbXrecord
  3
AutoCAD 2000
 90
        0
280
     0
281
     0
  0
CLASS
  1
LWPOLYLINE
  2
AcDbPolyline
  3
AutoCAD 2000
 90
        0
280
     0
281
     1
  0
CLASS
  1
HATCH
  2
AcDbHatch
  3
AutoCAD 2000
 90
        0
280
     0
281
     1
  0
CLASS
  1
ACDBPLACEHOLDER
  2
AcDbPlaceHolder
  3
ObjectDBX Classes
 90
        0
280
     0
281
     0
  0
CLASS
  1
LAYOUT
  2
AcDbLayout
  3
ObjectDBX Classes
 90
        0
280
     0
281
     0
  0
ENDSEC
  0
SECTION
  2
TABLES
  0
TABLE
  2
VPORT
  5
8
330
0
100
AcDbSymbolTable
 70
     1
  0
VPORT
  5
29
330
8
100
AcDbSymbolTableRecord
100
AcDbViewportTableRecord
  2
*ACTIVE
 70
     0
 10
0.0
 20
0.0
 11
1.0
 21
1.0
 12
0.0
 22
0.0
 13
0.0
 23
0.0
 14
0.5
 24
0.5
 15
0.5
 25
0.5
 16
0.0
 26
0.0
 36
1.0
 17
104.5104166405391
 27
-38.98194443469896
 37
0.0
 40
77.96388886939792
 41
1.911764705882353
 42
50.0
 43
0.0
 44
0.0
 50
0.0
 51
0.0
 71
     0
 72
   100
 73
     1
 74
     3
 75
     0
 76
     0
 77
     0
 78
     0
  0
ENDTAB
  0
TABLE
  2
LTYPE
  5
5
330
0
100
AcDbSymbolTable
 70
     1
  0
LTYPE
  5
14
330
5
100
AcDbSymbolTableRecord
100
AcDbLinetypeTableRecord
  2
BYBLOCK
 70
     0
  3

 72
    65
 73
     0
 40
0.0
  0
LTYPE
  5
15
330
5
100
AcDbSymbolTableRecord
100
AcDbLinetypeTableRecord
  2
BYLAYER
 70
     0
  3

 72
    65
 73
     0
 40
0.0
  0
LTYPE
  5
16
330
5
100
AcDbSymbolTableRecord
100
AcDbLinetypeTableRecord
  2
CONTINUOUS
 70
     0
  3
Solid line
 72
    65
 73
     0
 40
0.0
  0
ENDTAB
  0
TABLE
  2
LAYER
  5
2
330
0
100
AcDbSymbolTable
 70
     3
  0
LAYER
  5
10
330
2
100
AcDbSymbolTableRecord
100
AcDbLayerTableRecord
  2
0
 70
     0
 62
     7
  6
CONTINUOUS
  0
LAYER
  5
40
330
2
100
AcDbSymbolTableRecord
100
AcDbLayerTableRecord
  2
_U_30EC_U_30A4_U_30E4_U_30
 70
     0
 62
     7
  6
CONTINUOUS
  0
LAYER
  5
B2
330
2
100
AcDbSymbolTableRecord
100
AcDbLayerTableRecord
  2
_U_30EC_U_30A4_U_30E4_U_31
 70
     4
 62
     7
  6
CONTINUOUS
  0
ENDTAB
  0
TABLE
  2
STYLE
  5
3
330
0
100
AcDbSymbolTable
 70
     1
  0
STYLE
  5
11
330
3
100
AcDbSymbolTableRecord
100
AcDbTextStyleTableRecord
  2
STANDARD
 70
     0
 40
0.0
 41
1.0
 50
0.0
 71
     0
 42
0.2
  3
txt
  4

  0
ENDTAB
  0
TABLE
  2
VIEW
  5
6
330
0
100
AcDbSymbolTable
 70
     0
  0
ENDTAB
  0
TABLE
  2
UCS
  5
7
330
0
100
AcDbSymbolTable
 70
     0
  0
ENDTAB
  0
TABLE
  2
APPID
  5
9
330
0
100
AcDbSymbolTable
 70
     1
  0
APPID
  5
12
330
9
100
AcDbSymbolTableRecord
100
AcDbRegAppTableRecord
  2
ACAD
 70
     0
  0
ENDTAB
  0
TABLE
  2
DIMSTYLE
  5
A
330
0
100
AcDbSymbolTable
 70
     1
  0
DIMSTYLE
105
27
330
A
100
AcDbSymbolTableRecord
100
AcDbDimStyleTableRecord
  2
STANDARD
 70
     0
  3

  4

  5

  6

  7

 40
1.0
 41
0.18
 42
0.0625
 43
0.38
 44
0.18
 45
0.0
 46
0.0
 47
0.0
 48
0.0
140
0.18
141
0.09
142
0.0
143
25.4
144
1.0
145
0.0
146
1.0
147
0.09
 71
     0
 72
     0
 73
     1
 74
     1
 75
     0
 76
     0
 77
     0
 78
     0
170
     0
171
     2
172
     0
173
     0
174
     0
175
     0
176
     0
177
     0
178
     0
270
     2
271
     4
272
     4
273
     2
274
     2
340
11
275
     0
280
     0
281
     0
282
     0
283
     1
284
     0
285
     0
286
     0
287
     3
288
     0
  0
ENDTAB
  0
TABLE
  2
BLOCK_RECORD
  5
1
330
0
100
AcDbSymbolTable
 70
     2
  0
BLOCK_RECORD
  5
1F
330
1
100
AcDbSymbolTableRecord
100
AcDbBlockTableRecord
  2
*MODEL_SPACE
  0
BLOCK_RECORD
  5
1B
330
1
100
AcDbSymbolTableRecord
100
AcDbBlockTableRecord
  2
*PAPER_SPACE
  0
BLOCK_RECORD
  5
41
330
1
100
AcDbSymbolTableRecord
100
AcDbBlockTableRecord
  2
BLOCK_2
  0
ENDTAB
  0
ENDSEC
  0
SECTION
  2
BLOCKS
  0
BLOCK
  5
20
330
1F
100
AcDbEntity
  8
0
100
AcDbBlockBegin
  2
*MODEL_SPACE
 70
     0
 10
0.0
 20
0.0
 30
0.0
  3
*MODEL_SPACE
  1

  0
ENDBLK
  5
21
330
1F
100
AcDbEntity
  8
0
100
AcDbBlockEnd
  0
BLOCK
  5
1C
330
1B
100
AcDbEntity
 67
     1
  8
0
100
AcDbBlockBegin
  2
*PAPER_SPACE
 70
     0
 10
0.0
 20
0.0
 30
0.0
  3
*PAPER_SPACE
  1

  0
ENDBLK
  5
1D
330
1B
100
AcDbEntity
 67
     1
  8
0
100
AcDbBlockEnd
  0
BLOCK
  5
43
330
41
100
AcDbEntity
  8
0
100
AcDbBlockBegin
  2
BLOCK_2
 70
     0
 10
0.0
 20
0.0
 30
0.0
  3
BLOCK_2
  1

  0
POLYLINE
  5
45
330
41
100
AcDbEntity
  8
_U_30EC_U_30A4_U_30E4_U_30
 62
     7
100
AcDb2dPolyline
 66
     1
 10
0.0
 20
0.0
 30
0.0
  0
VERTEX
  5
46
330
45
100
AcDbEntity
  8
_U_30EC_U_30A4_U_30E4_U_30
 62
     7
100
AcDbVertex
100
AcDb2dVertex
 10
95.66851114587513
 20
-24.74463953496555
 30
0.0
  0
VERTEX
  5
47
330
45
100
AcDbEntity
  8
_U_30EC_U_30A4_U_30E4_U_30
 62
     7
100
AcDbVertex
100
AcDb2dVertex
 10
161.0542458369808
 20
-24.68808459719391
 30
0.0
  0
VERTEX
  5
48
330
45
100
AcDbEntity
  8
_U_30EC_U_30A4_U_30E4_U_30
 62
     7
100
AcDbVertex
100
AcDb2dVertex
 10
161.0735996779015
 20
-27.95992681675306
 30
0.0
  0
VERTEX
  5
49
330
45
100
AcDbEntity
  8
_U_30EC_U_30A4_U_30E4_U_30
 62
     7
100
AcDbVertex
100
AcDb2dVertex
 10
98.95345203660463
 20
-27.95992681675306
 30
0.0
  0
VERTEX
  5
4A
330
45
100
AcDbEntity
  8
_U_30EC_U_30A4_U_30E4_U_30
 62
     7
100
AcDbVertex
100
AcDb2dVertex
 10
98.95345203660463
 20
-57.90147838953552
 30
0.0
  0
VERTEX
  5
4B
330
45
100
AcDbEntity
  8
_U_30EC_U_30A4_U_30E4_U_30
 62
     7
100
AcDbVertex
100
AcDb2dVertex
 10
124.9701104080068
 20
-57.90147838953552
 30
0.0
  0
VERTEX
  5
4C
330
45
100
AcDbEntity
  8
_U_30EC_U_30A4_U_30E4_U_30
 62
     7
100
AcDbVertex
100
AcDb2dVertex
 10
124.9701104080068
 20
-51.82634233854758
 30
0.0
  0
VERTEX
  5
4D
330
45
100
AcDbEntity
  8
_U_30EC_U_30A4_U_30E4_U_30
 62
     7
100
AcDbVertex
100
AcDb2dVertex
 10
128.2550482576289
 20
-51.82634233854758
 30
0.0
  0
VERTEX
  5
4E
330
45
100
AcDbEntity
  8
_U_30EC_U_30A4_U_30E4_U_30
 62
     7
100
AcDbVertex
100
AcDb2dVertex
 10
128.2550482576289
 20
-61.18699577847153
 30
0.0
  0
VERTEX
  5
4F
330
45
100
AcDbEntity
  8
_U_30EC_U_30A4_U_30E4_U_30
 62
     7
100
AcDbVertex
100
AcDb2dVertex
 10
95.66851114587513
 20
-61.18699577847153
 30
0.0
  0
VERTEX
  5
50
330
45
100
AcDbEntity
  8
_U_30EC_U_30A4_U_30E4_U_30
 62
     7
100
AcDbVertex
100
AcDb2dVertex
 10
95.66851114587513
 20
-41.94835028754134
 30
0.0
  0
VERTEX
  5
51
330
45
100
AcDbEntity
  8
_U_30EC_U_30A4_U_30E4_U_30
 62
     7
100
AcDbVertex
100
AcDb2dVertex
 10
55.82868193588189
 20
-41.94835028754134
 30
0.0
  0
VERTEX
  5
52
330
45
100
AcDbEntity
  8
_U_30EC_U_30A4_U_30E4_U_30
 62
     7
100
AcDbVertex
100
AcDb2dVertex
 10
55.82868193588189
 20
-38.60859578615301
 30
0.0
  0
VERTEX
  5
53
330
45
100
AcDbEntity
  8
_U_30EC_U_30A4_U_30E4_U_30
 62
     7
100
AcDbVertex
100
AcDb2dVertex
 10
95.66851114587513
 20
-38.65611120518067
 30
0.0
  0
VERTEX
  5
54
330
45
100
AcDbEntity
  8
_U_30EC_U_30A4_U_30E4_U_30
 62
     7
100
AcDbVertex
100
AcDb2dVertex
 10
95.66851114587513
 20
-24.74463953496555
 30
0.0
  0
SEQEND
  5
56
330
45
100
AcDbEntity
  8
_U_30EC_U_30A4_U_30E4_U_30
 62
     7
  0
HATCH
  5
55
330
41
100
AcDbEntity
  8
_U_30EC_U_30A4_U_30E4_U_30
 62
   254
100
AcDbHatch
 10
0.0
 20
0.0
 30
0.0
210
0.0
220
0.0
230
1.0
  2
SOLID
 70
     1
 71
     0
 91
        1
 92
        1
 93
       14
 72
     1
 10
95.66851114587513
 20
-24.74463953496555
 11
161.0542458369808
 21
-24.68808459719391
 72
     1
 10
161.0542458369808
 20
-24.68808459719391
 11
161.0735996779015
 21
-27.95992681675306
 72
     1
 10
161.0735996779015
 20
-27.95992681675306
 11
98.95345203660463
 21
-27.95992681675306
 72
     1
 10
98.95345203660463
 20
-27.95992681675306
 11
98.95345203660463
 21
-57.90147838953552
 72
     1
 10
98.95345203660463
 20
-57.90147838953552
 11
124.9701104080068
 21
-57.90147838953552
 72
     1
 10
124.9701104080068
 20
-57.90147838953552
 11
124.9701104080068
 21
-51.82634233854758
 72
     1
 10
124.9701104080068
 20
-51.82634233854758
 11
128.2550482576289
 21
-51.82634233854758
 72
     1
 10
128.2550482576289
 20
-51.82634233854758
 11
128.2550482576289
 21
-61.18699577847153
 72
     1
 10
128.2550482576289
 20
-61.18699577847153
 11
95.66851114587513
 21
-61.18699577847153
 72
     1
 10
95.66851114587513
 20
-61.18699577847153
 11
95.66851114587513
 21
-41.94835028754134
 72
     1
 10
95.66851114587513
 20
-41.94835028754134
 11
55.82868193588189
 21
-41.94835028754134
 72
     1
 10
55.82868193588189
 20
-41.94835028754134
 11
55.82868193588189
 21
-38.60859578615301
 72
     1
 10
55.82868193588189
 20
-38.60859578615301
 11
95.66851114587513
 21
-38.65611120518067
 72
     1
 10
95.66851114587513
 20
-38.65611120518067
 11
95.66851114587513
 21
-24.74463953496555
 97
        0
 75
     2
 76
     1
 98
        0
  0
SPLINE
  5
57
330
41
100
AcDbEntity
  8
_U_30EC_U_30A4_U_30E4_U_30
 62
     7
100
AcDbSpline
210
0.0
220
0.0
230
1.0
 70
    11
 71
     3
 72
    17
 73
    13
 74
     0
 42
0.0000000001
 43
0.0000000001
 12
1.0
 22
0.0
 32
0.0
 13
1.0
 23
0.0
 33
0.0
 40
0.0
 40
0.0
 40
0.0
 40
0.0
 40
1.0
 40
1.0
 40
1.0
 40
2.0
 40
2.0
 40
2.0
 40
3.0
 40
3.0
 40
3.0
 40
4.0
 40
4.0
 40
4.0
 40
4.0
 10
95.88476424262603
 20
-74.61751869510529
 30
0.0
 10
95.88476424262603
 20
-74.43522173380538
 30
0.0
 10
95.73758233862111
 20
-74.28815571734928
 30
0.0
 10
95.55644429455874
 20
-74.28815571734928
 30
0.0
 10
95.37542214175808
 20
-74.28815571734928
 30
0.0
 10
95.22824023775316
 20
-74.43522173380538
 30
0.0
 10
95.22824023775316
 20
-74.61751869510529
 30
0.0
 10
95.22824023775316
 20
-74.79854085247678
 30
0.0
 10
95.37542214175808
 20
-74.94572276020003
 30
0.0
 10
95.55644429455874
 20
-74.94572276020003
 30
0.0
 10
95.73758233862111
 20
-74.94572276020003
 30
0.0
 10
95.88476424262603
 20
-74.79854085247678
 30
0.0
 10
95.88476424262603
 20
-74.61751869510529
 30
0.0
  0
SPLINE
  5
58
330
41
100
AcDbEntity
  8
_U_30EC_U_30A4_U_30E4_U_30
 62
     7
100
AcDbSpline
210
0.0
220
0.0
230
1.0
 70
    11
 71
     3
 72
    17
 73
    13
 74
     0
 42
0.0000000001
 43
0.0000000001
 12
1.0
 22
0.0
 32
0.0
 13
1.0
 23
0.0
 33
0.0
 40
0.0
 40
0.0
 40
0.0
 40
0.0
 40
1.0
 40
1.0
 40
1.0
 40
2.0
 40
2.0
 40
2.0
 40
3.0
 40
3.0
 40
3.0
 40
4.0
 40
4.0
 40
4.0
 40
4.0
 10
128.7349539776957
 20
-74.61751869510529
 30
0.0
 10
128.7349539776957
 20
-74.43522173380538
 30
0.0
 10
128.5877720736905
 20
-74.28815571734928
 30
0.0
 10
128.4067499208911
 20
-74.28815571734928
 30
0.0
 10
128.2244529641983
 20
-74.28815571734928
 30
0.0
 10
128.077386951456
 20
-74.43522173380538
 30
0.0
 10
128.077386951456
 20
-74.61751869510529
 30
0.0
 10
128.077386951456
 20
-74.79854085247678
 30
0.0
 10
128.2244529641983
 20
-74.94572276020003
 30
0.0
 10
128.4067499208911
 20
-74.94572276020003
 30
0.0
 10
128.5877720736905
 20
-74.94572276020003
 30
0.0
 10
128.7349539776957
 20
-74.79854085247678
 30
0.0
 10
128.7349539776957
 20
-74.61751869510529
 30
0.0
  0
SPLINE
  5
59
330
41
100
AcDbEntity
  8
_U_30EC_U_30A4_U_30E4_U_30
 62
     7
100
AcDbSpline
210
0.0
220
0.0
230
1.0
 70
    11
 71
     3
 72
    17
 73
    13
 74
     0
 42
0.0000000001
 43
0.0000000001
 12
1.0
 22
0.0
 32
0.0
 13
1.0
 23
0.0
 33
0.0
 40
0.0
 40
0.0
 40
0.0
 40
0.0
 40
1.0
 40
1.0
 40
1.0
 40
2.0
 40
2.0
 40
2.0
 40
3.0
 40
3.0
 40
3.0
 40
4.0
 40
4.0
 40
4.0
 40
4.0
 10
141.8756325062914
 20
-61.47672394328034
 30
0.0
 10
141.8756325062914
 20
-61.29454287324919
 30
0.0
 10
141.7285664935498
 20
-61.14736096552529
 30
0.0
 10
141.5462695368569
 20
-61.14736096552529
 30
0.0
 10
141.3652473840576
 20
-61.14736096552529
 30
0.0
 10
141.2180654800523
 20
-61.29454287324919
 30
0.0
 10
141.2180654800523
 20
-61.47672394328034
 30
0.0
 10
141.2180654800523
 20
-61.65786199191994
 30
0.0
 10
141.3652473840576
 20
-61.80492800837668
 30
0.0
 10
141.5462695368569
 20
-61.80492800837668
 30
0.0
 10
141.7285664935498
 20
-61.80492800837668
 30
0.0
 10
141.8756325062914
 20
-61.65786199191994
 30
0.0
 10
141.8756325062914
 20
-61.47672394328034
 30
0.0
  0
SPLINE
  5
5A
330
41
100
AcDbEntity
  8
_U_30EC_U_30A4_U_30E4_U_30
 62
     7
100
AcDbSpline
210
0.0
220
0.0
230
1.0
 70
    11
 71
     3
 72
    17
 73
    13
 74
     0
 42
0.0000000001
 43
0.0000000001
 12
1.0
 22
0.0
 32
0.0
 13
1.0
 23
0.0
 33
0.0
 40
0.0
 40
0.0
 40
0.0
 40
0.0
 40
1.0
 40
1.0
 40
1.0
 40
2.0
 40
2.0
 40
2.0
 40
3.0
 40
3.0
 40
3.0
 40
4.0
 40
4.0
 40
4.0
 40
4.0
 10
141.8756325062914
 20
-51.72331500314271
 30
0.0
 10
141.8756325062914
 20
-51.54217695450311
 30
0.0
 10
141.7285664935498
 20
-51.395110938047
 30
0.0
 10
141.5462695368569
 20
-51.395110938047
 30
0.0
 10
141.3652473840576
 20
-51.395110938047
 30
0.0
 10
141.2180654800523
 20
-51.54217695450311
 30
0.0
 10
141.2180654800523
 20
-51.72331500314271
 30
0.0
 10
141.2180654800523
 20
-51.90433716051484
 30
0.0
 10
141.3652473840576
 20
-52.05151906823841
 30
0.0
 10
141.5462695368569
 20
-52.05151906823841
 30
0.0
 10
141.7285664935498
 20
-52.05151906823841
 30
0.0
 10
141.8756325062914
 20
-51.90433716051484
 30
0.0
 10
141.8756325062914
 20
-51.72331500314271
 30
0.0
  0
SPLINE
  5
5B
330
41
100
AcDbEntity
  8
_U_30EC_U_30A4_U_30E4_U_30
 62
     7
100
AcDbSpline
210
0.0
220
0.0
230
1.0
 70
    11
 71
     3
 72
    17
 73
    13
 74
     0
 42
0.0000000001
 43
0.0000000001
 12
1.0
 22
0.0
 32
0.0
 13
1.0
 23
0.0
 33
0.0
 40
0.0
 40
0.0
 40
0.0
 40
0.0
 40
1.0
 40
1.0
 40
1.0
 40
2.0
 40
2.0
 40
2.0
 40
3.0
 40
3.0
 40
3.0
 40
4.0
 40
4.0
 40
4.0
 40
4.0
 10
43.32285574597849
 20
-61.47672394328034
 30
0.0
 10
43.32285574597849
 20
-61.29454287324919
 30
0.0
 10
43.17567384197388
 20
-61.14736096552529
 30
0.0
 10
42.99465168917386
 20
-61.14736096552529
 30
0.0
 10
42.81351364511117
 20
-61.14736096552529
 30
0.0
 10
42.66644763236923
 20
-61.29454287324919
 30
0.0
 10
42.66644763236923
 20
-61.47672394328034
 30
0.0
 10
42.66644763236923
 20
-61.65786199191994
 30
0.0
 10
42.81351364511117
 20
-61.80492800837668
 30
0.0
 10
42.99465168917386
 20
-61.80492800837668
 30
0.0
 10
43.17567384197388
 20
-61.80492800837668
 30
0.0
 10
43.32285574597849
 20
-61.65786199191994
 30
0.0
 10
43.32285574597849
 20
-61.47672394328034
 30
0.0
  0
SPLINE
  5
5C
330
41
100
AcDbEntity
  8
_U_30EC_U_30A4_U_30E4_U_30
 62
     7
100
AcDbSpline
210
0.0
220
0.0
230
1.0
 70
    11
 71
     3
 72
    17
 73
    13
 74
     0
 42
0.0000000001
 43
0.0000000001
 12
1.0
 22
0.0
 32
0.0
 13
1.0
 23
0.0
 33
0.0
 40
0.0
 40
0.0
 40
0.0
 40
0.0
 40
1.0
 40
1.0
 40
1.0
 40
2.0
 40
2.0
 40
2.0
 40
3.0
 40
3.0
 40
3.0
 40
4.0
 40
4.0
 40
4.0
 40
4.0
 10
43.32285574597849
 20
-41.91787088460398
 30
0.0
 10
43.32285574597849
 20
-41.73673283596469
 30
0.0
 10
43.17567384197388
 20
-41.5895509282408
 30
0.0
 10
42.99465168917386
 20
-41.5895509282408
 30
0.0
 10
42.81351364511117
 20
-41.5895509282408
 30
0.0
 10
42.66644763236923
 20
-41.73673283596469
 30
0.0
 10
42.66644763236923
 20
-41.91787088460398
 30
0.0
 10
42.66644763236923
 20
-42.09889304197578
 30
0.0
 10
42.81351364511117
 20
-42.24607494969968
 30
0.0
 10
42.99465168917386
 20
-42.24607494969968
 30
0.0
 10
43.17567384197388
 20
-42.24607494969968
 30
0.0
 10
43.32285574597849
 20
-42.09889304197578
 30
0.0
 10
43.32285574597849
 20
-41.91787088460398
 30
0.0
  0
SPLINE
  5
5D
330
41
100
AcDbEntity
  8
_U_30EC_U_30A4_U_30E4_U_30
 62
     7
100
AcDbSpline
210
0.0
220
0.0
230
1.0
 70
    11
 71
     3
 72
    17
 73
    13
 74
     0
 42
0.0000000001
 43
0.0000000001
 12
1.0
 22
0.0
 32
0.0
 13
1.0
 23
0.0
 33
0.0
 40
0.0
 40
0.0
 40
0.0
 40
0.0
 40
1.0
 40
1.0
 40
1.0
 40
2.0
 40
2.0
 40
2.0
 40
3.0
 40
3.0
 40
3.0
 40
4.0
 40
4.0
 40
4.0
 40
4.0
 10
95.88476424262603
 20
-11.57440840159672
 30
0.0
 10
95.88476424262603
 20
-11.39338624422427
 30
0.0
 10
95.73758233862111
 20
-11.24620433650102
 30
0.0
 10
95.55644429455874
 20
-11.24620433650102
 30
0.0
 10
95.37542214175808
 20
-11.24620433650102
 30
0.0
 10
95.22824023775316
 20
-11.39338624422427
 30
0.0
 10
95.22824023775316
 20
-11.57440840159672
 30
0.0
 10
95.22824023775316
 20
-11.75670536289567
 30
0.0
 10
95.37542214175808
 20
-11.90377137935209
 30
0.0
 10
95.55644429455874
 20
-11.90377137935209
 30
0.0
 10
95.73758233862111
 20
-11.90377137935209
 30
0.0
 10
95.88476424262603
 20
-11.75670536289567
 30
0.0
 10
95.88476424262603
 20
-11.57440840159672
 30
0.0
  0
SPLINE
  5
5E
330
41
100
AcDbEntity
  8
_U_30EC_U_30A4_U_30E4_U_30
 62
     7
100
AcDbSpline
210
0.0
220
0.0
230
1.0
 70
    11
 71
     3
 72
    17
 73
    13
 74
     0
 42
0.0000000001
 43
0.0000000001
 12
1.0
 22
0.0
 32
0.0
 13
1.0
 23
0.0
 33
0.0
 40
0.0
 40
0.0
 40
0.0
 40
0.0
 40
1.0
 40
1.0
 40
1.0
 40
2.0
 40
2.0
 40
2.0
 40
3.0
 40
3.0
 40
3.0
 40
4.0
 40
4.0
 40
4.0
 40
4.0
 10
161.5851437127658
 20
-11.57440840159672
 30
0.0
 10
161.5851437127658
 20
-11.39338624422427
 30
0.0
 10
161.4379618087605
 20
-11.24620433650102
 30
0.0
 10
161.2557807433313
 20
-11.24620433650102
 30
0.0
 10
161.0746473096873
 20
-11.24620433650102
 30
0.0
 10
160.927576686526
 20
-11.39338624422427
 30
0.0
 10
160.927576686526
 20
-11.57440840159672
 30
0.0
 10
160.927576686526
 20
-11.75670536289567
 30
0.0
 10
161.0746473096873
 20
-11.90377137935209
 30
0.0
 10
161.2557807433313
 20
-11.90377137935209
 30
0.0
 10
161.4379618087605
 20
-11.90377137935209
 30
0.0
 10
161.5851437127658
 20
-11.75670536289567
 30
0.0
 10
161.5851437127658
 20
-11.57440840159672
 30
0.0
  0
SPLINE
  5
5F
330
41
100
AcDbEntity
  8
_U_30EC_U_30A4_U_30E4_U_30
 62
     7
100
AcDbSpline
210
0.0
220
0.0
230
1.0
 70
    11
 71
     3
 72
    17
 73
    13
 74
     0
 42
0.0000000001
 43
0.0000000001
 12
1.0
 22
0.0
 32
0.0
 13
1.0
 23
0.0
 33
0.0
 40
0.0
 40
0.0
 40
0.0
 40
0.0
 40
1.0
 40
1.0
 40
1.0
 40
2.0
 40
2.0
 40
2.0
 40
3.0
 40
3.0
 40
3.0
 40
4.0
 40
4.0
 40
4.0
 40
4.0
 10
174.7246633287316
 20
-28.65712867255005
 30
0.0
 10
174.7246633287316
 20
-28.47599062391077
 30
0.0
 10
174.5775973159887
 20
-28.32892460745435
 30
0.0
 10
174.396459271927
 20
-28.32892460745435
 30
0.0
 10
174.2154371191269
 20
-28.32892460745435
 30
0.0
 10
174.0682552151217
 20
-28.47599062391077
 30
0.0
 10
174.0682552151217
 20
-28.65712867255005
 30
0.0
 10
174.0682552151217
 20
-28.83930974258185
 30
0.0
 10
174.2154371191269
 20
-28.98637575903794
 30
0.0
 10
174.396459271927
 20
-28.98637575903794
 30
0.0
 10
174.5775973159887
 20
-28.98637575903794
 30
0.0
 10
174.7246633287316
 20
-28.83930974258185
 30
0.0
 10
174.7246633287316
 20
-28.65712867255005
 30
0.0
  0
SPLINE
  5
60
330
41
100
AcDbEntity
  8
_U_30EC_U_30A4_U_30E4_U_30
 62
     7
100
AcDbSpline
210
0.0
220
0.0
230
1.0
 70
    11
 71
     3
 72
    17
 73
    13
 74
     0
 42
0.0000000001
 43
0.0000000001
 12
1.0
 22
0.0
 32
0.0
 13
1.0
 23
0.0
 33
0.0
 40
0.0
 40
0.0
 40
0.0
 40
0.0
 40
1.0
 40
1.0
 40
1.0
 40
2.0
 40
2.0
 40
2.0
 40
3.0
 40
3.0
 40
3.0
 40
4.0
 40
4.0
 40
4.0
 40
4.0
 10
174.7246633287316
 20
-51.72331500314271
 30
0.0
 10
174.7246633287316
 20
-51.54217695450311
 30
0.0
 10
174.5775973159887
 20
-51.395110938047
 30
0.0
 10
174.396459271927
 20
-51.395110938047
 30
0.0
 10
174.2154371191269
 20
-51.395110938047
 30
0.0
 10
174.0682552151217
 20
-51.54217695450311
 30
0.0
 10
174.0682552151217
 20
-51.72331500314271
 30
0.0
 10
174.0682552151217
 20
-51.90433716051484
 30
0.0
 10
174.2154371191269
 20
-52.05151906823841
 30
0.0
 10
174.396459271927
 20
-52.05151906823841
 30
0.0
 10
174.5775973159887
 20
-52.05151906823841
 30
0.0
 10
174.7246633287316
 20
-51.90433716051484
 30
0.0
 10
174.7246633287316
 20
-51.72331500314271
 30
0.0
  0
SPLINE
  5
61
330
41
100
AcDbEntity
  8
_U_30EC_U_30A4_U_30E4_U_30
 62
     7
100
AcDbSpline
210
0.0
220
0.0
230
1.0
 70
    11
 71
     3
 72
    17
 73
    13
 74
     0
 42
0.0000000001
 43
0.0000000001
 12
1.0
 22
0.0
 32
0.0
 13
1.0
 23
0.0
 33
0.0
 40
0.0
 40
0.0
 40
0.0
 40
0.0
 40
1.0
 40
1.0
 40
1.0
 40
2.0
 40
2.0
 40
2.0
 40
3.0
 40
3.0
 40
3.0
 40
4.0
 40
4.0
 40
4.0
 40
4.0
 10
56.46353427457413
 20
-74.61751869510529
 30
0.0
 10
56.46353427457413
 20
-74.43522173380538
 30
0.0
 10
56.31646826183218
 20
-74.28815571734928
 30
0.0
 10
56.1353302177695
 20
-74.28815571734928
 30
0.0
 10
55.95315672827348
 20
-74.28815571734928
 30
0.0
 10
55.80597482055087
 20
-74.43522173380538
 30
0.0
 10
55.80597482055087
 20
-74.61751869510529
 30
0.0
 10
55.80597482055087
 20
-74.79854085247678
 30
0.0
 10
55.95315672827348
 20
-74.94572276020003
 30
0.0
 10
56.1353302177695
 20
-74.94572276020003
 30
0.0
 10
56.31646826183218
 20
-74.94572276020003
 30
0.0
 10
56.46353427457413
 20
-74.79854085247678
 30
0.0
 10
56.46353427457413
 20
-74.61751869510529
 30
0.0
  0
POLYLINE
  5
62
330
41
100
AcDbEntity
  8
_U_30EC_U_30A4_U_30E4_U_30
 62
     7
100
AcDb2dPolyline
 66
     1
 10
0.0
 20
0.0
 30
0.0
  0
VERTEX
  5
63
330
62
100
AcDbEntity
  8
_U_30EC_U_30A4_U_30E4_U_30
 62
     7
100
AcDbVertex
100
AcDb2dVertex
 10
95.55644429455874
 20
-11.57440840159672
 30
0.0
  0
VERTEX
  5
64
330
62
100
AcDbEntity
  8
_U_30EC_U_30A4_U_30E4_U_30
 62
     7
100
AcDbVertex
100
AcDb2dVertex
 10
161.2557807433313
 20
-11.57440840159672
 30
0.0
  0
SEQEND
  5
65
330
62
100
AcDbEntity
  8
_U_30EC_U_30A4_U_30E4_U_30
 62
     7
  0
POLYLINE
  5
66
330
41
100
AcDbEntity
  8
_U_30EC_U_30A4_U_30E4_U_30
 62
     7
100
AcDb2dPolyline
 66
     1
 10
0.0
 20
0.0
 30
0.0
  0
VERTEX
  5
67
330
66
100
AcDbEntity
  8
_U_30EC_U_30A4_U_30E4_U_30
 62
     7
100
AcDbVertex
100
AcDb2dVertex
 10
95.55644429455874
 20
-16.37080022438247
 30
0.0
  0
VERTEX
  5
68
330
66
100
AcDbEntity
  8
_U_30EC_U_30A4_U_30E4_U_30
 62
     7
100
AcDbVertex
100
AcDb2dVertex
 10
95.55644429455874
 20
-8.290049925320373
 30
0.0
  0
SEQEND
  5
69
330
66
100
AcDbEntity
  8
_U_30EC_U_30A4_U_30E4_U_30
 62
     7
  0
POLYLINE
  5
6A
330
41
100
AcDbEntity
  8
_U_30EC_U_30A4_U_30E4_U_30
 62
     7
100
AcDb2dPolyline
 66
     1
 10
0.0
 20
0.0
 30
0.0
  0
VERTEX
  5
6B
330
6A
100
AcDbEntity
  8
_U_30EC_U_30A4_U_30E4_U_30
 62
     7
100
AcDbVertex
100
AcDb2dVertex
 10
161.2557807433313
 20
-16.37080022438247
 30
0.0
  0
VERTEX
  5
6C
330
6A
100
AcDbEntity
  8
_U_30EC_U_30A4_U_30E4_U_30
 62
     7
100
AcDbVertex
100
AcDb2dVertex
 10
161.2557807433313
 20
-8.290049925320373
 30
0.0
  0
SEQEND
  5
6D
330
6A
100
AcDbEntity
  8
_U_30EC_U_30A4_U_30E4_U_30
 62
     7
  0
MTEXT
  5
6E
330
41
100
AcDbEntity
  8
_U_30EC_U_30A4_U_30E4_U_30
 62
     7
100
AcDbMText
 10
124.2325547649488
 20
-6.604937064320988
 30
0.0
 40
5.314115876458743
 41
0.0
 71
     7
 72
     1
  1
\fA-OTF Futo Go B101 Pro|b1|i0|c0|p34;\W1;20
  0
POLYLINE
  5
6F
330
41
100
AcDbEntity
  8
_U_30EC_U_30A4_U_30E4_U_30
 62
     7
100
AcDb2dPolyline
 66
     1
 10
0.0
 20
0.0
 30
0.0
  0
VERTEX
  5
70
330
6F
100
AcDbEntity
  8
_U_30EC_U_30A4_U_30E4_U_30
 62
     7
100
AcDbVertex
100
AcDb2dVertex
 10
95.55644429455874
 20
-74.61751869510529
 30
0.0
  0
VERTEX
  5
71
330
6F
100
AcDbEntity
  8
_U_30EC_U_30A4_U_30E4_U_30
 62
     7
100
AcDbVertex
100
AcDb2dVertex
 10
128.4067499208911
 20
-74.61751869510529
 30
0.0
  0
SEQEND
  5
72
330
6F
100
AcDbEntity
  8
_U_30EC_U_30A4_U_30E4_U_30
 62
     7
  0
POLYLINE
  5
73
330
41
100
AcDbEntity
  8
_U_30EC_U_30A4_U_30E4_U_30
 62
     7
100
AcDb2dPolyline
 66
     1
 10
0.0
 20
0.0
 30
0.0
  0
VERTEX
  5
74
330
73
100
AcDbEntity
  8
_U_30EC_U_30A4_U_30E4_U_30
 62
     7
100
AcDbVertex
100
AcDb2dVertex
 10
95.55644429455874
 20
-69.8211268723205
 30
0.0
  0
VERTEX
  5
75
330
73
100
AcDbEntity
  8
_U_30EC_U_30A4_U_30E4_U_30
 62
     7
100
AcDbVertex
100
AcDb2dVertex
 10
95.55644429455874
 20
-77.90187717138068
 30
0.0
  0
SEQEND
  5
76
330
73
100
AcDbEntity
  8
_U_30EC_U_30A4_U_30E4_U_30
 62
     7
  0
POLYLINE
  5
77
330
41
100
AcDbEntity
  8
_U_30EC_U_30A4_U_30E4_U_30
 62
     7
100
AcDb2dPolyline
 66
     1
 10
0.0
 20
0.0
 30
0.0
  0
VERTEX
  5
78
330
77
100
AcDbEntity
  8
_U_30EC_U_30A4_U_30E4_U_30
 62
     7
100
AcDbVertex
100
AcDb2dVertex
 10
128.4067499208911
 20
-69.8211268723205
 30
0.0
  0
VERTEX
  5
79
330
77
100
AcDbEntity
  8
_U_30EC_U_30A4_U_30E4_U_30
 62
     7
100
AcDbVertex
100
AcDb2dVertex
 10
128.4067499208911
 20
-77.90187717138068
 30
0.0
  0
SEQEND
  5
7A
330
77
100
AcDbEntity
  8
_U_30EC_U_30A4_U_30E4_U_30
 62
     7
  0
MTEXT
  5
7B
330
41
100
AcDbEntity
  8
_U_30EC_U_30A4_U_30E4_U_30
 62
     7
100
AcDbMText
 10
107.8090955676658
 20
-69.88824054242377
 30
0.0
 40
5.314115876458743
 41
0.0
 71
     7
 72
     1
  1
\fA-OTF Futo Go B101 Pro|b1|i0|c0|p34;\W1;10
  0
POLYLINE
  5
7C
330
41
100
AcDbEntity
  8
_U_30EC_U_30A4_U_30E4_U_30
 62
     7
100
AcDb2dPolyline
 66
     1
 10
0.0
 20
0.0
 30
0.0
  0
VERTEX
  5
7D
330
7C
100
AcDbEntity
  8
_U_30EC_U_30A4_U_30E4_U_30
 62
     7
100
AcDbVertex
100
AcDb2dVertex
 10
42.99465168917386
 20
-41.91787088460398
 30
0.0
  0
VERTEX
  5
7E
330
7C
100
AcDbEntity
  8
_U_30EC_U_30A4_U_30E4_U_30
 62
     7
100
AcDbVertex
100
AcDb2dVertex
 10
42.99465168917386
 20
-61.47672394328034
 30
0.0
  0
SEQEND
  5
7F
330
7C
100
AcDbEntity
  8
_U_30EC_U_30A4_U_30E4_U_30
 62
     7
  0
POLYLINE
  5
80
330
41
100
AcDbEntity
  8
_U_30EC_U_30A4_U_30E4_U_30
 62
     7
100
AcDb2dPolyline
 66
     1
 10
0.0
 20
0.0
 30
0.0
  0
VERTEX
  5
81
330
80
100
AcDbEntity
  8
_U_30EC_U_30A4_U_30E4_U_30
 62
     7
100
AcDbVertex
100
AcDb2dVertex
 10
50.90550519254689
 20
-41.91787088460398
 30
0.0
  0
VERTEX
  5
82
330
80
100
AcDbEntity
  8
_U_30EC_U_30A4_U_30E4_U_30
 62
     7
100
AcDbVertex
100
AcDb2dVertex
 10
39.71029329586598
 20
-41.91787088460398
 30
0.0
  0
SEQEND
  5
83
330
80
100
AcDbEntity
  8
_U_30EC_U_30A4_U_30E4_U_30
 62
     7
  0
POLYLINE
  5
84
330
41
100
AcDbEntity
  8
_U_30EC_U_30A4_U_30E4_U_30
 62
     7
100
AcDb2dPolyline
 66
     1
 10
0.0
 20
0.0
 30
0.0
  0
VERTEX
  5
85
330
84
100
AcDbEntity
  8
_U_30EC_U_30A4_U_30E4_U_30
 62
     7
100
AcDbVertex
100
AcDb2dVertex
 10
87.21215184647387
 20
-61.47672394328034
 30
0.0
  0
VERTEX
  5
86
330
84
100
AcDbEntity
  8
_U_30EC_U_30A4_U_30E4_U_30
 62
     7
100
AcDbVertex
100
AcDb2dVertex
 10
39.71029329586598
 20
-61.47672394328034
 30
0.0
  0
SEQEND
  5
87
330
84
100
AcDbEntity
  8
_U_30EC_U_30A4_U_30E4_U_30
 62
     7
  0
MTEXT
  5
88
330
41
100
AcDbEntity
  8
_U_30EC_U_30A4_U_30E4_U_30
 62
     7
100
AcDbMText
 10
38.02868651393033
 20
-53.78259140365505
 30
0.0
 40
5.314115876458743
 41
0.0
 71
     7
 72
     1
  1
\fA-OTF Futo Go B101 Pro|b1|i0|c0|p34;\W1;6
 11
6.123233995736766E-17
 21
1.0
 31
0.0
  0
POLYLINE
  5
89
330
41
100
AcDbEntity
  8
_U_30EC_U_30A4_U_30E4_U_30
 62
     7
100
AcDb2dPolyline
 66
     1
 10
0.0
 20
0.0
 30
0.0
  0
VERTEX
  5
8A
330
89
100
AcDbEntity
  8
_U_30EC_U_30A4_U_30E4_U_30
 62
     7
100
AcDbVertex
100
AcDb2dVertex
 10
141.5462695368569
 20
-51.72331500314271
 30
0.0
  0
VERTEX
  5
8B
330
89
100
AcDbEntity
  8
_U_30EC_U_30A4_U_30E4_U_30
 62
     7
100
AcDbVertex
100
AcDb2dVertex
 10
141.5462695368569
 20
-61.47672394328034
 30
0.0
  0
SEQEND
  5
8C
330
89
100
AcDbEntity
  8
_U_30EC_U_30A4_U_30E4_U_30
 62
     7
  0
POLYLINE
  5
8D
330
41
100
AcDbEntity
  8
_U_30EC_U_30A4_U_30E4_U_30
 62
     7
100
AcDb2dPolyline
 66
     1
 10
0.0
 20
0.0
 30
0.0
  0
VERTEX
  5
8E
330
8D
100
AcDbEntity
  8
_U_30EC_U_30A4_U_30E4_U_30
 62
     7
100
AcDbVertex
100
AcDb2dVertex
 10
136.7510367478702
 20
-51.72331500314271
 30
0.0
  0
VERTEX
  5
8F
330
8D
100
AcDbEntity
  8
_U_30EC_U_30A4_U_30E4_U_30
 62
     7
100
AcDbVertex
100
AcDb2dVertex
 10
144.831786842794
 20
-51.72331500314271
 30
0.0
  0
SEQEND
  5
90
330
8D
100
AcDbEntity
  8
_U_30EC_U_30A4_U_30E4_U_30
 62
     7
  0
POLYLINE
  5
91
330
41
100
AcDbEntity
  8
_U_30EC_U_30A4_U_30E4_U_30
 62
     7
100
AcDb2dPolyline
 66
     1
 10
0.0
 20
0.0
 30
0.0
  0
VERTEX
  5
92
330
91
100
AcDbEntity
  8
_U_30EC_U_30A4_U_30E4_U_30
 62
     7
100
AcDbVertex
100
AcDb2dVertex
 10
136.7510367478702
 20
-61.47672394328034
 30
0.0
  0
VERTEX
  5
93
330
91
100
AcDbEntity
  8
_U_30EC_U_30A4_U_30E4_U_30
 62
     7
100
AcDbVertex
100
AcDb2dVertex
 10
144.831786842794
 20
-61.47672394328034
 30
0.0
  0
SEQEND
  5
94
330
91
100
AcDbEntity
  8
_U_30EC_U_30A4_U_30E4_U_30
 62
     7
  0
MTEXT
  5
95
330
41
100
AcDbEntity
  8
_U_30EC_U_30A4_U_30E4_U_30
 62
     7
100
AcDbMText
 10
137.9784857510957
 20
-58.68427326006852
 30
0.0
 40
5.314115876458743
 41
0.0
 71
     7
 72
     1
  1
\fA-OTF Futo Go B101 Pro|b1|i0|c0|p34;\W1;3
 11
6.123233995736766E-17
 21
1.0
 31
0.0
  0
POLYLINE
  5
96
330
41
100
AcDbEntity
  8
_U_30EC_U_30A4_U_30E4_U_30
 62
     7
100
AcDb2dPolyline
 66
     1
 10
0.0
 20
0.0
 30
0.0
  0
VERTEX
  5
97
330
96
100
AcDbEntity
  8
_U_30EC_U_30A4_U_30E4_U_30
 62
     7
100
AcDbVertex
100
AcDb2dVertex
 10
174.396459271927
 20
-24.68808459719391
 30
0.0
  0
VERTEX
  5
98
330
96
100
AcDbEntity
  8
_U_30EC_U_30A4_U_30E4_U_30
 62
     7
100
AcDbVertex
100
AcDb2dVertex
 10
174.396459271927
 20
-51.72331500314271
 30
0.0
  0
SEQEND
  5
99
330
96
100
AcDbEntity
  8
_U_30EC_U_30A4_U_30E4_U_30
 62
     7
  0
POLYLINE
  5
9A
330
41
100
AcDbEntity
  8
_U_30EC_U_30A4_U_30E4_U_30
 62
     7
100
AcDb2dPolyline
 66
     1
 10
0.0
 20
0.0
 30
0.0
  0
VERTEX
  5
9B
330
9A
100
AcDbEntity
  8
_U_30EC_U_30A4_U_30E4_U_30
 62
     7
100
AcDbVertex
100
AcDb2dVertex
 10
169.600183461572
 20
-28.65712867255005
 30
0.0
  0
VERTEX
  5
9C
330
9A
100
AcDbEntity
  8
_U_30EC_U_30A4_U_30E4_U_30
 62
     7
100
AcDbVertex
100
AcDb2dVertex
 10
177.681976577864
 20
-28.65712867255005
 30
0.0
  0
SEQEND
  5
9D
330
9A
100
AcDbEntity
  8
_U_30EC_U_30A4_U_30E4_U_30
 62
     7
  0
SPLINE
  5
9E
330
41
100
AcDbEntity
  8
_U_30EC_U_30A4_U_30E4_U_30
 62
     7
100
AcDbSpline
210
0.0
220
0.0
230
1.0
 70
    11
 71
     3
 72
    17
 73
    13
 74
     0
 42
0.0000000001
 43
0.0000000001
 12
1.0
 22
0.0
 32
0.0
 13
1.0
 23
0.0
 33
0.0
 40
0.0
 40
0.0
 40
0.0
 40
0.0
 40
1.0
 40
1.0
 40
1.0
 40
2.0
 40
2.0
 40
2.0
 40
3.0
 40
3.0
 40
3.0
 40
4.0
 40
4.0
 40
4.0
 40
4.0
 10
174.7246633287316
 20
-24.6744094278148
 30
0.0
 10
174.7246633287316
 20
-24.49338727044267
 30
0.0
 10
174.5775973159887
 20
-24.34620536271942
 30
0.0
 10
174.396459271927
 20
-24.34620536271942
 30
0.0
 10
174.2154371191269
 20
-24.34620536271942
 30
0.0
 10
174.0682552151217
 20
-24.49338727044267
 30
0.0
 10
174.0682552151217
 20
-24.6744094278148
 30
0.0
 10
174.0682552151217
 20
-24.8555474764544
 30
0.0
 10
174.2154371191269
 20
-25.00261349291114
 30
0.0
 10
174.396459271927
 20
-25.00261349291114
 30
0.0
 10
174.5775973159887
 20
-25.00261349291114
 30
0.0
 10
174.7246633287316
 20
-24.8555474764544
 30
0.0
 10
174.7246633287316
 20
-24.6744094278148
 30
0.0
  0
POLYLINE
  5
9F
330
41
100
AcDbEntity
  8
_U_30EC_U_30A4_U_30E4_U_30
 62
     7
100
AcDb2dPolyline
 66
     1
 10
0.0
 20
0.0
 30
0.0
  0
VERTEX
  5
A0
330
9F
100
AcDbEntity
  8
_U_30EC_U_30A4_U_30E4_U_30
 62
     7
100
AcDbVertex
100
AcDb2dVertex
 10
169.600183461572
 20
-24.6744094278148
 30
0.0
  0
VERTEX
  5
A1
330
9F
100
AcDbEntity
  8
_U_30EC_U_30A4_U_30E4_U_30
 62
     7
100
AcDbVertex
100
AcDb2dVertex
 10
177.681976577864
 20
-24.6744094278148
 30
0.0
  0
SEQEND
  5
A2
330
9F
100
AcDbEntity
  8
_U_30EC_U_30A4_U_30E4_U_30
 62
     7
  0
POLYLINE
  5
A3
330
41
100
AcDbEntity
  8
_U_30EC_U_30A4_U_30E4_U_30
 62
     7
100
AcDb2dPolyline
 66
     1
 10
0.0
 20
0.0
 30
0.0
  0
VERTEX
  5
A4
330
A3
100
AcDbEntity
  8
_U_30EC_U_30A4_U_30E4_U_30
 62
     7
100
AcDbVertex
100
AcDb2dVertex
 10
136.7510367478702
 20
-51.72331500314271
 30
0.0
  0
VERTEX
  5
A5
330
A3
100
AcDbEntity
  8
_U_30EC_U_30A4_U_30E4_U_30
 62
     7
100
AcDbVertex
100
AcDb2dVertex
 10
177.681976577864
 20
-51.72331500314271
 30
0.0
  0
SEQEND
  5
A6
330
A3
100
AcDbEntity
  8
_U_30EC_U_30A4_U_30E4_U_30
 62
     7
  0
MTEXT
  5
A7
330
41
100
AcDbEntity
  8
_U_30EC_U_30A4_U_30E4_U_30
 62
     7
100
AcDbMText
 10
170.2528292760132
 20
-42.27511120904928
 30
0.0
 40
5.314115876458743
 41
0.0
 71
     7
 72
     1
  1
\fA-OTF Futo Go B101 Pro|b1|i0|c0|p34;\W1;7
 11
6.123233995736766E-17
 21
1.0
 31
0.0
  0
MTEXT
  5
A8
330
41
100
AcDbEntity
  8
_U_30EC_U_30A4_U_30E4_U_30
 62
     7
100
AcDbMText
 10
170.2528292760132
 20
-28.75173339124957
 30
0.0
 40
5.314115876458743
 41
0.0
 71
     7
 72
     1
  1
\fA-OTF Futo Go B101 Pro|b1|i0|c0|p34;\W1;1
 11
6.123233995736766E-17
 21
1.0
 31
0.0
  0
POLYLINE
  5
A9
330
41
100
AcDbEntity
  8
_U_30EC_U_30A4_U_30E4_U_30
 62
     7
100
AcDb2dPolyline
 66
     1
 10
0.0
 20
0.0
 30
0.0
  0
VERTEX
  5
AA
330
A9
100
AcDbEntity
  8
_U_30EC_U_30A4_U_30E4_U_30
 62
     7
100
AcDbVertex
100
AcDb2dVertex
 10
95.55644429455874
 20
-74.61751869510529
 30
0.0
  0
VERTEX
  5
AB
330
A9
100
AcDbEntity
  8
_U_30EC_U_30A4_U_30E4_U_30
 62
     7
100
AcDbVertex
100
AcDb2dVertex
 10
56.1353302177695
 20
-74.61751869510529
 30
0.0
  0
SEQEND
  5
AC
330
A9
100
AcDbEntity
  8
_U_30EC_U_30A4_U_30E4_U_30
 62
     7
  0
POLYLINE
  5
AD
330
41
100
AcDbEntity
  8
_U_30EC_U_30A4_U_30E4_U_30
 62
     7
100
AcDb2dPolyline
 66
     1
 10
0.0
 20
0.0
 30
0.0
  0
VERTEX
  5
AE
330
AD
100
AcDbEntity
  8
_U_30EC_U_30A4_U_30E4_U_30
 62
     7
100
AcDbVertex
100
AcDb2dVertex
 10
56.1353302177695
 20
-50.16260732494823
 30
0.0
  0
VERTEX
  5
AF
330
AD
100
AcDbEntity
  8
_U_30EC_U_30A4_U_30E4_U_30
 62
     7
100
AcDbVertex
100
AcDb2dVertex
 10
56.1353302177695
 20
-77.90187717138068
 30
0.0
  0
SEQEND
  5
B0
330
AD
100
AcDbEntity
  8
_U_30EC_U_30A4_U_30E4_U_30
 62
     7
  0
MTEXT
  5
B1
330
41
100
AcDbEntity
  8
_U_30EC_U_30A4_U_30E4_U_30
 62
     7
100
AcDbMText
 10
71.6728000037832
 20
-69.88824054242377
 30
0.0
 40
5.314115876458743
 41
0.0
 71
     7
 72
     1
  1
\fA-OTF Futo Go B101 Pro|b1|i0|c0|p34;\W1;12
  0
ENDBLK
  5
44
330
41
100
AcDbEntity
  8
0
100
AcDbBlockEnd
  0
ENDSEC
  0
SECTION
  2
ENTITIES
  0
INSERT
  5
42
330
1F
100
AcDbEntity
  8
_U_30EC_U_30A4_U_30E4_U_30
100
AcDbBlockReference
  2
BLOCK_2
 10
0.0
 20
0.0
 30
0.0
  0
ENDSEC
  0
SECTION
  2
OBJECTS
  0
DICTIONARY
  5
C
330
0
100
AcDbDictionary
  3
ACAD_GROUP
350
D
  3
ACAD_LAYOUT
350
1A
  3
ACAD_MATERIAL
350
3B
  3
ACAD_MLEADERSTYLE
350
D5
  3
ACAD_MLINESTYLE
350
17
  3
ACAD_PLOTSETTINGS
350
19
  3
ACAD_VISUALSTYLE
350
2A
  3
ACDBHEADERROUNDTRIPXREC
350
B3
  3
ACDBVARIABLEDICTIONARY
350
D3
  0
DICTIONARY
  5
D
102
{ACAD_REACTORS
330
C
102
}
330
C
100
AcDbDictionary
  0
DICTIONARY
  5
1A
102
{ACAD_REACTORS
330
C
102
}
330
C
100
AcDbDictionary
  0
DICTIONARY
  5
3B
102
{ACAD_REACTORS
330
C
102
}
330
C
100
AcDbDictionary
  3
BYBLOCK
350
3D
  3
BYLAYER
350
3C
  3
GLOBAL
350
3E
  0
DICTIONARY
  5
D5
102
{ACAD_REACTORS
330
C
102
}
330
C
100
AcDbDictionary
  0
DICTIONARY
  5
17
102
{ACAD_REACTORS
330
C
102
}
330
C
100
AcDbDictionary
  3
STANDARD
350
18
  0
DICTIONARY
  5
19
102
{ACAD_REACTORS
330
C
102
}
330
C
100
AcDbDictionary
  0
DICTIONARY
  5
2A
102
{ACAD_REACTORS
330
C
102
}
330
C
100
AcDbDictionary
  3
2DWIREFRAME
350
2F
  3
3DWIREFRAME
350
30
  3
3D_HIDDEN
350
31
  3
BASIC
350
32
  3
BRIGHTEN
350
36
  3
COLORCHANGE
350
3A
  3
CONCEPTUAL
350
34
  3
DIM
350
35
  3
FACEPATTERN
350
39
  3
FLAT
350
2B
  3
FLATWITHEDGES
350
2C
  3
GOURAUD
350
2D
  3
GOURAUDWITHEDGES
350
2E
  3
LINEPATTERN
350
38
  3
REALISTIC
350
33
  3
THICKEN
350
37
  0
DICTIONARY
  5
B3
102
{ACAD_REACTORS
330
C
102
}
330
C
100
AcDbDictionary
  3
CEPSNTYPE
350
BC
  3
DIMSTYLEDATA
350
D2
  3
FINGERPRINTGUID
350
BD
  3
HYPERLINKBASE
350
B6
  3
INSUNITS
350
BB
  3
LAYOUTDICT
350
B8
  3
LWETCUNION
350
BA
  3
PLOTSETDICT
350
B9
  3
PSVPSCALE
350
BF
  3
PUCSBASE
350
C2
  3
PUCSORGBACK
350
C8
  3
PUCSORGBOTTOM
350
C4
  3
PUCSORGFRONT
350
C7
  3
PUCSORGLEFT
350
C5
  3
PUCSORGRIGHT
350
C6
  3
PUCSORGTOP
350
C3
  3
PUCSORTHOREF
350
C0
  3
PUCSORTHOVIEW
350
C1
  3
STYLESHEET
350
B7
  3
TSTACKALIGN
350
B4
  3
TSTACKSIZE
350
B5
  3
UCSBASE
350
CB
  3
UCSORGBACK
350
D1
  3
UCSORGBOTTOM
350
CD
  3
UCSORGFRONT
350
D0
  3
UCSORGLEFT
350
CE
  3
UCSORGRIGHT
350
CF
  3
UCSORGTOP
350
CC
  3
UCSORTHOREF
350
C9
  3
UCSORTHOVIEW
350
CA
  3
VERSIONGUID
350
BE
  0
DICTIONARY
  5
D3
102
{ACAD_REACTORS
330
C
102
}
330
C
100
AcDbDictionary
  3
DIMASSOC
350
D6
  3
HIDETEXT
350
D7
  0
MATERIAL
  5
3D
102
{ACAD_REACTORS
330
3B
102
}
102
{ACAD_XDICTIONARY
360
DA
102
}
330
3B
100
AcDbMaterial
  1
ByBlock
  0
MATERIAL
  5
3C
102
{ACAD_REACTORS
330
3B
102
}
102
{ACAD_XDICTIONARY
360
D8
102
}
330
3B
100
AcDbMaterial
  1
ByLayer
  0
MATERIAL
  5
3E
102
{ACAD_REACTORS
330
3B
102
}
102
{ACAD_XDICTIONARY
360
DC
102
}
330
3B
100
AcDbMaterial
  1
Global
  0
MLINESTYLE
  5
18
102
{ACAD_REACTORS
330
17
102
}
330
17
100
AcDbMlineStyle
  2
Standard
 70
     0
  3

 62
   256
 51
90.0
 52
90.0
 71
     2
 49
0.5
 62
   256
  6
BYLAYER
 49
-0.5
 62
   256
  6
BYLAYER
  0
ACAD_PROXY_OBJECT
  5
2F
102
{ACAD_REACTORS
330
2A
102
}
330
2A
100
AcDbProxyObject
 90
      499
 91
      501
 93
      436
310
42CC9915DA5C99599C985B595049028333333333333E3BF0000000000000FB0107901411070040501600405405064090741402480A0340
1001
ACAD
1000
AcDbSavedByObjectVersion
1070
     0
  0
ACAD_PROXY_OBJECT
  5
30
102
{ACAD_REACTORS
330
2A
102
}
330
2A
100
AcDbProxyObject
 90
      499
 91
      501
 93
      436
310
42CCD915DA5C99599C985B595059028333333333333E3BF0000000000000FB0107901411070040501600405405064090741402480A0340
1001
ACAD
1000
AcDbSavedByObjectVersion
1070
     0
  0
ACAD_PROXY_OBJECT
  5
31
102
{ACAD_REACTORS
330
2A
102
}
330
2A
100
AcDbProxyObject
 90
      499
 91
      501
 93
      500
310
424CD108121A5919195B90640502408333333333333E3BF0000000000000FB01079024090700405020000000000001110200405405064090740C02480A0340
1001
ACAD
1000
AcDbSavedByObjectVersion
1070
     0
  0
ACAD_PROXY_OBJECT
  5
32
102
{ACAD_REACTORS
330
2A
102
}
330
2A
100
AcDbProxyObject
 90
      499
 91
      501
 93
      388
310
4150985CDA58D07406404333333333333E3BF0000000000000FB0107A41107004050150841D405064090741402480A0350
1001
ACAD
1000
AcDbSavedByObjectVersion
1070
     0
  0
ACAD_PROXY_OBJECT
  5
36
102
{ACAD_REACTORS
330
2A
102
}
330
2A
100
AcDbProxyObject
 90
      499
 91
      501
 93
      428
310
42109C9A59DA1D195B90C409028333333333333E3BF0000000000000FB010790141107004050150841D405064090741402480A029950
1001
ACAD
1000
AcDbSavedByObjectVersion
1070
     0
  0
ACAD_PROXY_OBJECT
  5
3A
102
{ACAD_REACTORS
330
2A
102
}
330
2A
100
AcDbProxyObject
 90
      499
 91
      501
 93
      452
310
42D0DBDB1BDC90DA185B99D95104090240C333333333333E3BF0000000000000FB0108901411070040501508421405064090741402480A0350
1001
ACAD
1000
AcDbSavedByObjectVersion
1070
     0
  0
ACAD_PROXY_OBJECT
  5
34
102
{ACAD_REACTORS
330
2A
102
}
330
2A
100
AcDbProxyObject
 90
      499
 91
      501
 93
      500
310
4290DBDB98D95C1D1D585B10940D028333333333333E3BF0000000000000FB0107902409070040501000000000000111010841D405064090740C02480A0340
1001
ACAD
1000
AcDbSavedByObjectVersion
1070
     0
  0
ACAD_PROXY_OBJECT
  5
35
102
{ACAD_REACTORS
330
2A
102
}
330
2A
100
AcDbProxyObject
 90
      499
 91
      501
 93
      412
310
40D11A5B50B409028333333333333E3BF0000000000000FB010790141107004050150841D405064090741402480A02677FFFFFD0
1001
ACAD
1000
AcDbSavedByObjectVersion
1070
     0
  0
ACAD_PROXY_OBJECT
  5
39
102
{ACAD_REACTORS
330
2A
102
}
330
2A
100
AcDbProxyObject
 90
      499
 91
      501
 93
      444
310
42D19858D95C185D1D195C9B90F409028333333333333E3BF0000000000000FB010790141107004050150841D405064090741402480A0350
1001
ACAD
1000
AcDbSavedByObjectVersion
1070
     0
  0
ACAD_PROXY_OBJECT
  5
2B
102
{ACAD_REACTORS
330
2A
102
}
330
2A
100
AcDbProxyObject
 90
      499
 91
      501
 93
      388
310
41119B185D240901404333333333333E3BF0000000000000F9010740A41107004050150841D405064090741402480A1B50
1001
ACAD
1000
AcDbSavedByObjectVersion
1070
     0
  0
ACAD_PROXY_OBJECT
  5
2C
102
{ACAD_REACTORS
330
2A
102
}
330
2A
100
AcDbProxyObject
 90
      499
 91
      501
 93
      476
310
43519B185D15DA5D1A115919D95CD0140901404333333333333E3BF0000000000000F9010740901411070040501600405405064090741402480A1B50
1001
ACAD
1000
AcDbSavedByObjectVersion
1070
     0
  0
ACAD_PROXY_OBJECT
  5
2D
102
{ACAD_REACTORS
330
2A
102
}
330
2A
100
AcDbProxyObject
 90
      499
 91
      501
 93
      412
310
41D1DBDD5C985D5910240902404333333333333E3BF0000000000000F9010740A411070040501641D405064090741402480A1B50
1001
ACAD
1000
AcDbSavedByObjectVersion
1070
     0
  0
ACAD_PROXY_OBJECT
  5
2E
102
{ACAD_REACTORS
330
2A
102
}
330
2A
100
AcDbProxyObject
 90
      499
 91
      501
 93
      500
310
4411DBDD5C985D5915DA5D1A115919D95CD0340902404333333333333E3BF0000000000000F9010740901411070040501600405405064090741402480A1B50
1001
ACAD
1000
AcDbSavedByObjectVersion
1070
     0
  0
ACAD_PROXY_OBJECT
  5
38
102
{ACAD_REACTORS
330
2A
102
}
330
2A
100
AcDbProxyObject
 90
      499
 91
      501
 93
      444
310
42D31A5B995C185D1D195C9B90E409028333333333333E3BF0000000000000FB010790141107004050750841D405064090741402483A0350
1001
ACAD
1000
AcDbSavedByObjectVersion
1070
     0
  0
ACAD_PROXY_OBJECT
  5
33
102
{ACAD_REACTORS
330
2A
102
}
330
2A
100
AcDbProxyObject
 90
      499
 91
      501
 93
      420
310
425499585B1A5CDD1A58D08409028333333333333E3BF0000000000000FB01079019070040501508421405064090741402480A1B40
1001
ACAD
1000
AcDbSavedByObjectVersion
1070
     0
  0
ACAD_PROXY_OBJECT
  5
37
102
{ACAD_REACTORS
330
2A
102
}
330
2A
100
AcDbProxyObject
 90
      499
 91
      501
 93
      412
310
41D51A1A58DAD95B90D409028333333333333E3BF0000000000000FB010790141107004050150C41D405064090741402480A0350
1001
ACAD
1000
AcDbSavedByObjectVersion
1070
     0
  0
XRECORD
  5
BC
102
{ACAD_REACTORS
330
B3
102
}
330
B3
100
AcDbXrecord
 90
        0
  0
XRECORD
  5
D2
102
{ACAD_REACTORS
330
B3
102
}
330
B3
100
AcDbXrecord
1000
DSTYLE
1002
{
1070
   340
340
11
1002
}
  0
XRECORD
  5
BD
102
{ACAD_REACTORS
330
B3
102
}
330
B3
100
AcDbXrecord
  1
{CFECB8F7-C513-3B95-F31D-C40BA918E03F}
  0
XRECORD
  5
B6
102
{ACAD_REACTORS
330
B3
102
}
330
B3
100
AcDbXrecord
  1

  0
XRECORD
  5
BB
102
{ACAD_REACTORS
330
B3
102
}
330
B3
100
AcDbXrecord
 90
        1
  0
XRECORD
  5
B8
102
{ACAD_REACTORS
330
B3
102
}
330
B3
100
AcDbXrecord
340
1A
  0
XRECORD
  5
BA
102
{ACAD_REACTORS
330
B3
102
}
330
B3
100
AcDbXrecord
 90
    10269
  0
XRECORD
  5
B9
102
{ACAD_REACTORS
330
B3
102
}
330
B3
100
AcDbXrecord
340
19
  0
XRECORD
  5
BF
102
{ACAD_REACTORS
330
B3
102
}
330
B3
100
AcDbXrecord
 40
0.0
  0
XRECORD
  5
C2
102
{ACAD_REACTORS
330
B3
102
}
330
B3
100
AcDbXrecord
340
0
  0
XRECORD
  5
C8
102
{ACAD_REACTORS
330
B3
102
}
330
B3
100
AcDbXrecord
 10
0.0
 20
0.0
 30
0.0
  0
XRECORD
  5
C4
102
{ACAD_REACTORS
330
B3
102
}
330
B3
100
AcDbXrecord
 10
0.0
 20
0.0
 30
0.0
  0
XRECORD
  5
C7
102
{ACAD_REACTORS
330
B3
102
}
330
B3
100
AcDbXrecord
 10
0.0
 20
0.0
 30
0.0
  0
XRECORD
  5
C5
102
{ACAD_REACTORS
330
B3
102
}
330
B3
100
AcDbXrecord
 10
0.0
 20
0.0
 30
0.0
  0
XRECORD
  5
C6
102
{ACAD_REACTORS
330
B3
102
}
330
B3
100
AcDbXrecord
 10
0.0
 20
0.0
 30
0.0
  0
XRECORD
  5
C3
102
{ACAD_REACTORS
330
B3
102
}
330
B3
100
AcDbXrecord
 10
0.0
 20
0.0
 30
0.0
  0
XRECORD
  5
C0
102
{ACAD_REACTORS
330
B3
102
}
330
B3
100
AcDbXrecord
340
0
  0
XRECORD
  5
C1
102
{ACAD_REACTORS
330
B3
102
}
330
B3
100
AcDbXrecord
 70
     0
  0
XRECORD
  5
B7
102
{ACAD_REACTORS
330
B3
102
}
330
B3
100
AcDbXrecord
  1

  0
XRECORD
  5
B4
102
{ACAD_REACTORS
330
B3
102
}
330
B3
100
AcDbXrecord
 90
        1
  0
XRECORD
  5
B5
102
{ACAD_REACTORS
330
B3
102
}
330
B3
100
AcDbXrecord
 90
       70
  0
XRECORD
  5
CB
102
{ACAD_REACTORS
330
B3
102
}
330
B3
100
AcDbXrecord
340
0
  0
XRECORD
  5
D1
102
{ACAD_REACTORS
330
B3
102
}
330
B3
100
AcDbXrecord
 10
0.0
 20
0.0
 30
0.0
  0
XRECORD
  5
CD
102
{ACAD_REACTORS
330
B3
102
}
330
B3
100
AcDbXrecord
 10
0.0
 20
0.0
 30
0.0
  0
XRECORD
  5
D0
102
{ACAD_REACTORS
330
B3
102
}
330
B3
100
AcDbXrecord
 10
0.0
 20
0.0
 30
0.0
  0
XRECORD
  5
CE
102
{ACAD_REACTORS
330
B3
102
}
330
B3
100
AcDbXrecord
 10
0.0
 20
0.0
 30
0.0
  0
XRECORD
  5
CF
102
{ACAD_REACTORS
330
B3
102
}
330
B3
100
AcDbXrecord
 10
0.0
 20
0.0
 30
0.0
  0
XRECORD
  5
CC
102
{ACAD_REACTORS
330
B3
102
}
330
B3
100
AcDbXrecord
 10
0.0
 20
0.0
 30
0.0
  0
XRECORD
  5
C9
102
{ACAD_REACTORS
330
B3
102
}
330
B3
100
AcDbXrecord
340
0
  0
XRECORD
  5
CA
102
{ACAD_REACTORS
330
B3
102
}
330
B3
100
AcDbXrecord
 70
     0
  0
XRECORD
  5
BE
102
{ACAD_REACTORS
330
B3
102
}
330
B3
100
AcDbXrecord
  1
{FAEB1C32-E019-11D5-929B-00C0DF256EC4}
  0
DICTIONARYVAR
  5
D6
102
{ACAD_REACTORS
330
D3
102
}
330
D3
100
DictionaryVariables
280
     0
  1
2
  0
DICTIONARYVAR
  5
D7
102
{ACAD_REACTORS
330
D3
102
}
330
D3
100
DictionaryVariables
280
     0
  1
1
  0
DICTIONARY
  5
DA
330
3D
100
AcDbDictionary
280
     1
  3
ACAD_XREC_ROUNDTRIP
360
DB
  0
DICTIONARY
  5
D8
330
3C
100
AcDbDictionary
280
     1
  3
ACAD_XREC_ROUNDTRIP
360
D9
  0
DICTIONARY
  5
DC
330
3E
100
AcDbDictionary
280
     1
  3
ACAD_XREC_ROUNDTRIP
360
DD
  0
XRECORD
  5
DB
102
{ACAD_REACTORS
330
DA
102
}
330
DA
100
AcDbXrecord
102
MATERIAL
148
0.0
149
0.0
149
0.0
 93
        0
 94
      127
282
     0
 72
     1
 77
     1
171
     1
175
     1
179
     1
273
     0
  0
XRECORD
  5
D9
102
{ACAD_REACTORS
330
D8
102
}
330
D8
100
AcDbXrecord
102
MATERIAL
148
0.0
149
0.0
149
0.0
 93
        0
 94
      127
282
     0
 72
     1
 77
     1
171
     1
175
     1
179
     1
273
     0
  0
XRECORD
  5
DD
102
{ACAD_REACTORS
330
DC
102
}
330
DC
100
AcDbXrecord
102
MATERIAL
148
0.0
149
0.0
149
0.0
 93
        0
 94
      127
282
     0
 72
     1
 77
     1
171
     1
175
     1
179
     1
273
     0
  0
ENDSEC
  0
EOF
