  0
SECTION
  2
HEADER
  9
$ACADVER
  1
AC1024
  9
$ACADMAINTVER
 70
     6
  9
$DWGCODEPAGE
  3
UNDEFINED
  9
$INSBASE
 10
0.0
 20
0.0
 30
0.0
  9
$EXTMIN
 10
1.000000000000000E+20
 20
1.000000000000000E+20
 30
1.000000000000000E+20
  9
$EXTMAX
 10
-1.000000000000000E+20
 20
-1.000000000000000E+20
 30
-1.000000000000000E+20
  9
$LIMMIN
 10
0.0
 20
0.0
  9
$LIMMAX
 10
12.0
 20
9.0
  9
$ORTHOMODE
 70
     0
  9
$REGENMODE
 70
     1
  9
$FILLMODE
 70
     1
  9
$QTEXTMODE
 70
     0
  9
$MIRRTEXT
 70
     1
  9
$LTSCALE
 40
1.0
  9
$ATTMODE
 70
     1
  9
$TEXTSIZE
 40
0.2
  9
$TRACEWID
 40
0.05
  9
$TEXTSTYLE
  7
Standard
  9
$CLAYER
  8
0
  9
$CELTYPE
  6
ByLayer
  9
$CECOLOR
 62
   256
  9
$CELTSCALE
 40
1.0
  9
$DISPSILH
 70
     0
  9
$DIMSCALE
 40
1.0
  9
$DIMASZ
 40
0.18
  9
$DIMEXO
 40
0.0625
  9
$DIMDLI
 40
0.38
  9
$DIMRND
 40
0.0
  9
$DIMDLE
 40
0.0
  9
$DIMEXE
 40
0.18
  9
$DIMTP
 40
0.0
  9
$DIMTM
 40
0.0
  9
$DIMTXT
 40
0.18
  9
$DIMCEN
 40
0.09
  9
$DIMTSZ
 40
0.0
  9
$DIMTOL
 70
     0
  9
$DIMLIM
 70
     0
  9
$DIMTIH
 70
     1
  9
$DIMTOH
 70
     1
  9
$DIMSE1
 70
     0
  9
$DIMSE2
 70
     0
  9
$DIMTAD
 70
     0
  9
$DIMZIN
 70
     0
  9
$DIMBLK
  1

  9
$DIMASO
 70
     1
  9
$DIMSHO
 70
     1
  9
$DIMPOST
  1

  9
$DIMAPOST
  1

  9
$DIMALT
 70
     0
  9
$DIMALTD
 70
     2
  9
$DIMALTF
 40
25.4
  9
$DIMLFAC
 40
1.0
  9
$DIMTOFL
 70
     0
  9
$DIMTVP
 40
0.0
  9
$DIMTIX
 70
     0
  9
$DIMSOXD
 70
     0
  9
$DIMSAH
 70
     0
  9
$DIMBLK1
  1

  9
$DIMBLK2
  1

  9
$DIMSTYLE
  2
Standard
  9
$DIMCLRD
 70
     0
  9
$DIMCLRE
 70
     0
  9
$DIMCLRT
 70
     0
  9
$DIMTFAC
 40
1.0
  9
$DIMGAP
 40
0.09
  9
$DIMJUST
 70
     0
  9
$DIMSD1
 70
     0
  9
$DIMSD2
 70
     0
  9
$DIMTOLJ
 70
     1
  9
$DIMTZIN
 70
     0
  9
$DIMALTZ
 70
     0
  9
$DIMALTTZ
 70
     0
  9
$DIMUPT
 70
     0
  9
$DIMDEC
 70
     4
  9
$DIMTDEC
 70
     4
  9
$DIMALTU
 70
     2
  9
$DIMALTTD
 70
     2
  9
$DIMTXSTY
  7
Standard
  9
$DIMAUNIT
 70
     0
  9
$DIMADEC
 70
     0
  9
$DIMALTRND
 40
0.0
  9
$DIMAZIN
 70
     0
  9
$DIMDSEP
 70
    46
  9
$DIMATFIT
 70
     3
  9
$DIMFRAC
 70
     0
  9
$DIMLDRBLK
  1

  9
$DIMLUNIT
 70
     2
  9
$DIMLWD
 70
    -2
  9
$DIMLWE
 70
    -2
  9
$DIMTMOVE
 70
     0
  9
$DIMFXL
 40
1.0
  9
$DIMFXLON
 70
     0
  9
$DIMJOGANG
 40
0.7853981633974483
  9
$DIMTFILL
 70
     0
  9
$DIMTFILLCLR
 70
     0
  9
$DIMARCSYM
 70
     0
  9
$DIMLTYPE
  6

  9
$DIMLTEX1
  6

  9
$DIMLTEX2
  6

  9
$DIMTXTDIRECTION
 70
     0
  9
$LUNITS
 70
     2
  9
$LUPREC
 70
     4
  9
$SKETCHINC
 40
0.1
  9
$FILLETRAD
 40
0.5
  9
$AUNITS
 70
     0
  9
$AUPREC
 70
     0
  9
$MENU
  1
.
  9
$ELEVATION
 40
0.0
  9
$PELEVATION
 40
0.0
  9
$THICKNESS
 40
0.0
  9
$LIMCHECK
 70
     0
  9
$CHAMFERA
 40
0.5
  9
$CHAMFERB
 40
0.5
  9
$CHAMFERC
 40
1.0
  9
$CHAMFERD
 40
0.0
  9
$SKPOLY
 70
     0
  9
$TDCREATE
 40
2457917.612777778
  9
$TDUCREATE
 40
2457917.237777778
  9
$TDUPDATE
 40
2457917.612777778
  9
$TDUUPDATE
 40
2457917.237777778
  9
$TDINDWG
 40
0.0000000116
  9
$TDUSRTIMER
 40
0.0000000116
  9
$USRTIMER
 70
     1
  9
$ANGBASE
 50
0.0
  9
$ANGDIR
 70
     0
  9
$PDMODE
 70
     0
  9
$PDSIZE
 40
0.0
  9
$PLINEWID
 40
0.0
  9
$SPLFRAME
 70
     0
  9
$SPLINETYPE
 70
     6
  9
$SPLINESEGS
 70
     8
  9
$HANDSEED
  5
109
  9
$SURFTAB1
 70
     6
  9
$SURFTAB2
 70
     6
  9
$SURFTYPE
 70
     6
  9
$SURFU
 70
     6
  9
$SURFV
 70
     6
  9
$UCSBASE
  2

  9
$UCSNAME
  2

  9
$UCSORG
 10
0.0
 20
0.0
 30
0.0
  9
$UCSXDIR
 10
1.0
 20
0.0
 30
0.0
  9
$UCSYDIR
 10
0.0
 20
1.0
 30
0.0
  9
$UCSORTHOREF
  2

  9
$UCSORTHOVIEW
 70
     0
  9
$UCSORGTOP
 10
0.0
 20
0.0
 30
0.0
  9
$UCSORGBOTTOM
 10
0.0
 20
0.0
 30
0.0
  9
$UCSORGLEFT
 10
0.0
 20
0.0
 30
0.0
  9
$UCSORGRIGHT
 10
0.0
 20
0.0
 30
0.0
  9
$UCSORGFRONT
 10
0.0
 20
0.0
 30
0.0
  9
$UCSORGBACK
 10
0.0
 20
0.0
 30
0.0
  9
$PUCSBASE
  2

  9
$PUCSNAME
  2

  9
$PUCSORG
 10
0.0
 20
0.0
 30
0.0
  9
$PUCSXDIR
 10
1.0
 20
0.0
 30
0.0
  9
$PUCSYDIR
 10
0.0
 20
1.0
 30
0.0
  9
$PUCSORTHOREF
  2

  9
$PUCSORTHOVIEW
 70
     0
  9
$PUCSORGTOP
 10
0.0
 20
0.0
 30
0.0
  9
$PUCSORGBOTTOM
 10
0.0
 20
0.0
 30
0.0
  9
$PUCSORGLEFT
 10
0.0
 20
0.0
 30
0.0
  9
$PUCSORGRIGHT
 10
0.0
 20
0.0
 30
0.0
  9
$PUCSORGFRONT
 10
0.0
 20
0.0
 30
0.0
  9
$PUCSORGBACK
 10
0.0
 20
0.0
 30
0.0
  9
$USERI1
 70
     0
  9
$USERI2
 70
     0
  9
$USERI3
 70
     0
  9
$USERI4
 70
     0
  9
$USERI5
 70
     0
  9
$USERR1
 40
0.0
  9
$USERR2
 40
0.0
  9
$USERR3
 40
0.0
  9
$USERR4
 40
0.0
  9
$USERR5
 40
0.0
  9
$WORLDVIEW
 70
     1
  9
$SHADEDGE
 70
     3
  9
$SHADEDIF
 70
    70
  9
$TILEMODE
 70
     1
  9
$MAXACTVP
 70
    64
  9
$PINSBASE
 10
0.0
 20
0.0
 30
0.0
  9
$PLIMCHECK
 70
     0
  9
$PEXTMIN
 10
1.000000000000000E+20
 20
1.000000000000000E+20
 30
1.000000000000000E+20
  9
$PEXTMAX
 10
-1.000000000000000E+20
 20
-1.000000000000000E+20
 30
-1.000000000000000E+20
  9
$PLIMMIN
 10
0.0
 20
0.0
  9
$PLIMMAX
 10
12.0
 20
9.0
  9
$UNITMODE
 70
     0
  9
$VISRETAIN
 70
     1
  9
$PLINEGEN
 70
     0
  9
$PSLTSCALE
 70
     1
  9
$TREEDEPTH
 70
  3020
  9
$CMLSTYLE
  2
Standard
  9
$CMLJUST
 70
     0
  9
$CMLSCALE
 40
1.0
  9
$PROXYGRAPHICS
 70
     1
  9
$MEASUREMENT
 70
     0
  9
$CELWEIGHT
370
    -1
  9
$ENDCAPS
280
     0
  9
$JOINSTYLE
280
     0
  9
$LWDISPLAY
290
     1
  9
$INSUNITS
 70
     1
  9
$HYPERLINKBASE
  1

  9
$STYLESHEET
  1

  9
$XEDIT
290
     1
  9
$CEPSNTYPE
380
     0
  9
$PSTYLEMODE
290
     1
  9
$FINGERPRINTGUID
  2
{4D9CEBF8-5335-0D41-52FF-37B81C70B1E3}
  9
$VERSIONGUID
  2
{FAEB1C32-E019-11D5-929B-00C0DF256EC4}
  9
$EXTNAMES
290
     1
  9
$PSVPSCALE
 40
0.0
  9
$OLESTARTUP
290
     0
  9
$SORTENTS
280
   127
  9
$INDEXCTL
280
     0
  9
$HIDETEXT
280
     1
  9
$XCLIPFRAME
280
     2
  9
$HALOGAP
280
     0
  9
$OBSCOLOR
 70
   257
  9
$OBSLTYPE
280
     0
  9
$INTERSECTIONDISPLAY
280
     0
  9
$INTERSECTIONCOLOR
 70
   257
  9
$DIMASSOC
280
     2
  9
$PROJECTNAME
  1

  9
$CAMERADISPLAY
290
     0
  9
$LENSLENGTH
 40
50.0
  9
$CAMERAHEIGHT
 40
0.0
  9
$STEPSPERSEC
 40
2.0
  9
$STEPSIZE
 40
6.0
  9
$3DDWFPREC
 40
2.0
  9
$PSOLWIDTH
 40
0.25
  9
$PSOLHEIGHT
 40
4.0
  9
$LOFTANG1
 40
1.570796326794897
  9
$LOFTANG2
 40
1.570796326794897
  9
$LOFTMAG1
 40
0.0
  9
$LOFTMAG2
 40
0.0
  9
$LOFTPARAM
 70
     7
  9
$LOFTNORMALS
280
     1
  9
$LATITUDE
 40
37.795
  9
$LONGITUDE
 40
-122.394
  9
$NORTHDIRECTION
 40
0.0
  9
$TIMEZONE
 70
 -8000
  9
$LIGHTGLYPHDISPLAY
280
     1
  9
$TILEMODELIGHTSYNCH
280
     1
  9
$CMATERIAL
347
3C
  9
$SOLIDHIST
280
     1
  9
$SHOWHIST
280
     1
  9
$DWFFRAME
280
     2
  9
$DGNFRAME
280
     2
  9
$REALWORLDSCALE
290
     1
  9
$INTERFERECOLOR
 62
   256
  9
$CSHADOW
280
     0
  9
$SHADOWPLANELOCATION
 40
0.0
  0
ENDSEC
  0
SECTION
  2
CLASSES
  0
CLASS
  1
ACDBDICTIONARYWDFLT
  2
AcDbDictionaryWithDefault
  3
ObjectDBX Classes
 90
        0
 91
        4
280
     0
281
     0
  0
CLASS
  1
VISUALSTYLE
  2
AcDbVisualStyle
  3
ObjectDBX Classes
 90
     4095
 91
        4
280
     0
281
     0
  0
CLASS
  1
MATERIAL
  2
AcDbMaterial
  3
ObjectDBX Classes
 90
     1153
 91
        4
280
     0
281
     0
  0
CLASS
  1
SUN
  2
AcDbSun
  3
SCENEOE
 90
     1024
 91
        4
280
     0
281
     0
  0
ENDSEC
  0
SECTION
  2
TABLES
  0
TABLE
  2
VPORT
  5
8
330
0
100
AcDbSymbolTable
 70
     1
  0
VPORT
  5
29
330
8
100
AcDbSymbolTableRecord
100
AcDbViewportTableRecord
  2
*Active
 70
     0
 10
0.0
 20
0.0
 11
1.0
 21
1.0
 12
0.0
 22
0.0
 13
0.0
 23
0.0
 14
0.5
 24
0.5
 15
0.5
 25
0.5
 16
0.0
 26
0.0
 36
1.0
 17
91.00082462281999
 27
-128.4993055234307
 37
0.0
 40
256.9986110468615
 41
0.7081814508812795
 42
50.0
 43
0.0
 44
0.0
 50
0.0
 51
0.0
 71
     0
 72
   100
 73
     1
 74
     3
 75
     0
 76
     0
 77
     0
 78
     0
281
     0
 65
     1
110
0.0
120
0.0
130
0.0
111
1.0
121
0.0
131
0.0
112
0.0
122
1.0
132
0.0
 79
     0
146
0.0
 60
     3
 61
     5
292
     1
282
     1
141
0.0
142
0.0
 63
   250
361
3F
  0
ENDTAB
  0
TABLE
  2
LTYPE
  5
5
330
0
100
AcDbSymbolTable
 70
     1
  0
LTYPE
  5
14
330
5
100
AcDbSymbolTableRecord
100
AcDbLinetypeTableRecord
  2
ByBlock
 70
     0
  3

 72
    65
 73
     0
 40
0.0
  0
LTYPE
  5
15
330
5
100
AcDbSymbolTableRecord
100
AcDbLinetypeTableRecord
  2
ByLayer
 70
     0
  3

 72
    65
 73
     0
 40
0.0
  0
LTYPE
  5
16
330
5
100
AcDbSymbolTableRecord
100
AcDbLinetypeTableRecord
  2
Continuous
 70
     0
  3
Solid line
 72
    65
 73
     0
 40
0.0
  0
ENDTAB
  0
TABLE
  2
LAYER
  5
2
330
0
100
AcDbSymbolTable
 70
     2
  0
LAYER
  5
10
330
2
100
AcDbSymbolTableRecord
100
AcDbLayerTableRecord
  2
0
 70
     0
 62
     7
  6
Continuous
370
    -3
390
F
347
3E
  0
LAYER
  5
40
330
2
100
AcDbSymbolTableRecord
100
AcDbLayerTableRecord
  2
_U+30EC_U+30A4_U+30E4_U+30FC 1
 70
     0
 62
     7
  6
Continuous
370
    -3
390
F
347
3E
  0
ENDTAB
  0
TABLE
  2
STYLE
  5
3
330
0
100
AcDbSymbolTable
 70
     1
  0
STYLE
  5
11
330
3
100
AcDbSymbolTableRecord
100
AcDbTextStyleTableRecord
  2
Standard
 70
     0
 40
0.0
 41
1.0
 50
0.0
 71
     0
 42
0.2
  3
txt
  4

  0
ENDTAB
  0
TABLE
  2
VIEW
  5
6
330
0
100
AcDbSymbolTable
 70
     0
  0
ENDTAB
  0
TABLE
  2
UCS
  5
7
330
0
100
AcDbSymbolTable
 70
     0
  0
ENDTAB
  0
TABLE
  2
APPID
  5
9
330
0
100
AcDbSymbolTable
 70
     1
  0
APPID
  5
12
330
9
100
AcDbSymbolTableRecord
100
AcDbRegAppTableRecord
  2
ACAD
 70
     0
  0
ENDTAB
  0
TABLE
  2
DIMSTYLE
  5
A
330
0
100
AcDbSymbolTable
 70
     1
100
AcDbDimStyleTable
  0
DIMSTYLE
105
27
330
A
100
AcDbSymbolTableRecord
100
AcDbDimStyleTableRecord
  2
Standard
 70
     0
178
     0
340
11
  0
ENDTAB
  0
TABLE
  2
BLOCK_RECORD
  5
1
330
0
100
AcDbSymbolTable
 70
     7
  0
BLOCK_RECORD
  5
1F
330
1
100
AcDbSymbolTableRecord
100
AcDbBlockTableRecord
  2
*Model_Space
340
22
 70
     0
280
     1
281
     0
  0
BLOCK_RECORD
  5
1B
330
1
100
AcDbSymbolTableRecord
100
AcDbBlockTableRecord
  2
*Paper_Space
340
1E
 70
     0
280
     1
281
     0
  0
BLOCK_RECORD
  5
23
330
1
100
AcDbSymbolTableRecord
100
AcDbBlockTableRecord
  2
*Paper_Space0
340
26
 70
     0
280
     1
281
     0
  0
BLOCK_RECORD
  5
96
330
1
100
AcDbSymbolTableRecord
100
AcDbBlockTableRecord
  2
block 2
340
0
102
{BLKREFS
331
97
102
}
 70
     0
280
     1
281
     0
  0
BLOCK_RECORD
  5
A4
330
1
100
AcDbSymbolTableRecord
100
AcDbBlockTableRecord
  2
block 3
340
0
102
{BLKREFS
331
A5
102
}
 70
     0
280
     1
281
     0
  0
BLOCK_RECORD
  5
B9
330
1
100
AcDbSymbolTableRecord
100
AcDbBlockTableRecord
  2
block 4
340
0
102
{BLKREFS
331
BA
102
}
 70
     0
280
     1
281
     0
  0
BLOCK_RECORD
  5
E1
330
1
100
AcDbSymbolTableRecord
100
AcDbBlockTableRecord
  2
block 5
340
0
102
{BLKREFS
331
E2
102
}
 70
     0
280
     1
281
     0
  0
BLOCK_RECORD
  5
F1
330
1
100
AcDbSymbolTableRecord
100
AcDbBlockTableRecord
  2
block 6
340
0
102
{BLKREFS
331
F2
102
}
 70
     0
280
     1
281
     0
  0
BLOCK_RECORD
  5
FF
330
1
100
AcDbSymbolTableRecord
100
AcDbBlockTableRecord
  2
block 7
340
0
102
{BLKREFS
331
100
102
}
 70
     0
280
     1
281
     0
  0
ENDTAB
  0
ENDSEC
  0
SECTION
  2
BLOCKS
  0
BLOCK
  5
20
330
1F
100
AcDbEntity
  8
0
100
AcDbBlockBegin
  2
*Model_Space
 70
     0
 10
0.0
 20
0.0
 30
0.0
  3
*Model_Space
  1

  0
ENDBLK
  5
21
330
1F
100
AcDbEntity
  8
0
100
AcDbBlockEnd
  0
BLOCK
  5
1C
330
1B
100
AcDbEntity
 67
     1
  8
0
100
AcDbBlockBegin
  2
*Paper_Space
 70
     0
 10
0.0
 20
0.0
 30
0.0
  3
*Paper_Space
  1

  0
ENDBLK
  5
1D
330
1B
100
AcDbEntity
 67
     1
  8
0
100
AcDbBlockEnd
  0
BLOCK
  5
24
330
23
100
AcDbEntity
  8
0
100
AcDbBlockBegin
  2
*Paper_Space0
 70
     0
 10
0.0
 20
0.0
 30
0.0
  3
*Paper_Space0
  1

  0
ENDBLK
  5
25
330
23
100
AcDbEntity
  8
0
100
AcDbBlockEnd
  0
BLOCK
  5
98
330
96
100
AcDbEntity
  8
0
100
AcDbBlockBegin
  2
block 2
 70
     0
 10
0.0
 20
0.0
 30
0.0
  3
block 2
  1

  0
SPLINE
  5
9A
330
96
100
AcDbEntity
  8
_U+30EC_U+30A4_U+30E4_U+30FC 1
370
     0
100
AcDbSpline
210
0.0
220
0.0
230
1.0
 70
    11
 71
     3
 72
    26
 73
    22
 74
     0
 42
0.0000000001
 43
0.0000000001
 12
1.0
 22
0.0
 32
0.0
 13
1.0
 23
0.0
 33
0.0
 40
0.0
 40
0.0
 40
0.0
 40
0.0
 40
1.0
 40
1.0
 40
1.0
 40
2.0
 40
2.0
 40
2.0
 40
3.0
 40
3.0
 40
3.0
 40
4.0
 40
4.0
 40
4.0
 40
5.0
 40
5.0
 40
5.0
 40
6.0
 40
6.0
 40
6.0
 40
7.0
 40
7.0
 40
7.0
 40
7.0
 10
110.6936740174655
 20
-121.884033172654
 30
0.0
 10
110.6936740174655
 20
-121.884033172654
 30
0.0
 10
109.5895209144429
 20
-121.884033172654
 30
0.0
 10
109.5895209144429
 20
-121.884033172654
 30
0.0
 10
109.5895209144429
 20
-121.884033172654
 30
0.0
 10
109.5895209144429
 20
-122.2140733201409
 30
0.0
 10
109.5895209144429
 20
-122.2140733201409
 30
0.0
 10
109.5895209144429
 20
-122.2140733201409
 30
0.0
 10
109.4413818085772
 20
-122.2140733201409
 30
0.0
 10
109.4413818085772
 20
-122.2140733201409
 30
0.0
 10
109.4265678979906
 20
-121.8819661153628
 30
0.0
 10
109.2636148815383
 20
-121.835457326312
 30
0.0
 10
109.149237711428
 20
-121.8058295051388
 30
0.0
 10
109.149237711428
 20
-121.8058295051388
 30
0.0
 10
109.149237711428
 20
-121.6597574565642
 30
0.0
 10
109.149237711428
 20
-121.6597574565642
 30
0.0
 10
109.149237711428
 20
-121.6597574565642
 30
0.0
 10
110.6936740174655
 20
-121.6597574565642
 30
0.0
 10
110.6936740174655
 20
-121.6597574565642
 30
0.0
 10
110.6936740174655
 20
-121.6597574565642
 30
0.0
 10
110.6936740174655
 20
-121.884033172654
 30
0.0
 10
110.6936740174655
 20
-121.884033172654
 30
0.0
  0
HATCH
  5
9B
330
96
100
AcDbEntity
  8
_U+30EC_U+30A4_U+30E4_U+30FC 1
 62
     7
420
 16777215
100
AcDbHatch
 10
0.0
 20
0.0
 30
0.0
210
0.0
220
0.0
230
1.0
  2
SOLID
 70
     1
 71
     0
 91
        1
 92
        1
 93
        1
 72
     4
 94
        3
 73
     0
 74
     1
 95
       26
 96
       22
 40
0.0
 40
0.0
 40
0.0
 40
0.0
 40
1.0
 40
1.0
 40
1.0
 40
2.0
 40
2.0
 40
2.0
 40
3.0
 40
3.0
 40
3.0
 40
4.0
 40
4.0
 40
4.0
 40
5.0
 40
5.0
 40
5.0
 40
6.0
 40
6.0
 40
6.0
 40
7.0
 40
7.0
 40
7.0
 40
7.0
 10
110.6936740174655
 20
-121.884033172654
 10
110.6936740174655
 20
-121.884033172654
 10
109.5895209144429
 20
-121.884033172654
 10
109.5895209144429
 20
-121.884033172654
 10
109.5895209144429
 20
-121.884033172654
 10
109.5895209144429
 20
-122.2140733201409
 10
109.5895209144429
 20
-122.2140733201409
 10
109.5895209144429
 20
-122.2140733201409
 10
109.4413818085772
 20
-122.2140733201409
 10
109.4413818085772
 20
-122.2140733201409
 10
109.4265678979906
 20
-121.8819661153628
 10
109.2636148815383
 20
-121.835457326312
 10
109.149237711428
 20
-121.8058295051388
 10
109.149237711428
 20
-121.8058295051388
 10
109.149237711428
 20
-121.6597574565642
 10
109.149237711428
 20
-121.6597574565642
 10
109.149237711428
 20
-121.6597574565642
 10
110.6936740174655
 20
-121.6597574565642
 10
110.6936740174655
 20
-121.6597574565642
 10
110.6936740174655
 20
-121.6597574565642
 10
110.6936740174655
 20
-121.884033172654
 10
110.6936740174655
 20
-121.884033172654
 97
        0
 97
        0
 75
     2
 76
     1
 98
        0
  0
ENDBLK
  5
99
330
96
100
AcDbEntity
  8
0
100
AcDbBlockEnd
  0
BLOCK
  5
A6
330
A4
100
AcDbEntity
  8
0
100
AcDbBlockBegin
  2
block 3
 70
     0
 10
0.0
 20
0.0
 30
0.0
  3
block 3
  1

  0
SPLINE
  5
A8
330
A4
100
AcDbEntity
  8
_U+30EC_U+30A4_U+30E4_U+30FC 1
370
     0
100
AcDbSpline
210
0.0
220
0.0
230
1.0
 70
    11
 71
     3
 72
    26
 73
    22
 74
     0
 42
0.0000000001
 43
0.0000000001
 12
1.0
 22
0.0
 32
0.0
 13
1.0
 23
0.0
 33
0.0
 40
0.0
 40
0.0
 40
0.0
 40
0.0
 40
1.0
 40
1.0
 40
1.0
 40
2.0
 40
2.0
 40
2.0
 40
3.0
 40
3.0
 40
3.0
 40
4.0
 40
4.0
 40
4.0
 40
5.0
 40
5.0
 40
5.0
 40
6.0
 40
6.0
 40
6.0
 40
7.0
 40
7.0
 40
7.0
 40
7.0
 10
84.64306774142604
 20
-141.6619818439248
 30
0.0
 10
84.64306774142604
 20
-141.6619818439248
 30
0.0
 10
84.64306774142604
 20
-140.5578287409022
 30
0.0
 10
84.64306774142604
 20
-140.5578287409022
 30
0.0
 10
84.64306774142604
 20
-140.5578287409022
 30
0.0
 10
84.31302759393911
 20
-140.5578287409022
 30
0.0
 10
84.31302759393911
 20
-140.5578287409022
 30
0.0
 10
84.31302759393911
 20
-140.5578287409022
 30
0.0
 10
84.31302759393911
 20
-140.4096896350365
 30
0.0
 10
84.31302759393911
 20
-140.4096896350365
 30
0.0
 10
84.6451347987172
 20
-140.3948757244499
 30
0.0
 10
84.69164358776807
 20
-140.2319227079976
 30
0.0
 10
84.72127140894122
 20
-140.1175455378873
 30
0.0
 10
84.72127140894122
 20
-140.1175455378873
 30
0.0
 10
84.8673434575158
 20
-140.1175455378873
 30
0.0
 10
84.8673434575158
 20
-140.1175455378873
 30
0.0
 10
84.8673434575158
 20
-140.1175455378873
 30
0.0
 10
84.8673434575158
 20
-141.6619818439248
 30
0.0
 10
84.8673434575158
 20
-141.6619818439248
 30
0.0
 10
84.8673434575158
 20
-141.6619818439248
 30
0.0
 10
84.64306774142604
 20
-141.6619818439248
 30
0.0
 10
84.64306774142604
 20
-141.6619818439248
 30
0.0
  0
HATCH
  5
A9
330
A4
100
AcDbEntity
  8
_U+30EC_U+30A4_U+30E4_U+30FC 1
 62
     7
420
 16777215
100
AcDbHatch
 10
0.0
 20
0.0
 30
0.0
210
0.0
220
0.0
230
1.0
  2
SOLID
 70
     1
 71
     0
 91
        1
 92
        1
 93
        1
 72
     4
 94
        3
 73
     0
 74
     1
 95
       26
 96
       22
 40
0.0
 40
0.0
 40
0.0
 40
0.0
 40
1.0
 40
1.0
 40
1.0
 40
2.0
 40
2.0
 40
2.0
 40
3.0
 40
3.0
 40
3.0
 40
4.0
 40
4.0
 40
4.0
 40
5.0
 40
5.0
 40
5.0
 40
6.0
 40
6.0
 40
6.0
 40
7.0
 40
7.0
 40
7.0
 40
7.0
 10
84.64306774142604
 20
-141.6619818439248
 10
84.64306774142604
 20
-141.6619818439248
 10
84.64306774142604
 20
-140.5578287409022
 10
84.64306774142604
 20
-140.5578287409022
 10
84.64306774142604
 20
-140.5578287409022
 10
84.31302759393911
 20
-140.5578287409022
 10
84.31302759393911
 20
-140.5578287409022
 10
84.31302759393911
 20
-140.5578287409022
 10
84.31302759393911
 20
-140.4096896350365
 10
84.31302759393911
 20
-140.4096896350365
 10
84.6451347987172
 20
-140.3948757244499
 10
84.69164358776807
 20
-140.2319227079976
 10
84.72127140894122
 20
-140.1175455378873
 10
84.72127140894122
 20
-140.1175455378873
 10
84.8673434575158
 20
-140.1175455378873
 10
84.8673434575158
 20
-140.1175455378873
 10
84.8673434575158
 20
-140.1175455378873
 10
84.8673434575158
 20
-141.6619818439248
 10
84.8673434575158
 20
-141.6619818439248
 10
84.8673434575158
 20
-141.6619818439248
 10
84.64306774142604
 20
-141.6619818439248
 10
84.64306774142604
 20
-141.6619818439248
 97
        0
 97
        0
 75
     2
 76
     1
 98
        0
  0
SPLINE
  5
AA
330
A4
100
AcDbEntity
  8
_U+30EC_U+30A4_U+30E4_U+30FC 1
370
     0
100
AcDbSpline
210
0.0
220
0.0
230
1.0
 70
    11
 71
     3
 72
    29
 73
    25
 74
     0
 42
0.0000000001
 43
0.0000000001
 12
1.0
 22
0.0
 32
0.0
 13
1.0
 23
0.0
 33
0.0
 40
0.0
 40
0.0
 40
0.0
 40
0.0
 40
1.0
 40
1.0
 40
1.0
 40
2.0
 40
2.0
 40
2.0
 40
3.0
 40
3.0
 40
3.0
 40
4.0
 40
4.0
 40
4.0
 40
5.0
 40
5.0
 40
5.0
 40
6.0
 40
6.0
 40
6.0
 40
7.0
 40
7.0
 40
7.0
 40
8.0
 40
8.0
 40
8.0
 40
8.0
 10
86.2662244793015
 20
-141.4842149168859
 30
0.0
 10
86.15839299061318
 20
-141.6936767223891
 30
0.0
 10
85.98493243293085
 20
-141.712624747558
 30
0.0
 10
85.86848820552942
 20
-141.712624747558
 30
0.0
 10
85.70777450114251
 20
-141.712624747558
 30
0.0
 10
85.56600882192447
 20
-141.6661159585071
 30
0.0
 10
85.47075193175732
 20
-141.4842149168859
 30
0.0
 10
85.36722681242556
 20
-141.2895670219693
 30
0.0
 10
85.34810653248242
 20
-141.0528889621326
 30
0.0
 10
85.34810653248242
 20
-140.8899359456803
 30
0.0
 10
85.34810653248242
 20
-140.7459309543969
 30
0.0
 10
85.36498750036014
 20
-140.4940944744251
 30
0.0
 10
85.47075193175732
 20
-140.2953124649262
 30
0.0
 10
85.5787556752199
 20
-140.0920518312964
 30
0.0
 10
85.7394693796068
 20
-140.0689696915453
 30
0.0
 10
85.86848820552942
 20
-140.0689696915453
 30
0.0
 10
86.02713485262517
 20
-140.0689696915453
 30
0.0
 10
86.17096758913435
 20
-140.113411423305
 30
0.0
 10
86.2662244793015
 20
-140.2953124649262
 30
0.0
 10
86.36561548405096
 20
-140.4878933025516
 30
0.0
 10
86.3888698785764
 20
-140.7163031332237
 30
0.0
 10
86.3888698785764
 20
-140.8899359456803
 30
0.0
 10
86.3888698785764
 20
-141.0611571912972
 30
0.0
 10
86.36785479611638
 20
-141.2916340792604
 30
0.0
 10
86.2662244793015
 20
-141.4842149168859
 30
0.0
  0
SPLINE
  5
AB
330
A4
100
AcDbEntity
  8
_U+30EC_U+30A4_U+30E4_U+30FC 1
370
     0
100
AcDbSpline
210
0.0
220
0.0
230
1.0
 70
    11
 71
     3
 72
    17
 73
    13
 74
     0
 42
0.0000000001
 43
0.0000000001
 12
1.0
 22
0.0
 32
0.0
 13
1.0
 23
0.0
 33
0.0
 40
0.0
 40
0.0
 40
0.0
 40
0.0
 40
1.0
 40
1.0
 40
1.0
 40
2.0
 40
2.0
 40
2.0
 40
3.0
 40
3.0
 40
3.0
 40
4.0
 40
4.0
 40
4.0
 40
4.0
 10
85.86848820552942
 20
-140.2615505291707
 30
0.0
 10
85.61889103762306
 20
-140.2615505291707
 30
0.0
 10
85.57238224857218
 20
-140.5450818876068
 30
0.0
 10
85.57238224857218
 20
-140.8899359456803
 30
0.0
 10
85.57238224857218
 20
-141.209296297163
 30
0.0
 10
85.60838349639305
 20
-141.5179768526413
 30
0.0
 10
85.86848820552942
 20
-141.5179768526413
 30
0.0
 10
86.1160183161446
 20
-141.5179768526413
 30
0.0
 10
86.16476641726089
 20
-141.236857061045
 30
0.0
 10
86.16476641726089
 20
-140.8899359456803
 30
0.0
 10
86.16476641726089
 20
-140.5702310846491
 30
0.0
 10
86.12669811214889
 20
-140.2615505291707
 30
0.0
 10
85.86848820552942
 20
-140.2615505291707
 30
0.0
  0
HATCH
  5
AC
330
A4
100
AcDbEntity
  8
_U+30EC_U+30A4_U+30E4_U+30FC 1
 62
     7
420
 16777215
100
AcDbHatch
 10
0.0
 20
0.0
 30
0.0
210
0.0
220
0.0
230
1.0
  2
SOLID
 70
     1
 71
     0
 91
        2
 92
        1
 93
        1
 72
     4
 94
        3
 73
     0
 74
     1
 95
       29
 96
       25
 40
0.0
 40
0.0
 40
0.0
 40
0.0
 40
1.0
 40
1.0
 40
1.0
 40
2.0
 40
2.0
 40
2.0
 40
3.0
 40
3.0
 40
3.0
 40
4.0
 40
4.0
 40
4.0
 40
5.0
 40
5.0
 40
5.0
 40
6.0
 40
6.0
 40
6.0
 40
7.0
 40
7.0
 40
7.0
 40
8.0
 40
8.0
 40
8.0
 40
8.0
 10
86.2662244793015
 20
-141.4842149168859
 10
86.15839299061318
 20
-141.6936767223891
 10
85.98493243293085
 20
-141.712624747558
 10
85.86848820552942
 20
-141.712624747558
 10
85.70777450114251
 20
-141.712624747558
 10
85.56600882192447
 20
-141.6661159585071
 10
85.47075193175732
 20
-141.4842149168859
 10
85.36722681242556
 20
-141.2895670219693
 10
85.34810653248242
 20
-141.0528889621326
 10
85.34810653248242
 20
-140.8899359456803
 10
85.34810653248242
 20
-140.7459309543969
 10
85.36498750036014
 20
-140.4940944744251
 10
85.47075193175732
 20
-140.2953124649262
 10
85.5787556752199
 20
-140.0920518312964
 10
85.7394693796068
 20
-140.0689696915453
 10
85.86848820552942
 20
-140.0689696915453
 10
86.02713485262517
 20
-140.0689696915453
 10
86.17096758913435
 20
-140.113411423305
 10
86.2662244793015
 20
-140.2953124649262
 10
86.36561548405096
 20
-140.4878933025516
 10
86.3888698785764
 20
-140.7163031332237
 10
86.3888698785764
 20
-140.8899359456803
 10
86.3888698785764
 20
-141.0611571912972
 10
86.36785479611638
 20
-141.2916340792604
 10
86.2662244793015
 20
-141.4842149168859
 97
        0
 97
        0
 92
        1
 93
        1
 72
     4
 94
        3
 73
     0
 74
     1
 95
       17
 96
       13
 40
0.0
 40
0.0
 40
0.0
 40
0.0
 40
1.0
 40
1.0
 40
1.0
 40
2.0
 40
2.0
 40
2.0
 40
3.0
 40
3.0
 40
3.0
 40
4.0
 40
4.0
 40
4.0
 40
4.0
 10
85.86848820552942
 20
-140.2615505291707
 10
85.61889103762306
 20
-140.2615505291707
 10
85.57238224857218
 20
-140.5450818876068
 10
85.57238224857218
 20
-140.8899359456803
 10
85.57238224857218
 20
-141.209296297163
 10
85.60838349639305
 20
-141.5179768526413
 10
85.86848820552942
 20
-141.5179768526413
 10
86.1160183161446
 20
-141.5179768526413
 10
86.16476641726089
 20
-141.236857061045
 10
86.16476641726089
 20
-140.8899359456803
 10
86.16476641726089
 20
-140.5702310846491
 10
86.12669811214889
 20
-140.2615505291707
 10
85.86848820552942
 20
-140.2615505291707
 97
        0
 97
        0
 75
     2
 76
     1
 98
        0
  0
ENDBLK
  5
A7
330
A4
100
AcDbEntity
  8
0
100
AcDbBlockEnd
  0
BLOCK
  5
BB
330
B9
100
AcDbEntity
  8
0
100
AcDbBlockBegin
  2
block 4
 70
     0
 10
0.0
 20
0.0
 30
0.0
  3
block 4
  1

  0
POLYLINE
  5
BD
330
B9
100
AcDbEntity
  8
_U+30EC_U+30A4_U+30E4_U+30FC 1
370
     0
100
AcDb2dPolyline
 66
     1
 10
0.0
 20
0.0
 30
0.0
  0
VERTEX
  5
BE
330
BD
100
AcDbEntity
  8
_U+30EC_U+30A4_U+30E4_U+30FC 1
370
     0
100
AcDbVertex
100
AcDb2dVertex
 10
88.02391219587597
 20
-116.3153808302962
 30
0.0
  0
VERTEX
  5
BF
330
BD
100
AcDbEntity
  8
_U+30EC_U+30A4_U+30E4_U+30FC 1
370
     0
100
AcDbVertex
100
AcDb2dVertex
 10
88.02391219587597
 20
-116.6623019456608
 30
0.0
  0
VERTEX
  5
C0
330
BD
100
AcDbEntity
  8
_U+30EC_U+30A4_U+30E4_U+30FC 1
370
     0
100
AcDbVertex
100
AcDb2dVertex
 10
87.80618216120818
 20
-116.6623019456608
 30
0.0
  0
VERTEX
  5
C1
330
BD
100
AcDbEntity
  8
_U+30EC_U+30A4_U+30E4_U+30FC 1
370
     0
100
AcDbVertex
100
AcDb2dVertex
 10
87.80618216120818
 20
-116.3153808302962
 30
0.0
  0
VERTEX
  5
C2
330
BD
100
AcDbEntity
  8
_U+30EC_U+30A4_U+30E4_U+30FC 1
370
     0
100
AcDbVertex
100
AcDb2dVertex
 10
87.15023598081662
 20
-116.3153808302962
 30
0.0
  0
VERTEX
  5
C3
330
BD
100
AcDbEntity
  8
_U+30EC_U+30A4_U+30E4_U+30FC 1
370
     0
100
AcDbVertex
100
AcDb2dVertex
 10
87.15023598081662
 20
-116.0911051142064
 30
0.0
  0
VERTEX
  5
C4
330
BD
100
AcDbEntity
  8
_U+30EC_U+30A4_U+30E4_U+30FC 1
370
     0
100
AcDbVertex
100
AcDb2dVertex
 10
87.82926430095935
 20
-115.1180378943976
 30
0.0
  0
VERTEX
  5
C5
330
BD
100
AcDbEntity
  8
_U+30EC_U+30A4_U+30E4_U+30FC 1
370
     0
100
AcDbVertex
100
AcDb2dVertex
 10
88.02391219587597
 20
-115.1180378943976
 30
0.0
  0
VERTEX
  5
C6
330
BD
100
AcDbEntity
  8
_U+30EC_U+30A4_U+30E4_U+30FC 1
370
     0
100
AcDbVertex
100
AcDb2dVertex
 10
88.02391219587597
 20
-116.116426566023
 30
0.0
  0
VERTEX
  5
C7
330
BD
100
AcDbEntity
  8
_U+30EC_U+30A4_U+30E4_U+30FC 1
370
     0
100
AcDbVertex
100
AcDb2dVertex
 10
88.231306944088
 20
-116.116426566023
 30
0.0
  0
VERTEX
  5
C8
330
BD
100
AcDbEntity
  8
_U+30EC_U+30A4_U+30E4_U+30FC 1
370
     0
100
AcDbVertex
100
AcDb2dVertex
 10
88.231306944088
 20
-116.3153808302962
 30
0.0
  0
VERTEX
  5
C9
330
BD
100
AcDbEntity
  8
_U+30EC_U+30A4_U+30E4_U+30FC 1
370
     0
100
AcDbVertex
100
AcDb2dVertex
 10
88.02391219587597
 20
-116.3153808302962
 30
0.0
  0
SEQEND
  5
CA
330
BD
100
AcDbEntity
  8
_U+30EC_U+30A4_U+30E4_U+30FC 1
370
     0
  0
POLYLINE
  5
CB
330
B9
100
AcDbEntity
  8
_U+30EC_U+30A4_U+30E4_U+30FC 1
370
     0
100
AcDb2dPolyline
 66
     1
 10
0.0
 20
0.0
 30
0.0
  0
VERTEX
  5
CC
330
CB
100
AcDbEntity
  8
_U+30EC_U+30A4_U+30E4_U+30FC 1
370
     0
100
AcDbVertex
100
AcDb2dVertex
 10
87.80618216120818
 20
-115.4606526404057
 30
0.0
  0
VERTEX
  5
CD
330
CB
100
AcDbEntity
  8
_U+30EC_U+30A4_U+30E4_U+30FC 1
370
     0
100
AcDbVertex
100
AcDb2dVertex
 10
87.34901799031553
 20
-116.116426566023
 30
0.0
  0
VERTEX
  5
CE
330
CB
100
AcDbEntity
  8
_U+30EC_U+30A4_U+30E4_U+30FC 1
370
     0
100
AcDbVertex
100
AcDb2dVertex
 10
87.80618216120818
 20
-116.116426566023
 30
0.0
  0
VERTEX
  5
CF
330
CB
100
AcDbEntity
  8
_U+30EC_U+30A4_U+30E4_U+30FC 1
370
     0
100
AcDbVertex
100
AcDb2dVertex
 10
87.80618216120818
 20
-115.4606526404057
 30
0.0
  0
SEQEND
  5
D0
330
CB
100
AcDbEntity
  8
_U+30EC_U+30A4_U+30E4_U+30FC 1
370
     0
  0
HATCH
  5
D1
330
B9
100
AcDbEntity
  8
_U+30EC_U+30A4_U+30E4_U+30FC 1
 62
     7
420
 16777215
100
AcDbHatch
 10
0.0
 20
0.0
 30
0.0
210
0.0
220
0.0
230
1.0
  2
SOLID
 70
     1
 71
     0
 91
        2
 92
        1
 93
       11
 72
     1
 10
88.02391219587597
 20
-116.3153808302962
 11
88.02391219587597
 21
-116.6623019456608
 72
     1
 10
88.02391219587597
 20
-116.6623019456608
 11
87.80618216120818
 21
-116.6623019456608
 72
     1
 10
87.80618216120818
 20
-116.6623019456608
 11
87.80618216120818
 21
-116.3153808302962
 72
     1
 10
87.80618216120818
 20
-116.3153808302962
 11
87.15023598081662
 21
-116.3153808302962
 72
     1
 10
87.15023598081662
 20
-116.3153808302962
 11
87.15023598081662
 21
-116.0911051142064
 72
     1
 10
87.15023598081662
 20
-116.0911051142064
 11
87.82926430095935
 21
-115.1180378943976
 72
     1
 10
87.82926430095935
 20
-115.1180378943976
 11
88.02391219587597
 21
-115.1180378943976
 72
     1
 10
88.02391219587597
 20
-115.1180378943976
 11
88.02391219587597
 21
-116.116426566023
 72
     1
 10
88.02391219587597
 20
-116.116426566023
 11
88.231306944088
 21
-116.116426566023
 72
     1
 10
88.231306944088
 20
-116.116426566023
 11
88.231306944088
 21
-116.3153808302962
 72
     1
 10
88.231306944088
 20
-116.3153808302962
 11
88.02391219587597
 21
-116.3153808302962
 97
        0
 92
        1
 93
        3
 72
     1
 10
87.80618216120818
 20
-115.4606526404057
 11
87.34901799031553
 21
-116.116426566023
 72
     1
 10
87.34901799031553
 20
-116.116426566023
 11
87.80618216120818
 21
-116.116426566023
 72
     1
 10
87.80618216120818
 20
-116.116426566023
 11
87.80618216120818
 21
-115.4606526404057
 97
        0
 75
     2
 76
     1
 98
        0
  0
SPLINE
  5
D2
330
B9
100
AcDbEntity
  8
_U+30EC_U+30A4_U+30E4_U+30FC 1
370
     0
100
AcDbSpline
210
0.0
220
0.0
230
1.0
 70
    11
 71
     3
 72
    29
 73
    25
 74
     0
 42
0.0000000001
 43
0.0000000001
 12
1.0
 22
0.0
 32
0.0
 13
1.0
 23
0.0
 33
0.0
 40
0.0
 40
0.0
 40
0.0
 40
0.0
 40
1.0
 40
1.0
 40
1.0
 40
2.0
 40
2.0
 40
2.0
 40
3.0
 40
3.0
 40
3.0
 40
4.0
 40
4.0
 40
4.0
 40
5.0
 40
5.0
 40
5.0
 40
6.0
 40
6.0
 40
6.0
 40
7.0
 40
7.0
 40
7.0
 40
8.0
 40
8.0
 40
8.0
 40
8.0
 10
89.26655813740558
 20
-116.4845350186219
 30
0.0
 10
89.15838213916874
 20
-116.6939968241251
 30
0.0
 10
88.98509383626067
 20
-116.7131171040683
 30
0.0
 10
88.86864960885923
 20
-116.7131171040683
 30
0.0
 10
88.70776364969807
 20
-116.7131171040683
 30
0.0
 10
88.5661702252543
 20
-116.6666083150174
 30
0.0
 10
88.4710855898614
 20
-116.4845350186219
 30
0.0
 10
88.36738821575538
 20
-116.2898871237053
 30
0.0
 10
88.3484401905865
 20
-116.0530368090944
 30
0.0
 10
88.3484401905865
 20
-115.8900837926421
 30
0.0
 10
88.3484401905865
 20
-115.7462510561329
 30
0.0
 10
88.36532115846423
 20
-115.4945868309354
 30
0.0
 10
88.4710855898614
 20
-115.2956325666622
 30
0.0
 10
88.57891707854972
 20
-115.0925441878067
 30
0.0
 10
88.73980303771089
 20
-115.0692897932813
 30
0.0
 10
88.86864960885923
 20
-115.0692897932813
 30
0.0
 10
89.02746851072925
 20
-115.0692897932813
 30
0.0
 10
89.17112899246416
 20
-115.113731525041
 30
0.0
 10
89.26655813740558
 20
-115.2956325666622
 30
0.0
 10
89.36577688738078
 20
-115.4882134042877
 30
0.0
 10
89.38920353668048
 20
-115.7166232349597
 30
0.0
 10
89.38920353668048
 20
-115.8900837926421
 30
0.0
 10
89.38920353668048
 20
-116.0614772930332
 30
0.0
 10
89.36784394467193
 20
-116.2921264357707
 30
0.0
 10
89.26655813740558
 20
-116.4845350186219
 30
0.0
  0
SPLINE
  5
D3
330
B9
100
AcDbEntity
  8
_U+30EC_U+30A4_U+30E4_U+30FC 1
370
     0
100
AcDbSpline
210
0.0
220
0.0
230
1.0
 70
    11
 71
     3
 72
    17
 73
    13
 74
     0
 42
0.0000000001
 43
0.0000000001
 12
1.0
 22
0.0
 32
0.0
 13
1.0
 23
0.0
 33
0.0
 40
0.0
 40
0.0
 40
0.0
 40
0.0
 40
1.0
 40
1.0
 40
1.0
 40
2.0
 40
2.0
 40
2.0
 40
3.0
 40
3.0
 40
3.0
 40
4.0
 40
4.0
 40
4.0
 40
4.0
 10
88.86864960885923
 20
-115.2618706309068
 30
0.0
 10
88.61922469572714
 20
-115.2618706309068
 30
0.0
 10
88.57237139712774
 20
-115.5454019893428
 30
0.0
 10
88.57237139712774
 20
-115.8900837926421
 30
0.0
 10
88.57237139712774
 20
-116.209616398899
 30
0.0
 10
88.60854489972287
 20
-116.5184692091516
 30
0.0
 10
88.86864960885923
 20
-116.5184692091516
 30
0.0
 10
89.11635197424869
 20
-116.5184692091516
 30
0.0
 10
89.16492782059072
 20
-116.2370049080067
 30
0.0
 10
89.16492782059072
 20
-115.8900837926421
 30
0.0
 10
89.16492782059072
 20
-115.5707234411594
 30
0.0
 10
89.12668726070444
 20
-115.2618706309068
 30
0.0
 10
88.86864960885923
 20
-115.2618706309068
 30
0.0
  0
HATCH
  5
D4
330
B9
100
AcDbEntity
  8
_U+30EC_U+30A4_U+30E4_U+30FC 1
 62
     7
420
 16777215
100
AcDbHatch
 10
0.0
 20
0.0
 30
0.0
210
0.0
220
0.0
230
1.0
  2
SOLID
 70
     1
 71
     0
 91
        2
 92
        1
 93
        1
 72
     4
 94
        3
 73
     0
 74
     1
 95
       29
 96
       25
 40
0.0
 40
0.0
 40
0.0
 40
0.0
 40
1.0
 40
1.0
 40
1.0
 40
2.0
 40
2.0
 40
2.0
 40
3.0
 40
3.0
 40
3.0
 40
4.0
 40
4.0
 40
4.0
 40
5.0
 40
5.0
 40
5.0
 40
6.0
 40
6.0
 40
6.0
 40
7.0
 40
7.0
 40
7.0
 40
8.0
 40
8.0
 40
8.0
 40
8.0
 10
89.26655813740558
 20
-116.4845350186219
 10
89.15838213916874
 20
-116.6939968241251
 10
88.98509383626067
 20
-116.7131171040683
 10
88.86864960885923
 20
-116.7131171040683
 10
88.70776364969807
 20
-116.7131171040683
 10
88.5661702252543
 20
-116.6666083150174
 10
88.4710855898614
 20
-116.4845350186219
 10
88.36738821575538
 20
-116.2898871237053
 10
88.3484401905865
 20
-116.0530368090944
 10
88.3484401905865
 20
-115.8900837926421
 10
88.3484401905865
 20
-115.7462510561329
 10
88.36532115846423
 20
-115.4945868309354
 10
88.4710855898614
 20
-115.2956325666622
 10
88.57891707854972
 20
-115.0925441878067
 10
88.73980303771089
 20
-115.0692897932813
 10
88.86864960885923
 20
-115.0692897932813
 10
89.02746851072925
 20
-115.0692897932813
 10
89.17112899246416
 20
-115.113731525041
 10
89.26655813740558
 20
-115.2956325666622
 10
89.36577688738078
 20
-115.4882134042877
 10
89.38920353668048
 20
-115.7166232349597
 10
89.38920353668048
 20
-115.8900837926421
 10
89.38920353668048
 20
-116.0614772930332
 10
89.36784394467193
 20
-116.2921264357707
 10
89.26655813740558
 20
-116.4845350186219
 97
        0
 97
        0
 92
        1
 93
        1
 72
     4
 94
        3
 73
     0
 74
     1
 95
       17
 96
       13
 40
0.0
 40
0.0
 40
0.0
 40
0.0
 40
1.0
 40
1.0
 40
1.0
 40
2.0
 40
2.0
 40
2.0
 40
3.0
 40
3.0
 40
3.0
 40
4.0
 40
4.0
 40
4.0
 40
4.0
 10
88.86864960885923
 20
-115.2618706309068
 10
88.61922469572714
 20
-115.2618706309068
 10
88.57237139712774
 20
-115.5454019893428
 10
88.57237139712774
 20
-115.8900837926421
 10
88.57237139712774
 20
-116.209616398899
 10
88.60854489972287
 20
-116.5184692091516
 10
88.86864960885923
 20
-116.5184692091516
 10
89.11635197424869
 20
-116.5184692091516
 10
89.16492782059072
 20
-116.2370049080067
 10
89.16492782059072
 20
-115.8900837926421
 10
89.16492782059072
 20
-115.5707234411594
 10
89.12668726070444
 20
-115.2618706309068
 10
88.86864960885923
 20
-115.2618706309068
 97
        0
 97
        0
 75
     2
 76
     1
 98
        0
  0
ENDBLK
  5
BC
330
B9
100
AcDbEntity
  8
0
100
AcDbBlockEnd
  0
BLOCK
  5
E3
330
E1
100
AcDbEntity
  8
0
100
AcDbBlockBegin
  2
block 5
 70
     0
 10
0.0
 20
0.0
 30
0.0
  3
block 5
  1

  0
SPLINE
  5
E5
330
E1
100
AcDbEntity
  8
_U+30EC_U+30A4_U+30E4_U+30FC 1
370
     0
100
AcDbSpline
210
0.0
220
0.0
230
1.0
 70
    11
 71
     3
 72
    26
 73
    22
 74
     0
 42
0.0000000001
 43
0.0000000001
 12
1.0
 22
0.0
 32
0.0
 13
1.0
 23
0.0
 33
0.0
 40
0.0
 40
0.0
 40
0.0
 40
0.0
 40
1.0
 40
1.0
 40
1.0
 40
2.0
 40
2.0
 40
2.0
 40
3.0
 40
3.0
 40
3.0
 40
4.0
 40
4.0
 40
4.0
 40
5.0
 40
5.0
 40
5.0
 40
6.0
 40
6.0
 40
6.0
 40
7.0
 40
7.0
 40
7.0
 40
7.0
 10
73.64287785702331
 20
-141.6619818439248
 30
0.0
 10
73.64287785702331
 20
-141.6619818439248
 30
0.0
 10
73.64287785702331
 20
-140.5578287409022
 30
0.0
 10
73.64287785702331
 20
-140.5578287409022
 30
0.0
 10
73.64287785702331
 20
-140.5578287409022
 30
0.0
 10
73.31283770953638
 20
-140.5578287409022
 30
0.0
 10
73.31283770953638
 20
-140.5578287409022
 30
0.0
 10
73.31283770953638
 20
-140.5578287409022
 30
0.0
 10
73.31283770953638
 20
-140.4096896350365
 30
0.0
 10
73.31283770953638
 20
-140.4096896350365
 30
0.0
 10
73.64494491431446
 20
-140.3948757244499
 30
0.0
 10
73.69145370336534
 20
-140.2319227079976
 30
0.0
 10
73.72108152453848
 20
-140.1175455378873
 30
0.0
 10
73.72108152453848
 20
-140.1175455378873
 30
0.0
 10
73.86715357311307
 20
-140.1175455378873
 30
0.0
 10
73.86715357311307
 20
-140.1175455378873
 30
0.0
 10
73.86715357311307
 20
-140.1175455378873
 30
0.0
 10
73.86715357311307
 20
-141.6619818439248
 30
0.0
 10
73.86715357311307
 20
-141.6619818439248
 30
0.0
 10
73.86715357311307
 20
-141.6619818439248
 30
0.0
 10
73.64287785702331
 20
-141.6619818439248
 30
0.0
 10
73.64287785702331
 20
-141.6619818439248
 30
0.0
  0
HATCH
  5
E6
330
E1
100
AcDbEntity
  8
_U+30EC_U+30A4_U+30E4_U+30FC 1
 62
     7
420
 16777215
100
AcDbHatch
 10
0.0
 20
0.0
 30
0.0
210
0.0
220
0.0
230
1.0
  2
SOLID
 70
     1
 71
     0
 91
        1
 92
        1
 93
        1
 72
     4
 94
        3
 73
     0
 74
     1
 95
       26
 96
       22
 40
0.0
 40
0.0
 40
0.0
 40
0.0
 40
1.0
 40
1.0
 40
1.0
 40
2.0
 40
2.0
 40
2.0
 40
3.0
 40
3.0
 40
3.0
 40
4.0
 40
4.0
 40
4.0
 40
5.0
 40
5.0
 40
5.0
 40
6.0
 40
6.0
 40
6.0
 40
7.0
 40
7.0
 40
7.0
 40
7.0
 10
73.64287785702331
 20
-141.6619818439248
 10
73.64287785702331
 20
-141.6619818439248
 10
73.64287785702331
 20
-140.5578287409022
 10
73.64287785702331
 20
-140.5578287409022
 10
73.64287785702331
 20
-140.5578287409022
 10
73.31283770953638
 20
-140.5578287409022
 10
73.31283770953638
 20
-140.5578287409022
 10
73.31283770953638
 20
-140.5578287409022
 10
73.31283770953638
 20
-140.4096896350365
 10
73.31283770953638
 20
-140.4096896350365
 10
73.64494491431446
 20
-140.3948757244499
 10
73.69145370336534
 20
-140.2319227079976
 10
73.72108152453848
 20
-140.1175455378873
 10
73.72108152453848
 20
-140.1175455378873
 10
73.86715357311307
 20
-140.1175455378873
 10
73.86715357311307
 20
-140.1175455378873
 10
73.86715357311307
 20
-140.1175455378873
 10
73.86715357311307
 20
-141.6619818439248
 10
73.86715357311307
 20
-141.6619818439248
 10
73.86715357311307
 20
-141.6619818439248
 10
73.64287785702331
 20
-141.6619818439248
 10
73.64287785702331
 20
-141.6619818439248
 97
        0
 97
        0
 75
     2
 76
     1
 98
        0
  0
SPLINE
  5
E7
330
E1
100
AcDbEntity
  8
_U+30EC_U+30A4_U+30E4_U+30FC 1
370
     0
100
AcDbSpline
210
0.0
220
0.0
230
1.0
 70
    11
 71
     3
 72
    44
 73
    40
 74
     0
 42
0.0000000001
 43
0.0000000001
 12
1.0
 22
0.0
 32
0.0
 13
1.0
 23
0.0
 33
0.0
 40
0.0
 40
0.0
 40
0.0
 40
0.0
 40
1.0
 40
1.0
 40
1.0
 40
2.0
 40
2.0
 40
2.0
 40
3.0
 40
3.0
 40
3.0
 40
4.0
 40
4.0
 40
4.0
 40
5.0
 40
5.0
 40
5.0
 40
6.0
 40
6.0
 40
6.0
 40
7.0
 40
7.0
 40
7.0
 40
8.0
 40
8.0
 40
8.0
 40
9.0
 40
9.0
 40
9.0
 40
10.0
 40
10.0
 40
10.0
 40
11.0
 40
11.0
 40
11.0
 40
12.0
 40
12.0
 40
12.0
 40
13.0
 40
13.0
 40
13.0
 40
13.0
 10
74.96148815400268
 20
-141.0801052164661
 30
0.0
 10
74.74358586456063
 20
-141.2389241183361
 30
0.0
 10
74.65039603168462
 20
-141.312993671269
 30
0.0
 10
74.6018201853426
 20
-141.4566541530039
 30
0.0
 10
74.6018201853426
 20
-141.4566541530039
 30
0.0
 10
75.3802395102348
 20
-141.4566541530039
 30
0.0
 10
75.3802395102348
 20
-141.4566541530039
 30
0.0
 10
75.3802395102348
 20
-141.4566541530039
 30
0.0
 10
75.3802395102348
 20
-141.6619818439248
 30
0.0
 10
75.3802395102348
 20
-141.6619818439248
 30
0.0
 10
75.3802395102348
 20
-141.6619818439248
 30
0.0
 10
74.35222301743626
 20
-141.6619818439248
 30
0.0
 10
74.35222301743626
 20
-141.6619818439248
 30
0.0
 10
74.38391789590055
 20
-141.3043809325559
 30
0.0
 10
74.44954696489457
 20
-141.2261772650407
 30
0.0
 10
74.83453638537124
 20
-140.9278319960181
 30
0.0
 10
75.0905069799253
 20
-140.7290499865191
 30
0.0
 10
75.15596379414504
 20
-140.6611816054597
 30
0.0
 10
75.15596379414504
 20
-140.5237222955982
 30
0.0
 10
75.15596379414504
 20
-140.4052110109056
 30
0.0
 10
75.08413355327758
 20
-140.2742973824662
 30
0.0
 10
74.88741860106981
 20
-140.2742973824662
 30
0.0
 10
74.62714163715918
 20
-140.2742973824662
 30
0.0
 10
74.61870115322033
 20
-140.5047742704294
 30
0.0
 10
74.61439478386377
 20
-140.6212184978308
 30
0.0
 10
74.61439478386377
 20
-140.6212184978308
 30
0.0
 10
74.39029132254826
 20
-140.6212184978308
 30
0.0
 10
74.39029132254826
 20
-140.6212184978308
 30
0.0
 10
74.39873180648712
 20
-140.4940944744251
 30
0.0
 10
74.40923934771713
 20
-140.3821288711545
 30
0.0
 10
74.48968232729773
 20
-140.2636175864619
 30
0.0
 10
74.59958087327719
 20
-140.1030761368492
 30
0.0
 10
74.78578828425495
 20
-140.0689696915453
 30
0.0
 10
74.9022325116564
 20
-140.0689696915453
 30
0.0
 10
75.17939044344475
 20
-140.0689696915453
 30
0.0
 10
75.38661293688251
 20
-140.2529377904576
 30
0.0
 10
75.38661293688251
 20
-140.5257893528894
 30
0.0
 10
75.38661293688251
 20
-140.75454369311
 30
0.0
 10
75.27034096425534
 20
-140.8537624430852
 30
0.0
 10
74.96148815400268
 20
-141.0801052164661
 30
0.0
  0
HATCH
  5
E8
330
E1
100
AcDbEntity
  8
_U+30EC_U+30A4_U+30E4_U+30FC 1
 62
     7
420
 16777215
100
AcDbHatch
 10
0.0
 20
0.0
 30
0.0
210
0.0
220
0.0
230
1.0
  2
SOLID
 70
     1
 71
     0
 91
        1
 92
        1
 93
        1
 72
     4
 94
        3
 73
     0
 74
     1
 95
       44
 96
       40
 40
0.0
 40
0.0
 40
0.0
 40
0.0
 40
1.0
 40
1.0
 40
1.0
 40
2.0
 40
2.0
 40
2.0
 40
3.0
 40
3.0
 40
3.0
 40
4.0
 40
4.0
 40
4.0
 40
5.0
 40
5.0
 40
5.0
 40
6.0
 40
6.0
 40
6.0
 40
7.0
 40
7.0
 40
7.0
 40
8.0
 40
8.0
 40
8.0
 40
9.0
 40
9.0
 40
9.0
 40
10.0
 40
10.0
 40
10.0
 40
11.0
 40
11.0
 40
11.0
 40
12.0
 40
12.0
 40
12.0
 40
13.0
 40
13.0
 40
13.0
 40
13.0
 10
74.96148815400268
 20
-141.0801052164661
 10
74.74358586456063
 20
-141.2389241183361
 10
74.65039603168462
 20
-141.312993671269
 10
74.6018201853426
 20
-141.4566541530039
 10
74.6018201853426
 20
-141.4566541530039
 10
75.3802395102348
 20
-141.4566541530039
 10
75.3802395102348
 20
-141.4566541530039
 10
75.3802395102348
 20
-141.4566541530039
 10
75.3802395102348
 20
-141.6619818439248
 10
75.3802395102348
 20
-141.6619818439248
 10
75.3802395102348
 20
-141.6619818439248
 10
74.35222301743626
 20
-141.6619818439248
 10
74.35222301743626
 20
-141.6619818439248
 10
74.38391789590055
 20
-141.3043809325559
 10
74.44954696489457
 20
-141.2261772650407
 10
74.83453638537124
 20
-140.9278319960181
 10
75.0905069799253
 20
-140.7290499865191
 10
75.15596379414504
 20
-140.6611816054597
 10
75.15596379414504
 20
-140.5237222955982
 10
75.15596379414504
 20
-140.4052110109056
 10
75.08413355327758
 20
-140.2742973824662
 10
74.88741860106981
 20
-140.2742973824662
 10
74.62714163715918
 20
-140.2742973824662
 10
74.61870115322033
 20
-140.5047742704294
 10
74.61439478386377
 20
-140.6212184978308
 10
74.61439478386377
 20
-140.6212184978308
 10
74.39029132254826
 20
-140.6212184978308
 10
74.39029132254826
 20
-140.6212184978308
 10
74.39873180648712
 20
-140.4940944744251
 10
74.40923934771713
 20
-140.3821288711545
 10
74.48968232729773
 20
-140.2636175864619
 10
74.59958087327719
 20
-140.1030761368492
 10
74.78578828425495
 20
-140.0689696915453
 10
74.9022325116564
 20
-140.0689696915453
 10
75.17939044344475
 20
-140.0689696915453
 10
75.38661293688251
 20
-140.2529377904576
 10
75.38661293688251
 20
-140.5257893528894
 10
75.38661293688251
 20
-140.75454369311
 10
75.27034096425534
 20
-140.8537624430852
 10
74.96148815400268
 20
-141.0801052164661
 97
        0
 97
        0
 75
     2
 76
     1
 98
        0
  0
ENDBLK
  5
E4
330
E1
100
AcDbEntity
  8
0
100
AcDbBlockEnd
  0
BLOCK
  5
F3
330
F1
100
AcDbEntity
  8
0
100
AcDbBlockBegin
  2
block 6
 70
     0
 10
0.0
 20
0.0
 30
0.0
  3
block 6
  1

  0
SPLINE
  5
F5
330
F1
100
AcDbEntity
  8
_U+30EC_U+30A4_U+30E4_U+30FC 1
370
     0
100
AcDbSpline
210
0.0
220
0.0
230
1.0
 70
    11
 71
     3
 72
    62
 73
    58
 74
     0
 42
0.0000000001
 43
0.0000000001
 12
1.0
 22
0.0
 32
0.0
 13
1.0
 23
0.0
 33
0.0
 40
0.0
 40
0.0
 40
0.0
 40
0.0
 40
1.0
 40
1.0
 40
1.0
 40
2.0
 40
2.0
 40
2.0
 40
3.0
 40
3.0
 40
3.0
 40
4.0
 40
4.0
 40
4.0
 40
5.0
 40
5.0
 40
5.0
 40
6.0
 40
6.0
 40
6.0
 40
7.0
 40
7.0
 40
7.0
 40
8.0
 40
8.0
 40
8.0
 40
9.0
 40
9.0
 40
9.0
 40
10.0
 40
10.0
 40
10.0
 40
11.0
 40
11.0
 40
11.0
 40
12.0
 40
12.0
 40
12.0
 40
13.0
 40
13.0
 40
13.0
 40
14.0
 40
14.0
 40
14.0
 40
15.0
 40
15.0
 40
15.0
 40
16.0
 40
16.0
 40
16.0
 40
17.0
 40
17.0
 40
17.0
 40
18.0
 40
18.0
 40
18.0
 40
19.0
 40
19.0
 40
19.0
 40
19.0
 10
110.7443169210986
 20
-136.8157660248238
 30
0.0
 10
110.7443169210986
 20
-136.9111951697653
 30
0.0
 10
110.7233018386386
 20
-137.128925204433
 30
0.0
 10
110.5372666824351
 20
-137.2539821705476
 30
0.0
 10
110.424956569616
 20
-137.327707213932
 30
0.0
 10
110.3257378196408
 20
-137.3321858380628
 30
0.0
 10
110.2409884707036
 20
-137.3363199526451
 30
0.0
 10
110.2409884707036
 20
-137.3363199526451
 30
0.0
 10
110.2409884707036
 20
-137.1161783511376
 30
0.0
 10
110.2409884707036
 20
-137.1161783511376
 30
0.0
 10
110.3150580236365
 20
-137.1141112938465
 30
0.0
 10
110.549669026182
 20
-137.1037760073907
 30
0.0
 10
110.549669026182
 20
-136.8202446489547
 30
0.0
 10
110.549669026182
 20
-136.6827853390932
 30
0.0
 10
110.48007809738
 20
-136.5301676090966
 30
0.0
 10
110.2516682667079
 20
-136.5301676090966
 30
0.0
 10
110.1352240393065
 20
-136.5301676090966
 30
0.0
 10
110.0866481929645
 20
-136.5684081689829
 30
0.0
 10
110.0549533145002
 20
-136.6001030474472
 30
0.0
 10
109.9808837615673
 20
-136.6741726003801
 30
0.0
 10
109.9681369082719
 20
-136.7906168277815
 30
0.0
 10
109.9681369082719
 20
-136.845393845997
 30
0.0
 10
109.9681369082719
 20
-136.8646863807144
 30
0.0
 10
109.970203965563
 20
-136.900515373761
 30
0.0
 10
109.9743380801453
 20
-136.928076137643
 30
0.0
 10
109.9743380801453
 20
-136.928076137643
 30
0.0
 10
109.7796901852287
 20
-136.928076137643
 30
0.0
 10
109.7796901852287
 20
-136.928076137643
 30
0.0
 10
109.7862358666507
 20
-136.8898355777567
 30
0.0
 10
109.7883029239418
 20
-136.8478054128367
 30
0.0
 10
109.7883029239418
 20
-136.8412597314147
 30
0.0
 10
109.7883029239418
 20
-136.7758029171949
 30
0.0
 10
109.7669433319333
 20
-136.577020907696
 30
0.0
 10
109.5302652720966
 20
-136.577020907696
 30
0.0
 10
109.3524983450577
 20
-136.577020907696
 30
0.0
 10
109.2973768172937
 20
-136.7079345361355
 30
0.0
 10
109.2973768172937
 20
-136.8181775916635
 30
0.0
 10
109.2973768172937
 20
-137.0824164153822
 30
0.0
 10
109.5302652720966
 20
-137.0910291540953
 30
0.0
 10
109.6019232581898
 20
-137.0951632686776
 30
0.0
 10
109.6019232581898
 20
-137.0951632686776
 30
0.0
 10
109.6019232581898
 20
-137.2984239023073
 30
0.0
 10
109.6019232581898
 20
-137.2984239023073
 30
0.0
 10
109.4772108016238
 20
-137.2898111635942
 30
0.0
 10
109.100661865086
 20
-137.2622503997122
 30
0.0
 10
109.100661865086
 20
-136.8054307383681
 30
0.0
 10
109.100661865086
 20
-136.5811550222783
 30
0.0
 10
109.2277858884917
 20
-136.3399983383108
 30
0.0
 10
109.5237195906746
 20
-136.3399983383108
 30
0.0
 10
109.7100992564266
 20
-136.3399983383108
 30
0.0
 10
109.7924370385241
 20
-136.4350829737037
 30
0.0
 10
109.8537597381616
 20
-136.5346462332274
 30
0.0
 10
109.8813205020436
 20
-136.47332353359
 30
0.0
 10
109.9615912268499
 20
-136.2914224919688
 30
0.0
 10
110.2389214134125
 20
-136.2914224919688
 30
0.0
 10
110.577229790064
 20
-136.2914224919688
 30
0.0
 10
110.7443169210986
 20
-136.5387803478098
 30
0.0
 10
110.7443169210986
 20
-136.8157660248238
 30
0.0
  0
HATCH
  5
F6
330
F1
100
AcDbEntity
  8
_U+30EC_U+30A4_U+30E4_U+30FC 1
 62
     7
420
 16777215
100
AcDbHatch
 10
0.0
 20
0.0
 30
0.0
210
0.0
220
0.0
230
1.0
  2
SOLID
 70
     1
 71
     0
 91
        1
 92
        1
 93
        1
 72
     4
 94
        3
 73
     0
 74
     1
 95
       62
 96
       58
 40
0.0
 40
0.0
 40
0.0
 40
0.0
 40
1.0
 40
1.0
 40
1.0
 40
2.0
 40
2.0
 40
2.0
 40
3.0
 40
3.0
 40
3.0
 40
4.0
 40
4.0
 40
4.0
 40
5.0
 40
5.0
 40
5.0
 40
6.0
 40
6.0
 40
6.0
 40
7.0
 40
7.0
 40
7.0
 40
8.0
 40
8.0
 40
8.0
 40
9.0
 40
9.0
 40
9.0
 40
10.0
 40
10.0
 40
10.0
 40
11.0
 40
11.0
 40
11.0
 40
12.0
 40
12.0
 40
12.0
 40
13.0
 40
13.0
 40
13.0
 40
14.0
 40
14.0
 40
14.0
 40
15.0
 40
15.0
 40
15.0
 40
16.0
 40
16.0
 40
16.0
 40
17.0
 40
17.0
 40
17.0
 40
18.0
 40
18.0
 40
18.0
 40
19.0
 40
19.0
 40
19.0
 40
19.0
 10
110.7443169210986
 20
-136.8157660248238
 10
110.7443169210986
 20
-136.9111951697653
 10
110.7233018386386
 20
-137.128925204433
 10
110.5372666824351
 20
-137.2539821705476
 10
110.424956569616
 20
-137.327707213932
 10
110.3257378196408
 20
-137.3321858380628
 10
110.2409884707036
 20
-137.3363199526451
 10
110.2409884707036
 20
-137.3363199526451
 10
110.2409884707036
 20
-137.1161783511376
 10
110.2409884707036
 20
-137.1161783511376
 10
110.3150580236365
 20
-137.1141112938465
 10
110.549669026182
 20
-137.1037760073907
 10
110.549669026182
 20
-136.8202446489547
 10
110.549669026182
 20
-136.6827853390932
 10
110.48007809738
 20
-136.5301676090966
 10
110.2516682667079
 20
-136.5301676090966
 10
110.1352240393065
 20
-136.5301676090966
 10
110.0866481929645
 20
-136.5684081689829
 10
110.0549533145002
 20
-136.6001030474472
 10
109.9808837615673
 20
-136.6741726003801
 10
109.9681369082719
 20
-136.7906168277815
 10
109.9681369082719
 20
-136.845393845997
 10
109.9681369082719
 20
-136.8646863807144
 10
109.970203965563
 20
-136.900515373761
 10
109.9743380801453
 20
-136.928076137643
 10
109.9743380801453
 20
-136.928076137643
 10
109.7796901852287
 20
-136.928076137643
 10
109.7796901852287
 20
-136.928076137643
 10
109.7862358666507
 20
-136.8898355777567
 10
109.7883029239418
 20
-136.8478054128367
 10
109.7883029239418
 20
-136.8412597314147
 10
109.7883029239418
 20
-136.7758029171949
 10
109.7669433319333
 20
-136.577020907696
 10
109.5302652720966
 20
-136.577020907696
 10
109.3524983450577
 20
-136.577020907696
 10
109.2973768172937
 20
-136.7079345361355
 10
109.2973768172937
 20
-136.8181775916635
 10
109.2973768172937
 20
-137.0824164153822
 10
109.5302652720966
 20
-137.0910291540953
 10
109.6019232581898
 20
-137.0951632686776
 10
109.6019232581898
 20
-137.0951632686776
 10
109.6019232581898
 20
-137.2984239023073
 10
109.6019232581898
 20
-137.2984239023073
 10
109.4772108016238
 20
-137.2898111635942
 10
109.100661865086
 20
-137.2622503997122
 10
109.100661865086
 20
-136.8054307383681
 10
109.100661865086
 20
-136.5811550222783
 10
109.2277858884917
 20
-136.3399983383108
 10
109.5237195906746
 20
-136.3399983383108
 10
109.7100992564266
 20
-136.3399983383108
 10
109.7924370385241
 20
-136.4350829737037
 10
109.8537597381616
 20
-136.5346462332274
 10
109.8813205020436
 20
-136.47332353359
 10
109.9615912268499
 20
-136.2914224919688
 10
110.2389214134125
 20
-136.2914224919688
 10
110.577229790064
 20
-136.2914224919688
 10
110.7443169210986
 20
-136.5387803478098
 10
110.7443169210986
 20
-136.8157660248238
 97
        0
 97
        0
 75
     2
 76
     1
 98
        0
  0
ENDBLK
  5
F4
330
F1
100
AcDbEntity
  8
0
100
AcDbBlockEnd
  0
BLOCK
  5
101
330
FF
100
AcDbEntity
  8
0
100
AcDbBlockBegin
  2
block 7
 70
     0
 10
0.0
 20
0.0
 30
0.0
  3
block 7
  1

  0
SPLINE
  5
103
330
FF
100
AcDbEntity
  8
_U+30EC_U+30A4_U+30E4_U+30FC 1
370
     0
100
AcDbSpline
210
0.0
220
0.0
230
1.0
 70
    11
 71
     3
 72
    26
 73
    22
 74
     0
 42
0.0000000001
 43
0.0000000001
 12
1.0
 22
0.0
 32
0.0
 13
1.0
 23
0.0
 33
0.0
 40
0.0
 40
0.0
 40
0.0
 40
0.0
 40
1.0
 40
1.0
 40
1.0
 40
2.0
 40
2.0
 40
2.0
 40
3.0
 40
3.0
 40
3.0
 40
4.0
 40
4.0
 40
4.0
 40
5.0
 40
5.0
 40
5.0
 40
6.0
 40
6.0
 40
6.0
 40
7.0
 40
7.0
 40
7.0
 40
7.0
 10
110.6936740174655
 20
-129.4449842341318
 30
0.0
 10
110.6936740174655
 20
-129.4449842341318
 30
0.0
 10
109.5895209144429
 20
-129.4449842341318
 30
0.0
 10
109.5895209144429
 20
-129.4449842341318
 30
0.0
 10
109.5895209144429
 20
-129.4449842341318
 30
0.0
 10
109.5895209144429
 20
-129.7750243816187
 30
0.0
 10
109.5895209144429
 20
-129.7750243816187
 30
0.0
 10
109.5895209144429
 20
-129.7750243816187
 30
0.0
 10
109.4413818085772
 20
-129.7750243816187
 30
0.0
 10
109.4413818085772
 20
-129.7750243816187
 30
0.0
 10
109.4265678979906
 20
-129.4429171768407
 30
0.0
 10
109.2636148815383
 20
-129.3964083877898
 30
0.0
 10
109.149237711428
 20
-129.3667805666167
 30
0.0
 10
109.149237711428
 20
-129.3667805666167
 30
0.0
 10
109.149237711428
 20
-129.220708518042
 30
0.0
 10
109.149237711428
 20
-129.220708518042
 30
0.0
 10
109.149237711428
 20
-129.220708518042
 30
0.0
 10
110.6936740174655
 20
-129.220708518042
 30
0.0
 10
110.6936740174655
 20
-129.220708518042
 30
0.0
 10
110.6936740174655
 20
-129.220708518042
 30
0.0
 10
110.6936740174655
 20
-129.4449842341318
 30
0.0
 10
110.6936740174655
 20
-129.4449842341318
 30
0.0
  0
HATCH
  5
104
330
FF
100
AcDbEntity
  8
_U+30EC_U+30A4_U+30E4_U+30FC 1
 62
     7
420
 16777215
100
AcDbHatch
 10
0.0
 20
0.0
 30
0.0
210
0.0
220
0.0
230
1.0
  2
SOLID
 70
     1
 71
     0
 91
        1
 92
        1
 93
        1
 72
     4
 94
        3
 73
     0
 74
     1
 95
       26
 96
       22
 40
0.0
 40
0.0
 40
0.0
 40
0.0
 40
1.0
 40
1.0
 40
1.0
 40
2.0
 40
2.0
 40
2.0
 40
3.0
 40
3.0
 40
3.0
 40
4.0
 40
4.0
 40
4.0
 40
5.0
 40
5.0
 40
5.0
 40
6.0
 40
6.0
 40
6.0
 40
7.0
 40
7.0
 40
7.0
 40
7.0
 10
110.6936740174655
 20
-129.4449842341318
 10
110.6936740174655
 20
-129.4449842341318
 10
109.5895209144429
 20
-129.4449842341318
 10
109.5895209144429
 20
-129.4449842341318
 10
109.5895209144429
 20
-129.4449842341318
 10
109.5895209144429
 20
-129.7750243816187
 10
109.5895209144429
 20
-129.7750243816187
 10
109.5895209144429
 20
-129.7750243816187
 10
109.4413818085772
 20
-129.7750243816187
 10
109.4413818085772
 20
-129.7750243816187
 10
109.4265678979906
 20
-129.4429171768407
 10
109.2636148815383
 20
-129.3964083877898
 10
109.149237711428
 20
-129.3667805666167
 10
109.149237711428
 20
-129.3667805666167
 10
109.149237711428
 20
-129.220708518042
 10
109.149237711428
 20
-129.220708518042
 10
109.149237711428
 20
-129.220708518042
 10
110.6936740174655
 20
-129.220708518042
 10
110.6936740174655
 20
-129.220708518042
 10
110.6936740174655
 20
-129.220708518042
 10
110.6936740174655
 20
-129.4449842341318
 10
110.6936740174655
 20
-129.4449842341318
 97
        0
 97
        0
 75
     2
 76
     1
 98
        0
  0
SPLINE
  5
105
330
FF
100
AcDbEntity
  8
_U+30EC_U+30A4_U+30E4_U+30FC 1
370
     0
100
AcDbSpline
210
0.0
220
0.0
230
1.0
 70
    11
 71
     3
 72
    62
 73
    58
 74
     0
 42
0.0000000001
 43
0.0000000001
 12
1.0
 22
0.0
 32
0.0
 13
1.0
 23
0.0
 33
0.0
 40
0.0
 40
0.0
 40
0.0
 40
0.0
 40
1.0
 40
1.0
 40
1.0
 40
2.0
 40
2.0
 40
2.0
 40
3.0
 40
3.0
 40
3.0
 40
4.0
 40
4.0
 40
4.0
 40
5.0
 40
5.0
 40
5.0
 40
6.0
 40
6.0
 40
6.0
 40
7.0
 40
7.0
 40
7.0
 40
8.0
 40
8.0
 40
8.0
 40
9.0
 40
9.0
 40
9.0
 40
10.0
 40
10.0
 40
10.0
 40
11.0
 40
11.0
 40
11.0
 40
12.0
 40
12.0
 40
12.0
 40
13.0
 40
13.0
 40
13.0
 40
14.0
 40
14.0
 40
14.0
 40
15.0
 40
15.0
 40
15.0
 40
16.0
 40
16.0
 40
16.0
 40
17.0
 40
17.0
 40
17.0
 40
18.0
 40
18.0
 40
18.0
 40
19.0
 40
19.0
 40
19.0
 40
19.0
 10
110.7443169210986
 20
-128.2278319991931
 30
0.0
 10
110.7443169210986
 20
-128.3232611441345
 30
0.0
 10
110.7233018386386
 20
-128.5409911788022
 30
0.0
 10
110.5372666824351
 20
-128.6660481449168
 30
0.0
 10
110.424956569616
 20
-128.7397731883012
 30
0.0
 10
110.3257378196408
 20
-128.744251812432
 30
0.0
 10
110.2409884707036
 20
-128.7483859270143
 30
0.0
 10
110.2409884707036
 20
-128.7483859270143
 30
0.0
 10
110.2409884707036
 20
-128.5282443255068
 30
0.0
 10
110.2409884707036
 20
-128.5282443255068
 30
0.0
 10
110.3150580236365
 20
-128.5261772682157
 30
0.0
 10
110.549669026182
 20
-128.5158419817599
 30
0.0
 10
110.549669026182
 20
-128.2323106233239
 30
0.0
 10
110.549669026182
 20
-128.0948513134624
 30
0.0
 10
110.48007809738
 20
-127.9422335834658
 30
0.0
 10
110.2516682667079
 20
-127.9422335834658
 30
0.0
 10
110.1352240393065
 20
-127.9422335834658
 30
0.0
 10
110.0866481929645
 20
-127.9804741433521
 30
0.0
 10
110.0549533145002
 20
-128.0121690218164
 30
0.0
 10
109.9808837615673
 20
-128.0862385747493
 30
0.0
 10
109.9681369082719
 20
-128.2026828021507
 30
0.0
 10
109.9681369082719
 20
-128.2574598203662
 30
0.0
 10
109.9681369082719
 20
-128.2767523550836
 30
0.0
 10
109.970203965563
 20
-128.3125813481302
 30
0.0
 10
109.9743380801453
 20
-128.3401421120122
 30
0.0
 10
109.9743380801453
 20
-128.3401421120122
 30
0.0
 10
109.7796901852287
 20
-128.3401421120122
 30
0.0
 10
109.7796901852287
 20
-128.3401421120122
 30
0.0
 10
109.7862358666507
 20
-128.3019015521259
 30
0.0
 10
109.7883029239418
 20
-128.2598713872059
 30
0.0
 10
109.7883029239418
 20
-128.2533257057839
 30
0.0
 10
109.7883029239418
 20
-128.1878688915641
 30
0.0
 10
109.7669433319333
 20
-127.9890868820652
 30
0.0
 10
109.5302652720966
 20
-127.9890868820652
 30
0.0
 10
109.3524983450577
 20
-127.9890868820652
 30
0.0
 10
109.2973768172937
 20
-128.1200005105047
 30
0.0
 10
109.2973768172937
 20
-128.2302435660327
 30
0.0
 10
109.2973768172937
 20
-128.4944823897514
 30
0.0
 10
109.5302652720966
 20
-128.5030951284645
 30
0.0
 10
109.6019232581898
 20
-128.5072292430468
 30
0.0
 10
109.6019232581898
 20
-128.5072292430468
 30
0.0
 10
109.6019232581898
 20
-128.7104898766765
 30
0.0
 10
109.6019232581898
 20
-128.7104898766765
 30
0.0
 10
109.4772108016238
 20
-128.7018771379634
 30
0.0
 10
109.100661865086
 20
-128.6743163740814
 30
0.0
 10
109.100661865086
 20
-128.2174967127373
 30
0.0
 10
109.100661865086
 20
-127.9932209966475
 30
0.0
 10
109.2277858884917
 20
-127.75206431268
 30
0.0
 10
109.5237195906746
 20
-127.75206431268
 30
0.0
 10
109.7100992564266
 20
-127.75206431268
 30
0.0
 10
109.7924370385241
 20
-127.8471489480729
 30
0.0
 10
109.8537597381616
 20
-127.9467122075967
 30
0.0
 10
109.8813205020436
 20
-127.8853895079592
 30
0.0
 10
109.9615912268499
 20
-127.703488466338
 30
0.0
 10
110.2389214134125
 20
-127.703488466338
 30
0.0
 10
110.577229790064
 20
-127.703488466338
 30
0.0
 10
110.7443169210986
 20
-127.950846322179
 30
0.0
 10
110.7443169210986
 20
-128.2278319991931
 30
0.0
  0
HATCH
  5
106
330
FF
100
AcDbEntity
  8
_U+30EC_U+30A4_U+30E4_U+30FC 1
 62
     7
420
 16777215
100
AcDbHatch
 10
0.0
 20
0.0
 30
0.0
210
0.0
220
0.0
230
1.0
  2
SOLID
 70
     1
 71
     0
 91
        1
 92
        1
 93
        1
 72
     4
 94
        3
 73
     0
 74
     1
 95
       62
 96
       58
 40
0.0
 40
0.0
 40
0.0
 40
0.0
 40
1.0
 40
1.0
 40
1.0
 40
2.0
 40
2.0
 40
2.0
 40
3.0
 40
3.0
 40
3.0
 40
4.0
 40
4.0
 40
4.0
 40
5.0
 40
5.0
 40
5.0
 40
6.0
 40
6.0
 40
6.0
 40
7.0
 40
7.0
 40
7.0
 40
8.0
 40
8.0
 40
8.0
 40
9.0
 40
9.0
 40
9.0
 40
10.0
 40
10.0
 40
10.0
 40
11.0
 40
11.0
 40
11.0
 40
12.0
 40
12.0
 40
12.0
 40
13.0
 40
13.0
 40
13.0
 40
14.0
 40
14.0
 40
14.0
 40
15.0
 40
15.0
 40
15.0
 40
16.0
 40
16.0
 40
16.0
 40
17.0
 40
17.0
 40
17.0
 40
18.0
 40
18.0
 40
18.0
 40
19.0
 40
19.0
 40
19.0
 40
19.0
 10
110.7443169210986
 20
-128.2278319991931
 10
110.7443169210986
 20
-128.3232611441345
 10
110.7233018386386
 20
-128.5409911788022
 10
110.5372666824351
 20
-128.6660481449168
 10
110.424956569616
 20
-128.7397731883012
 10
110.3257378196408
 20
-128.744251812432
 10
110.2409884707036
 20
-128.7483859270143
 10
110.2409884707036
 20
-128.7483859270143
 10
110.2409884707036
 20
-128.5282443255068
 10
110.2409884707036
 20
-128.5282443255068
 10
110.3150580236365
 20
-128.5261772682157
 10
110.549669026182
 20
-128.5158419817599
 10
110.549669026182
 20
-128.2323106233239
 10
110.549669026182
 20
-128.0948513134624
 10
110.48007809738
 20
-127.9422335834658
 10
110.2516682667079
 20
-127.9422335834658
 10
110.1352240393065
 20
-127.9422335834658
 10
110.0866481929645
 20
-127.9804741433521
 10
110.0549533145002
 20
-128.0121690218164
 10
109.9808837615673
 20
-128.0862385747493
 10
109.9681369082719
 20
-128.2026828021507
 10
109.9681369082719
 20
-128.2574598203662
 10
109.9681369082719
 20
-128.2767523550836
 10
109.970203965563
 20
-128.3125813481302
 10
109.9743380801453
 20
-128.3401421120122
 10
109.9743380801453
 20
-128.3401421120122
 10
109.7796901852287
 20
-128.3401421120122
 10
109.7796901852287
 20
-128.3401421120122
 10
109.7862358666507
 20
-128.3019015521259
 10
109.7883029239418
 20
-128.2598713872059
 10
109.7883029239418
 20
-128.2533257057839
 10
109.7883029239418
 20
-128.1878688915641
 10
109.7669433319333
 20
-127.9890868820652
 10
109.5302652720966
 20
-127.9890868820652
 10
109.3524983450577
 20
-127.9890868820652
 10
109.2973768172937
 20
-128.1200005105047
 10
109.2973768172937
 20
-128.2302435660327
 10
109.2973768172937
 20
-128.4944823897514
 10
109.5302652720966
 20
-128.5030951284645
 10
109.6019232581898
 20
-128.5072292430468
 10
109.6019232581898
 20
-128.5072292430468
 10
109.6019232581898
 20
-128.7104898766765
 10
109.6019232581898
 20
-128.7104898766765
 10
109.4772108016238
 20
-128.7018771379634
 10
109.100661865086
 20
-128.6743163740814
 10
109.100661865086
 20
-128.2174967127373
 10
109.100661865086
 20
-127.9932209966475
 10
109.2277858884917
 20
-127.75206431268
 10
109.5237195906746
 20
-127.75206431268
 10
109.7100992564266
 20
-127.75206431268
 10
109.7924370385241
 20
-127.8471489480729
 10
109.8537597381616
 20
-127.9467122075967
 10
109.8813205020436
 20
-127.8853895079592
 10
109.9615912268499
 20
-127.703488466338
 10
110.2389214134125
 20
-127.703488466338
 10
110.577229790064
 20
-127.703488466338
 10
110.7443169210986
 20
-127.950846322179
 10
110.7443169210986
 20
-128.2278319991931
 97
        0
 97
        0
 75
     2
 76
     1
 98
        0
  0
ENDBLK
  5
102
330
FF
100
AcDbEntity
  8
0
100
AcDbBlockEnd
  0
ENDSEC
  0
SECTION
  2
ENTITIES
  0
SPLINE
  5
41
330
1F
100
AcDbEntity
  8
_U+30EC_U+30A4_U+30E4_U+30FC 1
370
     0
100
AcDbSpline
210
0.0
220
0.0
230
1.0
 70
    11
 71
     3
 72
    62
 73
    58
 74
     0
 42
0.0000000001
 43
0.0000000001
 12
1.0
 22
0.0
 32
0.0
 13
1.0
 23
0.0
 33
0.0
 40
0.0
 40
0.0
 40
0.0
 40
0.0
 40
1.0
 40
1.0
 40
1.0
 40
2.0
 40
2.0
 40
2.0
 40
3.0
 40
3.0
 40
3.0
 40
4.0
 40
4.0
 40
4.0
 40
5.0
 40
5.0
 40
5.0
 40
6.0
 40
6.0
 40
6.0
 40
7.0
 40
7.0
 40
7.0
 40
8.0
 40
8.0
 40
8.0
 40
9.0
 40
9.0
 40
9.0
 40
10.0
 40
10.0
 40
10.0
 40
11.0
 40
11.0
 40
11.0
 40
12.0
 40
12.0
 40
12.0
 40
13.0
 40
13.0
 40
13.0
 40
14.0
 40
14.0
 40
14.0
 40
15.0
 40
15.0
 40
15.0
 40
16.0
 40
16.0
 40
16.0
 40
17.0
 40
17.0
 40
17.0
 40
18.0
 40
18.0
 40
18.0
 40
19.0
 40
19.0
 40
19.0
 40
19.0
 10
68.28041936913249
 20
-122.3077733027564
 30
0.0
 10
68.28041936913249
 20
-122.3077733027564
 30
0.0
 10
80.2803668407661
 20
-122.3077733027564
 30
0.0
 10
80.2803668407661
 20
-122.3077733027564
 30
0.0
 10
80.2803668407661
 20
-122.3077733027564
 30
0.0
 10
80.2803668407661
 20
-138.3078330209787
 30
0.0
 10
80.2803668407661
 20
-138.3078330209787
 30
0.0
 10
80.2803668407661
 20
-138.3078330209787
 30
0.0
 10
90.28009964120722
 20
-138.3078330209787
 30
0.0
 10
90.28009964120722
 20
-138.3078330209787
 30
0.0
 10
90.28009964120722
 20
-138.3078330209787
 30
0.0
 10
90.28009964120722
 20
-135.3078460772844
 30
0.0
 10
90.28009964120722
 20
-135.3078460772844
 30
0.0
 10
90.28009964120722
 20
-135.3078460772844
 30
0.0
 10
89.2803274444913
 20
-135.3078460772844
 30
0.0
 10
89.2803274444913
 20
-135.3078460772844
 30
0.0
 10
89.2803274444913
 20
-135.3078460772844
 30
0.0
 10
89.2803274444913
 20
-137.3080607990062
 30
0.0
 10
89.2803274444913
 20
-137.3080607990062
 30
0.0
 10
89.2803274444913
 20
-137.3080607990062
 30
0.0
 10
81.18023237336418
 20
-137.3080607990062
 30
0.0
 10
81.18023237336418
 20
-137.3080607990062
 30
0.0
 10
81.18023237336418
 20
-137.3080607990062
 30
0.0
 10
81.18023237336418
 20
-122.3077733027564
 30
0.0
 10
81.18023237336418
 20
-122.3077733027564
 30
0.0
 10
81.18023237336418
 20
-122.3077733027564
 30
0.0
 10
99.48230773977266
 20
-122.3077733027564
 30
0.0
 10
99.48230773977266
 20
-122.3077733027564
 30
0.0
 10
99.49264412839786
 20
-122.3890885805137
 30
0.0
 10
99.55120523801494
 20
-122.4559046916082
 30
0.0
 10
99.63044164175886
 20
-122.476259969381
 30
0.0
 10
99.79441023181026
 20
-122.5186285804816
 30
0.0
 10
99.9666716163044
 20
-122.5186285804816
 30
0.0
 10
100.1306805305226
 20
-122.476259969381
 30
0.0
 10
100.218874974945
 20
-122.4535058027199
 30
0.0
 10
100.2801852194171
 20
-122.3739191360732
 30
0.0
 10
100.2801852194171
 20
-122.2826202472073
 30
0.0
 10
100.2801852194171
 20
-122.3739191360732
 30
0.0
 10
100.3422035511682
 20
-122.4535058027199
 30
0.0
 10
100.4303979933626
 20
-122.476259969381
 30
0.0
 10
100.5943691002905
 20
-122.5186285804816
 30
0.0
 10
100.7666304847846
 20
-122.5186285804816
 30
0.0
 10
100.9306015917125
 20
-122.476259969381
 30
0.0
 10
101.00983547858
 20
-122.4559046916082
 30
0.0
 10
101.0684318659739
 20
-122.3890885805137
 30
0.0
 10
101.0787682545991
 20
-122.3077733027564
 30
0.0
 10
101.0787682545991
 20
-122.3077733027564
 30
0.0
 10
108.2803736264264
 20
-122.3077733027564
 30
0.0
 10
108.2803736264264
 20
-122.3077733027564
 30
0.0
 10
108.2803736264264
 20
-122.3077733027564
 30
0.0
 10
108.2803736264264
 20
-121.3080010807842
 30
0.0
 10
108.2803736264264
 20
-121.3080010807842
 30
0.0
 10
108.2803736264264
 20
-121.3080010807842
 30
0.0
 10
68.28041936913249
 20
-121.3080010807842
 30
0.0
 10
68.28041936913249
 20
-121.3080010807842
 30
0.0
 10
68.28041936913249
 20
-121.3080010807842
 30
0.0
 10
68.28041936913249
 20
-122.3077733027564
 30
0.0
 10
68.28041936913249
 20
-122.3077733027564
 30
0.0
  0
HATCH
  5
42
330
1F
100
AcDbEntity
  8
_U+30EC_U+30A4_U+30E4_U+30FC 1
 62
   253
420
 11711154
100
AcDbHatch
 10
0.0
 20
0.0
 30
0.0
210
0.0
220
0.0
230
1.0
  2
SOLID
 70
     1
 71
     0
 91
        1
 92
        1
 93
        1
 72
     4
 94
        3
 73
     0
 74
     1
 95
       62
 96
       58
 40
0.0
 40
0.0
 40
0.0
 40
0.0
 40
1.0
 40
1.0
 40
1.0
 40
2.0
 40
2.0
 40
2.0
 40
3.0
 40
3.0
 40
3.0
 40
4.0
 40
4.0
 40
4.0
 40
5.0
 40
5.0
 40
5.0
 40
6.0
 40
6.0
 40
6.0
 40
7.0
 40
7.0
 40
7.0
 40
8.0
 40
8.0
 40
8.0
 40
9.0
 40
9.0
 40
9.0
 40
10.0
 40
10.0
 40
10.0
 40
11.0
 40
11.0
 40
11.0
 40
12.0
 40
12.0
 40
12.0
 40
13.0
 40
13.0
 40
13.0
 40
14.0
 40
14.0
 40
14.0
 40
15.0
 40
15.0
 40
15.0
 40
16.0
 40
16.0
 40
16.0
 40
17.0
 40
17.0
 40
17.0
 40
18.0
 40
18.0
 40
18.0
 40
19.0
 40
19.0
 40
19.0
 40
19.0
 10
68.28041936913249
 20
-122.3077733027564
 10
68.28041936913249
 20
-122.3077733027564
 10
80.2803668407661
 20
-122.3077733027564
 10
80.2803668407661
 20
-122.3077733027564
 10
80.2803668407661
 20
-122.3077733027564
 10
80.2803668407661
 20
-138.3078330209787
 10
80.2803668407661
 20
-138.3078330209787
 10
80.2803668407661
 20
-138.3078330209787
 10
90.28009964120722
 20
-138.3078330209787
 10
90.28009964120722
 20
-138.3078330209787
 10
90.28009964120722
 20
-138.3078330209787
 10
90.28009964120722
 20
-135.3078460772844
 10
90.28009964120722
 20
-135.3078460772844
 10
90.28009964120722
 20
-135.3078460772844
 10
89.2803274444913
 20
-135.3078460772844
 10
89.2803274444913
 20
-135.3078460772844
 10
89.2803274444913
 20
-135.3078460772844
 10
89.2803274444913
 20
-137.3080607990062
 10
89.2803274444913
 20
-137.3080607990062
 10
89.2803274444913
 20
-137.3080607990062
 10
81.18023237336418
 20
-137.3080607990062
 10
81.18023237336418
 20
-137.3080607990062
 10
81.18023237336418
 20
-137.3080607990062
 10
81.18023237336418
 20
-122.3077733027564
 10
81.18023237336418
 20
-122.3077733027564
 10
81.18023237336418
 20
-122.3077733027564
 10
99.48230773977266
 20
-122.3077733027564
 10
99.48230773977266
 20
-122.3077733027564
 10
99.49264412839786
 20
-122.3890885805137
 10
99.55120523801494
 20
-122.4559046916082
 10
99.63044164175886
 20
-122.476259969381
 10
99.79441023181026
 20
-122.5186285804816
 10
99.9666716163044
 20
-122.5186285804816
 10
100.1306805305226
 20
-122.476259969381
 10
100.218874974945
 20
-122.4535058027199
 10
100.2801852194171
 20
-122.3739191360732
 10
100.2801852194171
 20
-122.2826202472073
 10
100.2801852194171
 20
-122.3739191360732
 10
100.3422035511682
 20
-122.4535058027199
 10
100.4303979933626
 20
-122.476259969381
 10
100.5943691002905
 20
-122.5186285804816
 10
100.7666304847846
 20
-122.5186285804816
 10
100.9306015917125
 20
-122.476259969381
 10
101.00983547858
 20
-122.4559046916082
 10
101.0684318659739
 20
-122.3890885805137
 10
101.0787682545991
 20
-122.3077733027564
 10
101.0787682545991
 20
-122.3077733027564
 10
108.2803736264264
 20
-122.3077733027564
 10
108.2803736264264
 20
-122.3077733027564
 10
108.2803736264264
 20
-122.3077733027564
 10
108.2803736264264
 20
-121.3080010807842
 10
108.2803736264264
 20
-121.3080010807842
 10
108.2803736264264
 20
-121.3080010807842
 10
68.28041936913249
 20
-121.3080010807842
 10
68.28041936913249
 20
-121.3080010807842
 10
68.28041936913249
 20
-121.3080010807842
 10
68.28041936913249
 20
-122.3077733027564
 10
68.28041936913249
 20
-122.3077733027564
 97
        0
 97
        0
 75
     2
 76
     1
 98
        0
  0
POLYLINE
  5
43
330
1F
100
AcDbEntity
  8
_U+30EC_U+30A4_U+30E4_U+30FC 1
 62
     7
420
 16777215
370
    25
100
AcDb2dPolyline
 66
     1
 10
0.0
 20
0.0
 30
0.0
  0
VERTEX
  5
44
330
43
100
AcDbEntity
  8
_U+30EC_U+30A4_U+30E4_U+30FC 1
 62
     7
420
 16777215
370
    25
100
AcDbVertex
100
AcDb2dVertex
 10
80.2803668407661
 20
-138.3078330209787
 30
0.0
  0
VERTEX
  5
45
330
43
100
AcDbEntity
  8
_U+30EC_U+30A4_U+30E4_U+30FC 1
 62
     7
420
 16777215
370
    25
100
AcDbVertex
100
AcDb2dVertex
 10
90.28009964120722
 20
-138.3078330209787
 30
0.0
  0
SEQEND
  5
46
330
43
100
AcDbEntity
  8
_U+30EC_U+30A4_U+30E4_U+30FC 1
 62
     7
420
 16777215
370
    25
  0
POLYLINE
  5
47
330
1F
100
AcDbEntity
  8
_U+30EC_U+30A4_U+30E4_U+30FC 1
 62
     7
420
 16777215
370
    25
100
AcDb2dPolyline
 66
     1
 10
0.0
 20
0.0
 30
0.0
  0
VERTEX
  5
48
330
47
100
AcDbEntity
  8
_U+30EC_U+30A4_U+30E4_U+30FC 1
 62
     7
420
 16777215
370
    25
100
AcDbVertex
100
AcDb2dVertex
 10
68.28041936913249
 20
-121.3080010807842
 30
0.0
  0
VERTEX
  5
49
330
47
100
AcDbEntity
  8
_U+30EC_U+30A4_U+30E4_U+30FC 1
 62
     7
420
 16777215
370
    25
100
AcDbVertex
100
AcDb2dVertex
 10
108.2803736264264
 20
-121.3080010807842
 30
0.0
  0
SEQEND
  5
4A
330
47
100
AcDbEntity
  8
_U+30EC_U+30A4_U+30E4_U+30FC 1
 62
     7
420
 16777215
370
    25
  0
POLYLINE
  5
4B
330
1F
100
AcDbEntity
  8
_U+30EC_U+30A4_U+30E4_U+30FC 1
 62
     7
420
 16777215
370
    25
100
AcDb2dPolyline
 66
     1
 10
0.0
 20
0.0
 30
0.0
  0
VERTEX
  5
4C
330
4B
100
AcDbEntity
  8
_U+30EC_U+30A4_U+30E4_U+30FC 1
 62
     7
420
 16777215
370
    25
100
AcDbVertex
100
AcDb2dVertex
 10
89.2803274444913
 20
-135.3078460772844
 30
0.0
  0
VERTEX
  5
4D
330
4B
100
AcDbEntity
  8
_U+30EC_U+30A4_U+30E4_U+30FC 1
 62
     7
420
 16777215
370
    25
100
AcDbVertex
100
AcDb2dVertex
 10
90.28009964120722
 20
-135.3078460772844
 30
0.0
  0
SEQEND
  5
4E
330
4B
100
AcDbEntity
  8
_U+30EC_U+30A4_U+30E4_U+30FC 1
 62
     7
420
 16777215
370
    25
  0
POLYLINE
  5
4F
330
1F
100
AcDbEntity
  8
_U+30EC_U+30A4_U+30E4_U+30FC 1
 62
     7
420
 16777215
370
    25
100
AcDb2dPolyline
 66
     1
 10
0.0
 20
0.0
 30
0.0
  0
VERTEX
  5
50
330
4F
100
AcDbEntity
  8
_U+30EC_U+30A4_U+30E4_U+30FC 1
 62
     7
420
 16777215
370
    25
100
AcDbVertex
100
AcDb2dVertex
 10
90.28009964120722
 20
-138.3078330209787
 30
0.0
  0
VERTEX
  5
51
330
4F
100
AcDbEntity
  8
_U+30EC_U+30A4_U+30E4_U+30FC 1
 62
     7
420
 16777215
370
    25
100
AcDbVertex
100
AcDb2dVertex
 10
90.28009964120722
 20
-135.3078460772844
 30
0.0
  0
SEQEND
  5
52
330
4F
100
AcDbEntity
  8
_U+30EC_U+30A4_U+30E4_U+30FC 1
 62
     7
420
 16777215
370
    25
  0
POLYLINE
  5
53
330
1F
100
AcDbEntity
  8
_U+30EC_U+30A4_U+30E4_U+30FC 1
 62
     7
420
 16777215
370
    25
100
AcDb2dPolyline
 66
     1
 10
0.0
 20
0.0
 30
0.0
  0
VERTEX
  5
54
330
53
100
AcDbEntity
  8
_U+30EC_U+30A4_U+30E4_U+30FC 1
 62
     7
420
 16777215
370
    25
100
AcDbVertex
100
AcDb2dVertex
 10
68.28041936913249
 20
-122.3077733027564
 30
0.0
  0
VERTEX
  5
55
330
53
100
AcDbEntity
  8
_U+30EC_U+30A4_U+30E4_U+30FC 1
 62
     7
420
 16777215
370
    25
100
AcDbVertex
100
AcDb2dVertex
 10
68.28041936913249
 20
-121.3080010807842
 30
0.0
  0
SEQEND
  5
56
330
53
100
AcDbEntity
  8
_U+30EC_U+30A4_U+30E4_U+30FC 1
 62
     7
420
 16777215
370
    25
  0
POLYLINE
  5
57
330
1F
100
AcDbEntity
  8
_U+30EC_U+30A4_U+30E4_U+30FC 1
 62
     7
420
 16777215
370
    25
100
AcDb2dPolyline
 66
     1
 10
0.0
 20
0.0
 30
0.0
  0
VERTEX
  5
58
330
57
100
AcDbEntity
  8
_U+30EC_U+30A4_U+30E4_U+30FC 1
 62
     7
420
 16777215
370
    25
100
AcDbVertex
100
AcDb2dVertex
 10
68.28041936913249
 20
-122.3077733027564
 30
0.0
  0
VERTEX
  5
59
330
57
100
AcDbEntity
  8
_U+30EC_U+30A4_U+30E4_U+30FC 1
 62
     7
420
 16777215
370
    25
100
AcDbVertex
100
AcDb2dVertex
 10
80.2803668407661
 20
-122.3077733027564
 30
0.0
  0
SEQEND
  5
5A
330
57
100
AcDbEntity
  8
_U+30EC_U+30A4_U+30E4_U+30FC 1
 62
     7
420
 16777215
370
    25
  0
POLYLINE
  5
5B
330
1F
100
AcDbEntity
  8
_U+30EC_U+30A4_U+30E4_U+30FC 1
 62
     7
420
 16777215
370
    25
100
AcDb2dPolyline
 66
     1
 10
0.0
 20
0.0
 30
0.0
  0
VERTEX
  5
5C
330
5B
100
AcDbEntity
  8
_U+30EC_U+30A4_U+30E4_U+30FC 1
 62
     7
420
 16777215
370
    25
100
AcDbVertex
100
AcDb2dVertex
 10
89.2803274444913
 20
-137.3080607990062
 30
0.0
  0
VERTEX
  5
5D
330
5B
100
AcDbEntity
  8
_U+30EC_U+30A4_U+30E4_U+30FC 1
 62
     7
420
 16777215
370
    25
100
AcDbVertex
100
AcDb2dVertex
 10
89.2803274444913
 20
-135.3078460772844
 30
0.0
  0
SEQEND
  5
5E
330
5B
100
AcDbEntity
  8
_U+30EC_U+30A4_U+30E4_U+30FC 1
 62
     7
420
 16777215
370
    25
  0
POLYLINE
  5
5F
330
1F
100
AcDbEntity
  8
_U+30EC_U+30A4_U+30E4_U+30FC 1
 62
     7
420
 16777215
370
    25
100
AcDb2dPolyline
 66
     1
 10
0.0
 20
0.0
 30
0.0
  0
VERTEX
  5
60
330
5F
100
AcDbEntity
  8
_U+30EC_U+30A4_U+30E4_U+30FC 1
 62
     7
420
 16777215
370
    25
100
AcDbVertex
100
AcDb2dVertex
 10
81.18023237336418
 20
-137.3080607990062
 30
0.0
  0
VERTEX
  5
61
330
5F
100
AcDbEntity
  8
_U+30EC_U+30A4_U+30E4_U+30FC 1
 62
     7
420
 16777215
370
    25
100
AcDbVertex
100
AcDb2dVertex
 10
89.2803274444913
 20
-137.3080607990062
 30
0.0
  0
SEQEND
  5
62
330
5F
100
AcDbEntity
  8
_U+30EC_U+30A4_U+30E4_U+30FC 1
 62
     7
420
 16777215
370
    25
  0
POLYLINE
  5
63
330
1F
100
AcDbEntity
  8
_U+30EC_U+30A4_U+30E4_U+30FC 1
 62
     7
420
 16777215
370
    25
100
AcDb2dPolyline
 66
     1
 10
0.0
 20
0.0
 30
0.0
  0
VERTEX
  5
64
330
63
100
AcDbEntity
  8
_U+30EC_U+30A4_U+30E4_U+30FC 1
 62
     7
420
 16777215
370
    25
100
AcDbVertex
100
AcDb2dVertex
 10
80.2803668407661
 20
-138.3078330209787
 30
0.0
  0
VERTEX
  5
65
330
63
100
AcDbEntity
  8
_U+30EC_U+30A4_U+30E4_U+30FC 1
 62
     7
420
 16777215
370
    25
100
AcDbVertex
100
AcDb2dVertex
 10
80.2803668407661
 20
-122.3077733027564
 30
0.0
  0
SEQEND
  5
66
330
63
100
AcDbEntity
  8
_U+30EC_U+30A4_U+30E4_U+30FC 1
 62
     7
420
 16777215
370
    25
  0
POLYLINE
  5
67
330
1F
100
AcDbEntity
  8
_U+30EC_U+30A4_U+30E4_U+30FC 1
 62
     7
420
 16777215
370
    25
100
AcDb2dPolyline
 66
     1
 10
0.0
 20
0.0
 30
0.0
  0
VERTEX
  5
68
330
67
100
AcDbEntity
  8
_U+30EC_U+30A4_U+30E4_U+30FC 1
 62
     7
420
 16777215
370
    25
100
AcDbVertex
100
AcDb2dVertex
 10
108.2803736264264
 20
-122.3077733027564
 30
0.0
  0
VERTEX
  5
69
330
67
100
AcDbEntity
  8
_U+30EC_U+30A4_U+30E4_U+30FC 1
 62
     7
420
 16777215
370
    25
100
AcDbVertex
100
AcDb2dVertex
 10
108.2803736264264
 20
-121.3080010807842
 30
0.0
  0
SEQEND
  5
6A
330
67
100
AcDbEntity
  8
_U+30EC_U+30A4_U+30E4_U+30FC 1
 62
     7
420
 16777215
370
    25
  0
POLYLINE
  5
6B
330
1F
100
AcDbEntity
  8
_U+30EC_U+30A4_U+30E4_U+30FC 1
 62
     7
420
 16777215
370
    25
100
AcDb2dPolyline
 66
     1
 10
0.0
 20
0.0
 30
0.0
  0
VERTEX
  5
6C
330
6B
100
AcDbEntity
  8
_U+30EC_U+30A4_U+30E4_U+30FC 1
 62
     7
420
 16777215
370
    25
100
AcDbVertex
100
AcDb2dVertex
 10
81.18023237336418
 20
-122.3077733027564
 30
0.0
  0
VERTEX
  5
6D
330
6B
100
AcDbEntity
  8
_U+30EC_U+30A4_U+30E4_U+30FC 1
 62
     7
420
 16777215
370
    25
100
AcDbVertex
100
AcDb2dVertex
 10
99.48230773977266
 20
-122.3077733027564
 30
0.0
  0
SEQEND
  5
6E
330
6B
100
AcDbEntity
  8
_U+30EC_U+30A4_U+30E4_U+30FC 1
 62
     7
420
 16777215
370
    25
  0
POLYLINE
  5
6F
330
1F
100
AcDbEntity
  8
_U+30EC_U+30A4_U+30E4_U+30FC 1
 62
     7
420
 16777215
370
    25
100
AcDb2dPolyline
 66
     1
 10
0.0
 20
0.0
 30
0.0
  0
VERTEX
  5
70
330
6F
100
AcDbEntity
  8
_U+30EC_U+30A4_U+30E4_U+30FC 1
 62
     7
420
 16777215
370
    25
100
AcDbVertex
100
AcDb2dVertex
 10
101.0787682545991
 20
-122.3077733027564
 30
0.0
  0
VERTEX
  5
71
330
6F
100
AcDbEntity
  8
_U+30EC_U+30A4_U+30E4_U+30FC 1
 62
     7
420
 16777215
370
    25
100
AcDbVertex
100
AcDb2dVertex
 10
108.2803736264264
 20
-122.3077733027564
 30
0.0
  0
SEQEND
  5
72
330
6F
100
AcDbEntity
  8
_U+30EC_U+30A4_U+30E4_U+30FC 1
 62
     7
420
 16777215
370
    25
  0
POLYLINE
  5
73
330
1F
100
AcDbEntity
  8
_U+30EC_U+30A4_U+30E4_U+30FC 1
 62
     7
420
 16777215
370
    25
100
AcDb2dPolyline
 66
     1
 10
0.0
 20
0.0
 30
0.0
  0
VERTEX
  5
74
330
73
100
AcDbEntity
  8
_U+30EC_U+30A4_U+30E4_U+30FC 1
 62
     7
420
 16777215
370
    25
100
AcDbVertex
100
AcDb2dVertex
 10
81.18023237336418
 20
-137.3080607990062
 30
0.0
  0
VERTEX
  5
75
330
73
100
AcDbEntity
  8
_U+30EC_U+30A4_U+30E4_U+30FC 1
 62
     7
420
 16777215
370
    25
100
AcDbVertex
100
AcDb2dVertex
 10
81.18023237336418
 20
-122.3077733027564
 30
0.0
  0
SEQEND
  5
76
330
73
100
AcDbEntity
  8
_U+30EC_U+30A4_U+30E4_U+30FC 1
 62
     7
420
 16777215
370
    25
  0
SPLINE
  5
77
330
1F
100
AcDbEntity
  8
_U+30EC_U+30A4_U+30E4_U+30FC 1
 62
     7
420
 16777215
370
     9
100
AcDbSpline
210
0.0
220
0.0
230
1.0
 70
    11
 71
     3
 72
    17
 73
    13
 74
     0
 42
0.0000000001
 43
0.0000000001
 12
1.0
 22
0.0
 32
0.0
 13
1.0
 23
0.0
 33
0.0
 40
0.0
 40
0.0
 40
0.0
 40
0.0
 40
1.0
 40
1.0
 40
1.0
 40
2.0
 40
2.0
 40
2.0
 40
3.0
 40
3.0
 40
3.0
 40
4.0
 40
4.0
 40
4.0
 40
4.0
 10
80.38027350488393
 20
-142.3075921866456
 30
0.0
 10
80.38027350488393
 20
-142.2524882977701
 30
0.0
 10
80.33550600602605
 20
-142.2076855200033
 30
0.0
 10
80.2803668407661
 20
-142.2076855200033
 30
0.0
 10
80.22526295328304
 20
-142.2076855200033
 30
0.0
 10
80.18046017664827
 20
-142.2524882977701
 30
0.0
 10
80.18046017664827
 20
-142.3075921866456
 30
0.0
 10
80.18046017664827
 20
-142.3634016310761
 30
0.0
 10
80.22526295328304
 20
-142.4074988532873
 30
0.0
 10
80.2803668407661
 20
-142.4074988532873
 30
0.0
 10
80.33550600602605
 20
-142.4074988532873
 30
0.0
 10
80.38027350488393
 20
-142.3634016310761
 30
0.0
 10
80.38027350488393
 20
-142.3075921866456
 30
0.0
  0
SPLINE
  5
78
330
1F
100
AcDbEntity
  8
_U+30EC_U+30A4_U+30E4_U+30FC 1
 62
     7
420
 16777215
370
     9
100
AcDbSpline
210
0.0
220
0.0
230
1.0
 70
    11
 71
     3
 72
    17
 73
    13
 74
     0
 42
0.0000000001
 43
0.0000000001
 12
1.0
 22
0.0
 32
0.0
 13
1.0
 23
0.0
 33
0.0
 40
0.0
 40
0.0
 40
0.0
 40
0.0
 40
1.0
 40
1.0
 40
1.0
 40
2.0
 40
2.0
 40
2.0
 40
3.0
 40
3.0
 40
3.0
 40
4.0
 40
4.0
 40
4.0
 40
4.0
 10
90.38000630532505
 20
-142.3075921866456
 30
0.0
 10
90.38000630532505
 20
-142.2524882977701
 30
0.0
 10
90.33523880646717
 20
-142.2076855200033
 30
0.0
 10
90.28009964120722
 20
-142.2076855200033
 30
0.0
 10
90.22499575372414
 20
-142.2076855200033
 30
0.0
 10
90.18019297708938
 20
-142.2524882977701
 30
0.0
 10
90.18019297708938
 20
-142.3075921866456
 30
0.0
 10
90.18019297708938
 20
-142.3634016310761
 30
0.0
 10
90.22499575372414
 20
-142.4074988532873
 30
0.0
 10
90.28009964120722
 20
-142.4074988532873
 30
0.0
 10
90.33523880646717
 20
-142.4074988532873
 30
0.0
 10
90.38000630532505
 20
-142.3634016310761
 30
0.0
 10
90.38000630532505
 20
-142.3075921866456
 30
0.0
  0
SPLINE
  5
79
330
1F
100
AcDbEntity
  8
_U+30EC_U+30A4_U+30E4_U+30FC 1
 62
     7
420
 16777215
370
     9
100
AcDbSpline
210
0.0
220
0.0
230
1.0
 70
    11
 71
     3
 72
    17
 73
    13
 74
     0
 42
0.0000000001
 43
0.0000000001
 12
1.0
 22
0.0
 32
0.0
 13
1.0
 23
0.0
 33
0.0
 40
0.0
 40
0.0
 40
0.0
 40
0.0
 40
1.0
 40
1.0
 40
1.0
 40
2.0
 40
2.0
 40
2.0
 40
3.0
 40
3.0
 40
3.0
 40
4.0
 40
4.0
 40
4.0
 40
4.0
 10
112.3807449107061
 20
-138.3078330209787
 30
0.0
 10
112.3807449107061
 20
-138.2527291321032
 30
0.0
 10
112.3359421340714
 20
-138.2079263543371
 30
0.0
 10
112.2801326910507
 20
-138.2079263543371
 30
0.0
 10
112.2250288035677
 20
-138.2079263543371
 30
0.0
 10
112.1802260269329
 20
-138.2527291321032
 30
0.0
 10
112.1802260269329
 20
-138.3078330209787
 30
0.0
 10
112.1802260269329
 20
-138.3629721876312
 30
0.0
 10
112.2250288035677
 20
-138.4077396876204
 30
0.0
 10
112.2801326910507
 20
-138.4077396876204
 30
0.0
 10
112.3359421340714
 20
-138.4077396876204
 30
0.0
 10
112.3807449107061
 20
-138.3629721876312
 30
0.0
 10
112.3807449107061
 20
-138.3078330209787
 30
0.0
  0
SPLINE
  5
7A
330
1F
100
AcDbEntity
  8
_U+30EC_U+30A4_U+30E4_U+30FC 1
 62
     7
420
 16777215
370
     9
100
AcDbSpline
210
0.0
220
0.0
230
1.0
 70
    11
 71
     3
 72
    17
 73
    13
 74
     0
 42
0.0000000001
 43
0.0000000001
 12
1.0
 22
0.0
 32
0.0
 13
1.0
 23
0.0
 33
0.0
 40
0.0
 40
0.0
 40
0.0
 40
0.0
 40
1.0
 40
1.0
 40
1.0
 40
2.0
 40
2.0
 40
2.0
 40
3.0
 40
3.0
 40
3.0
 40
4.0
 40
4.0
 40
4.0
 40
4.0
 10
112.3807449107061
 20
-135.3078460772844
 30
0.0
 10
112.3807449107061
 20
-135.2527421884088
 30
0.0
 10
112.3359421340714
 20
-135.2079394106428
 30
0.0
 10
112.2801326910507
 20
-135.2079394106428
 30
0.0
 10
112.2250288035677
 20
-135.2079394106428
 30
0.0
 10
112.1802260269329
 20
-135.2527421884088
 30
0.0
 10
112.1802260269329
 20
-135.3078460772844
 30
0.0
 10
112.1802260269329
 20
-135.3629852439368
 30
0.0
 10
112.2250288035677
 20
-135.407752743926
 30
0.0
 10
112.2801326910507
 20
-135.407752743926
 30
0.0
 10
112.3359421340714
 20
-135.407752743926
 30
0.0
 10
112.3807449107061
 20
-135.3629852439368
 30
0.0
 10
112.3807449107061
 20
-135.3078460772844
 30
0.0
  0
SPLINE
  5
7B
330
1F
100
AcDbEntity
  8
_U+30EC_U+30A4_U+30E4_U+30FC 1
 62
     7
420
 16777215
370
     9
100
AcDbSpline
210
0.0
220
0.0
230
1.0
 70
    11
 71
     3
 72
    17
 73
    13
 74
     0
 42
0.0000000001
 43
0.0000000001
 12
1.0
 22
0.0
 32
0.0
 13
1.0
 23
0.0
 33
0.0
 40
0.0
 40
0.0
 40
0.0
 40
0.0
 40
1.0
 40
1.0
 40
1.0
 40
2.0
 40
2.0
 40
2.0
 40
3.0
 40
3.0
 40
3.0
 40
4.0
 40
4.0
 40
4.0
 40
4.0
 10
112.3807449107061
 20
-121.3080010807842
 30
0.0
 10
112.3807449107061
 20
-121.2528971919089
 30
0.0
 10
112.3359421340714
 20
-121.2080944141426
 30
0.0
 10
112.2801326910507
 20
-121.2080944141426
 30
0.0
 10
112.2250288035677
 20
-121.2080944141426
 30
0.0
 10
112.1802260269329
 20
-121.2528971919089
 30
0.0
 10
112.1802260269329
 20
-121.3080010807842
 30
0.0
 10
112.1802260269329
 20
-121.3631402474369
 30
0.0
 10
112.2250288035677
 20
-121.4079077474258
 30
0.0
 10
112.2801326910507
 20
-121.4079077474258
 30
0.0
 10
112.3359421340714
 20
-121.4079077474258
 30
0.0
 10
112.3807449107061
 20
-121.3631402474369
 30
0.0
 10
112.3807449107061
 20
-121.3080010807842
 30
0.0
  0
SPLINE
  5
7C
330
1F
100
AcDbEntity
  8
_U+30EC_U+30A4_U+30E4_U+30FC 1
 62
     7
420
 16777215
370
     9
100
AcDbSpline
210
0.0
220
0.0
230
1.0
 70
    11
 71
     3
 72
    17
 73
    13
 74
     0
 42
0.0000000001
 43
0.0000000001
 12
1.0
 22
0.0
 32
0.0
 13
1.0
 23
0.0
 33
0.0
 40
0.0
 40
0.0
 40
0.0
 40
0.0
 40
1.0
 40
1.0
 40
1.0
 40
2.0
 40
2.0
 40
2.0
 40
3.0
 40
3.0
 40
3.0
 40
4.0
 40
4.0
 40
4.0
 40
4.0
 10
108.3802802905442
 20
-117.3079244151174
 30
0.0
 10
108.3802802905442
 20
-117.2527852484646
 30
0.0
 10
108.3355127916864
 20
-117.2080177484757
 30
0.0
 10
108.2803736264264
 20
-117.2080177484757
 30
0.0
 10
108.2252697389433
 20
-117.2080177484757
 30
0.0
 10
108.1804669623086
 20
-117.2527852484646
 30
0.0
 10
108.1804669623086
 20
-117.3079244151174
 30
0.0
 10
108.1804669623086
 20
-117.3633810817704
 30
0.0
 10
108.2252697389433
 20
-117.4081485817589
 30
0.0
 10
108.2803736264264
 20
-117.4081485817589
 30
0.0
 10
108.3355127916864
 20
-117.4081485817589
 30
0.0
 10
108.3802802905442
 20
-117.3633810817704
 30
0.0
 10
108.3802802905442
 20
-117.3079244151174
 30
0.0
  0
SPLINE
  5
7D
330
1F
100
AcDbEntity
  8
_U+30EC_U+30A4_U+30E4_U+30FC 1
 62
     7
420
 16777215
370
     9
100
AcDbSpline
210
0.0
220
0.0
230
1.0
 70
    11
 71
     3
 72
    17
 73
    13
 74
     0
 42
0.0000000001
 43
0.0000000001
 12
1.0
 22
0.0
 32
0.0
 13
1.0
 23
0.0
 33
0.0
 40
0.0
 40
0.0
 40
0.0
 40
0.0
 40
1.0
 40
1.0
 40
1.0
 40
2.0
 40
2.0
 40
2.0
 40
3.0
 40
3.0
 40
3.0
 40
4.0
 40
4.0
 40
4.0
 40
4.0
 10
112.3807449107061
 20
-122.3077733027564
 30
0.0
 10
112.3807449107061
 20
-122.2526694138812
 30
0.0
 10
112.3359421340714
 20
-122.2078666361148
 30
0.0
 10
112.2801326910507
 20
-122.2078666361148
 30
0.0
 10
112.2250288035677
 20
-122.2078666361148
 30
0.0
 10
112.1802260269329
 20
-122.2526694138812
 30
0.0
 10
112.1802260269329
 20
-122.3077733027564
 30
0.0
 10
112.1802260269329
 20
-122.3632299694091
 30
0.0
 10
112.2250288035677
 20
-122.4080327471758
 30
0.0
 10
112.2801326910507
 20
-122.4080327471758
 30
0.0
 10
112.3359421340714
 20
-122.4080327471758
 30
0.0
 10
112.3807449107061
 20
-122.3632299694091
 30
0.0
 10
112.3807449107061
 20
-122.3077733027564
 30
0.0
  0
SPLINE
  5
7E
330
1F
100
AcDbEntity
  8
_U+30EC_U+30A4_U+30E4_U+30FC 1
 62
     7
420
 16777215
370
     9
100
AcDbSpline
210
0.0
220
0.0
230
1.0
 70
    11
 71
     3
 72
    17
 73
    13
 74
     0
 42
0.0000000001
 43
0.0000000001
 12
1.0
 22
0.0
 32
0.0
 13
1.0
 23
0.0
 33
0.0
 40
0.0
 40
0.0
 40
0.0
 40
0.0
 40
1.0
 40
1.0
 40
1.0
 40
2.0
 40
2.0
 40
2.0
 40
3.0
 40
3.0
 40
3.0
 40
4.0
 40
4.0
 40
4.0
 40
4.0
 10
68.38032776068265
 20
-142.3075921866456
 30
0.0
 10
68.38032776068265
 20
-142.2524882977701
 30
0.0
 10
68.33552498291624
 20
-142.2076855200033
 30
0.0
 10
68.28041936913249
 20
-142.2076855200033
 30
0.0
 10
68.22460992611187
 20
-142.2076855200033
 30
0.0
 10
68.18051270501465
 20
-142.2524882977701
 30
0.0
 10
68.18051270501465
 20
-142.3075921866456
 30
0.0
 10
68.18051270501465
 20
-142.3634016310761
 30
0.0
 10
68.22460992611187
 20
-142.4074988532873
 30
0.0
 10
68.28041936913249
 20
-142.4074988532873
 30
0.0
 10
68.33552498291624
 20
-142.4074988532873
 30
0.0
 10
68.38032776068265
 20
-142.3634016310761
 30
0.0
 10
68.38032776068265
 20
-142.3075921866456
 30
0.0
  0
SPLINE
  5
7F
330
1F
100
AcDbEntity
  8
_U+30EC_U+30A4_U+30E4_U+30FC 1
 62
     7
420
 16777215
370
     9
100
AcDbSpline
210
0.0
220
0.0
230
1.0
 70
    11
 71
     3
 72
    17
 73
    13
 74
     0
 42
0.0000000001
 43
0.0000000001
 12
1.0
 22
0.0
 32
0.0
 13
1.0
 23
0.0
 33
0.0
 40
0.0
 40
0.0
 40
0.0
 40
0.0
 40
1.0
 40
1.0
 40
1.0
 40
2.0
 40
2.0
 40
2.0
 40
3.0
 40
3.0
 40
3.0
 40
4.0
 40
4.0
 40
4.0
 40
4.0
 10
68.38032776068265
 20
-117.3079244151174
 30
0.0
 10
68.38032776068265
 20
-117.2527852484646
 30
0.0
 10
68.33552498291624
 20
-117.2080177484757
 30
0.0
 10
68.28041936913249
 20
-117.2080177484757
 30
0.0
 10
68.22460992611187
 20
-117.2080177484757
 30
0.0
 10
68.18051270501465
 20
-117.2527852484646
 30
0.0
 10
68.18051270501465
 20
-117.3079244151174
 30
0.0
 10
68.18051270501465
 20
-117.3633810817704
 30
0.0
 10
68.22460992611187
 20
-117.4081485817589
 30
0.0
 10
68.28041936913249
 20
-117.4081485817589
 30
0.0
 10
68.33552498291624
 20
-117.4081485817589
 30
0.0
 10
68.38032776068265
 20
-117.3633810817704
 30
0.0
 10
68.38032776068265
 20
-117.3079244151174
 30
0.0
  0
SPLINE
  5
80
330
1F
100
AcDbEntity
  8
_U+30EC_U+30A4_U+30E4_U+30FC 1
 62
     7
420
 16777215
370
    25
100
AcDbSpline
210
0.0
220
0.0
230
1.0
 70
     8
 71
     3
 72
     8
 73
     4
 74
     0
 42
0.0000000001
 43
0.0000000001
 12
1.0
 22
0.0
 32
0.0
 13
1.0
 23
0.0
 33
0.0
 40
0.0
 40
0.0
 40
0.0
 40
0.0
 40
1.0
 40
1.0
 40
1.0
 40
1.0
 10
99.48230773977266
 20
-122.3077733027564
 30
0.0
 10
99.49264412839786
 20
-122.3890885805137
 30
0.0
 10
99.55120523801494
 20
-122.4559046916082
 30
0.0
 10
99.63044164175886
 20
-122.476259969381
 30
0.0
  0
SPLINE
  5
81
330
1F
100
AcDbEntity
  8
_U+30EC_U+30A4_U+30E4_U+30FC 1
 62
     7
420
 16777215
370
    25
100
AcDbSpline
210
0.0
220
0.0
230
1.0
 70
     8
 71
     3
 72
     8
 73
     4
 74
     0
 42
0.0000000001
 43
0.0000000001
 12
1.0
 22
0.0
 32
0.0
 13
1.0
 23
0.0
 33
0.0
 40
0.0
 40
0.0
 40
0.0
 40
0.0
 40
1.0
 40
1.0
 40
1.0
 40
1.0
 10
99.63044164175886
 20
-122.476259969381
 30
0.0
 10
99.79441023181026
 20
-122.5186285804816
 30
0.0
 10
99.9666716163044
 20
-122.5186285804816
 30
0.0
 10
100.1306805305226
 20
-122.476259969381
 30
0.0
  0
SPLINE
  5
82
330
1F
100
AcDbEntity
  8
_U+30EC_U+30A4_U+30E4_U+30FC 1
 62
     7
420
 16777215
370
    25
100
AcDbSpline
210
0.0
220
0.0
230
1.0
 70
     8
 71
     3
 72
     8
 73
     4
 74
     0
 42
0.0000000001
 43
0.0000000001
 12
1.0
 22
0.0
 32
0.0
 13
1.0
 23
0.0
 33
0.0
 40
0.0
 40
0.0
 40
0.0
 40
0.0
 40
1.0
 40
1.0
 40
1.0
 40
1.0
 10
100.4303979933626
 20
-122.476259969381
 30
0.0
 10
100.5943691002905
 20
-122.5186285804816
 30
0.0
 10
100.7666304847846
 20
-122.5186285804816
 30
0.0
 10
100.9306015917125
 20
-122.476259969381
 30
0.0
  0
SPLINE
  5
83
330
1F
100
AcDbEntity
  8
_U+30EC_U+30A4_U+30E4_U+30FC 1
 62
     7
420
 16777215
370
    25
100
AcDbSpline
210
0.0
220
0.0
230
1.0
 70
     8
 71
     3
 72
     8
 73
     4
 74
     0
 42
0.0000000001
 43
0.0000000001
 12
1.0
 22
0.0
 32
0.0
 13
1.0
 23
0.0
 33
0.0
 40
0.0
 40
0.0
 40
0.0
 40
0.0
 40
1.0
 40
1.0
 40
1.0
 40
1.0
 10
100.1306805305226
 20
-122.476259969381
 30
0.0
 10
100.218874974945
 20
-122.4535058027199
 30
0.0
 10
100.2801852194171
 20
-122.3739191360732
 30
0.0
 10
100.2801852194171
 20
-122.2826202472073
 30
0.0
  0
SPLINE
  5
84
330
1F
100
AcDbEntity
  8
_U+30EC_U+30A4_U+30E4_U+30FC 1
 62
     7
420
 16777215
370
    25
100
AcDbSpline
210
0.0
220
0.0
230
1.0
 70
     8
 71
     3
 72
     8
 73
     4
 74
     0
 42
0.0000000001
 43
0.0000000001
 12
1.0
 22
0.0
 32
0.0
 13
1.0
 23
0.0
 33
0.0
 40
0.0
 40
0.0
 40
0.0
 40
0.0
 40
1.0
 40
1.0
 40
1.0
 40
1.0
 10
100.9306015917125
 20
-122.476259969381
 30
0.0
 10
101.00983547858
 20
-122.4559046916082
 30
0.0
 10
101.0684318659739
 20
-122.3890885805137
 30
0.0
 10
101.0787682545991
 20
-122.3077733027564
 30
0.0
  0
SPLINE
  5
85
330
1F
100
AcDbEntity
  8
_U+30EC_U+30A4_U+30E4_U+30FC 1
 62
     7
420
 16777215
370
    25
100
AcDbSpline
210
0.0
220
0.0
230
1.0
 70
     8
 71
     3
 72
     8
 73
     4
 74
     0
 42
0.0000000001
 43
0.0000000001
 12
1.0
 22
0.0
 32
0.0
 13
1.0
 23
0.0
 33
0.0
 40
0.0
 40
0.0
 40
0.0
 40
0.0
 40
1.0
 40
1.0
 40
1.0
 40
1.0
 10
100.2801852194171
 20
-122.2826202472073
 30
0.0
 10
100.2801852194171
 20
-122.3739191360732
 30
0.0
 10
100.3422035511682
 20
-122.4535058027199
 30
0.0
 10
100.4303979933626
 20
-122.476259969381
 30
0.0
  0
POLYLINE
  5
86
330
1F
100
AcDbEntity
  8
_U+30EC_U+30A4_U+30E4_U+30FC 1
 62
     7
420
 16777215
370
     9
100
AcDb2dPolyline
 66
     1
 10
0.0
 20
0.0
 30
0.0
  0
VERTEX
  5
87
330
86
100
AcDbEntity
  8
_U+30EC_U+30A4_U+30E4_U+30FC 1
 62
     7
420
 16777215
370
     9
100
AcDbVertex
100
AcDb2dVertex
 10
112.2801326910507
 20
-121.3080010807842
 30
0.0
  0
VERTEX
  5
88
330
86
100
AcDbEntity
  8
_U+30EC_U+30A4_U+30E4_U+30FC 1
 62
     7
420
 16777215
370
     9
100
AcDbVertex
100
AcDb2dVertex
 10
112.2801326910507
 20
-117.5376885817268
 30
0.0
  0
SEQEND
  5
89
330
86
100
AcDbEntity
  8
_U+30EC_U+30A4_U+30E4_U+30FC 1
 62
     7
420
 16777215
370
     9
  0
POLYLINE
  5
8A
330
1F
100
AcDbEntity
  8
_U+30EC_U+30A4_U+30E4_U+30FC 1
 62
     7
420
 16777215
370
     9
100
AcDb2dPolyline
 66
     1
 10
0.0
 20
0.0
 30
0.0
  0
VERTEX
  5
8B
330
8A
100
AcDbEntity
  8
_U+30EC_U+30A4_U+30E4_U+30FC 1
 62
     7
420
 16777215
370
     9
100
AcDbVertex
100
AcDb2dVertex
 10
112.2801326910507
 20
-121.3080010807842
 30
0.0
  0
VERTEX
  5
8C
330
8A
100
AcDbEntity
  8
_U+30EC_U+30A4_U+30E4_U+30FC 1
 62
     7
420
 16777215
370
     9
100
AcDbVertex
100
AcDb2dVertex
 10
112.2801326910507
 20
-122.3077733027564
 30
0.0
  0
SEQEND
  5
8D
330
8A
100
AcDbEntity
  8
_U+30EC_U+30A4_U+30E4_U+30FC 1
 62
     7
420
 16777215
370
     9
  0
POLYLINE
  5
8E
330
1F
100
AcDbEntity
  8
_U+30EC_U+30A4_U+30E4_U+30FC 1
 62
     7
420
 16777215
370
     9
100
AcDb2dPolyline
 66
     1
 10
0.0
 20
0.0
 30
0.0
  0
VERTEX
  5
8F
330
8E
100
AcDbEntity
  8
_U+30EC_U+30A4_U+30E4_U+30FC 1
 62
     7
420
 16777215
370
     9
100
AcDbVertex
100
AcDb2dVertex
 10
110.8200913394106
 20
-121.3080010807842
 30
0.0
  0
VERTEX
  5
90
330
8E
100
AcDbEntity
  8
_U+30EC_U+30A4_U+30E4_U+30FC 1
 62
     7
420
 16777215
370
     9
100
AcDbVertex
100
AcDb2dVertex
 10
113.2806104433042
 20
-121.3080010807842
 30
0.0
  0
SEQEND
  5
91
330
8E
100
AcDbEntity
  8
_U+30EC_U+30A4_U+30E4_U+30FC 1
 62
     7
420
 16777215
370
     9
  0
POLYLINE
  5
92
330
1F
100
AcDbEntity
  8
_U+30EC_U+30A4_U+30E4_U+30FC 1
 62
     7
420
 16777215
370
     9
100
AcDb2dPolyline
 66
     1
 10
0.0
 20
0.0
 30
0.0
  0
VERTEX
  5
93
330
92
100
AcDbEntity
  8
_U+30EC_U+30A4_U+30E4_U+30FC 1
 62
     7
420
 16777215
370
     9
100
AcDbVertex
100
AcDb2dVertex
 10
110.8200913394106
 20
-122.3077733027564
 30
0.0
  0
VERTEX
  5
94
330
92
100
AcDbEntity
  8
_U+30EC_U+30A4_U+30E4_U+30FC 1
 62
     7
420
 16777215
370
     9
100
AcDbVertex
100
AcDb2dVertex
 10
113.2806104433042
 20
-122.3077733027564
 30
0.0
  0
SEQEND
  5
95
330
92
100
AcDbEntity
  8
_U+30EC_U+30A4_U+30E4_U+30FC 1
 62
     7
420
 16777215
370
     9
  0
INSERT
  5
97
330
1F
100
AcDbEntity
  8
_U+30EC_U+30A4_U+30E4_U+30FC 1
100
AcDbBlockReference
  2
block 2
 10
0.0
 20
0.0
 30
0.0
  0
POLYLINE
  5
9C
330
1F
100
AcDbEntity
  8
_U+30EC_U+30A4_U+30E4_U+30FC 1
 62
     7
420
 16777215
370
     9
100
AcDb2dPolyline
 66
     1
 10
0.0
 20
0.0
 30
0.0
  0
VERTEX
  5
9D
330
9C
100
AcDbEntity
  8
_U+30EC_U+30A4_U+30E4_U+30FC 1
 62
     7
420
 16777215
370
     9
100
AcDbVertex
100
AcDb2dVertex
 10
80.2803668407661
 20
-142.3075921866456
 30
0.0
  0
VERTEX
  5
9E
330
9C
100
AcDbEntity
  8
_U+30EC_U+30A4_U+30E4_U+30FC 1
 62
     7
420
 16777215
370
     9
100
AcDbVertex
100
AcDb2dVertex
 10
90.28009964120722
 20
-142.3075921866456
 30
0.0
  0
SEQEND
  5
9F
330
9C
100
AcDbEntity
  8
_U+30EC_U+30A4_U+30E4_U+30FC 1
 62
     7
420
 16777215
370
     9
  0
POLYLINE
  5
A0
330
1F
100
AcDbEntity
  8
_U+30EC_U+30A4_U+30E4_U+30FC 1
 62
     7
420
 16777215
370
     9
100
AcDb2dPolyline
 66
     1
 10
0.0
 20
0.0
 30
0.0
  0
VERTEX
  5
A1
330
A0
100
AcDbEntity
  8
_U+30EC_U+30A4_U+30E4_U+30FC 1
 62
     7
420
 16777215
370
     9
100
AcDbVertex
100
AcDb2dVertex
 10
90.28009964120722
 20
-140.8475507981213
 30
0.0
  0
VERTEX
  5
A2
330
A0
100
AcDbEntity
  8
_U+30EC_U+30A4_U+30E4_U+30FC 1
 62
     7
420
 16777215
370
     9
100
AcDbVertex
100
AcDb2dVertex
 10
90.28009964120722
 20
-143.3080346863955
 30
0.0
  0
SEQEND
  5
A3
330
A0
100
AcDbEntity
  8
_U+30EC_U+30A4_U+30E4_U+30FC 1
 62
     7
420
 16777215
370
     9
  0
INSERT
  5
A5
330
1F
100
AcDbEntity
  8
_U+30EC_U+30A4_U+30E4_U+30FC 1
100
AcDbBlockReference
  2
block 3
 10
0.0
 20
0.0
 30
0.0
  0
POLYLINE
  5
AD
330
1F
100
AcDbEntity
  8
_U+30EC_U+30A4_U+30E4_U+30FC 1
 62
     7
420
 16777215
370
     9
100
AcDb2dPolyline
 66
     1
 10
0.0
 20
0.0
 30
0.0
  0
VERTEX
  5
AE
330
AD
100
AcDbEntity
  8
_U+30EC_U+30A4_U+30E4_U+30FC 1
 62
     7
420
 16777215
370
     9
100
AcDbVertex
100
AcDb2dVertex
 10
68.28041936913249
 20
-117.3079244151174
 30
0.0
  0
VERTEX
  5
AF
330
AD
100
AcDbEntity
  8
_U+30EC_U+30A4_U+30E4_U+30FC 1
 62
     7
420
 16777215
370
     9
100
AcDbVertex
100
AcDb2dVertex
 10
108.2803736264264
 20
-117.3079244151174
 30
0.0
  0
SEQEND
  5
B0
330
AD
100
AcDbEntity
  8
_U+30EC_U+30A4_U+30E4_U+30FC 1
 62
     7
420
 16777215
370
     9
  0
POLYLINE
  5
B1
330
1F
100
AcDbEntity
  8
_U+30EC_U+30A4_U+30E4_U+30FC 1
 62
     7
420
 16777215
370
     9
100
AcDb2dPolyline
 66
     1
 10
0.0
 20
0.0
 30
0.0
  0
VERTEX
  5
B2
330
B1
100
AcDbEntity
  8
_U+30EC_U+30A4_U+30E4_U+30FC 1
 62
     7
420
 16777215
370
     9
100
AcDbVertex
100
AcDb2dVertex
 10
68.28041936913249
 20
-118.7679305258636
 30
0.0
  0
VERTEX
  5
B3
330
B1
100
AcDbEntity
  8
_U+30EC_U+30A4_U+30E4_U+30FC 1
 62
     7
420
 16777215
370
     9
100
AcDbVertex
100
AcDb2dVertex
 10
68.28041936913249
 20
-116.3077994153674
 30
0.0
  0
SEQEND
  5
B4
330
B1
100
AcDbEntity
  8
_U+30EC_U+30A4_U+30E4_U+30FC 1
 62
     7
420
 16777215
370
     9
  0
POLYLINE
  5
B5
330
1F
100
AcDbEntity
  8
_U+30EC_U+30A4_U+30E4_U+30FC 1
 62
     7
420
 16777215
370
     9
100
AcDb2dPolyline
 66
     1
 10
0.0
 20
0.0
 30
0.0
  0
VERTEX
  5
B6
330
B5
100
AcDbEntity
  8
_U+30EC_U+30A4_U+30E4_U+30FC 1
 62
     7
420
 16777215
370
     9
100
AcDbVertex
100
AcDb2dVertex
 10
108.2803736264264
 20
-118.7679305258636
 30
0.0
  0
VERTEX
  5
B7
330
B5
100
AcDbEntity
  8
_U+30EC_U+30A4_U+30E4_U+30FC 1
 62
     7
420
 16777215
370
     9
100
AcDbVertex
100
AcDb2dVertex
 10
108.2803736264264
 20
-116.3077994153674
 30
0.0
  0
SEQEND
  5
B8
330
B5
100
AcDbEntity
  8
_U+30EC_U+30A4_U+30E4_U+30FC 1
 62
     7
420
 16777215
370
     9
  0
INSERT
  5
BA
330
1F
100
AcDbEntity
  8
_U+30EC_U+30A4_U+30E4_U+30FC 1
100
AcDbBlockReference
  2
block 4
 10
0.0
 20
0.0
 30
0.0
  0
POLYLINE
  5
D5
330
1F
100
AcDbEntity
  8
_U+30EC_U+30A4_U+30E4_U+30FC 1
 62
     7
420
 16777215
370
     9
100
AcDb2dPolyline
 66
     1
 10
0.0
 20
0.0
 30
0.0
  0
VERTEX
  5
D6
330
D5
100
AcDbEntity
  8
_U+30EC_U+30A4_U+30E4_U+30FC 1
 62
     7
420
 16777215
370
     9
100
AcDbVertex
100
AcDb2dVertex
 10
80.2803668407661
 20
-142.3075921866456
 30
0.0
  0
VERTEX
  5
D7
330
D5
100
AcDbEntity
  8
_U+30EC_U+30A4_U+30E4_U+30FC 1
 62
     7
420
 16777215
370
     9
100
AcDbVertex
100
AcDb2dVertex
 10
68.28041936913249
 20
-142.3075921866456
 30
0.0
  0
SEQEND
  5
D8
330
D5
100
AcDbEntity
  8
_U+30EC_U+30A4_U+30E4_U+30FC 1
 62
     7
420
 16777215
370
     9
  0
POLYLINE
  5
D9
330
1F
100
AcDbEntity
  8
_U+30EC_U+30A4_U+30E4_U+30FC 1
 62
     7
420
 16777215
370
     9
100
AcDb2dPolyline
 66
     1
 10
0.0
 20
0.0
 30
0.0
  0
VERTEX
  5
DA
330
D9
100
AcDbEntity
  8
_U+30EC_U+30A4_U+30E4_U+30FC 1
 62
     7
420
 16777215
370
     9
100
AcDbVertex
100
AcDb2dVertex
 10
80.2803668407661
 20
-140.8475507981213
 30
0.0
  0
VERTEX
  5
DB
330
D9
100
AcDbEntity
  8
_U+30EC_U+30A4_U+30E4_U+30FC 1
 62
     7
420
 16777215
370
     9
100
AcDbVertex
100
AcDb2dVertex
 10
80.2803668407661
 20
-143.3080346863955
 30
0.0
  0
SEQEND
  5
DC
330
D9
100
AcDbEntity
  8
_U+30EC_U+30A4_U+30E4_U+30FC 1
 62
     7
420
 16777215
370
     9
  0
POLYLINE
  5
DD
330
1F
100
AcDbEntity
  8
_U+30EC_U+30A4_U+30E4_U+30FC 1
 62
     7
420
 16777215
370
     9
100
AcDb2dPolyline
 66
     1
 10
0.0
 20
0.0
 30
0.0
  0
VERTEX
  5
DE
330
DD
100
AcDbEntity
  8
_U+30EC_U+30A4_U+30E4_U+30FC 1
 62
     7
420
 16777215
370
     9
100
AcDbVertex
100
AcDb2dVertex
 10
68.28041936913249
 20
-124.8481966354548
 30
0.0
  0
VERTEX
  5
DF
330
DD
100
AcDbEntity
  8
_U+30EC_U+30A4_U+30E4_U+30FC 1
 62
     7
420
 16777215
370
     9
100
AcDbVertex
100
AcDb2dVertex
 10
68.28041936913249
 20
-143.3080346863955
 30
0.0
  0
SEQEND
  5
E0
330
DD
100
AcDbEntity
  8
_U+30EC_U+30A4_U+30E4_U+30FC 1
 62
     7
420
 16777215
370
     9
  0
INSERT
  5
E2
330
1F
100
AcDbEntity
  8
_U+30EC_U+30A4_U+30E4_U+30FC 1
100
AcDbBlockReference
  2
block 5
 10
0.0
 20
0.0
 30
0.0
  0
POLYLINE
  5
E9
330
1F
100
AcDbEntity
  8
_U+30EC_U+30A4_U+30E4_U+30FC 1
 62
     7
420
 16777215
370
     9
100
AcDb2dPolyline
 66
     1
 10
0.0
 20
0.0
 30
0.0
  0
VERTEX
  5
EA
330
E9
100
AcDbEntity
  8
_U+30EC_U+30A4_U+30E4_U+30FC 1
 62
     7
420
 16777215
370
     9
100
AcDbVertex
100
AcDb2dVertex
 10
112.2801326910507
 20
-138.3078330209787
 30
0.0
  0
VERTEX
  5
EB
330
E9
100
AcDbEntity
  8
_U+30EC_U+30A4_U+30E4_U+30FC 1
 62
     7
420
 16777215
370
     9
100
AcDbVertex
100
AcDb2dVertex
 10
112.2801326910507
 20
-135.3078460772844
 30
0.0
  0
SEQEND
  5
EC
330
E9
100
AcDbEntity
  8
_U+30EC_U+30A4_U+30E4_U+30FC 1
 62
     7
420
 16777215
370
     9
  0
POLYLINE
  5
ED
330
1F
100
AcDbEntity
  8
_U+30EC_U+30A4_U+30E4_U+30FC 1
 62
     7
420
 16777215
370
     9
100
AcDb2dPolyline
 66
     1
 10
0.0
 20
0.0
 30
0.0
  0
VERTEX
  5
EE
330
ED
100
AcDbEntity
  8
_U+30EC_U+30A4_U+30E4_U+30FC 1
 62
     7
420
 16777215
370
     9
100
AcDbVertex
100
AcDb2dVertex
 10
92.8198173541914
 20
-138.3078330209787
 30
0.0
  0
VERTEX
  5
EF
330
ED
100
AcDbEntity
  8
_U+30EC_U+30A4_U+30E4_U+30FC 1
 62
     7
420
 16777215
370
     9
100
AcDbVertex
100
AcDb2dVertex
 10
113.2806104433042
 20
-138.3078330209787
 30
0.0
  0
SEQEND
  5
F0
330
ED
100
AcDbEntity
  8
_U+30EC_U+30A4_U+30E4_U+30FC 1
 62
     7
420
 16777215
370
     9
  0
INSERT
  5
F2
330
1F
100
AcDbEntity
  8
_U+30EC_U+30A4_U+30E4_U+30FC 1
100
AcDbBlockReference
  2
block 6
 10
0.0
 20
0.0
 30
0.0
  0
POLYLINE
  5
F7
330
1F
100
AcDbEntity
  8
_U+30EC_U+30A4_U+30E4_U+30FC 1
 62
     7
420
 16777215
370
     9
100
AcDb2dPolyline
 66
     1
 10
0.0
 20
0.0
 30
0.0
  0
VERTEX
  5
F8
330
F7
100
AcDbEntity
  8
_U+30EC_U+30A4_U+30E4_U+30FC 1
 62
     7
420
 16777215
370
     9
100
AcDbVertex
100
AcDb2dVertex
 10
112.2801326910507
 20
-135.3078460772844
 30
0.0
  0
VERTEX
  5
F9
330
F7
100
AcDbEntity
  8
_U+30EC_U+30A4_U+30E4_U+30FC 1
 62
     7
420
 16777215
370
     9
100
AcDbVertex
100
AcDb2dVertex
 10
112.2801326910507
 20
-122.3077733027564
 30
0.0
  0
SEQEND
  5
FA
330
F7
100
AcDbEntity
  8
_U+30EC_U+30A4_U+30E4_U+30FC 1
 62
     7
420
 16777215
370
     9
  0
POLYLINE
  5
FB
330
1F
100
AcDbEntity
  8
_U+30EC_U+30A4_U+30E4_U+30FC 1
 62
     7
420
 16777215
370
     9
100
AcDb2dPolyline
 66
     1
 10
0.0
 20
0.0
 30
0.0
  0
VERTEX
  5
FC
330
FB
100
AcDbEntity
  8
_U+30EC_U+30A4_U+30E4_U+30FC 1
 62
     7
420
 16777215
370
     9
100
AcDbVertex
100
AcDb2dVertex
 10
92.8198173541914
 20
-135.3078460772844
 30
0.0
  0
VERTEX
  5
FD
330
FB
100
AcDbEntity
  8
_U+30EC_U+30A4_U+30E4_U+30FC 1
 62
     7
420
 16777215
370
     9
100
AcDbVertex
100
AcDb2dVertex
 10
113.2806104433042
 20
-135.3078460772844
 30
0.0
  0
SEQEND
  5
FE
330
FB
100
AcDbEntity
  8
_U+30EC_U+30A4_U+30E4_U+30FC 1
 62
     7
420
 16777215
370
     9
  0
INSERT
  5
100
330
1F
100
AcDbEntity
  8
_U+30EC_U+30A4_U+30E4_U+30FC 1
100
AcDbBlockReference
  2
block 7
 10
0.0
 20
0.0
 30
0.0
  0
ENDSEC
  0
SECTION
  2
OBJECTS
  0
DICTIONARY
  5
C
330
0
100
AcDbDictionary
281
     1
  3
ACAD_GROUP
350
D
  3
ACAD_LAYOUT
350
1A
  3
ACAD_MATERIAL
350
3B
  3
ACAD_MLEADERSTYLE
350
108
  3
ACAD_MLINESTYLE
350
17
  3
ACAD_PLOTSETTINGS
350
19
  3
ACAD_PLOTSTYLENAME
350
E
  3
ACAD_TABLESTYLE
350
107
  3
ACAD_VISUALSTYLE
350
2A
  0
SUN
  5
3F
330
29
100
AcDbSun
 90
        1
290
     0
 63
     7
421
 16777215
 40
1.0
291
     1
 91
  2455826
 92
 54000000
292
     0
 70
     2
 71
   256
280
     1
  0
DICTIONARY
  5
D
102
{ACAD_REACTORS
330
C
102
}
330
C
100
AcDbDictionary
281
     1
  0
DICTIONARY
  5
1A
102
{ACAD_REACTORS
330
C
102
}
330
C
100
AcDbDictionary
281
     1
  3
Layout1
350
1E
  3
Layout2
350
26
  3
Model
350
22
  0
DICTIONARY
  5
3B
102
{ACAD_REACTORS
330
C
102
}
330
C
100
AcDbDictionary
281
     1
  3
ByBlock
350
3D
  3
ByLayer
350
3C
  3
Global
350
3E
  0
DICTIONARY
  5
108
102
{ACAD_REACTORS
330
C
102
}
330
C
100
AcDbDictionary
281
     1
  0
DICTIONARY
  5
17
102
{ACAD_REACTORS
330
C
102
}
330
C
100
AcDbDictionary
281
     1
  3
Standard
350
18
  0
DICTIONARY
  5
19
102
{ACAD_REACTORS
330
C
102
}
330
C
100
AcDbDictionary
281
     1
  0
ACDBDICTIONARYWDFLT
  5
E
102
{ACAD_REACTORS
330
C
102
}
330
C
100
AcDbDictionary
281
     1
  3
Normal
350
F
100
AcDbDictionaryWithDefault
340
F
  0
DICTIONARY
  5
107
102
{ACAD_REACTORS
330
C
102
}
330
C
100
AcDbDictionary
281
     1
  0
DICTIONARY
  5
2A
102
{ACAD_REACTORS
330
C
102
}
330
C
100
AcDbDictionary
281
     1
  3
2dWireframe
350
2F
  3
3D Hidden
350
31
  3
3dWireframe
350
30
  3
Basic
350
32
  3
Brighten
350
36
  3
ColorChange
350
3A
  3
Conceptual
350
34
  3
Dim
350
35
  3
Facepattern
350
39
  3
Flat
350
2B
  3
FlatWithEdges
350
2C
  3
Gouraud
350
2D
  3
GouraudWithEdges
350
2E
  3
Linepattern
350
38
  3
Realistic
350
33
  3
Thicken
350
37
  0
LAYOUT
  5
1E
102
{ACAD_REACTORS
330
1A
102
}
330
1A
100
AcDbPlotSettings
  1

  2
none_device
  4

  6

 40
0.0
 41
0.0
 42
0.0
 43
0.0
 44
0.0
 45
0.0
 46
0.0
 47
0.0
 48
0.0
 49
0.0
140
0.0
141
0.0
142
1.0
143
1.0
 70
   688
 72
     0
 73
     0
 74
     5
  7

 75
    16
 76
     0
 77
     2
 78
   300
147
1.0
148
0.0
149
0.0
100
AcDbLayout
  1
Layout1
 70
     1
 71
     1
 10
0.0
 20
0.0
 11
12.0
 21
9.0
 12
0.0
 22
0.0
 32
0.0
 14
1.000000000000000E+20
 24
1.000000000000000E+20
 34
1.000000000000000E+20
 15
-1.000000000000000E+20
 25
-1.000000000000000E+20
 35
-1.000000000000000E+20
146
0.0
 13
0.0
 23
0.0
 33
0.0
 16
1.0
 26
0.0
 36
0.0
 17
0.0
 27
1.0
 37
0.0
 76
     0
330
1B
  0
LAYOUT
  5
26
102
{ACAD_REACTORS
330
1A
102
}
330
1A
100
AcDbPlotSettings
  1

  2
none_device
  4

  6

 40
0.0
 41
0.0
 42
0.0
 43
0.0
 44
0.0
 45
0.0
 46
0.0
 47
0.0
 48
0.0
 49
0.0
140
0.0
141
0.0
142
1.0
143
1.0
 70
   688
 72
     0
 73
     0
 74
     5
  7

 75
    16
 76
     0
 77
     2
 78
   300
147
1.0
148
0.0
149
0.0
100
AcDbLayout
  1
Layout2
 70
     1
 71
     2
 10
0.0
 20
0.0
 11
0.0
 21
0.0
 12
0.0
 22
0.0
 32
0.0
 14
0.0
 24
0.0
 34
0.0
 15
0.0
 25
0.0
 35
0.0
146
0.0
 13
0.0
 23
0.0
 33
0.0
 16
1.0
 26
0.0
 36
0.0
 17
0.0
 27
1.0
 37
0.0
 76
     0
330
23
  0
LAYOUT
  5
22
102
{ACAD_REACTORS
330
1A
102
}
330
1A
100
AcDbPlotSettings
  1

  2
none_device
  4

  6

 40
0.0
 41
0.0
 42
0.0
 43
0.0
 44
0.0
 45
0.0
 46
0.0
 47
0.0
 48
0.0
 49
0.0
140
0.0
141
0.0
142
1.0
143
1.0
 70
  1712
 72
     0
 73
     0
 74
     0
  7

 75
     0
 76
     0
 77
     2
 78
   300
147
1.0
148
0.0
149
0.0
100
AcDbLayout
  1
Model
 70
     1
 71
     0
 10
0.0
 20
0.0
 11
12.0
 21
9.0
 12
0.0
 22
0.0
 32
0.0
 14
1.000000000000000E+20
 24
1.000000000000000E+20
 34
1.000000000000000E+20
 15
-1.000000000000000E+20
 25
-1.000000000000000E+20
 35
-1.000000000000000E+20
146
0.0
 13
0.0
 23
0.0
 33
0.0
 16
1.0
 26
0.0
 36
0.0
 17
0.0
 27
1.0
 37
0.0
 76
     0
330
1F
331
29
  0
MATERIAL
  5
3D
102
{ACAD_REACTORS
330
3B
102
}
330
3B
100
AcDbMaterial
  1
ByBlock
 72
     1
 94
      127
  0
MATERIAL
  5
3C
102
{ACAD_REACTORS
330
3B
102
}
330
3B
100
AcDbMaterial
  1
ByLayer
 72
     1
 94
      127
  0
MATERIAL
  5
3E
102
{ACAD_REACTORS
330
3B
102
}
330
3B
100
AcDbMaterial
  1
Global
 72
     1
 94
      127
  0
MLINESTYLE
  5
18
102
{ACAD_REACTORS
330
17
102
}
330
17
100
AcDbMlineStyle
  2
Standard
 70
     0
  3

 62
   256
 51
90.0
 52
90.0
 71
     2
 49
0.5
 62
   256
  6
BYLAYER
 49
-0.5
 62
   256
  6
BYLAYER
  0
ACDBPLACEHOLDER
  5
F
102
{ACAD_REACTORS
330
E
102
}
330
E
  0
VISUALSTYLE
  5
2F
102
{ACAD_REACTORS
330
2A
102
}
330
2A
100
AcDbVisualStyle
  2
2dWireframe
 70
     4
177
     2
291
     0
 71
     0
176
     1
 72
     2
176
     1
 73
     0
176
     1
 90
        0
176
     1
 40
-0.6
176
     1
 41
-30.0
176
     1
 62
     5
 63
     7
421
 16777215
176
     1
 74
     1
176
     1
 91
        4
176
     1
 64
     7
176
     1
 65
   257
176
     1
 75
     1
176
     1
175
     1
176
     1
 42
1.0
176
     1
 92
        0
176
     1
 66
   257
176
     1
 43
1.0
176
     1
 76
     1
176
     1
 77
     6
176
     1
 78
     2
176
     1
 67
     7
176
     1
 79
     5
176
     1
170
     0
176
     1
171
     0
176
     1
290
     0
176
     1
 93
        1
176
     1
 44
0.0
176
     1
173
     0
176
     1
  0
VISUALSTYLE
  5
31
102
{ACAD_REACTORS
330
2A
102
}
330
2A
100
AcDbVisualStyle
  2
3D Hidden
 70
     6
177
     2
291
     0
 71
     1
176
     1
 72
     2
176
     1
 73
     2
176
     1
 90
        0
176
     1
 40
-0.6
176
     1
 41
-30.0
176
     1
 62
     5
 63
     7
421
 16777215
176
     1
 74
     2
176
     1
 91
        2
176
     1
 64
     7
176
     1
 65
   257
176
     1
 75
     2
176
     1
175
     1
176
     1
 42
40.0
176
     1
 92
        0
176
     1
 66
   257
176
     1
 43
1.0
176
     1
 76
     1
176
     1
 77
     6
176
     1
 78
     2
176
     1
 67
     7
176
     1
 79
     3
176
     1
170
     0
176
     1
171
     0
176
     1
290
     0
176
     1
 93
        1
176
     1
 44
0.0
176
     1
173
     0
176
     1
  0
VISUALSTYLE
  5
30
102
{ACAD_REACTORS
330
2A
102
}
330
2A
100
AcDbVisualStyle
  2
3dWireframe
 70
     5
177
     2
291
     0
 71
     0
176
     1
 72
     2
176
     1
 73
     0
176
     1
 90
        0
176
     1
 40
-0.6
176
     1
 41
-30.0
176
     1
 62
     5
 63
     7
421
 16777215
176
     1
 74
     1
176
     1
 91
        4
176
     1
 64
     7
176
     1
 65
   257
176
     1
 75
     1
176
     1
175
     1
176
     1
 42
1.0
176
     1
 92
        0
176
     1
 66
   257
176
     1
 43
1.0
176
     1
 76
     1
176
     1
 77
     6
176
     1
 78
     2
176
     1
 67
     7
176
     1
 79
     5
176
     1
170
     0
176
     1
171
     0
176
     1
290
     0
176
     1
 93
        1
176
     1
 44
0.0
176
     1
173
     0
176
     1
  0
VISUALSTYLE
  5
32
102
{ACAD_REACTORS
330
2A
102
}
330
2A
100
AcDbVisualStyle
  2
Basic
 70
     7
177
     2
291
     1
 71
     1
176
     1
 72
     0
176
     1
 73
     1
176
     1
 90
        0
176
     1
 40
-0.6
176
     1
 41
-30.0
176
     1
 62
     5
 63
     7
421
 16777215
176
     1
 74
     0
176
     1
 91
        4
176
     1
 64
     7
176
     1
 65
   257
176
     1
 75
     1
176
     1
175
     1
176
     1
 42
1.0
176
     1
 92
        8
176
     1
 66
     7
176
     1
 43
1.0
176
     1
 76
     1
176
     1
 77
     6
176
     1
 78
     2
176
     1
 67
     7
176
     1
 79
     5
176
     1
170
     0
176
     1
171
     0
176
     1
290
     0
176
     1
 93
        1
176
     1
 44
0.0
176
     1
173
     0
176
     1
  0
VISUALSTYLE
  5
36
102
{ACAD_REACTORS
330
2A
102
}
330
2A
100
AcDbVisualStyle
  2
Brighten
 70
    12
177
     2
291
     1
 71
     2
176
     1
 72
     2
176
     1
 73
     0
176
     1
 90
        0
176
     1
 40
-0.6
176
     1
 41
-30.0
176
     1
 62
     5
 63
     7
421
 16777215
176
     1
 74
     1
176
     1
 91
        4
176
     1
 64
     7
176
     1
 65
   257
176
     1
 75
     1
176
     1
175
     1
176
     1
 42
1.0
176
     1
 92
        8
176
     1
 66
     7
176
     1
 43
1.0
176
     1
 76
     1
176
     1
 77
     6
176
     1
 78
     2
176
     1
 67
     7
176
     1
 79
     5
176
     1
170
     0
176
     1
171
     0
176
     1
290
     0
176
     1
 93
        1
176
     1
 44
50.0
176
     1
173
     0
176
     1
  0
VISUALSTYLE
  5
3A
102
{ACAD_REACTORS
330
2A
102
}
330
2A
100
AcDbVisualStyle
  2
ColorChange
 70
    16
177
     2
291
     1
 71
     2
176
     1
 72
     2
176
     1
 73
     3
176
     1
 90
        0
176
     1
 40
-0.6
176
     1
 41
-30.0
176
     1
 62
     5
 63
     8
421
  8421504
176
     1
 74
     1
176
     1
 91
        4
176
     1
 64
     7
176
     1
 65
   257
176
     1
 75
     1
176
     1
175
     1
176
     1
 42
1.0
176
     1
 92
        8
176
     1
 66
     8
424
  8421504
176
     1
 43
1.0
176
     1
 76
     1
176
     1
 77
     6
176
     1
 78
     2
176
     1
 67
     7
176
     1
 79
     5
176
     1
170
     0
176
     1
171
     0
176
     1
290
     0
176
     1
 93
        1
176
     1
 44
0.0
176
     1
173
     0
176
     1
  0
VISUALSTYLE
  5
34
102
{ACAD_REACTORS
330
2A
102
}
330
2A
100
AcDbVisualStyle
  2
Conceptual
 70
     9
177
     2
291
     0
 71
     3
176
     1
 72
     2
176
     1
 73
     0
176
     1
 90
        0
176
     1
 40
-0.6
176
     1
 41
-30.0
176
     1
 62
     5
 63
     7
421
 16777215
176
     1
 74
     2
176
     1
 91
        2
176
     1
 64
     7
176
     1
 65
   257
176
     1
 75
     1
176
     1
175
     1
176
     1
 42
40.0
176
     1
 92
        8
176
     1
 66
     7
176
     1
 43
1.0
176
     1
 76
     1
176
     1
 77
     6
176
     1
 78
     2
176
     1
 67
     7
176
     1
 79
     3
176
     1
170
     0
176
     1
171
     0
176
     1
290
     0
176
     1
 93
        1
176
     1
 44
0.0
176
     1
173
     0
176
     1
  0
VISUALSTYLE
  5
35
102
{ACAD_REACTORS
330
2A
102
}
330
2A
100
AcDbVisualStyle
  2
Dim
 70
    11
177
     2
291
     1
 71
     2
176
     1
 72
     2
176
     1
 73
     0
176
     1
 90
        0
176
     1
 40
-0.6
176
     1
 41
-30.0
176
     1
 62
     5
 63
     7
421
 16777215
176
     1
 74
     1
176
     1
 91
        4
176
     1
 64
     7
176
     1
 65
   257
176
     1
 75
     1
176
     1
175
     1
176
     1
 42
1.0
176
     1
 92
        8
176
     1
 66
     7
176
     1
 43
1.0
176
     1
 76
     1
176
     1
 77
     6
176
     1
 78
     2
176
     1
 67
     7
176
     1
 79
     5
176
     1
170
     0
176
     1
171
     0
176
     1
290
     0
176
     1
 93
        1
176
     1
 44
-50.0
176
     1
173
     0
176
     1
  0
VISUALSTYLE
  5
39
102
{ACAD_REACTORS
330
2A
102
}
330
2A
100
AcDbVisualStyle
  2
Facepattern
 70
    15
177
     2
291
     1
 71
     2
176
     1
 72
     2
176
     1
 73
     0
176
     1
 90
        0
176
     1
 40
-0.6
176
     1
 41
-30.0
176
     1
 62
     5
 63
     7
421
 16777215
176
     1
 74
     1
176
     1
 91
        4
176
     1
 64
     7
176
     1
 65
   257
176
     1
 75
     1
176
     1
175
     1
176
     1
 42
1.0
176
     1
 92
        8
176
     1
 66
     7
176
     1
 43
1.0
176
     1
 76
     1
176
     1
 77
     6
176
     1
 78
     2
176
     1
 67
     7
176
     1
 79
     5
176
     1
170
     0
176
     1
171
     0
176
     1
290
     0
176
     1
 93
        1
176
     1
 44
0.0
176
     1
173
     0
176
     1
  0
VISUALSTYLE
  5
2B
102
{ACAD_REACTORS
330
2A
102
}
330
2A
100
AcDbVisualStyle
  2
Flat
 70
     0
177
     2
291
     1
 71
     2
176
     1
 72
     1
176
     1
 73
     1
176
     1
 90
        2
176
     1
 40
-0.6
176
     1
 41
30.0
176
     1
 62
     5
 63
     7
421
 16777215
176
     1
 74
     0
176
     1
 91
        4
176
     1
 64
     7
176
     1
 65
   257
176
     1
 75
     1
176
     1
175
     1
176
     1
 42
1.0
176
     1
 92
        8
176
     1
 66
     7
176
     1
 43
1.0
176
     1
 76
     1
176
     1
 77
     6
176
     1
 78
     2
176
     1
 67
     7
176
     1
 79
     5
176
     1
170
     0
176
     1
171
     0
176
     1
290
     0
176
     1
 93
       13
176
     1
 44
0.0
176
     1
173
     0
176
     1
  0
VISUALSTYLE
  5
2C
102
{ACAD_REACTORS
330
2A
102
}
330
2A
100
AcDbVisualStyle
  2
FlatWithEdges
 70
     1
177
     2
291
     1
 71
     2
176
     1
 72
     1
176
     1
 73
     1
176
     1
 90
        2
176
     1
 40
-0.6
176
     1
 41
30.0
176
     1
 62
     5
 63
     7
421
 16777215
176
     1
 74
     1
176
     1
 91
        4
176
     1
 64
     7
176
     1
 65
   257
176
     1
 75
     1
176
     1
175
     1
176
     1
 42
1.0
176
     1
 92
        0
176
     1
 66
   257
176
     1
 43
1.0
176
     1
 76
     1
176
     1
 77
     6
176
     1
 78
     2
176
     1
 67
     7
176
     1
 79
     5
176
     1
170
     0
176
     1
171
     0
176
     1
290
     0
176
     1
 93
       13
176
     1
 44
0.0
176
     1
173
     0
176
     1
  0
VISUALSTYLE
  5
2D
102
{ACAD_REACTORS
330
2A
102
}
330
2A
100
AcDbVisualStyle
  2
Gouraud
 70
     2
177
     2
291
     1
 71
     2
176
     1
 72
     2
176
     1
 73
     1
176
     1
 90
        2
176
     1
 40
-0.6
176
     1
 41
30.0
176
     1
 62
     5
 63
     7
421
 16777215
176
     1
 74
     0
176
     1
 91
        4
176
     1
 64
     7
176
     1
 65
   257
176
     1
 75
     1
176
     1
175
     1
176
     1
 42
1.0
176
     1
 92
        0
176
     1
 66
     7
176
     1
 43
1.0
176
     1
 76
     1
176
     1
 77
     6
176
     1
 78
     2
176
     1
 67
     7
176
     1
 79
     5
176
     1
170
     0
176
     1
171
     0
176
     1
290
     0
176
     1
 93
       13
176
     1
 44
0.0
176
     1
173
     0
176
     1
  0
VISUALSTYLE
  5
2E
102
{ACAD_REACTORS
330
2A
102
}
330
2A
100
AcDbVisualStyle
  2
GouraudWithEdges
 70
     3
177
     2
291
     1
 71
     2
176
     1
 72
     2
176
     1
 73
     1
176
     1
 90
        2
176
     1
 40
-0.6
176
     1
 41
30.0
176
     1
 62
     5
 63
     7
421
 16777215
176
     1
 74
     1
176
     1
 91
        4
176
     1
 64
     7
176
     1
 65
   257
176
     1
 75
     1
176
     1
175
     1
176
     1
 42
1.0
176
     1
 92
        0
176
     1
 66
   257
176
     1
 43
1.0
176
     1
 76
     1
176
     1
 77
     6
176
     1
 78
     2
176
     1
 67
     7
176
     1
 79
     5
176
     1
170
     0
176
     1
171
     0
176
     1
290
     0
176
     1
 93
       13
176
     1
 44
0.0
176
     1
173
     0
176
     1
  0
VISUALSTYLE
  5
38
102
{ACAD_REACTORS
330
2A
102
}
330
2A
100
AcDbVisualStyle
  2
Linepattern
 70
    14
177
     2
291
     1
 71
     2
176
     1
 72
     2
176
     1
 73
     0
176
     1
 90
        0
176
     1
 40
-0.6
176
     1
 41
-30.0
176
     1
 62
     5
 63
     7
421
 16777215
176
     1
 74
     1
176
     1
 91
        4
176
     1
 64
     7
176
     1
 65
   257
176
     1
 75
     7
176
     1
175
     7
176
     1
 42
1.0
176
     1
 92
        8
176
     1
 66
     7
176
     1
 43
1.0
176
     1
 76
     1
176
     1
 77
     6
176
     1
 78
     2
176
     1
 67
     7
176
     1
 79
     5
176
     1
170
     0
176
     1
171
     0
176
     1
290
     0
176
     1
 93
        1
176
     1
 44
0.0
176
     1
173
     0
176
     1
  0
VISUALSTYLE
  5
33
102
{ACAD_REACTORS
330
2A
102
}
330
2A
100
AcDbVisualStyle
  2
Realistic
 70
     8
177
     2
291
     0
 71
     2
176
     1
 72
     2
176
     1
 73
     0
176
     1
 90
        0
176
     1
 40
-0.6
176
     1
 41
-30.0
176
     1
 62
     5
 63
     7
421
 16777215
176
     1
 74
     1
176
     1
 91
        0
176
     1
 64
     7
176
     1
 65
   257
176
     1
 75
     1
176
     1
175
     1
176
     1
 42
1.0
176
     1
 92
        8
176
     1
 66
     8
424
  7895160
176
     1
 43
1.0
176
     1
 76
     1
176
     1
 77
     6
176
     1
 78
     2
176
     1
 67
     7
176
     1
 79
     5
176
     1
170
     0
176
     1
171
     0
176
     1
290
     0
176
     1
 93
       13
176
     1
 44
0.0
176
     1
173
     0
176
     1
  0
VISUALSTYLE
  5
37
102
{ACAD_REACTORS
330
2A
102
}
330
2A
100
AcDbVisualStyle
  2
Thicken
 70
    13
177
     2
291
     1
 71
     2
176
     1
 72
     2
176
     1
 73
     0
176
     1
 90
        0
176
     1
 40
-0.6
176
     1
 41
-30.0
176
     1
 62
     5
 63
     7
421
 16777215
176
     1
 74
     1
176
     1
 91
        4
176
     1
 64
     7
176
     1
 65
   257
176
     1
 75
     1
176
     1
175
     1
176
     1
 42
1.0
176
     1
 92
       12
176
     1
 66
     7
176
     1
 43
1.0
176
     1
 76
     1
176
     1
 77
     6
176
     1
 78
     2
176
     1
 67
     7
176
     1
 79
     5
176
     1
170
     0
176
     1
171
     0
176
     1
290
     0
176
     1
 93
        1
176
     1
 44
0.0
176
     1
173
     0
176
     1
  0
ENDSEC
  0
EOF
