  0
SECTION
  2
HEADER
  9
$ACADVER
  1
AC1024
  9
$ACADMAINTVER
 70
     6
  9
$DWGCODEPAGE
  3
UNDEFINED
  9
$INSBASE
 10
0.0
 20
0.0
 30
0.0
  9
$EXTMIN
 10
1.000000000000000E+20
 20
1.000000000000000E+20
 30
1.000000000000000E+20
  9
$EXTMAX
 10
-1.000000000000000E+20
 20
-1.000000000000000E+20
 30
-1.000000000000000E+20
  9
$LIMMIN
 10
0.0
 20
0.0
  9
$LIMMAX
 10
12.0
 20
9.0
  9
$ORTHOMODE
 70
     0
  9
$REGENMODE
 70
     1
  9
$FILLMODE
 70
     1
  9
$QTEXTMODE
 70
     0
  9
$MIRRTEXT
 70
     1
  9
$LTSCALE
 40
1.0
  9
$ATTMODE
 70
     1
  9
$TEXTSIZE
 40
0.2
  9
$TRACEWID
 40
0.05
  9
$TEXTSTYLE
  7
Standard
  9
$CLAYER
  8
0
  9
$CELTYPE
  6
ByLayer
  9
$CECOLOR
 62
   256
  9
$CELTSCALE
 40
1.0
  9
$DISPSILH
 70
     0
  9
$DIMSCALE
 40
1.0
  9
$DIMASZ
 40
0.18
  9
$DIMEXO
 40
0.0625
  9
$DIMDLI
 40
0.38
  9
$DIMRND
 40
0.0
  9
$DIMDLE
 40
0.0
  9
$DIMEXE
 40
0.18
  9
$DIMTP
 40
0.0
  9
$DIMTM
 40
0.0
  9
$DIMTXT
 40
0.18
  9
$DIMCEN
 40
0.09
  9
$DIMTSZ
 40
0.0
  9
$DIMTOL
 70
     0
  9
$DIMLIM
 70
     0
  9
$DIMTIH
 70
     1
  9
$DIMTOH
 70
     1
  9
$DIMSE1
 70
     0
  9
$DIMSE2
 70
     0
  9
$DIMTAD
 70
     0
  9
$DIMZIN
 70
     0
  9
$DIMBLK
  1

  9
$DIMASO
 70
     1
  9
$DIMSHO
 70
     1
  9
$DIMPOST
  1

  9
$DIMAPOST
  1

  9
$DIMALT
 70
     0
  9
$DIMALTD
 70
     2
  9
$DIMALTF
 40
25.4
  9
$DIMLFAC
 40
1.0
  9
$DIMTOFL
 70
     0
  9
$DIMTVP
 40
0.0
  9
$DIMTIX
 70
     0
  9
$DIMSOXD
 70
     0
  9
$DIMSAH
 70
     0
  9
$DIMBLK1
  1

  9
$DIMBLK2
  1

  9
$DIMSTYLE
  2
Standard
  9
$DIMCLRD
 70
     0
  9
$DIMCLRE
 70
     0
  9
$DIMCLRT
 70
     0
  9
$DIMTFAC
 40
1.0
  9
$DIMGAP
 40
0.09
  9
$DIMJUST
 70
     0
  9
$DIMSD1
 70
     0
  9
$DIMSD2
 70
     0
  9
$DIMTOLJ
 70
     1
  9
$DIMTZIN
 70
     0
  9
$DIMALTZ
 70
     0
  9
$DIMALTTZ
 70
     0
  9
$DIMUPT
 70
     0
  9
$DIMDEC
 70
     4
  9
$DIMTDEC
 70
     4
  9
$DIMALTU
 70
     2
  9
$DIMALTTD
 70
     2
  9
$DIMTXSTY
  7
Standard
  9
$DIMAUNIT
 70
     0
  9
$DIMADEC
 70
     0
  9
$DIMALTRND
 40
0.0
  9
$DIMAZIN
 70
     0
  9
$DIMDSEP
 70
    46
  9
$DIMATFIT
 70
     3
  9
$DIMFRAC
 70
     0
  9
$DIMLDRBLK
  1

  9
$DIMLUNIT
 70
     2
  9
$DIMLWD
 70
    -2
  9
$DIMLWE
 70
    -2
  9
$DIMTMOVE
 70
     0
  9
$DIMFXL
 40
1.0
  9
$DIMFXLON
 70
     0
  9
$DIMJOGANG
 40
0.7853981633974483
  9
$DIMTFILL
 70
     0
  9
$DIMTFILLCLR
 70
     0
  9
$DIMARCSYM
 70
     0
  9
$DIMLTYPE
  6

  9
$DIMLTEX1
  6

  9
$DIMLTEX2
  6

  9
$DIMTXTDIRECTION
 70
     0
  9
$LUNITS
 70
     2
  9
$LUPREC
 70
     4
  9
$SKETCHINC
 40
0.1
  9
$FILLETRAD
 40
0.5
  9
$AUNITS
 70
     0
  9
$AUPREC
 70
     0
  9
$MENU
  1
.
  9
$ELEVATION
 40
0.0
  9
$PELEVATION
 40
0.0
  9
$THICKNESS
 40
0.0
  9
$LIMCHECK
 70
     0
  9
$CHAMFERA
 40
0.5
  9
$CHAMFERB
 40
0.5
  9
$CHAMFERC
 40
1.0
  9
$CHAMFERD
 40
0.0
  9
$SKPOLY
 70
     0
  9
$TDCREATE
 40
2457917.612696759
  9
$TDUCREATE
 40
2457917.237696759
  9
$TDUPDATE
 40
2457917.612696759
  9
$TDUUPDATE
 40
2457917.237696759
  9
$TDINDWG
 40
0.0000000116
  9
$TDUSRTIMER
 40
0.0000000116
  9
$USRTIMER
 70
     1
  9
$ANGBASE
 50
0.0
  9
$ANGDIR
 70
     0
  9
$PDMODE
 70
     0
  9
$PDSIZE
 40
0.0
  9
$PLINEWID
 40
0.0
  9
$SPLFRAME
 70
     0
  9
$SPLINETYPE
 70
     6
  9
$SPLINESEGS
 70
     8
  9
$HANDSEED
  5
103
  9
$SURFTAB1
 70
     6
  9
$SURFTAB2
 70
     6
  9
$SURFTYPE
 70
     6
  9
$SURFU
 70
     6
  9
$SURFV
 70
     6
  9
$UCSBASE
  2

  9
$UCSNAME
  2

  9
$UCSORG
 10
0.0
 20
0.0
 30
0.0
  9
$UCSXDIR
 10
1.0
 20
0.0
 30
0.0
  9
$UCSYDIR
 10
0.0
 20
1.0
 30
0.0
  9
$UCSORTHOREF
  2

  9
$UCSORTHOVIEW
 70
     0
  9
$UCSORGTOP
 10
0.0
 20
0.0
 30
0.0
  9
$UCSORGBOTTOM
 10
0.0
 20
0.0
 30
0.0
  9
$UCSORGLEFT
 10
0.0
 20
0.0
 30
0.0
  9
$UCSORGRIGHT
 10
0.0
 20
0.0
 30
0.0
  9
$UCSORGFRONT
 10
0.0
 20
0.0
 30
0.0
  9
$UCSORGBACK
 10
0.0
 20
0.0
 30
0.0
  9
$PUCSBASE
  2

  9
$PUCSNAME
  2

  9
$PUCSORG
 10
0.0
 20
0.0
 30
0.0
  9
$PUCSXDIR
 10
1.0
 20
0.0
 30
0.0
  9
$PUCSYDIR
 10
0.0
 20
1.0
 30
0.0
  9
$PUCSORTHOREF
  2

  9
$PUCSORTHOVIEW
 70
     0
  9
$PUCSORGTOP
 10
0.0
 20
0.0
 30
0.0
  9
$PUCSORGBOTTOM
 10
0.0
 20
0.0
 30
0.0
  9
$PUCSORGLEFT
 10
0.0
 20
0.0
 30
0.0
  9
$PUCSORGRIGHT
 10
0.0
 20
0.0
 30
0.0
  9
$PUCSORGFRONT
 10
0.0
 20
0.0
 30
0.0
  9
$PUCSORGBACK
 10
0.0
 20
0.0
 30
0.0
  9
$USERI1
 70
     0
  9
$USERI2
 70
     0
  9
$USERI3
 70
     0
  9
$USERI4
 70
     0
  9
$USERI5
 70
     0
  9
$USERR1
 40
0.0
  9
$USERR2
 40
0.0
  9
$USERR3
 40
0.0
  9
$USERR4
 40
0.0
  9
$USERR5
 40
0.0
  9
$WORLDVIEW
 70
     1
  9
$SHADEDGE
 70
     3
  9
$SHADEDIF
 70
    70
  9
$TILEMODE
 70
     1
  9
$MAXACTVP
 70
    64
  9
$PINSBASE
 10
0.0
 20
0.0
 30
0.0
  9
$PLIMCHECK
 70
     0
  9
$PEXTMIN
 10
1.000000000000000E+20
 20
1.000000000000000E+20
 30
1.000000000000000E+20
  9
$PEXTMAX
 10
-1.000000000000000E+20
 20
-1.000000000000000E+20
 30
-1.000000000000000E+20
  9
$PLIMMIN
 10
0.0
 20
0.0
  9
$PLIMMAX
 10
12.0
 20
9.0
  9
$UNITMODE
 70
     0
  9
$VISRETAIN
 70
     1
  9
$PLINEGEN
 70
     0
  9
$PSLTSCALE
 70
     1
  9
$TREEDEPTH
 70
  3020
  9
$CMLSTYLE
  2
Standard
  9
$CMLJUST
 70
     0
  9
$CMLSCALE
 40
1.0
  9
$PROXYGRAPHICS
 70
     1
  9
$MEASUREMENT
 70
     0
  9
$CELWEIGHT
370
    -1
  9
$ENDCAPS
280
     0
  9
$JOINSTYLE
280
     0
  9
$LWDISPLAY
290
     1
  9
$INSUNITS
 70
     1
  9
$HYPERLINKBASE
  1

  9
$STYLESHEET
  1

  9
$XEDIT
290
     1
  9
$CEPSNTYPE
380
     0
  9
$PSTYLEMODE
290
     1
  9
$FINGERPRINTGUID
  2
{F66F60B4-6417-8AEA-55CA-6A2F2CE42217}
  9
$VERSIONGUID
  2
{FAEB1C32-E019-11D5-929B-00C0DF256EC4}
  9
$EXTNAMES
290
     1
  9
$PSVPSCALE
 40
0.0
  9
$OLESTARTUP
290
     0
  9
$SORTENTS
280
   127
  9
$INDEXCTL
280
     0
  9
$HIDETEXT
280
     1
  9
$XCLIPFRAME
280
     2
  9
$HALOGAP
280
     0
  9
$OBSCOLOR
 70
   257
  9
$OBSLTYPE
280
     0
  9
$INTERSECTIONDISPLAY
280
     0
  9
$INTERSECTIONCOLOR
 70
   257
  9
$DIMASSOC
280
     2
  9
$PROJECTNAME
  1

  9
$CAMERADISPLAY
290
     0
  9
$LENSLENGTH
 40
50.0
  9
$CAMERAHEIGHT
 40
0.0
  9
$STEPSPERSEC
 40
2.0
  9
$STEPSIZE
 40
6.0
  9
$3DDWFPREC
 40
2.0
  9
$PSOLWIDTH
 40
0.25
  9
$PSOLHEIGHT
 40
4.0
  9
$LOFTANG1
 40
1.570796326794897
  9
$LOFTANG2
 40
1.570796326794897
  9
$LOFTMAG1
 40
0.0
  9
$LOFTMAG2
 40
0.0
  9
$LOFTPARAM
 70
     7
  9
$LOFTNORMALS
280
     1
  9
$LATITUDE
 40
37.795
  9
$LONGITUDE
 40
-122.394
  9
$NORTHDIRECTION
 40
0.0
  9
$TIMEZONE
 70
 -8000
  9
$LIGHTGLYPHDISPLAY
280
     1
  9
$TILEMODELIGHTSYNCH
280
     1
  9
$CMATERIAL
347
3C
  9
$SOLIDHIST
280
     1
  9
$SHOWHIST
280
     1
  9
$DWFFRAME
280
     2
  9
$DGNFRAME
280
     2
  9
$REALWORLDSCALE
290
     1
  9
$INTERFERECOLOR
 62
   256
  9
$CSHADOW
280
     0
  9
$SHADOWPLANELOCATION
 40
0.0
  0
ENDSEC
  0
SECTION
  2
CLASSES
  0
CLASS
  1
ACDBDICTIONARYWDFLT
  2
AcDbDictionaryWithDefault
  3
ObjectDBX Classes
 90
        0
 91
        4
280
     0
281
     0
  0
CLASS
  1
VISUALSTYLE
  2
AcDbVisualStyle
  3
ObjectDBX Classes
 90
     4095
 91
        4
280
     0
281
     0
  0
CLASS
  1
MATERIAL
  2
AcDbMaterial
  3
ObjectDBX Classes
 90
     1153
 91
        4
280
     0
281
     0
  0
CLASS
  1
SUN
  2
AcDbSun
  3
SCENEOE
 90
     1024
 91
        4
280
     0
281
     0
  0
ENDSEC
  0
SECTION
  2
TABLES
  0
TABLE
  2
VPORT
  5
8
330
0
100
AcDbSymbolTable
 70
     1
  0
VPORT
  5
29
330
8
100
AcDbSymbolTableRecord
100
AcDbViewportTableRecord
  2
*Active
 70
     0
 10
0.0
 20
0.0
 11
1.0
 21
1.0
 12
0.0
 22
0.0
 13
0.0
 23
0.0
 14
0.5
 24
0.5
 15
0.5
 25
0.5
 16
0.0
 26
0.0
 36
1.0
 17
91.00082462281999
 27
-128.4993055234307
 37
0.0
 40
256.9986110468615
 41
0.7081814508812795
 42
50.0
 43
0.0
 44
0.0
 50
0.0
 51
0.0
 71
     0
 72
   100
 73
     1
 74
     3
 75
     0
 76
     0
 77
     0
 78
     0
281
     0
 65
     1
110
0.0
120
0.0
130
0.0
111
1.0
121
0.0
131
0.0
112
0.0
122
1.0
132
0.0
 79
     0
146
0.0
 60
     3
 61
     5
292
     1
282
     1
141
0.0
142
0.0
 63
   250
361
3F
  0
ENDTAB
  0
TABLE
  2
LTYPE
  5
5
330
0
100
AcDbSymbolTable
 70
     1
  0
LTYPE
  5
14
330
5
100
AcDbSymbolTableRecord
100
AcDbLinetypeTableRecord
  2
ByBlock
 70
     0
  3

 72
    65
 73
     0
 40
0.0
  0
LTYPE
  5
15
330
5
100
AcDbSymbolTableRecord
100
AcDbLinetypeTableRecord
  2
ByLayer
 70
     0
  3

 72
    65
 73
     0
 40
0.0
  0
LTYPE
  5
16
330
5
100
AcDbSymbolTableRecord
100
AcDbLinetypeTableRecord
  2
Continuous
 70
     0
  3
Solid line
 72
    65
 73
     0
 40
0.0
  0
ENDTAB
  0
TABLE
  2
LAYER
  5
2
330
0
100
AcDbSymbolTable
 70
     2
  0
LAYER
  5
10
330
2
100
AcDbSymbolTableRecord
100
AcDbLayerTableRecord
  2
0
 70
     0
 62
     7
  6
Continuous
370
    -3
390
F
347
3E
  0
LAYER
  5
40
330
2
100
AcDbSymbolTableRecord
100
AcDbLayerTableRecord
  2
_U+30EC_U+30A4_U+30E4_U+30FC 1
 70
     0
 62
     7
  6
Continuous
370
    -3
390
F
347
3E
  0
ENDTAB
  0
TABLE
  2
STYLE
  5
3
330
0
100
AcDbSymbolTable
 70
     1
  0
STYLE
  5
11
330
3
100
AcDbSymbolTableRecord
100
AcDbTextStyleTableRecord
  2
Standard
 70
     0
 40
0.0
 41
1.0
 50
0.0
 71
     0
 42
0.2
  3
txt
  4

  0
ENDTAB
  0
TABLE
  2
VIEW
  5
6
330
0
100
AcDbSymbolTable
 70
     0
  0
ENDTAB
  0
TABLE
  2
UCS
  5
7
330
0
100
AcDbSymbolTable
 70
     0
  0
ENDTAB
  0
TABLE
  2
APPID
  5
9
330
0
100
AcDbSymbolTable
 70
     1
  0
APPID
  5
12
330
9
100
AcDbSymbolTableRecord
100
AcDbRegAppTableRecord
  2
ACAD
 70
     0
  0
ENDTAB
  0
TABLE
  2
DIMSTYLE
  5
A
330
0
100
AcDbSymbolTable
 70
     1
100
AcDbDimStyleTable
  0
DIMSTYLE
105
27
330
A
100
AcDbSymbolTableRecord
100
AcDbDimStyleTableRecord
  2
Standard
 70
     0
178
     0
340
11
  0
ENDTAB
  0
TABLE
  2
BLOCK_RECORD
  5
1
330
0
100
AcDbSymbolTable
 70
     7
  0
BLOCK_RECORD
  5
1F
330
1
100
AcDbSymbolTableRecord
100
AcDbBlockTableRecord
  2
*Model_Space
340
22
 70
     0
280
     1
281
     0
  0
BLOCK_RECORD
  5
1B
330
1
100
AcDbSymbolTableRecord
100
AcDbBlockTableRecord
  2
*Paper_Space
340
1E
 70
     0
280
     1
281
     0
  0
BLOCK_RECORD
  5
23
330
1
100
AcDbSymbolTableRecord
100
AcDbBlockTableRecord
  2
*Paper_Space0
340
26
 70
     0
280
     1
281
     0
  0
BLOCK_RECORD
  5
9A
330
1
100
AcDbSymbolTableRecord
100
AcDbBlockTableRecord
  2
block 2
340
0
102
{BLKREFS
331
9B
102
}
 70
     0
280
     1
281
     0
  0
BLOCK_RECORD
  5
A8
330
1
100
AcDbSymbolTableRecord
100
AcDbBlockTableRecord
  2
block 3
340
0
102
{BLKREFS
331
A9
102
}
 70
     0
280
     1
281
     0
  0
BLOCK_RECORD
  5
B9
330
1
100
AcDbSymbolTableRecord
100
AcDbBlockTableRecord
  2
block 4
340
0
102
{BLKREFS
331
BA
102
}
 70
     0
280
     1
281
     0
  0
BLOCK_RECORD
  5
C7
330
1
100
AcDbSymbolTableRecord
100
AcDbBlockTableRecord
  2
block 5
340
0
102
{BLKREFS
331
C8
102
}
 70
     0
280
     1
281
     0
  0
BLOCK_RECORD
  5
E5
330
1
100
AcDbSymbolTableRecord
100
AcDbBlockTableRecord
  2
block 6
340
0
102
{BLKREFS
331
E6
102
}
 70
     0
280
     1
281
     0
  0
BLOCK_RECORD
  5
F9
330
1
100
AcDbSymbolTableRecord
100
AcDbBlockTableRecord
  2
block 7
340
0
102
{BLKREFS
331
FA
102
}
 70
     0
280
     1
281
     0
  0
ENDTAB
  0
ENDSEC
  0
SECTION
  2
BLOCKS
  0
BLOCK
  5
20
330
1F
100
AcDbEntity
  8
0
100
AcDbBlockBegin
  2
*Model_Space
 70
     0
 10
0.0
 20
0.0
 30
0.0
  3
*Model_Space
  1

  0
ENDBLK
  5
21
330
1F
100
AcDbEntity
  8
0
100
AcDbBlockEnd
  0
BLOCK
  5
1C
330
1B
100
AcDbEntity
 67
     1
  8
0
100
AcDbBlockBegin
  2
*Paper_Space
 70
     0
 10
0.0
 20
0.0
 30
0.0
  3
*Paper_Space
  1

  0
ENDBLK
  5
1D
330
1B
100
AcDbEntity
 67
     1
  8
0
100
AcDbBlockEnd
  0
BLOCK
  5
24
330
23
100
AcDbEntity
  8
0
100
AcDbBlockBegin
  2
*Paper_Space0
 70
     0
 10
0.0
 20
0.0
 30
0.0
  3
*Paper_Space0
  1

  0
ENDBLK
  5
25
330
23
100
AcDbEntity
  8
0
100
AcDbBlockEnd
  0
BLOCK
  5
9C
330
9A
100
AcDbEntity
  8
0
100
AcDbBlockBegin
  2
block 2
 70
     0
 10
0.0
 20
0.0
 30
0.0
  3
block 2
  1

  0
SPLINE
  5
9E
330
9A
100
AcDbEntity
  8
_U+30EC_U+30A4_U+30E4_U+30FC 1
370
     0
100
AcDbSpline
210
0.0
220
0.0
230
1.0
 70
    11
 71
     3
 72
    26
 73
    22
 74
     0
 42
0.0000000001
 43
0.0000000001
 12
1.0
 22
0.0
 32
0.0
 13
1.0
 23
0.0
 33
0.0
 40
0.0
 40
0.0
 40
0.0
 40
0.0
 40
1.0
 40
1.0
 40
1.0
 40
2.0
 40
2.0
 40
2.0
 40
3.0
 40
3.0
 40
3.0
 40
4.0
 40
4.0
 40
4.0
 40
5.0
 40
5.0
 40
5.0
 40
6.0
 40
6.0
 40
6.0
 40
7.0
 40
7.0
 40
7.0
 40
7.0
 10
109.4372476939949
 20
-124.0134466920869
 30
0.0
 10
109.4372476939949
 20
-124.0134466920869
 30
0.0
 10
108.3330945909723
 20
-124.0134466920869
 30
0.0
 10
108.3330945909723
 20
-124.0134466920869
 30
0.0
 10
108.3330945909723
 20
-124.0134466920869
 30
0.0
 10
108.3330945909723
 20
-124.3434868395739
 30
0.0
 10
108.3330945909723
 20
-124.3434868395739
 30
0.0
 10
108.3330945909723
 20
-124.3434868395739
 30
0.0
 10
108.1849554851065
 20
-124.3434868395739
 30
0.0
 10
108.1849554851065
 20
-124.3434868395739
 30
0.0
 10
108.17014157452
 20
-124.0113796347958
 30
0.0
 10
108.0071885580677
 20
-123.9648708457449
 30
0.0
 10
107.8928113879574
 20
-123.9352430245717
 30
0.0
 10
107.8928113879574
 20
-123.9352430245717
 30
0.0
 10
107.8928113879574
 20
-123.7891709759972
 30
0.0
 10
107.8928113879574
 20
-123.7891709759972
 30
0.0
 10
107.8928113879574
 20
-123.7891709759972
 30
0.0
 10
109.4372476939949
 20
-123.7891709759972
 30
0.0
 10
109.4372476939949
 20
-123.7891709759972
 30
0.0
 10
109.4372476939949
 20
-123.7891709759972
 30
0.0
 10
109.4372476939949
 20
-124.0134466920869
 30
0.0
 10
109.4372476939949
 20
-124.0134466920869
 30
0.0
  0
HATCH
  5
9F
330
9A
100
AcDbEntity
  8
_U+30EC_U+30A4_U+30E4_U+30FC 1
 62
     7
420
 16777215
100
AcDbHatch
 10
0.0
 20
0.0
 30
0.0
210
0.0
220
0.0
230
1.0
  2
SOLID
 70
     1
 71
     0
 91
        1
 92
        1
 93
        1
 72
     4
 94
        3
 73
     0
 74
     1
 95
       26
 96
       22
 40
0.0
 40
0.0
 40
0.0
 40
0.0
 40
1.0
 40
1.0
 40
1.0
 40
2.0
 40
2.0
 40
2.0
 40
3.0
 40
3.0
 40
3.0
 40
4.0
 40
4.0
 40
4.0
 40
5.0
 40
5.0
 40
5.0
 40
6.0
 40
6.0
 40
6.0
 40
7.0
 40
7.0
 40
7.0
 40
7.0
 10
109.4372476939949
 20
-124.0134466920869
 10
109.4372476939949
 20
-124.0134466920869
 10
108.3330945909723
 20
-124.0134466920869
 10
108.3330945909723
 20
-124.0134466920869
 10
108.3330945909723
 20
-124.0134466920869
 10
108.3330945909723
 20
-124.3434868395739
 10
108.3330945909723
 20
-124.3434868395739
 10
108.3330945909723
 20
-124.3434868395739
 10
108.1849554851065
 20
-124.3434868395739
 10
108.1849554851065
 20
-124.3434868395739
 10
108.17014157452
 20
-124.0113796347958
 10
108.0071885580677
 20
-123.9648708457449
 10
107.8928113879574
 20
-123.9352430245717
 10
107.8928113879574
 20
-123.9352430245717
 10
107.8928113879574
 20
-123.7891709759972
 10
107.8928113879574
 20
-123.7891709759972
 10
107.8928113879574
 20
-123.7891709759972
 10
109.4372476939949
 20
-123.7891709759972
 10
109.4372476939949
 20
-123.7891709759972
 10
109.4372476939949
 20
-123.7891709759972
 10
109.4372476939949
 20
-124.0134466920869
 10
109.4372476939949
 20
-124.0134466920869
 97
        0
 97
        0
 75
     2
 76
     1
 98
        0
  0
ENDBLK
  5
9D
330
9A
100
AcDbEntity
  8
0
100
AcDbBlockEnd
  0
BLOCK
  5
AA
330
A8
100
AcDbEntity
  8
0
100
AcDbBlockBegin
  2
block 3
 70
     0
 10
0.0
 20
0.0
 30
0.0
  3
block 3
  1

  0
SPLINE
  5
AC
330
A8
100
AcDbEntity
  8
_U+30EC_U+30A4_U+30E4_U+30FC 1
370
     0
100
AcDbSpline
210
0.0
220
0.0
230
1.0
 70
    11
 71
     3
 72
    26
 73
    22
 74
     0
 42
0.0000000001
 43
0.0000000001
 12
1.0
 22
0.0
 32
0.0
 13
1.0
 23
0.0
 33
0.0
 40
0.0
 40
0.0
 40
0.0
 40
0.0
 40
1.0
 40
1.0
 40
1.0
 40
2.0
 40
2.0
 40
2.0
 40
3.0
 40
3.0
 40
3.0
 40
4.0
 40
4.0
 40
4.0
 40
5.0
 40
5.0
 40
5.0
 40
6.0
 40
6.0
 40
6.0
 40
7.0
 40
7.0
 40
7.0
 40
7.0
 10
86.06761472457686
 20
-139.2896890927817
 30
0.0
 10
86.06761472457686
 20
-139.2896890927817
 30
0.0
 10
86.06761472457686
 20
-138.1855359897592
 30
0.0
 10
86.06761472457686
 20
-138.1855359897592
 30
0.0
 10
86.06761472457686
 20
-138.1855359897592
 30
0.0
 10
85.73757457708992
 20
-138.1855359897592
 30
0.0
 10
85.73757457708992
 20
-138.1855359897592
 30
0.0
 10
85.73757457708992
 20
-138.1855359897592
 30
0.0
 10
85.73757457708992
 20
-138.0373968838934
 30
0.0
 10
85.73757457708992
 20
-138.0373968838934
 30
0.0
 10
86.069681781868
 20
-138.0225829733069
 30
0.0
 10
86.11619057091887
 20
-137.8596299568545
 30
0.0
 10
86.14581839209202
 20
-137.7452527867443
 30
0.0
 10
86.14581839209202
 20
-137.7452527867443
 30
0.0
 10
86.29189044066662
 20
-137.7452527867443
 30
0.0
 10
86.29189044066662
 20
-137.7452527867443
 30
0.0
 10
86.29189044066662
 20
-137.7452527867443
 30
0.0
 10
86.29189044066662
 20
-139.2896890927817
 30
0.0
 10
86.29189044066662
 20
-139.2896890927817
 30
0.0
 10
86.29189044066662
 20
-139.2896890927817
 30
0.0
 10
86.06761472457686
 20
-139.2896890927817
 30
0.0
 10
86.06761472457686
 20
-139.2896890927817
 30
0.0
  0
HATCH
  5
AD
330
A8
100
AcDbEntity
  8
_U+30EC_U+30A4_U+30E4_U+30FC 1
 62
     7
420
 16777215
100
AcDbHatch
 10
0.0
 20
0.0
 30
0.0
210
0.0
220
0.0
230
1.0
  2
SOLID
 70
     1
 71
     0
 91
        1
 92
        1
 93
        1
 72
     4
 94
        3
 73
     0
 74
     1
 95
       26
 96
       22
 40
0.0
 40
0.0
 40
0.0
 40
0.0
 40
1.0
 40
1.0
 40
1.0
 40
2.0
 40
2.0
 40
2.0
 40
3.0
 40
3.0
 40
3.0
 40
4.0
 40
4.0
 40
4.0
 40
5.0
 40
5.0
 40
5.0
 40
6.0
 40
6.0
 40
6.0
 40
7.0
 40
7.0
 40
7.0
 40
7.0
 10
86.06761472457686
 20
-139.2896890927817
 10
86.06761472457686
 20
-139.2896890927817
 10
86.06761472457686
 20
-138.1855359897592
 10
86.06761472457686
 20
-138.1855359897592
 10
86.06761472457686
 20
-138.1855359897592
 10
85.73757457708992
 20
-138.1855359897592
 10
85.73757457708992
 20
-138.1855359897592
 10
85.73757457708992
 20
-138.1855359897592
 10
85.73757457708992
 20
-138.0373968838934
 10
85.73757457708992
 20
-138.0373968838934
 10
86.069681781868
 20
-138.0225829733069
 10
86.11619057091887
 20
-137.8596299568545
 10
86.14581839209202
 20
-137.7452527867443
 10
86.14581839209202
 20
-137.7452527867443
 10
86.29189044066662
 20
-137.7452527867443
 10
86.29189044066662
 20
-137.7452527867443
 10
86.29189044066662
 20
-137.7452527867443
 10
86.29189044066662
 20
-139.2896890927817
 10
86.29189044066662
 20
-139.2896890927817
 10
86.29189044066662
 20
-139.2896890927817
 10
86.06761472457686
 20
-139.2896890927817
 10
86.06761472457686
 20
-139.2896890927817
 97
        0
 97
        0
 75
     2
 76
     1
 98
        0
  0
SPLINE
  5
AE
330
A8
100
AcDbEntity
  8
_U+30EC_U+30A4_U+30E4_U+30FC 1
370
     0
100
AcDbSpline
210
0.0
220
0.0
230
1.0
 70
    11
 71
     3
 72
    29
 73
    25
 74
     0
 42
0.0000000001
 43
0.0000000001
 12
1.0
 22
0.0
 32
0.0
 13
1.0
 23
0.0
 33
0.0
 40
0.0
 40
0.0
 40
0.0
 40
0.0
 40
1.0
 40
1.0
 40
1.0
 40
2.0
 40
2.0
 40
2.0
 40
3.0
 40
3.0
 40
3.0
 40
4.0
 40
4.0
 40
4.0
 40
5.0
 40
5.0
 40
5.0
 40
6.0
 40
6.0
 40
6.0
 40
7.0
 40
7.0
 40
7.0
 40
8.0
 40
8.0
 40
8.0
 40
8.0
 10
87.69077146245232
 20
-139.1119221657429
 30
0.0
 10
87.58293997376398
 20
-139.321383971246
 30
0.0
 10
87.40947941608167
 20
-139.3403319964149
 30
0.0
 10
87.29303518868022
 20
-139.3403319964149
 30
0.0
 10
87.13232148429331
 20
-139.3403319964149
 30
0.0
 10
86.99055580507529
 20
-139.2941677169126
 30
0.0
 10
86.89529891490812
 20
-139.1119221657429
 30
0.0
 10
86.79177379557636
 20
-138.9172742708263
 30
0.0
 10
86.77265351563322
 20
-138.6802517014411
 30
0.0
 10
86.77265351563322
 20
-138.5176431945373
 30
0.0
 10
86.77265351563322
 20
-138.3736382032538
 30
0.0
 10
86.78953448351095
 20
-138.1221462328306
 30
0.0
 10
86.89529891490812
 20
-137.9230197137831
 30
0.0
 10
87.0033026583707
 20
-137.7197590801534
 30
0.0
 10
87.16401636275761
 20
-137.6966769404022
 30
0.0
 10
87.29303518868022
 20
-137.6966769404022
 30
0.0
 10
87.45168183577597
 20
-137.6966769404022
 30
0.0
 10
87.59551457228515
 20
-137.7411186721619
 30
0.0
 10
87.69077146245232
 20
-137.9230197137831
 30
0.0
 10
87.79016246720177
 20
-138.1156005514086
 30
0.0
 10
87.8134168617272
 20
-138.3440103820807
 30
0.0
 10
87.8134168617272
 20
-138.5176431945373
 30
0.0
 10
87.8134168617272
 20
-138.6888644401542
 30
0.0
 10
87.79240177926718
 20
-138.9193413281174
 30
0.0
 10
87.69077146245232
 20
-139.1119221657429
 30
0.0
  0
SPLINE
  5
AF
330
A8
100
AcDbEntity
  8
_U+30EC_U+30A4_U+30E4_U+30FC 1
370
     0
100
AcDbSpline
210
0.0
220
0.0
230
1.0
 70
    11
 71
     3
 72
    17
 73
    13
 74
     0
 42
0.0000000001
 43
0.0000000001
 12
1.0
 22
0.0
 32
0.0
 13
1.0
 23
0.0
 33
0.0
 40
0.0
 40
0.0
 40
0.0
 40
0.0
 40
1.0
 40
1.0
 40
1.0
 40
2.0
 40
2.0
 40
2.0
 40
3.0
 40
3.0
 40
3.0
 40
4.0
 40
4.0
 40
4.0
 40
4.0
 10
87.29303518868022
 20
-137.8892577780277
 30
0.0
 10
87.04343802077386
 20
-137.8892577780277
 30
0.0
 10
86.99692923172299
 20
-138.1727891364638
 30
0.0
 10
86.99692923172299
 20
-138.5176431945373
 30
0.0
 10
86.99692923172299
 20
-138.8370035460199
 30
0.0
 10
87.03293047954385
 20
-139.1460286110468
 30
0.0
 10
87.29303518868022
 20
-139.1460286110468
 30
0.0
 10
87.54056529929542
 20
-139.1460286110468
 30
0.0
 10
87.5893134004117
 20
-138.8642198003534
 30
0.0
 10
87.5893134004117
 20
-138.5176431945373
 30
0.0
 10
87.5893134004117
 20
-138.1979383335061
 30
0.0
 10
87.55107284052544
 20
-137.8892577780277
 30
0.0
 10
87.29303518868022
 20
-137.8892577780277
 30
0.0
  0
HATCH
  5
B0
330
A8
100
AcDbEntity
  8
_U+30EC_U+30A4_U+30E4_U+30FC 1
 62
     7
420
 16777215
100
AcDbHatch
 10
0.0
 20
0.0
 30
0.0
210
0.0
220
0.0
230
1.0
  2
SOLID
 70
     1
 71
     0
 91
        2
 92
        1
 93
        1
 72
     4
 94
        3
 73
     0
 74
     1
 95
       29
 96
       25
 40
0.0
 40
0.0
 40
0.0
 40
0.0
 40
1.0
 40
1.0
 40
1.0
 40
2.0
 40
2.0
 40
2.0
 40
3.0
 40
3.0
 40
3.0
 40
4.0
 40
4.0
 40
4.0
 40
5.0
 40
5.0
 40
5.0
 40
6.0
 40
6.0
 40
6.0
 40
7.0
 40
7.0
 40
7.0
 40
8.0
 40
8.0
 40
8.0
 40
8.0
 10
87.69077146245232
 20
-139.1119221657429
 10
87.58293997376398
 20
-139.321383971246
 10
87.40947941608167
 20
-139.3403319964149
 10
87.29303518868022
 20
-139.3403319964149
 10
87.13232148429331
 20
-139.3403319964149
 10
86.99055580507529
 20
-139.2941677169126
 10
86.89529891490812
 20
-139.1119221657429
 10
86.79177379557636
 20
-138.9172742708263
 10
86.77265351563322
 20
-138.6802517014411
 10
86.77265351563322
 20
-138.5176431945373
 10
86.77265351563322
 20
-138.3736382032538
 10
86.78953448351095
 20
-138.1221462328306
 10
86.89529891490812
 20
-137.9230197137831
 10
87.0033026583707
 20
-137.7197590801534
 10
87.16401636275761
 20
-137.6966769404022
 10
87.29303518868022
 20
-137.6966769404022
 10
87.45168183577597
 20
-137.6966769404022
 10
87.59551457228515
 20
-137.7411186721619
 10
87.69077146245232
 20
-137.9230197137831
 10
87.79016246720177
 20
-138.1156005514086
 10
87.8134168617272
 20
-138.3440103820807
 10
87.8134168617272
 20
-138.5176431945373
 10
87.8134168617272
 20
-138.6888644401542
 10
87.79240177926718
 20
-138.9193413281174
 10
87.69077146245232
 20
-139.1119221657429
 97
        0
 97
        0
 92
        1
 93
        1
 72
     4
 94
        3
 73
     0
 74
     1
 95
       17
 96
       13
 40
0.0
 40
0.0
 40
0.0
 40
0.0
 40
1.0
 40
1.0
 40
1.0
 40
2.0
 40
2.0
 40
2.0
 40
3.0
 40
3.0
 40
3.0
 40
4.0
 40
4.0
 40
4.0
 40
4.0
 10
87.29303518868022
 20
-137.8892577780277
 10
87.04343802077386
 20
-137.8892577780277
 10
86.99692923172299
 20
-138.1727891364638
 10
86.99692923172299
 20
-138.5176431945373
 10
86.99692923172299
 20
-138.8370035460199
 10
87.03293047954385
 20
-139.1460286110468
 10
87.29303518868022
 20
-139.1460286110468
 10
87.54056529929542
 20
-139.1460286110468
 10
87.5893134004117
 20
-138.8642198003534
 10
87.5893134004117
 20
-138.5176431945373
 10
87.5893134004117
 20
-138.1979383335061
 10
87.55107284052544
 20
-137.8892577780277
 10
87.29303518868022
 20
-137.8892577780277
 97
        0
 97
        0
 75
     2
 76
     1
 98
        0
  0
ENDBLK
  5
AB
330
A8
100
AcDbEntity
  8
0
100
AcDbBlockEnd
  0
BLOCK
  5
BB
330
B9
100
AcDbEntity
  8
0
100
AcDbBlockBegin
  2
block 4
 70
     0
 10
0.0
 20
0.0
 30
0.0
  3
block 4
  1

  0
SPLINE
  5
BD
330
B9
100
AcDbEntity
  8
_U+30EC_U+30A4_U+30E4_U+30FC 1
370
     0
100
AcDbSpline
210
0.0
220
0.0
230
1.0
 70
    11
 71
     3
 72
    62
 73
    58
 74
     0
 42
0.0000000001
 43
0.0000000001
 12
1.0
 22
0.0
 32
0.0
 13
1.0
 23
0.0
 33
0.0
 40
0.0
 40
0.0
 40
0.0
 40
0.0
 40
1.0
 40
1.0
 40
1.0
 40
2.0
 40
2.0
 40
2.0
 40
3.0
 40
3.0
 40
3.0
 40
4.0
 40
4.0
 40
4.0
 40
5.0
 40
5.0
 40
5.0
 40
6.0
 40
6.0
 40
6.0
 40
7.0
 40
7.0
 40
7.0
 40
8.0
 40
8.0
 40
8.0
 40
9.0
 40
9.0
 40
9.0
 40
10.0
 40
10.0
 40
10.0
 40
11.0
 40
11.0
 40
11.0
 40
12.0
 40
12.0
 40
12.0
 40
13.0
 40
13.0
 40
13.0
 40
14.0
 40
14.0
 40
14.0
 40
15.0
 40
15.0
 40
15.0
 40
16.0
 40
16.0
 40
16.0
 40
17.0
 40
17.0
 40
17.0
 40
18.0
 40
18.0
 40
18.0
 40
19.0
 40
19.0
 40
19.0
 40
19.0
 10
109.487890597628
 20
-134.4451958214234
 30
0.0
 10
109.487890597628
 20
-134.5406249663648
 30
0.0
 10
109.466875515168
 20
-134.7583550010326
 30
0.0
 10
109.2808403589645
 20
-134.8834119671472
 30
0.0
 10
109.1685302461454
 20
-134.9574815200801
 30
0.0
 10
109.0693114961702
 20
-134.9616156346624
 30
0.0
 10
108.984562147233
 20
-134.9657497492447
 30
0.0
 10
108.984562147233
 20
-134.9657497492447
 30
0.0
 10
108.984562147233
 20
-134.7456081477372
 30
0.0
 10
108.984562147233
 20
-134.7456081477372
 30
0.0
 10
109.0586317001659
 20
-134.7435410904461
 30
0.0
 10
109.2932427027114
 20
-134.7332058039903
 30
0.0
 10
109.2932427027114
 20
-134.4496744455543
 30
0.0
 10
109.2932427027114
 20
-134.3122151356928
 30
0.0
 10
109.2236517739094
 20
-134.1595974056962
 30
0.0
 10
108.9952419432373
 20
-134.1595974056962
 30
0.0
 10
108.8787977158359
 20
-134.1595974056962
 30
0.0
 10
108.8302218694938
 20
-134.1978379655825
 30
0.0
 10
108.7985269910295
 20
-134.2295328440468
 30
0.0
 10
108.7244574380967
 20
-134.3036023969797
 30
0.0
 10
108.7117105848012
 20
-134.4200466243811
 30
0.0
 10
108.7117105848012
 20
-134.4748236425966
 30
0.0
 10
108.7117105848012
 20
-134.494116177314
 30
0.0
 10
108.7137776420924
 20
-134.5299451703606
 30
0.0
 10
108.7179117566747
 20
-134.5575059342426
 30
0.0
 10
108.7179117566747
 20
-134.5575059342426
 30
0.0
 10
108.5232638617581
 20
-134.5575059342426
 30
0.0
 10
108.5232638617581
 20
-134.5575059342426
 30
0.0
 10
108.5298095431801
 20
-134.5192653743563
 30
0.0
 10
108.5318766004712
 20
-134.4772352094363
 30
0.0
 10
108.5318766004712
 20
-134.4706895280143
 30
0.0
 10
108.5318766004712
 20
-134.4052327137945
 30
0.0
 10
108.5105170084627
 20
-134.2064507042956
 30
0.0
 10
108.273838948626
 20
-134.2064507042956
 30
0.0
 10
108.0960720215871
 20
-134.2064507042956
 30
0.0
 10
108.0409504938231
 20
-134.3373643327351
 30
0.0
 10
108.0409504938231
 20
-134.4476073882631
 30
0.0
 10
108.0409504938231
 20
-134.7118462119818
 30
0.0
 10
108.273838948626
 20
-134.7204589506949
 30
0.0
 10
108.3454969347192
 20
-134.7245930652772
 30
0.0
 10
108.3454969347192
 20
-134.7245930652772
 30
0.0
 10
108.3454969347192
 20
-134.9278536989069
 30
0.0
 10
108.3454969347192
 20
-134.9278536989069
 30
0.0
 10
108.2207844781531
 20
-134.9192409601938
 30
0.0
 10
107.8442355416153
 20
-134.8916801963118
 30
0.0
 10
107.8442355416153
 20
-134.4348605349677
 30
0.0
 10
107.8442355416153
 20
-134.2105848188779
 30
0.0
 10
107.9713595650211
 20
-133.9694281349104
 30
0.0
 10
108.267293267204
 20
-133.9694281349104
 30
0.0
 10
108.453672932956
 20
-133.9694281349104
 30
0.0
 10
108.5360107150535
 20
-134.0645127703033
 30
0.0
 10
108.597333414691
 20
-134.164076029827
 30
0.0
 10
108.6248941785729
 20
-134.1027533301896
 30
0.0
 10
108.7051649033793
 20
-133.9208522885684
 30
0.0
 10
108.9824950899419
 20
-133.9208522885684
 30
0.0
 10
109.3208034665934
 20
-133.9208522885684
 30
0.0
 10
109.487890597628
 20
-134.1682101444093
 30
0.0
 10
109.487890597628
 20
-134.4451958214234
 30
0.0
  0
HATCH
  5
BE
330
B9
100
AcDbEntity
  8
_U+30EC_U+30A4_U+30E4_U+30FC 1
 62
     7
420
 16777215
100
AcDbHatch
 10
0.0
 20
0.0
 30
0.0
210
0.0
220
0.0
230
1.0
  2
SOLID
 70
     1
 71
     0
 91
        1
 92
        1
 93
        1
 72
     4
 94
        3
 73
     0
 74
     1
 95
       62
 96
       58
 40
0.0
 40
0.0
 40
0.0
 40
0.0
 40
1.0
 40
1.0
 40
1.0
 40
2.0
 40
2.0
 40
2.0
 40
3.0
 40
3.0
 40
3.0
 40
4.0
 40
4.0
 40
4.0
 40
5.0
 40
5.0
 40
5.0
 40
6.0
 40
6.0
 40
6.0
 40
7.0
 40
7.0
 40
7.0
 40
8.0
 40
8.0
 40
8.0
 40
9.0
 40
9.0
 40
9.0
 40
10.0
 40
10.0
 40
10.0
 40
11.0
 40
11.0
 40
11.0
 40
12.0
 40
12.0
 40
12.0
 40
13.0
 40
13.0
 40
13.0
 40
14.0
 40
14.0
 40
14.0
 40
15.0
 40
15.0
 40
15.0
 40
16.0
 40
16.0
 40
16.0
 40
17.0
 40
17.0
 40
17.0
 40
18.0
 40
18.0
 40
18.0
 40
19.0
 40
19.0
 40
19.0
 40
19.0
 10
109.487890597628
 20
-134.4451958214234
 10
109.487890597628
 20
-134.5406249663648
 10
109.466875515168
 20
-134.7583550010326
 10
109.2808403589645
 20
-134.8834119671472
 10
109.1685302461454
 20
-134.9574815200801
 10
109.0693114961702
 20
-134.9616156346624
 10
108.984562147233
 20
-134.9657497492447
 10
108.984562147233
 20
-134.9657497492447
 10
108.984562147233
 20
-134.7456081477372
 10
108.984562147233
 20
-134.7456081477372
 10
109.0586317001659
 20
-134.7435410904461
 10
109.2932427027114
 20
-134.7332058039903
 10
109.2932427027114
 20
-134.4496744455543
 10
109.2932427027114
 20
-134.3122151356928
 10
109.2236517739094
 20
-134.1595974056962
 10
108.9952419432373
 20
-134.1595974056962
 10
108.8787977158359
 20
-134.1595974056962
 10
108.8302218694938
 20
-134.1978379655825
 10
108.7985269910295
 20
-134.2295328440468
 10
108.7244574380967
 20
-134.3036023969797
 10
108.7117105848012
 20
-134.4200466243811
 10
108.7117105848012
 20
-134.4748236425966
 10
108.7117105848012
 20
-134.494116177314
 10
108.7137776420924
 20
-134.5299451703606
 10
108.7179117566747
 20
-134.5575059342426
 10
108.7179117566747
 20
-134.5575059342426
 10
108.5232638617581
 20
-134.5575059342426
 10
108.5232638617581
 20
-134.5575059342426
 10
108.5298095431801
 20
-134.5192653743563
 10
108.5318766004712
 20
-134.4772352094363
 10
108.5318766004712
 20
-134.4706895280143
 10
108.5318766004712
 20
-134.4052327137945
 10
108.5105170084627
 20
-134.2064507042956
 10
108.273838948626
 20
-134.2064507042956
 10
108.0960720215871
 20
-134.2064507042956
 10
108.0409504938231
 20
-134.3373643327351
 10
108.0409504938231
 20
-134.4476073882631
 10
108.0409504938231
 20
-134.7118462119818
 10
108.273838948626
 20
-134.7204589506949
 10
108.3454969347192
 20
-134.7245930652772
 10
108.3454969347192
 20
-134.7245930652772
 10
108.3454969347192
 20
-134.9278536989069
 10
108.3454969347192
 20
-134.9278536989069
 10
108.2207844781531
 20
-134.9192409601938
 10
107.8442355416153
 20
-134.8916801963118
 10
107.8442355416153
 20
-134.4348605349677
 10
107.8442355416153
 20
-134.2105848188779
 10
107.9713595650211
 20
-133.9694281349104
 10
108.267293267204
 20
-133.9694281349104
 10
108.453672932956
 20
-133.9694281349104
 10
108.5360107150535
 20
-134.0645127703033
 10
108.597333414691
 20
-134.164076029827
 10
108.6248941785729
 20
-134.1027533301896
 10
108.7051649033793
 20
-133.9208522885684
 10
108.9824950899419
 20
-133.9208522885684
 10
109.3208034665934
 20
-133.9208522885684
 10
109.487890597628
 20
-134.1682101444093
 10
109.487890597628
 20
-134.4451958214234
 97
        0
 97
        0
 75
     2
 76
     1
 98
        0
  0
ENDBLK
  5
BC
330
B9
100
AcDbEntity
  8
0
100
AcDbBlockEnd
  0
BLOCK
  5
C9
330
C7
100
AcDbEntity
  8
0
100
AcDbBlockBegin
  2
block 5
 70
     0
 10
0.0
 20
0.0
 30
0.0
  3
block 5
  1

  0
SPLINE
  5
CB
330
C7
100
AcDbEntity
  8
_U+30EC_U+30A4_U+30E4_U+30FC 1
370
     0
100
AcDbSpline
210
0.0
220
0.0
230
1.0
 70
    11
 71
     3
 72
    29
 73
    25
 74
     0
 42
0.0000000001
 43
0.0000000001
 12
1.0
 22
0.0
 32
0.0
 13
1.0
 23
0.0
 33
0.0
 40
0.0
 40
0.0
 40
0.0
 40
0.0
 40
1.0
 40
1.0
 40
1.0
 40
2.0
 40
2.0
 40
2.0
 40
3.0
 40
3.0
 40
3.0
 40
4.0
 40
4.0
 40
4.0
 40
5.0
 40
5.0
 40
5.0
 40
6.0
 40
6.0
 40
6.0
 40
7.0
 40
7.0
 40
7.0
 40
8.0
 40
8.0
 40
8.0
 40
8.0
 10
109.487890597628
 20
-129.5493706273349
 30
0.0
 10
109.487890597628
 20
-129.8160210178932
 30
0.0
 10
109.3504312877666
 20
-130.0695800456076
 30
0.0
 10
109.0014431151108
 20
-130.0695800456076
 30
0.0
 10
108.7454725205567
 20
-130.0695800456076
 30
0.0
 10
108.6503878851638
 20
-129.9279866211639
 30
0.0
 10
108.5890651855264
 20
-129.8222221897667
 30
0.0
 10
108.5298095431801
 20
-129.9469346463327
 30
0.0
 10
108.4154323730698
 20
-130.0230712565567
 30
0.0
 10
108.2545464139086
 20
-130.0230712565567
 30
0.0
 10
107.9796277941857
 20
-130.0230712565567
 30
0.0
 10
107.8442355416153
 20
-129.8242892470578
 30
0.0
 10
107.8442355416153
 20
-129.5493706273349
 30
0.0
 10
107.8442355416153
 20
-129.2658392688988
 30
0.0
 10
107.9882405328988
 20
-129.0753254885645
 30
0.0
 10
108.2545464139086
 20
-129.0753254885645
 30
0.0
 10
108.4154323730698
 20
-129.0753254885645
 30
0.0
 10
108.5298095431801
 20
-129.1538736656282
 30
0.0
 10
108.5890651855264
 20
-129.2785861221942
 30
0.0
 10
108.6397080891595
 20
-129.1897026586748
 30
0.0
 10
108.7347927245524
 20
-129.0308837568048
 30
0.0
 10
108.9973090005285
 20
-129.0308837568048
 30
0.0
 10
109.3717908797751
 20
-129.0308837568048
 30
0.0
 10
109.487890597628
 20
-129.3102810006585
 30
0.0
 10
109.487890597628
 20
-129.5493706273349
 30
0.0
  0
SPLINE
  5
CC
330
C7
100
AcDbEntity
  8
_U+30EC_U+30A4_U+30E4_U+30FC 1
370
     0
100
AcDbSpline
210
0.0
220
0.0
230
1.0
 70
    11
 71
     3
 72
    17
 73
    13
 74
     0
 42
0.0000000001
 43
0.0000000001
 12
1.0
 22
0.0
 32
0.0
 13
1.0
 23
0.0
 33
0.0
 40
0.0
 40
0.0
 40
0.0
 40
0.0
 40
1.0
 40
1.0
 40
1.0
 40
2.0
 40
2.0
 40
2.0
 40
3.0
 40
3.0
 40
3.0
 40
4.0
 40
4.0
 40
4.0
 40
4.0
 10
108.0368163792408
 20
-129.5493706273349
 30
0.0
 10
108.0368163792408
 20
-129.7143907010783
 30
0.0
 10
108.1319010146337
 20
-129.798795540467
 30
0.0
 10
108.267293267204
 20
-129.798795540467
 30
0.0
 10
108.3899386664789
 20
-129.798795540467
 30
0.0
 10
108.5084499511715
 20
-129.7271375543738
 30
0.0
 10
108.5084499511715
 20
-129.5493706273349
 30
0.0
 10
108.5084499511715
 20
-129.371603700296
 30
0.0
 10
108.3899386664789
 20
-129.2996012046543
 30
0.0
 10
108.267293267204
 20
-129.2996012046543
 30
0.0
 10
108.1319010146337
 20
-129.2996012046543
 30
0.0
 10
108.0368163792408
 20
-129.3864176108826
 30
0.0
 10
108.0368163792408
 20
-129.5493706273349
 30
0.0
  0
SPLINE
  5
CD
330
C7
100
AcDbEntity
  8
_U+30EC_U+30A4_U+30E4_U+30FC 1
370
     0
100
AcDbSpline
210
0.0
220
0.0
230
1.0
 70
    11
 71
     3
 72
    17
 73
    13
 74
     0
 42
0.0000000001
 43
0.0000000001
 12
1.0
 22
0.0
 32
0.0
 13
1.0
 23
0.0
 33
0.0
 40
0.0
 40
0.0
 40
0.0
 40
0.0
 40
1.0
 40
1.0
 40
1.0
 40
2.0
 40
2.0
 40
2.0
 40
3.0
 40
3.0
 40
3.0
 40
4.0
 40
4.0
 40
4.0
 40
4.0
 10
108.6968966742147
 20
-129.5493706273349
 30
0.0
 10
108.6968966742147
 20
-129.6930311090698
 30
0.0
 10
108.783713080443
 20
-129.8456488390664
 30
0.0
 10
108.9866292045242
 20
-129.8456488390664
 30
0.0
 10
109.1919568954451
 20
-129.8456488390664
 30
0.0
 10
109.2932427027114
 20
-129.7185248156607
 30
0.0
 10
109.2932427027114
 20
-129.5493706273349
 30
0.0
 10
109.2932427027114
 20
-129.3633354711314
 30
0.0
 10
109.1705973034365
 20
-129.2530924156034
 30
0.0
 10
108.9928303763976
 20
-129.2530924156034
 30
0.0
 10
108.7709662271475
 20
-129.2530924156034
 30
0.0
 10
108.6968966742147
 20
-129.4160454320557
 30
0.0
 10
108.6968966742147
 20
-129.5493706273349
 30
0.0
  0
HATCH
  5
CE
330
C7
100
AcDbEntity
  8
_U+30EC_U+30A4_U+30E4_U+30FC 1
 62
     7
420
 16777215
100
AcDbHatch
 10
0.0
 20
0.0
 30
0.0
210
0.0
220
0.0
230
1.0
  2
SOLID
 70
     1
 71
     0
 91
        3
 92
        1
 93
        1
 72
     4
 94
        3
 73
     0
 74
     1
 95
       29
 96
       25
 40
0.0
 40
0.0
 40
0.0
 40
0.0
 40
1.0
 40
1.0
 40
1.0
 40
2.0
 40
2.0
 40
2.0
 40
3.0
 40
3.0
 40
3.0
 40
4.0
 40
4.0
 40
4.0
 40
5.0
 40
5.0
 40
5.0
 40
6.0
 40
6.0
 40
6.0
 40
7.0
 40
7.0
 40
7.0
 40
8.0
 40
8.0
 40
8.0
 40
8.0
 10
109.487890597628
 20
-129.5493706273349
 10
109.487890597628
 20
-129.8160210178932
 10
109.3504312877666
 20
-130.0695800456076
 10
109.0014431151108
 20
-130.0695800456076
 10
108.7454725205567
 20
-130.0695800456076
 10
108.6503878851638
 20
-129.9279866211639
 10
108.5890651855264
 20
-129.8222221897667
 10
108.5298095431801
 20
-129.9469346463327
 10
108.4154323730698
 20
-130.0230712565567
 10
108.2545464139086
 20
-130.0230712565567
 10
107.9796277941857
 20
-130.0230712565567
 10
107.8442355416153
 20
-129.8242892470578
 10
107.8442355416153
 20
-129.5493706273349
 10
107.8442355416153
 20
-129.2658392688988
 10
107.9882405328988
 20
-129.0753254885645
 10
108.2545464139086
 20
-129.0753254885645
 10
108.4154323730698
 20
-129.0753254885645
 10
108.5298095431801
 20
-129.1538736656282
 10
108.5890651855264
 20
-129.2785861221942
 10
108.6397080891595
 20
-129.1897026586748
 10
108.7347927245524
 20
-129.0308837568048
 10
108.9973090005285
 20
-129.0308837568048
 10
109.3717908797751
 20
-129.0308837568048
 10
109.487890597628
 20
-129.3102810006585
 10
109.487890597628
 20
-129.5493706273349
 97
        0
 97
        0
 92
        1
 93
        1
 72
     4
 94
        3
 73
     0
 74
     1
 95
       17
 96
       13
 40
0.0
 40
0.0
 40
0.0
 40
0.0
 40
1.0
 40
1.0
 40
1.0
 40
2.0
 40
2.0
 40
2.0
 40
3.0
 40
3.0
 40
3.0
 40
4.0
 40
4.0
 40
4.0
 40
4.0
 10
108.0368163792408
 20
-129.5493706273349
 10
108.0368163792408
 20
-129.7143907010783
 10
108.1319010146337
 20
-129.798795540467
 10
108.267293267204
 20
-129.798795540467
 10
108.3899386664789
 20
-129.798795540467
 10
108.5084499511715
 20
-129.7271375543738
 10
108.5084499511715
 20
-129.5493706273349
 10
108.5084499511715
 20
-129.371603700296
 10
108.3899386664789
 20
-129.2996012046543
 10
108.267293267204
 20
-129.2996012046543
 10
108.1319010146337
 20
-129.2996012046543
 10
108.0368163792408
 20
-129.3864176108826
 10
108.0368163792408
 20
-129.5493706273349
 97
        0
 97
        0
 92
        1
 93
        1
 72
     4
 94
        3
 73
     0
 74
     1
 95
       17
 96
       13
 40
0.0
 40
0.0
 40
0.0
 40
0.0
 40
1.0
 40
1.0
 40
1.0
 40
2.0
 40
2.0
 40
2.0
 40
3.0
 40
3.0
 40
3.0
 40
4.0
 40
4.0
 40
4.0
 40
4.0
 10
108.6968966742147
 20
-129.5493706273349
 10
108.6968966742147
 20
-129.6930311090698
 10
108.783713080443
 20
-129.8456488390664
 10
108.9866292045242
 20
-129.8456488390664
 10
109.1919568954451
 20
-129.8456488390664
 10
109.2932427027114
 20
-129.7185248156607
 10
109.2932427027114
 20
-129.5493706273349
 10
109.2932427027114
 20
-129.3633354711314
 10
109.1705973034365
 20
-129.2530924156034
 10
108.9928303763976
 20
-129.2530924156034
 10
108.7709662271475
 20
-129.2530924156034
 10
108.6968966742147
 20
-129.4160454320557
 10
108.6968966742147
 20
-129.5493706273349
 97
        0
 97
        0
 75
     2
 76
     1
 98
        0
  0
POLYLINE
  5
CF
330
C7
100
AcDbEntity
  8
_U+30EC_U+30A4_U+30E4_U+30FC 1
370
     0
100
AcDb2dPolyline
 66
     1
 10
0.0
 20
0.0
 30
0.0
  0
VERTEX
  5
D0
330
CF
100
AcDbEntity
  8
_U+30EC_U+30A4_U+30E4_U+30FC 1
370
     0
100
AcDbVertex
100
AcDb2dVertex
 10
109.4372476939949
 20
-128.81246470304
 30
0.0
  0
VERTEX
  5
D1
330
CF
100
AcDbEntity
  8
_U+30EC_U+30A4_U+30E4_U+30FC 1
370
     0
100
AcDbVertex
100
AcDb2dVertex
 10
109.1854112140231
 20
-128.81246470304
 30
0.0
  0
VERTEX
  5
D2
330
CF
100
AcDbEntity
  8
_U+30EC_U+30A4_U+30E4_U+30FC 1
370
     0
100
AcDbVertex
100
AcDb2dVertex
 10
109.1854112140231
 20
-128.5606282230682
 30
0.0
  0
VERTEX
  5
D3
330
CF
100
AcDbEntity
  8
_U+30EC_U+30A4_U+30E4_U+30FC 1
370
     0
100
AcDbVertex
100
AcDb2dVertex
 10
109.4372476939949
 20
-128.5606282230682
 30
0.0
  0
VERTEX
  5
D4
330
CF
100
AcDbEntity
  8
_U+30EC_U+30A4_U+30E4_U+30FC 1
370
     0
100
AcDbVertex
100
AcDb2dVertex
 10
109.4372476939949
 20
-128.81246470304
 30
0.0
  0
SEQEND
  5
D5
330
CF
100
AcDbEntity
  8
_U+30EC_U+30A4_U+30E4_U+30FC 1
370
     0
  0
HATCH
  5
D6
330
C7
100
AcDbEntity
  8
_U+30EC_U+30A4_U+30E4_U+30FC 1
 62
     7
420
 16777215
100
AcDbHatch
 10
0.0
 20
0.0
 30
0.0
210
0.0
220
0.0
230
1.0
  2
SOLID
 70
     1
 71
     0
 91
        1
 92
        1
 93
        4
 72
     1
 10
109.4372476939949
 20
-128.81246470304
 11
109.1854112140231
 21
-128.81246470304
 72
     1
 10
109.1854112140231
 20
-128.81246470304
 11
109.1854112140231
 21
-128.5606282230682
 72
     1
 10
109.1854112140231
 20
-128.5606282230682
 11
109.4372476939949
 21
-128.5606282230682
 72
     1
 10
109.4372476939949
 20
-128.5606282230682
 11
109.4372476939949
 21
-128.81246470304
 97
        0
 75
     2
 76
     1
 98
        0
  0
SPLINE
  5
D7
330
C7
100
AcDbEntity
  8
_U+30EC_U+30A4_U+30E4_U+30FC 1
370
     0
100
AcDbSpline
210
0.0
220
0.0
230
1.0
 70
    11
 71
     3
 72
    53
 73
    49
 74
     0
 42
0.0000000001
 43
0.0000000001
 12
1.0
 22
0.0
 32
0.0
 13
1.0
 23
0.0
 33
0.0
 40
0.0
 40
0.0
 40
0.0
 40
0.0
 40
1.0
 40
1.0
 40
1.0
 40
2.0
 40
2.0
 40
2.0
 40
3.0
 40
3.0
 40
3.0
 40
4.0
 40
4.0
 40
4.0
 40
5.0
 40
5.0
 40
5.0
 40
6.0
 40
6.0
 40
6.0
 40
7.0
 40
7.0
 40
7.0
 40
8.0
 40
8.0
 40
8.0
 40
9.0
 40
9.0
 40
9.0
 40
10.0
 40
10.0
 40
10.0
 40
11.0
 40
11.0
 40
11.0
 40
12.0
 40
12.0
 40
12.0
 40
13.0
 40
13.0
 40
13.0
 40
14.0
 40
14.0
 40
14.0
 40
15.0
 40
15.0
 40
15.0
 40
16.0
 40
16.0
 40
16.0
 40
16.0
 10
109.487890597628
 20
-127.8433593430392
 30
0.0
 10
109.487890597628
 20
-127.9215630105543
 30
0.0
 10
109.4710096297503
 20
-128.0231933273692
 30
0.0
 10
109.4076198728217
 20
-128.1248236441841
 30
0.0
 10
109.2977213268422
 20
-128.2981119470921
 30
0.0
 10
109.1664631888542
 20
-128.3194715391007
 30
0.0
 10
109.0586317001659
 20
-128.3384195642696
 30
0.0
 10
109.0586317001659
 20
-128.3384195642696
 30
0.0
 10
109.0586317001659
 20
-128.116210905471
 30
0.0
 10
109.0586317001659
 20
-128.116210905471
 30
0.0
 10
109.2574137096648
 20
-128.0614338872555
 30
0.0
 10
109.287041530838
 20
-127.9343098638498
 30
0.0
 10
109.287041530838
 20
-127.841292285748
 30
0.0
 10
109.287041530838
 20
-127.7017659185954
 30
0.0
 10
109.1874782713142
 20
-127.5494926981474
 30
0.0
 10
108.9549343260599
 20
-127.5494926981474
 30
0.0
 10
108.6989637315058
 20
-127.5494926981474
 30
0.0
 10
108.6290282931552
 20
-127.7293266824774
 30
0.0
 10
108.6290282931552
 20
-127.8499050244611
 30
0.0
 10
108.6290282931552
 20
-127.8815999029254
 30
0.0
 10
108.6290282931552
 20
-128.0231933273692
 30
0.0
 10
108.7582193738521
 20
-128.1120767908887
 30
0.0
 10
108.7582193738521
 20
-128.1120767908887
 30
0.0
 10
108.7392713486832
 20
-128.2877766606364
 30
0.0
 10
108.7392713486832
 20
-128.2877766606364
 30
0.0
 10
108.7392713486832
 20
-128.2877766606364
 30
0.0
 10
107.8928113879574
 20
-128.1671983186527
 30
0.0
 10
107.8928113879574
 20
-128.1671983186527
 30
0.0
 10
107.8928113879574
 20
-128.1671983186527
 30
0.0
 10
107.8928113879574
 20
-127.3886067389862
 30
0.0
 10
107.8928113879574
 20
-127.3886067389862
 30
0.0
 10
107.8928113879574
 20
-127.3886067389862
 30
0.0
 10
108.087459282874
 20
-127.3886067389862
 30
0.0
 10
108.087459282874
 20
-127.3886067389862
 30
0.0
 10
108.087459282874
 20
-127.3886067389862
 30
0.0
 10
108.087459282874
 20
-128.0042453022003
 30
0.0
 10
108.087459282874
 20
-128.0042453022003
 30
0.0
 10
108.087459282874
 20
-128.0042453022003
 30
0.0
 10
108.5105170084627
 20
-128.0697021164201
 30
0.0
 10
108.5105170084627
 20
-128.0697021164201
 30
0.0
 10
108.4767550727072
 20
-128.0083794167826
 30
0.0
 10
108.4364474555298
 20
-127.9260416346852
 30
0.0
 10
108.4364474555298
 20
-127.8075303499926
 30
0.0
 10
108.4364474555298
 20
-127.5536268127297
 30
0.0
 10
108.6228271212818
 20
-127.3166042433445
 30
0.0
 10
108.935986300891
 20
-127.3166042433445
 30
0.0
 10
109.2532795950825
 20
-127.3166042433445
 30
0.0
 10
109.487890597628
 20
-127.5408799594342
 30
0.0
 10
109.487890597628
 20
-127.8433593430392
 30
0.0
  0
HATCH
  5
D8
330
C7
100
AcDbEntity
  8
_U+30EC_U+30A4_U+30E4_U+30FC 1
 62
     7
420
 16777215
100
AcDbHatch
 10
0.0
 20
0.0
 30
0.0
210
0.0
220
0.0
230
1.0
  2
SOLID
 70
     1
 71
     0
 91
        1
 92
        1
 93
        1
 72
     4
 94
        3
 73
     0
 74
     1
 95
       53
 96
       49
 40
0.0
 40
0.0
 40
0.0
 40
0.0
 40
1.0
 40
1.0
 40
1.0
 40
2.0
 40
2.0
 40
2.0
 40
3.0
 40
3.0
 40
3.0
 40
4.0
 40
4.0
 40
4.0
 40
5.0
 40
5.0
 40
5.0
 40
6.0
 40
6.0
 40
6.0
 40
7.0
 40
7.0
 40
7.0
 40
8.0
 40
8.0
 40
8.0
 40
9.0
 40
9.0
 40
9.0
 40
10.0
 40
10.0
 40
10.0
 40
11.0
 40
11.0
 40
11.0
 40
12.0
 40
12.0
 40
12.0
 40
13.0
 40
13.0
 40
13.0
 40
14.0
 40
14.0
 40
14.0
 40
15.0
 40
15.0
 40
15.0
 40
16.0
 40
16.0
 40
16.0
 40
16.0
 10
109.487890597628
 20
-127.8433593430392
 10
109.487890597628
 20
-127.9215630105543
 10
109.4710096297503
 20
-128.0231933273692
 10
109.4076198728217
 20
-128.1248236441841
 10
109.2977213268422
 20
-128.2981119470921
 10
109.1664631888542
 20
-128.3194715391007
 10
109.0586317001659
 20
-128.3384195642696
 10
109.0586317001659
 20
-128.3384195642696
 10
109.0586317001659
 20
-128.116210905471
 10
109.0586317001659
 20
-128.116210905471
 10
109.2574137096648
 20
-128.0614338872555
 10
109.287041530838
 20
-127.9343098638498
 10
109.287041530838
 20
-127.841292285748
 10
109.287041530838
 20
-127.7017659185954
 10
109.1874782713142
 20
-127.5494926981474
 10
108.9549343260599
 20
-127.5494926981474
 10
108.6989637315058
 20
-127.5494926981474
 10
108.6290282931552
 20
-127.7293266824774
 10
108.6290282931552
 20
-127.8499050244611
 10
108.6290282931552
 20
-127.8815999029254
 10
108.6290282931552
 20
-128.0231933273692
 10
108.7582193738521
 20
-128.1120767908887
 10
108.7582193738521
 20
-128.1120767908887
 10
108.7392713486832
 20
-128.2877766606364
 10
108.7392713486832
 20
-128.2877766606364
 10
108.7392713486832
 20
-128.2877766606364
 10
107.8928113879574
 20
-128.1671983186527
 10
107.8928113879574
 20
-128.1671983186527
 10
107.8928113879574
 20
-128.1671983186527
 10
107.8928113879574
 20
-127.3886067389862
 10
107.8928113879574
 20
-127.3886067389862
 10
107.8928113879574
 20
-127.3886067389862
 10
108.087459282874
 20
-127.3886067389862
 10
108.087459282874
 20
-127.3886067389862
 10
108.087459282874
 20
-127.3886067389862
 10
108.087459282874
 20
-128.0042453022003
 10
108.087459282874
 20
-128.0042453022003
 10
108.087459282874
 20
-128.0042453022003
 10
108.5105170084627
 20
-128.0697021164201
 10
108.5105170084627
 20
-128.0697021164201
 10
108.4767550727072
 20
-128.0083794167826
 10
108.4364474555298
 20
-127.9260416346852
 10
108.4364474555298
 20
-127.8075303499926
 10
108.4364474555298
 20
-127.5536268127297
 10
108.6228271212818
 20
-127.3166042433445
 10
108.935986300891
 20
-127.3166042433445
 10
109.2532795950825
 20
-127.3166042433445
 10
109.487890597628
 20
-127.5408799594342
 10
109.487890597628
 20
-127.8433593430392
 97
        0
 97
        0
 75
     2
 76
     1
 98
        0
  0
ENDBLK
  5
CA
330
C7
100
AcDbEntity
  8
0
100
AcDbBlockEnd
  0
BLOCK
  5
E7
330
E5
100
AcDbEntity
  8
0
100
AcDbBlockBegin
  2
block 6
 70
     0
 10
0.0
 20
0.0
 30
0.0
  3
block 6
  1

  0
SPLINE
  5
E9
330
E5
100
AcDbEntity
  8
_U+30EC_U+30A4_U+30E4_U+30FC 1
370
     0
100
AcDbSpline
210
0.0
220
0.0
230
1.0
 70
    11
 71
     3
 72
    62
 73
    58
 74
     0
 42
0.0000000001
 43
0.0000000001
 12
1.0
 22
0.0
 32
0.0
 13
1.0
 23
0.0
 33
0.0
 40
0.0
 40
0.0
 40
0.0
 40
0.0
 40
1.0
 40
1.0
 40
1.0
 40
2.0
 40
2.0
 40
2.0
 40
3.0
 40
3.0
 40
3.0
 40
4.0
 40
4.0
 40
4.0
 40
5.0
 40
5.0
 40
5.0
 40
6.0
 40
6.0
 40
6.0
 40
7.0
 40
7.0
 40
7.0
 40
8.0
 40
8.0
 40
8.0
 40
9.0
 40
9.0
 40
9.0
 40
10.0
 40
10.0
 40
10.0
 40
11.0
 40
11.0
 40
11.0
 40
12.0
 40
12.0
 40
12.0
 40
13.0
 40
13.0
 40
13.0
 40
14.0
 40
14.0
 40
14.0
 40
15.0
 40
15.0
 40
15.0
 40
16.0
 40
16.0
 40
16.0
 40
17.0
 40
17.0
 40
17.0
 40
18.0
 40
18.0
 40
18.0
 40
19.0
 40
19.0
 40
19.0
 40
19.0
 10
86.60797795143829
 20
-118.84046356621
 30
0.0
 10
86.51272106127112
 20
-118.84046356621
 30
0.0
 10
86.29481877182907
 20
-118.8192762289757
 30
0.0
 10
86.17010631526303
 20
-118.633068817998
 30
0.0
 10
86.09603676233016
 20
-118.5209309599531
 30
0.0
 10
86.0917303929736
 20
-118.4215399552036
 30
0.0
 10
86.0875962783913
 20
-118.3369628610408
 30
0.0
 10
86.0875962783913
 20
-118.3369628610408
 30
0.0
 10
86.3075656251245
 20
-118.3369628610408
 30
0.0
 10
86.3075656251245
 20
-118.3369628610408
 30
0.0
 10
86.30963268241565
 20
-118.4110324139736
 30
0.0
 10
86.32031247841992
 20
-118.6458156712934
 30
0.0
 10
86.60367158208173
 20
-118.6458156712934
 30
0.0
 10
86.74130314671746
 20
-118.6458156712934
 30
0.0
 10
86.8935763671655
 20
-118.5760524877171
 30
0.0
 10
86.8935763671655
 20
-118.3474704022708
 30
0.0
 10
86.8935763671655
 20
-118.2311984296436
 30
0.0
 10
86.85550806205349
 20
-118.1824503285273
 30
0.0
 10
86.8238131835892
 20
-118.150755450063
 30
0.0
 10
86.74974363065631
 20
-118.0766858971301
 30
0.0
 10
86.63329940325487
 20
-118.064111298609
 30
0.0
 10
86.57835013026514
 20
-118.064111298609
 30
0.0
 10
86.55940210509627
 20
-118.064111298609
 30
0.0
 10
86.5234008572754
 20
-118.0661783559001
 30
0.0
 10
86.49584009339341
 20
-118.0703124704824
 30
0.0
 10
86.49584009339341
 20
-118.0703124704824
 30
0.0
 10
86.49584009339341
 20
-117.8756645755658
 30
0.0
 10
86.49584009339341
 20
-117.8756645755658
 30
0.0
 10
86.53390839850542
 20
-117.8820380022135
 30
0.0
 10
86.576283072974
 20
-117.8842773142789
 30
0.0
 10
86.5826564996217
 20
-117.8842773142789
 30
0.0
 10
86.64811331384145
 20
-117.8842773142789
 30
0.0
 10
86.84706757811463
 20
-117.8630899770447
 30
0.0
 10
86.84706757811463
 20
-117.6260674076595
 30
0.0
 10
86.84706757811463
 20
-117.4484727353948
 30
0.0
 10
86.7158094401266
 20
-117.3933512076308
 30
0.0
 10
86.60591089414714
 20
-117.3933512076308
 30
0.0
 10
86.34149981565422
 20
-117.3933512076308
 30
0.0
 10
86.33288707694109
 20
-117.6260674076595
 30
0.0
 10
86.32875296235879
 20
-117.6980699033012
 30
0.0
 10
86.32875296235879
 20
-117.6980699033012
 30
0.0
 10
86.12566458350331
 20
-117.6980699033012
 30
0.0
 10
86.12566458350331
 20
-117.6980699033012
 30
0.0
 10
86.13410506744218
 20
-117.5731851919609
 30
0.0
 10
86.16166583132417
 20
-117.1966362554231
 30
0.0
 10
86.6184854926683
 20
-117.1966362554231
 30
0.0
 10
86.84276120875806
 20
-117.1966362554231
 30
0.0
 10
87.08391789272555
 20
-117.3235880240545
 30
0.0
 10
87.08391789272555
 20
-117.6196939810117
 30
0.0
 10
87.08391789272555
 20
-117.8059013919895
 30
0.0
 10
86.98883325733266
 20
-117.8884114288612
 30
0.0
 10
86.88926999780894
 20
-117.9497341284987
 30
0.0
 10
86.95076495222065
 20
-117.9772948923807
 30
0.0
 10
87.13266599384184
 20
-118.0577378719613
 30
0.0
 10
87.13266599384184
 20
-118.3348958037496
 30
0.0
 10
87.13266599384184
 20
-118.6733764351754
 30
0.0
 10
86.88513588322664
 20
-118.84046356621
 30
0.0
 10
86.60797795143829
 20
-118.84046356621
 30
0.0
  0
HATCH
  5
EA
330
E5
100
AcDbEntity
  8
_U+30EC_U+30A4_U+30E4_U+30FC 1
 62
     7
420
 16777215
100
AcDbHatch
 10
0.0
 20
0.0
 30
0.0
210
0.0
220
0.0
230
1.0
  2
SOLID
 70
     1
 71
     0
 91
        1
 92
        1
 93
        1
 72
     4
 94
        3
 73
     0
 74
     1
 95
       62
 96
       58
 40
0.0
 40
0.0
 40
0.0
 40
0.0
 40
1.0
 40
1.0
 40
1.0
 40
2.0
 40
2.0
 40
2.0
 40
3.0
 40
3.0
 40
3.0
 40
4.0
 40
4.0
 40
4.0
 40
5.0
 40
5.0
 40
5.0
 40
6.0
 40
6.0
 40
6.0
 40
7.0
 40
7.0
 40
7.0
 40
8.0
 40
8.0
 40
8.0
 40
9.0
 40
9.0
 40
9.0
 40
10.0
 40
10.0
 40
10.0
 40
11.0
 40
11.0
 40
11.0
 40
12.0
 40
12.0
 40
12.0
 40
13.0
 40
13.0
 40
13.0
 40
14.0
 40
14.0
 40
14.0
 40
15.0
 40
15.0
 40
15.0
 40
16.0
 40
16.0
 40
16.0
 40
17.0
 40
17.0
 40
17.0
 40
18.0
 40
18.0
 40
18.0
 40
19.0
 40
19.0
 40
19.0
 40
19.0
 10
86.60797795143829
 20
-118.84046356621
 10
86.51272106127112
 20
-118.84046356621
 10
86.29481877182907
 20
-118.8192762289757
 10
86.17010631526303
 20
-118.633068817998
 10
86.09603676233016
 20
-118.5209309599531
 10
86.0917303929736
 20
-118.4215399552036
 10
86.0875962783913
 20
-118.3369628610408
 10
86.0875962783913
 20
-118.3369628610408
 10
86.3075656251245
 20
-118.3369628610408
 10
86.3075656251245
 20
-118.3369628610408
 10
86.30963268241565
 20
-118.4110324139736
 10
86.32031247841992
 20
-118.6458156712934
 10
86.60367158208173
 20
-118.6458156712934
 10
86.74130314671746
 20
-118.6458156712934
 10
86.8935763671655
 20
-118.5760524877171
 10
86.8935763671655
 20
-118.3474704022708
 10
86.8935763671655
 20
-118.2311984296436
 10
86.85550806205349
 20
-118.1824503285273
 10
86.8238131835892
 20
-118.150755450063
 10
86.74974363065631
 20
-118.0766858971301
 10
86.63329940325487
 20
-118.064111298609
 10
86.57835013026514
 20
-118.064111298609
 10
86.55940210509627
 20
-118.064111298609
 10
86.5234008572754
 20
-118.0661783559001
 10
86.49584009339341
 20
-118.0703124704824
 10
86.49584009339341
 20
-118.0703124704824
 10
86.49584009339341
 20
-117.8756645755658
 10
86.49584009339341
 20
-117.8756645755658
 10
86.53390839850542
 20
-117.8820380022135
 10
86.576283072974
 20
-117.8842773142789
 10
86.5826564996217
 20
-117.8842773142789
 10
86.64811331384145
 20
-117.8842773142789
 10
86.84706757811463
 20
-117.8630899770447
 10
86.84706757811463
 20
-117.6260674076595
 10
86.84706757811463
 20
-117.4484727353948
 10
86.7158094401266
 20
-117.3933512076308
 10
86.60591089414714
 20
-117.3933512076308
 10
86.34149981565422
 20
-117.3933512076308
 10
86.33288707694109
 20
-117.6260674076595
 10
86.32875296235879
 20
-117.6980699033012
 10
86.32875296235879
 20
-117.6980699033012
 10
86.12566458350331
 20
-117.6980699033012
 10
86.12566458350331
 20
-117.6980699033012
 10
86.13410506744218
 20
-117.5731851919609
 10
86.16166583132417
 20
-117.1966362554231
 10
86.6184854926683
 20
-117.1966362554231
 10
86.84276120875806
 20
-117.1966362554231
 10
87.08391789272555
 20
-117.3235880240545
 10
87.08391789272555
 20
-117.6196939810117
 10
87.08391789272555
 20
-117.8059013919895
 10
86.98883325733266
 20
-117.8884114288612
 10
86.88926999780894
 20
-117.9497341284987
 10
86.95076495222065
 20
-117.9772948923807
 10
87.13266599384184
 20
-118.0577378719613
 10
87.13266599384184
 20
-118.3348958037496
 10
87.13266599384184
 20
-118.6733764351754
 10
86.88513588322664
 20
-118.84046356621
 10
86.60797795143829
 20
-118.84046356621
 97
        0
 97
        0
 75
     2
 76
     1
 98
        0
  0
SPLINE
  5
EB
330
E5
100
AcDbEntity
  8
_U+30EC_U+30A4_U+30E4_U+30FC 1
370
     0
100
AcDbSpline
210
0.0
220
0.0
230
1.0
 70
    11
 71
     3
 72
    26
 73
    22
 74
     0
 42
0.0000000001
 43
0.0000000001
 12
1.0
 22
0.0
 32
0.0
 13
1.0
 23
0.0
 33
0.0
 40
0.0
 40
0.0
 40
0.0
 40
0.0
 40
1.0
 40
1.0
 40
1.0
 40
2.0
 40
2.0
 40
2.0
 40
3.0
 40
3.0
 40
3.0
 40
4.0
 40
4.0
 40
4.0
 40
5.0
 40
5.0
 40
5.0
 40
6.0
 40
6.0
 40
6.0
 40
7.0
 40
7.0
 40
7.0
 40
7.0
 10
87.70437958961905
 20
-118.7896484078026
 30
0.0
 10
87.70437958961905
 20
-118.7896484078026
 30
0.0
 10
87.46752927500812
 20
-118.7896484078026
 30
0.0
 10
87.46752927500812
 20
-118.7896484078026
 30
0.0
 10
87.49285072682471
 20
-118.4807955975499
 30
0.0
 10
87.68543156445017
 20
-117.9624809817941
 30
0.0
 10
88.09160832216114
 20
-117.4569132193337
 30
0.0
 10
88.09160832216114
 20
-117.4569132193337
 30
0.0
 10
87.25376110014837
 20
-117.4569132193337
 30
0.0
 10
87.25376110014837
 20
-117.4569132193337
 30
0.0
 10
87.25376110014837
 20
-117.4569132193337
 30
0.0
 10
87.25376110014837
 20
-117.2453843565393
 30
0.0
 10
87.25376110014837
 20
-117.2453843565393
 30
0.0
 10
87.25376110014837
 20
-117.2453843565393
 30
0.0
 10
88.32845863677206
 20
-117.2453843565393
 30
0.0
 10
88.32845863677206
 20
-117.2453843565393
 30
0.0
 10
88.32845863677206
 20
-117.2453843565393
 30
0.0
 10
88.32845863677206
 20
-117.4569132193337
 30
0.0
 10
88.32845863677206
 20
-117.4569132193337
 30
0.0
 10
88.00479191593283
 20
-117.7466457496432
 30
0.0
 10
87.73831378014876
 20
-118.3390299183319
 30
0.0
 10
87.70437958961905
 20
-118.7896484078026
 30
0.0
  0
HATCH
  5
EC
330
E5
100
AcDbEntity
  8
_U+30EC_U+30A4_U+30E4_U+30FC 1
 62
     7
420
 16777215
100
AcDbHatch
 10
0.0
 20
0.0
 30
0.0
210
0.0
220
0.0
230
1.0
  2
SOLID
 70
     1
 71
     0
 91
        1
 92
        1
 93
        1
 72
     4
 94
        3
 73
     0
 74
     1
 95
       26
 96
       22
 40
0.0
 40
0.0
 40
0.0
 40
0.0
 40
1.0
 40
1.0
 40
1.0
 40
2.0
 40
2.0
 40
2.0
 40
3.0
 40
3.0
 40
3.0
 40
4.0
 40
4.0
 40
4.0
 40
5.0
 40
5.0
 40
5.0
 40
6.0
 40
6.0
 40
6.0
 40
7.0
 40
7.0
 40
7.0
 40
7.0
 10
87.70437958961905
 20
-118.7896484078026
 10
87.70437958961905
 20
-118.7896484078026
 10
87.46752927500812
 20
-118.7896484078026
 10
87.46752927500812
 20
-118.7896484078026
 10
87.49285072682471
 20
-118.4807955975499
 10
87.68543156445017
 20
-117.9624809817941
 10
88.09160832216114
 20
-117.4569132193337
 10
88.09160832216114
 20
-117.4569132193337
 10
87.25376110014837
 20
-117.4569132193337
 10
87.25376110014837
 20
-117.4569132193337
 10
87.25376110014837
 20
-117.4569132193337
 10
87.25376110014837
 20
-117.2453843565393
 10
87.25376110014837
 20
-117.2453843565393
 10
87.25376110014837
 20
-117.2453843565393
 10
88.32845863677206
 20
-117.2453843565393
 10
88.32845863677206
 20
-117.2453843565393
 10
88.32845863677206
 20
-117.2453843565393
 10
88.32845863677206
 20
-117.4569132193337
 10
88.32845863677206
 20
-117.4569132193337
 10
88.00479191593283
 20
-117.7466457496432
 10
87.73831378014876
 20
-118.3390299183319
 10
87.70437958961905
 20
-118.7896484078026
 97
        0
 97
        0
 75
     2
 76
     1
 98
        0
  0
ENDBLK
  5
E8
330
E5
100
AcDbEntity
  8
0
100
AcDbBlockEnd
  0
BLOCK
  5
FB
330
F9
100
AcDbEntity
  8
0
100
AcDbBlockBegin
  2
block 7
 70
     0
 10
0.0
 20
0.0
 30
0.0
  3
block 7
  1

  0
SPLINE
  5
FD
330
F9
100
AcDbEntity
  8
_U+30EC_U+30A4_U+30E4_U+30FC 1
370
     0
100
AcDbSpline
210
0.0
220
0.0
230
1.0
 70
    11
 71
     3
 72
    26
 73
    22
 74
     0
 42
0.0000000001
 43
0.0000000001
 12
1.0
 22
0.0
 32
0.0
 13
1.0
 23
0.0
 33
0.0
 40
0.0
 40
0.0
 40
0.0
 40
0.0
 40
1.0
 40
1.0
 40
1.0
 40
2.0
 40
2.0
 40
2.0
 40
3.0
 40
3.0
 40
3.0
 40
4.0
 40
4.0
 40
4.0
 40
5.0
 40
5.0
 40
5.0
 40
6.0
 40
6.0
 40
6.0
 40
7.0
 40
7.0
 40
7.0
 40
7.0
 10
75.06811385927116
 20
-139.2896890927817
 30
0.0
 10
75.06811385927116
 20
-139.2896890927817
 30
0.0
 10
75.06811385927116
 20
-138.1855359897592
 30
0.0
 10
75.06811385927116
 20
-138.1855359897592
 30
0.0
 10
75.06811385927116
 20
-138.1855359897592
 30
0.0
 10
74.73807371178424
 20
-138.1855359897592
 30
0.0
 10
74.73807371178424
 20
-138.1855359897592
 30
0.0
 10
74.73807371178424
 20
-138.1855359897592
 30
0.0
 10
74.73807371178424
 20
-138.0373968838934
 30
0.0
 10
74.73807371178424
 20
-138.0373968838934
 30
0.0
 10
75.07018091656232
 20
-138.0225829733069
 30
0.0
 10
75.1166897056132
 20
-137.8596299568545
 30
0.0
 10
75.14631752678635
 20
-137.7452527867443
 30
0.0
 10
75.14631752678635
 20
-137.7452527867443
 30
0.0
 10
75.29238957536093
 20
-137.7452527867443
 30
0.0
 10
75.29238957536093
 20
-137.7452527867443
 30
0.0
 10
75.29238957536093
 20
-137.7452527867443
 30
0.0
 10
75.29238957536093
 20
-139.2896890927817
 30
0.0
 10
75.29238957536093
 20
-139.2896890927817
 30
0.0
 10
75.29238957536093
 20
-139.2896890927817
 30
0.0
 10
75.06811385927116
 20
-139.2896890927817
 30
0.0
 10
75.06811385927116
 20
-139.2896890927817
 30
0.0
  0
HATCH
  5
FE
330
F9
100
AcDbEntity
  8
_U+30EC_U+30A4_U+30E4_U+30FC 1
 62
     7
420
 16777215
100
AcDbHatch
 10
0.0
 20
0.0
 30
0.0
210
0.0
220
0.0
230
1.0
  2
SOLID
 70
     1
 71
     0
 91
        1
 92
        1
 93
        1
 72
     4
 94
        3
 73
     0
 74
     1
 95
       26
 96
       22
 40
0.0
 40
0.0
 40
0.0
 40
0.0
 40
1.0
 40
1.0
 40
1.0
 40
2.0
 40
2.0
 40
2.0
 40
3.0
 40
3.0
 40
3.0
 40
4.0
 40
4.0
 40
4.0
 40
5.0
 40
5.0
 40
5.0
 40
6.0
 40
6.0
 40
6.0
 40
7.0
 40
7.0
 40
7.0
 40
7.0
 10
75.06811385927116
 20
-139.2896890927817
 10
75.06811385927116
 20
-139.2896890927817
 10
75.06811385927116
 20
-138.1855359897592
 10
75.06811385927116
 20
-138.1855359897592
 10
75.06811385927116
 20
-138.1855359897592
 10
74.73807371178424
 20
-138.1855359897592
 10
74.73807371178424
 20
-138.1855359897592
 10
74.73807371178424
 20
-138.1855359897592
 10
74.73807371178424
 20
-138.0373968838934
 10
74.73807371178424
 20
-138.0373968838934
 10
75.07018091656232
 20
-138.0225829733069
 10
75.1166897056132
 20
-137.8596299568545
 10
75.14631752678635
 20
-137.7452527867443
 10
75.14631752678635
 20
-137.7452527867443
 10
75.29238957536093
 20
-137.7452527867443
 10
75.29238957536093
 20
-137.7452527867443
 10
75.29238957536093
 20
-137.7452527867443
 10
75.29238957536093
 20
-139.2896890927817
 10
75.29238957536093
 20
-139.2896890927817
 10
75.29238957536093
 20
-139.2896890927817
 10
75.06811385927116
 20
-139.2896890927817
 10
75.06811385927116
 20
-139.2896890927817
 97
        0
 97
        0
 75
     2
 76
     1
 98
        0
  0
SPLINE
  5
FF
330
F9
100
AcDbEntity
  8
_U+30EC_U+30A4_U+30E4_U+30FC 1
370
     0
100
AcDbSpline
210
0.0
220
0.0
230
1.0
 70
    11
 71
     3
 72
    44
 73
    40
 74
     0
 42
0.0000000001
 43
0.0000000001
 12
1.0
 22
0.0
 32
0.0
 13
1.0
 23
0.0
 33
0.0
 40
0.0
 40
0.0
 40
0.0
 40
0.0
 40
1.0
 40
1.0
 40
1.0
 40
2.0
 40
2.0
 40
2.0
 40
3.0
 40
3.0
 40
3.0
 40
4.0
 40
4.0
 40
4.0
 40
5.0
 40
5.0
 40
5.0
 40
6.0
 40
6.0
 40
6.0
 40
7.0
 40
7.0
 40
7.0
 40
8.0
 40
8.0
 40
8.0
 40
9.0
 40
9.0
 40
9.0
 40
10.0
 40
10.0
 40
10.0
 40
11.0
 40
11.0
 40
11.0
 40
12.0
 40
12.0
 40
12.0
 40
13.0
 40
13.0
 40
13.0
 40
13.0
 10
76.38672415625055
 20
-138.7078124653231
 30
0.0
 10
76.16882186680849
 20
-138.8666313671931
 30
0.0
 10
76.07563203393248
 20
-138.9407009201259
 30
0.0
 10
76.02705618759046
 20
-139.0847059114094
 30
0.0
 10
76.02705618759046
 20
-139.0847059114094
 30
0.0
 10
76.80547551248266
 20
-139.0847059114094
 30
0.0
 10
76.80547551248266
 20
-139.0847059114094
 30
0.0
 10
76.80547551248266
 20
-139.0847059114094
 30
0.0
 10
76.80547551248266
 20
-139.2896890927817
 30
0.0
 10
76.80547551248266
 20
-139.2896890927817
 30
0.0
 10
76.80547551248266
 20
-139.2896890927817
 30
0.0
 10
75.77745901968412
 20
-139.2896890927817
 30
0.0
 10
75.77745901968412
 20
-139.2896890927817
 30
0.0
 10
75.80915389814841
 20
-138.9320881814128
 30
0.0
 10
75.87478296714242
 20
-138.8538845138976
 30
0.0
 10
76.2597723876191
 20
-138.555539244875
 30
0.0
 10
76.51574298217315
 20
-138.3567572353761
 30
0.0
 10
76.5811997963929
 20
-138.2888888543167
 30
0.0
 10
76.5811997963929
 20
-138.1517740540037
 30
0.0
 10
76.5811997963929
 20
-138.0332627693111
 30
0.0
 10
76.50936955552544
 20
-137.9020046313231
 30
0.0
 10
76.31265460331767
 20
-137.9020046313231
 30
0.0
 10
76.05237763940704
 20
-137.9020046313231
 30
0.0
 10
76.04393715546819
 20
-138.1324815192863
 30
0.0
 10
76.03963078611163
 20
-138.2489257466878
 30
0.0
 10
76.03963078611163
 20
-138.2489257466878
 30
0.0
 10
75.81552732479612
 20
-138.2489257466878
 30
0.0
 10
75.81552732479612
 20
-138.2489257466878
 30
0.0
 10
75.82396780873498
 20
-138.1221462328306
 30
0.0
 10
75.83447534996499
 20
-138.0098361200114
 30
0.0
 10
75.91491832954559
 20
-137.8913248353188
 30
0.0
 10
76.02481687552505
 20
-137.7307833857062
 30
0.0
 10
76.2110242865028
 20
-137.6966769404022
 30
0.0
 10
76.32746851390425
 20
-137.6966769404022
 30
0.0
 10
76.6046264456926
 20
-137.6966769404022
 30
0.0
 10
76.81184893913037
 20
-137.8809895488631
 30
0.0
 10
76.81184893913037
 20
-138.1538411112949
 30
0.0
 10
76.81184893913037
 20
-138.3819064324184
 30
0.0
 10
76.6955769665032
 20
-138.4818142014907
 30
0.0
 10
76.38672415625055
 20
-138.7078124653231
 30
0.0
  0
HATCH
  5
100
330
F9
100
AcDbEntity
  8
_U+30EC_U+30A4_U+30E4_U+30FC 1
 62
     7
420
 16777215
100
AcDbHatch
 10
0.0
 20
0.0
 30
0.0
210
0.0
220
0.0
230
1.0
  2
SOLID
 70
     1
 71
     0
 91
        1
 92
        1
 93
        1
 72
     4
 94
        3
 73
     0
 74
     1
 95
       44
 96
       40
 40
0.0
 40
0.0
 40
0.0
 40
0.0
 40
1.0
 40
1.0
 40
1.0
 40
2.0
 40
2.0
 40
2.0
 40
3.0
 40
3.0
 40
3.0
 40
4.0
 40
4.0
 40
4.0
 40
5.0
 40
5.0
 40
5.0
 40
6.0
 40
6.0
 40
6.0
 40
7.0
 40
7.0
 40
7.0
 40
8.0
 40
8.0
 40
8.0
 40
9.0
 40
9.0
 40
9.0
 40
10.0
 40
10.0
 40
10.0
 40
11.0
 40
11.0
 40
11.0
 40
12.0
 40
12.0
 40
12.0
 40
13.0
 40
13.0
 40
13.0
 40
13.0
 10
76.38672415625055
 20
-138.7078124653231
 10
76.16882186680849
 20
-138.8666313671931
 10
76.07563203393248
 20
-138.9407009201259
 10
76.02705618759046
 20
-139.0847059114094
 10
76.02705618759046
 20
-139.0847059114094
 10
76.80547551248266
 20
-139.0847059114094
 10
76.80547551248266
 20
-139.0847059114094
 10
76.80547551248266
 20
-139.0847059114094
 10
76.80547551248266
 20
-139.2896890927817
 10
76.80547551248266
 20
-139.2896890927817
 10
76.80547551248266
 20
-139.2896890927817
 10
75.77745901968412
 20
-139.2896890927817
 10
75.77745901968412
 20
-139.2896890927817
 10
75.80915389814841
 20
-138.9320881814128
 10
75.87478296714242
 20
-138.8538845138976
 10
76.2597723876191
 20
-138.555539244875
 10
76.51574298217315
 20
-138.3567572353761
 10
76.5811997963929
 20
-138.2888888543167
 10
76.5811997963929
 20
-138.1517740540037
 10
76.5811997963929
 20
-138.0332627693111
 10
76.50936955552544
 20
-137.9020046313231
 10
76.31265460331767
 20
-137.9020046313231
 10
76.05237763940704
 20
-137.9020046313231
 10
76.04393715546819
 20
-138.1324815192863
 10
76.03963078611163
 20
-138.2489257466878
 10
76.03963078611163
 20
-138.2489257466878
 10
75.81552732479612
 20
-138.2489257466878
 10
75.81552732479612
 20
-138.2489257466878
 10
75.82396780873498
 20
-138.1221462328306
 10
75.83447534996499
 20
-138.0098361200114
 10
75.91491832954559
 20
-137.8913248353188
 10
76.02481687552505
 20
-137.7307833857062
 10
76.2110242865028
 20
-137.6966769404022
 10
76.32746851390425
 20
-137.6966769404022
 10
76.6046264456926
 20
-137.6966769404022
 10
76.81184893913037
 20
-137.8809895488631
 10
76.81184893913037
 20
-138.1538411112949
 10
76.81184893913037
 20
-138.3819064324184
 10
76.6955769665032
 20
-138.4818142014907
 10
76.38672415625055
 20
-138.7078124653231
 97
        0
 97
        0
 75
     2
 76
     1
 98
        0
  0
ENDBLK
  5
FC
330
F9
100
AcDbEntity
  8
0
100
AcDbBlockEnd
  0
ENDSEC
  0
SECTION
  2
ENTITIES
  0
POLYLINE
  5
41
330
1F
100
AcDbEntity
  8
_U+30EC_U+30A4_U+30E4_U+30FC 1
370
     0
100
AcDb2dPolyline
 66
     1
 10
0.0
 20
0.0
 30
0.0
  0
VERTEX
  5
42
330
41
100
AcDbEntity
  8
_U+30EC_U+30A4_U+30E4_U+30FC 1
370
     0
100
AcDbVertex
100
AcDb2dVertex
 10
69.70497127723358
 20
-124.4357994133354
 30
0.0
  0
VERTEX
  5
43
330
41
100
AcDbEntity
  8
_U+30EC_U+30A4_U+30E4_U+30FC 1
370
     0
100
AcDbVertex
100
AcDb2dVertex
 10
81.7049187488672
 20
-124.4357994133354
 30
0.0
  0
VERTEX
  5
44
330
41
100
AcDbEntity
  8
_U+30EC_U+30A4_U+30E4_U+30FC 1
370
     0
100
AcDbVertex
100
AcDb2dVertex
 10
81.7049187488672
 20
-135.9362491326824
 30
0.0
  0
VERTEX
  5
45
330
41
100
AcDbEntity
  8
_U+30EC_U+30A4_U+30E4_U+30FC 1
370
     0
100
AcDbVertex
100
AcDb2dVertex
 10
91.70465154930831
 20
-135.9362491326824
 30
0.0
  0
VERTEX
  5
46
330
41
100
AcDbEntity
  8
_U+30EC_U+30A4_U+30E4_U+30FC 1
370
     0
100
AcDbVertex
100
AcDb2dVertex
 10
91.70465154930831
 20
-132.9362269112106
 30
0.0
  0
VERTEX
  5
47
330
41
100
AcDbEntity
  8
_U+30EC_U+30A4_U+30E4_U+30FC 1
370
     0
100
AcDbVertex
100
AcDb2dVertex
 10
90.70487935259241
 20
-132.9362269112106
 30
0.0
  0
VERTEX
  5
48
330
41
100
AcDbEntity
  8
_U+30EC_U+30A4_U+30E4_U+30FC 1
370
     0
100
AcDbVertex
100
AcDb2dVertex
 10
90.70487935259241
 20
-134.9361241329327
 30
0.0
  0
VERTEX
  5
49
330
41
100
AcDbEntity
  8
_U+30EC_U+30A4_U+30E4_U+30FC 1
370
     0
100
AcDbVertex
100
AcDb2dVertex
 10
82.60478428146527
 20
-134.9361241329327
 30
0.0
  0
VERTEX
  5
4A
330
41
100
AcDbEntity
  8
_U+30EC_U+30A4_U+30E4_U+30FC 1
370
     0
100
AcDbVertex
100
AcDb2dVertex
 10
82.60478428146527
 20
-124.4357994133354
 30
0.0
  0
VERTEX
  5
4B
330
41
100
AcDbEntity
  8
_U+30EC_U+30A4_U+30E4_U+30FC 1
370
     0
100
AcDbVertex
100
AcDb2dVertex
 10
106.6281036685793
 20
-124.4357994133354
 30
0.0
  0
VERTEX
  5
4C
330
41
100
AcDbEntity
  8
_U+30EC_U+30A4_U+30E4_U+30FC 1
370
     0
100
AcDbVertex
100
AcDb2dVertex
 10
106.6722008896765
 20
-123.436062469141
 30
0.0
  0
VERTEX
  5
4D
330
41
100
AcDbEntity
  8
_U+30EC_U+30A4_U+30E4_U+30FC 1
370
     0
100
AcDbVertex
100
AcDb2dVertex
 10
69.70497127723358
 20
-123.436062469141
 30
0.0
  0
VERTEX
  5
4E
330
41
100
AcDbEntity
  8
_U+30EC_U+30A4_U+30E4_U+30FC 1
370
     0
100
AcDbVertex
100
AcDb2dVertex
 10
69.70497127723358
 20
-124.4357994133354
 30
0.0
  0
SEQEND
  5
50
330
41
100
AcDbEntity
  8
_U+30EC_U+30A4_U+30E4_U+30FC 1
370
     0
  0
HATCH
  5
4F
330
1F
100
AcDbEntity
  8
_U+30EC_U+30A4_U+30E4_U+30FC 1
 62
   253
420
 11711154
100
AcDbHatch
 10
0.0
 20
0.0
 30
0.0
210
0.0
220
0.0
230
1.0
  2
SOLID
 70
     1
 71
     0
 91
        1
 92
        1
 93
       12
 72
     1
 10
69.70497127723358
 20
-124.4357994133354
 11
81.7049187488672
 21
-124.4357994133354
 72
     1
 10
81.7049187488672
 20
-124.4357994133354
 11
81.7049187488672
 21
-135.9362491326824
 72
     1
 10
81.7049187488672
 20
-135.9362491326824
 11
91.70465154930831
 21
-135.9362491326824
 72
     1
 10
91.70465154930831
 20
-135.9362491326824
 11
91.70465154930831
 21
-132.9362269112106
 72
     1
 10
91.70465154930831
 20
-132.9362269112106
 11
90.70487935259241
 21
-132.9362269112106
 72
     1
 10
90.70487935259241
 20
-132.9362269112106
 11
90.70487935259241
 21
-134.9361241329327
 72
     1
 10
90.70487935259241
 20
-134.9361241329327
 11
82.60478428146527
 21
-134.9361241329327
 72
     1
 10
82.60478428146527
 20
-134.9361241329327
 11
82.60478428146527
 21
-124.4357994133354
 72
     1
 10
82.60478428146527
 20
-124.4357994133354
 11
106.6281036685793
 21
-124.4357994133354
 72
     1
 10
106.6281036685793
 20
-124.4357994133354
 11
106.6722008896765
 21
-123.436062469141
 72
     1
 10
106.6722008896765
 20
-123.436062469141
 11
69.70497127723358
 21
-123.436062469141
 72
     1
 10
69.70497127723358
 20
-123.436062469141
 11
69.70497127723358
 21
-124.4357994133354
 97
        0
 75
     2
 76
     1
 98
        0
  0
POLYLINE
  5
51
330
1F
100
AcDbEntity
  8
_U+30EC_U+30A4_U+30E4_U+30FC 1
 62
     7
420
 16777215
370
    25
100
AcDb2dPolyline
 66
     1
 10
0.0
 20
0.0
 30
0.0
  0
VERTEX
  5
52
330
51
100
AcDbEntity
  8
_U+30EC_U+30A4_U+30E4_U+30FC 1
 62
     7
420
 16777215
370
    25
100
AcDbVertex
100
AcDb2dVertex
 10
81.7049187488672
 20
-135.9362491326824
 30
0.0
  0
VERTEX
  5
53
330
51
100
AcDbEntity
  8
_U+30EC_U+30A4_U+30E4_U+30FC 1
 62
     7
420
 16777215
370
    25
100
AcDbVertex
100
AcDb2dVertex
 10
91.70465154930831
 20
-135.9362491326824
 30
0.0
  0
SEQEND
  5
54
330
51
100
AcDbEntity
  8
_U+30EC_U+30A4_U+30E4_U+30FC 1
 62
     7
420
 16777215
370
    25
  0
POLYLINE
  5
55
330
1F
100
AcDbEntity
  8
_U+30EC_U+30A4_U+30E4_U+30FC 1
 62
     7
420
 16777215
370
    25
100
AcDb2dPolyline
 66
     1
 10
0.0
 20
0.0
 30
0.0
  0
VERTEX
  5
56
330
55
100
AcDbEntity
  8
_U+30EC_U+30A4_U+30E4_U+30FC 1
 62
     7
420
 16777215
370
    25
100
AcDbVertex
100
AcDb2dVertex
 10
69.70497127723358
 20
-123.436062469141
 30
0.0
  0
VERTEX
  5
57
330
55
100
AcDbEntity
  8
_U+30EC_U+30A4_U+30E4_U+30FC 1
 62
     7
420
 16777215
370
    25
100
AcDbVertex
100
AcDb2dVertex
 10
106.7052914443879
 20
-123.436062469141
 30
0.0
  0
SEQEND
  5
58
330
55
100
AcDbEntity
  8
_U+30EC_U+30A4_U+30E4_U+30FC 1
 62
     7
420
 16777215
370
    25
  0
POLYLINE
  5
59
330
1F
100
AcDbEntity
  8
_U+30EC_U+30A4_U+30E4_U+30FC 1
 62
     7
420
 16777215
370
    25
100
AcDb2dPolyline
 66
     1
 10
0.0
 20
0.0
 30
0.0
  0
VERTEX
  5
5A
330
59
100
AcDbEntity
  8
_U+30EC_U+30A4_U+30E4_U+30FC 1
 62
     7
420
 16777215
370
    25
100
AcDbVertex
100
AcDb2dVertex
 10
90.70487935259241
 20
-132.9362269112106
 30
0.0
  0
VERTEX
  5
5B
330
59
100
AcDbEntity
  8
_U+30EC_U+30A4_U+30E4_U+30FC 1
 62
     7
420
 16777215
370
    25
100
AcDbVertex
100
AcDb2dVertex
 10
91.70465154930831
 20
-132.9362269112106
 30
0.0
  0
SEQEND
  5
5C
330
59
100
AcDbEntity
  8
_U+30EC_U+30A4_U+30E4_U+30FC 1
 62
     7
420
 16777215
370
    25
  0
POLYLINE
  5
5D
330
1F
100
AcDbEntity
  8
_U+30EC_U+30A4_U+30E4_U+30FC 1
 62
     7
420
 16777215
370
    25
100
AcDb2dPolyline
 66
     1
 10
0.0
 20
0.0
 30
0.0
  0
VERTEX
  5
5E
330
5D
100
AcDbEntity
  8
_U+30EC_U+30A4_U+30E4_U+30FC 1
 62
     7
420
 16777215
370
    25
100
AcDbVertex
100
AcDb2dVertex
 10
91.70465154930831
 20
-135.9362491326824
 30
0.0
  0
VERTEX
  5
5F
330
5D
100
AcDbEntity
  8
_U+30EC_U+30A4_U+30E4_U+30FC 1
 62
     7
420
 16777215
370
    25
100
AcDbVertex
100
AcDb2dVertex
 10
91.70465154930831
 20
-132.9362269112106
 30
0.0
  0
SEQEND
  5
60
330
5D
100
AcDbEntity
  8
_U+30EC_U+30A4_U+30E4_U+30FC 1
 62
     7
420
 16777215
370
    25
  0
POLYLINE
  5
61
330
1F
100
AcDbEntity
  8
_U+30EC_U+30A4_U+30E4_U+30FC 1
 62
     7
420
 16777215
370
    25
100
AcDb2dPolyline
 66
     1
 10
0.0
 20
0.0
 30
0.0
  0
VERTEX
  5
62
330
61
100
AcDbEntity
  8
_U+30EC_U+30A4_U+30E4_U+30FC 1
 62
     7
420
 16777215
370
    25
100
AcDbVertex
100
AcDb2dVertex
 10
69.70497127723358
 20
-124.4357994133354
 30
0.0
  0
VERTEX
  5
63
330
61
100
AcDbEntity
  8
_U+30EC_U+30A4_U+30E4_U+30FC 1
 62
     7
420
 16777215
370
    25
100
AcDbVertex
100
AcDb2dVertex
 10
69.70497127723358
 20
-123.436062469141
 30
0.0
  0
SEQEND
  5
64
330
61
100
AcDbEntity
  8
_U+30EC_U+30A4_U+30E4_U+30FC 1
 62
     7
420
 16777215
370
    25
  0
POLYLINE
  5
65
330
1F
100
AcDbEntity
  8
_U+30EC_U+30A4_U+30E4_U+30FC 1
 62
     7
420
 16777215
370
    25
100
AcDb2dPolyline
 66
     1
 10
0.0
 20
0.0
 30
0.0
  0
VERTEX
  5
66
330
65
100
AcDbEntity
  8
_U+30EC_U+30A4_U+30E4_U+30FC 1
 62
     7
420
 16777215
370
    25
100
AcDbVertex
100
AcDb2dVertex
 10
69.70497127723358
 20
-124.4357994133354
 30
0.0
  0
VERTEX
  5
67
330
65
100
AcDbEntity
  8
_U+30EC_U+30A4_U+30E4_U+30FC 1
 62
     7
420
 16777215
370
    25
100
AcDbVertex
100
AcDb2dVertex
 10
81.7049187488672
 20
-124.4357994133354
 30
0.0
  0
SEQEND
  5
68
330
65
100
AcDbEntity
  8
_U+30EC_U+30A4_U+30E4_U+30FC 1
 62
     7
420
 16777215
370
    25
  0
POLYLINE
  5
69
330
1F
100
AcDbEntity
  8
_U+30EC_U+30A4_U+30E4_U+30FC 1
 62
     7
420
 16777215
370
    25
100
AcDb2dPolyline
 66
     1
 10
0.0
 20
0.0
 30
0.0
  0
VERTEX
  5
6A
330
69
100
AcDbEntity
  8
_U+30EC_U+30A4_U+30E4_U+30FC 1
 62
     7
420
 16777215
370
    25
100
AcDbVertex
100
AcDb2dVertex
 10
90.70487935259241
 20
-134.9361241329327
 30
0.0
  0
VERTEX
  5
6B
330
69
100
AcDbEntity
  8
_U+30EC_U+30A4_U+30E4_U+30FC 1
 62
     7
420
 16777215
370
    25
100
AcDbVertex
100
AcDb2dVertex
 10
90.70487935259241
 20
-132.9362269112106
 30
0.0
  0
SEQEND
  5
6C
330
69
100
AcDbEntity
  8
_U+30EC_U+30A4_U+30E4_U+30FC 1
 62
     7
420
 16777215
370
    25
  0
POLYLINE
  5
6D
330
1F
100
AcDbEntity
  8
_U+30EC_U+30A4_U+30E4_U+30FC 1
 62
     7
420
 16777215
370
    25
100
AcDb2dPolyline
 66
     1
 10
0.0
 20
0.0
 30
0.0
  0
VERTEX
  5
6E
330
6D
100
AcDbEntity
  8
_U+30EC_U+30A4_U+30E4_U+30FC 1
 62
     7
420
 16777215
370
    25
100
AcDbVertex
100
AcDb2dVertex
 10
82.60478428146527
 20
-134.9361241329327
 30
0.0
  0
VERTEX
  5
6F
330
6D
100
AcDbEntity
  8
_U+30EC_U+30A4_U+30E4_U+30FC 1
 62
     7
420
 16777215
370
    25
100
AcDbVertex
100
AcDb2dVertex
 10
90.70487935259241
 20
-134.9361241329327
 30
0.0
  0
SEQEND
  5
70
330
6D
100
AcDbEntity
  8
_U+30EC_U+30A4_U+30E4_U+30FC 1
 62
     7
420
 16777215
370
    25
  0
POLYLINE
  5
71
330
1F
100
AcDbEntity
  8
_U+30EC_U+30A4_U+30E4_U+30FC 1
 62
     7
420
 16777215
370
    25
100
AcDb2dPolyline
 66
     1
 10
0.0
 20
0.0
 30
0.0
  0
VERTEX
  5
72
330
71
100
AcDbEntity
  8
_U+30EC_U+30A4_U+30E4_U+30FC 1
 62
     7
420
 16777215
370
    25
100
AcDbVertex
100
AcDb2dVertex
 10
81.7049187488672
 20
-135.9362491326824
 30
0.0
  0
VERTEX
  5
73
330
71
100
AcDbEntity
  8
_U+30EC_U+30A4_U+30E4_U+30FC 1
 62
     7
420
 16777215
370
    25
100
AcDbVertex
100
AcDb2dVertex
 10
81.7049187488672
 20
-124.4357994133354
 30
0.0
  0
SEQEND
  5
74
330
71
100
AcDbEntity
  8
_U+30EC_U+30A4_U+30E4_U+30FC 1
 62
     7
420
 16777215
370
    25
  0
POLYLINE
  5
75
330
1F
100
AcDbEntity
  8
_U+30EC_U+30A4_U+30E4_U+30FC 1
 62
     7
420
 16777215
370
    25
100
AcDb2dPolyline
 66
     1
 10
0.0
 20
0.0
 30
0.0
  0
VERTEX
  5
76
330
75
100
AcDbEntity
  8
_U+30EC_U+30A4_U+30E4_U+30FC 1
 62
     7
420
 16777215
370
    25
100
AcDbVertex
100
AcDb2dVertex
 10
82.60478428146527
 20
-134.9361241329327
 30
0.0
  0
VERTEX
  5
77
330
75
100
AcDbEntity
  8
_U+30EC_U+30A4_U+30E4_U+30FC 1
 62
     7
420
 16777215
370
    25
100
AcDbVertex
100
AcDb2dVertex
 10
82.60478428146527
 20
-124.4357994133354
 30
0.0
  0
SEQEND
  5
78
330
75
100
AcDbEntity
  8
_U+30EC_U+30A4_U+30E4_U+30FC 1
 62
     7
420
 16777215
370
    25
  0
POLYLINE
  5
79
330
1F
100
AcDbEntity
  8
_U+30EC_U+30A4_U+30E4_U+30FC 1
 62
     7
420
 16777215
370
    25
100
AcDb2dPolyline
 66
     1
 10
0.0
 20
0.0
 30
0.0
  0
VERTEX
  5
7A
330
79
100
AcDbEntity
  8
_U+30EC_U+30A4_U+30E4_U+30FC 1
 62
     7
420
 16777215
370
    25
100
AcDbVertex
100
AcDb2dVertex
 10
106.6894517225698
 20
-124.4357994133354
 30
0.0
  0
VERTEX
  5
7B
330
79
100
AcDbEntity
  8
_U+30EC_U+30A4_U+30E4_U+30FC 1
 62
     7
420
 16777215
370
    25
100
AcDbVertex
100
AcDb2dVertex
 10
106.6894517225698
 20
-123.436062469141
 30
0.0
  0
SEQEND
  5
7C
330
79
100
AcDbEntity
  8
_U+30EC_U+30A4_U+30E4_U+30FC 1
 62
     7
420
 16777215
370
    25
  0
POLYLINE
  5
7D
330
1F
100
AcDbEntity
  8
_U+30EC_U+30A4_U+30E4_U+30FC 1
 62
     7
420
 16777215
370
    25
100
AcDb2dPolyline
 66
     1
 10
0.0
 20
0.0
 30
0.0
  0
VERTEX
  5
7E
330
7D
100
AcDbEntity
  8
_U+30EC_U+30A4_U+30E4_U+30FC 1
 62
     7
420
 16777215
370
    25
100
AcDbVertex
100
AcDb2dVertex
 10
82.60478428146527
 20
-124.4357994133354
 30
0.0
  0
VERTEX
  5
7F
330
7D
100
AcDbEntity
  8
_U+30EC_U+30A4_U+30E4_U+30FC 1
 62
     7
420
 16777215
370
    25
100
AcDbVertex
100
AcDb2dVertex
 10
106.7052914443879
 20
-124.4357994133354
 30
0.0
  0
SEQEND
  5
80
330
7D
100
AcDbEntity
  8
_U+30EC_U+30A4_U+30E4_U+30FC 1
 62
     7
420
 16777215
370
    25
  0
SPLINE
  5
81
330
1F
100
AcDbEntity
  8
_U+30EC_U+30A4_U+30E4_U+30FC 1
 62
     7
420
 16777215
370
     9
100
AcDbSpline
210
0.0
220
0.0
230
1.0
 70
    11
 71
     3
 72
    17
 73
    13
 74
     0
 42
0.0000000001
 43
0.0000000001
 12
1.0
 22
0.0
 32
0.0
 13
1.0
 23
0.0
 33
0.0
 40
0.0
 40
0.0
 40
0.0
 40
0.0
 40
1.0
 40
1.0
 40
1.0
 40
2.0
 40
2.0
 40
2.0
 40
3.0
 40
3.0
 40
3.0
 40
4.0
 40
4.0
 40
4.0
 40
4.0
 10
81.80482541298504
 20
-139.9359730205718
 30
0.0
 10
81.80482541298504
 20
-139.8808691316962
 30
0.0
 10
81.76002263635027
 20
-139.8360663539301
 30
0.0
 10
81.7049187488672
 20
-139.8360663539301
 30
0.0
 10
81.64977958360724
 20
-139.8360663539301
 30
0.0
 10
81.60501208474936
 20
-139.8808691316962
 30
0.0
 10
81.60501208474936
 20
-139.9359730205718
 30
0.0
 10
81.60501208474936
 20
-139.9911121872242
 30
0.0
 10
81.64977958360724
 20
-140.0358796872134
 30
0.0
 10
81.7049187488672
 20
-140.0358796872134
 30
0.0
 10
81.76002263635027
 20
-140.0358796872134
 30
0.0
 10
81.80482541298504
 20
-139.9911121872242
 30
0.0
 10
81.80482541298504
 20
-139.9359730205718
 30
0.0
  0
SPLINE
  5
82
330
1F
100
AcDbEntity
  8
_U+30EC_U+30A4_U+30E4_U+30FC 1
 62
     7
420
 16777215
370
     9
100
AcDbSpline
210
0.0
220
0.0
230
1.0
 70
    11
 71
     3
 72
    17
 73
    13
 74
     0
 42
0.0000000001
 43
0.0000000001
 12
1.0
 22
0.0
 32
0.0
 13
1.0
 23
0.0
 33
0.0
 40
0.0
 40
0.0
 40
0.0
 40
0.0
 40
1.0
 40
1.0
 40
1.0
 40
2.0
 40
2.0
 40
2.0
 40
3.0
 40
3.0
 40
3.0
 40
4.0
 40
4.0
 40
4.0
 40
4.0
 10
91.80526376896371
 20
-139.9359730205718
 30
0.0
 10
91.80526376896371
 20
-139.8808691316962
 30
0.0
 10
91.76046099232894
 20
-139.8360663539301
 30
0.0
 10
91.70465154930831
 20
-139.8360663539301
 30
0.0
 10
91.64951238404836
 20
-139.8360663539301
 30
0.0
 10
91.60474719932085
 20
-139.8808691316962
 30
0.0
 10
91.60474719932085
 20
-139.9359730205718
 30
0.0
 10
91.60474719932085
 20
-139.9911121872242
 30
0.0
 10
91.64951238404836
 20
-140.0358796872134
 30
0.0
 10
91.70465154930831
 20
-140.0358796872134
 30
0.0
 10
91.76046099232894
 20
-140.0358796872134
 30
0.0
 10
91.80526376896371
 20
-139.9911121872242
 30
0.0
 10
91.80526376896371
 20
-139.9359730205718
 30
0.0
  0
SPLINE
  5
83
330
1F
100
AcDbEntity
  8
_U+30EC_U+30A4_U+30E4_U+30FC 1
 62
     7
420
 16777215
370
     9
100
AcDbSpline
210
0.0
220
0.0
230
1.0
 70
    11
 71
     3
 72
    17
 73
    13
 74
     0
 42
0.0000000001
 43
0.0000000001
 12
1.0
 22
0.0
 32
0.0
 13
1.0
 23
0.0
 33
0.0
 40
0.0
 40
0.0
 40
0.0
 40
0.0
 40
1.0
 40
1.0
 40
1.0
 40
2.0
 40
2.0
 40
2.0
 40
3.0
 40
3.0
 40
3.0
 40
4.0
 40
4.0
 40
4.0
 40
4.0
 10
111.0054407791264
 20
-135.9362491326824
 30
0.0
 10
111.0054407791264
 20
-135.8807571882522
 30
0.0
 10
110.9606732802685
 20
-135.835989688263
 30
0.0
 10
110.9055341150085
 20
-135.835989688263
 30
0.0
 10
110.8504302275255
 20
-135.835989688263
 30
0.0
 10
110.8056274508907
 20
-135.8807571882522
 30
0.0
 10
110.8056274508907
 20
-135.9362491326824
 30
0.0
 10
110.8056274508907
 20
-135.991353021558
 30
0.0
 10
110.8504302275255
 20
-136.036155799324
 30
0.0
 10
110.9055341150085
 20
-136.036155799324
 30
0.0
 10
110.9606732802685
 20
-136.036155799324
 30
0.0
 10
111.0054407791264
 20
-135.991353021558
 30
0.0
 10
111.0054407791264
 20
-135.9362491326824
 30
0.0
  0
SPLINE
  5
84
330
1F
100
AcDbEntity
  8
_U+30EC_U+30A4_U+30E4_U+30FC 1
 62
     7
420
 16777215
370
     9
100
AcDbSpline
210
0.0
220
0.0
230
1.0
 70
    11
 71
     3
 72
    17
 73
    13
 74
     0
 42
0.0000000001
 43
0.0000000001
 12
1.0
 22
0.0
 32
0.0
 13
1.0
 23
0.0
 33
0.0
 40
0.0
 40
0.0
 40
0.0
 40
0.0
 40
1.0
 40
1.0
 40
1.0
 40
2.0
 40
2.0
 40
2.0
 40
3.0
 40
3.0
 40
3.0
 40
4.0
 40
4.0
 40
4.0
 40
4.0
 10
111.0054407791264
 20
-132.9362269112106
 30
0.0
 10
111.0054407791264
 20
-132.8807702445579
 30
0.0
 10
110.9606732802685
 20
-132.8360027445687
 30
0.0
 10
110.9055341150085
 20
-132.8360027445687
 30
0.0
 10
110.8504302275255
 20
-132.8360027445687
 30
0.0
 10
110.8056274508907
 20
-132.8807702445579
 30
0.0
 10
110.8056274508907
 20
-132.9362269112106
 30
0.0
 10
110.8056274508907
 20
-132.991366077863
 30
0.0
 10
110.8504302275255
 20
-133.0361688556297
 30
0.0
 10
110.9055341150085
 20
-133.0361688556297
 30
0.0
 10
110.9606732802685
 20
-133.0361688556297
 30
0.0
 10
111.0054407791264
 20
-132.991366077863
 30
0.0
 10
111.0054407791264
 20
-132.9362269112106
 30
0.0
  0
SPLINE
  5
85
330
1F
100
AcDbEntity
  8
_U+30EC_U+30A4_U+30E4_U+30FC 1
 62
     7
420
 16777215
370
     9
100
AcDbSpline
210
0.0
220
0.0
230
1.0
 70
    11
 71
     3
 72
    17
 73
    13
 74
     0
 42
0.0000000001
 43
0.0000000001
 12
1.0
 22
0.0
 32
0.0
 13
1.0
 23
0.0
 33
0.0
 40
0.0
 40
0.0
 40
0.0
 40
0.0
 40
1.0
 40
1.0
 40
1.0
 40
2.0
 40
2.0
 40
2.0
 40
3.0
 40
3.0
 40
3.0
 40
4.0
 40
4.0
 40
4.0
 40
4.0
 10
111.0054407791264
 20
-123.436062469141
 30
0.0
 10
111.0054407791264
 20
-123.3809233024882
 30
0.0
 10
110.9606732802685
 20
-123.3361558024994
 30
0.0
 10
110.9055341150085
 20
-123.3361558024994
 30
0.0
 10
110.8504302275255
 20
-123.3361558024994
 30
0.0
 10
110.8056274508907
 20
-123.3809233024882
 30
0.0
 10
110.8056274508907
 20
-123.436062469141
 30
0.0
 10
110.8056274508907
 20
-123.4911663580162
 30
0.0
 10
110.8504302275255
 20
-123.5359691357826
 30
0.0
 10
110.9055341150085
 20
-123.5359691357826
 30
0.0
 10
110.9606732802685
 20
-123.5359691357826
 30
0.0
 10
111.0054407791264
 20
-123.4911663580162
 30
0.0
 10
111.0054407791264
 20
-123.436062469141
 30
0.0
  0
SPLINE
  5
86
330
1F
100
AcDbEntity
  8
_U+30EC_U+30A4_U+30E4_U+30FC 1
 62
     7
420
 16777215
370
     9
100
AcDbSpline
210
0.0
220
0.0
230
1.0
 70
    11
 71
     3
 72
    17
 73
    13
 74
     0
 42
0.0000000001
 43
0.0000000001
 12
1.0
 22
0.0
 32
0.0
 13
1.0
 23
0.0
 33
0.0
 40
0.0
 40
0.0
 40
0.0
 40
0.0
 40
1.0
 40
1.0
 40
1.0
 40
2.0
 40
2.0
 40
2.0
 40
3.0
 40
3.0
 40
3.0
 40
4.0
 40
4.0
 40
4.0
 40
4.0
 10
106.7893610844135
 20
-119.4359505256967
 30
0.0
 10
106.7893610844135
 20
-119.3808113590436
 30
0.0
 10
106.7445583066474
 20
-119.336043859055
 30
0.0
 10
106.6894517225698
 20
-119.336043859055
 30
0.0
 10
106.6343125573098
 20
-119.336043859055
 30
0.0
 10
106.5895450584519
 20
-119.3808113590436
 30
0.0
 10
106.5895450584519
 20
-119.4359505256967
 30
0.0
 10
106.5895450584519
 20
-119.4914071923494
 30
0.0
 10
106.6343125573098
 20
-119.5362099701161
 30
0.0
 10
106.6894517225698
 20
-119.5362099701161
 30
0.0
 10
106.7445583066474
 20
-119.5362099701161
 30
0.0
 10
106.7893610844135
 20
-119.4914071923494
 30
0.0
 10
106.7893610844135
 20
-119.4359505256967
 30
0.0
  0
SPLINE
  5
87
330
1F
100
AcDbEntity
  8
_U+30EC_U+30A4_U+30E4_U+30FC 1
 62
     7
420
 16777215
370
     9
100
AcDbSpline
210
0.0
220
0.0
230
1.0
 70
    11
 71
     3
 72
    17
 73
    13
 74
     0
 42
0.0000000001
 43
0.0000000001
 12
1.0
 22
0.0
 32
0.0
 13
1.0
 23
0.0
 33
0.0
 40
0.0
 40
0.0
 40
0.0
 40
0.0
 40
1.0
 40
1.0
 40
1.0
 40
2.0
 40
2.0
 40
2.0
 40
3.0
 40
3.0
 40
3.0
 40
4.0
 40
4.0
 40
4.0
 40
4.0
 10
111.0054407791264
 20
-124.4357994133354
 30
0.0
 10
111.0054407791264
 20
-124.3806955244605
 30
0.0
 10
110.9606732802685
 20
-124.3358927466937
 30
0.0
 10
110.9055341150085
 20
-124.3358927466937
 30
0.0
 10
110.8504302275255
 20
-124.3358927466937
 30
0.0
 10
110.8056274508907
 20
-124.3806955244605
 30
0.0
 10
110.8056274508907
 20
-124.4357994133354
 30
0.0
 10
110.8056274508907
 20
-124.4912913577662
 30
0.0
 10
110.8504302275255
 20
-124.5360588577548
 30
0.0
 10
110.9055341150085
 20
-124.5360588577548
 30
0.0
 10
110.9606732802685
 20
-124.5360588577548
 30
0.0
 10
111.0054407791264
 20
-124.4912913577662
 30
0.0
 10
111.0054407791264
 20
-124.4357994133354
 30
0.0
  0
SPLINE
  5
88
330
1F
100
AcDbEntity
  8
_U+30EC_U+30A4_U+30E4_U+30FC 1
 62
     7
420
 16777215
370
     9
100
AcDbSpline
210
0.0
220
0.0
230
1.0
 70
    11
 71
     3
 72
    17
 73
    13
 74
     0
 42
0.0000000001
 43
0.0000000001
 12
1.0
 22
0.0
 32
0.0
 13
1.0
 23
0.0
 33
0.0
 40
0.0
 40
0.0
 40
0.0
 40
0.0
 40
1.0
 40
1.0
 40
1.0
 40
2.0
 40
2.0
 40
2.0
 40
3.0
 40
3.0
 40
3.0
 40
4.0
 40
4.0
 40
4.0
 40
4.0
 10
69.76078072025422
 20
-139.9359730205718
 30
0.0
 10
69.76078072025422
 20
-139.8808691316962
 30
0.0
 10
69.71597794361945
 20
-139.8360663539301
 30
0.0
 10
69.66087405613638
 20
-139.8360663539301
 30
0.0
 10
69.60573489087643
 20
-139.8360663539301
 30
0.0
 10
69.56096739201854
 20
-139.8808691316962
 30
0.0
 10
69.56096739201854
 20
-139.9359730205718
 30
0.0
 10
69.56096739201854
 20
-139.9911121872242
 30
0.0
 10
69.60573489087643
 20
-140.0358796872134
 30
0.0
 10
69.66087405613638
 20
-140.0358796872134
 30
0.0
 10
69.71597794361945
 20
-140.0358796872134
 30
0.0
 10
69.76078072025422
 20
-139.9911121872242
 30
0.0
 10
69.76078072025422
 20
-139.9359730205718
 30
0.0
  0
SPLINE
  5
89
330
1F
100
AcDbEntity
  8
_U+30EC_U+30A4_U+30E4_U+30FC 1
 62
     7
420
 16777215
370
     9
100
AcDbSpline
210
0.0
220
0.0
230
1.0
 70
    11
 71
     3
 72
    17
 73
    13
 74
     0
 42
0.0000000001
 43
0.0000000001
 12
1.0
 22
0.0
 32
0.0
 13
1.0
 23
0.0
 33
0.0
 40
0.0
 40
0.0
 40
0.0
 40
0.0
 40
1.0
 40
1.0
 40
1.0
 40
2.0
 40
2.0
 40
2.0
 40
3.0
 40
3.0
 40
3.0
 40
4.0
 40
4.0
 40
4.0
 40
4.0
 10
69.80487794135142
 20
-119.4359505256967
 30
0.0
 10
69.80487794135142
 20
-119.3808113590436
 30
0.0
 10
69.76007516471665
 20
-119.336043859055
 30
0.0
 10
69.70497127723358
 20
-119.336043859055
 30
0.0
 10
69.64983211197364
 20
-119.336043859055
 30
0.0
 10
69.60506461311574
 20
-119.3808113590436
 30
0.0
 10
69.60506461311574
 20
-119.4359505256967
 30
0.0
 10
69.60506461311574
 20
-119.4914071923494
 30
0.0
 10
69.64983211197364
 20
-119.5362099701161
 30
0.0
 10
69.70497127723358
 20
-119.5362099701161
 30
0.0
 10
69.76007516471665
 20
-119.5362099701161
 30
0.0
 10
69.80487794135142
 20
-119.4914071923494
 30
0.0
 10
69.80487794135142
 20
-119.4359505256967
 30
0.0
  0
POLYLINE
  5
8A
330
1F
100
AcDbEntity
  8
_U+30EC_U+30A4_U+30E4_U+30FC 1
 62
     7
420
 16777215
370
     9
100
AcDb2dPolyline
 66
     1
 10
0.0
 20
0.0
 30
0.0
  0
VERTEX
  5
8B
330
8A
100
AcDbEntity
  8
_U+30EC_U+30A4_U+30E4_U+30FC 1
 62
     7
420
 16777215
370
     9
100
AcDbVertex
100
AcDb2dVertex
 10
110.9055341150085
 20
-123.436062469141
 30
0.0
  0
VERTEX
  5
8C
330
8A
100
AcDbEntity
  8
_U+30EC_U+30A4_U+30E4_U+30FC 1
 62
     7
420
 16777215
370
     9
100
AcDbVertex
100
AcDb2dVertex
 10
110.9055341150085
 20
-119.6657499700836
 30
0.0
  0
SEQEND
  5
8D
330
8A
100
AcDbEntity
  8
_U+30EC_U+30A4_U+30E4_U+30FC 1
 62
     7
420
 16777215
370
     9
  0
POLYLINE
  5
8E
330
1F
100
AcDbEntity
  8
_U+30EC_U+30A4_U+30E4_U+30FC 1
 62
     7
420
 16777215
370
     9
100
AcDb2dPolyline
 66
     1
 10
0.0
 20
0.0
 30
0.0
  0
VERTEX
  5
8F
330
8E
100
AcDbEntity
  8
_U+30EC_U+30A4_U+30E4_U+30FC 1
 62
     7
420
 16777215
370
     9
100
AcDbVertex
100
AcDb2dVertex
 10
110.9055341150085
 20
-123.436062469141
 30
0.0
  0
VERTEX
  5
90
330
8E
100
AcDbEntity
  8
_U+30EC_U+30A4_U+30E4_U+30FC 1
 62
     7
420
 16777215
370
     9
100
AcDbVertex
100
AcDb2dVertex
 10
110.9055341150085
 20
-124.4357994133354
 30
0.0
  0
SEQEND
  5
91
330
8E
100
AcDbEntity
  8
_U+30EC_U+30A4_U+30E4_U+30FC 1
 62
     7
420
 16777215
370
     9
  0
POLYLINE
  5
92
330
1F
100
AcDbEntity
  8
_U+30EC_U+30A4_U+30E4_U+30FC 1
 62
     7
420
 16777215
370
     9
100
AcDb2dPolyline
 66
     1
 10
0.0
 20
0.0
 30
0.0
  0
VERTEX
  5
93
330
92
100
AcDbEntity
  8
_U+30EC_U+30A4_U+30E4_U+30FC 1
 62
     7
420
 16777215
370
     9
100
AcDbVertex
100
AcDb2dVertex
 10
109.4455280411453
 20
-123.436062469141
 30
0.0
  0
VERTEX
  5
94
330
92
100
AcDbEntity
  8
_U+30EC_U+30A4_U+30E4_U+30FC 1
 62
     7
420
 16777215
370
     9
100
AcDbVertex
100
AcDb2dVertex
 10
111.906011867262
 20
-123.436062469141
 30
0.0
  0
SEQEND
  5
95
330
92
100
AcDbEntity
  8
_U+30EC_U+30A4_U+30E4_U+30FC 1
 62
     7
420
 16777215
370
     9
  0
POLYLINE
  5
96
330
1F
100
AcDbEntity
  8
_U+30EC_U+30A4_U+30E4_U+30FC 1
 62
     7
420
 16777215
370
     9
100
AcDb2dPolyline
 66
     1
 10
0.0
 20
0.0
 30
0.0
  0
VERTEX
  5
97
330
96
100
AcDbEntity
  8
_U+30EC_U+30A4_U+30E4_U+30FC 1
 62
     7
420
 16777215
370
     9
100
AcDbVertex
100
AcDb2dVertex
 10
109.4455280411453
 20
-124.4357994133354
 30
0.0
  0
VERTEX
  5
98
330
96
100
AcDbEntity
  8
_U+30EC_U+30A4_U+30E4_U+30FC 1
 62
     7
420
 16777215
370
     9
100
AcDbVertex
100
AcDb2dVertex
 10
111.906011867262
 20
-124.4357994133354
 30
0.0
  0
SEQEND
  5
99
330
96
100
AcDbEntity
  8
_U+30EC_U+30A4_U+30E4_U+30FC 1
 62
     7
420
 16777215
370
     9
  0
INSERT
  5
9B
330
1F
100
AcDbEntity
  8
_U+30EC_U+30A4_U+30E4_U+30FC 1
100
AcDbBlockReference
  2
block 2
 10
0.0
 20
0.0
 30
0.0
  0
POLYLINE
  5
A0
330
1F
100
AcDbEntity
  8
_U+30EC_U+30A4_U+30E4_U+30FC 1
 62
     7
420
 16777215
370
     9
100
AcDb2dPolyline
 66
     1
 10
0.0
 20
0.0
 30
0.0
  0
VERTEX
  5
A1
330
A0
100
AcDbEntity
  8
_U+30EC_U+30A4_U+30E4_U+30FC 1
 62
     7
420
 16777215
370
     9
100
AcDbVertex
100
AcDb2dVertex
 10
81.7049187488672
 20
-139.9359730205718
 30
0.0
  0
VERTEX
  5
A2
330
A0
100
AcDbEntity
  8
_U+30EC_U+30A4_U+30E4_U+30FC 1
 62
     7
420
 16777215
370
     9
100
AcDbVertex
100
AcDb2dVertex
 10
91.70465154930831
 20
-139.9359730205718
 30
0.0
  0
SEQEND
  5
A3
330
A0
100
AcDbEntity
  8
_U+30EC_U+30A4_U+30E4_U+30FC 1
 62
     7
420
 16777215
370
     9
  0
POLYLINE
  5
A4
330
1F
100
AcDbEntity
  8
_U+30EC_U+30A4_U+30E4_U+30FC 1
 62
     7
420
 16777215
370
     9
100
AcDb2dPolyline
 66
     1
 10
0.0
 20
0.0
 30
0.0
  0
VERTEX
  5
A5
330
A4
100
AcDbEntity
  8
_U+30EC_U+30A4_U+30E4_U+30FC 1
 62
     7
420
 16777215
370
     9
100
AcDbVertex
100
AcDb2dVertex
 10
91.70465154930831
 20
-138.4759669098256
 30
0.0
  0
VERTEX
  5
A6
330
A4
100
AcDbEntity
  8
_U+30EC_U+30A4_U+30E4_U+30FC 1
 62
     7
420
 16777215
370
     9
100
AcDbVertex
100
AcDb2dVertex
 10
91.70465154930831
 20
-140.9360980203214
 30
0.0
  0
SEQEND
  5
A7
330
A4
100
AcDbEntity
  8
_U+30EC_U+30A4_U+30E4_U+30FC 1
 62
     7
420
 16777215
370
     9
  0
INSERT
  5
A9
330
1F
100
AcDbEntity
  8
_U+30EC_U+30A4_U+30E4_U+30FC 1
100
AcDbBlockReference
  2
block 3
 10
0.0
 20
0.0
 30
0.0
  0
POLYLINE
  5
B1
330
1F
100
AcDbEntity
  8
_U+30EC_U+30A4_U+30E4_U+30FC 1
 62
     7
420
 16777215
370
     9
100
AcDb2dPolyline
 66
     1
 10
0.0
 20
0.0
 30
0.0
  0
VERTEX
  5
B2
330
B1
100
AcDbEntity
  8
_U+30EC_U+30A4_U+30E4_U+30FC 1
 62
     7
420
 16777215
370
     9
100
AcDbVertex
100
AcDb2dVertex
 10
110.9055341150085
 20
-135.9362491326824
 30
0.0
  0
VERTEX
  5
B3
330
B1
100
AcDbEntity
  8
_U+30EC_U+30A4_U+30E4_U+30FC 1
 62
     7
420
 16777215
370
     9
100
AcDbVertex
100
AcDb2dVertex
 10
110.9055341150085
 20
-132.9362269112106
 30
0.0
  0
SEQEND
  5
B4
330
B1
100
AcDbEntity
  8
_U+30EC_U+30A4_U+30E4_U+30FC 1
 62
     7
420
 16777215
370
     9
  0
POLYLINE
  5
B5
330
1F
100
AcDbEntity
  8
_U+30EC_U+30A4_U+30E4_U+30FC 1
 62
     7
420
 16777215
370
     9
100
AcDb2dPolyline
 66
     1
 10
0.0
 20
0.0
 30
0.0
  0
VERTEX
  5
B6
330
B5
100
AcDbEntity
  8
_U+30EC_U+30A4_U+30E4_U+30FC 1
 62
     7
420
 16777215
370
     9
100
AcDbVertex
100
AcDb2dVertex
 10
93.98186732454504
 20
-135.9362491326824
 30
0.0
  0
VERTEX
  5
B7
330
B5
100
AcDbEntity
  8
_U+30EC_U+30A4_U+30E4_U+30FC 1
 62
     7
420
 16777215
370
     9
100
AcDbVertex
100
AcDb2dVertex
 10
111.906011867262
 20
-135.9362491326824
 30
0.0
  0
SEQEND
  5
B8
330
B5
100
AcDbEntity
  8
_U+30EC_U+30A4_U+30E4_U+30FC 1
 62
     7
420
 16777215
370
     9
  0
INSERT
  5
BA
330
1F
100
AcDbEntity
  8
_U+30EC_U+30A4_U+30E4_U+30FC 1
100
AcDbBlockReference
  2
block 4
 10
0.0
 20
0.0
 30
0.0
  0
POLYLINE
  5
BF
330
1F
100
AcDbEntity
  8
_U+30EC_U+30A4_U+30E4_U+30FC 1
 62
     7
420
 16777215
370
     9
100
AcDb2dPolyline
 66
     1
 10
0.0
 20
0.0
 30
0.0
  0
VERTEX
  5
C0
330
BF
100
AcDbEntity
  8
_U+30EC_U+30A4_U+30E4_U+30FC 1
 62
     7
420
 16777215
370
     9
100
AcDbVertex
100
AcDb2dVertex
 10
110.9055341150085
 20
-132.9362269112106
 30
0.0
  0
VERTEX
  5
C1
330
BF
100
AcDbEntity
  8
_U+30EC_U+30A4_U+30E4_U+30FC 1
 62
     7
420
 16777215
370
     9
100
AcDbVertex
100
AcDb2dVertex
 10
110.9055341150085
 20
-124.4357994133354
 30
0.0
  0
SEQEND
  5
C2
330
BF
100
AcDbEntity
  8
_U+30EC_U+30A4_U+30E4_U+30FC 1
 62
     7
420
 16777215
370
     9
  0
POLYLINE
  5
C3
330
1F
100
AcDbEntity
  8
_U+30EC_U+30A4_U+30E4_U+30FC 1
 62
     7
420
 16777215
370
     9
100
AcDb2dPolyline
 66
     1
 10
0.0
 20
0.0
 30
0.0
  0
VERTEX
  5
C4
330
C3
100
AcDbEntity
  8
_U+30EC_U+30A4_U+30E4_U+30FC 1
 62
     7
420
 16777215
370
     9
100
AcDbVertex
100
AcDb2dVertex
 10
93.98186732454504
 20
-132.9362269112106
 30
0.0
  0
VERTEX
  5
C5
330
C3
100
AcDbEntity
  8
_U+30EC_U+30A4_U+30E4_U+30FC 1
 62
     7
420
 16777215
370
     9
100
AcDbVertex
100
AcDb2dVertex
 10
111.906011867262
 20
-132.9362269112106
 30
0.0
  0
SEQEND
  5
C6
330
C3
100
AcDbEntity
  8
_U+30EC_U+30A4_U+30E4_U+30FC 1
 62
     7
420
 16777215
370
     9
  0
INSERT
  5
C8
330
1F
100
AcDbEntity
  8
_U+30EC_U+30A4_U+30E4_U+30FC 1
100
AcDbBlockReference
  2
block 5
 10
0.0
 20
0.0
 30
0.0
  0
POLYLINE
  5
D9
330
1F
100
AcDbEntity
  8
_U+30EC_U+30A4_U+30E4_U+30FC 1
 62
     7
420
 16777215
370
     9
100
AcDb2dPolyline
 66
     1
 10
0.0
 20
0.0
 30
0.0
  0
VERTEX
  5
DA
330
D9
100
AcDbEntity
  8
_U+30EC_U+30A4_U+30E4_U+30FC 1
 62
     7
420
 16777215
370
     9
100
AcDbVertex
100
AcDb2dVertex
 10
69.70497127723358
 20
-119.4359505256967
 30
0.0
  0
VERTEX
  5
DB
330
D9
100
AcDbEntity
  8
_U+30EC_U+30A4_U+30E4_U+30FC 1
 62
     7
420
 16777215
370
     9
100
AcDbVertex
100
AcDb2dVertex
 10
106.7052914443879
 20
-119.4359505256967
 30
0.0
  0
SEQEND
  5
DC
330
D9
100
AcDbEntity
  8
_U+30EC_U+30A4_U+30E4_U+30FC 1
 62
     7
420
 16777215
370
     9
  0
POLYLINE
  5
DD
330
1F
100
AcDbEntity
  8
_U+30EC_U+30A4_U+30E4_U+30FC 1
 62
     7
420
 16777215
370
     9
100
AcDb2dPolyline
 66
     1
 10
0.0
 20
0.0
 30
0.0
  0
VERTEX
  5
DE
330
DD
100
AcDbEntity
  8
_U+30EC_U+30A4_U+30E4_U+30FC 1
 62
     7
420
 16777215
370
     9
100
AcDbVertex
100
AcDb2dVertex
 10
69.70497127723358
 20
-120.8959919142204
 30
0.0
  0
VERTEX
  5
DF
330
DD
100
AcDbEntity
  8
_U+30EC_U+30A4_U+30E4_U+30FC 1
 62
     7
420
 16777215
370
     9
100
AcDbVertex
100
AcDb2dVertex
 10
69.70497127723358
 20
-118.4358255259467
 30
0.0
  0
SEQEND
  5
E0
330
DD
100
AcDbEntity
  8
_U+30EC_U+30A4_U+30E4_U+30FC 1
 62
     7
420
 16777215
370
     9
  0
POLYLINE
  5
E1
330
1F
100
AcDbEntity
  8
_U+30EC_U+30A4_U+30E4_U+30FC 1
 62
     7
420
 16777215
370
     9
100
AcDb2dPolyline
 66
     1
 10
0.0
 20
0.0
 30
0.0
  0
VERTEX
  5
E2
330
E1
100
AcDbEntity
  8
_U+30EC_U+30A4_U+30E4_U+30FC 1
 62
     7
420
 16777215
370
     9
100
AcDbVertex
100
AcDb2dVertex
 10
106.6894517225698
 20
-120.8959919142204
 30
0.0
  0
VERTEX
  5
E3
330
E1
100
AcDbEntity
  8
_U+30EC_U+30A4_U+30E4_U+30FC 1
 62
     7
420
 16777215
370
     9
100
AcDbVertex
100
AcDb2dVertex
 10
106.6894517225698
 20
-118.4358255259467
 30
0.0
  0
SEQEND
  5
E4
330
E1
100
AcDbEntity
  8
_U+30EC_U+30A4_U+30E4_U+30FC 1
 62
     7
420
 16777215
370
     9
  0
INSERT
  5
E6
330
1F
100
AcDbEntity
  8
_U+30EC_U+30A4_U+30E4_U+30FC 1
100
AcDbBlockReference
  2
block 6
 10
0.0
 20
0.0
 30
0.0
  0
POLYLINE
  5
ED
330
1F
100
AcDbEntity
  8
_U+30EC_U+30A4_U+30E4_U+30FC 1
 62
     7
420
 16777215
370
     9
100
AcDb2dPolyline
 66
     1
 10
0.0
 20
0.0
 30
0.0
  0
VERTEX
  5
EE
330
ED
100
AcDbEntity
  8
_U+30EC_U+30A4_U+30E4_U+30FC 1
 62
     7
420
 16777215
370
     9
100
AcDbVertex
100
AcDb2dVertex
 10
69.70497127723358
 20
-139.9359730205718
 30
0.0
  0
VERTEX
  5
EF
330
ED
100
AcDbEntity
  8
_U+30EC_U+30A4_U+30E4_U+30FC 1
 62
     7
420
 16777215
370
     9
100
AcDbVertex
100
AcDb2dVertex
 10
81.7049187488672
 20
-139.9359730205718
 30
0.0
  0
SEQEND
  5
F0
330
ED
100
AcDbEntity
  8
_U+30EC_U+30A4_U+30E4_U+30FC 1
 62
     7
420
 16777215
370
     9
  0
POLYLINE
  5
F1
330
1F
100
AcDbEntity
  8
_U+30EC_U+30A4_U+30E4_U+30FC 1
 62
     7
420
 16777215
370
     9
100
AcDb2dPolyline
 66
     1
 10
0.0
 20
0.0
 30
0.0
  0
VERTEX
  5
F2
330
F1
100
AcDbEntity
  8
_U+30EC_U+30A4_U+30E4_U+30FC 1
 62
     7
420
 16777215
370
     9
100
AcDbVertex
100
AcDb2dVertex
 10
69.66087405613638
 20
-126.9762227460338
 30
0.0
  0
VERTEX
  5
F3
330
F1
100
AcDbEntity
  8
_U+30EC_U+30A4_U+30E4_U+30FC 1
 62
     7
420
 16777215
370
     9
100
AcDbVertex
100
AcDb2dVertex
 10
69.66087405613638
 20
-140.9360980203214
 30
0.0
  0
SEQEND
  5
F4
330
F1
100
AcDbEntity
  8
_U+30EC_U+30A4_U+30E4_U+30FC 1
 62
     7
420
 16777215
370
     9
  0
POLYLINE
  5
F5
330
1F
100
AcDbEntity
  8
_U+30EC_U+30A4_U+30E4_U+30FC 1
 62
     7
420
 16777215
370
     9
100
AcDb2dPolyline
 66
     1
 10
0.0
 20
0.0
 30
0.0
  0
VERTEX
  5
F6
330
F5
100
AcDbEntity
  8
_U+30EC_U+30A4_U+30E4_U+30FC 1
 62
     7
420
 16777215
370
     9
100
AcDbVertex
100
AcDb2dVertex
 10
81.7049187488672
 20
-138.4759669098256
 30
0.0
  0
VERTEX
  5
F7
330
F5
100
AcDbEntity
  8
_U+30EC_U+30A4_U+30E4_U+30FC 1
 62
     7
420
 16777215
370
     9
100
AcDbVertex
100
AcDb2dVertex
 10
81.7049187488672
 20
-140.9360980203214
 30
0.0
  0
SEQEND
  5
F8
330
F5
100
AcDbEntity
  8
_U+30EC_U+30A4_U+30E4_U+30FC 1
 62
     7
420
 16777215
370
     9
  0
INSERT
  5
FA
330
1F
100
AcDbEntity
  8
_U+30EC_U+30A4_U+30E4_U+30FC 1
100
AcDbBlockReference
  2
block 7
 10
0.0
 20
0.0
 30
0.0
  0
ENDSEC
  0
SECTION
  2
OBJECTS
  0
DICTIONARY
  5
C
330
0
100
AcDbDictionary
281
     1
  3
ACAD_GROUP
350
D
  3
ACAD_LAYOUT
350
1A
  3
ACAD_MATERIAL
350
3B
  3
ACAD_MLEADERSTYLE
350
102
  3
ACAD_MLINESTYLE
350
17
  3
ACAD_PLOTSETTINGS
350
19
  3
ACAD_PLOTSTYLENAME
350
E
  3
ACAD_TABLESTYLE
350
101
  3
ACAD_VISUALSTYLE
350
2A
  0
SUN
  5
3F
330
29
100
AcDbSun
 90
        1
290
     0
 63
     7
421
 16777215
 40
1.0
291
     1
 91
  2455826
 92
 54000000
292
     0
 70
     2
 71
   256
280
     1
  0
DICTIONARY
  5
D
102
{ACAD_REACTORS
330
C
102
}
330
C
100
AcDbDictionary
281
     1
  0
DICTIONARY
  5
1A
102
{ACAD_REACTORS
330
C
102
}
330
C
100
AcDbDictionary
281
     1
  3
Layout1
350
1E
  3
Layout2
350
26
  3
Model
350
22
  0
DICTIONARY
  5
3B
102
{ACAD_REACTORS
330
C
102
}
330
C
100
AcDbDictionary
281
     1
  3
ByBlock
350
3D
  3
ByLayer
350
3C
  3
Global
350
3E
  0
DICTIONARY
  5
102
102
{ACAD_REACTORS
330
C
102
}
330
C
100
AcDbDictionary
281
     1
  0
DICTIONARY
  5
17
102
{ACAD_REACTORS
330
C
102
}
330
C
100
AcDbDictionary
281
     1
  3
Standard
350
18
  0
DICTIONARY
  5
19
102
{ACAD_REACTORS
330
C
102
}
330
C
100
AcDbDictionary
281
     1
  0
ACDBDICTIONARYWDFLT
  5
E
102
{ACAD_REACTORS
330
C
102
}
330
C
100
AcDbDictionary
281
     1
  3
Normal
350
F
100
AcDbDictionaryWithDefault
340
F
  0
DICTIONARY
  5
101
102
{ACAD_REACTORS
330
C
102
}
330
C
100
AcDbDictionary
281
     1
  0
DICTIONARY
  5
2A
102
{ACAD_REACTORS
330
C
102
}
330
C
100
AcDbDictionary
281
     1
  3
2dWireframe
350
2F
  3
3D Hidden
350
31
  3
3dWireframe
350
30
  3
Basic
350
32
  3
Brighten
350
36
  3
ColorChange
350
3A
  3
Conceptual
350
34
  3
Dim
350
35
  3
Facepattern
350
39
  3
Flat
350
2B
  3
FlatWithEdges
350
2C
  3
Gouraud
350
2D
  3
GouraudWithEdges
350
2E
  3
Linepattern
350
38
  3
Realistic
350
33
  3
Thicken
350
37
  0
LAYOUT
  5
1E
102
{ACAD_REACTORS
330
1A
102
}
330
1A
100
AcDbPlotSettings
  1

  2
none_device
  4

  6

 40
0.0
 41
0.0
 42
0.0
 43
0.0
 44
0.0
 45
0.0
 46
0.0
 47
0.0
 48
0.0
 49
0.0
140
0.0
141
0.0
142
1.0
143
1.0
 70
   688
 72
     0
 73
     0
 74
     5
  7

 75
    16
 76
     0
 77
     2
 78
   300
147
1.0
148
0.0
149
0.0
100
AcDbLayout
  1
Layout1
 70
     1
 71
     1
 10
0.0
 20
0.0
 11
12.0
 21
9.0
 12
0.0
 22
0.0
 32
0.0
 14
1.000000000000000E+20
 24
1.000000000000000E+20
 34
1.000000000000000E+20
 15
-1.000000000000000E+20
 25
-1.000000000000000E+20
 35
-1.000000000000000E+20
146
0.0
 13
0.0
 23
0.0
 33
0.0
 16
1.0
 26
0.0
 36
0.0
 17
0.0
 27
1.0
 37
0.0
 76
     0
330
1B
  0
LAYOUT
  5
26
102
{ACAD_REACTORS
330
1A
102
}
330
1A
100
AcDbPlotSettings
  1

  2
none_device
  4

  6

 40
0.0
 41
0.0
 42
0.0
 43
0.0
 44
0.0
 45
0.0
 46
0.0
 47
0.0
 48
0.0
 49
0.0
140
0.0
141
0.0
142
1.0
143
1.0
 70
   688
 72
     0
 73
     0
 74
     5
  7

 75
    16
 76
     0
 77
     2
 78
   300
147
1.0
148
0.0
149
0.0
100
AcDbLayout
  1
Layout2
 70
     1
 71
     2
 10
0.0
 20
0.0
 11
0.0
 21
0.0
 12
0.0
 22
0.0
 32
0.0
 14
0.0
 24
0.0
 34
0.0
 15
0.0
 25
0.0
 35
0.0
146
0.0
 13
0.0
 23
0.0
 33
0.0
 16
1.0
 26
0.0
 36
0.0
 17
0.0
 27
1.0
 37
0.0
 76
     0
330
23
  0
LAYOUT
  5
22
102
{ACAD_REACTORS
330
1A
102
}
330
1A
100
AcDbPlotSettings
  1

  2
none_device
  4

  6

 40
0.0
 41
0.0
 42
0.0
 43
0.0
 44
0.0
 45
0.0
 46
0.0
 47
0.0
 48
0.0
 49
0.0
140
0.0
141
0.0
142
1.0
143
1.0
 70
  1712
 72
     0
 73
     0
 74
     0
  7

 75
     0
 76
     0
 77
     2
 78
   300
147
1.0
148
0.0
149
0.0
100
AcDbLayout
  1
Model
 70
     1
 71
     0
 10
0.0
 20
0.0
 11
12.0
 21
9.0
 12
0.0
 22
0.0
 32
0.0
 14
1.000000000000000E+20
 24
1.000000000000000E+20
 34
1.000000000000000E+20
 15
-1.000000000000000E+20
 25
-1.000000000000000E+20
 35
-1.000000000000000E+20
146
0.0
 13
0.0
 23
0.0
 33
0.0
 16
1.0
 26
0.0
 36
0.0
 17
0.0
 27
1.0
 37
0.0
 76
     0
330
1F
331
29
  0
MATERIAL
  5
3D
102
{ACAD_REACTORS
330
3B
102
}
330
3B
100
AcDbMaterial
  1
ByBlock
 72
     1
 94
      127
  0
MATERIAL
  5
3C
102
{ACAD_REACTORS
330
3B
102
}
330
3B
100
AcDbMaterial
  1
ByLayer
 72
     1
 94
      127
  0
MATERIAL
  5
3E
102
{ACAD_REACTORS
330
3B
102
}
330
3B
100
AcDbMaterial
  1
Global
 72
     1
 94
      127
  0
MLINESTYLE
  5
18
102
{ACAD_REACTORS
330
17
102
}
330
17
100
AcDbMlineStyle
  2
Standard
 70
     0
  3

 62
   256
 51
90.0
 52
90.0
 71
     2
 49
0.5
 62
   256
  6
BYLAYER
 49
-0.5
 62
   256
  6
BYLAYER
  0
ACDBPLACEHOLDER
  5
F
102
{ACAD_REACTORS
330
E
102
}
330
E
  0
VISUALSTYLE
  5
2F
102
{ACAD_REACTORS
330
2A
102
}
330
2A
100
AcDbVisualStyle
  2
2dWireframe
 70
     4
177
     2
291
     0
 71
     0
176
     1
 72
     2
176
     1
 73
     0
176
     1
 90
        0
176
     1
 40
-0.6
176
     1
 41
-30.0
176
     1
 62
     5
 63
     7
421
 16777215
176
     1
 74
     1
176
     1
 91
        4
176
     1
 64
     7
176
     1
 65
   257
176
     1
 75
     1
176
     1
175
     1
176
     1
 42
1.0
176
     1
 92
        0
176
     1
 66
   257
176
     1
 43
1.0
176
     1
 76
     1
176
     1
 77
     6
176
     1
 78
     2
176
     1
 67
     7
176
     1
 79
     5
176
     1
170
     0
176
     1
171
     0
176
     1
290
     0
176
     1
 93
        1
176
     1
 44
0.0
176
     1
173
     0
176
     1
  0
VISUALSTYLE
  5
31
102
{ACAD_REACTORS
330
2A
102
}
330
2A
100
AcDbVisualStyle
  2
3D Hidden
 70
     6
177
     2
291
     0
 71
     1
176
     1
 72
     2
176
     1
 73
     2
176
     1
 90
        0
176
     1
 40
-0.6
176
     1
 41
-30.0
176
     1
 62
     5
 63
     7
421
 16777215
176
     1
 74
     2
176
     1
 91
        2
176
     1
 64
     7
176
     1
 65
   257
176
     1
 75
     2
176
     1
175
     1
176
     1
 42
40.0
176
     1
 92
        0
176
     1
 66
   257
176
     1
 43
1.0
176
     1
 76
     1
176
     1
 77
     6
176
     1
 78
     2
176
     1
 67
     7
176
     1
 79
     3
176
     1
170
     0
176
     1
171
     0
176
     1
290
     0
176
     1
 93
        1
176
     1
 44
0.0
176
     1
173
     0
176
     1
  0
VISUALSTYLE
  5
30
102
{ACAD_REACTORS
330
2A
102
}
330
2A
100
AcDbVisualStyle
  2
3dWireframe
 70
     5
177
     2
291
     0
 71
     0
176
     1
 72
     2
176
     1
 73
     0
176
     1
 90
        0
176
     1
 40
-0.6
176
     1
 41
-30.0
176
     1
 62
     5
 63
     7
421
 16777215
176
     1
 74
     1
176
     1
 91
        4
176
     1
 64
     7
176
     1
 65
   257
176
     1
 75
     1
176
     1
175
     1
176
     1
 42
1.0
176
     1
 92
        0
176
     1
 66
   257
176
     1
 43
1.0
176
     1
 76
     1
176
     1
 77
     6
176
     1
 78
     2
176
     1
 67
     7
176
     1
 79
     5
176
     1
170
     0
176
     1
171
     0
176
     1
290
     0
176
     1
 93
        1
176
     1
 44
0.0
176
     1
173
     0
176
     1
  0
VISUALSTYLE
  5
32
102
{ACAD_REACTORS
330
2A
102
}
330
2A
100
AcDbVisualStyle
  2
Basic
 70
     7
177
     2
291
     1
 71
     1
176
     1
 72
     0
176
     1
 73
     1
176
     1
 90
        0
176
     1
 40
-0.6
176
     1
 41
-30.0
176
     1
 62
     5
 63
     7
421
 16777215
176
     1
 74
     0
176
     1
 91
        4
176
     1
 64
     7
176
     1
 65
   257
176
     1
 75
     1
176
     1
175
     1
176
     1
 42
1.0
176
     1
 92
        8
176
     1
 66
     7
176
     1
 43
1.0
176
     1
 76
     1
176
     1
 77
     6
176
     1
 78
     2
176
     1
 67
     7
176
     1
 79
     5
176
     1
170
     0
176
     1
171
     0
176
     1
290
     0
176
     1
 93
        1
176
     1
 44
0.0
176
     1
173
     0
176
     1
  0
VISUALSTYLE
  5
36
102
{ACAD_REACTORS
330
2A
102
}
330
2A
100
AcDbVisualStyle
  2
Brighten
 70
    12
177
     2
291
     1
 71
     2
176
     1
 72
     2
176
     1
 73
     0
176
     1
 90
        0
176
     1
 40
-0.6
176
     1
 41
-30.0
176
     1
 62
     5
 63
     7
421
 16777215
176
     1
 74
     1
176
     1
 91
        4
176
     1
 64
     7
176
     1
 65
   257
176
     1
 75
     1
176
     1
175
     1
176
     1
 42
1.0
176
     1
 92
        8
176
     1
 66
     7
176
     1
 43
1.0
176
     1
 76
     1
176
     1
 77
     6
176
     1
 78
     2
176
     1
 67
     7
176
     1
 79
     5
176
     1
170
     0
176
     1
171
     0
176
     1
290
     0
176
     1
 93
        1
176
     1
 44
50.0
176
     1
173
     0
176
     1
  0
VISUALSTYLE
  5
3A
102
{ACAD_REACTORS
330
2A
102
}
330
2A
100
AcDbVisualStyle
  2
ColorChange
 70
    16
177
     2
291
     1
 71
     2
176
     1
 72
     2
176
     1
 73
     3
176
     1
 90
        0
176
     1
 40
-0.6
176
     1
 41
-30.0
176
     1
 62
     5
 63
     8
421
  8421504
176
     1
 74
     1
176
     1
 91
        4
176
     1
 64
     7
176
     1
 65
   257
176
     1
 75
     1
176
     1
175
     1
176
     1
 42
1.0
176
     1
 92
        8
176
     1
 66
     8
424
  8421504
176
     1
 43
1.0
176
     1
 76
     1
176
     1
 77
     6
176
     1
 78
     2
176
     1
 67
     7
176
     1
 79
     5
176
     1
170
     0
176
     1
171
     0
176
     1
290
     0
176
     1
 93
        1
176
     1
 44
0.0
176
     1
173
     0
176
     1
  0
VISUALSTYLE
  5
34
102
{ACAD_REACTORS
330
2A
102
}
330
2A
100
AcDbVisualStyle
  2
Conceptual
 70
     9
177
     2
291
     0
 71
     3
176
     1
 72
     2
176
     1
 73
     0
176
     1
 90
        0
176
     1
 40
-0.6
176
     1
 41
-30.0
176
     1
 62
     5
 63
     7
421
 16777215
176
     1
 74
     2
176
     1
 91
        2
176
     1
 64
     7
176
     1
 65
   257
176
     1
 75
     1
176
     1
175
     1
176
     1
 42
40.0
176
     1
 92
        8
176
     1
 66
     7
176
     1
 43
1.0
176
     1
 76
     1
176
     1
 77
     6
176
     1
 78
     2
176
     1
 67
     7
176
     1
 79
     3
176
     1
170
     0
176
     1
171
     0
176
     1
290
     0
176
     1
 93
        1
176
     1
 44
0.0
176
     1
173
     0
176
     1
  0
VISUALSTYLE
  5
35
102
{ACAD_REACTORS
330
2A
102
}
330
2A
100
AcDbVisualStyle
  2
Dim
 70
    11
177
     2
291
     1
 71
     2
176
     1
 72
     2
176
     1
 73
     0
176
     1
 90
        0
176
     1
 40
-0.6
176
     1
 41
-30.0
176
     1
 62
     5
 63
     7
421
 16777215
176
     1
 74
     1
176
     1
 91
        4
176
     1
 64
     7
176
     1
 65
   257
176
     1
 75
     1
176
     1
175
     1
176
     1
 42
1.0
176
     1
 92
        8
176
     1
 66
     7
176
     1
 43
1.0
176
     1
 76
     1
176
     1
 77
     6
176
     1
 78
     2
176
     1
 67
     7
176
     1
 79
     5
176
     1
170
     0
176
     1
171
     0
176
     1
290
     0
176
     1
 93
        1
176
     1
 44
-50.0
176
     1
173
     0
176
     1
  0
VISUALSTYLE
  5
39
102
{ACAD_REACTORS
330
2A
102
}
330
2A
100
AcDbVisualStyle
  2
Facepattern
 70
    15
177
     2
291
     1
 71
     2
176
     1
 72
     2
176
     1
 73
     0
176
     1
 90
        0
176
     1
 40
-0.6
176
     1
 41
-30.0
176
     1
 62
     5
 63
     7
421
 16777215
176
     1
 74
     1
176
     1
 91
        4
176
     1
 64
     7
176
     1
 65
   257
176
     1
 75
     1
176
     1
175
     1
176
     1
 42
1.0
176
     1
 92
        8
176
     1
 66
     7
176
     1
 43
1.0
176
     1
 76
     1
176
     1
 77
     6
176
     1
 78
     2
176
     1
 67
     7
176
     1
 79
     5
176
     1
170
     0
176
     1
171
     0
176
     1
290
     0
176
     1
 93
        1
176
     1
 44
0.0
176
     1
173
     0
176
     1
  0
VISUALSTYLE
  5
2B
102
{ACAD_REACTORS
330
2A
102
}
330
2A
100
AcDbVisualStyle
  2
Flat
 70
     0
177
     2
291
     1
 71
     2
176
     1
 72
     1
176
     1
 73
     1
176
     1
 90
        2
176
     1
 40
-0.6
176
     1
 41
30.0
176
     1
 62
     5
 63
     7
421
 16777215
176
     1
 74
     0
176
     1
 91
        4
176
     1
 64
     7
176
     1
 65
   257
176
     1
 75
     1
176
     1
175
     1
176
     1
 42
1.0
176
     1
 92
        8
176
     1
 66
     7
176
     1
 43
1.0
176
     1
 76
     1
176
     1
 77
     6
176
     1
 78
     2
176
     1
 67
     7
176
     1
 79
     5
176
     1
170
     0
176
     1
171
     0
176
     1
290
     0
176
     1
 93
       13
176
     1
 44
0.0
176
     1
173
     0
176
     1
  0
VISUALSTYLE
  5
2C
102
{ACAD_REACTORS
330
2A
102
}
330
2A
100
AcDbVisualStyle
  2
FlatWithEdges
 70
     1
177
     2
291
     1
 71
     2
176
     1
 72
     1
176
     1
 73
     1
176
     1
 90
        2
176
     1
 40
-0.6
176
     1
 41
30.0
176
     1
 62
     5
 63
     7
421
 16777215
176
     1
 74
     1
176
     1
 91
        4
176
     1
 64
     7
176
     1
 65
   257
176
     1
 75
     1
176
     1
175
     1
176
     1
 42
1.0
176
     1
 92
        0
176
     1
 66
   257
176
     1
 43
1.0
176
     1
 76
     1
176
     1
 77
     6
176
     1
 78
     2
176
     1
 67
     7
176
     1
 79
     5
176
     1
170
     0
176
     1
171
     0
176
     1
290
     0
176
     1
 93
       13
176
     1
 44
0.0
176
     1
173
     0
176
     1
  0
VISUALSTYLE
  5
2D
102
{ACAD_REACTORS
330
2A
102
}
330
2A
100
AcDbVisualStyle
  2
Gouraud
 70
     2
177
     2
291
     1
 71
     2
176
     1
 72
     2
176
     1
 73
     1
176
     1
 90
        2
176
     1
 40
-0.6
176
     1
 41
30.0
176
     1
 62
     5
 63
     7
421
 16777215
176
     1
 74
     0
176
     1
 91
        4
176
     1
 64
     7
176
     1
 65
   257
176
     1
 75
     1
176
     1
175
     1
176
     1
 42
1.0
176
     1
 92
        0
176
     1
 66
     7
176
     1
 43
1.0
176
     1
 76
     1
176
     1
 77
     6
176
     1
 78
     2
176
     1
 67
     7
176
     1
 79
     5
176
     1
170
     0
176
     1
171
     0
176
     1
290
     0
176
     1
 93
       13
176
     1
 44
0.0
176
     1
173
     0
176
     1
  0
VISUALSTYLE
  5
2E
102
{ACAD_REACTORS
330
2A
102
}
330
2A
100
AcDbVisualStyle
  2
GouraudWithEdges
 70
     3
177
     2
291
     1
 71
     2
176
     1
 72
     2
176
     1
 73
     1
176
     1
 90
        2
176
     1
 40
-0.6
176
     1
 41
30.0
176
     1
 62
     5
 63
     7
421
 16777215
176
     1
 74
     1
176
     1
 91
        4
176
     1
 64
     7
176
     1
 65
   257
176
     1
 75
     1
176
     1
175
     1
176
     1
 42
1.0
176
     1
 92
        0
176
     1
 66
   257
176
     1
 43
1.0
176
     1
 76
     1
176
     1
 77
     6
176
     1
 78
     2
176
     1
 67
     7
176
     1
 79
     5
176
     1
170
     0
176
     1
171
     0
176
     1
290
     0
176
     1
 93
       13
176
     1
 44
0.0
176
     1
173
     0
176
     1
  0
VISUALSTYLE
  5
38
102
{ACAD_REACTORS
330
2A
102
}
330
2A
100
AcDbVisualStyle
  2
Linepattern
 70
    14
177
     2
291
     1
 71
     2
176
     1
 72
     2
176
     1
 73
     0
176
     1
 90
        0
176
     1
 40
-0.6
176
     1
 41
-30.0
176
     1
 62
     5
 63
     7
421
 16777215
176
     1
 74
     1
176
     1
 91
        4
176
     1
 64
     7
176
     1
 65
   257
176
     1
 75
     7
176
     1
175
     7
176
     1
 42
1.0
176
     1
 92
        8
176
     1
 66
     7
176
     1
 43
1.0
176
     1
 76
     1
176
     1
 77
     6
176
     1
 78
     2
176
     1
 67
     7
176
     1
 79
     5
176
     1
170
     0
176
     1
171
     0
176
     1
290
     0
176
     1
 93
        1
176
     1
 44
0.0
176
     1
173
     0
176
     1
  0
VISUALSTYLE
  5
33
102
{ACAD_REACTORS
330
2A
102
}
330
2A
100
AcDbVisualStyle
  2
Realistic
 70
     8
177
     2
291
     0
 71
     2
176
     1
 72
     2
176
     1
 73
     0
176
     1
 90
        0
176
     1
 40
-0.6
176
     1
 41
-30.0
176
     1
 62
     5
 63
     7
421
 16777215
176
     1
 74
     1
176
     1
 91
        0
176
     1
 64
     7
176
     1
 65
   257
176
     1
 75
     1
176
     1
175
     1
176
     1
 42
1.0
176
     1
 92
        8
176
     1
 66
     8
424
  7895160
176
     1
 43
1.0
176
     1
 76
     1
176
     1
 77
     6
176
     1
 78
     2
176
     1
 67
     7
176
     1
 79
     5
176
     1
170
     0
176
     1
171
     0
176
     1
290
     0
176
     1
 93
       13
176
     1
 44
0.0
176
     1
173
     0
176
     1
  0
VISUALSTYLE
  5
37
102
{ACAD_REACTORS
330
2A
102
}
330
2A
100
AcDbVisualStyle
  2
Thicken
 70
    13
177
     2
291
     1
 71
     2
176
     1
 72
     2
176
     1
 73
     0
176
     1
 90
        0
176
     1
 40
-0.6
176
     1
 41
-30.0
176
     1
 62
     5
 63
     7
421
 16777215
176
     1
 74
     1
176
     1
 91
        4
176
     1
 64
     7
176
     1
 65
   257
176
     1
 75
     1
176
     1
175
     1
176
     1
 42
1.0
176
     1
 92
       12
176
     1
 66
     7
176
     1
 43
1.0
176
     1
 76
     1
176
     1
 77
     6
176
     1
 78
     2
176
     1
 67
     7
176
     1
 79
     5
176
     1
170
     0
176
     1
171
     0
176
     1
290
     0
176
     1
 93
        1
176
     1
 44
0.0
176
     1
173
     0
176
     1
  0
ENDSEC
  0
EOF
