  0
SECTION
  2
HEADER
  9
$ACADVER
  1
AC1024
  9
$ACADMAINTVER
 70
     6
  9
$DWGCODEPAGE
  3
UNDEFINED
  9
$INSBASE
 10
0.0
 20
0.0
 30
0.0
  9
$EXTMIN
 10
1.000000000000000E+20
 20
1.000000000000000E+20
 30
1.000000000000000E+20
  9
$EXTMAX
 10
-1.000000000000000E+20
 20
-1.000000000000000E+20
 30
-1.000000000000000E+20
  9
$LIMMIN
 10
0.0
 20
0.0
  9
$LIMMAX
 10
12.0
 20
9.0
  9
$ORTHOMODE
 70
     0
  9
$REGENMODE
 70
     1
  9
$FILLMODE
 70
     1
  9
$QTEXTMODE
 70
     0
  9
$MIRRTEXT
 70
     1
  9
$LTSCALE
 40
1.0
  9
$ATTMODE
 70
     1
  9
$TEXTSIZE
 40
0.2
  9
$TRACEWID
 40
0.05
  9
$TEXTSTYLE
  7
Standard
  9
$CLAYER
  8
0
  9
$CELTYPE
  6
ByLayer
  9
$CECOLOR
 62
   256
  9
$CELTSCALE
 40
1.0
  9
$DISPSILH
 70
     0
  9
$DIMSCALE
 40
1.0
  9
$DIMASZ
 40
0.18
  9
$DIMEXO
 40
0.0625
  9
$DIMDLI
 40
0.38
  9
$DIMRND
 40
0.0
  9
$DIMDLE
 40
0.0
  9
$DIMEXE
 40
0.18
  9
$DIMTP
 40
0.0
  9
$DIMTM
 40
0.0
  9
$DIMTXT
 40
0.18
  9
$DIMCEN
 40
0.09
  9
$DIMTSZ
 40
0.0
  9
$DIMTOL
 70
     0
  9
$DIMLIM
 70
     0
  9
$DIMTIH
 70
     1
  9
$DIMTOH
 70
     1
  9
$DIMSE1
 70
     0
  9
$DIMSE2
 70
     0
  9
$DIMTAD
 70
     0
  9
$DIMZIN
 70
     0
  9
$DIMBLK
  1

  9
$DIMASO
 70
     1
  9
$DIMSHO
 70
     1
  9
$DIMPOST
  1

  9
$DIMAPOST
  1

  9
$DIMALT
 70
     0
  9
$DIMALTD
 70
     2
  9
$DIMALTF
 40
25.4
  9
$DIMLFAC
 40
1.0
  9
$DIMTOFL
 70
     0
  9
$DIMTVP
 40
0.0
  9
$DIMTIX
 70
     0
  9
$DIMSOXD
 70
     0
  9
$DIMSAH
 70
     0
  9
$DIMBLK1
  1

  9
$DIMBLK2
  1

  9
$DIMSTYLE
  2
Standard
  9
$DIMCLRD
 70
     0
  9
$DIMCLRE
 70
     0
  9
$DIMCLRT
 70
     0
  9
$DIMTFAC
 40
1.0
  9
$DIMGAP
 40
0.09
  9
$DIMJUST
 70
     0
  9
$DIMSD1
 70
     0
  9
$DIMSD2
 70
     0
  9
$DIMTOLJ
 70
     1
  9
$DIMTZIN
 70
     0
  9
$DIMALTZ
 70
     0
  9
$DIMALTTZ
 70
     0
  9
$DIMUPT
 70
     0
  9
$DIMDEC
 70
     4
  9
$DIMTDEC
 70
     4
  9
$DIMALTU
 70
     2
  9
$DIMALTTD
 70
     2
  9
$DIMTXSTY
  7
Standard
  9
$DIMAUNIT
 70
     0
  9
$DIMADEC
 70
     0
  9
$DIMALTRND
 40
0.0
  9
$DIMAZIN
 70
     0
  9
$DIMDSEP
 70
    46
  9
$DIMATFIT
 70
     3
  9
$DIMFRAC
 70
     0
  9
$DIMLDRBLK
  1

  9
$DIMLUNIT
 70
     2
  9
$DIMLWD
 70
    -2
  9
$DIMLWE
 70
    -2
  9
$DIMTMOVE
 70
     0
  9
$DIMFXL
 40
1.0
  9
$DIMFXLON
 70
     0
  9
$DIMJOGANG
 40
0.7853981633974483
  9
$DIMTFILL
 70
     0
  9
$DIMTFILLCLR
 70
     0
  9
$DIMARCSYM
 70
     0
  9
$DIMLTYPE
  6

  9
$DIMLTEX1
  6

  9
$DIMLTEX2
  6

  9
$DIMTXTDIRECTION
 70
     0
  9
$LUNITS
 70
     2
  9
$LUPREC
 70
     4
  9
$SKETCHINC
 40
0.1
  9
$FILLETRAD
 40
0.5
  9
$AUNITS
 70
     0
  9
$AUPREC
 70
     0
  9
$MENU
  1
.
  9
$ELEVATION
 40
0.0
  9
$PELEVATION
 40
0.0
  9
$THICKNESS
 40
0.0
  9
$LIMCHECK
 70
     0
  9
$CHAMFERA
 40
0.5
  9
$CHAMFERB
 40
0.5
  9
$CHAMFERC
 40
1.0
  9
$CHAMFERD
 40
0.0
  9
$SKPOLY
 70
     0
  9
$TDCREATE
 40
2457917.6126736
  9
$TDUCREATE
 40
2457917.237673611
  9
$TDUPDATE
 40
2457917.6126736
  9
$TDUUPDATE
 40
2457917.237673611
  9
$TDINDWG
 40
0.0000000116
  9
$TDUSRTIMER
 40
0.0000000116
  9
$USRTIMER
 70
     1
  9
$ANGBASE
 50
0.0
  9
$ANGDIR
 70
     0
  9
$PDMODE
 70
     0
  9
$PDSIZE
 40
0.0
  9
$PLINEWID
 40
0.0
  9
$SPLFRAME
 70
     0
  9
$SPLINETYPE
 70
     6
  9
$SPLINESEGS
 70
     8
  9
$HANDSEED
  5
104
  9
$SURFTAB1
 70
     6
  9
$SURFTAB2
 70
     6
  9
$SURFTYPE
 70
     6
  9
$SURFU
 70
     6
  9
$SURFV
 70
     6
  9
$UCSBASE
  2

  9
$UCSNAME
  2

  9
$UCSORG
 10
0.0
 20
0.0
 30
0.0
  9
$UCSXDIR
 10
1.0
 20
0.0
 30
0.0
  9
$UCSYDIR
 10
0.0
 20
1.0
 30
0.0
  9
$UCSORTHOREF
  2

  9
$UCSORTHOVIEW
 70
     0
  9
$UCSORGTOP
 10
0.0
 20
0.0
 30
0.0
  9
$UCSORGBOTTOM
 10
0.0
 20
0.0
 30
0.0
  9
$UCSORGLEFT
 10
0.0
 20
0.0
 30
0.0
  9
$UCSORGRIGHT
 10
0.0
 20
0.0
 30
0.0
  9
$UCSORGFRONT
 10
0.0
 20
0.0
 30
0.0
  9
$UCSORGBACK
 10
0.0
 20
0.0
 30
0.0
  9
$PUCSBASE
  2

  9
$PUCSNAME
  2

  9
$PUCSORG
 10
0.0
 20
0.0
 30
0.0
  9
$PUCSXDIR
 10
1.0
 20
0.0
 30
0.0
  9
$PUCSYDIR
 10
0.0
 20
1.0
 30
0.0
  9
$PUCSORTHOREF
  2

  9
$PUCSORTHOVIEW
 70
     0
  9
$PUCSORGTOP
 10
0.0
 20
0.0
 30
0.0
  9
$PUCSORGBOTTOM
 10
0.0
 20
0.0
 30
0.0
  9
$PUCSORGLEFT
 10
0.0
 20
0.0
 30
0.0
  9
$PUCSORGRIGHT
 10
0.0
 20
0.0
 30
0.0
  9
$PUCSORGFRONT
 10
0.0
 20
0.0
 30
0.0
  9
$PUCSORGBACK
 10
0.0
 20
0.0
 30
0.0
  9
$USERI1
 70
     0
  9
$USERI2
 70
     0
  9
$USERI3
 70
     0
  9
$USERI4
 70
     0
  9
$USERI5
 70
     0
  9
$USERR1
 40
0.0
  9
$USERR2
 40
0.0
  9
$USERR3
 40
0.0
  9
$USERR4
 40
0.0
  9
$USERR5
 40
0.0
  9
$WORLDVIEW
 70
     1
  9
$SHADEDGE
 70
     3
  9
$SHADEDIF
 70
    70
  9
$TILEMODE
 70
     1
  9
$MAXACTVP
 70
    64
  9
$PINSBASE
 10
0.0
 20
0.0
 30
0.0
  9
$PLIMCHECK
 70
     0
  9
$PEXTMIN
 10
1.000000000000000E+20
 20
1.000000000000000E+20
 30
1.000000000000000E+20
  9
$PEXTMAX
 10
-1.000000000000000E+20
 20
-1.000000000000000E+20
 30
-1.000000000000000E+20
  9
$PLIMMIN
 10
0.0
 20
0.0
  9
$PLIMMAX
 10
12.0
 20
9.0
  9
$UNITMODE
 70
     0
  9
$VISRETAIN
 70
     1
  9
$PLINEGEN
 70
     0
  9
$PSLTSCALE
 70
     1
  9
$TREEDEPTH
 70
  3020
  9
$CMLSTYLE
  2
Standard
  9
$CMLJUST
 70
     0
  9
$CMLSCALE
 40
1.0
  9
$PROXYGRAPHICS
 70
     1
  9
$MEASUREMENT
 70
     0
  9
$CELWEIGHT
370
    -1
  9
$ENDCAPS
280
     0
  9
$JOINSTYLE
280
     0
  9
$LWDISPLAY
290
     1
  9
$INSUNITS
 70
     1
  9
$HYPERLINKBASE
  1

  9
$STYLESHEET
  1

  9
$XEDIT
290
     1
  9
$CEPSNTYPE
380
     0
  9
$PSTYLEMODE
290
     1
  9
$FINGERPRINTGUID
  2
{33ACF8D7-17E1-4C11-0ECF-BBDD2FBF3EF8}
  9
$VERSIONGUID
  2
{FAEB1C32-E019-11D5-929B-00C0DF256EC4}
  9
$EXTNAMES
290
     1
  9
$PSVPSCALE
 40
0.0
  9
$OLESTARTUP
290
     0
  9
$SORTENTS
280
   127
  9
$INDEXCTL
280
     0
  9
$HIDETEXT
280
     1
  9
$XCLIPFRAME
280
     2
  9
$HALOGAP
280
     0
  9
$OBSCOLOR
 70
   257
  9
$OBSLTYPE
280
     0
  9
$INTERSECTIONDISPLAY
280
     0
  9
$INTERSECTIONCOLOR
 70
   257
  9
$DIMASSOC
280
     2
  9
$PROJECTNAME
  1

  9
$CAMERADISPLAY
290
     0
  9
$LENSLENGTH
 40
50.0
  9
$CAMERAHEIGHT
 40
0.0
  9
$STEPSPERSEC
 40
2.0
  9
$STEPSIZE
 40
6.0
  9
$3DDWFPREC
 40
2.0
  9
$PSOLWIDTH
 40
0.25
  9
$PSOLHEIGHT
 40
4.0
  9
$LOFTANG1
 40
1.570796326794897
  9
$LOFTANG2
 40
1.570796326794897
  9
$LOFTMAG1
 40
0.0
  9
$LOFTMAG2
 40
0.0
  9
$LOFTPARAM
 70
     7
  9
$LOFTNORMALS
280
     1
  9
$LATITUDE
 40
37.795
  9
$LONGITUDE
 40
-122.394
  9
$NORTHDIRECTION
 40
0.0
  9
$TIMEZONE
 70
 -8000
  9
$LIGHTGLYPHDISPLAY
280
     1
  9
$TILEMODELIGHTSYNCH
280
     1
  9
$CMATERIAL
347
3C
  9
$SOLIDHIST
280
     1
  9
$SHOWHIST
280
     1
  9
$DWFFRAME
280
     2
  9
$DGNFRAME
280
     2
  9
$REALWORLDSCALE
290
     1
  9
$INTERFERECOLOR
 62
   256
  9
$CSHADOW
280
     0
  9
$SHADOWPLANELOCATION
 40
0.0
  0
ENDSEC
  0
SECTION
  2
CLASSES
  0
CLASS
  1
ACDBDICTIONARYWDFLT
  2
AcDbDictionaryWithDefault
  3
ObjectDBX Classes
 90
        0
 91
        4
280
     0
281
     0
  0
CLASS
  1
VISUALSTYLE
  2
AcDbVisualStyle
  3
ObjectDBX Classes
 90
     4095
 91
        4
280
     0
281
     0
  0
CLASS
  1
MATERIAL
  2
AcDbMaterial
  3
ObjectDBX Classes
 90
     1153
 91
        4
280
     0
281
     0
  0
CLASS
  1
SUN
  2
AcDbSun
  3
SCENEOE
 90
     1024
 91
        4
280
     0
281
     0
  0
ENDSEC
  0
SECTION
  2
TABLES
  0
TABLE
  2
VPORT
  5
8
330
0
100
AcDbSymbolTable
 70
     1
  0
VPORT
  5
29
330
8
100
AcDbSymbolTableRecord
100
AcDbViewportTableRecord
  2
*Active
 70
     0
 10
0.0
 20
0.0
 11
1.0
 21
1.0
 12
0.0
 22
0.0
 13
0.0
 23
0.0
 14
0.5
 24
0.5
 15
0.5
 25
0.5
 16
0.0
 26
0.0
 36
1.0
 17
91.00082462281999
 27
-128.4993055234307
 37
0.0
 40
256.9986110468615
 41
0.7081814508812795
 42
50.0
 43
0.0
 44
0.0
 50
0.0
 51
0.0
 71
     0
 72
   100
 73
     1
 74
     3
 75
     0
 76
     0
 77
     0
 78
     0
281
     0
 65
     1
110
0.0
120
0.0
130
0.0
111
1.0
121
0.0
131
0.0
112
0.0
122
1.0
132
0.0
 79
     0
146
0.0
 60
     3
 61
     5
292
     1
282
     1
141
0.0
142
0.0
 63
   250
361
3F
  0
ENDTAB
  0
TABLE
  2
LTYPE
  5
5
330
0
100
AcDbSymbolTable
 70
     1
  0
LTYPE
  5
14
330
5
100
AcDbSymbolTableRecord
100
AcDbLinetypeTableRecord
  2
ByBlock
 70
     0
  3

 72
    65
 73
     0
 40
0.0
  0
LTYPE
  5
15
330
5
100
AcDbSymbolTableRecord
100
AcDbLinetypeTableRecord
  2
ByLayer
 70
     0
  3

 72
    65
 73
     0
 40
0.0
  0
LTYPE
  5
16
330
5
100
AcDbSymbolTableRecord
100
AcDbLinetypeTableRecord
  2
Continuous
 70
     0
  3
Solid line
 72
    65
 73
     0
 40
0.0
  0
ENDTAB
  0
TABLE
  2
LAYER
  5
2
330
0
100
AcDbSymbolTable
 70
     2
  0
LAYER
  5
10
330
2
100
AcDbSymbolTableRecord
100
AcDbLayerTableRecord
  2
0
 70
     0
 62
     7
  6
Continuous
370
    -3
390
F
347
3E
  0
LAYER
  5
40
330
2
100
AcDbSymbolTableRecord
100
AcDbLayerTableRecord
  2
_U+30EC_U+30A4_U+30E4_U+30FC 1
 70
     0
 62
     7
  6
Continuous
370
    -3
390
F
347
3E
  0
ENDTAB
  0
TABLE
  2
STYLE
  5
3
330
0
100
AcDbSymbolTable
 70
     1
  0
STYLE
  5
11
330
3
100
AcDbSymbolTableRecord
100
AcDbTextStyleTableRecord
  2
Standard
 70
     0
 40
0.0
 41
1.0
 50
0.0
 71
     0
 42
0.2
  3
txt
  4

  0
ENDTAB
  0
TABLE
  2
VIEW
  5
6
330
0
100
AcDbSymbolTable
 70
     0
  0
ENDTAB
  0
TABLE
  2
UCS
  5
7
330
0
100
AcDbSymbolTable
 70
     0
  0
ENDTAB
  0
TABLE
  2
APPID
  5
9
330
0
100
AcDbSymbolTable
 70
     1
  0
APPID
  5
12
330
9
100
AcDbSymbolTableRecord
100
AcDbRegAppTableRecord
  2
ACAD
 70
     0
  0
ENDTAB
  0
TABLE
  2
DIMSTYLE
  5
A
330
0
100
AcDbSymbolTable
 70
     1
100
AcDbDimStyleTable
  0
DIMSTYLE
105
27
330
A
100
AcDbSymbolTableRecord
100
AcDbDimStyleTableRecord
  2
Standard
 70
     0
178
     0
340
11
  0
ENDTAB
  0
TABLE
  2
BLOCK_RECORD
  5
1
330
0
100
AcDbSymbolTable
 70
     7
  0
BLOCK_RECORD
  5
1F
330
1
100
AcDbSymbolTableRecord
100
AcDbBlockTableRecord
  2
*Model_Space
340
22
 70
     0
280
     1
281
     0
  0
BLOCK_RECORD
  5
1B
330
1
100
AcDbSymbolTableRecord
100
AcDbBlockTableRecord
  2
*Paper_Space
340
1E
 70
     0
280
     1
281
     0
  0
BLOCK_RECORD
  5
23
330
1
100
AcDbSymbolTableRecord
100
AcDbBlockTableRecord
  2
*Paper_Space0
340
26
 70
     0
280
     1
281
     0
  0
BLOCK_RECORD
  5
9A
330
1
100
AcDbSymbolTableRecord
100
AcDbBlockTableRecord
  2
block 2
340
0
102
{BLKREFS
331
9B
102
}
 70
     0
280
     1
281
     0
  0
BLOCK_RECORD
  5
A8
330
1
100
AcDbSymbolTableRecord
100
AcDbBlockTableRecord
  2
block 3
340
0
102
{BLKREFS
331
A9
102
}
 70
     0
280
     1
281
     0
  0
BLOCK_RECORD
  5
B9
330
1
100
AcDbSymbolTableRecord
100
AcDbBlockTableRecord
  2
block 4
340
0
102
{BLKREFS
331
BA
102
}
 70
     0
280
     1
281
     0
  0
BLOCK_RECORD
  5
CB
330
1
100
AcDbSymbolTableRecord
100
AcDbBlockTableRecord
  2
block 5
340
0
102
{BLKREFS
331
CC
102
}
 70
     0
280
     1
281
     0
  0
BLOCK_RECORD
  5
DF
330
1
100
AcDbSymbolTableRecord
100
AcDbBlockTableRecord
  2
block 6
340
0
102
{BLKREFS
331
E0
102
}
 70
     0
280
     1
281
     0
  0
BLOCK_RECORD
  5
EF
330
1
100
AcDbSymbolTableRecord
100
AcDbBlockTableRecord
  2
block 7
340
0
102
{BLKREFS
331
F0
102
}
 70
     0
280
     1
281
     0
  0
ENDTAB
  0
ENDSEC
  0
SECTION
  2
BLOCKS
  0
BLOCK
  5
20
330
1F
100
AcDbEntity
  8
0
100
AcDbBlockBegin
  2
*Model_Space
 70
     0
 10
0.0
 20
0.0
 30
0.0
  3
*Model_Space
  1

  0
ENDBLK
  5
21
330
1F
100
AcDbEntity
  8
0
100
AcDbBlockEnd
  0
BLOCK
  5
1C
330
1B
100
AcDbEntity
 67
     1
  8
0
100
AcDbBlockBegin
  2
*Paper_Space
 70
     0
 10
0.0
 20
0.0
 30
0.0
  3
*Paper_Space
  1

  0
ENDBLK
  5
1D
330
1B
100
AcDbEntity
 67
     1
  8
0
100
AcDbBlockEnd
  0
BLOCK
  5
24
330
23
100
AcDbEntity
  8
0
100
AcDbBlockBegin
  2
*Paper_Space0
 70
     0
 10
0.0
 20
0.0
 30
0.0
  3
*Paper_Space0
  1

  0
ENDBLK
  5
25
330
23
100
AcDbEntity
  8
0
100
AcDbBlockEnd
  0
BLOCK
  5
9C
330
9A
100
AcDbEntity
  8
0
100
AcDbBlockBegin
  2
block 2
 70
     0
 10
0.0
 20
0.0
 30
0.0
  3
block 2
  1

  0
SPLINE
  5
9E
330
9A
100
AcDbEntity
  8
_U+30EC_U+30A4_U+30E4_U+30FC 1
370
     0
100
AcDbSpline
210
0.0
220
0.0
230
1.0
 70
    11
 71
     3
 72
    26
 73
    22
 74
     0
 42
0.0000000001
 43
0.0000000001
 12
1.0
 22
0.0
 32
0.0
 13
1.0
 23
0.0
 33
0.0
 40
0.0
 40
0.0
 40
0.0
 40
0.0
 40
1.0
 40
1.0
 40
1.0
 40
2.0
 40
2.0
 40
2.0
 40
3.0
 40
3.0
 40
3.0
 40
4.0
 40
4.0
 40
4.0
 40
5.0
 40
5.0
 40
5.0
 40
6.0
 40
6.0
 40
6.0
 40
7.0
 40
7.0
 40
7.0
 40
7.0
 10
109.308056613298
 20
-123.2544921566864
 30
0.0
 10
109.308056613298
 20
-123.2544921566864
 30
0.0
 10
108.2039035102754
 20
-123.2544921566864
 30
0.0
 10
108.2039035102754
 20
-123.2544921566864
 30
0.0
 10
108.2039035102754
 20
-123.2544921566864
 30
0.0
 10
108.2039035102754
 20
-123.5845323041733
 30
0.0
 10
108.2039035102754
 20
-123.5845323041733
 30
0.0
 10
108.2039035102754
 20
-123.5845323041733
 30
0.0
 10
108.0557644044097
 20
-123.5845323041733
 30
0.0
 10
108.0557644044097
 20
-123.5845323041733
 30
0.0
 10
108.0409504938231
 20
-123.2524250993952
 30
0.0
 10
107.8779974773708
 20
-123.2059163103444
 30
0.0
 10
107.7636203072605
 20
-123.1762884891712
 30
0.0
 10
107.7636203072605
 20
-123.1762884891712
 30
0.0
 10
107.7636203072605
 20
-123.0302164405966
 30
0.0
 10
107.7636203072605
 20
-123.0302164405966
 30
0.0
 10
107.7636203072605
 20
-123.0302164405966
 30
0.0
 10
109.308056613298
 20
-123.0302164405966
 30
0.0
 10
109.308056613298
 20
-123.0302164405966
 30
0.0
 10
109.308056613298
 20
-123.0302164405966
 30
0.0
 10
109.308056613298
 20
-123.2544921566864
 30
0.0
 10
109.308056613298
 20
-123.2544921566864
 30
0.0
  0
HATCH
  5
9F
330
9A
100
AcDbEntity
  8
_U+30EC_U+30A4_U+30E4_U+30FC 1
 62
     7
420
 16777215
100
AcDbHatch
 10
0.0
 20
0.0
 30
0.0
210
0.0
220
0.0
230
1.0
  2
SOLID
 70
     1
 71
     0
 91
        1
 92
        1
 93
        1
 72
     4
 94
        3
 73
     0
 74
     1
 95
       26
 96
       22
 40
0.0
 40
0.0
 40
0.0
 40
0.0
 40
1.0
 40
1.0
 40
1.0
 40
2.0
 40
2.0
 40
2.0
 40
3.0
 40
3.0
 40
3.0
 40
4.0
 40
4.0
 40
4.0
 40
5.0
 40
5.0
 40
5.0
 40
6.0
 40
6.0
 40
6.0
 40
7.0
 40
7.0
 40
7.0
 40
7.0
 10
109.308056613298
 20
-123.2544921566864
 10
109.308056613298
 20
-123.2544921566864
 10
108.2039035102754
 20
-123.2544921566864
 10
108.2039035102754
 20
-123.2544921566864
 10
108.2039035102754
 20
-123.2544921566864
 10
108.2039035102754
 20
-123.5845323041733
 10
108.2039035102754
 20
-123.5845323041733
 10
108.2039035102754
 20
-123.5845323041733
 10
108.0557644044097
 20
-123.5845323041733
 10
108.0557644044097
 20
-123.5845323041733
 10
108.0409504938231
 20
-123.2524250993952
 10
107.8779974773708
 20
-123.2059163103444
 10
107.7636203072605
 20
-123.1762884891712
 10
107.7636203072605
 20
-123.1762884891712
 10
107.7636203072605
 20
-123.0302164405966
 10
107.7636203072605
 20
-123.0302164405966
 10
107.7636203072605
 20
-123.0302164405966
 10
109.308056613298
 20
-123.0302164405966
 10
109.308056613298
 20
-123.0302164405966
 10
109.308056613298
 20
-123.0302164405966
 10
109.308056613298
 20
-123.2544921566864
 10
109.308056613298
 20
-123.2544921566864
 97
        0
 97
        0
 75
     2
 76
     1
 98
        0
  0
ENDBLK
  5
9D
330
9A
100
AcDbEntity
  8
0
100
AcDbBlockEnd
  0
BLOCK
  5
AA
330
A8
100
AcDbEntity
  8
0
100
AcDbBlockBegin
  2
block 3
 70
     0
 10
0.0
 20
0.0
 30
0.0
  3
block 3
  1

  0
SPLINE
  5
AC
330
A8
100
AcDbEntity
  8
_U+30EC_U+30A4_U+30E4_U+30FC 1
370
     0
100
AcDbSpline
210
0.0
220
0.0
230
1.0
 70
    11
 71
     3
 72
    26
 73
    22
 74
     0
 42
0.0000000001
 43
0.0000000001
 12
1.0
 22
0.0
 32
0.0
 13
1.0
 23
0.0
 33
0.0
 40
0.0
 40
0.0
 40
0.0
 40
0.0
 40
1.0
 40
1.0
 40
1.0
 40
2.0
 40
2.0
 40
2.0
 40
3.0
 40
3.0
 40
3.0
 40
4.0
 40
4.0
 40
4.0
 40
5.0
 40
5.0
 40
5.0
 40
6.0
 40
6.0
 40
6.0
 40
7.0
 40
7.0
 40
7.0
 40
7.0
 10
86.3759507705067
 20
-140.548526983092
 30
0.0
 10
86.3759507705067
 20
-140.548526983092
 30
0.0
 10
86.3759507705067
 20
-139.4443738800695
 30
0.0
 10
86.3759507705067
 20
-139.4443738800695
 30
0.0
 10
86.3759507705067
 20
-139.4443738800695
 30
0.0
 10
86.04591062301978
 20
-139.4443738800695
 30
0.0
 10
86.04591062301978
 20
-139.4443738800695
 30
0.0
 10
86.04591062301978
 20
-139.4443738800695
 30
0.0
 10
86.04591062301978
 20
-139.2962347742037
 30
0.0
 10
86.04591062301978
 20
-139.2962347742037
 30
0.0
 10
86.37801782779786
 20
-139.2814208636171
 30
0.0
 10
86.42452661684874
 20
-139.1184678471648
 30
0.0
 10
86.45415443802189
 20
-139.0044351866031
 30
0.0
 10
86.45415443802189
 20
-139.0044351866031
 30
0.0
 10
86.60022648659647
 20
-139.0044351866031
 30
0.0
 10
86.60022648659647
 20
-139.0044351866031
 30
0.0
 10
86.60022648659647
 20
-139.0044351866031
 30
0.0
 10
86.60022648659647
 20
-140.548526983092
 30
0.0
 10
86.60022648659647
 20
-140.548526983092
 30
0.0
 10
86.60022648659647
 20
-140.548526983092
 30
0.0
 10
86.3759507705067
 20
-140.548526983092
 30
0.0
 10
86.3759507705067
 20
-140.548526983092
 30
0.0
  0
HATCH
  5
AD
330
A8
100
AcDbEntity
  8
_U+30EC_U+30A4_U+30E4_U+30FC 1
 62
     7
420
 16777215
100
AcDbHatch
 10
0.0
 20
0.0
 30
0.0
210
0.0
220
0.0
230
1.0
  2
SOLID
 70
     1
 71
     0
 91
        1
 92
        1
 93
        1
 72
     4
 94
        3
 73
     0
 74
     1
 95
       26
 96
       22
 40
0.0
 40
0.0
 40
0.0
 40
0.0
 40
1.0
 40
1.0
 40
1.0
 40
2.0
 40
2.0
 40
2.0
 40
3.0
 40
3.0
 40
3.0
 40
4.0
 40
4.0
 40
4.0
 40
5.0
 40
5.0
 40
5.0
 40
6.0
 40
6.0
 40
6.0
 40
7.0
 40
7.0
 40
7.0
 40
7.0
 10
86.3759507705067
 20
-140.548526983092
 10
86.3759507705067
 20
-140.548526983092
 10
86.3759507705067
 20
-139.4443738800695
 10
86.3759507705067
 20
-139.4443738800695
 10
86.3759507705067
 20
-139.4443738800695
 10
86.04591062301978
 20
-139.4443738800695
 10
86.04591062301978
 20
-139.4443738800695
 10
86.04591062301978
 20
-139.4443738800695
 10
86.04591062301978
 20
-139.2962347742037
 10
86.04591062301978
 20
-139.2962347742037
 10
86.37801782779786
 20
-139.2814208636171
 10
86.42452661684874
 20
-139.1184678471648
 10
86.45415443802189
 20
-139.0044351866031
 10
86.45415443802189
 20
-139.0044351866031
 10
86.60022648659647
 20
-139.0044351866031
 10
86.60022648659647
 20
-139.0044351866031
 10
86.60022648659647
 20
-139.0044351866031
 10
86.60022648659647
 20
-140.548526983092
 10
86.60022648659647
 20
-140.548526983092
 10
86.60022648659647
 20
-140.548526983092
 10
86.3759507705067
 20
-140.548526983092
 10
86.3759507705067
 20
-140.548526983092
 97
        0
 97
        0
 75
     2
 76
     1
 98
        0
  0
SPLINE
  5
AE
330
A8
100
AcDbEntity
  8
_U+30EC_U+30A4_U+30E4_U+30FC 1
370
     0
100
AcDbSpline
210
0.0
220
0.0
230
1.0
 70
    11
 71
     3
 72
    29
 73
    25
 74
     0
 42
0.0000000001
 43
0.0000000001
 12
1.0
 22
0.0
 32
0.0
 13
1.0
 23
0.0
 33
0.0
 40
0.0
 40
0.0
 40
0.0
 40
0.0
 40
1.0
 40
1.0
 40
1.0
 40
2.0
 40
2.0
 40
2.0
 40
3.0
 40
3.0
 40
3.0
 40
4.0
 40
4.0
 40
4.0
 40
5.0
 40
5.0
 40
5.0
 40
6.0
 40
6.0
 40
6.0
 40
7.0
 40
7.0
 40
7.0
 40
8.0
 40
8.0
 40
8.0
 40
8.0
 10
87.99910750838217
 20
-140.3707600560531
 30
0.0
 10
87.89127601969385
 20
-140.5802218615563
 30
0.0
 10
87.71781546201153
 20
-140.5995143962737
 30
0.0
 10
87.60137123461008
 20
-140.5995143962737
 30
0.0
 10
87.44065753022318
 20
-140.5995143962737
 30
0.0
 10
87.29889185100514
 20
-140.5530056072229
 30
0.0
 10
87.20363496083799
 20
-140.3707600560531
 30
0.0
 10
87.10010984150622
 20
-140.1761121611365
 30
0.0
 10
87.08098956156309
 20
-139.9394341012999
 30
0.0
 10
87.08098956156309
 20
-139.7764810848475
 30
0.0
 10
87.08098956156309
 20
-139.6324760935641
 30
0.0
 10
87.09787052944081
 20
-139.3809841231409
 30
0.0
 10
87.20363496083799
 20
-139.1818576040934
 30
0.0
 10
87.31163870430056
 20
-138.9789414800122
 30
0.0
 10
87.47235240868747
 20
-138.9555148307125
 30
0.0
 10
87.60137123461008
 20
-138.9555148307125
 30
0.0
 10
87.76001788170583
 20
-138.9555148307125
 30
0.0
 10
87.90385061821502
 20
-138.9999565624722
 30
0.0
 10
87.99910750838217
 20
-139.1818576040934
 30
0.0
 10
88.09849851313163
 20
-139.3744384417189
 30
0.0
 10
88.12175290765707
 20
-139.602848272391
 30
0.0
 10
88.12175290765707
 20
-139.7764810848475
 30
0.0
 10
88.12175290765707
 20
-139.9477023304645
 30
0.0
 10
88.10073782519704
 20
-140.1785237279762
 30
0.0
 10
87.99910750838217
 20
-140.3707600560531
 30
0.0
  0
SPLINE
  5
AF
330
A8
100
AcDbEntity
  8
_U+30EC_U+30A4_U+30E4_U+30FC 1
370
     0
100
AcDbSpline
210
0.0
220
0.0
230
1.0
 70
    11
 71
     3
 72
    17
 73
    13
 74
     0
 42
0.0000000001
 43
0.0000000001
 12
1.0
 22
0.0
 32
0.0
 13
1.0
 23
0.0
 33
0.0
 40
0.0
 40
0.0
 40
0.0
 40
0.0
 40
1.0
 40
1.0
 40
1.0
 40
2.0
 40
2.0
 40
2.0
 40
3.0
 40
3.0
 40
3.0
 40
4.0
 40
4.0
 40
4.0
 40
4.0
 10
87.60137123461008
 20
-139.148095668338
 30
0.0
 10
87.35177406670373
 20
-139.148095668338
 30
0.0
 10
87.30526527765285
 20
-139.431627026774
 30
0.0
 10
87.30526527765285
 20
-139.7764810848475
 30
0.0
 10
87.30526527765285
 20
-140.0958414363302
 30
0.0
 10
87.34126652547371
 20
-140.4048665013571
 30
0.0
 10
87.60137123461008
 20
-140.4048665013571
 30
0.0
 10
87.84890134522527
 20
-140.4048665013571
 30
0.0
 10
87.89764944634156
 20
-140.1234022002122
 30
0.0
 10
87.89764944634156
 20
-139.7764810848475
 30
0.0
 10
87.89764944634156
 20
-139.4571207333649
 30
0.0
 10
87.85958114122955
 20
-139.148095668338
 30
0.0
 10
87.60137123461008
 20
-139.148095668338
 30
0.0
  0
HATCH
  5
B0
330
A8
100
AcDbEntity
  8
_U+30EC_U+30A4_U+30E4_U+30FC 1
 62
     7
420
 16777215
100
AcDbHatch
 10
0.0
 20
0.0
 30
0.0
210
0.0
220
0.0
230
1.0
  2
SOLID
 70
     1
 71
     0
 91
        2
 92
        1
 93
        1
 72
     4
 94
        3
 73
     0
 74
     1
 95
       29
 96
       25
 40
0.0
 40
0.0
 40
0.0
 40
0.0
 40
1.0
 40
1.0
 40
1.0
 40
2.0
 40
2.0
 40
2.0
 40
3.0
 40
3.0
 40
3.0
 40
4.0
 40
4.0
 40
4.0
 40
5.0
 40
5.0
 40
5.0
 40
6.0
 40
6.0
 40
6.0
 40
7.0
 40
7.0
 40
7.0
 40
8.0
 40
8.0
 40
8.0
 40
8.0
 10
87.99910750838217
 20
-140.3707600560531
 10
87.89127601969385
 20
-140.5802218615563
 10
87.71781546201153
 20
-140.5995143962737
 10
87.60137123461008
 20
-140.5995143962737
 10
87.44065753022318
 20
-140.5995143962737
 10
87.29889185100514
 20
-140.5530056072229
 10
87.20363496083799
 20
-140.3707600560531
 10
87.10010984150622
 20
-140.1761121611365
 10
87.08098956156309
 20
-139.9394341012999
 10
87.08098956156309
 20
-139.7764810848475
 10
87.08098956156309
 20
-139.6324760935641
 10
87.09787052944081
 20
-139.3809841231409
 10
87.20363496083799
 20
-139.1818576040934
 10
87.31163870430056
 20
-138.9789414800122
 10
87.47235240868747
 20
-138.9555148307125
 10
87.60137123461008
 20
-138.9555148307125
 10
87.76001788170583
 20
-138.9555148307125
 10
87.90385061821502
 20
-138.9999565624722
 10
87.99910750838217
 20
-139.1818576040934
 10
88.09849851313163
 20
-139.3744384417189
 10
88.12175290765707
 20
-139.602848272391
 10
88.12175290765707
 20
-139.7764810848475
 10
88.12175290765707
 20
-139.9477023304645
 10
88.10073782519704
 20
-140.1785237279762
 10
87.99910750838217
 20
-140.3707600560531
 97
        0
 97
        0
 92
        1
 93
        1
 72
     4
 94
        3
 73
     0
 74
     1
 95
       17
 96
       13
 40
0.0
 40
0.0
 40
0.0
 40
0.0
 40
1.0
 40
1.0
 40
1.0
 40
2.0
 40
2.0
 40
2.0
 40
3.0
 40
3.0
 40
3.0
 40
4.0
 40
4.0
 40
4.0
 40
4.0
 10
87.60137123461008
 20
-139.148095668338
 10
87.35177406670373
 20
-139.148095668338
 10
87.30526527765285
 20
-139.431627026774
 10
87.30526527765285
 20
-139.7764810848475
 10
87.30526527765285
 20
-140.0958414363302
 10
87.34126652547371
 20
-140.4048665013571
 10
87.60137123461008
 20
-140.4048665013571
 10
87.84890134522527
 20
-140.4048665013571
 10
87.89764944634156
 20
-140.1234022002122
 10
87.89764944634156
 20
-139.7764810848475
 10
87.89764944634156
 20
-139.4571207333649
 10
87.85958114122955
 20
-139.148095668338
 10
87.60137123461008
 20
-139.148095668338
 97
        0
 97
        0
 75
     2
 76
     1
 98
        0
  0
ENDBLK
  5
AB
330
A8
100
AcDbEntity
  8
0
100
AcDbBlockEnd
  0
BLOCK
  5
BB
330
B9
100
AcDbEntity
  8
0
100
AcDbBlockBegin
  2
block 4
 70
     0
 10
0.0
 20
0.0
 30
0.0
  3
block 4
  1

  0
SPLINE
  5
BD
330
B9
100
AcDbEntity
  8
_U+30EC_U+30A4_U+30E4_U+30FC 1
370
     0
100
AcDbSpline
210
0.0
220
0.0
230
1.0
 70
    11
 71
     3
 72
    62
 73
    58
 74
     0
 42
0.0000000001
 43
0.0000000001
 12
1.0
 22
0.0
 32
0.0
 13
1.0
 23
0.0
 33
0.0
 40
0.0
 40
0.0
 40
0.0
 40
0.0
 40
1.0
 40
1.0
 40
1.0
 40
2.0
 40
2.0
 40
2.0
 40
3.0
 40
3.0
 40
3.0
 40
4.0
 40
4.0
 40
4.0
 40
5.0
 40
5.0
 40
5.0
 40
6.0
 40
6.0
 40
6.0
 40
7.0
 40
7.0
 40
7.0
 40
8.0
 40
8.0
 40
8.0
 40
9.0
 40
9.0
 40
9.0
 40
10.0
 40
10.0
 40
10.0
 40
11.0
 40
11.0
 40
11.0
 40
12.0
 40
12.0
 40
12.0
 40
13.0
 40
13.0
 40
13.0
 40
14.0
 40
14.0
 40
14.0
 40
15.0
 40
15.0
 40
15.0
 40
16.0
 40
16.0
 40
16.0
 40
17.0
 40
17.0
 40
17.0
 40
18.0
 40
18.0
 40
18.0
 40
19.0
 40
19.0
 40
19.0
 40
19.0
 10
109.3593885360282
 20
-135.7019666544426
 30
0.0
 10
109.3593885360282
 20
-135.797395799384
 30
0.0
 10
109.3383734535682
 20
-136.0151258340518
 30
0.0
 10
109.1523382973647
 20
-136.1401828001663
 30
0.0
 10
109.0400281845455
 20
-136.2142523530992
 30
0.0
 10
108.9408094345704
 20
-136.2183864676815
 30
0.0
 10
108.8560600856332
 20
-136.2225205822638
 30
0.0
 10
108.8560600856332
 20
-136.2225205822638
 30
0.0
 10
108.8560600856332
 20
-136.0023789807564
 30
0.0
 10
108.8560600856332
 20
-136.0023789807564
 30
0.0
 10
108.9301296385661
 20
-136.0003119234652
 30
0.0
 10
109.1647406411116
 20
-135.9899766370094
 30
0.0
 10
109.1647406411116
 20
-135.7064452785734
 30
0.0
 10
109.1647406411116
 20
-135.5689859687119
 30
0.0
 10
109.0951497123095
 20
-135.4163682387154
 30
0.0
 10
108.8667398816375
 20
-135.4163682387154
 30
0.0
 10
108.750295654236
 20
-135.4163682387154
 30
0.0
 10
108.701719807894
 20
-135.4546087986016
 30
0.0
 10
108.6700249294297
 20
-135.4863036770659
 30
0.0
 10
108.5959553764968
 20
-135.5603732299988
 30
0.0
 10
108.5832085232014
 20
-135.6768174574002
 30
0.0
 10
108.5832085232014
 20
-135.7315944756157
 30
0.0
 10
108.5832085232014
 20
-135.7508870103331
 30
0.0
 10
108.5852755804926
 20
-135.7867160033797
 30
0.0
 10
108.5894096950749
 20
-135.8142767672617
 30
0.0
 10
108.5894096950749
 20
-135.8142767672617
 30
0.0
 10
108.3947618001583
 20
-135.8142767672617
 30
0.0
 10
108.3947618001583
 20
-135.8142767672617
 30
0.0
 10
108.4013074815802
 20
-135.7760362073755
 30
0.0
 10
108.4033745388714
 20
-135.7340060424554
 30
0.0
 10
108.4033745388714
 20
-135.7274603610334
 30
0.0
 10
108.4033745388714
 20
-135.6620035468137
 30
0.0
 10
108.3820149468628
 20
-135.4632215373148
 30
0.0
 10
108.1453368870262
 20
-135.4632215373148
 30
0.0
 10
107.9675699599873
 20
-135.4632215373148
 30
0.0
 10
107.9124484322233
 20
-135.5941351657542
 30
0.0
 10
107.9124484322233
 20
-135.7043782212822
 30
0.0
 10
107.9124484322233
 20
-135.9686170450009
 30
0.0
 10
108.1453368870262
 20
-135.977229783714
 30
0.0
 10
108.2169948731194
 20
-135.9813638982963
 30
0.0
 10
108.2169948731194
 20
-135.9813638982963
 30
0.0
 10
108.2169948731194
 20
-136.1846245319261
 30
0.0
 10
108.2169948731194
 20
-136.1846245319261
 30
0.0
 10
108.0922824165533
 20
-136.176011793213
 30
0.0
 10
107.7157334800155
 20
-136.1484510293309
 30
0.0
 10
107.7157334800155
 20
-135.6916313679868
 30
0.0
 10
107.7157334800155
 20
-135.4673556518971
 30
0.0
 10
107.8428575034212
 20
-135.2261989679296
 30
0.0
 10
108.1387912056042
 20
-135.2261989679296
 30
0.0
 10
108.3251708713562
 20
-135.2261989679296
 30
0.0
 10
108.4075086534537
 20
-135.3212836033225
 30
0.0
 10
108.4688313530911
 20
-135.4208468628462
 30
0.0
 10
108.4963921169731
 20
-135.3595241632087
 30
0.0
 10
108.5766628417795
 20
-135.1776231215875
 30
0.0
 10
108.8539930283421
 20
-135.1776231215875
 30
0.0
 10
109.1923014049936
 20
-135.1776231215875
 30
0.0
 10
109.3593885360282
 20
-135.4249809774285
 30
0.0
 10
109.3593885360282
 20
-135.7019666544426
 30
0.0
  0
HATCH
  5
BE
330
B9
100
AcDbEntity
  8
_U+30EC_U+30A4_U+30E4_U+30FC 1
 62
     7
420
 16777215
100
AcDbHatch
 10
0.0
 20
0.0
 30
0.0
210
0.0
220
0.0
230
1.0
  2
SOLID
 70
     1
 71
     0
 91
        1
 92
        1
 93
        1
 72
     4
 94
        3
 73
     0
 74
     1
 95
       62
 96
       58
 40
0.0
 40
0.0
 40
0.0
 40
0.0
 40
1.0
 40
1.0
 40
1.0
 40
2.0
 40
2.0
 40
2.0
 40
3.0
 40
3.0
 40
3.0
 40
4.0
 40
4.0
 40
4.0
 40
5.0
 40
5.0
 40
5.0
 40
6.0
 40
6.0
 40
6.0
 40
7.0
 40
7.0
 40
7.0
 40
8.0
 40
8.0
 40
8.0
 40
9.0
 40
9.0
 40
9.0
 40
10.0
 40
10.0
 40
10.0
 40
11.0
 40
11.0
 40
11.0
 40
12.0
 40
12.0
 40
12.0
 40
13.0
 40
13.0
 40
13.0
 40
14.0
 40
14.0
 40
14.0
 40
15.0
 40
15.0
 40
15.0
 40
16.0
 40
16.0
 40
16.0
 40
17.0
 40
17.0
 40
17.0
 40
18.0
 40
18.0
 40
18.0
 40
19.0
 40
19.0
 40
19.0
 40
19.0
 10
109.3593885360282
 20
-135.7019666544426
 10
109.3593885360282
 20
-135.797395799384
 10
109.3383734535682
 20
-136.0151258340518
 10
109.1523382973647
 20
-136.1401828001663
 10
109.0400281845455
 20
-136.2142523530992
 10
108.9408094345704
 20
-136.2183864676815
 10
108.8560600856332
 20
-136.2225205822638
 10
108.8560600856332
 20
-136.2225205822638
 10
108.8560600856332
 20
-136.0023789807564
 10
108.8560600856332
 20
-136.0023789807564
 10
108.9301296385661
 20
-136.0003119234652
 10
109.1647406411116
 20
-135.9899766370094
 10
109.1647406411116
 20
-135.7064452785734
 10
109.1647406411116
 20
-135.5689859687119
 10
109.0951497123095
 20
-135.4163682387154
 10
108.8667398816375
 20
-135.4163682387154
 10
108.750295654236
 20
-135.4163682387154
 10
108.701719807894
 20
-135.4546087986016
 10
108.6700249294297
 20
-135.4863036770659
 10
108.5959553764968
 20
-135.5603732299988
 10
108.5832085232014
 20
-135.6768174574002
 10
108.5832085232014
 20
-135.7315944756157
 10
108.5832085232014
 20
-135.7508870103331
 10
108.5852755804926
 20
-135.7867160033797
 10
108.5894096950749
 20
-135.8142767672617
 10
108.5894096950749
 20
-135.8142767672617
 10
108.3947618001583
 20
-135.8142767672617
 10
108.3947618001583
 20
-135.8142767672617
 10
108.4013074815802
 20
-135.7760362073755
 10
108.4033745388714
 20
-135.7340060424554
 10
108.4033745388714
 20
-135.7274603610334
 10
108.4033745388714
 20
-135.6620035468137
 10
108.3820149468628
 20
-135.4632215373148
 10
108.1453368870262
 20
-135.4632215373148
 10
107.9675699599873
 20
-135.4632215373148
 10
107.9124484322233
 20
-135.5941351657542
 10
107.9124484322233
 20
-135.7043782212822
 10
107.9124484322233
 20
-135.9686170450009
 10
108.1453368870262
 20
-135.977229783714
 10
108.2169948731194
 20
-135.9813638982963
 10
108.2169948731194
 20
-135.9813638982963
 10
108.2169948731194
 20
-136.1846245319261
 10
108.2169948731194
 20
-136.1846245319261
 10
108.0922824165533
 20
-136.176011793213
 10
107.7157334800155
 20
-136.1484510293309
 10
107.7157334800155
 20
-135.6916313679868
 10
107.7157334800155
 20
-135.4673556518971
 10
107.8428575034212
 20
-135.2261989679296
 10
108.1387912056042
 20
-135.2261989679296
 10
108.3251708713562
 20
-135.2261989679296
 10
108.4075086534537
 20
-135.3212836033225
 10
108.4688313530911
 20
-135.4208468628462
 10
108.4963921169731
 20
-135.3595241632087
 10
108.5766628417795
 20
-135.1776231215875
 10
108.8539930283421
 20
-135.1776231215875
 10
109.1923014049936
 20
-135.1776231215875
 10
109.3593885360282
 20
-135.4249809774285
 10
109.3593885360282
 20
-135.7019666544426
 97
        0
 97
        0
 75
     2
 76
     1
 98
        0
  0
ENDBLK
  5
BC
330
B9
100
AcDbEntity
  8
0
100
AcDbBlockEnd
  0
BLOCK
  5
CD
330
CB
100
AcDbEntity
  8
0
100
AcDbBlockBegin
  2
block 5
 70
     0
 10
0.0
 20
0.0
 30
0.0
  3
block 5
  1

  0
SPLINE
  5
CF
330
CB
100
AcDbEntity
  8
_U+30EC_U+30A4_U+30E4_U+30FC 1
370
     0
100
AcDbSpline
210
0.0
220
0.0
230
1.0
 70
    11
 71
     3
 72
    62
 73
    58
 74
     0
 42
0.0000000001
 43
0.0000000001
 12
1.0
 22
0.0
 32
0.0
 13
1.0
 23
0.0
 33
0.0
 40
0.0
 40
0.0
 40
0.0
 40
0.0
 40
1.0
 40
1.0
 40
1.0
 40
2.0
 40
2.0
 40
2.0
 40
3.0
 40
3.0
 40
3.0
 40
4.0
 40
4.0
 40
4.0
 40
5.0
 40
5.0
 40
5.0
 40
6.0
 40
6.0
 40
6.0
 40
7.0
 40
7.0
 40
7.0
 40
8.0
 40
8.0
 40
8.0
 40
9.0
 40
9.0
 40
9.0
 40
10.0
 40
10.0
 40
10.0
 40
11.0
 40
11.0
 40
11.0
 40
12.0
 40
12.0
 40
12.0
 40
13.0
 40
13.0
 40
13.0
 40
14.0
 40
14.0
 40
14.0
 40
15.0
 40
15.0
 40
15.0
 40
16.0
 40
16.0
 40
16.0
 40
17.0
 40
17.0
 40
17.0
 40
18.0
 40
18.0
 40
18.0
 40
19.0
 40
19.0
 40
19.0
 40
19.0
 10
87.91590845241339
 20
-118.099595782107
 30
0.0
 10
87.82065156224623
 20
-118.099595782107
 30
0.0
 10
87.60274927280418
 20
-118.0784084448728
 30
0.0
 10
87.47803681623813
 20
-117.892201033895
 30
0.0
 10
87.40396726330526
 20
-117.7800631758501
 30
0.0
 10
87.3996608939487
 20
-117.6806721711007
 30
0.0
 10
87.3955267793664
 20
-117.5960950769378
 30
0.0
 10
87.3955267793664
 20
-117.5960950769378
 30
0.0
 10
87.6154961260996
 20
-117.5960950769378
 30
0.0
 10
87.6154961260996
 20
-117.5960950769378
 30
0.0
 10
87.61756318339076
 20
-117.6701646298707
 30
0.0
 10
87.62824297939503
 20
-117.9049478871904
 30
0.0
 10
87.91160208305682
 20
-117.9049478871904
 30
0.0
 10
88.04923364769256
 20
-117.9049478871904
 30
0.0
 10
88.2015068681406
 20
-117.8351847036141
 30
0.0
 10
88.2015068681406
 20
-117.6066026181678
 30
0.0
 10
88.2015068681406
 20
-117.4903306455406
 30
0.0
 10
88.16343856302859
 20
-117.4415825444243
 30
0.0
 10
88.13174368456428
 20
-117.40988766596
 30
0.0
 10
88.05767413163142
 20
-117.3358181130272
 30
0.0
 10
87.94122990422997
 20
-117.323243514506
 30
0.0
 10
87.88628063124024
 20
-117.323243514506
 30
0.0
 10
87.86733260607137
 20
-117.323243514506
 30
0.0
 10
87.83133135825051
 20
-117.3253105717971
 30
0.0
 10
87.8037705943685
 20
-117.3294446863794
 30
0.0
 10
87.8037705943685
 20
-117.3294446863794
 30
0.0
 10
87.8037705943685
 20
-117.1347967914628
 30
0.0
 10
87.8037705943685
 20
-117.1347967914628
 30
0.0
 10
87.84183889948052
 20
-117.1411702181105
 30
0.0
 10
87.88421357394908
 20
-117.143409530176
 30
0.0
 10
87.8905870005968
 20
-117.143409530176
 30
0.0
 10
87.95604381481655
 20
-117.143409530176
 30
0.0
 10
88.15499807908972
 20
-117.1222221929417
 30
0.0
 10
88.15499807908972
 20
-116.8851996235565
 30
0.0
 10
88.15499807908972
 20
-116.7076049512919
 30
0.0
 10
88.02373994110171
 20
-116.6524834235279
 30
0.0
 10
87.91384139512223
 20
-116.6524834235279
 30
0.0
 10
87.6494303166293
 20
-116.6524834235279
 30
0.0
 10
87.6408175779162
 20
-116.8851996235565
 30
0.0
 10
87.6366834633339
 20
-116.9572021191982
 30
0.0
 10
87.6366834633339
 20
-116.9572021191982
 30
0.0
 10
87.43359508447841
 20
-116.9572021191982
 30
0.0
 10
87.43359508447841
 20
-116.9572021191982
 30
0.0
 10
87.44203556841727
 20
-116.8323174078579
 30
0.0
 10
87.46959633229928
 20
-116.4557684713201
 30
0.0
 10
87.9264159936434
 20
-116.4557684713201
 30
0.0
 10
88.15069170973317
 20
-116.4557684713201
 30
0.0
 10
88.39184839370066
 20
-116.5827202399515
 30
0.0
 10
88.39184839370066
 20
-116.8788261969088
 30
0.0
 10
88.39184839370066
 20
-117.0650336078865
 30
0.0
 10
88.29676375830776
 20
-117.1475436447583
 30
0.0
 10
88.19720049878404
 20
-117.2088663443957
 30
0.0
 10
88.25869545319574
 20
-117.2364271082777
 30
0.0
 10
88.44059649481694
 20
-117.3168700878583
 30
0.0
 10
88.44059649481694
 20
-117.5940280196466
 30
0.0
 10
88.44059649481694
 20
-117.9325086510724
 30
0.0
 10
88.19306638420174
 20
-118.099595782107
 30
0.0
 10
87.91590845241339
 20
-118.099595782107
 30
0.0
  0
HATCH
  5
D0
330
CB
100
AcDbEntity
  8
_U+30EC_U+30A4_U+30E4_U+30FC 1
 62
     7
420
 16777215
100
AcDbHatch
 10
0.0
 20
0.0
 30
0.0
210
0.0
220
0.0
230
1.0
  2
SOLID
 70
     1
 71
     0
 91
        1
 92
        1
 93
        1
 72
     4
 94
        3
 73
     0
 74
     1
 95
       62
 96
       58
 40
0.0
 40
0.0
 40
0.0
 40
0.0
 40
1.0
 40
1.0
 40
1.0
 40
2.0
 40
2.0
 40
2.0
 40
3.0
 40
3.0
 40
3.0
 40
4.0
 40
4.0
 40
4.0
 40
5.0
 40
5.0
 40
5.0
 40
6.0
 40
6.0
 40
6.0
 40
7.0
 40
7.0
 40
7.0
 40
8.0
 40
8.0
 40
8.0
 40
9.0
 40
9.0
 40
9.0
 40
10.0
 40
10.0
 40
10.0
 40
11.0
 40
11.0
 40
11.0
 40
12.0
 40
12.0
 40
12.0
 40
13.0
 40
13.0
 40
13.0
 40
14.0
 40
14.0
 40
14.0
 40
15.0
 40
15.0
 40
15.0
 40
16.0
 40
16.0
 40
16.0
 40
17.0
 40
17.0
 40
17.0
 40
18.0
 40
18.0
 40
18.0
 40
19.0
 40
19.0
 40
19.0
 40
19.0
 10
87.91590845241339
 20
-118.099595782107
 10
87.82065156224623
 20
-118.099595782107
 10
87.60274927280418
 20
-118.0784084448728
 10
87.47803681623813
 20
-117.892201033895
 10
87.40396726330526
 20
-117.7800631758501
 10
87.3996608939487
 20
-117.6806721711007
 10
87.3955267793664
 20
-117.5960950769378
 10
87.3955267793664
 20
-117.5960950769378
 10
87.6154961260996
 20
-117.5960950769378
 10
87.6154961260996
 20
-117.5960950769378
 10
87.61756318339076
 20
-117.6701646298707
 10
87.62824297939503
 20
-117.9049478871904
 10
87.91160208305682
 20
-117.9049478871904
 10
88.04923364769256
 20
-117.9049478871904
 10
88.2015068681406
 20
-117.8351847036141
 10
88.2015068681406
 20
-117.6066026181678
 10
88.2015068681406
 20
-117.4903306455406
 10
88.16343856302859
 20
-117.4415825444243
 10
88.13174368456428
 20
-117.40988766596
 10
88.05767413163142
 20
-117.3358181130272
 10
87.94122990422997
 20
-117.323243514506
 10
87.88628063124024
 20
-117.323243514506
 10
87.86733260607137
 20
-117.323243514506
 10
87.83133135825051
 20
-117.3253105717971
 10
87.8037705943685
 20
-117.3294446863794
 10
87.8037705943685
 20
-117.3294446863794
 10
87.8037705943685
 20
-117.1347967914628
 10
87.8037705943685
 20
-117.1347967914628
 10
87.84183889948052
 20
-117.1411702181105
 10
87.88421357394908
 20
-117.143409530176
 10
87.8905870005968
 20
-117.143409530176
 10
87.95604381481655
 20
-117.143409530176
 10
88.15499807908972
 20
-117.1222221929417
 10
88.15499807908972
 20
-116.8851996235565
 10
88.15499807908972
 20
-116.7076049512919
 10
88.02373994110171
 20
-116.6524834235279
 10
87.91384139512223
 20
-116.6524834235279
 10
87.6494303166293
 20
-116.6524834235279
 10
87.6408175779162
 20
-116.8851996235565
 10
87.6366834633339
 20
-116.9572021191982
 10
87.6366834633339
 20
-116.9572021191982
 10
87.43359508447841
 20
-116.9572021191982
 10
87.43359508447841
 20
-116.9572021191982
 10
87.44203556841727
 20
-116.8323174078579
 10
87.46959633229928
 20
-116.4557684713201
 10
87.9264159936434
 20
-116.4557684713201
 10
88.15069170973317
 20
-116.4557684713201
 10
88.39184839370066
 20
-116.5827202399515
 10
88.39184839370066
 20
-116.8788261969088
 10
88.39184839370066
 20
-117.0650336078865
 10
88.29676375830776
 20
-117.1475436447583
 10
88.19720049878404
 20
-117.2088663443957
 10
88.25869545319574
 20
-117.2364271082777
 10
88.44059649481694
 20
-117.3168700878583
 10
88.44059649481694
 20
-117.5940280196466
 10
88.44059649481694
 20
-117.9325086510724
 10
88.19306638420174
 20
-118.099595782107
 10
87.91590845241339
 20
-118.099595782107
 97
        0
 97
        0
 75
     2
 76
     1
 98
        0
  0
SPLINE
  5
D1
330
CB
100
AcDbEntity
  8
_U+30EC_U+30A4_U+30E4_U+30FC 1
370
     0
100
AcDbSpline
210
0.0
220
0.0
230
1.0
 70
    11
 71
     3
 72
    26
 73
    22
 74
     0
 42
0.0000000001
 43
0.0000000001
 12
1.0
 22
0.0
 32
0.0
 13
1.0
 23
0.0
 33
0.0
 40
0.0
 40
0.0
 40
0.0
 40
0.0
 40
1.0
 40
1.0
 40
1.0
 40
2.0
 40
2.0
 40
2.0
 40
3.0
 40
3.0
 40
3.0
 40
4.0
 40
4.0
 40
4.0
 40
5.0
 40
5.0
 40
5.0
 40
6.0
 40
6.0
 40
6.0
 40
7.0
 40
7.0
 40
7.0
 40
7.0
 10
89.01231009059416
 20
-118.0487806236996
 30
0.0
 10
89.01231009059416
 20
-118.0487806236996
 30
0.0
 10
88.77528752120897
 20
-118.0487806236996
 30
0.0
 10
88.77528752120897
 20
-118.0487806236996
 30
0.0
 10
88.8007812277998
 20
-117.739927813447
 30
0.0
 10
88.99336206542527
 20
-117.2216131976911
 30
0.0
 10
89.39953882313623
 20
-116.7160454352307
 30
0.0
 10
89.39953882313623
 20
-116.7160454352307
 30
0.0
 10
88.56169160112347
 20
-116.7160454352307
 30
0.0
 10
88.56169160112347
 20
-116.7160454352307
 30
0.0
 10
88.56169160112347
 20
-116.7160454352307
 30
0.0
 10
88.56169160112347
 20
-116.5045165724364
 30
0.0
 10
88.56169160112347
 20
-116.5045165724364
 30
0.0
 10
88.56169160112347
 20
-116.5045165724364
 30
0.0
 10
89.63656139252141
 20
-116.5045165724364
 30
0.0
 10
89.63656139252141
 20
-116.5045165724364
 30
0.0
 10
89.63656139252141
 20
-116.5045165724364
 30
0.0
 10
89.63656139252141
 20
-116.7160454352307
 30
0.0
 10
89.63656139252141
 20
-116.7160454352307
 30
0.0
 10
89.31272241690793
 20
-117.0057779655402
 30
0.0
 10
89.04607202634959
 20
-117.5981621342289
 30
0.0
 10
89.01231009059416
 20
-118.0487806236996
 30
0.0
  0
HATCH
  5
D2
330
CB
100
AcDbEntity
  8
_U+30EC_U+30A4_U+30E4_U+30FC 1
 62
     7
420
 16777215
100
AcDbHatch
 10
0.0
 20
0.0
 30
0.0
210
0.0
220
0.0
230
1.0
  2
SOLID
 70
     1
 71
     0
 91
        1
 92
        1
 93
        1
 72
     4
 94
        3
 73
     0
 74
     1
 95
       26
 96
       22
 40
0.0
 40
0.0
 40
0.0
 40
0.0
 40
1.0
 40
1.0
 40
1.0
 40
2.0
 40
2.0
 40
2.0
 40
3.0
 40
3.0
 40
3.0
 40
4.0
 40
4.0
 40
4.0
 40
5.0
 40
5.0
 40
5.0
 40
6.0
 40
6.0
 40
6.0
 40
7.0
 40
7.0
 40
7.0
 40
7.0
 10
89.01231009059416
 20
-118.0487806236996
 10
89.01231009059416
 20
-118.0487806236996
 10
88.77528752120897
 20
-118.0487806236996
 10
88.77528752120897
 20
-118.0487806236996
 10
88.8007812277998
 20
-117.739927813447
 10
88.99336206542527
 20
-117.2216131976911
 10
89.39953882313623
 20
-116.7160454352307
 10
89.39953882313623
 20
-116.7160454352307
 10
88.56169160112347
 20
-116.7160454352307
 10
88.56169160112347
 20
-116.7160454352307
 10
88.56169160112347
 20
-116.7160454352307
 10
88.56169160112347
 20
-116.5045165724364
 10
88.56169160112347
 20
-116.5045165724364
 10
88.56169160112347
 20
-116.5045165724364
 10
89.63656139252141
 20
-116.5045165724364
 10
89.63656139252141
 20
-116.5045165724364
 10
89.63656139252141
 20
-116.5045165724364
 10
89.63656139252141
 20
-116.7160454352307
 10
89.63656139252141
 20
-116.7160454352307
 10
89.31272241690793
 20
-117.0057779655402
 10
89.04607202634959
 20
-117.5981621342289
 10
89.01231009059416
 20
-118.0487806236996
 97
        0
 97
        0
 75
     2
 76
     1
 98
        0
  0
ENDBLK
  5
CE
330
CB
100
AcDbEntity
  8
0
100
AcDbBlockEnd
  0
BLOCK
  5
E1
330
DF
100
AcDbEntity
  8
0
100
AcDbBlockBegin
  2
block 6
 70
     0
 10
0.0
 20
0.0
 30
0.0
  3
block 6
  1

  0
SPLINE
  5
E3
330
DF
100
AcDbEntity
  8
_U+30EC_U+30A4_U+30E4_U+30FC 1
370
     0
100
AcDbSpline
210
0.0
220
0.0
230
1.0
 70
    11
 71
     3
 72
    26
 73
    22
 74
     0
 42
0.0000000001
 43
0.0000000001
 12
1.0
 22
0.0
 32
0.0
 13
1.0
 23
0.0
 33
0.0
 40
0.0
 40
0.0
 40
0.0
 40
0.0
 40
1.0
 40
1.0
 40
1.0
 40
2.0
 40
2.0
 40
2.0
 40
3.0
 40
3.0
 40
3.0
 40
4.0
 40
4.0
 40
4.0
 40
5.0
 40
5.0
 40
5.0
 40
6.0
 40
6.0
 40
6.0
 40
7.0
 40
7.0
 40
7.0
 40
7.0
 10
75.3761053956525
 20
-140.548526983092
 30
0.0
 10
75.3761053956525
 20
-140.548526983092
 30
0.0
 10
75.3761053956525
 20
-139.4443738800695
 30
0.0
 10
75.3761053956525
 20
-139.4443738800695
 30
0.0
 10
75.3761053956525
 20
-139.4443738800695
 30
0.0
 10
75.04606524816558
 20
-139.4443738800695
 30
0.0
 10
75.04606524816558
 20
-139.4443738800695
 30
0.0
 10
75.04606524816558
 20
-139.4443738800695
 30
0.0
 10
75.04606524816558
 20
-139.2962347742037
 30
0.0
 10
75.04606524816558
 20
-139.2962347742037
 30
0.0
 10
75.37817245294366
 20
-139.2814208636171
 30
0.0
 10
75.42468124199453
 20
-139.1184678471648
 30
0.0
 10
75.45430906316767
 20
-139.0044351866031
 30
0.0
 10
75.45430906316767
 20
-139.0044351866031
 30
0.0
 10
75.60038111174227
 20
-139.0044351866031
 30
0.0
 10
75.60038111174227
 20
-139.0044351866031
 30
0.0
 10
75.60038111174227
 20
-139.0044351866031
 30
0.0
 10
75.60038111174227
 20
-140.548526983092
 30
0.0
 10
75.60038111174227
 20
-140.548526983092
 30
0.0
 10
75.60038111174227
 20
-140.548526983092
 30
0.0
 10
75.3761053956525
 20
-140.548526983092
 30
0.0
 10
75.3761053956525
 20
-140.548526983092
 30
0.0
  0
HATCH
  5
E4
330
DF
100
AcDbEntity
  8
_U+30EC_U+30A4_U+30E4_U+30FC 1
 62
     7
420
 16777215
100
AcDbHatch
 10
0.0
 20
0.0
 30
0.0
210
0.0
220
0.0
230
1.0
  2
SOLID
 70
     1
 71
     0
 91
        1
 92
        1
 93
        1
 72
     4
 94
        3
 73
     0
 74
     1
 95
       26
 96
       22
 40
0.0
 40
0.0
 40
0.0
 40
0.0
 40
1.0
 40
1.0
 40
1.0
 40
2.0
 40
2.0
 40
2.0
 40
3.0
 40
3.0
 40
3.0
 40
4.0
 40
4.0
 40
4.0
 40
5.0
 40
5.0
 40
5.0
 40
6.0
 40
6.0
 40
6.0
 40
7.0
 40
7.0
 40
7.0
 40
7.0
 10
75.3761053956525
 20
-140.548526983092
 10
75.3761053956525
 20
-140.548526983092
 10
75.3761053956525
 20
-139.4443738800695
 10
75.3761053956525
 20
-139.4443738800695
 10
75.3761053956525
 20
-139.4443738800695
 10
75.04606524816558
 20
-139.4443738800695
 10
75.04606524816558
 20
-139.4443738800695
 10
75.04606524816558
 20
-139.4443738800695
 10
75.04606524816558
 20
-139.2962347742037
 10
75.04606524816558
 20
-139.2962347742037
 10
75.37817245294366
 20
-139.2814208636171
 10
75.42468124199453
 20
-139.1184678471648
 10
75.45430906316767
 20
-139.0044351866031
 10
75.45430906316767
 20
-139.0044351866031
 10
75.60038111174227
 20
-139.0044351866031
 10
75.60038111174227
 20
-139.0044351866031
 10
75.60038111174227
 20
-139.0044351866031
 10
75.60038111174227
 20
-140.548526983092
 10
75.60038111174227
 20
-140.548526983092
 10
75.60038111174227
 20
-140.548526983092
 10
75.3761053956525
 20
-140.548526983092
 10
75.3761053956525
 20
-140.548526983092
 97
        0
 97
        0
 75
     2
 76
     1
 98
        0
  0
SPLINE
  5
E5
330
DF
100
AcDbEntity
  8
_U+30EC_U+30A4_U+30E4_U+30FC 1
370
     0
100
AcDbSpline
210
0.0
220
0.0
230
1.0
 70
    11
 71
     3
 72
    44
 73
    40
 74
     0
 42
0.0000000001
 43
0.0000000001
 12
1.0
 22
0.0
 32
0.0
 13
1.0
 23
0.0
 33
0.0
 40
0.0
 40
0.0
 40
0.0
 40
0.0
 40
1.0
 40
1.0
 40
1.0
 40
2.0
 40
2.0
 40
2.0
 40
3.0
 40
3.0
 40
3.0
 40
4.0
 40
4.0
 40
4.0
 40
5.0
 40
5.0
 40
5.0
 40
6.0
 40
6.0
 40
6.0
 40
7.0
 40
7.0
 40
7.0
 40
8.0
 40
8.0
 40
8.0
 40
9.0
 40
9.0
 40
9.0
 40
10.0
 40
10.0
 40
10.0
 40
11.0
 40
11.0
 40
11.0
 40
12.0
 40
12.0
 40
12.0
 40
13.0
 40
13.0
 40
13.0
 40
13.0
 10
76.69471569263187
 20
-139.9669948651819
 30
0.0
 10
76.47681340318982
 20
-140.1254692575034
 30
0.0
 10
76.38362357031382
 20
-140.1995388104362
 30
0.0
 10
76.3350477239718
 20
-140.3435438017197
 30
0.0
 10
76.3350477239718
 20
-140.3435438017197
 30
0.0
 10
77.113467048864
 20
-140.3435438017197
 30
0.0
 10
77.113467048864
 20
-140.3435438017197
 30
0.0
 10
77.113467048864
 20
-140.3435438017197
 30
0.0
 10
77.113467048864
 20
-140.548526983092
 30
0.0
 10
77.113467048864
 20
-140.548526983092
 30
0.0
 10
77.113467048864
 20
-140.548526983092
 30
0.0
 10
76.08545055606545
 20
-140.548526983092
 30
0.0
 10
76.08545055606545
 20
-140.548526983092
 30
0.0
 10
76.11714543452975
 20
-140.1909260717231
 30
0.0
 10
76.18277450352376
 20
-140.1127224042079
 30
0.0
 10
76.56776392400042
 20
-139.8143771351853
 30
0.0
 10
76.82373451855449
 20
-139.6155951256864
 30
0.0
 10
76.88919133277423
 20
-139.5480712541755
 30
0.0
 10
76.88919133277423
 20
-139.410611944314
 30
0.0
 10
76.88919133277423
 20
-139.2921006596214
 30
0.0
 10
76.81736109190678
 20
-139.1608425216334
 30
0.0
 10
76.620646139699
 20
-139.1608425216334
 30
0.0
 10
76.36036917578838
 20
-139.1608425216334
 30
0.0
 10
76.35192869184952
 20
-139.3913194095966
 30
0.0
 10
76.34762232249295
 20
-139.5077636369981
 30
0.0
 10
76.34762232249295
 20
-139.5077636369981
 30
0.0
 10
76.12351886117746
 20
-139.5077636369981
 30
0.0
 10
76.12351886117746
 20
-139.5077636369981
 30
0.0
 10
76.13195934511631
 20
-139.3809841231409
 30
0.0
 10
76.14246688634633
 20
-139.2686740103217
 30
0.0
 10
76.22290986592691
 20
-139.1501627256291
 30
0.0
 10
76.33280841190638
 20
-138.9896212760165
 30
0.0
 10
76.51901582288414
 20
-138.9555148307125
 30
0.0
 10
76.63546005028559
 20
-138.9555148307125
 30
0.0
 10
76.91261798207393
 20
-138.9555148307125
 30
0.0
 10
77.11984047551171
 20
-139.1398274391734
 30
0.0
 10
77.11984047551171
 20
-139.4126790016052
 30
0.0
 10
77.11984047551171
 20
-139.6410888322772
 30
0.0
 10
77.00356850288453
 20
-139.740652091801
 30
0.0
 10
76.69471569263187
 20
-139.9669948651819
 30
0.0
  0
HATCH
  5
E6
330
DF
100
AcDbEntity
  8
_U+30EC_U+30A4_U+30E4_U+30FC 1
 62
     7
420
 16777215
100
AcDbHatch
 10
0.0
 20
0.0
 30
0.0
210
0.0
220
0.0
230
1.0
  2
SOLID
 70
     1
 71
     0
 91
        1
 92
        1
 93
        1
 72
     4
 94
        3
 73
     0
 74
     1
 95
       44
 96
       40
 40
0.0
 40
0.0
 40
0.0
 40
0.0
 40
1.0
 40
1.0
 40
1.0
 40
2.0
 40
2.0
 40
2.0
 40
3.0
 40
3.0
 40
3.0
 40
4.0
 40
4.0
 40
4.0
 40
5.0
 40
5.0
 40
5.0
 40
6.0
 40
6.0
 40
6.0
 40
7.0
 40
7.0
 40
7.0
 40
8.0
 40
8.0
 40
8.0
 40
9.0
 40
9.0
 40
9.0
 40
10.0
 40
10.0
 40
10.0
 40
11.0
 40
11.0
 40
11.0
 40
12.0
 40
12.0
 40
12.0
 40
13.0
 40
13.0
 40
13.0
 40
13.0
 10
76.69471569263187
 20
-139.9669948651819
 10
76.47681340318982
 20
-140.1254692575034
 10
76.38362357031382
 20
-140.1995388104362
 10
76.3350477239718
 20
-140.3435438017197
 10
76.3350477239718
 20
-140.3435438017197
 10
77.113467048864
 20
-140.3435438017197
 10
77.113467048864
 20
-140.3435438017197
 10
77.113467048864
 20
-140.3435438017197
 10
77.113467048864
 20
-140.548526983092
 10
77.113467048864
 20
-140.548526983092
 10
77.113467048864
 20
-140.548526983092
 10
76.08545055606545
 20
-140.548526983092
 10
76.08545055606545
 20
-140.548526983092
 10
76.11714543452975
 20
-140.1909260717231
 10
76.18277450352376
 20
-140.1127224042079
 10
76.56776392400042
 20
-139.8143771351853
 10
76.82373451855449
 20
-139.6155951256864
 10
76.88919133277423
 20
-139.5480712541755
 10
76.88919133277423
 20
-139.410611944314
 10
76.88919133277423
 20
-139.2921006596214
 10
76.81736109190678
 20
-139.1608425216334
 10
76.620646139699
 20
-139.1608425216334
 10
76.36036917578838
 20
-139.1608425216334
 10
76.35192869184952
 20
-139.3913194095966
 10
76.34762232249295
 20
-139.5077636369981
 10
76.34762232249295
 20
-139.5077636369981
 10
76.12351886117746
 20
-139.5077636369981
 10
76.12351886117746
 20
-139.5077636369981
 10
76.13195934511631
 20
-139.3809841231409
 10
76.14246688634633
 20
-139.2686740103217
 10
76.22290986592691
 20
-139.1501627256291
 10
76.33280841190638
 20
-138.9896212760165
 10
76.51901582288414
 20
-138.9555148307125
 10
76.63546005028559
 20
-138.9555148307125
 10
76.91261798207393
 20
-138.9555148307125
 10
77.11984047551171
 20
-139.1398274391734
 10
77.11984047551171
 20
-139.4126790016052
 10
77.11984047551171
 20
-139.6410888322772
 10
77.00356850288453
 20
-139.740652091801
 10
76.69471569263187
 20
-139.9669948651819
 97
        0
 97
        0
 75
     2
 76
     1
 98
        0
  0
ENDBLK
  5
E2
330
DF
100
AcDbEntity
  8
0
100
AcDbBlockEnd
  0
BLOCK
  5
F1
330
EF
100
AcDbEntity
  8
0
100
AcDbBlockBegin
  2
block 7
 70
     0
 10
0.0
 20
0.0
 30
0.0
  3
block 7
  1

  0
SPLINE
  5
F3
330
EF
100
AcDbEntity
  8
_U+30EC_U+30A4_U+30E4_U+30FC 1
370
     0
100
AcDbSpline
210
0.0
220
0.0
230
1.0
 70
    11
 71
     3
 72
    26
 73
    22
 74
     0
 42
0.0000000001
 43
0.0000000001
 12
1.0
 22
0.0
 32
0.0
 13
1.0
 23
0.0
 33
0.0
 40
0.0
 40
0.0
 40
0.0
 40
0.0
 40
1.0
 40
1.0
 40
1.0
 40
2.0
 40
2.0
 40
2.0
 40
3.0
 40
3.0
 40
3.0
 40
4.0
 40
4.0
 40
4.0
 40
5.0
 40
5.0
 40
5.0
 40
6.0
 40
6.0
 40
6.0
 40
7.0
 40
7.0
 40
7.0
 40
7.0
 10
109.308745632395
 20
-130.4433729057572
 30
0.0
 10
109.308745632395
 20
-130.4433729057572
 30
0.0
 10
108.2045925293725
 20
-130.4433729057572
 30
0.0
 10
108.2045925293725
 20
-130.4433729057572
 30
0.0
 10
108.2045925293725
 20
-130.4433729057572
 30
0.0
 10
108.2045925293725
 20
-130.7734130532442
 30
0.0
 10
108.2045925293725
 20
-130.7734130532442
 30
0.0
 10
108.2045925293725
 20
-130.7734130532442
 30
0.0
 10
108.0564534235067
 20
-130.7734130532442
 30
0.0
 10
108.0564534235067
 20
-130.7734130532442
 30
0.0
 10
108.0416395129202
 20
-130.4413058484661
 30
0.0
 10
107.8786864964678
 20
-130.3947970594152
 30
0.0
 10
107.7643093263575
 20
-130.3651692382421
 30
0.0
 10
107.7643093263575
 20
-130.3651692382421
 30
0.0
 10
107.7643093263575
 20
-130.2190971896675
 30
0.0
 10
107.7643093263575
 20
-130.2190971896675
 30
0.0
 10
107.7643093263575
 20
-130.2190971896675
 30
0.0
 10
109.308745632395
 20
-130.2190971896675
 30
0.0
 10
109.308745632395
 20
-130.2190971896675
 30
0.0
 10
109.308745632395
 20
-130.2190971896675
 30
0.0
 10
109.308745632395
 20
-130.4433729057572
 30
0.0
 10
109.308745632395
 20
-130.4433729057572
 30
0.0
  0
HATCH
  5
F4
330
EF
100
AcDbEntity
  8
_U+30EC_U+30A4_U+30E4_U+30FC 1
 62
     7
420
 16777215
100
AcDbHatch
 10
0.0
 20
0.0
 30
0.0
210
0.0
220
0.0
230
1.0
  2
SOLID
 70
     1
 71
     0
 91
        1
 92
        1
 93
        1
 72
     4
 94
        3
 73
     0
 74
     1
 95
       26
 96
       22
 40
0.0
 40
0.0
 40
0.0
 40
0.0
 40
1.0
 40
1.0
 40
1.0
 40
2.0
 40
2.0
 40
2.0
 40
3.0
 40
3.0
 40
3.0
 40
4.0
 40
4.0
 40
4.0
 40
5.0
 40
5.0
 40
5.0
 40
6.0
 40
6.0
 40
6.0
 40
7.0
 40
7.0
 40
7.0
 40
7.0
 10
109.308745632395
 20
-130.4433729057572
 10
109.308745632395
 20
-130.4433729057572
 10
108.2045925293725
 20
-130.4433729057572
 10
108.2045925293725
 20
-130.4433729057572
 10
108.2045925293725
 20
-130.4433729057572
 10
108.2045925293725
 20
-130.7734130532442
 10
108.2045925293725
 20
-130.7734130532442
 10
108.2045925293725
 20
-130.7734130532442
 10
108.0564534235067
 20
-130.7734130532442
 10
108.0564534235067
 20
-130.7734130532442
 10
108.0416395129202
 20
-130.4413058484661
 10
107.8786864964678
 20
-130.3947970594152
 10
107.7643093263575
 20
-130.3651692382421
 10
107.7643093263575
 20
-130.3651692382421
 10
107.7643093263575
 20
-130.2190971896675
 10
107.7643093263575
 20
-130.2190971896675
 10
107.7643093263575
 20
-130.2190971896675
 10
109.308745632395
 20
-130.2190971896675
 10
109.308745632395
 20
-130.2190971896675
 10
109.308745632395
 20
-130.2190971896675
 10
109.308745632395
 20
-130.4433729057572
 10
109.308745632395
 20
-130.4433729057572
 97
        0
 97
        0
 75
     2
 76
     1
 98
        0
  0
SPLINE
  5
F5
330
EF
100
AcDbEntity
  8
_U+30EC_U+30A4_U+30E4_U+30FC 1
370
     0
100
AcDbSpline
210
0.0
220
0.0
230
1.0
 70
    11
 71
     3
 72
    29
 73
    25
 74
     0
 42
0.0000000001
 43
0.0000000001
 12
1.0
 22
0.0
 32
0.0
 13
1.0
 23
0.0
 33
0.0
 40
0.0
 40
0.0
 40
0.0
 40
0.0
 40
1.0
 40
1.0
 40
1.0
 40
2.0
 40
2.0
 40
2.0
 40
3.0
 40
3.0
 40
3.0
 40
4.0
 40
4.0
 40
4.0
 40
5.0
 40
5.0
 40
5.0
 40
6.0
 40
6.0
 40
6.0
 40
7.0
 40
7.0
 40
7.0
 40
8.0
 40
8.0
 40
8.0
 40
8.0
 10
109.1309787053561
 20
-128.8200439131075
 30
0.0
 10
109.3404405108593
 20
-128.9282199113443
 30
0.0
 10
109.3593885360282
 20
-129.1015082142524
 30
0.0
 10
109.3593885360282
 20
-129.2179524416539
 30
0.0
 10
109.3593885360282
 20
-129.378838400815
 30
0.0
 10
109.3128797469773
 20
-129.5204318252588
 30
0.0
 10
109.1309787053561
 20
-129.6155164606517
 30
0.0
 10
108.9363308104395
 20
-129.7192138347577
 30
0.0
 10
108.6993082410543
 20
-129.7381618599266
 30
0.0
 10
108.5366997341505
 20
-129.7381618599266
 30
0.0
 10
108.3926947428671
 20
-129.7381618599266
 30
0.0
 10
108.1408582628953
 20
-129.7212808920488
 30
0.0
 10
107.9420762533964
 20
-129.6155164606517
 30
0.0
 10
107.7391601293152
 20
-129.5076849719634
 30
0.0
 10
107.7157334800155
 20
-129.3467990128022
 30
0.0
 10
107.7157334800155
 20
-129.2179524416539
 30
0.0
 10
107.7157334800155
 20
-129.0591335397838
 30
0.0
 10
107.7601752117752
 20
-128.9154730580489
 30
0.0
 10
107.9420762533964
 20
-128.8200439131075
 30
0.0
 10
108.1346570910219
 20
-128.7208251631323
 30
0.0
 10
108.363066921694
 20
-128.6973985138326
 30
0.0
 10
108.5366997341505
 20
-128.6973985138326
 30
0.0
 10
108.7079209797675
 20
-128.6973985138326
 30
0.0
 10
108.9383978677307
 20
-128.7187581058411
 30
0.0
 10
109.1309787053561
 20
-128.8200439131075
 30
0.0
  0
SPLINE
  5
F6
330
EF
100
AcDbEntity
  8
_U+30EC_U+30A4_U+30E4_U+30FC 1
370
     0
100
AcDbSpline
210
0.0
220
0.0
230
1.0
 70
    11
 71
     3
 72
    17
 73
    13
 74
     0
 42
0.0000000001
 43
0.0000000001
 12
1.0
 22
0.0
 32
0.0
 13
1.0
 23
0.0
 33
0.0
 40
0.0
 40
0.0
 40
0.0
 40
0.0
 40
1.0
 40
1.0
 40
1.0
 40
2.0
 40
2.0
 40
2.0
 40
3.0
 40
3.0
 40
3.0
 40
4.0
 40
4.0
 40
4.0
 40
4.0
 10
107.908314317641
 20
-129.2179524416539
 30
0.0
 10
107.908314317641
 20
-129.467377354786
 30
0.0
 10
108.191845676077
 20
-129.5142306533853
 30
0.0
 10
108.5366997341505
 20
-129.5142306533853
 30
0.0
 10
108.8560600856332
 20
-129.5142306533853
 30
0.0
 10
109.1647406411116
 20
-129.4780571507902
 30
0.0
 10
109.1647406411116
 20
-129.2179524416539
 30
0.0
 10
109.1647406411116
 20
-128.9702500762644
 30
0.0
 10
108.8836208495152
 20
-128.9216742299224
 30
0.0
 10
108.5366997341505
 20
-128.9216742299224
 30
0.0
 10
108.2169948731194
 20
-128.9216742299224
 30
0.0
 10
107.908314317641
 20
-128.9599147898086
 30
0.0
 10
107.908314317641
 20
-129.2179524416539
 30
0.0
  0
HATCH
  5
F7
330
EF
100
AcDbEntity
  8
_U+30EC_U+30A4_U+30E4_U+30FC 1
 62
     7
420
 16777215
100
AcDbHatch
 10
0.0
 20
0.0
 30
0.0
210
0.0
220
0.0
230
1.0
  2
SOLID
 70
     1
 71
     0
 91
        2
 92
        1
 93
        1
 72
     4
 94
        3
 73
     0
 74
     1
 95
       29
 96
       25
 40
0.0
 40
0.0
 40
0.0
 40
0.0
 40
1.0
 40
1.0
 40
1.0
 40
2.0
 40
2.0
 40
2.0
 40
3.0
 40
3.0
 40
3.0
 40
4.0
 40
4.0
 40
4.0
 40
5.0
 40
5.0
 40
5.0
 40
6.0
 40
6.0
 40
6.0
 40
7.0
 40
7.0
 40
7.0
 40
8.0
 40
8.0
 40
8.0
 40
8.0
 10
109.1309787053561
 20
-128.8200439131075
 10
109.3404405108593
 20
-128.9282199113443
 10
109.3593885360282
 20
-129.1015082142524
 10
109.3593885360282
 20
-129.2179524416539
 10
109.3593885360282
 20
-129.378838400815
 10
109.3128797469773
 20
-129.5204318252588
 10
109.1309787053561
 20
-129.6155164606517
 10
108.9363308104395
 20
-129.7192138347577
 10
108.6993082410543
 20
-129.7381618599266
 10
108.5366997341505
 20
-129.7381618599266
 10
108.3926947428671
 20
-129.7381618599266
 10
108.1408582628953
 20
-129.7212808920488
 10
107.9420762533964
 20
-129.6155164606517
 10
107.7391601293152
 20
-129.5076849719634
 10
107.7157334800155
 20
-129.3467990128022
 10
107.7157334800155
 20
-129.2179524416539
 10
107.7157334800155
 20
-129.0591335397838
 10
107.7601752117752
 20
-128.9154730580489
 10
107.9420762533964
 20
-128.8200439131075
 10
108.1346570910219
 20
-128.7208251631323
 10
108.363066921694
 20
-128.6973985138326
 10
108.5366997341505
 20
-128.6973985138326
 10
108.7079209797675
 20
-128.6973985138326
 10
108.9383978677307
 20
-128.7187581058411
 10
109.1309787053561
 20
-128.8200439131075
 97
        0
 97
        0
 92
        1
 93
        1
 72
     4
 94
        3
 73
     0
 74
     1
 95
       17
 96
       13
 40
0.0
 40
0.0
 40
0.0
 40
0.0
 40
1.0
 40
1.0
 40
1.0
 40
2.0
 40
2.0
 40
2.0
 40
3.0
 40
3.0
 40
3.0
 40
4.0
 40
4.0
 40
4.0
 40
4.0
 10
107.908314317641
 20
-129.2179524416539
 10
107.908314317641
 20
-129.467377354786
 10
108.191845676077
 20
-129.5142306533853
 10
108.5366997341505
 20
-129.5142306533853
 10
108.8560600856332
 20
-129.5142306533853
 10
109.1647406411116
 20
-129.4780571507902
 10
109.1647406411116
 20
-129.2179524416539
 10
109.1647406411116
 20
-128.9702500762644
 10
108.8836208495152
 20
-128.9216742299224
 10
108.5366997341505
 20
-128.9216742299224
 10
108.2169948731194
 20
-128.9216742299224
 10
107.908314317641
 20
-128.9599147898086
 10
107.908314317641
 20
-129.2179524416539
 97
        0
 97
        0
 75
     2
 76
     1
 98
        0
  0
POLYLINE
  5
F8
330
EF
100
AcDbEntity
  8
_U+30EC_U+30A4_U+30E4_U+30FC 1
370
     0
100
AcDb2dPolyline
 66
     1
 10
0.0
 20
0.0
 30
0.0
  0
VERTEX
  5
F9
330
F8
100
AcDbEntity
  8
_U+30EC_U+30A4_U+30E4_U+30FC 1
370
     0
100
AcDbVertex
100
AcDb2dVertex
 10
109.308745632395
 20
-128.4810465173589
 30
0.0
  0
VERTEX
  5
FA
330
F8
100
AcDbEntity
  8
_U+30EC_U+30A4_U+30E4_U+30FC 1
370
     0
100
AcDbVertex
100
AcDb2dVertex
 10
109.0569091524233
 20
-128.4810465173589
 30
0.0
  0
VERTEX
  5
FB
330
F8
100
AcDbEntity
  8
_U+30EC_U+30A4_U+30E4_U+30FC 1
370
     0
100
AcDbVertex
100
AcDb2dVertex
 10
109.0569091524233
 20
-128.2292100373872
 30
0.0
  0
VERTEX
  5
FC
330
F8
100
AcDbEntity
  8
_U+30EC_U+30A4_U+30E4_U+30FC 1
370
     0
100
AcDbVertex
100
AcDb2dVertex
 10
109.308745632395
 20
-128.2292100373872
 30
0.0
  0
VERTEX
  5
FD
330
F8
100
AcDbEntity
  8
_U+30EC_U+30A4_U+30E4_U+30FC 1
370
     0
100
AcDbVertex
100
AcDb2dVertex
 10
109.308745632395
 20
-128.4810465173589
 30
0.0
  0
SEQEND
  5
FE
330
F8
100
AcDbEntity
  8
_U+30EC_U+30A4_U+30E4_U+30FC 1
370
     0
  0
HATCH
  5
FF
330
EF
100
AcDbEntity
  8
_U+30EC_U+30A4_U+30E4_U+30FC 1
 62
     7
420
 16777215
100
AcDbHatch
 10
0.0
 20
0.0
 30
0.0
210
0.0
220
0.0
230
1.0
  2
SOLID
 70
     1
 71
     0
 91
        1
 92
        1
 93
        4
 72
     1
 10
109.308745632395
 20
-128.4810465173589
 11
109.0569091524233
 21
-128.4810465173589
 72
     1
 10
109.0569091524233
 20
-128.4810465173589
 11
109.0569091524233
 21
-128.2292100373872
 72
     1
 10
109.0569091524233
 20
-128.2292100373872
 11
109.308745632395
 21
-128.2292100373872
 72
     1
 10
109.308745632395
 20
-128.2292100373872
 11
109.308745632395
 21
-128.4810465173589
 97
        0
 75
     2
 76
     1
 98
        0
  0
SPLINE
  5
100
330
EF
100
AcDbEntity
  8
_U+30EC_U+30A4_U+30E4_U+30FC 1
370
     0
100
AcDbSpline
210
0.0
220
0.0
230
1.0
 70
    11
 71
     3
 72
    53
 73
    49
 74
     0
 42
0.0000000001
 43
0.0000000001
 12
1.0
 22
0.0
 32
0.0
 13
1.0
 23
0.0
 33
0.0
 40
0.0
 40
0.0
 40
0.0
 40
0.0
 40
1.0
 40
1.0
 40
1.0
 40
2.0
 40
2.0
 40
2.0
 40
3.0
 40
3.0
 40
3.0
 40
4.0
 40
4.0
 40
4.0
 40
5.0
 40
5.0
 40
5.0
 40
6.0
 40
6.0
 40
6.0
 40
7.0
 40
7.0
 40
7.0
 40
8.0
 40
8.0
 40
8.0
 40
9.0
 40
9.0
 40
9.0
 40
10.0
 40
10.0
 40
10.0
 40
11.0
 40
11.0
 40
11.0
 40
12.0
 40
12.0
 40
12.0
 40
13.0
 40
13.0
 40
13.0
 40
14.0
 40
14.0
 40
14.0
 40
15.0
 40
15.0
 40
15.0
 40
16.0
 40
16.0
 40
16.0
 40
16.0
 10
109.3593885360282
 20
-127.5119411573581
 30
0.0
 10
109.3593885360282
 20
-127.5901448248733
 30
0.0
 10
109.3425075681505
 20
-127.6917751416882
 30
0.0
 10
109.2791178112219
 20
-127.793405458503
 30
0.0
 10
109.1692192652424
 20
-127.9666937614111
 30
0.0
 10
109.0379611272544
 20
-127.9880533534197
 30
0.0
 10
108.9301296385661
 20
-128.0070013785885
 30
0.0
 10
108.9301296385661
 20
-128.0070013785885
 30
0.0
 10
108.9301296385661
 20
-127.7847927197899
 30
0.0
 10
108.9301296385661
 20
-127.7847927197899
 30
0.0
 10
109.128911648065
 20
-127.7300157015744
 30
0.0
 10
109.1585394692381
 20
-127.6028916781687
 30
0.0
 10
109.1585394692381
 20
-127.509874100067
 30
0.0
 10
109.1585394692381
 20
-127.3703477329144
 30
0.0
 10
109.0589762097144
 20
-127.2180745124663
 30
0.0
 10
108.8264322644601
 20
-127.2180745124663
 30
0.0
 10
108.570461669906
 20
-127.2180745124663
 30
0.0
 10
108.5005262315554
 20
-127.3979084967964
 30
0.0
 10
108.5005262315554
 20
-127.5184868387801
 30
0.0
 10
108.5005262315554
 20
-127.5501817172444
 30
0.0
 10
108.5005262315554
 20
-127.6917751416882
 30
0.0
 10
108.6297173122523
 20
-127.7806586052076
 30
0.0
 10
108.6297173122523
 20
-127.7806586052076
 30
0.0
 10
108.6107692870834
 20
-127.9563584749554
 30
0.0
 10
108.6107692870834
 20
-127.9563584749554
 30
0.0
 10
108.6107692870834
 20
-127.9563584749554
 30
0.0
 10
107.7643093263575
 20
-127.8357801329716
 30
0.0
 10
107.7643093263575
 20
-127.8357801329716
 30
0.0
 10
107.7643093263575
 20
-127.8357801329716
 30
0.0
 10
107.7643093263575
 20
-127.0571885533052
 30
0.0
 10
107.7643093263575
 20
-127.0571885533052
 30
0.0
 10
107.7643093263575
 20
-127.0571885533052
 30
0.0
 10
107.9589572212742
 20
-127.0571885533052
 30
0.0
 10
107.9589572212742
 20
-127.0571885533052
 30
0.0
 10
107.9589572212742
 20
-127.0571885533052
 30
0.0
 10
107.9589572212742
 20
-127.6728271165193
 30
0.0
 10
107.9589572212742
 20
-127.6728271165193
 30
0.0
 10
107.9589572212742
 20
-127.6728271165193
 30
0.0
 10
108.3820149468628
 20
-127.738283930739
 30
0.0
 10
108.3820149468628
 20
-127.738283930739
 30
0.0
 10
108.3482530111074
 20
-127.6769612311016
 30
0.0
 10
108.30794539393
 20
-127.5946234490041
 30
0.0
 10
108.30794539393
 20
-127.4761121643115
 30
0.0
 10
108.30794539393
 20
-127.2222086270486
 30
0.0
 10
108.494325059682
 20
-126.9851860576634
 30
0.0
 10
108.8074842392912
 20
-126.9851860576634
 30
0.0
 10
109.1247775334827
 20
-126.9851860576634
 30
0.0
 10
109.3593885360282
 20
-127.2094617737532
 30
0.0
 10
109.3593885360282
 20
-127.5119411573581
 30
0.0
  0
HATCH
  5
101
330
EF
100
AcDbEntity
  8
_U+30EC_U+30A4_U+30E4_U+30FC 1
 62
     7
420
 16777215
100
AcDbHatch
 10
0.0
 20
0.0
 30
0.0
210
0.0
220
0.0
230
1.0
  2
SOLID
 70
     1
 71
     0
 91
        1
 92
        1
 93
        1
 72
     4
 94
        3
 73
     0
 74
     1
 95
       53
 96
       49
 40
0.0
 40
0.0
 40
0.0
 40
0.0
 40
1.0
 40
1.0
 40
1.0
 40
2.0
 40
2.0
 40
2.0
 40
3.0
 40
3.0
 40
3.0
 40
4.0
 40
4.0
 40
4.0
 40
5.0
 40
5.0
 40
5.0
 40
6.0
 40
6.0
 40
6.0
 40
7.0
 40
7.0
 40
7.0
 40
8.0
 40
8.0
 40
8.0
 40
9.0
 40
9.0
 40
9.0
 40
10.0
 40
10.0
 40
10.0
 40
11.0
 40
11.0
 40
11.0
 40
12.0
 40
12.0
 40
12.0
 40
13.0
 40
13.0
 40
13.0
 40
14.0
 40
14.0
 40
14.0
 40
15.0
 40
15.0
 40
15.0
 40
16.0
 40
16.0
 40
16.0
 40
16.0
 10
109.3593885360282
 20
-127.5119411573581
 10
109.3593885360282
 20
-127.5901448248733
 10
109.3425075681505
 20
-127.6917751416882
 10
109.2791178112219
 20
-127.793405458503
 10
109.1692192652424
 20
-127.9666937614111
 10
109.0379611272544
 20
-127.9880533534197
 10
108.9301296385661
 20
-128.0070013785885
 10
108.9301296385661
 20
-128.0070013785885
 10
108.9301296385661
 20
-127.7847927197899
 10
108.9301296385661
 20
-127.7847927197899
 10
109.128911648065
 20
-127.7300157015744
 10
109.1585394692381
 20
-127.6028916781687
 10
109.1585394692381
 20
-127.509874100067
 10
109.1585394692381
 20
-127.3703477329144
 10
109.0589762097144
 20
-127.2180745124663
 10
108.8264322644601
 20
-127.2180745124663
 10
108.570461669906
 20
-127.2180745124663
 10
108.5005262315554
 20
-127.3979084967964
 10
108.5005262315554
 20
-127.5184868387801
 10
108.5005262315554
 20
-127.5501817172444
 10
108.5005262315554
 20
-127.6917751416882
 10
108.6297173122523
 20
-127.7806586052076
 10
108.6297173122523
 20
-127.7806586052076
 10
108.6107692870834
 20
-127.9563584749554
 10
108.6107692870834
 20
-127.9563584749554
 10
108.6107692870834
 20
-127.9563584749554
 10
107.7643093263575
 20
-127.8357801329716
 10
107.7643093263575
 20
-127.8357801329716
 10
107.7643093263575
 20
-127.8357801329716
 10
107.7643093263575
 20
-127.0571885533052
 10
107.7643093263575
 20
-127.0571885533052
 10
107.7643093263575
 20
-127.0571885533052
 10
107.9589572212742
 20
-127.0571885533052
 10
107.9589572212742
 20
-127.0571885533052
 10
107.9589572212742
 20
-127.0571885533052
 10
107.9589572212742
 20
-127.6728271165193
 10
107.9589572212742
 20
-127.6728271165193
 10
107.9589572212742
 20
-127.6728271165193
 10
108.3820149468628
 20
-127.738283930739
 10
108.3820149468628
 20
-127.738283930739
 10
108.3482530111074
 20
-127.6769612311016
 10
108.30794539393
 20
-127.5946234490041
 10
108.30794539393
 20
-127.4761121643115
 10
108.30794539393
 20
-127.2222086270486
 10
108.494325059682
 20
-126.9851860576634
 10
108.8074842392912
 20
-126.9851860576634
 10
109.1247775334827
 20
-126.9851860576634
 10
109.3593885360282
 20
-127.2094617737532
 10
109.3593885360282
 20
-127.5119411573581
 97
        0
 97
        0
 75
     2
 76
     1
 98
        0
  0
ENDBLK
  5
F2
330
EF
100
AcDbEntity
  8
0
100
AcDbBlockEnd
  0
ENDSEC
  0
SECTION
  2
ENTITIES
  0
POLYLINE
  5
41
330
1F
100
AcDbEntity
  8
_U+30EC_U+30A4_U+30E4_U+30FC 1
370
     0
100
AcDb2dPolyline
 66
     1
 10
0.0
 20
0.0
 30
0.0
  0
VERTEX
  5
42
330
41
100
AcDbEntity
  8
_U+30EC_U+30A4_U+30E4_U+30FC 1
370
     0
100
AcDbVertex
100
AcDb2dVertex
 10
70.01365182491405
 20
-123.6944369135208
 30
0.0
  0
VERTEX
  5
43
330
41
100
AcDbEntity
  8
_U+30EC_U+30A4_U+30E4_U+30FC 1
370
     0
100
AcDbVertex
100
AcDb2dVertex
 10
82.01359929654765
 20
-123.6944369135208
 30
0.0
  0
VERTEX
  5
44
330
41
100
AcDbEntity
  8
_U+30EC_U+30A4_U+30E4_U+30FC 1
370
     0
100
AcDbVertex
100
AcDb2dVertex
 10
82.01359929654765
 20
-137.1947132990347
 30
0.0
  0
VERTEX
  5
45
330
41
100
AcDbEntity
  8
_U+30EC_U+30A4_U+30E4_U+30FC 1
370
     0
100
AcDbVertex
100
AcDb2dVertex
 10
92.01297931922
 20
-137.1947132990347
 30
0.0
  0
VERTEX
  5
46
330
41
100
AcDbEntity
  8
_U+30EC_U+30A4_U+30E4_U+30FC 1
370
     0
100
AcDbVertex
100
AcDb2dVertex
 10
92.01297931922
 20
-134.1947263553403
 30
0.0
  0
VERTEX
  5
47
330
41
100
AcDbEntity
  8
_U+30EC_U+30A4_U+30E4_U+30FC 1
370
     0
100
AcDbVertex
100
AcDb2dVertex
 10
91.01320712250408
 20
-134.1947263553403
 30
0.0
  0
VERTEX
  5
48
330
41
100
AcDbEntity
  8
_U+30EC_U+30A4_U+30E4_U+30FC 1
370
     0
100
AcDbVertex
100
AcDb2dVertex
 10
91.01320712250408
 20
-136.1942707992848
 30
0.0
  0
VERTEX
  5
49
330
41
100
AcDbEntity
  8
_U+30EC_U+30A4_U+30E4_U+30FC 1
370
     0
100
AcDbVertex
100
AcDb2dVertex
 10
82.91346482914572
 20
-136.1942707992848
 30
0.0
  0
VERTEX
  5
4A
330
41
100
AcDbEntity
  8
_U+30EC_U+30A4_U+30E4_U+30FC 1
370
     0
100
AcDbVertex
100
AcDb2dVertex
 10
82.91346482914572
 20
-123.6944369135208
 30
0.0
  0
VERTEX
  5
4B
330
41
100
AcDbEntity
  8
_U+30EC_U+30A4_U+30E4_U+30FC 1
370
     0
100
AcDbVertex
100
AcDb2dVertex
 10
107.0132664365308
 20
-123.6944369135208
 30
0.0
  0
VERTEX
  5
4C
330
41
100
AcDbEntity
  8
_U+30EC_U+30A4_U+30E4_U+30FC 1
370
     0
100
AcDbVertex
100
AcDb2dVertex
 10
107.0132664365308
 20
-122.6946646915486
 30
0.0
  0
VERTEX
  5
4D
330
41
100
AcDbEntity
  8
_U+30EC_U+30A4_U+30E4_U+30FC 1
370
     0
100
AcDbVertex
100
AcDb2dVertex
 10
70.01365182491405
 20
-122.6946646915486
 30
0.0
  0
VERTEX
  5
4E
330
41
100
AcDbEntity
  8
_U+30EC_U+30A4_U+30E4_U+30FC 1
370
     0
100
AcDbVertex
100
AcDb2dVertex
 10
70.01365182491405
 20
-123.6944369135208
 30
0.0
  0
SEQEND
  5
50
330
41
100
AcDbEntity
  8
_U+30EC_U+30A4_U+30E4_U+30FC 1
370
     0
  0
HATCH
  5
4F
330
1F
100
AcDbEntity
  8
_U+30EC_U+30A4_U+30E4_U+30FC 1
 62
   253
420
 11711154
100
AcDbHatch
 10
0.0
 20
0.0
 30
0.0
210
0.0
220
0.0
230
1.0
  2
SOLID
 70
     1
 71
     0
 91
        1
 92
        1
 93
       12
 72
     1
 10
70.01365182491405
 20
-123.6944369135208
 11
82.01359929654765
 21
-123.6944369135208
 72
     1
 10
82.01359929654765
 20
-123.6944369135208
 11
82.01359929654765
 21
-137.1947132990347
 72
     1
 10
82.01359929654765
 20
-137.1947132990347
 11
92.01297931922
 21
-137.1947132990347
 72
     1
 10
92.01297931922
 20
-137.1947132990347
 11
92.01297931922
 21
-134.1947263553403
 72
     1
 10
92.01297931922
 20
-134.1947263553403
 11
91.01320712250408
 21
-134.1947263553403
 72
     1
 10
91.01320712250408
 20
-134.1947263553403
 11
91.01320712250408
 21
-136.1942707992848
 72
     1
 10
91.01320712250408
 20
-136.1942707992848
 11
82.91346482914572
 21
-136.1942707992848
 72
     1
 10
82.91346482914572
 20
-136.1942707992848
 11
82.91346482914572
 21
-123.6944369135208
 72
     1
 10
82.91346482914572
 20
-123.6944369135208
 11
107.0132664365308
 21
-123.6944369135208
 72
     1
 10
107.0132664365308
 20
-123.6944369135208
 11
107.0132664365308
 21
-122.6946646915486
 72
     1
 10
107.0132664365308
 20
-122.6946646915486
 11
70.01365182491405
 21
-122.6946646915486
 72
     1
 10
70.01365182491405
 20
-122.6946646915486
 11
70.01365182491405
 21
-123.6944369135208
 97
        0
 75
     2
 76
     1
 98
        0
  0
POLYLINE
  5
51
330
1F
100
AcDbEntity
  8
_U+30EC_U+30A4_U+30E4_U+30FC 1
 62
     7
420
 16777215
370
    25
100
AcDb2dPolyline
 66
     1
 10
0.0
 20
0.0
 30
0.0
  0
VERTEX
  5
52
330
51
100
AcDbEntity
  8
_U+30EC_U+30A4_U+30E4_U+30FC 1
 62
     7
420
 16777215
370
    25
100
AcDbVertex
100
AcDb2dVertex
 10
82.01359929654765
 20
-137.1947132990347
 30
0.0
  0
VERTEX
  5
53
330
51
100
AcDbEntity
  8
_U+30EC_U+30A4_U+30E4_U+30FC 1
 62
     7
420
 16777215
370
    25
100
AcDbVertex
100
AcDb2dVertex
 10
92.01297931922
 20
-137.1947132990347
 30
0.0
  0
SEQEND
  5
54
330
51
100
AcDbEntity
  8
_U+30EC_U+30A4_U+30E4_U+30FC 1
 62
     7
420
 16777215
370
    25
  0
POLYLINE
  5
55
330
1F
100
AcDbEntity
  8
_U+30EC_U+30A4_U+30E4_U+30FC 1
 62
     7
420
 16777215
370
    25
100
AcDb2dPolyline
 66
     1
 10
0.0
 20
0.0
 30
0.0
  0
VERTEX
  5
56
330
55
100
AcDbEntity
  8
_U+30EC_U+30A4_U+30E4_U+30FC 1
 62
     7
420
 16777215
370
    25
100
AcDbVertex
100
AcDb2dVertex
 10
70.01365182491405
 20
-122.6946646915486
 30
0.0
  0
VERTEX
  5
57
330
55
100
AcDbEntity
  8
_U+30EC_U+30A4_U+30E4_U+30FC 1
 62
     7
420
 16777215
370
    25
100
AcDbVertex
100
AcDb2dVertex
 10
107.0132664365308
 20
-122.6946646915486
 30
0.0
  0
SEQEND
  5
58
330
55
100
AcDbEntity
  8
_U+30EC_U+30A4_U+30E4_U+30FC 1
 62
     7
420
 16777215
370
    25
  0
POLYLINE
  5
59
330
1F
100
AcDbEntity
  8
_U+30EC_U+30A4_U+30E4_U+30FC 1
 62
     7
420
 16777215
370
    25
100
AcDb2dPolyline
 66
     1
 10
0.0
 20
0.0
 30
0.0
  0
VERTEX
  5
5A
330
59
100
AcDbEntity
  8
_U+30EC_U+30A4_U+30E4_U+30FC 1
 62
     7
420
 16777215
370
    25
100
AcDbVertex
100
AcDb2dVertex
 10
91.01320712250408
 20
-134.1947263553403
 30
0.0
  0
VERTEX
  5
5B
330
59
100
AcDbEntity
  8
_U+30EC_U+30A4_U+30E4_U+30FC 1
 62
     7
420
 16777215
370
    25
100
AcDbVertex
100
AcDb2dVertex
 10
92.01297931922
 20
-134.1947263553403
 30
0.0
  0
SEQEND
  5
5C
330
59
100
AcDbEntity
  8
_U+30EC_U+30A4_U+30E4_U+30FC 1
 62
     7
420
 16777215
370
    25
  0
POLYLINE
  5
5D
330
1F
100
AcDbEntity
  8
_U+30EC_U+30A4_U+30E4_U+30FC 1
 62
     7
420
 16777215
370
    25
100
AcDb2dPolyline
 66
     1
 10
0.0
 20
0.0
 30
0.0
  0
VERTEX
  5
5E
330
5D
100
AcDbEntity
  8
_U+30EC_U+30A4_U+30E4_U+30FC 1
 62
     7
420
 16777215
370
    25
100
AcDbVertex
100
AcDb2dVertex
 10
92.01297931922
 20
-137.1947132990347
 30
0.0
  0
VERTEX
  5
5F
330
5D
100
AcDbEntity
  8
_U+30EC_U+30A4_U+30E4_U+30FC 1
 62
     7
420
 16777215
370
    25
100
AcDbVertex
100
AcDb2dVertex
 10
92.01297931922
 20
-134.1947263553403
 30
0.0
  0
SEQEND
  5
60
330
5D
100
AcDbEntity
  8
_U+30EC_U+30A4_U+30E4_U+30FC 1
 62
     7
420
 16777215
370
    25
  0
POLYLINE
  5
61
330
1F
100
AcDbEntity
  8
_U+30EC_U+30A4_U+30E4_U+30FC 1
 62
     7
420
 16777215
370
    25
100
AcDb2dPolyline
 66
     1
 10
0.0
 20
0.0
 30
0.0
  0
VERTEX
  5
62
330
61
100
AcDbEntity
  8
_U+30EC_U+30A4_U+30E4_U+30FC 1
 62
     7
420
 16777215
370
    25
100
AcDbVertex
100
AcDb2dVertex
 10
70.01365182491405
 20
-123.6944369135208
 30
0.0
  0
VERTEX
  5
63
330
61
100
AcDbEntity
  8
_U+30EC_U+30A4_U+30E4_U+30FC 1
 62
     7
420
 16777215
370
    25
100
AcDbVertex
100
AcDb2dVertex
 10
70.01365182491405
 20
-122.6946646915486
 30
0.0
  0
SEQEND
  5
64
330
61
100
AcDbEntity
  8
_U+30EC_U+30A4_U+30E4_U+30FC 1
 62
     7
420
 16777215
370
    25
  0
POLYLINE
  5
65
330
1F
100
AcDbEntity
  8
_U+30EC_U+30A4_U+30E4_U+30FC 1
 62
     7
420
 16777215
370
    25
100
AcDb2dPolyline
 66
     1
 10
0.0
 20
0.0
 30
0.0
  0
VERTEX
  5
66
330
65
100
AcDbEntity
  8
_U+30EC_U+30A4_U+30E4_U+30FC 1
 62
     7
420
 16777215
370
    25
100
AcDbVertex
100
AcDb2dVertex
 10
70.01365182491405
 20
-123.6944369135208
 30
0.0
  0
VERTEX
  5
67
330
65
100
AcDbEntity
  8
_U+30EC_U+30A4_U+30E4_U+30FC 1
 62
     7
420
 16777215
370
    25
100
AcDbVertex
100
AcDb2dVertex
 10
82.01359929654765
 20
-123.6944369135208
 30
0.0
  0
SEQEND
  5
68
330
65
100
AcDbEntity
  8
_U+30EC_U+30A4_U+30E4_U+30FC 1
 62
     7
420
 16777215
370
    25
  0
POLYLINE
  5
69
330
1F
100
AcDbEntity
  8
_U+30EC_U+30A4_U+30E4_U+30FC 1
 62
     7
420
 16777215
370
    25
100
AcDb2dPolyline
 66
     1
 10
0.0
 20
0.0
 30
0.0
  0
VERTEX
  5
6A
330
69
100
AcDbEntity
  8
_U+30EC_U+30A4_U+30E4_U+30FC 1
 62
     7
420
 16777215
370
    25
100
AcDbVertex
100
AcDb2dVertex
 10
91.01320712250408
 20
-136.1942707992848
 30
0.0
  0
VERTEX
  5
6B
330
69
100
AcDbEntity
  8
_U+30EC_U+30A4_U+30E4_U+30FC 1
 62
     7
420
 16777215
370
    25
100
AcDbVertex
100
AcDb2dVertex
 10
91.01320712250408
 20
-134.1947263553403
 30
0.0
  0
SEQEND
  5
6C
330
69
100
AcDbEntity
  8
_U+30EC_U+30A4_U+30E4_U+30FC 1
 62
     7
420
 16777215
370
    25
  0
POLYLINE
  5
6D
330
1F
100
AcDbEntity
  8
_U+30EC_U+30A4_U+30E4_U+30FC 1
 62
     7
420
 16777215
370
    25
100
AcDb2dPolyline
 66
     1
 10
0.0
 20
0.0
 30
0.0
  0
VERTEX
  5
6E
330
6D
100
AcDbEntity
  8
_U+30EC_U+30A4_U+30E4_U+30FC 1
 62
     7
420
 16777215
370
    25
100
AcDbVertex
100
AcDb2dVertex
 10
82.91346482914572
 20
-136.1942707992848
 30
0.0
  0
VERTEX
  5
6F
330
6D
100
AcDbEntity
  8
_U+30EC_U+30A4_U+30E4_U+30FC 1
 62
     7
420
 16777215
370
    25
100
AcDbVertex
100
AcDb2dVertex
 10
91.01320712250408
 20
-136.1942707992848
 30
0.0
  0
SEQEND
  5
70
330
6D
100
AcDbEntity
  8
_U+30EC_U+30A4_U+30E4_U+30FC 1
 62
     7
420
 16777215
370
    25
  0
POLYLINE
  5
71
330
1F
100
AcDbEntity
  8
_U+30EC_U+30A4_U+30E4_U+30FC 1
 62
     7
420
 16777215
370
    25
100
AcDb2dPolyline
 66
     1
 10
0.0
 20
0.0
 30
0.0
  0
VERTEX
  5
72
330
71
100
AcDbEntity
  8
_U+30EC_U+30A4_U+30E4_U+30FC 1
 62
     7
420
 16777215
370
    25
100
AcDbVertex
100
AcDb2dVertex
 10
82.01359929654765
 20
-137.1947132990347
 30
0.0
  0
VERTEX
  5
73
330
71
100
AcDbEntity
  8
_U+30EC_U+30A4_U+30E4_U+30FC 1
 62
     7
420
 16777215
370
    25
100
AcDbVertex
100
AcDb2dVertex
 10
82.01359929654765
 20
-123.6944369135208
 30
0.0
  0
SEQEND
  5
74
330
71
100
AcDbEntity
  8
_U+30EC_U+30A4_U+30E4_U+30FC 1
 62
     7
420
 16777215
370
    25
  0
POLYLINE
  5
75
330
1F
100
AcDbEntity
  8
_U+30EC_U+30A4_U+30E4_U+30FC 1
 62
     7
420
 16777215
370
    25
100
AcDb2dPolyline
 66
     1
 10
0.0
 20
0.0
 30
0.0
  0
VERTEX
  5
76
330
75
100
AcDbEntity
  8
_U+30EC_U+30A4_U+30E4_U+30FC 1
 62
     7
420
 16777215
370
    25
100
AcDbVertex
100
AcDb2dVertex
 10
107.0132664365308
 20
-123.6944369135208
 30
0.0
  0
VERTEX
  5
77
330
75
100
AcDbEntity
  8
_U+30EC_U+30A4_U+30E4_U+30FC 1
 62
     7
420
 16777215
370
    25
100
AcDbVertex
100
AcDb2dVertex
 10
107.0132664365308
 20
-122.6946646915486
 30
0.0
  0
SEQEND
  5
78
330
75
100
AcDbEntity
  8
_U+30EC_U+30A4_U+30E4_U+30FC 1
 62
     7
420
 16777215
370
    25
  0
POLYLINE
  5
79
330
1F
100
AcDbEntity
  8
_U+30EC_U+30A4_U+30E4_U+30FC 1
 62
     7
420
 16777215
370
    25
100
AcDb2dPolyline
 66
     1
 10
0.0
 20
0.0
 30
0.0
  0
VERTEX
  5
7A
330
79
100
AcDbEntity
  8
_U+30EC_U+30A4_U+30E4_U+30FC 1
 62
     7
420
 16777215
370
    25
100
AcDbVertex
100
AcDb2dVertex
 10
82.91346482914572
 20
-123.6944369135208
 30
0.0
  0
VERTEX
  5
7B
330
79
100
AcDbEntity
  8
_U+30EC_U+30A4_U+30E4_U+30FC 1
 62
     7
420
 16777215
370
    25
100
AcDbVertex
100
AcDb2dVertex
 10
107.0132664365308
 20
-123.6944369135208
 30
0.0
  0
SEQEND
  5
7C
330
79
100
AcDbEntity
  8
_U+30EC_U+30A4_U+30E4_U+30FC 1
 62
     7
420
 16777215
370
    25
  0
POLYLINE
  5
7D
330
1F
100
AcDbEntity
  8
_U+30EC_U+30A4_U+30E4_U+30FC 1
 62
     7
420
 16777215
370
    25
100
AcDb2dPolyline
 66
     1
 10
0.0
 20
0.0
 30
0.0
  0
VERTEX
  5
7E
330
7D
100
AcDbEntity
  8
_U+30EC_U+30A4_U+30E4_U+30FC 1
 62
     7
420
 16777215
370
    25
100
AcDbVertex
100
AcDb2dVertex
 10
82.91346482914572
 20
-136.1942707992848
 30
0.0
  0
VERTEX
  5
7F
330
7D
100
AcDbEntity
  8
_U+30EC_U+30A4_U+30E4_U+30FC 1
 62
     7
420
 16777215
370
    25
100
AcDbVertex
100
AcDb2dVertex
 10
82.91346482914572
 20
-123.6944369135208
 30
0.0
  0
SEQEND
  5
80
330
7D
100
AcDbEntity
  8
_U+30EC_U+30A4_U+30E4_U+30FC 1
 62
     7
420
 16777215
370
    25
  0
SPLINE
  5
81
330
1F
100
AcDbEntity
  8
_U+30EC_U+30A4_U+30E4_U+30FC 1
 62
     7
420
 16777215
370
     9
100
AcDbSpline
210
0.0
220
0.0
230
1.0
 70
    11
 71
     3
 72
    17
 73
    13
 74
     0
 42
0.0000000001
 43
0.0000000001
 12
1.0
 22
0.0
 32
0.0
 13
1.0
 23
0.0
 33
0.0
 40
0.0
 40
0.0
 40
0.0
 40
0.0
 40
1.0
 40
1.0
 40
1.0
 40
2.0
 40
2.0
 40
2.0
 40
3.0
 40
3.0
 40
3.0
 40
4.0
 40
4.0
 40
4.0
 40
4.0
 10
82.11350596066549
 20
-141.1944724647016
 30
0.0
 10
82.11350596066549
 20
-141.139368575826
 30
0.0
 10
82.06870318403072
 20
-141.0945657980599
 30
0.0
 10
82.01359929654765
 20
-141.0945657980599
 30
0.0
 10
81.95846013128771
 20
-141.0945657980599
 30
0.0
 10
81.91369263242981
 20
-141.139368575826
 30
0.0
 10
81.91369263242981
 20
-141.1944724647016
 30
0.0
 10
81.91369263242981
 20
-141.249611631354
 30
0.0
 10
81.95846013128771
 20
-141.2943791313432
 30
0.0
 10
82.01359929654765
 20
-141.2943791313432
 30
0.0
 10
82.06870318403072
 20
-141.2943791313432
 30
0.0
 10
82.11350596066549
 20
-141.249611631354
 30
0.0
 10
82.11350596066549
 20
-141.1944724647016
 30
0.0
  0
SPLINE
  5
82
330
1F
100
AcDbEntity
  8
_U+30EC_U+30A4_U+30E4_U+30FC 1
 62
     7
420
 16777215
370
     9
100
AcDbSpline
210
0.0
220
0.0
230
1.0
 70
    11
 71
     3
 72
    17
 73
    13
 74
     0
 42
0.0000000001
 43
0.0000000001
 12
1.0
 22
0.0
 32
0.0
 13
1.0
 23
0.0
 33
0.0
 40
0.0
 40
0.0
 40
0.0
 40
0.0
 40
1.0
 40
1.0
 40
1.0
 40
2.0
 40
2.0
 40
2.0
 40
3.0
 40
3.0
 40
3.0
 40
4.0
 40
4.0
 40
4.0
 40
4.0
 10
92.11359153887538
 20
-141.1944724647016
 30
0.0
 10
92.11359153887538
 20
-141.139368575826
 30
0.0
 10
92.06878876224063
 20
-141.0945657980599
 30
0.0
 10
92.01297931922
 20
-141.0945657980599
 30
0.0
 10
91.9578777547882
 20
-141.0945657980599
 30
0.0
 10
91.91307497702148
 20
-141.139368575826
 30
0.0
 10
91.91307497702148
 20
-141.1944724647016
 30
0.0
 10
91.91307497702148
 20
-141.249611631354
 30
0.0
 10
91.9578777547882
 20
-141.2943791313432
 30
0.0
 10
92.01297931922
 20
-141.2943791313432
 30
0.0
 10
92.06878876224063
 20
-141.2943791313432
 30
0.0
 10
92.11359153887538
 20
-141.249611631354
 30
0.0
 10
92.11359153887538
 20
-141.1944724647016
 30
0.0
  0
SPLINE
  5
83
330
1F
100
AcDbEntity
  8
_U+30EC_U+30A4_U+30E4_U+30FC 1
 62
     7
420
 16777215
370
     9
100
AcDbSpline
210
0.0
220
0.0
230
1.0
 70
    11
 71
     3
 72
    17
 73
    13
 74
     0
 42
0.0000000001
 43
0.0000000001
 12
1.0
 22
0.0
 32
0.0
 13
1.0
 23
0.0
 33
0.0
 40
0.0
 40
0.0
 40
0.0
 40
0.0
 40
1.0
 40
1.0
 40
1.0
 40
2.0
 40
2.0
 40
2.0
 40
3.0
 40
3.0
 40
3.0
 40
4.0
 40
4.0
 40
4.0
 40
4.0
 10
111.1129321652729
 20
-137.1947132990347
 30
0.0
 10
111.1129321652729
 20
-137.1389038546042
 30
0.0
 10
111.0681646664151
 20
-137.0941363546157
 30
0.0
 10
111.0130255011551
 20
-137.0941363546157
 30
0.0
 10
110.957921613672
 20
-137.0941363546157
 30
0.0
 10
110.9131188370373
 20
-137.1389038546042
 30
0.0
 10
110.9131188370373
 20
-137.1947132990347
 30
0.0
 10
110.9131188370373
 20
-137.2498524656878
 30
0.0
 10
110.957921613672
 20
-137.2946199656763
 30
0.0
 10
111.0130255011551
 20
-137.2946199656763
 30
0.0
 10
111.0681646664151
 20
-137.2946199656763
 30
0.0
 10
111.1129321652729
 20
-137.2498524656878
 30
0.0
 10
111.1129321652729
 20
-137.1947132990347
 30
0.0
  0
SPLINE
  5
84
330
1F
100
AcDbEntity
  8
_U+30EC_U+30A4_U+30E4_U+30FC 1
 62
     7
420
 16777215
370
     9
100
AcDbSpline
210
0.0
220
0.0
230
1.0
 70
    11
 71
     3
 72
    17
 73
    13
 74
     0
 42
0.0000000001
 43
0.0000000001
 12
1.0
 22
0.0
 32
0.0
 13
1.0
 23
0.0
 33
0.0
 40
0.0
 40
0.0
 40
0.0
 40
0.0
 40
1.0
 40
1.0
 40
1.0
 40
2.0
 40
2.0
 40
2.0
 40
3.0
 40
3.0
 40
3.0
 40
4.0
 40
4.0
 40
4.0
 40
4.0
 10
111.1129321652729
 20
-134.1947263553403
 30
0.0
 10
111.1129321652729
 20
-134.1389169109099
 30
0.0
 10
111.0681646664151
 20
-134.0941494109207
 30
0.0
 10
111.0130255011551
 20
-134.0941494109207
 30
0.0
 10
110.957921613672
 20
-134.0941494109207
 30
0.0
 10
110.9131188370373
 20
-134.1389169109099
 30
0.0
 10
110.9131188370373
 20
-134.1947263553403
 30
0.0
 10
110.9131188370373
 20
-134.2498655219934
 30
0.0
 10
110.957921613672
 20
-134.294633021982
 30
0.0
 10
111.0130255011551
 20
-134.294633021982
 30
0.0
 10
111.0681646664151
 20
-134.294633021982
 30
0.0
 10
111.1129321652729
 20
-134.2498655219934
 30
0.0
 10
111.1129321652729
 20
-134.1947263553403
 30
0.0
  0
SPLINE
  5
85
330
1F
100
AcDbEntity
  8
_U+30EC_U+30A4_U+30E4_U+30FC 1
 62
     7
420
 16777215
370
     9
100
AcDbSpline
210
0.0
220
0.0
230
1.0
 70
    11
 71
     3
 72
    17
 73
    13
 74
     0
 42
0.0000000001
 43
0.0000000001
 12
1.0
 22
0.0
 32
0.0
 13
1.0
 23
0.0
 33
0.0
 40
0.0
 40
0.0
 40
0.0
 40
0.0
 40
1.0
 40
1.0
 40
1.0
 40
2.0
 40
2.0
 40
2.0
 40
3.0
 40
3.0
 40
3.0
 40
4.0
 40
4.0
 40
4.0
 40
4.0
 10
111.1129321652729
 20
-122.6946646915486
 30
0.0
 10
111.1129321652729
 20
-122.6395255248958
 30
0.0
 10
111.0681646664151
 20
-122.594758024907
 30
0.0
 10
111.0130255011551
 20
-122.594758024907
 30
0.0
 10
110.957921613672
 20
-122.594758024907
 30
0.0
 10
110.9131188370373
 20
-122.6395255248958
 30
0.0
 10
110.9131188370373
 20
-122.6946646915486
 30
0.0
 10
110.9131188370373
 20
-122.7497685804238
 30
0.0
 10
110.957921613672
 20
-122.7945713581902
 30
0.0
 10
111.0130255011551
 20
-122.7945713581902
 30
0.0
 10
111.0681646664151
 20
-122.7945713581902
 30
0.0
 10
111.1129321652729
 20
-122.7497685804238
 30
0.0
 10
111.1129321652729
 20
-122.6946646915486
 30
0.0
  0
SPLINE
  5
86
330
1F
100
AcDbEntity
  8
_U+30EC_U+30A4_U+30E4_U+30FC 1
 62
     7
420
 16777215
370
     9
100
AcDbSpline
210
0.0
220
0.0
230
1.0
 70
    11
 71
     3
 72
    17
 73
    13
 74
     0
 42
0.0000000001
 43
0.0000000001
 12
1.0
 22
0.0
 32
0.0
 13
1.0
 23
0.0
 33
0.0
 40
0.0
 40
0.0
 40
0.0
 40
0.0
 40
1.0
 40
1.0
 40
1.0
 40
2.0
 40
2.0
 40
2.0
 40
3.0
 40
3.0
 40
3.0
 40
4.0
 40
4.0
 40
4.0
 40
4.0
 10
107.1131731006486
 20
-118.6945527481043
 30
0.0
 10
107.1131731006486
 20
-118.639448859229
 30
0.0
 10
107.0684083065663
 20
-118.5946460814626
 30
0.0
 10
107.0132664365308
 20
-118.5946460814626
 30
0.0
 10
106.9574569935102
 20
-118.5946460814626
 30
0.0
 10
106.9126894946523
 20
-118.639448859229
 30
0.0
 10
106.9126894946523
 20
-118.6945527481043
 30
0.0
 10
106.9126894946523
 20
-118.7500446925348
 30
0.0
 10
106.9574569935102
 20
-118.7948121925237
 30
0.0
 10
107.0132664365308
 20
-118.7948121925237
 30
0.0
 10
107.0684083065663
 20
-118.7948121925237
 30
0.0
 10
107.1131731006486
 20
-118.7500446925348
 30
0.0
 10
107.1131731006486
 20
-118.6945527481043
 30
0.0
  0
SPLINE
  5
87
330
1F
100
AcDbEntity
  8
_U+30EC_U+30A4_U+30E4_U+30FC 1
 62
     7
420
 16777215
370
     9
100
AcDbSpline
210
0.0
220
0.0
230
1.0
 70
    11
 71
     3
 72
    17
 73
    13
 74
     0
 42
0.0000000001
 43
0.0000000001
 12
1.0
 22
0.0
 32
0.0
 13
1.0
 23
0.0
 33
0.0
 40
0.0
 40
0.0
 40
0.0
 40
0.0
 40
1.0
 40
1.0
 40
1.0
 40
2.0
 40
2.0
 40
2.0
 40
3.0
 40
3.0
 40
3.0
 40
4.0
 40
4.0
 40
4.0
 40
4.0
 10
111.1129321652729
 20
-123.6944369135208
 30
0.0
 10
111.1129321652729
 20
-123.6392977468681
 30
0.0
 10
111.0681646664151
 20
-123.5945302468792
 30
0.0
 10
111.0130255011551
 20
-123.5945302468792
 30
0.0
 10
110.957921613672
 20
-123.5945302468792
 30
0.0
 10
110.9131188370373
 20
-123.6392977468681
 30
0.0
 10
110.9131188370373
 20
-123.6944369135208
 30
0.0
 10
110.9131188370373
 20
-123.7498935801735
 30
0.0
 10
110.957921613672
 20
-123.7946963579402
 30
0.0
 10
111.0130255011551
 20
-123.7946963579402
 30
0.0
 10
111.0681646664151
 20
-123.7946963579402
 30
0.0
 10
111.1129321652729
 20
-123.7498935801735
 30
0.0
 10
111.1129321652729
 20
-123.6944369135208
 30
0.0
  0
SPLINE
  5
88
330
1F
100
AcDbEntity
  8
_U+30EC_U+30A4_U+30E4_U+30FC 1
 62
     7
420
 16777215
370
     9
100
AcDbSpline
210
0.0
220
0.0
230
1.0
 70
    11
 71
     3
 72
    17
 73
    13
 74
     0
 42
0.0000000001
 43
0.0000000001
 12
1.0
 22
0.0
 32
0.0
 13
1.0
 23
0.0
 33
0.0
 40
0.0
 40
0.0
 40
0.0
 40
0.0
 40
1.0
 40
1.0
 40
1.0
 40
2.0
 40
2.0
 40
2.0
 40
3.0
 40
3.0
 40
3.0
 40
4.0
 40
4.0
 40
4.0
 40
4.0
 10
70.11355848903187
 20
-141.1944724647016
 30
0.0
 10
70.11355848903187
 20
-141.139368575826
 30
0.0
 10
70.06875571239712
 20
-141.0945657980599
 30
0.0
 10
70.01365182491405
 20
-141.0945657980599
 30
0.0
 10
69.95851265965409
 20
-141.0945657980599
 30
0.0
 10
69.91374516079621
 20
-141.139368575826
 30
0.0
 10
69.91374516079621
 20
-141.1944724647016
 30
0.0
 10
69.91374516079621
 20
-141.249611631354
 30
0.0
 10
69.95851265965409
 20
-141.2943791313432
 30
0.0
 10
70.01365182491405
 20
-141.2943791313432
 30
0.0
 10
70.06875571239712
 20
-141.2943791313432
 30
0.0
 10
70.11355848903187
 20
-141.249611631354
 30
0.0
 10
70.11355848903187
 20
-141.1944724647016
 30
0.0
  0
SPLINE
  5
89
330
1F
100
AcDbEntity
  8
_U+30EC_U+30A4_U+30E4_U+30FC 1
 62
     7
420
 16777215
370
     9
100
AcDbSpline
210
0.0
220
0.0
230
1.0
 70
    11
 71
     3
 72
    17
 73
    13
 74
     0
 42
0.0000000001
 43
0.0000000001
 12
1.0
 22
0.0
 32
0.0
 13
1.0
 23
0.0
 33
0.0
 40
0.0
 40
0.0
 40
0.0
 40
0.0
 40
1.0
 40
1.0
 40
1.0
 40
2.0
 40
2.0
 40
2.0
 40
3.0
 40
3.0
 40
3.0
 40
4.0
 40
4.0
 40
4.0
 40
4.0
 10
70.11355848903187
 20
-118.6945527481043
 30
0.0
 10
70.11355848903187
 20
-118.639448859229
 30
0.0
 10
70.06875571239712
 20
-118.5946460814626
 30
0.0
 10
70.01365182491405
 20
-118.5946460814626
 30
0.0
 10
69.95851265965409
 20
-118.5946460814626
 30
0.0
 10
69.91374516079621
 20
-118.639448859229
 30
0.0
 10
69.91374516079621
 20
-118.6945527481043
 30
0.0
 10
69.91374516079621
 20
-118.7500446925348
 30
0.0
 10
69.95851265965409
 20
-118.7948121925237
 30
0.0
 10
70.01365182491405
 20
-118.7948121925237
 30
0.0
 10
70.06875571239712
 20
-118.7948121925237
 30
0.0
 10
70.11355848903187
 20
-118.7500446925348
 30
0.0
 10
70.11355848903187
 20
-118.6945527481043
 30
0.0
  0
POLYLINE
  5
8A
330
1F
100
AcDbEntity
  8
_U+30EC_U+30A4_U+30E4_U+30FC 1
 62
     7
420
 16777215
370
     9
100
AcDb2dPolyline
 66
     1
 10
0.0
 20
0.0
 30
0.0
  0
VERTEX
  5
8B
330
8A
100
AcDbEntity
  8
_U+30EC_U+30A4_U+30E4_U+30FC 1
 62
     7
420
 16777215
370
     9
100
AcDbVertex
100
AcDb2dVertex
 10
111.0130255011551
 20
-122.6946646915486
 30
0.0
  0
VERTEX
  5
8C
330
8A
100
AcDbEntity
  8
_U+30EC_U+30A4_U+30E4_U+30FC 1
 62
     7
420
 16777215
370
     9
100
AcDbVertex
100
AcDb2dVertex
 10
111.0130255011551
 20
-118.9243521924912
 30
0.0
  0
SEQEND
  5
8D
330
8A
100
AcDbEntity
  8
_U+30EC_U+30A4_U+30E4_U+30FC 1
 62
     7
420
 16777215
370
     9
  0
POLYLINE
  5
8E
330
1F
100
AcDbEntity
  8
_U+30EC_U+30A4_U+30E4_U+30FC 1
 62
     7
420
 16777215
370
     9
100
AcDb2dPolyline
 66
     1
 10
0.0
 20
0.0
 30
0.0
  0
VERTEX
  5
8F
330
8E
100
AcDbEntity
  8
_U+30EC_U+30A4_U+30E4_U+30FC 1
 62
     7
420
 16777215
370
     9
100
AcDbVertex
100
AcDb2dVertex
 10
111.0130255011551
 20
-122.6946646915486
 30
0.0
  0
VERTEX
  5
90
330
8E
100
AcDbEntity
  8
_U+30EC_U+30A4_U+30E4_U+30FC 1
 62
     7
420
 16777215
370
     9
100
AcDbVertex
100
AcDb2dVertex
 10
111.0130255011551
 20
-123.6944369135208
 30
0.0
  0
SEQEND
  5
91
330
8E
100
AcDbEntity
  8
_U+30EC_U+30A4_U+30E4_U+30FC 1
 62
     7
420
 16777215
370
     9
  0
POLYLINE
  5
92
330
1F
100
AcDbEntity
  8
_U+30EC_U+30A4_U+30E4_U+30FC 1
 62
     7
420
 16777215
370
     9
100
AcDb2dPolyline
 66
     1
 10
0.0
 20
0.0
 30
0.0
  0
VERTEX
  5
93
330
92
100
AcDbEntity
  8
_U+30EC_U+30A4_U+30E4_U+30FC 1
 62
     7
420
 16777215
370
     9
100
AcDbVertex
100
AcDb2dVertex
 10
109.552984149515
 20
-122.6946646915486
 30
0.0
  0
VERTEX
  5
94
330
92
100
AcDbEntity
  8
_U+30EC_U+30A4_U+30E4_U+30FC 1
 62
     7
420
 16777215
370
     9
100
AcDbVertex
100
AcDb2dVertex
 10
112.012797697871
 20
-122.6946646915486
 30
0.0
  0
SEQEND
  5
95
330
92
100
AcDbEntity
  8
_U+30EC_U+30A4_U+30E4_U+30FC 1
 62
     7
420
 16777215
370
     9
  0
POLYLINE
  5
96
330
1F
100
AcDbEntity
  8
_U+30EC_U+30A4_U+30E4_U+30FC 1
 62
     7
420
 16777215
370
     9
100
AcDb2dPolyline
 66
     1
 10
0.0
 20
0.0
 30
0.0
  0
VERTEX
  5
97
330
96
100
AcDbEntity
  8
_U+30EC_U+30A4_U+30E4_U+30FC 1
 62
     7
420
 16777215
370
     9
100
AcDbVertex
100
AcDb2dVertex
 10
109.552984149515
 20
-123.6944369135208
 30
0.0
  0
VERTEX
  5
98
330
96
100
AcDbEntity
  8
_U+30EC_U+30A4_U+30E4_U+30FC 1
 62
     7
420
 16777215
370
     9
100
AcDbVertex
100
AcDb2dVertex
 10
112.012797697871
 20
-123.6944369135208
 30
0.0
  0
SEQEND
  5
99
330
96
100
AcDbEntity
  8
_U+30EC_U+30A4_U+30E4_U+30FC 1
 62
     7
420
 16777215
370
     9
  0
INSERT
  5
9B
330
1F
100
AcDbEntity
  8
_U+30EC_U+30A4_U+30E4_U+30FC 1
100
AcDbBlockReference
  2
block 2
 10
0.0
 20
0.0
 30
0.0
  0
POLYLINE
  5
A0
330
1F
100
AcDbEntity
  8
_U+30EC_U+30A4_U+30E4_U+30FC 1
 62
     7
420
 16777215
370
     9
100
AcDb2dPolyline
 66
     1
 10
0.0
 20
0.0
 30
0.0
  0
VERTEX
  5
A1
330
A0
100
AcDbEntity
  8
_U+30EC_U+30A4_U+30E4_U+30FC 1
 62
     7
420
 16777215
370
     9
100
AcDbVertex
100
AcDb2dVertex
 10
82.01359929654765
 20
-141.1944724647016
 30
0.0
  0
VERTEX
  5
A2
330
A0
100
AcDbEntity
  8
_U+30EC_U+30A4_U+30E4_U+30FC 1
 62
     7
420
 16777215
370
     9
100
AcDbVertex
100
AcDb2dVertex
 10
92.01297931922
 20
-141.1944724647016
 30
0.0
  0
SEQEND
  5
A3
330
A0
100
AcDbEntity
  8
_U+30EC_U+30A4_U+30E4_U+30FC 1
 62
     7
420
 16777215
370
     9
  0
POLYLINE
  5
A4
330
1F
100
AcDbEntity
  8
_U+30EC_U+30A4_U+30E4_U+30FC 1
 62
     7
420
 16777215
370
     9
100
AcDb2dPolyline
 66
     1
 10
0.0
 20
0.0
 30
0.0
  0
VERTEX
  5
A5
330
A4
100
AcDbEntity
  8
_U+30EC_U+30A4_U+30E4_U+30FC 1
 62
     7
420
 16777215
370
     9
100
AcDbVertex
100
AcDb2dVertex
 10
92.01297931922
 20
-139.7344663539554
 30
0.0
  0
VERTEX
  5
A6
330
A4
100
AcDbEntity
  8
_U+30EC_U+30A4_U+30E4_U+30FC 1
 62
     7
420
 16777215
370
     9
100
AcDbVertex
100
AcDb2dVertex
 10
92.01297931922
 20
-142.1942446866735
 30
0.0
  0
SEQEND
  5
A7
330
A4
100
AcDbEntity
  8
_U+30EC_U+30A4_U+30E4_U+30FC 1
 62
     7
420
 16777215
370
     9
  0
INSERT
  5
A9
330
1F
100
AcDbEntity
  8
_U+30EC_U+30A4_U+30E4_U+30FC 1
100
AcDbBlockReference
  2
block 3
 10
0.0
 20
0.0
 30
0.0
  0
POLYLINE
  5
B1
330
1F
100
AcDbEntity
  8
_U+30EC_U+30A4_U+30E4_U+30FC 1
 62
     7
420
 16777215
370
     9
100
AcDb2dPolyline
 66
     1
 10
0.0
 20
0.0
 30
0.0
  0
VERTEX
  5
B2
330
B1
100
AcDbEntity
  8
_U+30EC_U+30A4_U+30E4_U+30FC 1
 62
     7
420
 16777215
370
     9
100
AcDbVertex
100
AcDb2dVertex
 10
111.0130255011551
 20
-137.1947132990347
 30
0.0
  0
VERTEX
  5
B3
330
B1
100
AcDbEntity
  8
_U+30EC_U+30A4_U+30E4_U+30FC 1
 62
     7
420
 16777215
370
     9
100
AcDbVertex
100
AcDb2dVertex
 10
111.0130255011551
 20
-134.1947263553403
 30
0.0
  0
SEQEND
  5
B4
330
B1
100
AcDbEntity
  8
_U+30EC_U+30A4_U+30E4_U+30FC 1
 62
     7
420
 16777215
370
     9
  0
POLYLINE
  5
B5
330
1F
100
AcDbEntity
  8
_U+30EC_U+30A4_U+30E4_U+30FC 1
 62
     7
420
 16777215
370
     9
100
AcDb2dPolyline
 66
     1
 10
0.0
 20
0.0
 30
0.0
  0
VERTEX
  5
B6
330
B5
100
AcDbEntity
  8
_U+30EC_U+30A4_U+30E4_U+30FC 1
 62
     7
420
 16777215
370
     9
100
AcDbVertex
100
AcDb2dVertex
 10
94.55340258774173
 20
-137.1947132990347
 30
0.0
  0
VERTEX
  5
B7
330
B5
100
AcDbEntity
  8
_U+30EC_U+30A4_U+30E4_U+30FC 1
 62
     7
420
 16777215
370
     9
100
AcDbVertex
100
AcDb2dVertex
 10
112.012797697871
 20
-137.1947132990347
 30
0.0
  0
SEQEND
  5
B8
330
B5
100
AcDbEntity
  8
_U+30EC_U+30A4_U+30E4_U+30FC 1
 62
     7
420
 16777215
370
     9
  0
INSERT
  5
BA
330
1F
100
AcDbEntity
  8
_U+30EC_U+30A4_U+30E4_U+30FC 1
100
AcDbBlockReference
  2
block 4
 10
0.0
 20
0.0
 30
0.0
  0
POLYLINE
  5
BF
330
1F
100
AcDbEntity
  8
_U+30EC_U+30A4_U+30E4_U+30FC 1
 62
     7
420
 16777215
370
     9
100
AcDb2dPolyline
 66
     1
 10
0.0
 20
0.0
 30
0.0
  0
VERTEX
  5
C0
330
BF
100
AcDbEntity
  8
_U+30EC_U+30A4_U+30E4_U+30FC 1
 62
     7
420
 16777215
370
     9
100
AcDbVertex
100
AcDb2dVertex
 10
70.01365182491405
 20
-118.6945527481043
 30
0.0
  0
VERTEX
  5
C1
330
BF
100
AcDbEntity
  8
_U+30EC_U+30A4_U+30E4_U+30FC 1
 62
     7
420
 16777215
370
     9
100
AcDbVertex
100
AcDb2dVertex
 10
107.0132664365308
 20
-118.6945527481043
 30
0.0
  0
SEQEND
  5
C2
330
BF
100
AcDbEntity
  8
_U+30EC_U+30A4_U+30E4_U+30FC 1
 62
     7
420
 16777215
370
     9
  0
POLYLINE
  5
C3
330
1F
100
AcDbEntity
  8
_U+30EC_U+30A4_U+30E4_U+30FC 1
 62
     7
420
 16777215
370
     9
100
AcDb2dPolyline
 66
     1
 10
0.0
 20
0.0
 30
0.0
  0
VERTEX
  5
C4
330
C3
100
AcDbEntity
  8
_U+30EC_U+30A4_U+30E4_U+30FC 1
 62
     7
420
 16777215
370
     9
100
AcDbVertex
100
AcDb2dVertex
 10
70.01365182491405
 20
-120.154594136628
 30
0.0
  0
VERTEX
  5
C5
330
C3
100
AcDbEntity
  8
_U+30EC_U+30A4_U+30E4_U+30FC 1
 62
     7
420
 16777215
370
     9
100
AcDbVertex
100
AcDb2dVertex
 10
70.01365182491405
 20
-117.6944630261318
 30
0.0
  0
SEQEND
  5
C6
330
C3
100
AcDbEntity
  8
_U+30EC_U+30A4_U+30E4_U+30FC 1
 62
     7
420
 16777215
370
     9
  0
POLYLINE
  5
C7
330
1F
100
AcDbEntity
  8
_U+30EC_U+30A4_U+30E4_U+30FC 1
 62
     7
420
 16777215
370
     9
100
AcDb2dPolyline
 66
     1
 10
0.0
 20
0.0
 30
0.0
  0
VERTEX
  5
C8
330
C7
100
AcDbEntity
  8
_U+30EC_U+30A4_U+30E4_U+30FC 1
 62
     7
420
 16777215
370
     9
100
AcDbVertex
100
AcDb2dVertex
 10
107.0132664365308
 20
-120.154594136628
 30
0.0
  0
VERTEX
  5
C9
330
C7
100
AcDbEntity
  8
_U+30EC_U+30A4_U+30E4_U+30FC 1
 62
     7
420
 16777215
370
     9
100
AcDbVertex
100
AcDb2dVertex
 10
107.0132664365308
 20
-117.6944630261318
 30
0.0
  0
SEQEND
  5
CA
330
C7
100
AcDbEntity
  8
_U+30EC_U+30A4_U+30E4_U+30FC 1
 62
     7
420
 16777215
370
     9
  0
INSERT
  5
CC
330
1F
100
AcDbEntity
  8
_U+30EC_U+30A4_U+30E4_U+30FC 1
100
AcDbBlockReference
  2
block 5
 10
0.0
 20
0.0
 30
0.0
  0
POLYLINE
  5
D3
330
1F
100
AcDbEntity
  8
_U+30EC_U+30A4_U+30E4_U+30FC 1
 62
     7
420
 16777215
370
     9
100
AcDb2dPolyline
 66
     1
 10
0.0
 20
0.0
 30
0.0
  0
VERTEX
  5
D4
330
D3
100
AcDbEntity
  8
_U+30EC_U+30A4_U+30E4_U+30FC 1
 62
     7
420
 16777215
370
     9
100
AcDbVertex
100
AcDb2dVertex
 10
70.01365182491405
 20
-141.1944724647016
 30
0.0
  0
VERTEX
  5
D5
330
D3
100
AcDbEntity
  8
_U+30EC_U+30A4_U+30E4_U+30FC 1
 62
     7
420
 16777215
370
     9
100
AcDbVertex
100
AcDb2dVertex
 10
82.01359929654765
 20
-141.1944724647016
 30
0.0
  0
SEQEND
  5
D6
330
D3
100
AcDbEntity
  8
_U+30EC_U+30A4_U+30E4_U+30FC 1
 62
     7
420
 16777215
370
     9
  0
POLYLINE
  5
D7
330
1F
100
AcDbEntity
  8
_U+30EC_U+30A4_U+30E4_U+30FC 1
 62
     7
420
 16777215
370
     9
100
AcDb2dPolyline
 66
     1
 10
0.0
 20
0.0
 30
0.0
  0
VERTEX
  5
D8
330
D7
100
AcDbEntity
  8
_U+30EC_U+30A4_U+30E4_U+30FC 1
 62
     7
420
 16777215
370
     9
100
AcDbVertex
100
AcDb2dVertex
 10
70.01365182491405
 20
-126.2351777462191
 30
0.0
  0
VERTEX
  5
D9
330
D7
100
AcDbEntity
  8
_U+30EC_U+30A4_U+30E4_U+30FC 1
 62
     7
420
 16777215
370
     9
100
AcDbVertex
100
AcDb2dVertex
 10
70.01365182491405
 20
-142.1942446866735
 30
0.0
  0
SEQEND
  5
DA
330
D7
100
AcDbEntity
  8
_U+30EC_U+30A4_U+30E4_U+30FC 1
 62
     7
420
 16777215
370
     9
  0
POLYLINE
  5
DB
330
1F
100
AcDbEntity
  8
_U+30EC_U+30A4_U+30E4_U+30FC 1
 62
     7
420
 16777215
370
     9
100
AcDb2dPolyline
 66
     1
 10
0.0
 20
0.0
 30
0.0
  0
VERTEX
  5
DC
330
DB
100
AcDbEntity
  8
_U+30EC_U+30A4_U+30E4_U+30FC 1
 62
     7
420
 16777215
370
     9
100
AcDbVertex
100
AcDb2dVertex
 10
82.01359929654765
 20
-139.7344663539554
 30
0.0
  0
VERTEX
  5
DD
330
DB
100
AcDbEntity
  8
_U+30EC_U+30A4_U+30E4_U+30FC 1
 62
     7
420
 16777215
370
     9
100
AcDbVertex
100
AcDb2dVertex
 10
82.01359929654765
 20
-142.1942446866735
 30
0.0
  0
SEQEND
  5
DE
330
DB
100
AcDbEntity
  8
_U+30EC_U+30A4_U+30E4_U+30FC 1
 62
     7
420
 16777215
370
     9
  0
INSERT
  5
E0
330
1F
100
AcDbEntity
  8
_U+30EC_U+30A4_U+30E4_U+30FC 1
100
AcDbBlockReference
  2
block 6
 10
0.0
 20
0.0
 30
0.0
  0
POLYLINE
  5
E7
330
1F
100
AcDbEntity
  8
_U+30EC_U+30A4_U+30E4_U+30FC 1
 62
     7
420
 16777215
370
     9
100
AcDb2dPolyline
 66
     1
 10
0.0
 20
0.0
 30
0.0
  0
VERTEX
  5
E8
330
E7
100
AcDbEntity
  8
_U+30EC_U+30A4_U+30E4_U+30FC 1
 62
     7
420
 16777215
370
     9
100
AcDbVertex
100
AcDb2dVertex
 10
111.0130255011551
 20
-134.1947263553403
 30
0.0
  0
VERTEX
  5
E9
330
E7
100
AcDbEntity
  8
_U+30EC_U+30A4_U+30E4_U+30FC 1
 62
     7
420
 16777215
370
     9
100
AcDbVertex
100
AcDb2dVertex
 10
111.0130255011551
 20
-123.6944369135208
 30
0.0
  0
SEQEND
  5
EA
330
E7
100
AcDbEntity
  8
_U+30EC_U+30A4_U+30E4_U+30FC 1
 62
     7
420
 16777215
370
     9
  0
POLYLINE
  5
EB
330
1F
100
AcDbEntity
  8
_U+30EC_U+30A4_U+30E4_U+30FC 1
 62
     7
420
 16777215
370
     9
100
AcDb2dPolyline
 66
     1
 10
0.0
 20
0.0
 30
0.0
  0
VERTEX
  5
EC
330
EB
100
AcDbEntity
  8
_U+30EC_U+30A4_U+30E4_U+30FC 1
 62
     7
420
 16777215
370
     9
100
AcDbVertex
100
AcDb2dVertex
 10
94.55340258774173
 20
-134.1947263553403
 30
0.0
  0
VERTEX
  5
ED
330
EB
100
AcDbEntity
  8
_U+30EC_U+30A4_U+30E4_U+30FC 1
 62
     7
420
 16777215
370
     9
100
AcDbVertex
100
AcDb2dVertex
 10
112.012797697871
 20
-134.1947263553403
 30
0.0
  0
SEQEND
  5
EE
330
EB
100
AcDbEntity
  8
_U+30EC_U+30A4_U+30E4_U+30FC 1
 62
     7
420
 16777215
370
     9
  0
INSERT
  5
F0
330
1F
100
AcDbEntity
  8
_U+30EC_U+30A4_U+30E4_U+30FC 1
100
AcDbBlockReference
  2
block 7
 10
0.0
 20
0.0
 30
0.0
  0
ENDSEC
  0
SECTION
  2
OBJECTS
  0
DICTIONARY
  5
C
330
0
100
AcDbDictionary
281
     1
  3
ACAD_GROUP
350
D
  3
ACAD_LAYOUT
350
1A
  3
ACAD_MATERIAL
350
3B
  3
ACAD_MLEADERSTYLE
350
103
  3
ACAD_MLINESTYLE
350
17
  3
ACAD_PLOTSETTINGS
350
19
  3
ACAD_PLOTSTYLENAME
350
E
  3
ACAD_TABLESTYLE
350
102
  3
ACAD_VISUALSTYLE
350
2A
  0
SUN
  5
3F
330
29
100
AcDbSun
 90
        1
290
     0
 63
     7
421
 16777215
 40
1.0
291
     1
 91
  2455826
 92
 54000000
292
     0
 70
     2
 71
   256
280
     1
  0
DICTIONARY
  5
D
102
{ACAD_REACTORS
330
C
102
}
330
C
100
AcDbDictionary
281
     1
  0
DICTIONARY
  5
1A
102
{ACAD_REACTORS
330
C
102
}
330
C
100
AcDbDictionary
281
     1
  3
Layout1
350
1E
  3
Layout2
350
26
  3
Model
350
22
  0
DICTIONARY
  5
3B
102
{ACAD_REACTORS
330
C
102
}
330
C
100
AcDbDictionary
281
     1
  3
ByBlock
350
3D
  3
ByLayer
350
3C
  3
Global
350
3E
  0
DICTIONARY
  5
103
102
{ACAD_REACTORS
330
C
102
}
330
C
100
AcDbDictionary
281
     1
  0
DICTIONARY
  5
17
102
{ACAD_REACTORS
330
C
102
}
330
C
100
AcDbDictionary
281
     1
  3
Standard
350
18
  0
DICTIONARY
  5
19
102
{ACAD_REACTORS
330
C
102
}
330
C
100
AcDbDictionary
281
     1
  0
ACDBDICTIONARYWDFLT
  5
E
102
{ACAD_REACTORS
330
C
102
}
330
C
100
AcDbDictionary
281
     1
  3
Normal
350
F
100
AcDbDictionaryWithDefault
340
F
  0
DICTIONARY
  5
102
102
{ACAD_REACTORS
330
C
102
}
330
C
100
AcDbDictionary
281
     1
  0
DICTIONARY
  5
2A
102
{ACAD_REACTORS
330
C
102
}
330
C
100
AcDbDictionary
281
     1
  3
2dWireframe
350
2F
  3
3D Hidden
350
31
  3
3dWireframe
350
30
  3
Basic
350
32
  3
Brighten
350
36
  3
ColorChange
350
3A
  3
Conceptual
350
34
  3
Dim
350
35
  3
Facepattern
350
39
  3
Flat
350
2B
  3
FlatWithEdges
350
2C
  3
Gouraud
350
2D
  3
GouraudWithEdges
350
2E
  3
Linepattern
350
38
  3
Realistic
350
33
  3
Thicken
350
37
  0
LAYOUT
  5
1E
102
{ACAD_REACTORS
330
1A
102
}
330
1A
100
AcDbPlotSettings
  1

  2
none_device
  4

  6

 40
0.0
 41
0.0
 42
0.0
 43
0.0
 44
0.0
 45
0.0
 46
0.0
 47
0.0
 48
0.0
 49
0.0
140
0.0
141
0.0
142
1.0
143
1.0
 70
   688
 72
     0
 73
     0
 74
     5
  7

 75
    16
 76
     0
 77
     2
 78
   300
147
1.0
148
0.0
149
0.0
100
AcDbLayout
  1
Layout1
 70
     1
 71
     1
 10
0.0
 20
0.0
 11
12.0
 21
9.0
 12
0.0
 22
0.0
 32
0.0
 14
1.000000000000000E+20
 24
1.000000000000000E+20
 34
1.000000000000000E+20
 15
-1.000000000000000E+20
 25
-1.000000000000000E+20
 35
-1.000000000000000E+20
146
0.0
 13
0.0
 23
0.0
 33
0.0
 16
1.0
 26
0.0
 36
0.0
 17
0.0
 27
1.0
 37
0.0
 76
     0
330
1B
  0
LAYOUT
  5
26
102
{ACAD_REACTORS
330
1A
102
}
330
1A
100
AcDbPlotSettings
  1

  2
none_device
  4

  6

 40
0.0
 41
0.0
 42
0.0
 43
0.0
 44
0.0
 45
0.0
 46
0.0
 47
0.0
 48
0.0
 49
0.0
140
0.0
141
0.0
142
1.0
143
1.0
 70
   688
 72
     0
 73
     0
 74
     5
  7

 75
    16
 76
     0
 77
     2
 78
   300
147
1.0
148
0.0
149
0.0
100
AcDbLayout
  1
Layout2
 70
     1
 71
     2
 10
0.0
 20
0.0
 11
0.0
 21
0.0
 12
0.0
 22
0.0
 32
0.0
 14
0.0
 24
0.0
 34
0.0
 15
0.0
 25
0.0
 35
0.0
146
0.0
 13
0.0
 23
0.0
 33
0.0
 16
1.0
 26
0.0
 36
0.0
 17
0.0
 27
1.0
 37
0.0
 76
     0
330
23
  0
LAYOUT
  5
22
102
{ACAD_REACTORS
330
1A
102
}
330
1A
100
AcDbPlotSettings
  1

  2
none_device
  4

  6

 40
0.0
 41
0.0
 42
0.0
 43
0.0
 44
0.0
 45
0.0
 46
0.0
 47
0.0
 48
0.0
 49
0.0
140
0.0
141
0.0
142
1.0
143
1.0
 70
  1712
 72
     0
 73
     0
 74
     0
  7

 75
     0
 76
     0
 77
     2
 78
   300
147
1.0
148
0.0
149
0.0
100
AcDbLayout
  1
Model
 70
     1
 71
     0
 10
0.0
 20
0.0
 11
12.0
 21
9.0
 12
0.0
 22
0.0
 32
0.0
 14
1.000000000000000E+20
 24
1.000000000000000E+20
 34
1.000000000000000E+20
 15
-1.000000000000000E+20
 25
-1.000000000000000E+20
 35
-1.000000000000000E+20
146
0.0
 13
0.0
 23
0.0
 33
0.0
 16
1.0
 26
0.0
 36
0.0
 17
0.0
 27
1.0
 37
0.0
 76
     0
330
1F
331
29
  0
MATERIAL
  5
3D
102
{ACAD_REACTORS
330
3B
102
}
330
3B
100
AcDbMaterial
  1
ByBlock
 72
     1
 94
      127
  0
MATERIAL
  5
3C
102
{ACAD_REACTORS
330
3B
102
}
330
3B
100
AcDbMaterial
  1
ByLayer
 72
     1
 94
      127
  0
MATERIAL
  5
3E
102
{ACAD_REACTORS
330
3B
102
}
330
3B
100
AcDbMaterial
  1
Global
 72
     1
 94
      127
  0
MLINESTYLE
  5
18
102
{ACAD_REACTORS
330
17
102
}
330
17
100
AcDbMlineStyle
  2
Standard
 70
     0
  3

 62
   256
 51
90.0
 52
90.0
 71
     2
 49
0.5
 62
   256
  6
BYLAYER
 49
-0.5
 62
   256
  6
BYLAYER
  0
ACDBPLACEHOLDER
  5
F
102
{ACAD_REACTORS
330
E
102
}
330
E
  0
VISUALSTYLE
  5
2F
102
{ACAD_REACTORS
330
2A
102
}
330
2A
100
AcDbVisualStyle
  2
2dWireframe
 70
     4
177
     2
291
     0
 71
     0
176
     1
 72
     2
176
     1
 73
     0
176
     1
 90
        0
176
     1
 40
-0.6
176
     1
 41
-30.0
176
     1
 62
     5
 63
     7
421
 16777215
176
     1
 74
     1
176
     1
 91
        4
176
     1
 64
     7
176
     1
 65
   257
176
     1
 75
     1
176
     1
175
     1
176
     1
 42
1.0
176
     1
 92
        0
176
     1
 66
   257
176
     1
 43
1.0
176
     1
 76
     1
176
     1
 77
     6
176
     1
 78
     2
176
     1
 67
     7
176
     1
 79
     5
176
     1
170
     0
176
     1
171
     0
176
     1
290
     0
176
     1
 93
        1
176
     1
 44
0.0
176
     1
173
     0
176
     1
  0
VISUALSTYLE
  5
31
102
{ACAD_REACTORS
330
2A
102
}
330
2A
100
AcDbVisualStyle
  2
3D Hidden
 70
     6
177
     2
291
     0
 71
     1
176
     1
 72
     2
176
     1
 73
     2
176
     1
 90
        0
176
     1
 40
-0.6
176
     1
 41
-30.0
176
     1
 62
     5
 63
     7
421
 16777215
176
     1
 74
     2
176
     1
 91
        2
176
     1
 64
     7
176
     1
 65
   257
176
     1
 75
     2
176
     1
175
     1
176
     1
 42
40.0
176
     1
 92
        0
176
     1
 66
   257
176
     1
 43
1.0
176
     1
 76
     1
176
     1
 77
     6
176
     1
 78
     2
176
     1
 67
     7
176
     1
 79
     3
176
     1
170
     0
176
     1
171
     0
176
     1
290
     0
176
     1
 93
        1
176
     1
 44
0.0
176
     1
173
     0
176
     1
  0
VISUALSTYLE
  5
30
102
{ACAD_REACTORS
330
2A
102
}
330
2A
100
AcDbVisualStyle
  2
3dWireframe
 70
     5
177
     2
291
     0
 71
     0
176
     1
 72
     2
176
     1
 73
     0
176
     1
 90
        0
176
     1
 40
-0.6
176
     1
 41
-30.0
176
     1
 62
     5
 63
     7
421
 16777215
176
     1
 74
     1
176
     1
 91
        4
176
     1
 64
     7
176
     1
 65
   257
176
     1
 75
     1
176
     1
175
     1
176
     1
 42
1.0
176
     1
 92
        0
176
     1
 66
   257
176
     1
 43
1.0
176
     1
 76
     1
176
     1
 77
     6
176
     1
 78
     2
176
     1
 67
     7
176
     1
 79
     5
176
     1
170
     0
176
     1
171
     0
176
     1
290
     0
176
     1
 93
        1
176
     1
 44
0.0
176
     1
173
     0
176
     1
  0
VISUALSTYLE
  5
32
102
{ACAD_REACTORS
330
2A
102
}
330
2A
100
AcDbVisualStyle
  2
Basic
 70
     7
177
     2
291
     1
 71
     1
176
     1
 72
     0
176
     1
 73
     1
176
     1
 90
        0
176
     1
 40
-0.6
176
     1
 41
-30.0
176
     1
 62
     5
 63
     7
421
 16777215
176
     1
 74
     0
176
     1
 91
        4
176
     1
 64
     7
176
     1
 65
   257
176
     1
 75
     1
176
     1
175
     1
176
     1
 42
1.0
176
     1
 92
        8
176
     1
 66
     7
176
     1
 43
1.0
176
     1
 76
     1
176
     1
 77
     6
176
     1
 78
     2
176
     1
 67
     7
176
     1
 79
     5
176
     1
170
     0
176
     1
171
     0
176
     1
290
     0
176
     1
 93
        1
176
     1
 44
0.0
176
     1
173
     0
176
     1
  0
VISUALSTYLE
  5
36
102
{ACAD_REACTORS
330
2A
102
}
330
2A
100
AcDbVisualStyle
  2
Brighten
 70
    12
177
     2
291
     1
 71
     2
176
     1
 72
     2
176
     1
 73
     0
176
     1
 90
        0
176
     1
 40
-0.6
176
     1
 41
-30.0
176
     1
 62
     5
 63
     7
421
 16777215
176
     1
 74
     1
176
     1
 91
        4
176
     1
 64
     7
176
     1
 65
   257
176
     1
 75
     1
176
     1
175
     1
176
     1
 42
1.0
176
     1
 92
        8
176
     1
 66
     7
176
     1
 43
1.0
176
     1
 76
     1
176
     1
 77
     6
176
     1
 78
     2
176
     1
 67
     7
176
     1
 79
     5
176
     1
170
     0
176
     1
171
     0
176
     1
290
     0
176
     1
 93
        1
176
     1
 44
50.0
176
     1
173
     0
176
     1
  0
VISUALSTYLE
  5
3A
102
{ACAD_REACTORS
330
2A
102
}
330
2A
100
AcDbVisualStyle
  2
ColorChange
 70
    16
177
     2
291
     1
 71
     2
176
     1
 72
     2
176
     1
 73
     3
176
     1
 90
        0
176
     1
 40
-0.6
176
     1
 41
-30.0
176
     1
 62
     5
 63
     8
421
  8421504
176
     1
 74
     1
176
     1
 91
        4
176
     1
 64
     7
176
     1
 65
   257
176
     1
 75
     1
176
     1
175
     1
176
     1
 42
1.0
176
     1
 92
        8
176
     1
 66
     8
424
  8421504
176
     1
 43
1.0
176
     1
 76
     1
176
     1
 77
     6
176
     1
 78
     2
176
     1
 67
     7
176
     1
 79
     5
176
     1
170
     0
176
     1
171
     0
176
     1
290
     0
176
     1
 93
        1
176
     1
 44
0.0
176
     1
173
     0
176
     1
  0
VISUALSTYLE
  5
34
102
{ACAD_REACTORS
330
2A
102
}
330
2A
100
AcDbVisualStyle
  2
Conceptual
 70
     9
177
     2
291
     0
 71
     3
176
     1
 72
     2
176
     1
 73
     0
176
     1
 90
        0
176
     1
 40
-0.6
176
     1
 41
-30.0
176
     1
 62
     5
 63
     7
421
 16777215
176
     1
 74
     2
176
     1
 91
        2
176
     1
 64
     7
176
     1
 65
   257
176
     1
 75
     1
176
     1
175
     1
176
     1
 42
40.0
176
     1
 92
        8
176
     1
 66
     7
176
     1
 43
1.0
176
     1
 76
     1
176
     1
 77
     6
176
     1
 78
     2
176
     1
 67
     7
176
     1
 79
     3
176
     1
170
     0
176
     1
171
     0
176
     1
290
     0
176
     1
 93
        1
176
     1
 44
0.0
176
     1
173
     0
176
     1
  0
VISUALSTYLE
  5
35
102
{ACAD_REACTORS
330
2A
102
}
330
2A
100
AcDbVisualStyle
  2
Dim
 70
    11
177
     2
291
     1
 71
     2
176
     1
 72
     2
176
     1
 73
     0
176
     1
 90
        0
176
     1
 40
-0.6
176
     1
 41
-30.0
176
     1
 62
     5
 63
     7
421
 16777215
176
     1
 74
     1
176
     1
 91
        4
176
     1
 64
     7
176
     1
 65
   257
176
     1
 75
     1
176
     1
175
     1
176
     1
 42
1.0
176
     1
 92
        8
176
     1
 66
     7
176
     1
 43
1.0
176
     1
 76
     1
176
     1
 77
     6
176
     1
 78
     2
176
     1
 67
     7
176
     1
 79
     5
176
     1
170
     0
176
     1
171
     0
176
     1
290
     0
176
     1
 93
        1
176
     1
 44
-50.0
176
     1
173
     0
176
     1
  0
VISUALSTYLE
  5
39
102
{ACAD_REACTORS
330
2A
102
}
330
2A
100
AcDbVisualStyle
  2
Facepattern
 70
    15
177
     2
291
     1
 71
     2
176
     1
 72
     2
176
     1
 73
     0
176
     1
 90
        0
176
     1
 40
-0.6
176
     1
 41
-30.0
176
     1
 62
     5
 63
     7
421
 16777215
176
     1
 74
     1
176
     1
 91
        4
176
     1
 64
     7
176
     1
 65
   257
176
     1
 75
     1
176
     1
175
     1
176
     1
 42
1.0
176
     1
 92
        8
176
     1
 66
     7
176
     1
 43
1.0
176
     1
 76
     1
176
     1
 77
     6
176
     1
 78
     2
176
     1
 67
     7
176
     1
 79
     5
176
     1
170
     0
176
     1
171
     0
176
     1
290
     0
176
     1
 93
        1
176
     1
 44
0.0
176
     1
173
     0
176
     1
  0
VISUALSTYLE
  5
2B
102
{ACAD_REACTORS
330
2A
102
}
330
2A
100
AcDbVisualStyle
  2
Flat
 70
     0
177
     2
291
     1
 71
     2
176
     1
 72
     1
176
     1
 73
     1
176
     1
 90
        2
176
     1
 40
-0.6
176
     1
 41
30.0
176
     1
 62
     5
 63
     7
421
 16777215
176
     1
 74
     0
176
     1
 91
        4
176
     1
 64
     7
176
     1
 65
   257
176
     1
 75
     1
176
     1
175
     1
176
     1
 42
1.0
176
     1
 92
        8
176
     1
 66
     7
176
     1
 43
1.0
176
     1
 76
     1
176
     1
 77
     6
176
     1
 78
     2
176
     1
 67
     7
176
     1
 79
     5
176
     1
170
     0
176
     1
171
     0
176
     1
290
     0
176
     1
 93
       13
176
     1
 44
0.0
176
     1
173
     0
176
     1
  0
VISUALSTYLE
  5
2C
102
{ACAD_REACTORS
330
2A
102
}
330
2A
100
AcDbVisualStyle
  2
FlatWithEdges
 70
     1
177
     2
291
     1
 71
     2
176
     1
 72
     1
176
     1
 73
     1
176
     1
 90
        2
176
     1
 40
-0.6
176
     1
 41
30.0
176
     1
 62
     5
 63
     7
421
 16777215
176
     1
 74
     1
176
     1
 91
        4
176
     1
 64
     7
176
     1
 65
   257
176
     1
 75
     1
176
     1
175
     1
176
     1
 42
1.0
176
     1
 92
        0
176
     1
 66
   257
176
     1
 43
1.0
176
     1
 76
     1
176
     1
 77
     6
176
     1
 78
     2
176
     1
 67
     7
176
     1
 79
     5
176
     1
170
     0
176
     1
171
     0
176
     1
290
     0
176
     1
 93
       13
176
     1
 44
0.0
176
     1
173
     0
176
     1
  0
VISUALSTYLE
  5
2D
102
{ACAD_REACTORS
330
2A
102
}
330
2A
100
AcDbVisualStyle
  2
Gouraud
 70
     2
177
     2
291
     1
 71
     2
176
     1
 72
     2
176
     1
 73
     1
176
     1
 90
        2
176
     1
 40
-0.6
176
     1
 41
30.0
176
     1
 62
     5
 63
     7
421
 16777215
176
     1
 74
     0
176
     1
 91
        4
176
     1
 64
     7
176
     1
 65
   257
176
     1
 75
     1
176
     1
175
     1
176
     1
 42
1.0
176
     1
 92
        0
176
     1
 66
     7
176
     1
 43
1.0
176
     1
 76
     1
176
     1
 77
     6
176
     1
 78
     2
176
     1
 67
     7
176
     1
 79
     5
176
     1
170
     0
176
     1
171
     0
176
     1
290
     0
176
     1
 93
       13
176
     1
 44
0.0
176
     1
173
     0
176
     1
  0
VISUALSTYLE
  5
2E
102
{ACAD_REACTORS
330
2A
102
}
330
2A
100
AcDbVisualStyle
  2
GouraudWithEdges
 70
     3
177
     2
291
     1
 71
     2
176
     1
 72
     2
176
     1
 73
     1
176
     1
 90
        2
176
     1
 40
-0.6
176
     1
 41
30.0
176
     1
 62
     5
 63
     7
421
 16777215
176
     1
 74
     1
176
     1
 91
        4
176
     1
 64
     7
176
     1
 65
   257
176
     1
 75
     1
176
     1
175
     1
176
     1
 42
1.0
176
     1
 92
        0
176
     1
 66
   257
176
     1
 43
1.0
176
     1
 76
     1
176
     1
 77
     6
176
     1
 78
     2
176
     1
 67
     7
176
     1
 79
     5
176
     1
170
     0
176
     1
171
     0
176
     1
290
     0
176
     1
 93
       13
176
     1
 44
0.0
176
     1
173
     0
176
     1
  0
VISUALSTYLE
  5
38
102
{ACAD_REACTORS
330
2A
102
}
330
2A
100
AcDbVisualStyle
  2
Linepattern
 70
    14
177
     2
291
     1
 71
     2
176
     1
 72
     2
176
     1
 73
     0
176
     1
 90
        0
176
     1
 40
-0.6
176
     1
 41
-30.0
176
     1
 62
     5
 63
     7
421
 16777215
176
     1
 74
     1
176
     1
 91
        4
176
     1
 64
     7
176
     1
 65
   257
176
     1
 75
     7
176
     1
175
     7
176
     1
 42
1.0
176
     1
 92
        8
176
     1
 66
     7
176
     1
 43
1.0
176
     1
 76
     1
176
     1
 77
     6
176
     1
 78
     2
176
     1
 67
     7
176
     1
 79
     5
176
     1
170
     0
176
     1
171
     0
176
     1
290
     0
176
     1
 93
        1
176
     1
 44
0.0
176
     1
173
     0
176
     1
  0
VISUALSTYLE
  5
33
102
{ACAD_REACTORS
330
2A
102
}
330
2A
100
AcDbVisualStyle
  2
Realistic
 70
     8
177
     2
291
     0
 71
     2
176
     1
 72
     2
176
     1
 73
     0
176
     1
 90
        0
176
     1
 40
-0.6
176
     1
 41
-30.0
176
     1
 62
     5
 63
     7
421
 16777215
176
     1
 74
     1
176
     1
 91
        0
176
     1
 64
     7
176
     1
 65
   257
176
     1
 75
     1
176
     1
175
     1
176
     1
 42
1.0
176
     1
 92
        8
176
     1
 66
     8
424
  7895160
176
     1
 43
1.0
176
     1
 76
     1
176
     1
 77
     6
176
     1
 78
     2
176
     1
 67
     7
176
     1
 79
     5
176
     1
170
     0
176
     1
171
     0
176
     1
290
     0
176
     1
 93
       13
176
     1
 44
0.0
176
     1
173
     0
176
     1
  0
VISUALSTYLE
  5
37
102
{ACAD_REACTORS
330
2A
102
}
330
2A
100
AcDbVisualStyle
  2
Thicken
 70
    13
177
     2
291
     1
 71
     2
176
     1
 72
     2
176
     1
 73
     0
176
     1
 90
        0
176
     1
 40
-0.6
176
     1
 41
-30.0
176
     1
 62
     5
 63
     7
421
 16777215
176
     1
 74
     1
176
     1
 91
        4
176
     1
 64
     7
176
     1
 65
   257
176
     1
 75
     1
176
     1
175
     1
176
     1
 42
1.0
176
     1
 92
       12
176
     1
 66
     7
176
     1
 43
1.0
176
     1
 76
     1
176
     1
 77
     6
176
     1
 78
     2
176
     1
 67
     7
176
     1
 79
     5
176
     1
170
     0
176
     1
171
     0
176
     1
290
     0
176
     1
 93
        1
176
     1
 44
0.0
176
     1
173
     0
176
     1
  0
ENDSEC
  0
EOF
