  0
SECTION
  2
HEADER
  9
$ACADVER
  1
AC1024
  9
$ACADMAINTVER
 70
     6
  9
$DWGCODEPAGE
  3
UNDEFINED
  9
$INSBASE
 10
0.0
 20
0.0
 30
0.0
  9
$EXTMIN
 10
1.000000000000000E+20
 20
1.000000000000000E+20
 30
1.000000000000000E+20
  9
$EXTMAX
 10
-1.000000000000000E+20
 20
-1.000000000000000E+20
 30
-1.000000000000000E+20
  9
$LIMMIN
 10
0.0
 20
0.0
  9
$LIMMAX
 10
12.0
 20
9.0
  9
$ORTHOMODE
 70
     0
  9
$REGENMODE
 70
     1
  9
$FILLMODE
 70
     1
  9
$QTEXTMODE
 70
     0
  9
$MIRRTEXT
 70
     1
  9
$LTSCALE
 40
1.0
  9
$ATTMODE
 70
     1
  9
$TEXTSIZE
 40
0.2
  9
$TRACEWID
 40
0.05
  9
$TEXTSTYLE
  7
Standard
  9
$CLAYER
  8
0
  9
$CELTYPE
  6
ByLayer
  9
$CECOLOR
 62
   256
  9
$CELTSCALE
 40
1.0
  9
$DISPSILH
 70
     0
  9
$DIMSCALE
 40
1.0
  9
$DIMASZ
 40
0.18
  9
$DIMEXO
 40
0.0625
  9
$DIMDLI
 40
0.38
  9
$DIMRND
 40
0.0
  9
$DIMDLE
 40
0.0
  9
$DIMEXE
 40
0.18
  9
$DIMTP
 40
0.0
  9
$DIMTM
 40
0.0
  9
$DIMTXT
 40
0.18
  9
$DIMCEN
 40
0.09
  9
$DIMTSZ
 40
0.0
  9
$DIMTOL
 70
     0
  9
$DIMLIM
 70
     0
  9
$DIMTIH
 70
     1
  9
$DIMTOH
 70
     1
  9
$DIMSE1
 70
     0
  9
$DIMSE2
 70
     0
  9
$DIMTAD
 70
     0
  9
$DIMZIN
 70
     0
  9
$DIMBLK
  1

  9
$DIMASO
 70
     1
  9
$DIMSHO
 70
     1
  9
$DIMPOST
  1

  9
$DIMAPOST
  1

  9
$DIMALT
 70
     0
  9
$DIMALTD
 70
     2
  9
$DIMALTF
 40
25.4
  9
$DIMLFAC
 40
1.0
  9
$DIMTOFL
 70
     0
  9
$DIMTVP
 40
0.0
  9
$DIMTIX
 70
     0
  9
$DIMSOXD
 70
     0
  9
$DIMSAH
 70
     0
  9
$DIMBLK1
  1

  9
$DIMBLK2
  1

  9
$DIMSTYLE
  2
Standard
  9
$DIMCLRD
 70
     0
  9
$DIMCLRE
 70
     0
  9
$DIMCLRT
 70
     0
  9
$DIMTFAC
 40
1.0
  9
$DIMGAP
 40
0.09
  9
$DIMJUST
 70
     0
  9
$DIMSD1
 70
     0
  9
$DIMSD2
 70
     0
  9
$DIMTOLJ
 70
     1
  9
$DIMTZIN
 70
     0
  9
$DIMALTZ
 70
     0
  9
$DIMALTTZ
 70
     0
  9
$DIMUPT
 70
     0
  9
$DIMDEC
 70
     4
  9
$DIMTDEC
 70
     4
  9
$DIMALTU
 70
     2
  9
$DIMALTTD
 70
     2
  9
$DIMTXSTY
  7
Standard
  9
$DIMAUNIT
 70
     0
  9
$DIMADEC
 70
     0
  9
$DIMALTRND
 40
0.0
  9
$DIMAZIN
 70
     0
  9
$DIMDSEP
 70
    46
  9
$DIMATFIT
 70
     3
  9
$DIMFRAC
 70
     0
  9
$DIMLDRBLK
  1

  9
$DIMLUNIT
 70
     2
  9
$DIMLWD
 70
    -2
  9
$DIMLWE
 70
    -2
  9
$DIMTMOVE
 70
     0
  9
$DIMFXL
 40
1.0
  9
$DIMFXLON
 70
     0
  9
$DIMJOGANG
 40
0.7853981633974483
  9
$DIMTFILL
 70
     0
  9
$DIMTFILLCLR
 70
     0
  9
$DIMARCSYM
 70
     0
  9
$DIMLTYPE
  6

  9
$DIMLTEX1
  6

  9
$DIMLTEX2
  6

  9
$DIMTXTDIRECTION
 70
     0
  9
$LUNITS
 70
     2
  9
$LUPREC
 70
     4
  9
$SKETCHINC
 40
0.1
  9
$FILLETRAD
 40
0.5
  9
$AUNITS
 70
     0
  9
$AUPREC
 70
     0
  9
$MENU
  1
.
  9
$ELEVATION
 40
0.0
  9
$PELEVATION
 40
0.0
  9
$THICKNESS
 40
0.0
  9
$LIMCHECK
 70
     0
  9
$CHAMFERA
 40
0.5
  9
$CHAMFERB
 40
0.5
  9
$CHAMFERC
 40
1.0
  9
$CHAMFERD
 40
0.0
  9
$SKPOLY
 70
     0
  9
$TDCREATE
 40
2457917.612604167
  9
$TDUCREATE
 40
2457917.237604167
  9
$TDUPDATE
 40
2457917.612604167
  9
$TDUUPDATE
 40
2457917.237604167
  9
$TDINDWG
 40
0.0000000116
  9
$TDUSRTIMER
 40
0.0000000116
  9
$USRTIMER
 70
     1
  9
$ANGBASE
 50
0.0
  9
$ANGDIR
 70
     0
  9
$PDMODE
 70
     0
  9
$PDSIZE
 40
0.0
  9
$PLINEWID
 40
0.0
  9
$SPLFRAME
 70
     0
  9
$SPLINETYPE
 70
     6
  9
$SPLINESEGS
 70
     8
  9
$HANDSEED
  5
136
  9
$SURFTAB1
 70
     6
  9
$SURFTAB2
 70
     6
  9
$SURFTYPE
 70
     6
  9
$SURFU
 70
     6
  9
$SURFV
 70
     6
  9
$UCSBASE
  2

  9
$UCSNAME
  2

  9
$UCSORG
 10
0.0
 20
0.0
 30
0.0
  9
$UCSXDIR
 10
1.0
 20
0.0
 30
0.0
  9
$UCSYDIR
 10
0.0
 20
1.0
 30
0.0
  9
$UCSORTHOREF
  2

  9
$UCSORTHOVIEW
 70
     0
  9
$UCSORGTOP
 10
0.0
 20
0.0
 30
0.0
  9
$UCSORGBOTTOM
 10
0.0
 20
0.0
 30
0.0
  9
$UCSORGLEFT
 10
0.0
 20
0.0
 30
0.0
  9
$UCSORGRIGHT
 10
0.0
 20
0.0
 30
0.0
  9
$UCSORGFRONT
 10
0.0
 20
0.0
 30
0.0
  9
$UCSORGBACK
 10
0.0
 20
0.0
 30
0.0
  9
$PUCSBASE
  2

  9
$PUCSNAME
  2

  9
$PUCSORG
 10
0.0
 20
0.0
 30
0.0
  9
$PUCSXDIR
 10
1.0
 20
0.0
 30
0.0
  9
$PUCSYDIR
 10
0.0
 20
1.0
 30
0.0
  9
$PUCSORTHOREF
  2

  9
$PUCSORTHOVIEW
 70
     0
  9
$PUCSORGTOP
 10
0.0
 20
0.0
 30
0.0
  9
$PUCSORGBOTTOM
 10
0.0
 20
0.0
 30
0.0
  9
$PUCSORGLEFT
 10
0.0
 20
0.0
 30
0.0
  9
$PUCSORGRIGHT
 10
0.0
 20
0.0
 30
0.0
  9
$PUCSORGFRONT
 10
0.0
 20
0.0
 30
0.0
  9
$PUCSORGBACK
 10
0.0
 20
0.0
 30
0.0
  9
$USERI1
 70
     0
  9
$USERI2
 70
     0
  9
$USERI3
 70
     0
  9
$USERI4
 70
     0
  9
$USERI5
 70
     0
  9
$USERR1
 40
0.0
  9
$USERR2
 40
0.0
  9
$USERR3
 40
0.0
  9
$USERR4
 40
0.0
  9
$USERR5
 40
0.0
  9
$WORLDVIEW
 70
     1
  9
$SHADEDGE
 70
     3
  9
$SHADEDIF
 70
    70
  9
$TILEMODE
 70
     1
  9
$MAXACTVP
 70
    64
  9
$PINSBASE
 10
0.0
 20
0.0
 30
0.0
  9
$PLIMCHECK
 70
     0
  9
$PEXTMIN
 10
1.000000000000000E+20
 20
1.000000000000000E+20
 30
1.000000000000000E+20
  9
$PEXTMAX
 10
-1.000000000000000E+20
 20
-1.000000000000000E+20
 30
-1.000000000000000E+20
  9
$PLIMMIN
 10
0.0
 20
0.0
  9
$PLIMMAX
 10
12.0
 20
9.0
  9
$UNITMODE
 70
     0
  9
$VISRETAIN
 70
     1
  9
$PLINEGEN
 70
     0
  9
$PSLTSCALE
 70
     1
  9
$TREEDEPTH
 70
  3020
  9
$CMLSTYLE
  2
Standard
  9
$CMLJUST
 70
     0
  9
$CMLSCALE
 40
1.0
  9
$PROXYGRAPHICS
 70
     1
  9
$MEASUREMENT
 70
     0
  9
$CELWEIGHT
370
    -1
  9
$ENDCAPS
280
     0
  9
$JOINSTYLE
280
     0
  9
$LWDISPLAY
290
     1
  9
$INSUNITS
 70
     1
  9
$HYPERLINKBASE
  1

  9
$STYLESHEET
  1

  9
$XEDIT
290
     1
  9
$CEPSNTYPE
380
     0
  9
$PSTYLEMODE
290
     1
  9
$FINGERPRINTGUID
  2
{9A670599-2608-8A9F-BECC-EC5F50961A37}
  9
$VERSIONGUID
  2
{FAEB1C32-E019-11D5-929B-00C0DF256EC4}
  9
$EXTNAMES
290
     1
  9
$PSVPSCALE
 40
0.0
  9
$OLESTARTUP
290
     0
  9
$SORTENTS
280
   127
  9
$INDEXCTL
280
     0
  9
$HIDETEXT
280
     1
  9
$XCLIPFRAME
280
     2
  9
$HALOGAP
280
     0
  9
$OBSCOLOR
 70
   257
  9
$OBSLTYPE
280
     0
  9
$INTERSECTIONDISPLAY
280
     0
  9
$INTERSECTIONCOLOR
 70
   257
  9
$DIMASSOC
280
     2
  9
$PROJECTNAME
  1

  9
$CAMERADISPLAY
290
     0
  9
$LENSLENGTH
 40
50.0
  9
$CAMERAHEIGHT
 40
0.0
  9
$STEPSPERSEC
 40
2.0
  9
$STEPSIZE
 40
6.0
  9
$3DDWFPREC
 40
2.0
  9
$PSOLWIDTH
 40
0.25
  9
$PSOLHEIGHT
 40
4.0
  9
$LOFTANG1
 40
1.570796326794897
  9
$LOFTANG2
 40
1.570796326794897
  9
$LOFTMAG1
 40
0.0
  9
$LOFTMAG2
 40
0.0
  9
$LOFTPARAM
 70
     7
  9
$LOFTNORMALS
280
     1
  9
$LATITUDE
 40
37.795
  9
$LONGITUDE
 40
-122.394
  9
$NORTHDIRECTION
 40
0.0
  9
$TIMEZONE
 70
 -8000
  9
$LIGHTGLYPHDISPLAY
280
     1
  9
$TILEMODELIGHTSYNCH
280
     1
  9
$CMATERIAL
347
3C
  9
$SOLIDHIST
280
     1
  9
$SHOWHIST
280
     1
  9
$DWFFRAME
280
     2
  9
$DGNFRAME
280
     2
  9
$REALWORLDSCALE
290
     1
  9
$INTERFERECOLOR
 62
   256
  9
$CSHADOW
280
     0
  9
$SHADOWPLANELOCATION
 40
0.0
  0
ENDSEC
  0
SECTION
  2
CLASSES
  0
CLASS
  1
ACDBDICTIONARYWDFLT
  2
AcDbDictionaryWithDefault
  3
ObjectDBX Classes
 90
        0
 91
        4
280
     0
281
     0
  0
CLASS
  1
VISUALSTYLE
  2
AcDbVisualStyle
  3
ObjectDBX Classes
 90
     4095
 91
        4
280
     0
281
     0
  0
CLASS
  1
MATERIAL
  2
AcDbMaterial
  3
ObjectDBX Classes
 90
     1153
 91
        4
280
     0
281
     0
  0
CLASS
  1
SUN
  2
AcDbSun
  3
SCENEOE
 90
     1024
 91
        4
280
     0
281
     0
  0
ENDSEC
  0
SECTION
  2
TABLES
  0
TABLE
  2
VPORT
  5
8
330
0
100
AcDbSymbolTable
 70
     1
  0
VPORT
  5
29
330
8
100
AcDbSymbolTableRecord
100
AcDbViewportTableRecord
  2
*Active
 70
     0
 10
0.0
 20
0.0
 11
1.0
 21
1.0
 12
0.0
 22
0.0
 13
0.0
 23
0.0
 14
0.5
 24
0.5
 15
0.5
 25
0.5
 16
0.0
 26
0.0
 36
1.0
 17
91.00082462281999
 27
-128.4993055234307
 37
0.0
 40
256.9986110468615
 41
0.7081814508812795
 42
50.0
 43
0.0
 44
0.0
 50
0.0
 51
0.0
 71
     0
 72
   100
 73
     1
 74
     3
 75
     0
 76
     0
 77
     0
 78
     0
281
     0
 65
     1
110
0.0
120
0.0
130
0.0
111
1.0
121
0.0
131
0.0
112
0.0
122
1.0
132
0.0
 79
     0
146
0.0
 60
     3
 61
     5
292
     1
282
     1
141
0.0
142
0.0
 63
   250
361
3F
  0
ENDTAB
  0
TABLE
  2
LTYPE
  5
5
330
0
100
AcDbSymbolTable
 70
     1
  0
LTYPE
  5
14
330
5
100
AcDbSymbolTableRecord
100
AcDbLinetypeTableRecord
  2
ByBlock
 70
     0
  3

 72
    65
 73
     0
 40
0.0
  0
LTYPE
  5
15
330
5
100
AcDbSymbolTableRecord
100
AcDbLinetypeTableRecord
  2
ByLayer
 70
     0
  3

 72
    65
 73
     0
 40
0.0
  0
LTYPE
  5
16
330
5
100
AcDbSymbolTableRecord
100
AcDbLinetypeTableRecord
  2
Continuous
 70
     0
  3
Solid line
 72
    65
 73
     0
 40
0.0
  0
ENDTAB
  0
TABLE
  2
LAYER
  5
2
330
0
100
AcDbSymbolTable
 70
     2
  0
LAYER
  5
10
330
2
100
AcDbSymbolTableRecord
100
AcDbLayerTableRecord
  2
0
 70
     0
 62
     7
  6
Continuous
370
    -3
390
F
347
3E
  0
LAYER
  5
40
330
2
100
AcDbSymbolTableRecord
100
AcDbLayerTableRecord
  2
_U+30EC_U+30A4_U+30E4_U+30FC 1
 70
     0
 62
     7
  6
Continuous
370
    -3
390
F
347
3E
  0
ENDTAB
  0
TABLE
  2
STYLE
  5
3
330
0
100
AcDbSymbolTable
 70
     1
  0
STYLE
  5
11
330
3
100
AcDbSymbolTableRecord
100
AcDbTextStyleTableRecord
  2
Standard
 70
     0
 40
0.0
 41
1.0
 50
0.0
 71
     0
 42
0.2
  3
txt
  4

  0
ENDTAB
  0
TABLE
  2
VIEW
  5
6
330
0
100
AcDbSymbolTable
 70
     0
  0
ENDTAB
  0
TABLE
  2
UCS
  5
7
330
0
100
AcDbSymbolTable
 70
     0
  0
ENDTAB
  0
TABLE
  2
APPID
  5
9
330
0
100
AcDbSymbolTable
 70
     1
  0
APPID
  5
12
330
9
100
AcDbSymbolTableRecord
100
AcDbRegAppTableRecord
  2
ACAD
 70
     0
  0
ENDTAB
  0
TABLE
  2
DIMSTYLE
  5
A
330
0
100
AcDbSymbolTable
 70
     1
100
AcDbDimStyleTable
  0
DIMSTYLE
105
27
330
A
100
AcDbSymbolTableRecord
100
AcDbDimStyleTableRecord
  2
Standard
 70
     0
178
     0
340
11
  0
ENDTAB
  0
TABLE
  2
BLOCK_RECORD
  5
1
330
0
100
AcDbSymbolTable
 70
     8
  0
BLOCK_RECORD
  5
1F
330
1
100
AcDbSymbolTableRecord
100
AcDbBlockTableRecord
  2
*Model_Space
340
22
 70
     0
280
     1
281
     0
  0
BLOCK_RECORD
  5
1B
330
1
100
AcDbSymbolTableRecord
100
AcDbBlockTableRecord
  2
*Paper_Space
340
1E
 70
     0
280
     1
281
     0
  0
BLOCK_RECORD
  5
23
330
1
100
AcDbSymbolTableRecord
100
AcDbBlockTableRecord
  2
*Paper_Space0
340
26
 70
     0
280
     1
281
     0
  0
BLOCK_RECORD
  5
41
330
1
100
AcDbSymbolTableRecord
100
AcDbBlockTableRecord
  2
block 2
340
0
102
{BLKREFS
331
42
102
}
 70
     0
280
     1
281
     0
  0
BLOCK_RECORD
  5
95
330
1
100
AcDbSymbolTableRecord
100
AcDbBlockTableRecord
  2
block 3
340
0
102
{BLKREFS
331
96
102
}
 70
     0
280
     1
281
     0
  0
BLOCK_RECORD
  5
A8
330
1
100
AcDbSymbolTableRecord
100
AcDbBlockTableRecord
  2
block 4
340
0
102
{BLKREFS
331
A9
102
}
 70
     0
280
     1
281
     0
  0
BLOCK_RECORD
  5
B0
330
1
100
AcDbSymbolTableRecord
100
AcDbBlockTableRecord
  2
block 5
340
0
102
{BLKREFS
331
B1
102
}
 70
     0
280
     1
281
     0
  0
BLOCK_RECORD
  5
C4
330
1
100
AcDbSymbolTableRecord
100
AcDbBlockTableRecord
  2
block 6
340
0
102
{BLKREFS
331
C5
102
}
 70
     0
280
     1
281
     0
  0
BLOCK_RECORD
  5
CC
330
1
100
AcDbSymbolTableRecord
100
AcDbBlockTableRecord
  2
block 7
340
0
102
{BLKREFS
331
CD
102
}
 70
     0
280
     1
281
     0
  0
BLOCK_RECORD
  5
F2
330
1
100
AcDbSymbolTableRecord
100
AcDbBlockTableRecord
  2
block 8
340
0
102
{BLKREFS
331
F3
102
}
 70
     0
280
     1
281
     0
  0
ENDTAB
  0
ENDSEC
  0
SECTION
  2
BLOCKS
  0
BLOCK
  5
20
330
1F
100
AcDbEntity
  8
0
100
AcDbBlockBegin
  2
*Model_Space
 70
     0
 10
0.0
 20
0.0
 30
0.0
  3
*Model_Space
  1

  0
ENDBLK
  5
21
330
1F
100
AcDbEntity
  8
0
100
AcDbBlockEnd
  0
BLOCK
  5
1C
330
1B
100
AcDbEntity
 67
     1
  8
0
100
AcDbBlockBegin
  2
*Paper_Space
 70
     0
 10
0.0
 20
0.0
 30
0.0
  3
*Paper_Space
  1

  0
ENDBLK
  5
1D
330
1B
100
AcDbEntity
 67
     1
  8
0
100
AcDbBlockEnd
  0
BLOCK
  5
24
330
23
100
AcDbEntity
  8
0
100
AcDbBlockBegin
  2
*Paper_Space0
 70
     0
 10
0.0
 20
0.0
 30
0.0
  3
*Paper_Space0
  1

  0
ENDBLK
  5
25
330
23
100
AcDbEntity
  8
0
100
AcDbBlockEnd
  0
BLOCK
  5
43
330
41
100
AcDbEntity
  8
0
100
AcDbBlockBegin
  2
block 2
 70
     0
 10
0.0
 20
0.0
 30
0.0
  3
block 2
  1

  0
SPLINE
  5
45
330
41
100
AcDbEntity
  8
_U+30EC_U+30A4_U+30E4_U+30FC 1
370
     0
100
AcDbSpline
210
0.0
220
0.0
230
1.0
 70
    11
 71
     3
 72
    53
 73
    49
 74
     0
 42
0.0000000001
 43
0.0000000001
 12
1.0
 22
0.0
 32
0.0
 13
1.0
 23
0.0
 33
0.0
 40
0.0
 40
0.0
 40
0.0
 40
0.0
 40
1.0
 40
1.0
 40
1.0
 40
2.0
 40
2.0
 40
2.0
 40
3.0
 40
3.0
 40
3.0
 40
4.0
 40
4.0
 40
4.0
 40
5.0
 40
5.0
 40
5.0
 40
6.0
 40
6.0
 40
6.0
 40
7.0
 40
7.0
 40
7.0
 40
8.0
 40
8.0
 40
8.0
 40
9.0
 40
9.0
 40
9.0
 40
10.0
 40
10.0
 40
10.0
 40
11.0
 40
11.0
 40
11.0
 40
12.0
 40
12.0
 40
12.0
 40
13.0
 40
13.0
 40
13.0
 40
14.0
 40
14.0
 40
14.0
 40
15.0
 40
15.0
 40
15.0
 40
16.0
 40
16.0
 40
16.0
 40
16.0
 10
98.07980444222017
 20
-111.8317549720419
 30
0.0
 10
98.07980444222017
 20
-111.8317549720419
 30
0.0
 10
98.87976331070041
 20
-111.8317549720419
 30
0.0
 10
98.87976331070041
 20
-111.8317549720419
 30
0.0
 10
98.87976331070041
 20
-111.8317549720419
 30
0.0
 10
98.87976331070041
 20
-136.3313955214725
 30
0.0
 10
98.87976331070041
 20
-136.3313955214725
 30
0.0
 10
98.87976331070041
 20
-137.049333576849
 30
0.0
 10
98.29753888110974
 20
-137.6315580211474
 30
0.0
 10
97.57956556609344
 20
-137.6315580211474
 30
0.0
 10
97.57956556609344
 20
-137.6315580211474
 30
0.0
 10
87.37917497815532
 20
-137.6315580211474
 30
0.0
 10
87.37917497815532
 20
-137.6315580211474
 30
0.0
 10
87.10319472225682
 20
-137.6315580211474
 30
0.0
 10
86.87928886716905
 20
-137.8555013544253
 30
0.0
 10
86.87928886716905
 20
-138.1317969099117
 30
0.0
 10
86.87928886716905
 20
-138.1317969099117
 30
0.0
 10
86.87928886716905
 20
-147.4969532964591
 30
0.0
 10
86.87928886716905
 20
-147.4969532964591
 30
0.0
 10
86.87928886716905
 20
-147.7732488519455
 30
0.0
 10
87.10319472225682
 20
-147.9971569074453
 30
0.0
 10
87.37917497815532
 20
-147.9971569074453
 30
0.0
 10
87.37917497815532
 20
-147.9971569074453
 30
0.0
 10
98.87976331070041
 20
-147.9971569074453
 30
0.0
 10
98.87976331070041
 20
-147.9971569074453
 30
0.0
 10
98.87976331070041
 20
-147.9971569074453
 30
0.0
 10
98.87976331070041
 20
-148.7971157961339
 30
0.0
 10
98.87976331070041
 20
-148.7971157961339
 30
0.0
 10
98.87976331070041
 20
-148.7971157961339
 30
0.0
 10
87.37917497815532
 20
-148.7971157961339
 30
0.0
 10
87.37917497815532
 20
-148.7971157961339
 30
0.0
 10
86.66119945575528
 20
-148.7971157961339
 30
0.0
 10
86.0793278039334
 20
-148.2148913518349
 30
0.0
 10
86.0793278039334
 20
-147.4969532964591
 30
0.0
 10
86.0793278039334
 20
-147.4969532964591
 30
0.0
 10
86.0793278039334
 20
-138.1317969099117
 30
0.0
 10
86.0793278039334
 20
-138.1317969099117
 30
0.0
 10
86.0793278039334
 20
-137.4138235767578
 30
0.0
 10
86.66119945575528
 20
-136.8315991324587
 30
0.0
 10
87.37917497815532
 20
-136.8315991324587
 30
0.0
 10
87.37917497815532
 20
-136.8315991324587
 30
0.0
 10
97.57956556609344
 20
-136.8315991324587
 30
0.0
 10
97.57956556609344
 20
-136.8315991324587
 30
0.0
 10
97.8558611146001
 20
-136.8315991324587
 30
0.0
 10
98.07980444222017
 20
-136.607691076959
 30
0.0
 10
98.07980444222017
 20
-136.3313955214725
 30
0.0
 10
98.07980444222017
 20
-136.3313955214725
 30
0.0
 10
98.07980444222017
 20
-111.8317549720419
 30
0.0
 10
98.07980444222017
 20
-111.8317549720419
 30
0.0
  0
ENDBLK
  5
44
330
41
100
AcDbEntity
  8
0
100
AcDbBlockEnd
  0
BLOCK
  5
97
330
95
100
AcDbEntity
  8
0
100
AcDbBlockBegin
  2
block 3
 70
     0
 10
0.0
 20
0.0
 30
0.0
  3
block 3
  1

  0
SPLINE
  5
99
330
95
100
AcDbEntity
  8
_U+30EC_U+30A4_U+30E4_U+30FC 1
370
     0
100
AcDbSpline
210
0.0
220
0.0
230
1.0
 70
    11
 71
     3
 72
    29
 73
    25
 74
     0
 42
0.0000000001
 43
0.0000000001
 12
1.0
 22
0.0
 32
0.0
 13
1.0
 23
0.0
 33
0.0
 40
0.0
 40
0.0
 40
0.0
 40
0.0
 40
1.0
 40
1.0
 40
1.0
 40
2.0
 40
2.0
 40
2.0
 40
3.0
 40
3.0
 40
3.0
 40
4.0
 40
4.0
 40
4.0
 40
5.0
 40
5.0
 40
5.0
 40
6.0
 40
6.0
 40
6.0
 40
7.0
 40
7.0
 40
7.0
 40
8.0
 40
8.0
 40
8.0
 40
8.0
 10
98.06739906402483
 20
-106.0377997239246
 30
0.0
 10
97.97231442863193
 20
-106.2472615294278
 30
0.0
 10
97.8190076795383
 20
-106.2663818093709
 30
0.0
 10
97.71634383407786
 20
-106.2663818093709
 30
0.0
 10
97.57440590008557
 20
-106.2663818093709
 30
0.0
 10
97.449348933971
 20
-106.21987302032
 30
0.0
 10
97.36528860413091
 20
-106.0377997239246
 30
0.0
 10
97.27364906422326
 20
-105.843151829008
 30
0.0
 10
97.25676809634554
 20
-105.606301514397
 30
0.0
 10
97.25676809634554
 20
-105.4433484979447
 30
0.0
 10
97.25676809634554
 20
-105.2995157614355
 30
0.0
 10
97.27192651648063
 20
-105.047851536238
 30
0.0
 10
97.36528860413091
 20
-104.8488972719649
 30
0.0
 10
97.4603732395238
 20
-104.6458088931094
 30
0.0
 10
97.6023111735161
 20
-104.622554498584
 30
0.0
 10
97.71634383407786
 20
-104.622554498584
 30
0.0
 10
97.85655922032753
 20
-104.622554498584
 30
0.0
 10
97.98333873418473
 20
-104.6669962303437
 30
0.0
 10
98.06739906402483
 20
-104.8488972719649
 30
0.0
 10
98.1552489988987
 20
-105.0414781095903
 30
0.0
 10
98.1759195718102
 20
-105.2698879402624
 30
0.0
 10
98.1759195718102
 20
-105.4433484979447
 30
0.0
 10
98.1759195718102
 20
-105.6147419983359
 30
0.0
 10
98.15731605618984
 20
-105.8453911410734
 30
0.0
 10
98.06739906402483
 20
-106.0377997239246
 30
0.0
  0
SPLINE
  5
9A
330
95
100
AcDbEntity
  8
_U+30EC_U+30A4_U+30E4_U+30FC 1
370
     0
100
AcDbSpline
210
0.0
220
0.0
230
1.0
 70
    11
 71
     3
 72
    17
 73
    13
 74
     0
 42
0.0000000001
 43
0.0000000001
 12
1.0
 22
0.0
 32
0.0
 13
1.0
 23
0.0
 33
0.0
 40
0.0
 40
0.0
 40
0.0
 40
0.0
 40
1.0
 40
1.0
 40
1.0
 40
2.0
 40
2.0
 40
2.0
 40
3.0
 40
3.0
 40
3.0
 40
4.0
 40
4.0
 40
4.0
 40
4.0
 10
97.71634383407786
 20
-104.8151353362094
 30
0.0
 10
97.49585772302187
 20
-104.8151353362094
 30
0.0
 10
97.4548610867474
 20
-105.0986666946455
 30
0.0
 10
97.4548610867474
 20
-105.4433484979447
 30
0.0
 10
97.4548610867474
 20
-105.7628811042016
 30
0.0
 10
97.48655596521169
 20
-106.0717339144543
 30
0.0
 10
97.71634383407786
 20
-106.0717339144543
 30
0.0
 10
97.93476288784271
 20
-106.0717339144543
 30
0.0
 10
97.97782658140832
 20
-105.7902696133094
 30
0.0
 10
97.97782658140832
 20
-105.4433484979447
 30
0.0
 10
97.97782658140832
 20
-105.1239881464621
 30
0.0
 10
97.94406464565287
 20
-104.8151353362094
 30
0.0
 10
97.71634383407786
 20
-104.8151353362094
 30
0.0
  0
HATCH
  5
9B
330
95
100
AcDbEntity
  8
_U+30EC_U+30A4_U+30E4_U+30FC 1
 62
   179
420
  2234388
100
AcDbHatch
 10
0.0
 20
0.0
 30
0.0
210
0.0
220
0.0
230
1.0
  2
SOLID
 70
     1
 71
     0
 91
        2
 92
        1
 93
        1
 72
     4
 94
        3
 73
     0
 74
     1
 95
       29
 96
       25
 40
0.0
 40
0.0
 40
0.0
 40
0.0
 40
1.0
 40
1.0
 40
1.0
 40
2.0
 40
2.0
 40
2.0
 40
3.0
 40
3.0
 40
3.0
 40
4.0
 40
4.0
 40
4.0
 40
5.0
 40
5.0
 40
5.0
 40
6.0
 40
6.0
 40
6.0
 40
7.0
 40
7.0
 40
7.0
 40
8.0
 40
8.0
 40
8.0
 40
8.0
 10
98.06739906402483
 20
-106.0377997239246
 10
97.97231442863193
 20
-106.2472615294278
 10
97.8190076795383
 20
-106.2663818093709
 10
97.71634383407786
 20
-106.2663818093709
 10
97.57440590008557
 20
-106.2663818093709
 10
97.449348933971
 20
-106.21987302032
 10
97.36528860413091
 20
-106.0377997239246
 10
97.27364906422326
 20
-105.843151829008
 10
97.25676809634554
 20
-105.606301514397
 10
97.25676809634554
 20
-105.4433484979447
 10
97.25676809634554
 20
-105.2995157614355
 10
97.27192651648063
 20
-105.047851536238
 10
97.36528860413091
 20
-104.8488972719649
 10
97.4603732395238
 20
-104.6458088931094
 10
97.6023111735161
 20
-104.622554498584
 10
97.71634383407786
 20
-104.622554498584
 10
97.85655922032753
 20
-104.622554498584
 10
97.98333873418473
 20
-104.6669962303437
 10
98.06739906402483
 20
-104.8488972719649
 10
98.1552489988987
 20
-105.0414781095903
 10
98.1759195718102
 20
-105.2698879402624
 10
98.1759195718102
 20
-105.4433484979447
 10
98.1759195718102
 20
-105.6147419983359
 10
98.15731605618984
 20
-105.8453911410734
 10
98.06739906402483
 20
-106.0377997239246
 97
        0
 97
        0
 92
        1
 93
        1
 72
     4
 94
        3
 73
     0
 74
     1
 95
       17
 96
       13
 40
0.0
 40
0.0
 40
0.0
 40
0.0
 40
1.0
 40
1.0
 40
1.0
 40
2.0
 40
2.0
 40
2.0
 40
3.0
 40
3.0
 40
3.0
 40
4.0
 40
4.0
 40
4.0
 40
4.0
 10
97.71634383407786
 20
-104.8151353362094
 10
97.49585772302187
 20
-104.8151353362094
 10
97.4548610867474
 20
-105.0986666946455
 10
97.4548610867474
 20
-105.4433484979447
 10
97.4548610867474
 20
-105.7628811042016
 10
97.48655596521169
 20
-106.0717339144543
 10
97.71634383407786
 20
-106.0717339144543
 10
97.93476288784271
 20
-106.0717339144543
 10
97.97782658140832
 20
-105.7902696133094
 10
97.97782658140832
 20
-105.4433484979447
 10
97.97782658140832
 20
-105.1239881464621
 10
97.94406464565287
 20
-104.8151353362094
 10
97.71634383407786
 20
-104.8151353362094
 97
        0
 97
        0
 75
     2
 76
     1
 98
        0
  0
POLYLINE
  5
9C
330
95
100
AcDbEntity
  8
_U+30EC_U+30A4_U+30E4_U+30FC 1
370
     0
100
AcDb2dPolyline
 66
     1
 10
0.0
 20
0.0
 30
0.0
  0
VERTEX
  5
9D
330
9C
100
AcDbEntity
  8
_U+30EC_U+30A4_U+30E4_U+30FC 1
370
     0
100
AcDbVertex
100
AcDb2dVertex
 10
98.36746688079008
 20
-106.2155666509635
 30
0.0
  0
VERTEX
  5
9E
330
9C
100
AcDbEntity
  8
_U+30EC_U+30A4_U+30E4_U+30FC 1
370
     0
100
AcDbVertex
100
AcDb2dVertex
 10
98.36746688079008
 20
-105.963902425766
 30
0.0
  0
VERTEX
  5
9F
330
9C
100
AcDbEntity
  8
_U+30EC_U+30A4_U+30E4_U+30FC 1
370
     0
100
AcDbVertex
100
AcDb2dVertex
 10
98.5896755395887
 20
-105.963902425766
 30
0.0
  0
VERTEX
  5
A0
330
9C
100
AcDbEntity
  8
_U+30EC_U+30A4_U+30E4_U+30FC 1
370
     0
100
AcDbVertex
100
AcDb2dVertex
 10
98.5896755395887
 20
-106.2155666509635
 30
0.0
  0
VERTEX
  5
A1
330
9C
100
AcDbEntity
  8
_U+30EC_U+30A4_U+30E4_U+30FC 1
370
     0
100
AcDbVertex
100
AcDb2dVertex
 10
98.36746688079008
 20
-106.2155666509635
 30
0.0
  0
SEQEND
  5
A2
330
9C
100
AcDbEntity
  8
_U+30EC_U+30A4_U+30E4_U+30FC 1
370
     0
  0
HATCH
  5
A3
330
95
100
AcDbEntity
  8
_U+30EC_U+30A4_U+30E4_U+30FC 1
 62
   179
420
  2234388
100
AcDbHatch
 10
0.0
 20
0.0
 30
0.0
210
0.0
220
0.0
230
1.0
  2
SOLID
 70
     1
 71
     0
 91
        1
 92
        1
 93
        4
 72
     1
 10
98.36746688079008
 20
-106.2155666509635
 11
98.36746688079008
 21
-105.963902425766
 72
     1
 10
98.36746688079008
 20
-105.963902425766
 11
98.5896755395887
 21
-105.963902425766
 72
     1
 10
98.5896755395887
 20
-105.963902425766
 11
98.5896755395887
 21
-106.2155666509635
 72
     1
 10
98.5896755395887
 20
-106.2155666509635
 11
98.36746688079008
 21
-106.2155666509635
 97
        0
 75
     2
 76
     1
 98
        0
  0
SPLINE
  5
A4
330
95
100
AcDbEntity
  8
_U+30EC_U+30A4_U+30E4_U+30FC 1
370
     0
100
AcDbSpline
210
0.0
220
0.0
230
1.0
 70
    11
 71
     3
 72
    29
 73
    25
 74
     0
 42
0.0000000001
 43
0.0000000001
 12
1.0
 22
0.0
 32
0.0
 13
1.0
 23
0.0
 33
0.0
 40
0.0
 40
0.0
 40
0.0
 40
0.0
 40
1.0
 40
1.0
 40
1.0
 40
2.0
 40
2.0
 40
2.0
 40
3.0
 40
3.0
 40
3.0
 40
4.0
 40
4.0
 40
4.0
 40
5.0
 40
5.0
 40
5.0
 40
6.0
 40
6.0
 40
6.0
 40
7.0
 40
7.0
 40
7.0
 40
8.0
 40
8.0
 40
8.0
 40
8.0
 10
99.24045407675239
 20
-106.2663818093709
 30
0.0
 10
99.00515405510983
 20
-106.2663818093709
 30
0.0
 10
98.78087833902006
 20
-106.1287502447352
 30
0.0
 10
98.78087833902006
 20
-105.7797620720794
 30
0.0
 10
98.78087833902006
 20
-105.5237914775253
 30
0.0
 10
98.90627981468316
 20
-105.4285345873581
 30
0.0
 10
98.99964190233342
 20
-105.3672118877207
 30
0.0
 10
98.88939884680543
 20
-105.3079562453744
 30
0.0
 10
98.82221948484306
 20
-105.1937513300384
 30
0.0
 10
98.82221948484306
 20
-105.0330376256515
 30
0.0
 10
98.82221948484306
 20
-104.7579467511543
 30
0.0
 10
98.99757484504228
 20
-104.622554498584
 30
0.0
 10
99.24045407675239
 20
-104.622554498584
 30
0.0
 10
99.49091251853005
 20
-104.622554498584
 30
0.0
 10
99.65903317821025
 20
-104.7663872350931
 30
0.0
 10
99.65903317821025
 20
-105.0330376256515
 30
0.0
 10
99.65903317821025
 20
-105.1937513300384
 30
0.0
 10
99.58978675895672
 20
-105.3079562453744
 30
0.0
 10
99.47954370342873
 20
-105.3672118877207
 30
0.0
 10
99.55809188049243
 20
-105.4180270461281
 30
0.0
 10
99.69796275719357
 20
-105.5132839362953
 30
0.0
 10
99.69796275719357
 20
-105.7756279574971
 30
0.0
 10
99.69796275719357
 20
-106.1499375819695
 30
0.0
 10
99.45163842999821
 20
-106.2663818093709
 30
0.0
 10
99.24045407675239
 20
-106.2663818093709
 30
0.0
  0
SPLINE
  5
A5
330
95
100
AcDbEntity
  8
_U+30EC_U+30A4_U+30E4_U+30FC 1
370
     0
100
AcDbSpline
210
0.0
220
0.0
230
1.0
 70
    11
 71
     3
 72
    17
 73
    13
 74
     0
 42
0.0000000001
 43
0.0000000001
 12
1.0
 22
0.0
 32
0.0
 13
1.0
 23
0.0
 33
0.0
 40
0.0
 40
0.0
 40
0.0
 40
0.0
 40
1.0
 40
1.0
 40
1.0
 40
2.0
 40
2.0
 40
2.0
 40
3.0
 40
3.0
 40
3.0
 40
4.0
 40
4.0
 40
4.0
 40
4.0
 10
99.24045407675239
 20
-105.4752156311833
 30
0.0
 10
99.11333005334667
 20
-105.4752156311833
 30
0.0
 10
98.97897132942192
 20
-105.5618597826373
 30
0.0
 10
98.97897132942192
 20
-105.7649481614928
 30
0.0
 10
98.97897132942192
 20
-105.9701035976394
 30
0.0
 10
99.09093693269254
 20
-106.0717339144543
 30
0.0
 10
99.24045407675239
 20
-106.0717339144543
 30
0.0
 10
99.40478513139881
 20
-106.0717339144543
 30
0.0
 10
99.50193682408285
 20
-105.9490885151794
 30
0.0
 10
99.50193682408285
 20
-105.7713215881405
 30
0.0
 10
99.50193682408285
 20
-105.5491129293419
 30
0.0
 10
99.35827634234793
 20
-105.4752156311833
 30
0.0
 10
99.24045407675239
 20
-105.4752156311833
 30
0.0
  0
SPLINE
  5
A6
330
95
100
AcDbEntity
  8
_U+30EC_U+30A4_U+30E4_U+30FC 1
370
     0
100
AcDbSpline
210
0.0
220
0.0
230
1.0
 70
    11
 71
     3
 72
    17
 73
    13
 74
     0
 42
0.0000000001
 43
0.0000000001
 12
1.0
 22
0.0
 32
0.0
 13
1.0
 23
0.0
 33
0.0
 40
0.0
 40
0.0
 40
0.0
 40
0.0
 40
1.0
 40
1.0
 40
1.0
 40
2.0
 40
2.0
 40
2.0
 40
3.0
 40
3.0
 40
3.0
 40
4.0
 40
4.0
 40
4.0
 40
4.0
 10
99.24045407675239
 20
-104.8151353362094
 30
0.0
 10
99.09472653772632
 20
-104.8151353362094
 30
0.0
 10
99.0199679656964
 20
-104.9102199716023
 30
0.0
 10
99.0199679656964
 20
-105.0456122241726
 30
0.0
 10
99.0199679656964
 20
-105.1684298782218
 30
0.0
 10
99.08370223217352
 20
-105.2869411629144
 30
0.0
 10
99.24045407675239
 20
-105.2869411629144
 30
0.0
 10
99.39720592133126
 20
-105.2869411629144
 30
0.0
 10
99.46094018780838
 20
-105.1684298782218
 30
0.0
 10
99.46094018780838
 20
-105.0456122241726
 30
0.0
 10
99.46094018780838
 20
-104.9102199716023
 30
0.0
 10
99.38445906803584
 20
-104.8151353362094
 30
0.0
 10
99.24045407675239
 20
-104.8151353362094
 30
0.0
  0
HATCH
  5
A7
330
95
100
AcDbEntity
  8
_U+30EC_U+30A4_U+30E4_U+30FC 1
 62
   179
420
  2234388
100
AcDbHatch
 10
0.0
 20
0.0
 30
0.0
210
0.0
220
0.0
230
1.0
  2
SOLID
 70
     1
 71
     0
 91
        3
 92
        1
 93
        1
 72
     4
 94
        3
 73
     0
 74
     1
 95
       29
 96
       25
 40
0.0
 40
0.0
 40
0.0
 40
0.0
 40
1.0
 40
1.0
 40
1.0
 40
2.0
 40
2.0
 40
2.0
 40
3.0
 40
3.0
 40
3.0
 40
4.0
 40
4.0
 40
4.0
 40
5.0
 40
5.0
 40
5.0
 40
6.0
 40
6.0
 40
6.0
 40
7.0
 40
7.0
 40
7.0
 40
8.0
 40
8.0
 40
8.0
 40
8.0
 10
99.24045407675239
 20
-106.2663818093709
 10
99.00515405510983
 20
-106.2663818093709
 10
98.78087833902006
 20
-106.1287502447352
 10
98.78087833902006
 20
-105.7797620720794
 10
98.78087833902006
 20
-105.5237914775253
 10
98.90627981468316
 20
-105.4285345873581
 10
98.99964190233342
 20
-105.3672118877207
 10
98.88939884680543
 20
-105.3079562453744
 10
98.82221948484306
 20
-105.1937513300384
 10
98.82221948484306
 20
-105.0330376256515
 10
98.82221948484306
 20
-104.7579467511543
 10
98.99757484504228
 20
-104.622554498584
 10
99.24045407675239
 20
-104.622554498584
 10
99.49091251853005
 20
-104.622554498584
 10
99.65903317821025
 20
-104.7663872350931
 10
99.65903317821025
 20
-105.0330376256515
 10
99.65903317821025
 20
-105.1937513300384
 10
99.58978675895672
 20
-105.3079562453744
 10
99.47954370342873
 20
-105.3672118877207
 10
99.55809188049243
 20
-105.4180270461281
 10
99.69796275719357
 20
-105.5132839362953
 10
99.69796275719357
 20
-105.7756279574971
 10
99.69796275719357
 20
-106.1499375819695
 10
99.45163842999821
 20
-106.2663818093709
 10
99.24045407675239
 20
-106.2663818093709
 97
        0
 97
        0
 92
        1
 93
        1
 72
     4
 94
        3
 73
     0
 74
     1
 95
       17
 96
       13
 40
0.0
 40
0.0
 40
0.0
 40
0.0
 40
1.0
 40
1.0
 40
1.0
 40
2.0
 40
2.0
 40
2.0
 40
3.0
 40
3.0
 40
3.0
 40
4.0
 40
4.0
 40
4.0
 40
4.0
 10
99.24045407675239
 20
-105.4752156311833
 10
99.11333005334667
 20
-105.4752156311833
 10
98.97897132942192
 20
-105.5618597826373
 10
98.97897132942192
 20
-105.7649481614928
 10
98.97897132942192
 20
-105.9701035976394
 10
99.09093693269254
 20
-106.0717339144543
 10
99.24045407675239
 20
-106.0717339144543
 10
99.40478513139881
 20
-106.0717339144543
 10
99.50193682408285
 20
-105.9490885151794
 10
99.50193682408285
 20
-105.7713215881405
 10
99.50193682408285
 20
-105.5491129293419
 10
99.35827634234793
 20
-105.4752156311833
 10
99.24045407675239
 20
-105.4752156311833
 97
        0
 97
        0
 92
        1
 93
        1
 72
     4
 94
        3
 73
     0
 74
     1
 95
       17
 96
       13
 40
0.0
 40
0.0
 40
0.0
 40
0.0
 40
1.0
 40
1.0
 40
1.0
 40
2.0
 40
2.0
 40
2.0
 40
3.0
 40
3.0
 40
3.0
 40
4.0
 40
4.0
 40
4.0
 40
4.0
 10
99.24045407675239
 20
-104.8151353362094
 10
99.09472653772632
 20
-104.8151353362094
 10
99.0199679656964
 20
-104.9102199716023
 10
99.0199679656964
 20
-105.0456122241726
 10
99.0199679656964
 20
-105.1684298782218
 10
99.08370223217352
 20
-105.2869411629144
 10
99.24045407675239
 20
-105.2869411629144
 10
99.39720592133126
 20
-105.2869411629144
 10
99.46094018780838
 20
-105.1684298782218
 10
99.46094018780838
 20
-105.0456122241726
 10
99.46094018780838
 20
-104.9102199716023
 10
99.38445906803584
 20
-104.8151353362094
 10
99.24045407675239
 20
-104.8151353362094
 97
        0
 97
        0
 75
     2
 76
     1
 98
        0
  0
ENDBLK
  5
98
330
95
100
AcDbEntity
  8
0
100
AcDbBlockEnd
  0
BLOCK
  5
AA
330
A8
100
AcDbEntity
  8
0
100
AcDbBlockBegin
  2
block 4
 70
     0
 10
0.0
 20
0.0
 30
0.0
  3
block 4
  1

  0
SPLINE
  5
AC
330
A8
100
AcDbEntity
  8
_U+30EC_U+30A4_U+30E4_U+30FC 1
370
     0
100
AcDbSpline
210
0.0
220
0.0
230
1.0
 70
    11
 71
     3
 72
    26
 73
    22
 74
     0
 42
0.0000000001
 43
0.0000000001
 12
1.0
 22
0.0
 32
0.0
 13
1.0
 23
0.0
 33
0.0
 40
0.0
 40
0.0
 40
0.0
 40
0.0
 40
1.0
 40
1.0
 40
1.0
 40
2.0
 40
2.0
 40
2.0
 40
3.0
 40
3.0
 40
3.0
 40
4.0
 40
4.0
 40
4.0
 40
5.0
 40
5.0
 40
5.0
 40
6.0
 40
6.0
 40
6.0
 40
7.0
 40
7.0
 40
7.0
 40
7.0
 10
81.42448728433138
 20
-143.395209382554
 30
0.0
 10
81.42448728433138
 20
-143.395209382554
 30
0.0
 10
80.32033418130881
 20
-143.395209382554
 30
0.0
 10
80.32033418130881
 20
-143.395209382554
 30
0.0
 10
80.32033418130881
 20
-143.395209382554
 30
0.0
 10
80.32033418130881
 20
-143.6866644606061
 30
0.0
 10
80.32033418130881
 20
-143.6866644606061
 30
0.0
 10
80.32033418130881
 20
-143.6866644606061
 30
0.0
 10
80.17219507544307
 20
-143.6866644606061
 30
0.0
 10
80.17219507544307
 20
-143.6866644606061
 30
0.0
 10
80.15738116485649
 20
-143.3934868348114
 30
0.0
 10
79.99442814840417
 20
-143.3524901985369
 30
0.0
 10
79.88005097829388
 20
-143.326307472849
 30
0.0
 10
79.88005097829388
 20
-143.326307472849
 30
0.0
 10
79.88005097829388
 20
-143.1974609017007
 30
0.0
 10
79.88005097829388
 20
-143.1974609017007
 30
0.0
 10
79.88005097829388
 20
-143.1974609017007
 30
0.0
 10
81.42448728433138
 20
-143.1974609017007
 30
0.0
 10
81.42448728433138
 20
-143.1974609017007
 30
0.0
 10
81.42448728433138
 20
-143.1974609017007
 30
0.0
 10
81.42448728433138
 20
-143.395209382554
 30
0.0
 10
81.42448728433138
 20
-143.395209382554
 30
0.0
  0
HATCH
  5
AD
330
A8
100
AcDbEntity
  8
_U+30EC_U+30A4_U+30E4_U+30FC 1
 62
   179
420
  2234388
100
AcDbHatch
 10
0.0
 20
0.0
 30
0.0
210
0.0
220
0.0
230
1.0
  2
SOLID
 70
     1
 71
     0
 91
        1
 92
        1
 93
        1
 72
     4
 94
        3
 73
     0
 74
     1
 95
       26
 96
       22
 40
0.0
 40
0.0
 40
0.0
 40
0.0
 40
1.0
 40
1.0
 40
1.0
 40
2.0
 40
2.0
 40
2.0
 40
3.0
 40
3.0
 40
3.0
 40
4.0
 40
4.0
 40
4.0
 40
5.0
 40
5.0
 40
5.0
 40
6.0
 40
6.0
 40
6.0
 40
7.0
 40
7.0
 40
7.0
 40
7.0
 10
81.42448728433138
 20
-143.395209382554
 10
81.42448728433138
 20
-143.395209382554
 10
80.32033418130881
 20
-143.395209382554
 10
80.32033418130881
 20
-143.395209382554
 10
80.32033418130881
 20
-143.395209382554
 10
80.32033418130881
 20
-143.6866644606061
 10
80.32033418130881
 20
-143.6866644606061
 10
80.32033418130881
 20
-143.6866644606061
 10
80.17219507544307
 20
-143.6866644606061
 10
80.17219507544307
 20
-143.6866644606061
 10
80.15738116485649
 20
-143.3934868348114
 10
79.99442814840417
 20
-143.3524901985369
 10
79.88005097829388
 20
-143.326307472849
 10
79.88005097829388
 20
-143.326307472849
 10
79.88005097829388
 20
-143.1974609017007
 10
79.88005097829388
 20
-143.1974609017007
 10
79.88005097829388
 20
-143.1974609017007
 10
81.42448728433138
 20
-143.1974609017007
 10
81.42448728433138
 20
-143.1974609017007
 10
81.42448728433138
 20
-143.1974609017007
 10
81.42448728433138
 20
-143.395209382554
 10
81.42448728433138
 20
-143.395209382554
 97
        0
 97
        0
 75
     2
 76
     1
 98
        0
  0
SPLINE
  5
AE
330
A8
100
AcDbEntity
  8
_U+30EC_U+30A4_U+30E4_U+30FC 1
370
     0
100
AcDbSpline
210
0.0
220
0.0
230
1.0
 70
    11
 71
     3
 72
    44
 73
    40
 74
     0
 42
0.0000000001
 43
0.0000000001
 12
1.0
 22
0.0
 32
0.0
 13
1.0
 23
0.0
 33
0.0
 40
0.0
 40
0.0
 40
0.0
 40
0.0
 40
1.0
 40
1.0
 40
1.0
 40
2.0
 40
2.0
 40
2.0
 40
3.0
 40
3.0
 40
3.0
 40
4.0
 40
4.0
 40
4.0
 40
5.0
 40
5.0
 40
5.0
 40
6.0
 40
6.0
 40
6.0
 40
7.0
 40
7.0
 40
7.0
 40
8.0
 40
8.0
 40
8.0
 40
9.0
 40
9.0
 40
9.0
 40
10.0
 40
10.0
 40
10.0
 40
11.0
 40
11.0
 40
11.0
 40
12.0
 40
12.0
 40
12.0
 40
13.0
 40
13.0
 40
13.0
 40
13.0
 10
80.84261065687268
 20
-142.230422598991
 30
0.0
 10
81.0014295587427
 20
-142.4230034366165
 30
0.0
 10
81.07549911167557
 20
-142.5049967091654
 30
0.0
 10
81.2191595934105
 20
-142.548060402731
 30
0.0
 10
81.2191595934105
 20
-142.548060402731
 30
0.0
 10
81.2191595934105
 20
-141.8607638534237
 30
0.0
 10
81.2191595934105
 20
-141.8607638534237
 30
0.0
 10
81.2191595934105
 20
-141.8607638534237
 30
0.0
 10
81.42448728433138
 20
-141.8607638534237
 30
0.0
 10
81.42448728433138
 20
-141.8607638534237
 30
0.0
 10
81.42448728433138
 20
-141.8607638534237
 30
0.0
 10
81.42448728433138
 20
-142.768546513787
 30
0.0
 10
81.42448728433138
 20
-142.768546513787
 30
0.0
 10
81.06688637296244
 20
-142.740296730808
 30
0.0
 10
80.98868270544727
 20
-142.6824191266558
 30
0.0
 10
80.69033743642464
 20
-142.3423882022616
 30
0.0
 10
80.49155542692573
 20
-142.1163899384293
 30
0.0
 10
80.4236870458663
 20
-142.0585123342771
 30
0.0
 10
80.28622773600483
 20
-142.0585123342771
 30
0.0
 10
80.16771645131224
 20
-142.0585123342771
 30
0.0
 10
80.03680282287274
 20
-142.1222466007542
 30
0.0
 10
80.03680282287274
 20
-142.2958794132108
 30
0.0
 10
80.03680282287274
 20
-142.5256672820769
 30
0.0
 10
80.26727971083596
 20
-142.5332464921445
 30
0.0
 10
80.38372393823741
 20
-142.5366915876297
 30
0.0
 10
80.38372393823741
 20
-142.5366915876297
 30
0.0
 10
80.38372393823741
 20
-142.7347845780316
 30
0.0
 10
80.38372393823741
 20
-142.7347845780316
 30
0.0
 10
80.25659991483168
 20
-142.727205367964
 30
0.0
 10
80.14463431156106
 20
-142.7179036101539
 30
0.0
 10
80.02612302686848
 20
-142.6469346431577
 30
0.0
 10
79.86523706770731
 20
-142.5497829504737
 30
0.0
 10
79.83147513195186
 20
-142.3854518958273
 30
0.0
 10
79.83147513195186
 20
-142.2827880503668
 30
0.0
 10
79.83147513195186
 20
-142.0381862709141
 30
0.0
 10
80.0154432308642
 20
-141.8549071910988
 30
0.0
 10
80.28829479329599
 20
-141.8549071910988
 30
0.0
 10
80.51704913351658
 20
-141.8549071910988
 30
0.0
 10
80.61626788349177
 20
-141.9579155461078
 30
0.0
 10
80.84261065687268
 20
-142.230422598991
 30
0.0
  0
HATCH
  5
AF
330
A8
100
AcDbEntity
  8
_U+30EC_U+30A4_U+30E4_U+30FC 1
 62
   179
420
  2234388
100
AcDbHatch
 10
0.0
 20
0.0
 30
0.0
210
0.0
220
0.0
230
1.0
  2
SOLID
 70
     1
 71
     0
 91
        1
 92
        1
 93
        1
 72
     4
 94
        3
 73
     0
 74
     1
 95
       44
 96
       40
 40
0.0
 40
0.0
 40
0.0
 40
0.0
 40
1.0
 40
1.0
 40
1.0
 40
2.0
 40
2.0
 40
2.0
 40
3.0
 40
3.0
 40
3.0
 40
4.0
 40
4.0
 40
4.0
 40
5.0
 40
5.0
 40
5.0
 40
6.0
 40
6.0
 40
6.0
 40
7.0
 40
7.0
 40
7.0
 40
8.0
 40
8.0
 40
8.0
 40
9.0
 40
9.0
 40
9.0
 40
10.0
 40
10.0
 40
10.0
 40
11.0
 40
11.0
 40
11.0
 40
12.0
 40
12.0
 40
12.0
 40
13.0
 40
13.0
 40
13.0
 40
13.0
 10
80.84261065687268
 20
-142.230422598991
 10
81.0014295587427
 20
-142.4230034366165
 10
81.07549911167557
 20
-142.5049967091654
 10
81.2191595934105
 20
-142.548060402731
 10
81.2191595934105
 20
-142.548060402731
 10
81.2191595934105
 20
-141.8607638534237
 10
81.2191595934105
 20
-141.8607638534237
 10
81.2191595934105
 20
-141.8607638534237
 10
81.42448728433138
 20
-141.8607638534237
 10
81.42448728433138
 20
-141.8607638534237
 10
81.42448728433138
 20
-141.8607638534237
 10
81.42448728433138
 20
-142.768546513787
 10
81.42448728433138
 20
-142.768546513787
 10
81.06688637296244
 20
-142.740296730808
 10
80.98868270544727
 20
-142.6824191266558
 10
80.69033743642464
 20
-142.3423882022616
 10
80.49155542692573
 20
-142.1163899384293
 10
80.4236870458663
 20
-142.0585123342771
 10
80.28622773600483
 20
-142.0585123342771
 10
80.16771645131224
 20
-142.0585123342771
 10
80.03680282287274
 20
-142.1222466007542
 10
80.03680282287274
 20
-142.2958794132108
 10
80.03680282287274
 20
-142.5256672820769
 10
80.26727971083596
 20
-142.5332464921445
 10
80.38372393823741
 20
-142.5366915876297
 10
80.38372393823741
 20
-142.5366915876297
 10
80.38372393823741
 20
-142.7347845780316
 10
80.38372393823741
 20
-142.7347845780316
 10
80.25659991483168
 20
-142.727205367964
 10
80.14463431156106
 20
-142.7179036101539
 10
80.02612302686848
 20
-142.6469346431577
 10
79.86523706770731
 20
-142.5497829504737
 10
79.83147513195186
 20
-142.3854518958273
 10
79.83147513195186
 20
-142.2827880503668
 10
79.83147513195186
 20
-142.0381862709141
 10
80.0154432308642
 20
-141.8549071910988
 10
80.28829479329599
 20
-141.8549071910988
 10
80.51704913351658
 20
-141.8549071910988
 10
80.61626788349177
 20
-141.9579155461078
 10
80.84261065687268
 20
-142.230422598991
 97
        0
 97
        0
 75
     2
 76
     1
 98
        0
  0
ENDBLK
  5
AB
330
A8
100
AcDbEntity
  8
0
100
AcDbBlockEnd
  0
BLOCK
  5
B2
330
B0
100
AcDbEntity
  8
0
100
AcDbBlockBegin
  2
block 5
 70
     0
 10
0.0
 20
0.0
 30
0.0
  3
block 5
  1

  0
SPLINE
  5
B4
330
B0
100
AcDbEntity
  8
_U+30EC_U+30A4_U+30E4_U+30FC 1
370
     0
100
AcDbSpline
210
0.0
220
0.0
230
1.0
 70
    11
 71
     3
 72
    26
 73
    22
 74
     0
 42
0.0000000001
 43
0.0000000001
 12
1.0
 22
0.0
 32
0.0
 13
1.0
 23
0.0
 33
0.0
 40
0.0
 40
0.0
 40
0.0
 40
0.0
 40
1.0
 40
1.0
 40
1.0
 40
2.0
 40
2.0
 40
2.0
 40
3.0
 40
3.0
 40
3.0
 40
4.0
 40
4.0
 40
4.0
 40
5.0
 40
5.0
 40
5.0
 40
6.0
 40
6.0
 40
6.0
 40
7.0
 40
7.0
 40
7.0
 40
7.0
 10
91.15395369899971
 20
-152.1853705131689
 30
0.0
 10
91.15395369899971
 20
-152.1853705131689
 30
0.0
 10
91.15395369899971
 20
-151.0812174101464
 30
0.0
 10
91.15395369899971
 20
-151.0812174101464
 30
0.0
 10
91.15395369899971
 20
-151.0812174101464
 30
0.0
 10
90.86249862094758
 20
-151.0812174101464
 30
0.0
 10
90.86249862094758
 20
-151.0812174101464
 30
0.0
 10
90.86249862094758
 20
-151.0812174101464
 30
0.0
 10
90.86249862094758
 20
-150.9330783042806
 30
0.0
 10
90.86249862094758
 20
-150.9330783042806
 30
0.0
 10
91.15567624674233
 20
-150.918264393694
 30
0.0
 10
91.1966728830168
 20
-150.7553113772417
 30
0.0
 10
91.2228556087047
 20
-150.6409342071314
 30
0.0
 10
91.2228556087047
 20
-150.6409342071314
 30
0.0
 10
91.35170217985305
 20
-150.6409342071314
 30
0.0
 10
91.35170217985305
 20
-150.6409342071314
 30
0.0
 10
91.35170217985305
 20
-150.6409342071314
 30
0.0
 10
91.35170217985305
 20
-152.1853705131689
 30
0.0
 10
91.35170217985305
 20
-152.1853705131689
 30
0.0
 10
91.35170217985305
 20
-152.1853705131689
 30
0.0
 10
91.15395369899971
 20
-152.1853705131689
 30
0.0
 10
91.15395369899971
 20
-152.1853705131689
 30
0.0
  0
HATCH
  5
B5
330
B0
100
AcDbEntity
  8
_U+30EC_U+30A4_U+30E4_U+30FC 1
 62
   179
420
  2234388
100
AcDbHatch
 10
0.0
 20
0.0
 30
0.0
210
0.0
220
0.0
230
1.0
  2
SOLID
 70
     1
 71
     0
 91
        1
 92
        1
 93
        1
 72
     4
 94
        3
 73
     0
 74
     1
 95
       26
 96
       22
 40
0.0
 40
0.0
 40
0.0
 40
0.0
 40
1.0
 40
1.0
 40
1.0
 40
2.0
 40
2.0
 40
2.0
 40
3.0
 40
3.0
 40
3.0
 40
4.0
 40
4.0
 40
4.0
 40
5.0
 40
5.0
 40
5.0
 40
6.0
 40
6.0
 40
6.0
 40
7.0
 40
7.0
 40
7.0
 40
7.0
 10
91.15395369899971
 20
-152.1853705131689
 10
91.15395369899971
 20
-152.1853705131689
 10
91.15395369899971
 20
-151.0812174101464
 10
91.15395369899971
 20
-151.0812174101464
 10
91.15395369899971
 20
-151.0812174101464
 10
90.86249862094758
 20
-151.0812174101464
 10
90.86249862094758
 20
-151.0812174101464
 10
90.86249862094758
 20
-151.0812174101464
 10
90.86249862094758
 20
-150.9330783042806
 10
90.86249862094758
 20
-150.9330783042806
 10
91.15567624674233
 20
-150.918264393694
 10
91.1966728830168
 20
-150.7553113772417
 10
91.2228556087047
 20
-150.6409342071314
 10
91.2228556087047
 20
-150.6409342071314
 10
91.35170217985305
 20
-150.6409342071314
 10
91.35170217985305
 20
-150.6409342071314
 10
91.35170217985305
 20
-150.6409342071314
 10
91.35170217985305
 20
-152.1853705131689
 10
91.35170217985305
 20
-152.1853705131689
 10
91.35170217985305
 20
-152.1853705131689
 10
91.15395369899971
 20
-152.1853705131689
 10
91.15395369899971
 20
-152.1853705131689
 97
        0
 97
        0
 75
     2
 76
     1
 98
        0
  0
SPLINE
  5
B6
330
B0
100
AcDbEntity
  8
_U+30EC_U+30A4_U+30E4_U+30FC 1
370
     0
100
AcDbSpline
210
0.0
220
0.0
230
1.0
 70
    11
 71
     3
 72
    44
 73
    40
 74
     0
 42
0.0000000001
 43
0.0000000001
 12
1.0
 22
0.0
 32
0.0
 13
1.0
 23
0.0
 33
0.0
 40
0.0
 40
0.0
 40
0.0
 40
0.0
 40
1.0
 40
1.0
 40
1.0
 40
2.0
 40
2.0
 40
2.0
 40
3.0
 40
3.0
 40
3.0
 40
4.0
 40
4.0
 40
4.0
 40
5.0
 40
5.0
 40
5.0
 40
6.0
 40
6.0
 40
6.0
 40
7.0
 40
7.0
 40
7.0
 40
8.0
 40
8.0
 40
8.0
 40
9.0
 40
9.0
 40
9.0
 40
10.0
 40
10.0
 40
10.0
 40
11.0
 40
11.0
 40
11.0
 40
12.0
 40
12.0
 40
12.0
 40
13.0
 40
13.0
 40
13.0
 40
13.0
 10
92.31891273733694
 20
-151.6034938857102
 30
0.0
 10
92.12633189971147
 20
-151.7623127875803
 30
0.0
 10
92.04433862716253
 20
-151.8363823405131
 30
0.0
 10
92.0012749335969
 20
-151.980042822248
 30
0.0
 10
92.0012749335969
 20
-151.980042822248
 30
0.0
 10
92.68857148290425
 20
-151.980042822248
 30
0.0
 10
92.68857148290425
 20
-151.980042822248
 30
0.0
 10
92.68857148290425
 20
-151.980042822248
 30
0.0
 10
92.68857148290425
 20
-152.1853705131689
 30
0.0
 10
92.68857148290425
 20
-152.1853705131689
 30
0.0
 10
92.68857148290425
 20
-152.1853705131689
 30
0.0
 10
91.78078882254091
 20
-152.1853705131689
 30
0.0
 10
91.78078882254091
 20
-152.1853705131689
 30
0.0
 10
91.80903860551997
 20
-151.8277696018
 30
0.0
 10
91.86691620967217
 20
-151.7495659342848
 30
0.0
 10
92.20694713406633
 20
-151.4512206652622
 30
0.0
 10
92.4329453978987
 20
-151.2524386557633
 30
0.0
 10
92.49082300205092
 20
-151.1845702747039
 30
0.0
 10
92.49082300205092
 20
-151.0471109648424
 30
0.0
 10
92.49082300205092
 20
-150.9285996801498
 30
0.0
 10
92.42708873557379
 20
-150.7976860517103
 30
0.0
 10
92.2534559231172
 20
-150.7976860517103
 30
0.0
 10
92.02366805425103
 20
-150.7976860517103
 30
0.0
 10
92.01608884418349
 20
-151.0281629396735
 30
0.0
 10
92.01264374869824
 20
-151.144607167075
 30
0.0
 10
92.01264374869824
 20
-151.144607167075
 30
0.0
 10
91.81455075829636
 20
-151.144607167075
 30
0.0
 10
91.81455075829636
 20
-151.144607167075
 30
0.0
 10
91.82212996836391
 20
-151.0174831436692
 30
0.0
 10
91.83143172617409
 20
-150.9055175403986
 30
0.0
 10
91.90240069317024
 20
-150.787006255706
 30
0.0
 10
91.99955238585429
 20
-150.6261202965449
 30
0.0
 10
92.1638834405007
 20
-150.5923583607894
 30
0.0
 10
92.26654728596114
 20
-150.5923583607894
 30
0.0
 10
92.51114906541389
 20
-150.5923583607894
 30
0.0
 10
92.69442814522918
 20
-150.7763264597017
 30
0.0
 10
92.69442814522918
 20
-151.0491780221335
 30
0.0
 10
92.69442814522918
 20
-151.2779323623541
 30
0.0
 10
92.5914197902202
 20
-151.3771511123293
 30
0.0
 10
92.31891273733694
 20
-151.6034938857102
 30
0.0
  0
HATCH
  5
B7
330
B0
100
AcDbEntity
  8
_U+30EC_U+30A4_U+30E4_U+30FC 1
 62
   179
420
  2234388
100
AcDbHatch
 10
0.0
 20
0.0
 30
0.0
210
0.0
220
0.0
230
1.0
  2
SOLID
 70
     1
 71
     0
 91
        1
 92
        1
 93
        1
 72
     4
 94
        3
 73
     0
 74
     1
 95
       44
 96
       40
 40
0.0
 40
0.0
 40
0.0
 40
0.0
 40
1.0
 40
1.0
 40
1.0
 40
2.0
 40
2.0
 40
2.0
 40
3.0
 40
3.0
 40
3.0
 40
4.0
 40
4.0
 40
4.0
 40
5.0
 40
5.0
 40
5.0
 40
6.0
 40
6.0
 40
6.0
 40
7.0
 40
7.0
 40
7.0
 40
8.0
 40
8.0
 40
8.0
 40
9.0
 40
9.0
 40
9.0
 40
10.0
 40
10.0
 40
10.0
 40
11.0
 40
11.0
 40
11.0
 40
12.0
 40
12.0
 40
12.0
 40
13.0
 40
13.0
 40
13.0
 40
13.0
 10
92.31891273733694
 20
-151.6034938857102
 10
92.12633189971147
 20
-151.7623127875803
 10
92.04433862716253
 20
-151.8363823405131
 10
92.0012749335969
 20
-151.980042822248
 10
92.0012749335969
 20
-151.980042822248
 10
92.68857148290425
 20
-151.980042822248
 10
92.68857148290425
 20
-151.980042822248
 10
92.68857148290425
 20
-151.980042822248
 10
92.68857148290425
 20
-152.1853705131689
 10
92.68857148290425
 20
-152.1853705131689
 10
92.68857148290425
 20
-152.1853705131689
 10
91.78078882254091
 20
-152.1853705131689
 10
91.78078882254091
 20
-152.1853705131689
 10
91.80903860551997
 20
-151.8277696018
 10
91.86691620967217
 20
-151.7495659342848
 10
92.20694713406633
 20
-151.4512206652622
 10
92.4329453978987
 20
-151.2524386557633
 10
92.49082300205092
 20
-151.1845702747039
 10
92.49082300205092
 20
-151.0471109648424
 10
92.49082300205092
 20
-150.9285996801498
 10
92.42708873557379
 20
-150.7976860517103
 10
92.2534559231172
 20
-150.7976860517103
 10
92.02366805425103
 20
-150.7976860517103
 10
92.01608884418349
 20
-151.0281629396735
 10
92.01264374869824
 20
-151.144607167075
 10
92.01264374869824
 20
-151.144607167075
 10
91.81455075829636
 20
-151.144607167075
 10
91.81455075829636
 20
-151.144607167075
 10
91.82212996836391
 20
-151.0174831436692
 10
91.83143172617409
 20
-150.9055175403986
 10
91.90240069317024
 20
-150.787006255706
 10
91.99955238585429
 20
-150.6261202965449
 10
92.1638834405007
 20
-150.5923583607894
 10
92.26654728596114
 20
-150.5923583607894
 10
92.51114906541389
 20
-150.5923583607894
 10
92.69442814522918
 20
-150.7763264597017
 10
92.69442814522918
 20
-151.0491780221335
 10
92.69442814522918
 20
-151.2779323623541
 10
92.5914197902202
 20
-151.3771511123293
 10
92.31891273733694
 20
-151.6034938857102
 97
        0
 97
        0
 75
     2
 76
     1
 98
        0
  0
POLYLINE
  5
B8
330
B0
100
AcDbEntity
  8
_U+30EC_U+30A4_U+30E4_U+30FC 1
370
     0
100
AcDb2dPolyline
 66
     1
 10
0.0
 20
0.0
 30
0.0
  0
VERTEX
  5
B9
330
B8
100
AcDbEntity
  8
_U+30EC_U+30A4_U+30E4_U+30FC 1
370
     0
100
AcDbVertex
100
AcDb2dVertex
 10
92.88804251150022
 20
-152.1853705131689
 30
0.0
  0
VERTEX
  5
BA
330
B8
100
AcDbEntity
  8
_U+30EC_U+30A4_U+30E4_U+30FC 1
370
     0
100
AcDbVertex
100
AcDb2dVertex
 10
92.88804251150022
 20
-151.9335340331972
 30
0.0
  0
VERTEX
  5
BB
330
B8
100
AcDbEntity
  8
_U+30EC_U+30A4_U+30E4_U+30FC 1
370
     0
100
AcDbVertex
100
AcDb2dVertex
 10
93.11025117029882
 20
-151.9335340331972
 30
0.0
  0
VERTEX
  5
BC
330
B8
100
AcDbEntity
  8
_U+30EC_U+30A4_U+30E4_U+30FC 1
370
     0
100
AcDbVertex
100
AcDb2dVertex
 10
93.11025117029882
 20
-152.1853705131689
 30
0.0
  0
VERTEX
  5
BD
330
B8
100
AcDbEntity
  8
_U+30EC_U+30A4_U+30E4_U+30FC 1
370
     0
100
AcDbVertex
100
AcDb2dVertex
 10
92.88804251150022
 20
-152.1853705131689
 30
0.0
  0
SEQEND
  5
BE
330
B8
100
AcDbEntity
  8
_U+30EC_U+30A4_U+30E4_U+30FC 1
370
     0
  0
HATCH
  5
BF
330
B0
100
AcDbEntity
  8
_U+30EC_U+30A4_U+30E4_U+30FC 1
 62
   179
420
  2234388
100
AcDbHatch
 10
0.0
 20
0.0
 30
0.0
210
0.0
220
0.0
230
1.0
  2
SOLID
 70
     1
 71
     0
 91
        1
 92
        1
 93
        4
 72
     1
 10
92.88804251150022
 20
-152.1853705131689
 11
92.88804251150022
 21
-151.9335340331972
 72
     1
 10
92.88804251150022
 20
-151.9335340331972
 11
93.11025117029882
 21
-151.9335340331972
 72
     1
 10
93.11025117029882
 20
-151.9335340331972
 11
93.11025117029882
 21
-152.1853705131689
 72
     1
 10
93.11025117029882
 20
-152.1853705131689
 11
92.88804251150022
 21
-152.1853705131689
 97
        0
 75
     2
 76
     1
 98
        0
  0
SPLINE
  5
C0
330
B0
100
AcDbEntity
  8
_U+30EC_U+30A4_U+30E4_U+30FC 1
370
     0
100
AcDbSpline
210
0.0
220
0.0
230
1.0
 70
    11
 71
     3
 72
    29
 73
    25
 74
     0
 42
0.0000000001
 43
0.0000000001
 12
1.0
 22
0.0
 32
0.0
 13
1.0
 23
0.0
 33
0.0
 40
0.0
 40
0.0
 40
0.0
 40
0.0
 40
1.0
 40
1.0
 40
1.0
 40
2.0
 40
2.0
 40
2.0
 40
3.0
 40
3.0
 40
3.0
 40
4.0
 40
4.0
 40
4.0
 40
5.0
 40
5.0
 40
5.0
 40
6.0
 40
6.0
 40
6.0
 40
7.0
 40
7.0
 40
7.0
 40
8.0
 40
8.0
 40
8.0
 40
8.0
 10
93.760685197914
 20
-152.2360134168021
 30
0.0
 10
93.52538517627144
 20
-152.2360134168021
 30
0.0
 10
93.30110946018168
 20
-152.0985541069406
 30
0.0
 10
93.30110946018168
 20
-151.7495659342848
 30
0.0
 10
93.30110946018168
 20
-151.4935953397308
 30
0.0
 10
93.42651093584476
 20
-151.3985107043379
 30
0.0
 10
93.51987302349504
 20
-151.3371880047004
 30
0.0
 10
93.40962996796704
 20
-151.2779323623541
 30
0.0
 10
93.34245060600468
 20
-151.1635551922438
 30
0.0
 10
93.34245060600468
 20
-151.0026692330827
 30
0.0
 10
93.34245060600468
 20
-150.7277506133597
 30
0.0
 10
93.51780596620388
 20
-150.5923583607894
 30
0.0
 10
93.760685197914
 20
-150.5923583607894
 30
0.0
 10
94.01114363969167
 20
-150.5923583607894
 30
0.0
 10
94.17926429937185
 20
-150.7363633520729
 30
0.0
 10
94.17926429937185
 20
-151.0026692330827
 30
0.0
 10
94.17926429937185
 20
-151.1635551922438
 30
0.0
 10
94.11001788011833
 20
-151.2779323623541
 30
0.0
 10
93.99977482459033
 20
-151.3371880047004
 30
0.0
 10
94.07832300165404
 20
-151.3878309083336
 30
0.0
 10
94.2185383879037
 20
-151.4829155437265
 30
0.0
 10
94.2185383879037
 20
-151.7454318197025
 30
0.0
 10
94.2185383879037
 20
-152.1199136989492
 30
0.0
 10
93.97186955115981
 20
-152.2360134168021
 30
0.0
 10
93.760685197914
 20
-152.2360134168021
 30
0.0
  0
SPLINE
  5
C1
330
B0
100
AcDbEntity
  8
_U+30EC_U+30A4_U+30E4_U+30FC 1
370
     0
100
AcDbSpline
210
0.0
220
0.0
230
1.0
 70
    11
 71
     3
 72
    17
 73
    13
 74
     0
 42
0.0000000001
 43
0.0000000001
 12
1.0
 22
0.0
 32
0.0
 13
1.0
 23
0.0
 33
0.0
 40
0.0
 40
0.0
 40
0.0
 40
0.0
 40
1.0
 40
1.0
 40
1.0
 40
2.0
 40
2.0
 40
2.0
 40
3.0
 40
3.0
 40
3.0
 40
4.0
 40
4.0
 40
4.0
 40
4.0
 10
93.760685197914
 20
-151.4450194933887
 30
0.0
 10
93.6339056840568
 20
-151.4450194933887
 30
0.0
 10
93.49920245058354
 20
-151.5318358996171
 30
0.0
 10
93.49920245058354
 20
-151.7347520236983
 30
0.0
 10
93.49920245058354
 20
-151.9400797146191
 30
0.0
 10
93.61151256340268
 20
-152.0413655218855
 30
0.0
 10
93.760685197914
 20
-152.0413655218855
 30
0.0
 10
93.92501625256041
 20
-152.0413655218855
 30
0.0
 10
94.02216794524446
 20
-151.9187201226106
 30
0.0
 10
94.02216794524446
 20
-151.7409531955717
 30
0.0
 10
94.02216794524446
 20
-151.5190890463216
 30
0.0
 10
93.87850746350955
 20
-151.4450194933887
 30
0.0
 10
93.760685197914
 20
-151.4450194933887
 30
0.0
  0
SPLINE
  5
C2
330
B0
100
AcDbEntity
  8
_U+30EC_U+30A4_U+30E4_U+30FC 1
370
     0
100
AcDbSpline
210
0.0
220
0.0
230
1.0
 70
    11
 71
     3
 72
    17
 73
    13
 74
     0
 42
0.0000000001
 43
0.0000000001
 12
1.0
 22
0.0
 32
0.0
 13
1.0
 23
0.0
 33
0.0
 40
0.0
 40
0.0
 40
0.0
 40
0.0
 40
1.0
 40
1.0
 40
1.0
 40
2.0
 40
2.0
 40
2.0
 40
3.0
 40
3.0
 40
3.0
 40
4.0
 40
4.0
 40
4.0
 40
4.0
 10
93.760685197914
 20
-150.7849391984149
 30
0.0
 10
93.61495765888793
 20
-150.7849391984149
 30
0.0
 10
93.54019908685801
 20
-150.8800238338078
 30
0.0
 10
93.54019908685801
 20
-151.0154160863781
 30
0.0
 10
93.54019908685801
 20
-151.138061485653
 30
0.0
 10
93.60393335333514
 20
-151.2565727703456
 30
0.0
 10
93.760685197914
 20
-151.2565727703456
 30
0.0
 10
93.91778155204139
 20
-151.2565727703456
 30
0.0
 10
93.98117130896999
 20
-151.138061485653
 30
0.0
 10
93.98117130896999
 20
-151.0154160863781
 30
0.0
 10
93.98117130896999
 20
-150.8800238338078
 30
0.0
 10
93.90469018919744
 20
-150.7849391984149
 30
0.0
 10
93.760685197914
 20
-150.7849391984149
 30
0.0
  0
HATCH
  5
C3
330
B0
100
AcDbEntity
  8
_U+30EC_U+30A4_U+30E4_U+30FC 1
 62
   179
420
  2234388
100
AcDbHatch
 10
0.0
 20
0.0
 30
0.0
210
0.0
220
0.0
230
1.0
  2
SOLID
 70
     1
 71
     0
 91
        3
 92
        1
 93
        1
 72
     4
 94
        3
 73
     0
 74
     1
 95
       29
 96
       25
 40
0.0
 40
0.0
 40
0.0
 40
0.0
 40
1.0
 40
1.0
 40
1.0
 40
2.0
 40
2.0
 40
2.0
 40
3.0
 40
3.0
 40
3.0
 40
4.0
 40
4.0
 40
4.0
 40
5.0
 40
5.0
 40
5.0
 40
6.0
 40
6.0
 40
6.0
 40
7.0
 40
7.0
 40
7.0
 40
8.0
 40
8.0
 40
8.0
 40
8.0
 10
93.760685197914
 20
-152.2360134168021
 10
93.52538517627144
 20
-152.2360134168021
 10
93.30110946018168
 20
-152.0985541069406
 10
93.30110946018168
 20
-151.7495659342848
 10
93.30110946018168
 20
-151.4935953397308
 10
93.42651093584476
 20
-151.3985107043379
 10
93.51987302349504
 20
-151.3371880047004
 10
93.40962996796704
 20
-151.2779323623541
 10
93.34245060600468
 20
-151.1635551922438
 10
93.34245060600468
 20
-151.0026692330827
 10
93.34245060600468
 20
-150.7277506133597
 10
93.51780596620388
 20
-150.5923583607894
 10
93.760685197914
 20
-150.5923583607894
 10
94.01114363969167
 20
-150.5923583607894
 10
94.17926429937185
 20
-150.7363633520729
 10
94.17926429937185
 20
-151.0026692330827
 10
94.17926429937185
 20
-151.1635551922438
 10
94.11001788011833
 20
-151.2779323623541
 10
93.99977482459033
 20
-151.3371880047004
 10
94.07832300165404
 20
-151.3878309083336
 10
94.2185383879037
 20
-151.4829155437265
 10
94.2185383879037
 20
-151.7454318197025
 10
94.2185383879037
 20
-152.1199136989492
 10
93.97186955115981
 20
-152.2360134168021
 10
93.760685197914
 20
-152.2360134168021
 97
        0
 97
        0
 92
        1
 93
        1
 72
     4
 94
        3
 73
     0
 74
     1
 95
       17
 96
       13
 40
0.0
 40
0.0
 40
0.0
 40
0.0
 40
1.0
 40
1.0
 40
1.0
 40
2.0
 40
2.0
 40
2.0
 40
3.0
 40
3.0
 40
3.0
 40
4.0
 40
4.0
 40
4.0
 40
4.0
 10
93.760685197914
 20
-151.4450194933887
 10
93.6339056840568
 20
-151.4450194933887
 10
93.49920245058354
 20
-151.5318358996171
 10
93.49920245058354
 20
-151.7347520236983
 10
93.49920245058354
 20
-151.9400797146191
 10
93.61151256340268
 20
-152.0413655218855
 10
93.760685197914
 20
-152.0413655218855
 10
93.92501625256041
 20
-152.0413655218855
 10
94.02216794524446
 20
-151.9187201226106
 10
94.02216794524446
 20
-151.7409531955717
 10
94.02216794524446
 20
-151.5190890463216
 10
93.87850746350955
 20
-151.4450194933887
 10
93.760685197914
 20
-151.4450194933887
 97
        0
 97
        0
 92
        1
 93
        1
 72
     4
 94
        3
 73
     0
 74
     1
 95
       17
 96
       13
 40
0.0
 40
0.0
 40
0.0
 40
0.0
 40
1.0
 40
1.0
 40
1.0
 40
2.0
 40
2.0
 40
2.0
 40
3.0
 40
3.0
 40
3.0
 40
4.0
 40
4.0
 40
4.0
 40
4.0
 10
93.760685197914
 20
-150.7849391984149
 10
93.61495765888793
 20
-150.7849391984149
 10
93.54019908685801
 20
-150.8800238338078
 10
93.54019908685801
 20
-151.0154160863781
 10
93.54019908685801
 20
-151.138061485653
 10
93.60393335333514
 20
-151.2565727703456
 10
93.760685197914
 20
-151.2565727703456
 10
93.91778155204139
 20
-151.2565727703456
 10
93.98117130896999
 20
-151.138061485653
 10
93.98117130896999
 20
-151.0154160863781
 10
93.98117130896999
 20
-150.8800238338078
 10
93.90469018919744
 20
-150.7849391984149
 10
93.760685197914
 20
-150.7849391984149
 97
        0
 97
        0
 75
     2
 76
     1
 98
        0
  0
ENDBLK
  5
B3
330
B0
100
AcDbEntity
  8
0
100
AcDbBlockEnd
  0
BLOCK
  5
C6
330
C4
100
AcDbEntity
  8
0
100
AcDbBlockBegin
  2
block 6
 70
     0
 10
0.0
 20
0.0
 30
0.0
  3
block 6
  1

  0
SPLINE
  5
C8
330
C4
100
AcDbEntity
  8
_U+30EC_U+30A4_U+30E4_U+30FC 1
370
     0
100
AcDbSpline
210
0.0
220
0.0
230
1.0
 70
    11
 71
     3
 72
    26
 73
    22
 74
     0
 42
0.0000000001
 43
0.0000000001
 12
1.0
 22
0.0
 32
0.0
 13
1.0
 23
0.0
 33
0.0
 40
0.0
 40
0.0
 40
0.0
 40
0.0
 40
1.0
 40
1.0
 40
1.0
 40
2.0
 40
2.0
 40
2.0
 40
3.0
 40
3.0
 40
3.0
 40
4.0
 40
4.0
 40
4.0
 40
5.0
 40
5.0
 40
5.0
 40
6.0
 40
6.0
 40
6.0
 40
7.0
 40
7.0
 40
7.0
 40
7.0
 10
91.51551647017668
 20
-132.1855576926481
 30
0.0
 10
91.51551647017668
 20
-132.1855576926481
 30
0.0
 10
91.51551647017668
 20
-131.0814045896255
 30
0.0
 10
91.51551647017668
 20
-131.0814045896255
 30
0.0
 10
91.51551647017668
 20
-131.0814045896255
 30
0.0
 10
91.22406139212454
 20
-131.0814045896255
 30
0.0
 10
91.22406139212454
 20
-131.0814045896255
 30
0.0
 10
91.22406139212454
 20
-131.0814045896255
 30
0.0
 10
91.22406139212454
 20
-130.9332654837598
 30
0.0
 10
91.22406139212454
 20
-130.9332654837598
 30
0.0
 10
91.51723901791931
 20
-130.9184515731732
 30
0.0
 10
91.55823565419378
 20
-130.7554985567209
 30
0.0
 10
91.58441837988168
 20
-130.6414658961591
 30
0.0
 10
91.58441837988168
 20
-130.6414658961591
 30
0.0
 10
91.71326495103003
 20
-130.6414658961591
 30
0.0
 10
91.71326495103003
 20
-130.6414658961591
 30
0.0
 10
91.71326495103003
 20
-130.6414658961591
 30
0.0
 10
91.71326495103003
 20
-132.1855576926481
 30
0.0
 10
91.71326495103003
 20
-132.1855576926481
 30
0.0
 10
91.71326495103003
 20
-132.1855576926481
 30
0.0
 10
91.51551647017668
 20
-132.1855576926481
 30
0.0
 10
91.51551647017668
 20
-132.1855576926481
 30
0.0
  0
HATCH
  5
C9
330
C4
100
AcDbEntity
  8
_U+30EC_U+30A4_U+30E4_U+30FC 1
 62
   179
420
  2234388
100
AcDbHatch
 10
0.0
 20
0.0
 30
0.0
210
0.0
220
0.0
230
1.0
  2
SOLID
 70
     1
 71
     0
 91
        1
 92
        1
 93
        1
 72
     4
 94
        3
 73
     0
 74
     1
 95
       26
 96
       22
 40
0.0
 40
0.0
 40
0.0
 40
0.0
 40
1.0
 40
1.0
 40
1.0
 40
2.0
 40
2.0
 40
2.0
 40
3.0
 40
3.0
 40
3.0
 40
4.0
 40
4.0
 40
4.0
 40
5.0
 40
5.0
 40
5.0
 40
6.0
 40
6.0
 40
6.0
 40
7.0
 40
7.0
 40
7.0
 40
7.0
 10
91.51551647017668
 20
-132.1855576926481
 10
91.51551647017668
 20
-132.1855576926481
 10
91.51551647017668
 20
-131.0814045896255
 10
91.51551647017668
 20
-131.0814045896255
 10
91.51551647017668
 20
-131.0814045896255
 10
91.22406139212454
 20
-131.0814045896255
 10
91.22406139212454
 20
-131.0814045896255
 10
91.22406139212454
 20
-131.0814045896255
 10
91.22406139212454
 20
-130.9332654837598
 10
91.22406139212454
 20
-130.9332654837598
 10
91.51723901791931
 20
-130.9184515731732
 10
91.55823565419378
 20
-130.7554985567209
 10
91.58441837988168
 20
-130.6414658961591
 10
91.58441837988168
 20
-130.6414658961591
 10
91.71326495103003
 20
-130.6414658961591
 10
91.71326495103003
 20
-130.6414658961591
 10
91.71326495103003
 20
-130.6414658961591
 10
91.71326495103003
 20
-132.1855576926481
 10
91.71326495103003
 20
-132.1855576926481
 10
91.71326495103003
 20
-132.1855576926481
 10
91.51551647017668
 20
-132.1855576926481
 10
91.51551647017668
 20
-132.1855576926481
 97
        0
 97
        0
 75
     2
 76
     1
 98
        0
  0
SPLINE
  5
CA
330
C4
100
AcDbEntity
  8
_U+30EC_U+30A4_U+30E4_U+30FC 1
370
     0
100
AcDbSpline
210
0.0
220
0.0
230
1.0
 70
    11
 71
     3
 72
    44
 73
    40
 74
     0
 42
0.0000000001
 43
0.0000000001
 12
1.0
 22
0.0
 32
0.0
 13
1.0
 23
0.0
 33
0.0
 40
0.0
 40
0.0
 40
0.0
 40
0.0
 40
1.0
 40
1.0
 40
1.0
 40
2.0
 40
2.0
 40
2.0
 40
3.0
 40
3.0
 40
3.0
 40
4.0
 40
4.0
 40
4.0
 40
5.0
 40
5.0
 40
5.0
 40
6.0
 40
6.0
 40
6.0
 40
7.0
 40
7.0
 40
7.0
 40
8.0
 40
8.0
 40
8.0
 40
9.0
 40
9.0
 40
9.0
 40
10.0
 40
10.0
 40
10.0
 40
11.0
 40
11.0
 40
11.0
 40
12.0
 40
12.0
 40
12.0
 40
13.0
 40
13.0
 40
13.0
 40
13.0
 10
92.68030325373965
 20
-131.6040255747379
 30
0.0
 10
92.48772241611418
 20
-131.7624999670594
 30
0.0
 10
92.40572914356524
 20
-131.8365695199923
 30
0.0
 10
92.36266544999961
 20
-131.9805745112757
 30
0.0
 10
92.36266544999961
 20
-131.9805745112757
 30
0.0
 10
93.04996199930696
 20
-131.9805745112757
 30
0.0
 10
93.04996199930696
 20
-131.9805745112757
 30
0.0
 10
93.04996199930696
 20
-131.9805745112757
 30
0.0
 10
93.04996199930696
 20
-132.1855576926481
 30
0.0
 10
93.04996199930696
 20
-132.1855576926481
 30
0.0
 10
93.04996199930696
 20
-132.1855576926481
 30
0.0
 10
92.14217933894362
 20
-132.1855576926481
 30
0.0
 10
92.14217933894362
 20
-132.1855576926481
 30
0.0
 10
92.17042912192268
 20
-131.8279567812791
 30
0.0
 10
92.22830672607488
 20
-131.7497531137639
 30
0.0
 10
92.56833765046903
 20
-131.4514078447413
 30
0.0
 10
92.79433591430141
 20
-131.2526258352424
 30
0.0
 10
92.85221351845362
 20
-131.1851019637315
 30
0.0
 10
92.85221351845362
 20
-131.04764265387
 30
0.0
 10
92.85221351845362
 20
-130.9291313691774
 30
0.0
 10
92.7884792519765
 20
-130.7978732311894
 30
0.0
 10
92.61484643951991
 20
-130.7978732311894
 30
0.0
 10
92.38505857065374
 20
-130.7978732311894
 30
0.0
 10
92.3774793605862
 20
-131.0283501191526
 30
0.0
 10
92.37403426510095
 20
-131.1447943465541
 30
0.0
 10
92.37403426510095
 20
-131.1447943465541
 30
0.0
 10
92.17594127469907
 20
-131.1447943465541
 30
0.0
 10
92.17594127469907
 20
-131.1447943465541
 30
0.0
 10
92.18352048476662
 20
-131.0180148326969
 30
0.0
 10
92.1928222425768
 20
-130.9057047198777
 30
0.0
 10
92.26379120957294
 20
-130.7871934351851
 30
0.0
 10
92.360942902257
 20
-130.6266519855725
 30
0.0
 10
92.5252739569034
 20
-130.5925455402685
 30
0.0
 10
92.62793780236386
 20
-130.5925455402685
 30
0.0
 10
92.8725395818166
 20
-130.5925455402685
 30
0.0
 10
93.05581866163189
 20
-130.7768581487294
 30
0.0
 10
93.05581866163189
 20
-131.0497097111612
 30
0.0
 10
93.05581866163189
 20
-131.2781195418333
 30
0.0
 10
92.95281030662291
 20
-131.377682801357
 30
0.0
 10
92.68030325373965
 20
-131.6040255747379
 30
0.0
  0
HATCH
  5
CB
330
C4
100
AcDbEntity
  8
_U+30EC_U+30A4_U+30E4_U+30FC 1
 62
   179
420
  2234388
100
AcDbHatch
 10
0.0
 20
0.0
 30
0.0
210
0.0
220
0.0
230
1.0
  2
SOLID
 70
     1
 71
     0
 91
        1
 92
        1
 93
        1
 72
     4
 94
        3
 73
     0
 74
     1
 95
       44
 96
       40
 40
0.0
 40
0.0
 40
0.0
 40
0.0
 40
1.0
 40
1.0
 40
1.0
 40
2.0
 40
2.0
 40
2.0
 40
3.0
 40
3.0
 40
3.0
 40
4.0
 40
4.0
 40
4.0
 40
5.0
 40
5.0
 40
5.0
 40
6.0
 40
6.0
 40
6.0
 40
7.0
 40
7.0
 40
7.0
 40
8.0
 40
8.0
 40
8.0
 40
9.0
 40
9.0
 40
9.0
 40
10.0
 40
10.0
 40
10.0
 40
11.0
 40
11.0
 40
11.0
 40
12.0
 40
12.0
 40
12.0
 40
13.0
 40
13.0
 40
13.0
 40
13.0
 10
92.68030325373965
 20
-131.6040255747379
 10
92.48772241611418
 20
-131.7624999670594
 10
92.40572914356524
 20
-131.8365695199923
 10
92.36266544999961
 20
-131.9805745112757
 10
92.36266544999961
 20
-131.9805745112757
 10
93.04996199930696
 20
-131.9805745112757
 10
93.04996199930696
 20
-131.9805745112757
 10
93.04996199930696
 20
-131.9805745112757
 10
93.04996199930696
 20
-132.1855576926481
 10
93.04996199930696
 20
-132.1855576926481
 10
93.04996199930696
 20
-132.1855576926481
 10
92.14217933894362
 20
-132.1855576926481
 10
92.14217933894362
 20
-132.1855576926481
 10
92.17042912192268
 20
-131.8279567812791
 10
92.22830672607488
 20
-131.7497531137639
 10
92.56833765046903
 20
-131.4514078447413
 10
92.79433591430141
 20
-131.2526258352424
 10
92.85221351845362
 20
-131.1851019637315
 10
92.85221351845362
 20
-131.04764265387
 10
92.85221351845362
 20
-130.9291313691774
 10
92.7884792519765
 20
-130.7978732311894
 10
92.61484643951991
 20
-130.7978732311894
 10
92.38505857065374
 20
-130.7978732311894
 10
92.3774793605862
 20
-131.0283501191526
 10
92.37403426510095
 20
-131.1447943465541
 10
92.37403426510095
 20
-131.1447943465541
 10
92.17594127469907
 20
-131.1447943465541
 10
92.17594127469907
 20
-131.1447943465541
 10
92.18352048476662
 20
-131.0180148326969
 10
92.1928222425768
 20
-130.9057047198777
 10
92.26379120957294
 20
-130.7871934351851
 10
92.360942902257
 20
-130.6266519855725
 10
92.5252739569034
 20
-130.5925455402685
 10
92.62793780236386
 20
-130.5925455402685
 10
92.8725395818166
 20
-130.5925455402685
 10
93.05581866163189
 20
-130.7768581487294
 10
93.05581866163189
 20
-131.0497097111612
 10
93.05581866163189
 20
-131.2781195418333
 10
92.95281030662291
 20
-131.377682801357
 10
92.68030325373965
 20
-131.6040255747379
 97
        0
 97
        0
 75
     2
 76
     1
 98
        0
  0
ENDBLK
  5
C7
330
C4
100
AcDbEntity
  8
0
100
AcDbBlockEnd
  0
BLOCK
  5
CE
330
CC
100
AcDbEntity
  8
0
100
AcDbBlockBegin
  2
block 7
 70
     0
 10
0.0
 20
0.0
 30
0.0
  3
block 7
  1

  0
SPLINE
  5
D0
330
CC
100
AcDbEntity
  8
_U+30EC_U+30A4_U+30E4_U+30FC 1
370
     0
100
AcDbSpline
210
0.0
220
0.0
230
1.0
 70
    11
 71
     3
 72
    26
 73
    22
 74
     0
 42
0.0000000001
 43
0.0000000001
 12
1.0
 22
0.0
 32
0.0
 13
1.0
 23
0.0
 33
0.0
 40
0.0
 40
0.0
 40
0.0
 40
0.0
 40
1.0
 40
1.0
 40
1.0
 40
2.0
 40
2.0
 40
2.0
 40
3.0
 40
3.0
 40
3.0
 40
4.0
 40
4.0
 40
4.0
 40
5.0
 40
5.0
 40
5.0
 40
6.0
 40
6.0
 40
6.0
 40
7.0
 40
7.0
 40
7.0
 40
7.0
 10
101.8855983903272
 20
-144.1572645038912
 30
0.0
 10
101.8855983903272
 20
-144.1572645038912
 30
0.0
 10
100.7814452873046
 20
-144.1572645038912
 30
0.0
 10
100.7814452873046
 20
-144.1572645038912
 30
0.0
 10
100.7814452873046
 20
-144.1572645038912
 30
0.0
 10
100.7814452873046
 20
-144.4487195819434
 30
0.0
 10
100.7814452873046
 20
-144.4487195819434
 30
0.0
 10
100.7814452873046
 20
-144.4487195819434
 30
0.0
 10
100.6333061814389
 20
-144.4487195819434
 30
0.0
 10
100.6333061814389
 20
-144.4487195819434
 30
0.0
 10
100.6184922708523
 20
-144.1555419561486
 30
0.0
 10
100.4555392544
 20
-144.1145453198741
 30
0.0
 10
100.3411620842897
 20
-144.0883625941862
 30
0.0
 10
100.3411620842897
 20
-144.0883625941862
 30
0.0
 10
100.3411620842897
 20
-143.9595160230379
 30
0.0
 10
100.3411620842897
 20
-143.9595160230379
 30
0.0
 10
100.3411620842897
 20
-143.9595160230379
 30
0.0
 10
101.8855983903272
 20
-143.9595160230379
 30
0.0
 10
101.8855983903272
 20
-143.9595160230379
 30
0.0
 10
101.8855983903272
 20
-143.9595160230379
 30
0.0
 10
101.8855983903272
 20
-144.1572645038912
 30
0.0
 10
101.8855983903272
 20
-144.1572645038912
 30
0.0
  0
HATCH
  5
D1
330
CC
100
AcDbEntity
  8
_U+30EC_U+30A4_U+30E4_U+30FC 1
 62
   179
420
  2234388
100
AcDbHatch
 10
0.0
 20
0.0
 30
0.0
210
0.0
220
0.0
230
1.0
  2
SOLID
 70
     1
 71
     0
 91
        1
 92
        1
 93
        1
 72
     4
 94
        3
 73
     0
 74
     1
 95
       26
 96
       22
 40
0.0
 40
0.0
 40
0.0
 40
0.0
 40
1.0
 40
1.0
 40
1.0
 40
2.0
 40
2.0
 40
2.0
 40
3.0
 40
3.0
 40
3.0
 40
4.0
 40
4.0
 40
4.0
 40
5.0
 40
5.0
 40
5.0
 40
6.0
 40
6.0
 40
6.0
 40
7.0
 40
7.0
 40
7.0
 40
7.0
 10
101.8855983903272
 20
-144.1572645038912
 10
101.8855983903272
 20
-144.1572645038912
 10
100.7814452873046
 20
-144.1572645038912
 10
100.7814452873046
 20
-144.1572645038912
 10
100.7814452873046
 20
-144.1572645038912
 10
100.7814452873046
 20
-144.4487195819434
 10
100.7814452873046
 20
-144.4487195819434
 10
100.7814452873046
 20
-144.4487195819434
 10
100.6333061814389
 20
-144.4487195819434
 10
100.6333061814389
 20
-144.4487195819434
 10
100.6184922708523
 20
-144.1555419561486
 10
100.4555392544
 20
-144.1145453198741
 10
100.3411620842897
 20
-144.0883625941862
 10
100.3411620842897
 20
-144.0883625941862
 10
100.3411620842897
 20
-143.9595160230379
 10
100.3411620842897
 20
-143.9595160230379
 10
100.3411620842897
 20
-143.9595160230379
 10
101.8855983903272
 20
-143.9595160230379
 10
101.8855983903272
 20
-143.9595160230379
 10
101.8855983903272
 20
-143.9595160230379
 10
101.8855983903272
 20
-144.1572645038912
 10
101.8855983903272
 20
-144.1572645038912
 97
        0
 97
        0
 75
     2
 76
     1
 98
        0
  0
SPLINE
  5
D2
330
CC
100
AcDbEntity
  8
_U+30EC_U+30A4_U+30E4_U+30FC 1
370
     0
100
AcDbSpline
210
0.0
220
0.0
230
1.0
 70
    11
 71
     3
 72
    29
 73
    25
 74
     0
 42
0.0000000001
 43
0.0000000001
 12
1.0
 22
0.0
 32
0.0
 13
1.0
 23
0.0
 33
0.0
 40
0.0
 40
0.0
 40
0.0
 40
0.0
 40
1.0
 40
1.0
 40
1.0
 40
2.0
 40
2.0
 40
2.0
 40
3.0
 40
3.0
 40
3.0
 40
4.0
 40
4.0
 40
4.0
 40
5.0
 40
5.0
 40
5.0
 40
6.0
 40
6.0
 40
6.0
 40
7.0
 40
7.0
 40
7.0
 40
8.0
 40
8.0
 40
8.0
 40
8.0
 10
101.7078314632883
 20
-142.7234157629303
 30
0.0
 10
101.9172932687915
 20
-142.8188449078717
 30
0.0
 10
101.9362412939604
 20
-142.9721516569653
 30
0.0
 10
101.9362412939604
 20
-143.0748155024257
 30
0.0
 10
101.9362412939604
 20
-143.216753436418
 30
0.0
 10
101.8897325049095
 20
-143.3418104025326
 30
0.0
 10
101.7078314632883
 20
-143.4258707323727
 30
0.0
 10
101.5131835683717
 20
-143.5175102722804
 30
0.0
 10
101.2761609989865
 20
-143.5343912401581
 30
0.0
 10
101.1135524920827
 20
-143.5343912401581
 30
0.0
 10
100.9695475007993
 20
-143.5343912401581
 30
0.0
 10
100.7177110208275
 20
-143.519232820023
 30
0.0
 10
100.5189290113286
 20
-143.4258707323727
 30
0.0
 10
100.3160128872474
 20
-143.3307860969798
 30
0.0
 10
100.2925862379477
 20
-143.188503653439
 30
0.0
 10
100.2925862379477
 20
-143.0748155024257
 30
0.0
 10
100.2925862379477
 20
-142.9346001161761
 30
0.0
 10
100.3370279697074
 20
-142.8074760927704
 30
0.0
 10
100.5189290113286
 20
-142.7234157629303
 30
0.0
 10
100.7115098489541
 20
-142.6359103376049
 30
0.0
 10
100.9399196796261
 20
-142.6152397646934
 30
0.0
 10
101.1135524920827
 20
-142.6152397646934
 30
0.0
 10
101.2847737376996
 20
-142.6152397646934
 30
0.0
 10
101.5152506256629
 20
-142.6338432803138
 30
0.0
 10
101.7078314632883
 20
-142.7234157629303
 30
0.0
  0
SPLINE
  5
D3
330
CC
100
AcDbEntity
  8
_U+30EC_U+30A4_U+30E4_U+30FC 1
370
     0
100
AcDbSpline
210
0.0
220
0.0
230
1.0
 70
    11
 71
     3
 72
    17
 73
    13
 74
     0
 42
0.0000000001
 43
0.0000000001
 12
1.0
 22
0.0
 32
0.0
 13
1.0
 23
0.0
 33
0.0
 40
0.0
 40
0.0
 40
0.0
 40
0.0
 40
1.0
 40
1.0
 40
1.0
 40
2.0
 40
2.0
 40
2.0
 40
3.0
 40
3.0
 40
3.0
 40
4.0
 40
4.0
 40
4.0
 40
4.0
 10
100.4851670755732
 20
-143.0748155024257
 30
0.0
 10
100.4851670755732
 20
-143.2953016134817
 30
0.0
 10
100.7686984340092
 20
-143.3362982497562
 30
0.0
 10
101.1135524920827
 20
-143.3362982497562
 30
0.0
 10
101.4329128435654
 20
-143.3362982497562
 30
0.0
 10
101.7415933990438
 20
-143.3046033712919
 30
0.0
 10
101.7415933990438
 20
-143.0748155024257
 30
0.0
 10
101.7415933990438
 20
-142.8560519391124
 30
0.0
 10
101.4604736074474
 20
-142.8133327550953
 30
0.0
 10
101.1135524920827
 20
-142.8133327550953
 30
0.0
 10
100.7938476310515
 20
-142.8133327550953
 30
0.0
 10
100.4851670755732
 20
-142.8467501813022
 30
0.0
 10
100.4851670755732
 20
-143.0748155024257
 30
0.0
  0
HATCH
  5
D4
330
CC
100
AcDbEntity
  8
_U+30EC_U+30A4_U+30E4_U+30FC 1
 62
   179
420
  2234388
100
AcDbHatch
 10
0.0
 20
0.0
 30
0.0
210
0.0
220
0.0
230
1.0
  2
SOLID
 70
     1
 71
     0
 91
        2
 92
        1
 93
        1
 72
     4
 94
        3
 73
     0
 74
     1
 95
       29
 96
       25
 40
0.0
 40
0.0
 40
0.0
 40
0.0
 40
1.0
 40
1.0
 40
1.0
 40
2.0
 40
2.0
 40
2.0
 40
3.0
 40
3.0
 40
3.0
 40
4.0
 40
4.0
 40
4.0
 40
5.0
 40
5.0
 40
5.0
 40
6.0
 40
6.0
 40
6.0
 40
7.0
 40
7.0
 40
7.0
 40
8.0
 40
8.0
 40
8.0
 40
8.0
 10
101.7078314632883
 20
-142.7234157629303
 10
101.9172932687915
 20
-142.8188449078717
 10
101.9362412939604
 20
-142.9721516569653
 10
101.9362412939604
 20
-143.0748155024257
 10
101.9362412939604
 20
-143.216753436418
 10
101.8897325049095
 20
-143.3418104025326
 10
101.7078314632883
 20
-143.4258707323727
 10
101.5131835683717
 20
-143.5175102722804
 10
101.2761609989865
 20
-143.5343912401581
 10
101.1135524920827
 20
-143.5343912401581
 10
100.9695475007993
 20
-143.5343912401581
 10
100.7177110208275
 20
-143.519232820023
 10
100.5189290113286
 20
-143.4258707323727
 10
100.3160128872474
 20
-143.3307860969798
 10
100.2925862379477
 20
-143.188503653439
 10
100.2925862379477
 20
-143.0748155024257
 10
100.2925862379477
 20
-142.9346001161761
 10
100.3370279697074
 20
-142.8074760927704
 10
100.5189290113286
 20
-142.7234157629303
 10
100.7115098489541
 20
-142.6359103376049
 10
100.9399196796261
 20
-142.6152397646934
 10
101.1135524920827
 20
-142.6152397646934
 10
101.2847737376996
 20
-142.6152397646934
 10
101.5152506256629
 20
-142.6338432803138
 10
101.7078314632883
 20
-142.7234157629303
 97
        0
 97
        0
 92
        1
 93
        1
 72
     4
 94
        3
 73
     0
 74
     1
 95
       17
 96
       13
 40
0.0
 40
0.0
 40
0.0
 40
0.0
 40
1.0
 40
1.0
 40
1.0
 40
2.0
 40
2.0
 40
2.0
 40
3.0
 40
3.0
 40
3.0
 40
4.0
 40
4.0
 40
4.0
 40
4.0
 10
100.4851670755732
 20
-143.0748155024257
 10
100.4851670755732
 20
-143.2953016134817
 10
100.7686984340092
 20
-143.3362982497562
 10
101.1135524920827
 20
-143.3362982497562
 10
101.4329128435654
 20
-143.3362982497562
 10
101.7415933990438
 20
-143.3046033712919
 10
101.7415933990438
 20
-143.0748155024257
 10
101.7415933990438
 20
-142.8560519391124
 10
101.4604736074474
 20
-142.8133327550953
 10
101.1135524920827
 20
-142.8133327550953
 10
100.7938476310515
 20
-142.8133327550953
 10
100.4851670755732
 20
-142.8467501813022
 10
100.4851670755732
 20
-143.0748155024257
 97
        0
 97
        0
 75
     2
 76
     1
 98
        0
  0
POLYLINE
  5
D5
330
CC
100
AcDbEntity
  8
_U+30EC_U+30A4_U+30E4_U+30FC 1
370
     0
100
AcDb2dPolyline
 66
     1
 10
0.0
 20
0.0
 30
0.0
  0
VERTEX
  5
D6
330
D5
100
AcDbEntity
  8
_U+30EC_U+30A4_U+30E4_U+30FC 1
370
     0
100
AcDbVertex
100
AcDb2dVertex
 10
101.8855983903272
 20
-142.423347946165
 30
0.0
  0
VERTEX
  5
D7
330
D5
100
AcDbEntity
  8
_U+30EC_U+30A4_U+30E4_U+30FC 1
370
     0
100
AcDbVertex
100
AcDb2dVertex
 10
101.6337619103555
 20
-142.423347946165
 30
0.0
  0
VERTEX
  5
D8
330
D5
100
AcDbEntity
  8
_U+30EC_U+30A4_U+30E4_U+30FC 1
370
     0
100
AcDbVertex
100
AcDb2dVertex
 10
101.6337619103555
 20
-142.2011392873664
 30
0.0
  0
VERTEX
  5
D9
330
D5
100
AcDbEntity
  8
_U+30EC_U+30A4_U+30E4_U+30FC 1
370
     0
100
AcDbVertex
100
AcDb2dVertex
 10
101.8855983903272
 20
-142.2011392873664
 30
0.0
  0
VERTEX
  5
DA
330
D5
100
AcDbEntity
  8
_U+30EC_U+30A4_U+30E4_U+30FC 1
370
     0
100
AcDbVertex
100
AcDb2dVertex
 10
101.8855983903272
 20
-142.423347946165
 30
0.0
  0
SEQEND
  5
DB
330
D5
100
AcDbEntity
  8
_U+30EC_U+30A4_U+30E4_U+30FC 1
370
     0
  0
HATCH
  5
DC
330
CC
100
AcDbEntity
  8
_U+30EC_U+30A4_U+30E4_U+30FC 1
 62
   179
420
  2234388
100
AcDbHatch
 10
0.0
 20
0.0
 30
0.0
210
0.0
220
0.0
230
1.0
  2
SOLID
 70
     1
 71
     0
 91
        1
 92
        1
 93
        4
 72
     1
 10
101.8855983903272
 20
-142.423347946165
 11
101.6337619103555
 21
-142.423347946165
 72
     1
 10
101.6337619103555
 20
-142.423347946165
 11
101.6337619103555
 21
-142.2011392873664
 72
     1
 10
101.6337619103555
 20
-142.2011392873664
 11
101.8855983903272
 21
-142.2011392873664
 72
     1
 10
101.8855983903272
 20
-142.2011392873664
 11
101.8855983903272
 21
-142.423347946165
 97
        0
 75
     2
 76
     1
 98
        0
  0
POLYLINE
  5
DD
330
CC
100
AcDbEntity
  8
_U+30EC_U+30A4_U+30E4_U+30FC 1
370
     0
100
AcDb2dPolyline
 66
     1
 10
0.0
 20
0.0
 30
0.0
  0
VERTEX
  5
DE
330
DD
100
AcDbEntity
  8
_U+30EC_U+30A4_U+30E4_U+30FC 1
370
     0
100
AcDbVertex
100
AcDb2dVertex
 10
101.5386772749626
 20
-141.2571831244079
 30
0.0
  0
VERTEX
  5
DF
330
DD
100
AcDbEntity
  8
_U+30EC_U+30A4_U+30E4_U+30FC 1
370
     0
100
AcDbVertex
100
AcDb2dVertex
 10
101.8855983903272
 20
-141.2571831244079
 30
0.0
  0
VERTEX
  5
E0
330
DD
100
AcDbEntity
  8
_U+30EC_U+30A4_U+30E4_U+30FC 1
370
     0
100
AcDbVertex
100
AcDb2dVertex
 10
101.8855983903272
 20
-141.4497639620334
 30
0.0
  0
VERTEX
  5
E1
330
DD
100
AcDbEntity
  8
_U+30EC_U+30A4_U+30E4_U+30FC 1
370
     0
100
AcDbVertex
100
AcDb2dVertex
 10
101.5386772749626
 20
-141.4497639620334
 30
0.0
  0
VERTEX
  5
E2
330
DD
100
AcDbEntity
  8
_U+30EC_U+30A4_U+30E4_U+30FC 1
370
     0
100
AcDbVertex
100
AcDb2dVertex
 10
101.5386772749626
 20
-142.0288845131039
 30
0.0
  0
VERTEX
  5
E3
330
DD
100
AcDbEntity
  8
_U+30EC_U+30A4_U+30E4_U+30FC 1
370
     0
100
AcDbVertex
100
AcDb2dVertex
 10
101.3144015588728
 20
-142.0288845131039
 30
0.0
  0
VERTEX
  5
E4
330
DD
100
AcDbEntity
  8
_U+30EC_U+30A4_U+30E4_U+30FC 1
370
     0
100
AcDbVertex
100
AcDb2dVertex
 10
100.3411620842897
 20
-141.4290933891219
 30
0.0
  0
VERTEX
  5
E5
330
DD
100
AcDbEntity
  8
_U+30EC_U+30A4_U+30E4_U+30FC 1
370
     0
100
AcDbVertex
100
AcDb2dVertex
 10
100.3411620842897
 20
-141.2571831244079
 30
0.0
  0
VERTEX
  5
E6
330
DD
100
AcDbEntity
  8
_U+30EC_U+30A4_U+30E4_U+30FC 1
370
     0
100
AcDbVertex
100
AcDb2dVertex
 10
101.3398952654636
 20
-141.2571831244079
 30
0.0
  0
VERTEX
  5
E7
330
DD
100
AcDbEntity
  8
_U+30EC_U+30A4_U+30E4_U+30FC 1
370
     0
100
AcDbVertex
100
AcDb2dVertex
 10
101.3398952654636
 20
-141.0742485541412
 30
0.0
  0
VERTEX
  5
E8
330
DD
100
AcDbEntity
  8
_U+30EC_U+30A4_U+30E4_U+30FC 1
370
     0
100
AcDbVertex
100
AcDb2dVertex
 10
101.5386772749626
 20
-141.0742485541412
 30
0.0
  0
VERTEX
  5
E9
330
DD
100
AcDbEntity
  8
_U+30EC_U+30A4_U+30E4_U+30FC 1
370
     0
100
AcDbVertex
100
AcDb2dVertex
 10
101.5386772749626
 20
-141.2571831244079
 30
0.0
  0
SEQEND
  5
EA
330
DD
100
AcDbEntity
  8
_U+30EC_U+30A4_U+30E4_U+30FC 1
370
     0
  0
POLYLINE
  5
EB
330
CC
100
AcDbEntity
  8
_U+30EC_U+30A4_U+30E4_U+30FC 1
370
     0
100
AcDb2dPolyline
 66
     1
 10
0.0
 20
0.0
 30
0.0
  0
VERTEX
  5
EC
330
EB
100
AcDbEntity
  8
_U+30EC_U+30A4_U+30E4_U+30FC 1
370
     0
100
AcDbVertex
100
AcDb2dVertex
 10
100.6839490850721
 20
-141.4497639620334
 30
0.0
  0
VERTEX
  5
ED
330
EB
100
AcDbEntity
  8
_U+30EC_U+30A4_U+30E4_U+30FC 1
370
     0
100
AcDbVertex
100
AcDb2dVertex
 10
101.3398952654636
 20
-141.8531846433561
 30
0.0
  0
VERTEX
  5
EE
330
EB
100
AcDbEntity
  8
_U+30EC_U+30A4_U+30E4_U+30FC 1
370
     0
100
AcDbVertex
100
AcDb2dVertex
 10
101.3398952654636
 20
-141.4497639620334
 30
0.0
  0
VERTEX
  5
EF
330
EB
100
AcDbEntity
  8
_U+30EC_U+30A4_U+30E4_U+30FC 1
370
     0
100
AcDbVertex
100
AcDb2dVertex
 10
100.6839490850721
 20
-141.4497639620334
 30
0.0
  0
SEQEND
  5
F0
330
EB
100
AcDbEntity
  8
_U+30EC_U+30A4_U+30E4_U+30FC 1
370
     0
  0
HATCH
  5
F1
330
CC
100
AcDbEntity
  8
_U+30EC_U+30A4_U+30E4_U+30FC 1
 62
   179
420
  2234388
100
AcDbHatch
 10
0.0
 20
0.0
 30
0.0
210
0.0
220
0.0
230
1.0
  2
SOLID
 70
     1
 71
     0
 91
        2
 92
        1
 93
       11
 72
     1
 10
101.5386772749626
 20
-141.2571831244079
 11
101.8855983903272
 21
-141.2571831244079
 72
     1
 10
101.8855983903272
 20
-141.2571831244079
 11
101.8855983903272
 21
-141.4497639620334
 72
     1
 10
101.8855983903272
 20
-141.4497639620334
 11
101.5386772749626
 21
-141.4497639620334
 72
     1
 10
101.5386772749626
 20
-141.4497639620334
 11
101.5386772749626
 21
-142.0288845131039
 72
     1
 10
101.5386772749626
 20
-142.0288845131039
 11
101.3144015588728
 21
-142.0288845131039
 72
     1
 10
101.3144015588728
 20
-142.0288845131039
 11
100.3411620842897
 21
-141.4290933891219
 72
     1
 10
100.3411620842897
 20
-141.4290933891219
 11
100.3411620842897
 21
-141.2571831244079
 72
     1
 10
100.3411620842897
 20
-141.2571831244079
 11
101.3398952654636
 21
-141.2571831244079
 72
     1
 10
101.3398952654636
 20
-141.2571831244079
 11
101.3398952654636
 21
-141.0742485541412
 72
     1
 10
101.3398952654636
 20
-141.0742485541412
 11
101.5386772749626
 21
-141.0742485541412
 72
     1
 10
101.5386772749626
 20
-141.0742485541412
 11
101.5386772749626
 21
-141.2571831244079
 97
        0
 92
        1
 93
        3
 72
     1
 10
100.6839490850721
 20
-141.4497639620334
 11
101.3398952654636
 21
-141.8531846433561
 72
     1
 10
101.3398952654636
 20
-141.8531846433561
 11
101.3398952654636
 21
-141.4497639620334
 72
     1
 10
101.3398952654636
 20
-141.4497639620334
 11
100.6839490850721
 21
-141.4497639620334
 97
        0
 75
     2
 76
     1
 98
        0
  0
ENDBLK
  5
CF
330
CC
100
AcDbEntity
  8
0
100
AcDbBlockEnd
  0
BLOCK
  5
F4
330
F2
100
AcDbEntity
  8
0
100
AcDbBlockBegin
  2
block 8
 70
     0
 10
0.0
 20
0.0
 30
0.0
  3
block 8
  1

  0
SPLINE
  5
F6
330
F2
100
AcDbEntity
  8
_U+30EC_U+30A4_U+30E4_U+30FC 1
370
     0
100
AcDbSpline
210
0.0
220
0.0
230
1.0
 70
    11
 71
     3
 72
    44
 73
    40
 74
     0
 42
0.0000000001
 43
0.0000000001
 12
1.0
 22
0.0
 32
0.0
 13
1.0
 23
0.0
 33
0.0
 40
0.0
 40
0.0
 40
0.0
 40
0.0
 40
1.0
 40
1.0
 40
1.0
 40
2.0
 40
2.0
 40
2.0
 40
3.0
 40
3.0
 40
3.0
 40
4.0
 40
4.0
 40
4.0
 40
5.0
 40
5.0
 40
5.0
 40
6.0
 40
6.0
 40
6.0
 40
7.0
 40
7.0
 40
7.0
 40
8.0
 40
8.0
 40
8.0
 40
9.0
 40
9.0
 40
9.0
 40
10.0
 40
10.0
 40
10.0
 40
11.0
 40
11.0
 40
11.0
 40
12.0
 40
12.0
 40
12.0
 40
13.0
 40
13.0
 40
13.0
 40
13.0
 10
101.3026882342229
 20
-125.9320203678226
 30
0.0
 10
101.461507136093
 20
-126.124601205448
 30
0.0
 10
101.5355766890258
 20
-126.206594477997
 30
0.0
 10
101.6792371707608
 20
-126.2496581715626
 30
0.0
 10
101.6792371707608
 20
-126.2496581715626
 30
0.0
 10
101.6792371707608
 20
-125.5623616222553
 30
0.0
 10
101.6792371707608
 20
-125.5623616222553
 30
0.0
 10
101.6792371707608
 20
-125.5623616222553
 30
0.0
 10
101.8845648616816
 20
-125.5623616222553
 30
0.0
 10
101.8845648616816
 20
-125.5623616222553
 30
0.0
 10
101.8845648616816
 20
-125.5623616222553
 30
0.0
 10
101.8845648616816
 20
-126.4701442826186
 30
0.0
 10
101.8845648616816
 20
-126.4701442826186
 30
0.0
 10
101.5269639503127
 20
-126.4418944996395
 30
0.0
 10
101.4487602827975
 20
-126.3840168954873
 30
0.0
 10
101.1504150137749
 20
-126.0439859710932
 30
0.0
 10
100.951633004276
 20
-125.8179877072608
 30
0.0
 10
100.8837646232166
 20
-125.7601101031086
 30
0.0
 10
100.7463053133551
 20
-125.7601101031086
 30
0.0
 10
100.6277940286625
 20
-125.7601101031086
 30
0.0
 10
100.496880400223
 20
-125.8238443695857
 30
0.0
 10
100.496880400223
 20
-125.9974771820423
 30
0.0
 10
100.496880400223
 20
-126.2272650509085
 30
0.0
 10
100.7273572881862
 20
-126.2344997514275
 30
0.0
 10
100.8438015155877
 20
-126.2382893564613
 30
0.0
 10
100.8438015155877
 20
-126.2382893564613
 30
0.0
 10
100.8438015155877
 20
-126.4363823468631
 30
0.0
 10
100.8438015155877
 20
-126.4363823468631
 30
0.0
 10
100.7166774921819
 20
-126.4288031367956
 30
0.0
 10
100.6047118889113
 20
-126.4195013789854
 30
0.0
 10
100.4862006042187
 20
-126.3485324119893
 30
0.0
 10
100.3253146450576
 20
-126.2513807193052
 30
0.0
 10
100.2915527093021
 20
-126.0870496646588
 30
0.0
 10
100.2915527093021
 20
-125.9843858191984
 30
0.0
 10
100.2915527093021
 20
-125.7397840397456
 30
0.0
 10
100.4755208082145
 20
-125.5565049599303
 30
0.0
 10
100.7483723706463
 20
-125.5565049599303
 30
0.0
 10
100.9771267108668
 20
-125.5565049599303
 30
0.0
 10
101.076345460842
 20
-125.6595133149393
 30
0.0
 10
101.3026882342229
 20
-125.9320203678226
 30
0.0
  0
HATCH
  5
F7
330
F2
100
AcDbEntity
  8
_U+30EC_U+30A4_U+30E4_U+30FC 1
 62
   179
420
  2234388
100
AcDbHatch
 10
0.0
 20
0.0
 30
0.0
210
0.0
220
0.0
230
1.0
  2
SOLID
 70
     1
 71
     0
 91
        1
 92
        1
 93
        1
 72
     4
 94
        3
 73
     0
 74
     1
 95
       44
 96
       40
 40
0.0
 40
0.0
 40
0.0
 40
0.0
 40
1.0
 40
1.0
 40
1.0
 40
2.0
 40
2.0
 40
2.0
 40
3.0
 40
3.0
 40
3.0
 40
4.0
 40
4.0
 40
4.0
 40
5.0
 40
5.0
 40
5.0
 40
6.0
 40
6.0
 40
6.0
 40
7.0
 40
7.0
 40
7.0
 40
8.0
 40
8.0
 40
8.0
 40
9.0
 40
9.0
 40
9.0
 40
10.0
 40
10.0
 40
10.0
 40
11.0
 40
11.0
 40
11.0
 40
12.0
 40
12.0
 40
12.0
 40
13.0
 40
13.0
 40
13.0
 40
13.0
 10
101.3026882342229
 20
-125.9320203678226
 10
101.461507136093
 20
-126.124601205448
 10
101.5355766890258
 20
-126.206594477997
 10
101.6792371707608
 20
-126.2496581715626
 10
101.6792371707608
 20
-126.2496581715626
 10
101.6792371707608
 20
-125.5623616222553
 10
101.6792371707608
 20
-125.5623616222553
 10
101.6792371707608
 20
-125.5623616222553
 10
101.8845648616816
 20
-125.5623616222553
 10
101.8845648616816
 20
-125.5623616222553
 10
101.8845648616816
 20
-125.5623616222553
 10
101.8845648616816
 20
-126.4701442826186
 10
101.8845648616816
 20
-126.4701442826186
 10
101.5269639503127
 20
-126.4418944996395
 10
101.4487602827975
 20
-126.3840168954873
 10
101.1504150137749
 20
-126.0439859710932
 10
100.951633004276
 20
-125.8179877072608
 10
100.8837646232166
 20
-125.7601101031086
 10
100.7463053133551
 20
-125.7601101031086
 10
100.6277940286625
 20
-125.7601101031086
 10
100.496880400223
 20
-125.8238443695857
 10
100.496880400223
 20
-125.9974771820423
 10
100.496880400223
 20
-126.2272650509085
 10
100.7273572881862
 20
-126.2344997514275
 10
100.8438015155877
 20
-126.2382893564613
 10
100.8438015155877
 20
-126.2382893564613
 10
100.8438015155877
 20
-126.4363823468631
 10
100.8438015155877
 20
-126.4363823468631
 10
100.7166774921819
 20
-126.4288031367956
 10
100.6047118889113
 20
-126.4195013789854
 10
100.4862006042187
 20
-126.3485324119893
 10
100.3253146450576
 20
-126.2513807193052
 10
100.2915527093021
 20
-126.0870496646588
 10
100.2915527093021
 20
-125.9843858191984
 10
100.2915527093021
 20
-125.7397840397456
 10
100.4755208082145
 20
-125.5565049599303
 10
100.7483723706463
 20
-125.5565049599303
 10
100.9771267108668
 20
-125.5565049599303
 10
101.076345460842
 20
-125.6595133149393
 10
101.3026882342229
 20
-125.9320203678226
 97
        0
 97
        0
 75
     2
 76
     1
 98
        0
  0
SPLINE
  5
F8
330
F2
100
AcDbEntity
  8
_U+30EC_U+30A4_U+30E4_U+30FC 1
370
     0
100
AcDbSpline
210
0.0
220
0.0
230
1.0
 70
    11
 71
     3
 72
    53
 73
    49
 74
     0
 42
0.0000000001
 43
0.0000000001
 12
1.0
 22
0.0
 32
0.0
 13
1.0
 23
0.0
 33
0.0
 40
0.0
 40
0.0
 40
0.0
 40
0.0
 40
1.0
 40
1.0
 40
1.0
 40
2.0
 40
2.0
 40
2.0
 40
3.0
 40
3.0
 40
3.0
 40
4.0
 40
4.0
 40
4.0
 40
5.0
 40
5.0
 40
5.0
 40
6.0
 40
6.0
 40
6.0
 40
7.0
 40
7.0
 40
7.0
 40
8.0
 40
8.0
 40
8.0
 40
9.0
 40
9.0
 40
9.0
 40
10.0
 40
10.0
 40
10.0
 40
11.0
 40
11.0
 40
11.0
 40
12.0
 40
12.0
 40
12.0
 40
13.0
 40
13.0
 40
13.0
 40
14.0
 40
14.0
 40
14.0
 40
15.0
 40
15.0
 40
15.0
 40
16.0
 40
16.0
 40
16.0
 40
16.0
 10
101.9352077653148
 20
-124.9915093003493
 30
0.0
 10
101.9352077653148
 20
-125.0604112100543
 30
0.0
 10
101.9183267974371
 20
-125.1499836926708
 30
0.0
 10
101.8549370405085
 20
-125.2399006848359
 30
0.0
 10
101.745038494529
 20
-125.3928629243809
 30
0.0
 10
101.613780356541
 20
-125.4114664400013
 30
0.0
 10
101.5059488678527
 20
-125.428347407879
 30
0.0
 10
101.5059488678527
 20
-125.428347407879
 30
0.0
 10
101.5059488678527
 20
-125.2323214747683
 30
0.0
 10
101.5059488678527
 20
-125.2323214747683
 30
0.0
 10
101.7047308773516
 20
-125.1837456284263
 30
0.0
 10
101.7343586985247
 20
-125.0717800251557
 30
0.0
 10
101.7343586985247
 20
-124.9894422430582
 30
0.0
 10
101.7343586985247
 20
-124.8661078246863
 30
0.0
 10
101.634795439001
 20
-124.7317491007615
 30
0.0
 10
101.4022514937467
 20
-124.7317491007615
 30
0.0
 10
101.1462808991926
 20
-124.7317491007615
 30
0.0
 10
101.076345460842
 20
-124.8905680026315
 30
0.0
 10
101.076345460842
 20
-124.9970214531258
 30
0.0
 10
101.076345460842
 20
-125.0249267265563
 30
0.0
 10
101.076345460842
 20
-125.1499836926708
 30
0.0
 10
101.2055365415389
 20
-125.2285318697345
 30
0.0
 10
101.2055365415389
 20
-125.2285318697345
 30
0.0
 10
101.18658851637
 20
-125.3835611665708
 30
0.0
 10
101.18658851637
 20
-125.3835611665708
 30
0.0
 10
101.18658851637
 20
-125.3835611665708
 30
0.0
 10
100.3401285556441
 20
-125.2771077160766
 30
0.0
 10
100.3401285556441
 20
-125.2771077160766
 30
0.0
 10
100.3401285556441
 20
-125.2771077160766
 30
0.0
 10
100.3401285556441
 20
-124.5898111667692
 30
0.0
 10
100.3401285556441
 20
-124.5898111667692
 30
0.0
 10
100.3401285556441
 20
-124.5898111667692
 30
0.0
 10
100.5347764505608
 20
-124.5898111667692
 30
0.0
 10
100.5347764505608
 20
-124.5898111667692
 30
0.0
 10
100.5347764505608
 20
-124.5898111667692
 30
0.0
 10
100.5347764505608
 20
-125.1334472343416
 30
0.0
 10
100.5347764505608
 20
-125.1334472343416
 30
0.0
 10
100.5347764505608
 20
-125.1334472343416
 30
0.0
 10
100.9578341761494
 20
-125.1913248384938
 30
0.0
 10
100.9578341761494
 20
-125.1913248384938
 30
0.0
 10
100.924072240394
 20
-125.1368923298269
 30
0.0
 10
100.8837646232166
 20
-125.0642008150881
 30
0.0
 10
100.8837646232166
 20
-124.9594699123365
 30
0.0
 10
100.8837646232166
 20
-124.7355387057953
 30
0.0
 10
101.0701442889686
 20
-124.5260769002921
 30
0.0
 10
101.3833034685778
 20
-124.5260769002921
 30
0.0
 10
101.7005967627693
 20
-124.5260769002921
 30
0.0
 10
101.9352077653148
 20
-124.724169890694
 30
0.0
 10
101.9352077653148
 20
-124.9915093003493
 30
0.0
  0
HATCH
  5
F9
330
F2
100
AcDbEntity
  8
_U+30EC_U+30A4_U+30E4_U+30FC 1
 62
   179
420
  2234388
100
AcDbHatch
 10
0.0
 20
0.0
 30
0.0
210
0.0
220
0.0
230
1.0
  2
SOLID
 70
     1
 71
     0
 91
        1
 92
        1
 93
        1
 72
     4
 94
        3
 73
     0
 74
     1
 95
       53
 96
       49
 40
0.0
 40
0.0
 40
0.0
 40
0.0
 40
1.0
 40
1.0
 40
1.0
 40
2.0
 40
2.0
 40
2.0
 40
3.0
 40
3.0
 40
3.0
 40
4.0
 40
4.0
 40
4.0
 40
5.0
 40
5.0
 40
5.0
 40
6.0
 40
6.0
 40
6.0
 40
7.0
 40
7.0
 40
7.0
 40
8.0
 40
8.0
 40
8.0
 40
9.0
 40
9.0
 40
9.0
 40
10.0
 40
10.0
 40
10.0
 40
11.0
 40
11.0
 40
11.0
 40
12.0
 40
12.0
 40
12.0
 40
13.0
 40
13.0
 40
13.0
 40
14.0
 40
14.0
 40
14.0
 40
15.0
 40
15.0
 40
15.0
 40
16.0
 40
16.0
 40
16.0
 40
16.0
 10
101.9352077653148
 20
-124.9915093003493
 10
101.9352077653148
 20
-125.0604112100543
 10
101.9183267974371
 20
-125.1499836926708
 10
101.8549370405085
 20
-125.2399006848359
 10
101.745038494529
 20
-125.3928629243809
 10
101.613780356541
 20
-125.4114664400013
 10
101.5059488678527
 20
-125.428347407879
 10
101.5059488678527
 20
-125.428347407879
 10
101.5059488678527
 20
-125.2323214747683
 10
101.5059488678527
 20
-125.2323214747683
 10
101.7047308773516
 20
-125.1837456284263
 10
101.7343586985247
 20
-125.0717800251557
 10
101.7343586985247
 20
-124.9894422430582
 10
101.7343586985247
 20
-124.8661078246863
 10
101.634795439001
 20
-124.7317491007615
 10
101.4022514937467
 20
-124.7317491007615
 10
101.1462808991926
 20
-124.7317491007615
 10
101.076345460842
 20
-124.8905680026315
 10
101.076345460842
 20
-124.9970214531258
 10
101.076345460842
 20
-125.0249267265563
 10
101.076345460842
 20
-125.1499836926708
 10
101.2055365415389
 20
-125.2285318697345
 10
101.2055365415389
 20
-125.2285318697345
 10
101.18658851637
 20
-125.3835611665708
 10
101.18658851637
 20
-125.3835611665708
 10
101.18658851637
 20
-125.3835611665708
 10
100.3401285556441
 20
-125.2771077160766
 10
100.3401285556441
 20
-125.2771077160766
 10
100.3401285556441
 20
-125.2771077160766
 10
100.3401285556441
 20
-124.5898111667692
 10
100.3401285556441
 20
-124.5898111667692
 10
100.3401285556441
 20
-124.5898111667692
 10
100.5347764505608
 20
-124.5898111667692
 10
100.5347764505608
 20
-124.5898111667692
 10
100.5347764505608
 20
-124.5898111667692
 10
100.5347764505608
 20
-125.1334472343416
 10
100.5347764505608
 20
-125.1334472343416
 10
100.5347764505608
 20
-125.1334472343416
 10
100.9578341761494
 20
-125.1913248384938
 10
100.9578341761494
 20
-125.1913248384938
 10
100.924072240394
 20
-125.1368923298269
 10
100.8837646232166
 20
-125.0642008150881
 10
100.8837646232166
 20
-124.9594699123365
 10
100.8837646232166
 20
-124.7355387057953
 10
101.0701442889686
 20
-124.5260769002921
 10
101.3833034685778
 20
-124.5260769002921
 10
101.7005967627693
 20
-124.5260769002921
 10
101.9352077653148
 20
-124.724169890694
 10
101.9352077653148
 20
-124.9915093003493
 97
        0
 97
        0
 75
     2
 76
     1
 98
        0
  0
POLYLINE
  5
FA
330
F2
100
AcDbEntity
  8
_U+30EC_U+30A4_U+30E4_U+30FC 1
370
     0
100
AcDb2dPolyline
 66
     1
 10
0.0
 20
0.0
 30
0.0
  0
VERTEX
  5
FB
330
FA
100
AcDbEntity
  8
_U+30EC_U+30A4_U+30E4_U+30FC 1
370
     0
100
AcDbVertex
100
AcDb2dVertex
 10
101.8845648616816
 20
-124.3231607762109
 30
0.0
  0
VERTEX
  5
FC
330
FA
100
AcDbEntity
  8
_U+30EC_U+30A4_U+30E4_U+30FC 1
370
     0
100
AcDbVertex
100
AcDb2dVertex
 10
101.6327283817099
 20
-124.3231607762109
 30
0.0
  0
VERTEX
  5
FD
330
FA
100
AcDbEntity
  8
_U+30EC_U+30A4_U+30E4_U+30FC 1
370
     0
100
AcDbVertex
100
AcDb2dVertex
 10
101.6327283817099
 20
-124.1009521174123
 30
0.0
  0
VERTEX
  5
FE
330
FA
100
AcDbEntity
  8
_U+30EC_U+30A4_U+30E4_U+30FC 1
370
     0
100
AcDbVertex
100
AcDb2dVertex
 10
101.8845648616816
 20
-124.1009521174123
 30
0.0
  0
VERTEX
  5
FF
330
FA
100
AcDbEntity
  8
_U+30EC_U+30A4_U+30E4_U+30FC 1
370
     0
100
AcDbVertex
100
AcDb2dVertex
 10
101.8845648616816
 20
-124.3231607762109
 30
0.0
  0
SEQEND
  5
100
330
FA
100
AcDbEntity
  8
_U+30EC_U+30A4_U+30E4_U+30FC 1
370
     0
  0
HATCH
  5
101
330
F2
100
AcDbEntity
  8
_U+30EC_U+30A4_U+30E4_U+30FC 1
 62
   179
420
  2234388
100
AcDbHatch
 10
0.0
 20
0.0
 30
0.0
210
0.0
220
0.0
230
1.0
  2
SOLID
 70
     1
 71
     0
 91
        1
 92
        1
 93
        4
 72
     1
 10
101.8845648616816
 20
-124.3231607762109
 11
101.6327283817099
 21
-124.3231607762109
 72
     1
 10
101.6327283817099
 20
-124.3231607762109
 11
101.6327283817099
 21
-124.1009521174123
 72
     1
 10
101.6327283817099
 20
-124.1009521174123
 11
101.8845648616816
 21
-124.1009521174123
 72
     1
 10
101.8845648616816
 20
-124.1009521174123
 11
101.8845648616816
 21
-124.3231607762109
 97
        0
 75
     2
 76
     1
 98
        0
  0
SPLINE
  5
102
330
F2
100
AcDbEntity
  8
_U+30EC_U+30A4_U+30E4_U+30FC 1
370
     0
100
AcDbSpline
210
0.0
220
0.0
230
1.0
 70
    11
 71
     3
 72
    29
 73
    25
 74
     0
 42
0.0000000001
 43
0.0000000001
 12
1.0
 22
0.0
 32
0.0
 13
1.0
 23
0.0
 33
0.0
 40
0.0
 40
0.0
 40
0.0
 40
0.0
 40
1.0
 40
1.0
 40
1.0
 40
2.0
 40
2.0
 40
2.0
 40
3.0
 40
3.0
 40
3.0
 40
4.0
 40
4.0
 40
4.0
 40
5.0
 40
5.0
 40
5.0
 40
6.0
 40
6.0
 40
6.0
 40
7.0
 40
7.0
 40
7.0
 40
8.0
 40
8.0
 40
8.0
 40
8.0
 10
101.9352077653148
 20
-123.4505180897971
 30
0.0
 10
101.9352077653148
 20
-123.6858181114397
 30
0.0
 10
101.7977484554533
 20
-123.9097493179809
 30
0.0
 10
101.4487602827975
 20
-123.9097493179809
 30
0.0
 10
101.1927896882435
 20
-123.9097493179809
 30
0.0
 10
101.0977050528506
 20
-123.7846923518663
 30
0.0
 10
101.0363823532131
 20
-123.6913302642161
 30
0.0
 10
100.9771267108668
 20
-123.8015733197441
 30
0.0
 10
100.8627495407565
 20
-123.8687526817064
 30
0.0
 10
100.7018635815954
 20
-123.8687526817064
 30
0.0
 10
100.4269449618724
 20
-123.8687526817064
 30
0.0
 10
100.2915527093021
 20
-123.6933973215072
 30
0.0
 10
100.2915527093021
 20
-123.4505180897971
 30
0.0
 10
100.2915527093021
 20
-123.2000596480194
 30
0.0
 10
100.4355577005856
 20
-123.0319389883392
 30
0.0
 10
100.7018635815954
 20
-123.0319389883392
 30
0.0
 10
100.8627495407565
 20
-123.0319389883392
 30
0.0
 10
100.9771267108668
 20
-123.1011854075928
 30
0.0
 10
101.0363823532131
 20
-123.2114284631208
 30
0.0
 10
101.0870252568463
 20
-123.1328802860571
 30
0.0
 10
101.1821098922392
 20
-122.9926648998074
 30
0.0
 10
101.4446261682152
 20
-122.9926648998074
 30
0.0
 10
101.8191080474619
 20
-122.9926648998074
 30
0.0
 10
101.9352077653148
 20
-123.2393337365513
 30
0.0
 10
101.9352077653148
 20
-123.4505180897971
 30
0.0
  0
SPLINE
  5
103
330
F2
100
AcDbEntity
  8
_U+30EC_U+30A4_U+30E4_U+30FC 1
370
     0
100
AcDbSpline
210
0.0
220
0.0
230
1.0
 70
    11
 71
     3
 72
    17
 73
    13
 74
     0
 42
0.0000000001
 43
0.0000000001
 12
1.0
 22
0.0
 32
0.0
 13
1.0
 23
0.0
 33
0.0
 40
0.0
 40
0.0
 40
0.0
 40
0.0
 40
1.0
 40
1.0
 40
1.0
 40
2.0
 40
2.0
 40
2.0
 40
3.0
 40
3.0
 40
3.0
 40
4.0
 40
4.0
 40
4.0
 40
4.0
 10
100.4841335469276
 20
-123.4505180897971
 30
0.0
 10
100.4841335469276
 20
-123.5962456288232
 30
0.0
 10
100.5792181823205
 20
-123.6706596913046
 30
0.0
 10
100.7146104348908
 20
-123.6706596913046
 30
0.0
 10
100.8372558341657
 20
-123.6706596913046
 30
0.0
 10
100.9557671188583
 20
-123.607269934376
 30
0.0
 10
100.9557671188583
 20
-123.4505180897971
 30
0.0
 10
100.9557671188583
 20
-123.2934217356697
 30
0.0
 10
100.8372558341657
 20
-123.2300319787411
 30
0.0
 10
100.7146104348908
 20
-123.2300319787411
 30
0.0
 10
100.5792181823205
 20
-123.2300319787411
 30
0.0
 10
100.4841335469276
 20
-123.3065130985137
 30
0.0
 10
100.4841335469276
 20
-123.4505180897971
 30
0.0
  0
SPLINE
  5
104
330
F2
100
AcDbEntity
  8
_U+30EC_U+30A4_U+30E4_U+30FC 1
370
     0
100
AcDbSpline
210
0.0
220
0.0
230
1.0
 70
    11
 71
     3
 72
    17
 73
    13
 74
     0
 42
0.0000000001
 43
0.0000000001
 12
1.0
 22
0.0
 32
0.0
 13
1.0
 23
0.0
 33
0.0
 40
0.0
 40
0.0
 40
0.0
 40
0.0
 40
1.0
 40
1.0
 40
1.0
 40
2.0
 40
2.0
 40
2.0
 40
3.0
 40
3.0
 40
3.0
 40
4.0
 40
4.0
 40
4.0
 40
4.0
 10
101.1442138419014
 20
-123.4505180897971
 30
0.0
 10
101.1442138419014
 20
-123.5772976036543
 30
0.0
 10
101.2310302481297
 20
-123.7120008371276
 30
0.0
 10
101.433946372211
 20
-123.7120008371276
 30
0.0
 10
101.6392740631319
 20
-123.7120008371276
 30
0.0
 10
101.7405598703982
 20
-123.5996907243084
 30
0.0
 10
101.7405598703982
 20
-123.4505180897971
 30
0.0
 10
101.7405598703982
 20
-123.2861870351507
 30
0.0
 10
101.6179144711233
 20
-123.1890353424666
 30
0.0
 10
101.4401475440844
 20
-123.1890353424666
 30
0.0
 10
101.2182833948343
 20
-123.1890353424666
 30
0.0
 10
101.1442138419014
 20
-123.3326958242016
 30
0.0
 10
101.1442138419014
 20
-123.4505180897971
 30
0.0
  0
HATCH
  5
105
330
F2
100
AcDbEntity
  8
_U+30EC_U+30A4_U+30E4_U+30FC 1
 62
   179
420
  2234388
100
AcDbHatch
 10
0.0
 20
0.0
 30
0.0
210
0.0
220
0.0
230
1.0
  2
SOLID
 70
     1
 71
     0
 91
        3
 92
        1
 93
        1
 72
     4
 94
        3
 73
     0
 74
     1
 95
       29
 96
       25
 40
0.0
 40
0.0
 40
0.0
 40
0.0
 40
1.0
 40
1.0
 40
1.0
 40
2.0
 40
2.0
 40
2.0
 40
3.0
 40
3.0
 40
3.0
 40
4.0
 40
4.0
 40
4.0
 40
5.0
 40
5.0
 40
5.0
 40
6.0
 40
6.0
 40
6.0
 40
7.0
 40
7.0
 40
7.0
 40
8.0
 40
8.0
 40
8.0
 40
8.0
 10
101.9352077653148
 20
-123.4505180897971
 10
101.9352077653148
 20
-123.6858181114397
 10
101.7977484554533
 20
-123.9097493179809
 10
101.4487602827975
 20
-123.9097493179809
 10
101.1927896882435
 20
-123.9097493179809
 10
101.0977050528506
 20
-123.7846923518663
 10
101.0363823532131
 20
-123.6913302642161
 10
100.9771267108668
 20
-123.8015733197441
 10
100.8627495407565
 20
-123.8687526817064
 10
100.7018635815954
 20
-123.8687526817064
 10
100.4269449618724
 20
-123.8687526817064
 10
100.2915527093021
 20
-123.6933973215072
 10
100.2915527093021
 20
-123.4505180897971
 10
100.2915527093021
 20
-123.2000596480194
 10
100.4355577005856
 20
-123.0319389883392
 10
100.7018635815954
 20
-123.0319389883392
 10
100.8627495407565
 20
-123.0319389883392
 10
100.9771267108668
 20
-123.1011854075928
 10
101.0363823532131
 20
-123.2114284631208
 10
101.0870252568463
 20
-123.1328802860571
 10
101.1821098922392
 20
-122.9926648998074
 10
101.4446261682152
 20
-122.9926648998074
 10
101.8191080474619
 20
-122.9926648998074
 10
101.9352077653148
 20
-123.2393337365513
 10
101.9352077653148
 20
-123.4505180897971
 97
        0
 97
        0
 92
        1
 93
        1
 72
     4
 94
        3
 73
     0
 74
     1
 95
       17
 96
       13
 40
0.0
 40
0.0
 40
0.0
 40
0.0
 40
1.0
 40
1.0
 40
1.0
 40
2.0
 40
2.0
 40
2.0
 40
3.0
 40
3.0
 40
3.0
 40
4.0
 40
4.0
 40
4.0
 40
4.0
 10
100.4841335469276
 20
-123.4505180897971
 10
100.4841335469276
 20
-123.5962456288232
 10
100.5792181823205
 20
-123.6706596913046
 10
100.7146104348908
 20
-123.6706596913046
 10
100.8372558341657
 20
-123.6706596913046
 10
100.9557671188583
 20
-123.607269934376
 10
100.9557671188583
 20
-123.4505180897971
 10
100.9557671188583
 20
-123.2934217356697
 10
100.8372558341657
 20
-123.2300319787411
 10
100.7146104348908
 20
-123.2300319787411
 10
100.5792181823205
 20
-123.2300319787411
 10
100.4841335469276
 20
-123.3065130985137
 10
100.4841335469276
 20
-123.4505180897971
 97
        0
 97
        0
 92
        1
 93
        1
 72
     4
 94
        3
 73
     0
 74
     1
 95
       17
 96
       13
 40
0.0
 40
0.0
 40
0.0
 40
0.0
 40
1.0
 40
1.0
 40
1.0
 40
2.0
 40
2.0
 40
2.0
 40
3.0
 40
3.0
 40
3.0
 40
4.0
 40
4.0
 40
4.0
 40
4.0
 10
101.1442138419014
 20
-123.4505180897971
 10
101.1442138419014
 20
-123.5772976036543
 10
101.2310302481297
 20
-123.7120008371276
 10
101.433946372211
 20
-123.7120008371276
 10
101.6392740631319
 20
-123.7120008371276
 10
101.7405598703982
 20
-123.5996907243084
 10
101.7405598703982
 20
-123.4505180897971
 10
101.7405598703982
 20
-123.2861870351507
 10
101.6179144711233
 20
-123.1890353424666
 10
101.4401475440844
 20
-123.1890353424666
 10
101.2182833948343
 20
-123.1890353424666
 10
101.1442138419014
 20
-123.3326958242016
 10
101.1442138419014
 20
-123.4505180897971
 97
        0
 97
        0
 75
     2
 76
     1
 98
        0
  0
ENDBLK
  5
F5
330
F2
100
AcDbEntity
  8
0
100
AcDbBlockEnd
  0
ENDSEC
  0
SECTION
  2
ENTITIES
  0
INSERT
  5
42
330
1F
100
AcDbEntity
  8
_U+30EC_U+30A4_U+30E4_U+30FC 1
100
AcDbBlockReference
  2
block 2
 10
0.0
 20
0.0
 30
0.0
  0
SPLINE
  5
46
330
1F
100
AcDbEntity
  8
_U+30EC_U+30A4_U+30E4_U+30FC 1
 62
   179
420
  2234388
370
     9
100
AcDbSpline
210
0.0
220
0.0
230
1.0
 70
    11
 71
     3
 72
    17
 73
    13
 74
     0
 42
0.0000000001
 43
0.0000000001
 12
1.0
 22
0.0
 32
0.0
 13
1.0
 23
0.0
 33
0.0
 40
0.0
 40
0.0
 40
0.0
 40
0.0
 40
1.0
 40
1.0
 40
1.0
 40
2.0
 40
2.0
 40
2.0
 40
3.0
 40
3.0
 40
3.0
 40
4.0
 40
4.0
 40
4.0
 40
4.0
 10
97.97919222256478
 20
-107.8313255285977
 30
0.0
 10
97.97919222256478
 20
-107.7761863619449
 30
0.0
 10
98.02399499919954
 20
-107.731418861956
 30
0.0
 10
98.07909888668262
 20
-107.731418861956
 30
0.0
 10
98.13423805194256
 20
-107.731418861956
 30
0.0
 10
98.17900555080045
 20
-107.7761863619449
 30
0.0
 10
98.17900555080045
 20
-107.8313255285977
 30
0.0
 10
98.17900555080045
 20
-107.8867821952507
 30
0.0
 10
98.13423805194256
 20
-107.9315849730171
 30
0.0
 10
98.07909888668262
 20
-107.9315849730171
 30
0.0
 10
98.02399499919954
 20
-107.9315849730171
 30
0.0
 10
97.97919222256478
 20
-107.8867821952507
 30
0.0
 10
97.97919222256478
 20
-107.8313255285977
 30
0.0
  0
SPLINE
  5
47
330
1F
100
AcDbEntity
  8
_U+30EC_U+30A4_U+30E4_U+30FC 1
 62
   179
420
  2234388
370
     9
100
AcDbSpline
210
0.0
220
0.0
230
1.0
 70
    11
 71
     3
 72
    17
 73
    13
 74
     0
 42
0.0000000001
 43
0.0000000001
 12
1.0
 22
0.0
 32
0.0
 13
1.0
 23
0.0
 33
0.0
 40
0.0
 40
0.0
 40
0.0
 40
0.0
 40
1.0
 40
1.0
 40
1.0
 40
2.0
 40
2.0
 40
2.0
 40
3.0
 40
3.0
 40
3.0
 40
4.0
 40
4.0
 40
4.0
 40
4.0
 10
98.77915109104502
 20
-107.8313255285977
 30
0.0
 10
98.77915109104502
 20
-107.7761863619449
 30
0.0
 10
98.82395386767978
 20
-107.731418861956
 30
0.0
 10
98.87905775516285
 20
-107.731418861956
 30
0.0
 10
98.9341969204228
 20
-107.731418861956
 30
0.0
 10
98.97896441928069
 20
-107.7761863619449
 30
0.0
 10
98.97896441928069
 20
-107.8313255285977
 30
0.0
 10
98.97896441928069
 20
-107.8867821952507
 30
0.0
 10
98.9341969204228
 20
-107.9315849730171
 30
0.0
 10
98.87905775516285
 20
-107.9315849730171
 30
0.0
 10
98.82395386767978
 20
-107.9315849730171
 30
0.0
 10
98.77915109104502
 20
-107.8867821952507
 30
0.0
 10
98.77915109104502
 20
-107.8313255285977
 30
0.0
  0
SPLINE
  5
48
330
1F
100
AcDbEntity
  8
_U+30EC_U+30A4_U+30E4_U+30FC 1
 62
   179
420
  2234388
370
     9
100
AcDbSpline
210
0.0
220
0.0
230
1.0
 70
    11
 71
     3
 72
    17
 73
    13
 74
     0
 42
0.0000000001
 43
0.0000000001
 12
1.0
 22
0.0
 32
0.0
 13
1.0
 23
0.0
 33
0.0
 40
0.0
 40
0.0
 40
0.0
 40
0.0
 40
1.0
 40
1.0
 40
1.0
 40
2.0
 40
2.0
 40
2.0
 40
3.0
 40
3.0
 40
3.0
 40
4.0
 40
4.0
 40
4.0
 40
4.0
 10
102.5777209941354
 20
-111.8317549720419
 30
0.0
 10
102.5777209941354
 20
-111.7762983053892
 30
0.0
 10
102.6224884929933
 20
-111.7314955276225
 30
0.0
 10
102.6776276582533
 20
-111.7314955276225
 30
0.0
 10
102.7327315457363
 20
-111.7314955276225
 30
0.0
 10
102.7775343223711
 20
-111.7762983053892
 30
0.0
 10
102.7775343223711
 20
-111.8317549720419
 30
0.0
 10
102.7775343223711
 20
-111.886894138695
 30
0.0
 10
102.7327315457363
 20
-111.9316616386839
 30
0.0
 10
102.6776276582533
 20
-111.9316616386839
 30
0.0
 10
102.6224884929933
 20
-111.9316616386839
 30
0.0
 10
102.5777209941354
 20
-111.886894138695
 30
0.0
 10
102.5777209941354
 20
-111.8317549720419
 30
0.0
  0
SPLINE
  5
49
330
1F
100
AcDbEntity
  8
_U+30EC_U+30A4_U+30E4_U+30FC 1
 62
   179
420
  2234388
370
     9
100
AcDbSpline
210
0.0
220
0.0
230
1.0
 70
    11
 71
     3
 72
    17
 73
    13
 74
     0
 42
0.0000000001
 43
0.0000000001
 12
1.0
 22
0.0
 32
0.0
 13
1.0
 23
0.0
 33
0.0
 40
0.0
 40
0.0
 40
0.0
 40
0.0
 40
1.0
 40
1.0
 40
1.0
 40
2.0
 40
2.0
 40
2.0
 40
3.0
 40
3.0
 40
3.0
 40
4.0
 40
4.0
 40
4.0
 40
4.0
 10
102.5777209941354
 20
-137.6315580211474
 30
0.0
 10
102.5777209941354
 20
-137.5764541322724
 30
0.0
 10
102.6224884929933
 20
-137.5316513545057
 30
0.0
 10
102.6776276582533
 20
-137.5316513545057
 30
0.0
 10
102.7327315457363
 20
-137.5316513545057
 30
0.0
 10
102.7775343223711
 20
-137.5764541322724
 30
0.0
 10
102.7775343223711
 20
-137.6315580211474
 30
0.0
 10
102.7775343223711
 20
-137.6873674655784
 30
0.0
 10
102.7327315457363
 20
-137.7321702433445
 30
0.0
 10
102.6776276582533
 20
-137.7321702433445
 30
0.0
 10
102.6224884929933
 20
-137.7321702433445
 30
0.0
 10
102.5777209941354
 20
-137.6873674655784
 30
0.0
 10
102.5777209941354
 20
-137.6315580211474
 30
0.0
  0
SPLINE
  5
4A
330
1F
100
AcDbEntity
  8
_U+30EC_U+30A4_U+30E4_U+30FC 1
 62
   179
420
  2234388
370
     9
100
AcDbSpline
210
0.0
220
0.0
230
1.0
 70
    11
 71
     3
 72
    17
 73
    13
 74
     0
 42
0.0000000001
 43
0.0000000001
 12
1.0
 22
0.0
 32
0.0
 13
1.0
 23
0.0
 33
0.0
 40
0.0
 40
0.0
 40
0.0
 40
0.0
 40
1.0
 40
1.0
 40
1.0
 40
2.0
 40
2.0
 40
2.0
 40
3.0
 40
3.0
 40
3.0
 40
4.0
 40
4.0
 40
4.0
 40
4.0
 10
97.97781638926655
 20
-132.83187524457
 30
0.0
 10
97.97781638926655
 20
-132.7760305223614
 30
0.0
 10
98.0226191659013
 20
-132.7312630223728
 30
0.0
 10
98.07842860892194
 20
-132.7312630223728
 30
0.0
 10
98.13353249640501
 20
-132.7312630223728
 30
0.0
 10
98.17833527303978
 20
-132.7760305223614
 30
0.0
 10
98.17833527303978
 20
-132.83187524457
 30
0.0
 10
98.17833527303978
 20
-132.8869791334449
 30
0.0
 10
98.13353249640501
 20
-132.9317819112117
 30
0.0
 10
98.07842860892194
 20
-132.9317819112117
 30
0.0
 10
98.0226191659013
 20
-132.9317819112117
 30
0.0
 10
97.97781638926655
 20
-132.8869791334449
 30
0.0
 10
97.97781638926655
 20
-132.83187524457
 30
0.0
  0
SPLINE
  5
4B
330
1F
100
AcDbEntity
  8
_U+30EC_U+30A4_U+30E4_U+30FC 1
 62
   179
420
  2234388
370
     9
100
AcDbSpline
210
0.0
220
0.0
230
1.0
 70
    11
 71
     3
 72
    17
 73
    13
 74
     0
 42
0.0000000001
 43
0.0000000001
 12
1.0
 22
0.0
 32
0.0
 13
1.0
 23
0.0
 33
0.0
 40
0.0
 40
0.0
 40
0.0
 40
0.0
 40
1.0
 40
1.0
 40
1.0
 40
2.0
 40
2.0
 40
2.0
 40
3.0
 40
3.0
 40
3.0
 40
4.0
 40
4.0
 40
4.0
 40
4.0
 10
81.97930929742246
 20
-136.8315991324587
 30
0.0
 10
81.97930929742246
 20
-136.7764952435838
 30
0.0
 10
82.02411207405723
 20
-136.7316924658171
 30
0.0
 10
82.07956873930908
 20
-136.7316924658171
 30
0.0
 10
82.13470790456903
 20
-136.7316924658171
 30
0.0
 10
82.17947540342692
 20
-136.7764952435838
 30
0.0
 10
82.17947540342692
 20
-136.8315991324587
 30
0.0
 10
82.17947540342692
 20
-136.8867382991118
 30
0.0
 10
82.13470790456903
 20
-136.9315057991004
 30
0.0
 10
82.07956873930908
 20
-136.9315057991004
 30
0.0
 10
82.02411207405723
 20
-136.9315057991004
 30
0.0
 10
81.97930929742246
 20
-136.8867382991118
 30
0.0
 10
81.97930929742246
 20
-136.8315991324587
 30
0.0
  0
SPLINE
  5
4C
330
1F
100
AcDbEntity
  8
_U+30EC_U+30A4_U+30E4_U+30FC 1
 62
   179
420
  2234388
370
     9
100
AcDbSpline
210
0.0
220
0.0
230
1.0
 70
    11
 71
     3
 72
    17
 73
    13
 74
     0
 42
0.0000000001
 43
0.0000000001
 12
1.0
 22
0.0
 32
0.0
 13
1.0
 23
0.0
 33
0.0
 40
0.0
 40
0.0
 40
0.0
 40
0.0
 40
1.0
 40
1.0
 40
1.0
 40
2.0
 40
2.0
 40
2.0
 40
3.0
 40
3.0
 40
3.0
 40
4.0
 40
4.0
 40
4.0
 40
4.0
 10
85.97942113981556
 20
-132.83187524457
 30
0.0
 10
85.97942113981556
 20
-132.7760305223614
 30
0.0
 10
86.02418863867344
 20
-132.7312630223728
 30
0.0
 10
86.0793278039334
 20
-132.7312630223728
 30
0.0
 10
86.13478446918523
 20
-132.7312630223728
 30
0.0
 10
86.17958724582
 20
-132.7760305223614
 30
0.0
 10
86.17958724582
 20
-132.83187524457
 30
0.0
 10
86.17958724582
 20
-132.8869791334449
 30
0.0
 10
86.13478446918523
 20
-132.9317819112117
 30
0.0
 10
86.0793278039334
 20
-132.9317819112117
 30
0.0
 10
86.02418863867344
 20
-132.9317819112117
 30
0.0
 10
85.97942113981556
 20
-132.8869791334449
 30
0.0
 10
85.97942113981556
 20
-132.83187524457
 30
0.0
  0
SPLINE
  5
4D
330
1F
100
AcDbEntity
  8
_U+30EC_U+30A4_U+30E4_U+30FC 1
 62
   179
420
  2234388
370
     9
100
AcDbSpline
210
0.0
220
0.0
230
1.0
 70
    11
 71
     3
 72
    17
 73
    13
 74
     0
 42
0.0000000001
 43
0.0000000001
 12
1.0
 22
0.0
 32
0.0
 13
1.0
 23
0.0
 33
0.0
 40
0.0
 40
0.0
 40
0.0
 40
0.0
 40
1.0
 40
1.0
 40
1.0
 40
2.0
 40
2.0
 40
2.0
 40
3.0
 40
3.0
 40
3.0
 40
4.0
 40
4.0
 40
4.0
 40
4.0
 10
81.97930929742246
 20
-148.8315821850143
 30
0.0
 10
81.97930929742246
 20
-148.7757727405838
 30
0.0
 10
82.02411207405723
 20
-148.7309699628171
 30
0.0
 10
82.07956873930908
 20
-148.7309699628171
 30
0.0
 10
82.13470790456903
 20
-148.7309699628171
 30
0.0
 10
82.17947540342692
 20
-148.7757727405838
 30
0.0
 10
82.17947540342692
 20
-148.8315821850143
 30
0.0
 10
82.17947540342692
 20
-148.8866860738892
 30
0.0
 10
82.13470790456903
 20
-148.9314888516559
 30
0.0
 10
82.07956873930908
 20
-148.9314888516559
 30
0.0
 10
82.02411207405723
 20
-148.9314888516559
 30
0.0
 10
81.97930929742246
 20
-148.8866860738892
 30
0.0
 10
81.97930929742246
 20
-148.8315821850143
 30
0.0
  0
SPLINE
  5
4E
330
1F
100
AcDbEntity
  8
_U+30EC_U+30A4_U+30E4_U+30FC 1
 62
   179
420
  2234388
370
     9
100
AcDbSpline
210
0.0
220
0.0
230
1.0
 70
    11
 71
     3
 72
    17
 73
    13
 74
     0
 42
0.0000000001
 43
0.0000000001
 12
1.0
 22
0.0
 32
0.0
 13
1.0
 23
0.0
 33
0.0
 40
0.0
 40
0.0
 40
0.0
 40
0.0
 40
1.0
 40
1.0
 40
1.0
 40
2.0
 40
2.0
 40
2.0
 40
3.0
 40
3.0
 40
3.0
 40
4.0
 40
4.0
 40
4.0
 40
4.0
 10
85.97942113981556
 20
-152.8313413506812
 30
0.0
 10
85.97942113981556
 20
-152.7762021840281
 30
0.0
 10
86.02418863867344
 20
-152.7314346840395
 30
0.0
 10
86.0793278039334
 20
-152.7314346840395
 30
0.0
 10
86.13478446918523
 20
-152.7314346840395
 30
0.0
 10
86.17958724582
 20
-152.7762021840281
 30
0.0
 10
86.17958724582
 20
-152.8313413506812
 30
0.0
 10
86.17958724582
 20
-152.8864452395561
 30
0.0
 10
86.13478446918523
 20
-152.9312480173228
 30
0.0
 10
86.0793278039334
 20
-152.9312480173228
 30
0.0
 10
86.02418863867344
 20
-152.9312480173228
 30
0.0
 10
85.97942113981556
 20
-152.8864452395561
 30
0.0
 10
85.97942113981556
 20
-152.8313413506812
 30
0.0
  0
SPLINE
  5
4F
330
1F
100
AcDbEntity
  8
_U+30EC_U+30A4_U+30E4_U+30FC 1
 62
   179
420
  2234388
370
     9
100
AcDbSpline
210
0.0
220
0.0
230
1.0
 70
    11
 71
     3
 72
    17
 73
    13
 74
     0
 42
0.0000000001
 43
0.0000000001
 12
1.0
 22
0.0
 32
0.0
 13
1.0
 23
0.0
 33
0.0
 40
0.0
 40
0.0
 40
0.0
 40
0.0
 40
1.0
 40
1.0
 40
1.0
 40
2.0
 40
2.0
 40
2.0
 40
3.0
 40
3.0
 40
3.0
 40
4.0
 40
4.0
 40
4.0
 40
4.0
 10
98.77777775308334
 20
-152.8313413506812
 30
0.0
 10
98.77777775308334
 20
-152.7762021840281
 30
0.0
 10
98.82258053085006
 20
-152.7314346840395
 30
0.0
 10
98.87768192186462
 20
-152.7314346840395
 30
0.0
 10
98.93282108712457
 20
-152.7314346840395
 30
0.0
 10
98.97758858598246
 20
-152.7762021840281
 30
0.0
 10
98.97758858598246
 20
-152.8313413506812
 30
0.0
 10
98.97758858598246
 20
-152.8864452395561
 30
0.0
 10
98.93282108712457
 20
-152.9312480173228
 30
0.0
 10
98.87768192186462
 20
-152.9312480173228
 30
0.0
 10
98.82258053085006
 20
-152.9312480173228
 30
0.0
 10
98.77777775308334
 20
-152.8864452395561
 30
0.0
 10
98.77777775308334
 20
-152.8313413506812
 30
0.0
  0
SPLINE
  5
50
330
1F
100
AcDbEntity
  8
_U+30EC_U+30A4_U+30E4_U+30FC 1
 62
   179
420
  2234388
370
     9
100
AcDbSpline
210
0.0
220
0.0
230
1.0
 70
    11
 71
     3
 72
    17
 73
    13
 74
     0
 42
0.0000000001
 43
0.0000000001
 12
1.0
 22
0.0
 32
0.0
 13
1.0
 23
0.0
 33
0.0
 40
0.0
 40
0.0
 40
0.0
 40
0.0
 40
1.0
 40
1.0
 40
1.0
 40
2.0
 40
2.0
 40
2.0
 40
3.0
 40
3.0
 40
3.0
 40
4.0
 40
4.0
 40
4.0
 40
4.0
 10
102.5777209941354
 20
-148.032293574103
 30
0.0
 10
102.5777209941354
 20
-147.9764841296726
 30
0.0
 10
102.6224884929933
 20
-147.931716629684
 30
0.0
 10
102.6776276582533
 20
-147.931716629684
 30
0.0
 10
102.7327315457363
 20
-147.931716629684
 30
0.0
 10
102.7775343223711
 20
-147.9764841296726
 30
0.0
 10
102.7775343223711
 20
-148.032293574103
 30
0.0
 10
102.7775343223711
 20
-148.0874327407561
 30
0.0
 10
102.7327315457363
 20
-148.1322002407447
 30
0.0
 10
102.6776276582533
 20
-148.1322002407447
 30
0.0
 10
102.6224884929933
 20
-148.1322002407447
 30
0.0
 10
102.5777209941354
 20
-148.0874327407561
 30
0.0
 10
102.5777209941354
 20
-148.032293574103
 30
0.0
  0
POLYLINE
  5
51
330
1F
100
AcDbEntity
  8
_U+30EC_U+30A4_U+30E4_U+30FC 1
 62
   179
420
  2234388
370
     9
100
AcDb2dPolyline
 66
     1
 10
0.0
 20
0.0
 30
0.0
  0
VERTEX
  5
52
330
51
100
AcDbEntity
  8
_U+30EC_U+30A4_U+30E4_U+30FC 1
 62
   179
420
  2234388
370
     9
100
AcDbVertex
100
AcDb2dVertex
 10
98.87905775516285
 20
-107.8313255285977
 30
0.0
  0
VERTEX
  5
53
330
51
100
AcDbEntity
  8
_U+30EC_U+30A4_U+30E4_U+30FC 1
 62
   179
420
  2234388
370
     9
100
AcDbVertex
100
AcDb2dVertex
 10
104.1369634543558
 20
-107.8313255285977
 30
0.0
  0
SEQEND
  5
54
330
51
100
AcDbEntity
  8
_U+30EC_U+30A4_U+30E4_U+30FC 1
 62
   179
420
  2234388
370
     9
  0
POLYLINE
  5
55
330
1F
100
AcDbEntity
  8
_U+30EC_U+30A4_U+30E4_U+30FC 1
 62
   179
420
  2234388
370
     9
100
AcDb2dPolyline
 66
     1
 10
0.0
 20
0.0
 30
0.0
  0
VERTEX
  5
56
330
55
100
AcDbEntity
  8
_U+30EC_U+30A4_U+30E4_U+30FC 1
 62
   179
420
  2234388
370
     9
100
AcDbVertex
100
AcDb2dVertex
 10
98.87905775516285
 20
-107.8313255285977
 30
0.0
  0
VERTEX
  5
57
330
55
100
AcDbEntity
  8
_U+30EC_U+30A4_U+30E4_U+30FC 1
 62
   179
420
  2234388
370
     9
100
AcDbVertex
100
AcDb2dVertex
 10
97.0793266899667
 20
-107.8313255285977
 30
0.0
  0
SEQEND
  5
58
330
55
100
AcDbEntity
  8
_U+30EC_U+30A4_U+30E4_U+30FC 1
 62
   179
420
  2234388
370
     9
  0
POLYLINE
  5
59
330
1F
100
AcDbEntity
  8
_U+30EC_U+30A4_U+30E4_U+30FC 1
 62
   179
420
  2234388
370
     9
100
AcDb2dPolyline
 66
     1
 10
0.0
 20
0.0
 30
0.0
  0
VERTEX
  5
5A
330
59
100
AcDbEntity
  8
_U+30EC_U+30A4_U+30E4_U+30FC 1
 62
   179
420
  2234388
370
     9
100
AcDbVertex
100
AcDb2dVertex
 10
98.87905775516285
 20
-109.2913316393439
 30
0.0
  0
VERTEX
  5
5B
330
59
100
AcDbEntity
  8
_U+30EC_U+30A4_U+30E4_U+30FC 1
 62
   179
420
  2234388
370
     9
100
AcDbVertex
100
AcDb2dVertex
 10
98.87905775516285
 20
-106.8315533066255
 30
0.0
  0
SEQEND
  5
5C
330
59
100
AcDbEntity
  8
_U+30EC_U+30A4_U+30E4_U+30FC 1
 62
   179
420
  2234388
370
     9
  0
POLYLINE
  5
5D
330
1F
100
AcDbEntity
  8
_U+30EC_U+30A4_U+30E4_U+30FC 1
 62
   179
420
  2234388
370
     9
100
AcDb2dPolyline
 66
     1
 10
0.0
 20
0.0
 30
0.0
  0
VERTEX
  5
5E
330
5D
100
AcDbEntity
  8
_U+30EC_U+30A4_U+30E4_U+30FC 1
 62
   179
420
  2234388
370
     9
100
AcDbVertex
100
AcDb2dVertex
 10
98.07909888668262
 20
-109.2913316393439
 30
0.0
  0
VERTEX
  5
5F
330
5D
100
AcDbEntity
  8
_U+30EC_U+30A4_U+30E4_U+30FC 1
 62
   179
420
  2234388
370
     9
100
AcDbVertex
100
AcDb2dVertex
 10
98.07909888668262
 20
-106.8315533066255
 30
0.0
  0
SEQEND
  5
60
330
5D
100
AcDbEntity
  8
_U+30EC_U+30A4_U+30E4_U+30FC 1
 62
   179
420
  2234388
370
     9
  0
POLYLINE
  5
61
330
1F
100
AcDbEntity
  8
_U+30EC_U+30A4_U+30E4_U+30FC 1
 62
   179
420
  2234388
370
     9
100
AcDb2dPolyline
 66
     1
 10
0.0
 20
0.0
 30
0.0
  0
VERTEX
  5
62
330
61
100
AcDbEntity
  8
_U+30EC_U+30A4_U+30E4_U+30FC 1
 62
   179
420
  2234388
370
     9
100
AcDbVertex
100
AcDb2dVertex
 10
101.2175888635842
 20
-148.032293574103
 30
0.0
  0
VERTEX
  5
63
330
61
100
AcDbEntity
  8
_U+30EC_U+30A4_U+30E4_U+30FC 1
 62
   179
420
  2234388
370
     9
100
AcDbVertex
100
AcDb2dVertex
 10
103.6780701327298
 20
-148.032293574103
 30
0.0
  0
SEQEND
  5
64
330
61
100
AcDbEntity
  8
_U+30EC_U+30A4_U+30E4_U+30FC 1
 62
   179
420
  2234388
370
     9
  0
POLYLINE
  5
65
330
1F
100
AcDbEntity
  8
_U+30EC_U+30A4_U+30E4_U+30FC 1
 62
   179
420
  2234388
370
     9
100
AcDb2dPolyline
 66
     1
 10
0.0
 20
0.0
 30
0.0
  0
VERTEX
  5
66
330
65
100
AcDbEntity
  8
_U+30EC_U+30A4_U+30E4_U+30FC 1
 62
   179
420
  2234388
370
     9
100
AcDbVertex
100
AcDb2dVertex
 10
82.07956873930908
 20
-136.8315991324587
 30
0.0
  0
VERTEX
  5
67
330
65
100
AcDbEntity
  8
_U+30EC_U+30A4_U+30E4_U+30FC 1
 62
   179
420
  2234388
370
     9
100
AcDbVertex
100
AcDb2dVertex
 10
82.07956873930908
 20
-148.8315821850143
 30
0.0
  0
SEQEND
  5
68
330
65
100
AcDbEntity
  8
_U+30EC_U+30A4_U+30E4_U+30FC 1
 62
   179
420
  2234388
370
     9
  0
POLYLINE
  5
69
330
1F
100
AcDbEntity
  8
_U+30EC_U+30A4_U+30E4_U+30FC 1
 62
   179
420
  2234388
370
     9
100
AcDb2dPolyline
 66
     1
 10
0.0
 20
0.0
 30
0.0
  0
VERTEX
  5
6A
330
69
100
AcDbEntity
  8
_U+30EC_U+30A4_U+30E4_U+30FC 1
 62
   179
420
  2234388
370
     9
100
AcDbVertex
100
AcDb2dVertex
 10
83.53961009094921
 20
-136.8315991324587
 30
0.0
  0
VERTEX
  5
6B
330
69
100
AcDbEntity
  8
_U+30EC_U+30A4_U+30E4_U+30FC 1
 62
   179
420
  2234388
370
     9
100
AcDbVertex
100
AcDb2dVertex
 10
81.07944376482439
 20
-136.8315991324587
 30
0.0
  0
SEQEND
  5
6C
330
69
100
AcDbEntity
  8
_U+30EC_U+30A4_U+30E4_U+30FC 1
 62
   179
420
  2234388
370
     9
  0
POLYLINE
  5
6D
330
1F
100
AcDbEntity
  8
_U+30EC_U+30A4_U+30E4_U+30FC 1
 62
   179
420
  2234388
370
     9
100
AcDb2dPolyline
 66
     1
 10
0.0
 20
0.0
 30
0.0
  0
VERTEX
  5
6E
330
6D
100
AcDbEntity
  8
_U+30EC_U+30A4_U+30E4_U+30FC 1
 62
   179
420
  2234388
370
     9
100
AcDbVertex
100
AcDb2dVertex
 10
83.53961009094921
 20
-148.8315821850143
 30
0.0
  0
VERTEX
  5
6F
330
6D
100
AcDbEntity
  8
_U+30EC_U+30A4_U+30E4_U+30FC 1
 62
   179
420
  2234388
370
     9
100
AcDbVertex
100
AcDb2dVertex
 10
81.07944376482439
 20
-148.8315821850143
 30
0.0
  0
SEQEND
  5
70
330
6D
100
AcDbEntity
  8
_U+30EC_U+30A4_U+30E4_U+30FC 1
 62
   179
420
  2234388
370
     9
  0
POLYLINE
  5
71
330
1F
100
AcDbEntity
  8
_U+30EC_U+30A4_U+30E4_U+30FC 1
 62
   179
420
  2234388
370
     9
100
AcDb2dPolyline
 66
     1
 10
0.0
 20
0.0
 30
0.0
  0
VERTEX
  5
72
330
71
100
AcDbEntity
  8
_U+30EC_U+30A4_U+30E4_U+30FC 1
 62
   179
420
  2234388
370
     9
100
AcDbVertex
100
AcDb2dVertex
 10
98.87768192186462
 20
-152.8313413506812
 30
0.0
  0
VERTEX
  5
73
330
71
100
AcDbEntity
  8
_U+30EC_U+30A4_U+30E4_U+30FC 1
 62
   179
420
  2234388
370
     9
100
AcDbVertex
100
AcDb2dVertex
 10
86.0793278039334
 20
-152.8313413506812
 30
0.0
  0
SEQEND
  5
74
330
71
100
AcDbEntity
  8
_U+30EC_U+30A4_U+30E4_U+30FC 1
 62
   179
420
  2234388
370
     9
  0
POLYLINE
  5
75
330
1F
100
AcDbEntity
  8
_U+30EC_U+30A4_U+30E4_U+30FC 1
 62
   179
420
  2234388
370
     9
100
AcDb2dPolyline
 66
     1
 10
0.0
 20
0.0
 30
0.0
  0
VERTEX
  5
76
330
75
100
AcDbEntity
  8
_U+30EC_U+30A4_U+30E4_U+30FC 1
 62
   179
420
  2234388
370
     9
100
AcDbVertex
100
AcDb2dVertex
 10
98.87768192186462
 20
-151.3712999621575
 30
0.0
  0
VERTEX
  5
77
330
75
100
AcDbEntity
  8
_U+30EC_U+30A4_U+30E4_U+30FC 1
 62
   179
420
  2234388
370
     9
100
AcDbVertex
100
AcDb2dVertex
 10
98.87768192186462
 20
-153.8310782948755
 30
0.0
  0
SEQEND
  5
78
330
75
100
AcDbEntity
  8
_U+30EC_U+30A4_U+30E4_U+30FC 1
 62
   179
420
  2234388
370
     9
  0
POLYLINE
  5
79
330
1F
100
AcDbEntity
  8
_U+30EC_U+30A4_U+30E4_U+30FC 1
 62
   179
420
  2234388
370
     9
100
AcDb2dPolyline
 66
     1
 10
0.0
 20
0.0
 30
0.0
  0
VERTEX
  5
7A
330
79
100
AcDbEntity
  8
_U+30EC_U+30A4_U+30E4_U+30FC 1
 62
   179
420
  2234388
370
     9
100
AcDbVertex
100
AcDb2dVertex
 10
86.0793278039334
 20
-151.3712999621575
 30
0.0
  0
VERTEX
  5
7B
330
79
100
AcDbEntity
  8
_U+30EC_U+30A4_U+30E4_U+30FC 1
 62
   179
420
  2234388
370
     9
100
AcDbVertex
100
AcDb2dVertex
 10
86.0793278039334
 20
-153.8310782948755
 30
0.0
  0
SEQEND
  5
7C
330
79
100
AcDbEntity
  8
_U+30EC_U+30A4_U+30E4_U+30FC 1
 62
   179
420
  2234388
370
     9
  0
POLYLINE
  5
7D
330
1F
100
AcDbEntity
  8
_U+30EC_U+30A4_U+30E4_U+30FC 1
 62
   179
420
  2234388
370
     9
100
AcDb2dPolyline
 66
     1
 10
0.0
 20
0.0
 30
0.0
  0
VERTEX
  5
7E
330
7D
100
AcDbEntity
  8
_U+30EC_U+30A4_U+30E4_U+30FC 1
 62
   179
420
  2234388
370
     9
100
AcDbVertex
100
AcDb2dVertex
 10
86.0793278039334
 20
-132.83187524457
 30
0.0
  0
VERTEX
  5
7F
330
7D
100
AcDbEntity
  8
_U+30EC_U+30A4_U+30E4_U+30FC 1
 62
   179
420
  2234388
370
     9
100
AcDbVertex
100
AcDb2dVertex
 10
98.07842860892194
 20
-132.83187524457
 30
0.0
  0
SEQEND
  5
80
330
7D
100
AcDbEntity
  8
_U+30EC_U+30A4_U+30E4_U+30FC 1
 62
   179
420
  2234388
370
     9
  0
POLYLINE
  5
81
330
1F
100
AcDbEntity
  8
_U+30EC_U+30A4_U+30E4_U+30FC 1
 62
   179
420
  2234388
370
     9
100
AcDb2dPolyline
 66
     1
 10
0.0
 20
0.0
 30
0.0
  0
VERTEX
  5
82
330
81
100
AcDbEntity
  8
_U+30EC_U+30A4_U+30E4_U+30FC 1
 62
   179
420
  2234388
370
     9
100
AcDbVertex
100
AcDb2dVertex
 10
86.0793278039334
 20
-134.2918813553162
 30
0.0
  0
VERTEX
  5
83
330
81
100
AcDbEntity
  8
_U+30EC_U+30A4_U+30E4_U+30FC 1
 62
   179
420
  2234388
370
     9
100
AcDbVertex
100
AcDb2dVertex
 10
86.0793278039334
 20
-131.8313974670419
 30
0.0
  0
SEQEND
  5
84
330
81
100
AcDbEntity
  8
_U+30EC_U+30A4_U+30E4_U+30FC 1
 62
   179
420
  2234388
370
     9
  0
POLYLINE
  5
85
330
1F
100
AcDbEntity
  8
_U+30EC_U+30A4_U+30E4_U+30FC 1
 62
   179
420
  2234388
370
     9
100
AcDb2dPolyline
 66
     1
 10
0.0
 20
0.0
 30
0.0
  0
VERTEX
  5
86
330
85
100
AcDbEntity
  8
_U+30EC_U+30A4_U+30E4_U+30FC 1
 62
   179
420
  2234388
370
     9
100
AcDbVertex
100
AcDb2dVertex
 10
102.6776276582533
 20
-137.6315580211474
 30
0.0
  0
VERTEX
  5
87
330
85
100
AcDbEntity
  8
_U+30EC_U+30A4_U+30E4_U+30FC 1
 62
   179
420
  2234388
370
     9
100
AcDbVertex
100
AcDb2dVertex
 10
102.6776276582533
 20
-148.032293574103
 30
0.0
  0
SEQEND
  5
88
330
85
100
AcDbEntity
  8
_U+30EC_U+30A4_U+30E4_U+30FC 1
 62
   179
420
  2234388
370
     9
  0
POLYLINE
  5
89
330
1F
100
AcDbEntity
  8
_U+30EC_U+30A4_U+30E4_U+30FC 1
 62
   179
420
  2234388
370
     9
100
AcDb2dPolyline
 66
     1
 10
0.0
 20
0.0
 30
0.0
  0
VERTEX
  5
8A
330
89
100
AcDbEntity
  8
_U+30EC_U+30A4_U+30E4_U+30FC 1
 62
   179
420
  2234388
370
     9
100
AcDbVertex
100
AcDb2dVertex
 10
101.4181051903864
 20
-137.6315580211474
 30
0.0
  0
VERTEX
  5
8B
330
89
100
AcDbEntity
  8
_U+30EC_U+30A4_U+30E4_U+30FC 1
 62
   179
420
  2234388
370
     9
100
AcDbVertex
100
AcDb2dVertex
 10
103.6780701327298
 20
-137.6315580211474
 30
0.0
  0
SEQEND
  5
8C
330
89
100
AcDbEntity
  8
_U+30EC_U+30A4_U+30E4_U+30FC 1
 62
   179
420
  2234388
370
     9
  0
POLYLINE
  5
8D
330
1F
100
AcDbEntity
  8
_U+30EC_U+30A4_U+30E4_U+30FC 1
 62
   179
420
  2234388
370
     9
100
AcDb2dPolyline
 66
     1
 10
0.0
 20
0.0
 30
0.0
  0
VERTEX
  5
8E
330
8D
100
AcDbEntity
  8
_U+30EC_U+30A4_U+30E4_U+30FC 1
 62
   179
420
  2234388
370
     9
100
AcDbVertex
100
AcDb2dVertex
 10
102.6776276582533
 20
-137.6315580211474
 30
0.0
  0
VERTEX
  5
8F
330
8D
100
AcDbEntity
  8
_U+30EC_U+30A4_U+30E4_U+30FC 1
 62
   179
420
  2234388
370
     9
100
AcDbVertex
100
AcDb2dVertex
 10
102.6776276582533
 20
-111.8317549720419
 30
0.0
  0
SEQEND
  5
90
330
8D
100
AcDbEntity
  8
_U+30EC_U+30A4_U+30E4_U+30FC 1
 62
   179
420
  2234388
370
     9
  0
POLYLINE
  5
91
330
1F
100
AcDbEntity
  8
_U+30EC_U+30A4_U+30E4_U+30FC 1
 62
   179
420
  2234388
370
     9
100
AcDb2dPolyline
 66
     1
 10
0.0
 20
0.0
 30
0.0
  0
VERTEX
  5
92
330
91
100
AcDbEntity
  8
_U+30EC_U+30A4_U+30E4_U+30FC 1
 62
   179
420
  2234388
370
     9
100
AcDbVertex
100
AcDb2dVertex
 10
101.4181051903864
 20
-111.8317549720419
 30
0.0
  0
VERTEX
  5
93
330
91
100
AcDbEntity
  8
_U+30EC_U+30A4_U+30E4_U+30FC 1
 62
   179
420
  2234388
370
     9
100
AcDbVertex
100
AcDb2dVertex
 10
103.6780701327298
 20
-111.8317549720419
 30
0.0
  0
SEQEND
  5
94
330
91
100
AcDbEntity
  8
_U+30EC_U+30A4_U+30E4_U+30FC 1
 62
   179
420
  2234388
370
     9
  0
INSERT
  5
96
330
1F
100
AcDbEntity
  8
_U+30EC_U+30A4_U+30E4_U+30FC 1
100
AcDbBlockReference
  2
block 3
 10
0.0
 20
0.0
 30
0.0
  0
INSERT
  5
A9
330
1F
100
AcDbEntity
  8
_U+30EC_U+30A4_U+30E4_U+30FC 1
100
AcDbBlockReference
  2
block 4
 10
0.0
 20
0.0
 30
0.0
  0
INSERT
  5
B1
330
1F
100
AcDbEntity
  8
_U+30EC_U+30A4_U+30E4_U+30FC 1
100
AcDbBlockReference
  2
block 5
 10
0.0
 20
0.0
 30
0.0
  0
INSERT
  5
C5
330
1F
100
AcDbEntity
  8
_U+30EC_U+30A4_U+30E4_U+30FC 1
100
AcDbBlockReference
  2
block 6
 10
0.0
 20
0.0
 30
0.0
  0
INSERT
  5
CD
330
1F
100
AcDbEntity
  8
_U+30EC_U+30A4_U+30E4_U+30FC 1
100
AcDbBlockReference
  2
block 7
 10
0.0
 20
0.0
 30
0.0
  0
INSERT
  5
F3
330
1F
100
AcDbEntity
  8
_U+30EC_U+30A4_U+30E4_U+30FC 1
100
AcDbBlockReference
  2
block 8
 10
0.0
 20
0.0
 30
0.0
  0
POLYLINE
  5
106
330
1F
100
AcDbEntity
  8
_U+30EC_U+30A4_U+30E4_U+30FC 1
 62
   179
420
  2234388
370
    25
100
AcDb2dPolyline
 66
     1
 10
0.0
 20
0.0
 30
0.0
  0
VERTEX
  5
107
330
106
100
AcDbEntity
  8
_U+30EC_U+30A4_U+30E4_U+30FC 1
 62
   179
420
  2234388
370
    25
100
AcDbVertex
100
AcDb2dVertex
 10
86.0793278039334
 20
-147.4969532964591
 30
0.0
  0
VERTEX
  5
108
330
106
100
AcDbEntity
  8
_U+30EC_U+30A4_U+30E4_U+30FC 1
 62
   179
420
  2234388
370
    25
100
AcDbVertex
100
AcDb2dVertex
 10
86.0793278039334
 20
-138.1317969099117
 30
0.0
  0
SEQEND
  5
109
330
106
100
AcDbEntity
  8
_U+30EC_U+30A4_U+30E4_U+30FC 1
 62
   179
420
  2234388
370
    25
  0
POLYLINE
  5
10A
330
1F
100
AcDbEntity
  8
_U+30EC_U+30A4_U+30E4_U+30FC 1
 62
   179
420
  2234388
370
    25
100
AcDb2dPolyline
 66
     1
 10
0.0
 20
0.0
 30
0.0
  0
VERTEX
  5
10B
330
10A
100
AcDbEntity
  8
_U+30EC_U+30A4_U+30E4_U+30FC 1
 62
   179
420
  2234388
370
    25
100
AcDbVertex
100
AcDb2dVertex
 10
98.87976331070041
 20
-136.3313955214725
 30
0.0
  0
VERTEX
  5
10C
330
10A
100
AcDbEntity
  8
_U+30EC_U+30A4_U+30E4_U+30FC 1
 62
   179
420
  2234388
370
    25
100
AcDbVertex
100
AcDb2dVertex
 10
98.87976331070041
 20
-111.8317549720419
 30
0.0
  0
SEQEND
  5
10D
330
10A
100
AcDbEntity
  8
_U+30EC_U+30A4_U+30E4_U+30FC 1
 62
   179
420
  2234388
370
    25
  0
POLYLINE
  5
10E
330
1F
100
AcDbEntity
  8
_U+30EC_U+30A4_U+30E4_U+30FC 1
 62
   179
420
  2234388
370
    25
100
AcDb2dPolyline
 66
     1
 10
0.0
 20
0.0
 30
0.0
  0
VERTEX
  5
10F
330
10E
100
AcDbEntity
  8
_U+30EC_U+30A4_U+30E4_U+30FC 1
 62
   179
420
  2234388
370
    25
100
AcDbVertex
100
AcDb2dVertex
 10
98.07980444222017
 20
-136.3313955214725
 30
0.0
  0
VERTEX
  5
110
330
10E
100
AcDbEntity
  8
_U+30EC_U+30A4_U+30E4_U+30FC 1
 62
   179
420
  2234388
370
    25
100
AcDbVertex
100
AcDb2dVertex
 10
98.07980444222017
 20
-111.8317549720419
 30
0.0
  0
SEQEND
  5
111
330
10E
100
AcDbEntity
  8
_U+30EC_U+30A4_U+30E4_U+30FC 1
 62
   179
420
  2234388
370
    25
  0
POLYLINE
  5
112
330
1F
100
AcDbEntity
  8
_U+30EC_U+30A4_U+30E4_U+30FC 1
 62
   179
420
  2234388
370
    25
100
AcDb2dPolyline
 66
     1
 10
0.0
 20
0.0
 30
0.0
  0
VERTEX
  5
113
330
112
100
AcDbEntity
  8
_U+30EC_U+30A4_U+30E4_U+30FC 1
 62
   179
420
  2234388
370
    25
100
AcDbVertex
100
AcDb2dVertex
 10
98.87976331070041
 20
-148.7971157961339
 30
0.0
  0
VERTEX
  5
114
330
112
100
AcDbEntity
  8
_U+30EC_U+30A4_U+30E4_U+30FC 1
 62
   179
420
  2234388
370
    25
100
AcDbVertex
100
AcDb2dVertex
 10
98.87976331070041
 20
-147.9971569074453
 30
0.0
  0
SEQEND
  5
115
330
112
100
AcDbEntity
  8
_U+30EC_U+30A4_U+30E4_U+30FC 1
 62
   179
420
  2234388
370
    25
  0
POLYLINE
  5
116
330
1F
100
AcDbEntity
  8
_U+30EC_U+30A4_U+30E4_U+30FC 1
 62
   179
420
  2234388
370
    25
100
AcDb2dPolyline
 66
     1
 10
0.0
 20
0.0
 30
0.0
  0
VERTEX
  5
117
330
116
100
AcDbEntity
  8
_U+30EC_U+30A4_U+30E4_U+30FC 1
 62
   179
420
  2234388
370
    25
100
AcDbVertex
100
AcDb2dVertex
 10
87.37949027076348
 20
-148.7971157961339
 30
0.0
  0
VERTEX
  5
118
330
116
100
AcDbEntity
  8
_U+30EC_U+30A4_U+30E4_U+30FC 1
 62
   179
420
  2234388
370
    25
100
AcDbVertex
100
AcDb2dVertex
 10
98.87976331070041
 20
-148.7971157961339
 30
0.0
  0
SEQEND
  5
119
330
116
100
AcDbEntity
  8
_U+30EC_U+30A4_U+30E4_U+30FC 1
 62
   179
420
  2234388
370
    25
  0
POLYLINE
  5
11A
330
1F
100
AcDbEntity
  8
_U+30EC_U+30A4_U+30E4_U+30FC 1
 62
   179
420
  2234388
370
    25
100
AcDb2dPolyline
 66
     1
 10
0.0
 20
0.0
 30
0.0
  0
VERTEX
  5
11B
330
11A
100
AcDbEntity
  8
_U+30EC_U+30A4_U+30E4_U+30FC 1
 62
   179
420
  2234388
370
    25
100
AcDbVertex
100
AcDb2dVertex
 10
87.37949027076348
 20
-136.8315991324587
 30
0.0
  0
VERTEX
  5
11C
330
11A
100
AcDbEntity
  8
_U+30EC_U+30A4_U+30E4_U+30FC 1
 62
   179
420
  2234388
370
    25
100
AcDbVertex
100
AcDb2dVertex
 10
97.57956556609344
 20
-136.8315991324587
 30
0.0
  0
SEQEND
  5
11D
330
11A
100
AcDbEntity
  8
_U+30EC_U+30A4_U+30E4_U+30FC 1
 62
   179
420
  2234388
370
    25
  0
POLYLINE
  5
11E
330
1F
100
AcDbEntity
  8
_U+30EC_U+30A4_U+30E4_U+30FC 1
 62
   179
420
  2234388
370
    25
100
AcDb2dPolyline
 66
     1
 10
0.0
 20
0.0
 30
0.0
  0
VERTEX
  5
11F
330
11E
100
AcDbEntity
  8
_U+30EC_U+30A4_U+30E4_U+30FC 1
 62
   179
420
  2234388
370
    25
100
AcDbVertex
100
AcDb2dVertex
 10
98.07980444222017
 20
-111.8317549720419
 30
0.0
  0
VERTEX
  5
120
330
11E
100
AcDbEntity
  8
_U+30EC_U+30A4_U+30E4_U+30FC 1
 62
   179
420
  2234388
370
    25
100
AcDbVertex
100
AcDb2dVertex
 10
98.87976331070041
 20
-111.8317549720419
 30
0.0
  0
SEQEND
  5
121
330
11E
100
AcDbEntity
  8
_U+30EC_U+30A4_U+30E4_U+30FC 1
 62
   179
420
  2234388
370
    25
  0
POLYLINE
  5
122
330
1F
100
AcDbEntity
  8
_U+30EC_U+30A4_U+30E4_U+30FC 1
 62
   179
420
  2234388
370
    25
100
AcDb2dPolyline
 66
     1
 10
0.0
 20
0.0
 30
0.0
  0
VERTEX
  5
123
330
122
100
AcDbEntity
  8
_U+30EC_U+30A4_U+30E4_U+30FC 1
 62
   179
420
  2234388
370
    25
100
AcDbVertex
100
AcDb2dVertex
 10
87.37949027076348
 20
-137.6315580211474
 30
0.0
  0
VERTEX
  5
124
330
122
100
AcDbEntity
  8
_U+30EC_U+30A4_U+30E4_U+30FC 1
 62
   179
420
  2234388
370
    25
100
AcDbVertex
100
AcDb2dVertex
 10
97.57956556609344
 20
-137.6315580211474
 30
0.0
  0
SEQEND
  5
125
330
122
100
AcDbEntity
  8
_U+30EC_U+30A4_U+30E4_U+30FC 1
 62
   179
420
  2234388
370
    25
  0
POLYLINE
  5
126
330
1F
100
AcDbEntity
  8
_U+30EC_U+30A4_U+30E4_U+30FC 1
 62
   179
420
  2234388
370
    25
100
AcDb2dPolyline
 66
     1
 10
0.0
 20
0.0
 30
0.0
  0
VERTEX
  5
127
330
126
100
AcDbEntity
  8
_U+30EC_U+30A4_U+30E4_U+30FC 1
 62
   179
420
  2234388
370
    25
100
AcDbVertex
100
AcDb2dVertex
 10
86.87928886716905
 20
-147.4969532964591
 30
0.0
  0
VERTEX
  5
128
330
126
100
AcDbEntity
  8
_U+30EC_U+30A4_U+30E4_U+30FC 1
 62
   179
420
  2234388
370
    25
100
AcDbVertex
100
AcDb2dVertex
 10
86.87928886716905
 20
-138.1317969099117
 30
0.0
  0
SEQEND
  5
129
330
126
100
AcDbEntity
  8
_U+30EC_U+30A4_U+30E4_U+30FC 1
 62
   179
420
  2234388
370
    25
  0
POLYLINE
  5
12A
330
1F
100
AcDbEntity
  8
_U+30EC_U+30A4_U+30E4_U+30FC 1
 62
   179
420
  2234388
370
    25
100
AcDb2dPolyline
 66
     1
 10
0.0
 20
0.0
 30
0.0
  0
VERTEX
  5
12B
330
12A
100
AcDbEntity
  8
_U+30EC_U+30A4_U+30E4_U+30FC 1
 62
   179
420
  2234388
370
    25
100
AcDbVertex
100
AcDb2dVertex
 10
87.37949027076348
 20
-147.9971569074453
 30
0.0
  0
VERTEX
  5
12C
330
12A
100
AcDbEntity
  8
_U+30EC_U+30A4_U+30E4_U+30FC 1
 62
   179
420
  2234388
370
    25
100
AcDbVertex
100
AcDb2dVertex
 10
98.87976331070041
 20
-147.9971569074453
 30
0.0
  0
SEQEND
  5
12D
330
12A
100
AcDbEntity
  8
_U+30EC_U+30A4_U+30E4_U+30FC 1
 62
   179
420
  2234388
370
    25
  0
SPLINE
  5
12E
330
1F
100
AcDbEntity
  8
_U+30EC_U+30A4_U+30E4_U+30FC 1
 62
   179
420
  2234388
370
    25
100
AcDbSpline
210
0.0
220
0.0
230
1.0
 70
     8
 71
     3
 72
     8
 73
     4
 74
     0
 42
0.0000000001
 43
0.0000000001
 12
1.0
 22
0.0
 32
0.0
 13
1.0
 23
0.0
 33
0.0
 40
0.0
 40
0.0
 40
0.0
 40
0.0
 40
1.0
 40
1.0
 40
1.0
 40
1.0
 10
86.87928886716905
 20
-147.4969532964591
 30
0.0
 10
86.87928886716905
 20
-147.7732488519455
 30
0.0
 10
87.10319472225682
 20
-147.9971569074453
 30
0.0
 10
87.37949027076348
 20
-147.9971569074453
 30
0.0
  0
SPLINE
  5
12F
330
1F
100
AcDbEntity
  8
_U+30EC_U+30A4_U+30E4_U+30FC 1
 62
   179
420
  2234388
370
    25
100
AcDbSpline
210
0.0
220
0.0
230
1.0
 70
     8
 71
     3
 72
     8
 73
     4
 74
     0
 42
0.0000000001
 43
0.0000000001
 12
1.0
 22
0.0
 32
0.0
 13
1.0
 23
0.0
 33
0.0
 40
0.0
 40
0.0
 40
0.0
 40
0.0
 40
1.0
 40
1.0
 40
1.0
 40
1.0
 10
87.37949027076348
 20
-137.6315580211474
 30
0.0
 10
87.10319472225682
 20
-137.6315580211474
 30
0.0
 10
86.87928886716905
 20
-137.8555013544253
 30
0.0
 10
86.87928886716905
 20
-138.1317969099117
 30
0.0
  0
SPLINE
  5
130
330
1F
100
AcDbEntity
  8
_U+30EC_U+30A4_U+30E4_U+30FC 1
 62
   179
420
  2234388
370
    25
100
AcDbSpline
210
0.0
220
0.0
230
1.0
 70
     8
 71
     3
 72
     8
 73
     4
 74
     0
 42
0.0000000001
 43
0.0000000001
 12
1.0
 22
0.0
 32
0.0
 13
1.0
 23
0.0
 33
0.0
 40
0.0
 40
0.0
 40
0.0
 40
0.0
 40
1.0
 40
1.0
 40
1.0
 40
1.0
 10
87.37949027076348
 20
-136.8315991324587
 30
0.0
 10
86.66155223352405
 20
-136.8315991324587
 30
0.0
 10
86.0793278039334
 20
-137.4138235767578
 30
0.0
 10
86.0793278039334
 20
-138.1317969099117
 30
0.0
  0
SPLINE
  5
131
330
1F
100
AcDbEntity
  8
_U+30EC_U+30A4_U+30E4_U+30FC 1
 62
   179
420
  2234388
370
    25
100
AcDbSpline
210
0.0
220
0.0
230
1.0
 70
     8
 71
     3
 72
     8
 73
     4
 74
     0
 42
0.0000000001
 43
0.0000000001
 12
1.0
 22
0.0
 32
0.0
 13
1.0
 23
0.0
 33
0.0
 40
0.0
 40
0.0
 40
0.0
 40
0.0
 40
1.0
 40
1.0
 40
1.0
 40
1.0
 10
97.57956556609344
 20
-136.8315991324587
 30
0.0
 10
97.8558611146001
 20
-136.8315991324587
 30
0.0
 10
98.07980444222017
 20
-136.607691076959
 30
0.0
 10
98.07980444222017
 20
-136.3313955214725
 30
0.0
  0
SPLINE
  5
132
330
1F
100
AcDbEntity
  8
_U+30EC_U+30A4_U+30E4_U+30FC 1
 62
   179
420
  2234388
370
    25
100
AcDbSpline
210
0.0
220
0.0
230
1.0
 70
     8
 71
     3
 72
     8
 73
     4
 74
     0
 42
0.0000000001
 43
0.0000000001
 12
1.0
 22
0.0
 32
0.0
 13
1.0
 23
0.0
 33
0.0
 40
0.0
 40
0.0
 40
0.0
 40
0.0
 40
1.0
 40
1.0
 40
1.0
 40
1.0
 10
97.57956556609344
 20
-137.6315580211474
 30
0.0
 10
98.29753888110974
 20
-137.6315580211474
 30
0.0
 10
98.87976331070041
 20
-137.049333576849
 30
0.0
 10
98.87976331070041
 20
-136.3313955214725
 30
0.0
  0
SPLINE
  5
133
330
1F
100
AcDbEntity
  8
_U+30EC_U+30A4_U+30E4_U+30FC 1
 62
   179
420
  2234388
370
    25
100
AcDbSpline
210
0.0
220
0.0
230
1.0
 70
     8
 71
     3
 72
     8
 73
     4
 74
     0
 42
0.0000000001
 43
0.0000000001
 12
1.0
 22
0.0
 32
0.0
 13
1.0
 23
0.0
 33
0.0
 40
0.0
 40
0.0
 40
0.0
 40
0.0
 40
1.0
 40
1.0
 40
1.0
 40
1.0
 10
86.0793278039334
 20
-147.4969532964591
 30
0.0
 10
86.0793278039334
 20
-148.2148913518349
 30
0.0
 10
86.66155223352405
 20
-148.7971157961339
 30
0.0
 10
87.37949027076348
 20
-148.7971157961339
 30
0.0
  0
ENDSEC
  0
SECTION
  2
OBJECTS
  0
DICTIONARY
  5
C
330
0
100
AcDbDictionary
281
     1
  3
ACAD_GROUP
350
D
  3
ACAD_LAYOUT
350
1A
  3
ACAD_MATERIAL
350
3B
  3
ACAD_MLEADERSTYLE
350
135
  3
ACAD_MLINESTYLE
350
17
  3
ACAD_PLOTSETTINGS
350
19
  3
ACAD_PLOTSTYLENAME
350
E
  3
ACAD_TABLESTYLE
350
134
  3
ACAD_VISUALSTYLE
350
2A
  0
SUN
  5
3F
330
29
100
AcDbSun
 90
        1
290
     0
 63
     7
421
 16777215
 40
1.0
291
     1
 91
  2455826
 92
 54000000
292
     0
 70
     2
 71
   256
280
     1
  0
DICTIONARY
  5
D
102
{ACAD_REACTORS
330
C
102
}
330
C
100
AcDbDictionary
281
     1
  0
DICTIONARY
  5
1A
102
{ACAD_REACTORS
330
C
102
}
330
C
100
AcDbDictionary
281
     1
  3
Layout1
350
1E
  3
Layout2
350
26
  3
Model
350
22
  0
DICTIONARY
  5
3B
102
{ACAD_REACTORS
330
C
102
}
330
C
100
AcDbDictionary
281
     1
  3
ByBlock
350
3D
  3
ByLayer
350
3C
  3
Global
350
3E
  0
DICTIONARY
  5
135
102
{ACAD_REACTORS
330
C
102
}
330
C
100
AcDbDictionary
281
     1
  0
DICTIONARY
  5
17
102
{ACAD_REACTORS
330
C
102
}
330
C
100
AcDbDictionary
281
     1
  3
Standard
350
18
  0
DICTIONARY
  5
19
102
{ACAD_REACTORS
330
C
102
}
330
C
100
AcDbDictionary
281
     1
  0
ACDBDICTIONARYWDFLT
  5
E
102
{ACAD_REACTORS
330
C
102
}
330
C
100
AcDbDictionary
281
     1
  3
Normal
350
F
100
AcDbDictionaryWithDefault
340
F
  0
DICTIONARY
  5
134
102
{ACAD_REACTORS
330
C
102
}
330
C
100
AcDbDictionary
281
     1
  0
DICTIONARY
  5
2A
102
{ACAD_REACTORS
330
C
102
}
330
C
100
AcDbDictionary
281
     1
  3
2dWireframe
350
2F
  3
3D Hidden
350
31
  3
3dWireframe
350
30
  3
Basic
350
32
  3
Brighten
350
36
  3
ColorChange
350
3A
  3
Conceptual
350
34
  3
Dim
350
35
  3
Facepattern
350
39
  3
Flat
350
2B
  3
FlatWithEdges
350
2C
  3
Gouraud
350
2D
  3
GouraudWithEdges
350
2E
  3
Linepattern
350
38
  3
Realistic
350
33
  3
Thicken
350
37
  0
LAYOUT
  5
1E
102
{ACAD_REACTORS
330
1A
102
}
330
1A
100
AcDbPlotSettings
  1

  2
none_device
  4

  6

 40
0.0
 41
0.0
 42
0.0
 43
0.0
 44
0.0
 45
0.0
 46
0.0
 47
0.0
 48
0.0
 49
0.0
140
0.0
141
0.0
142
1.0
143
1.0
 70
   688
 72
     0
 73
     0
 74
     5
  7

 75
    16
 76
     0
 77
     2
 78
   300
147
1.0
148
0.0
149
0.0
100
AcDbLayout
  1
Layout1
 70
     1
 71
     1
 10
0.0
 20
0.0
 11
12.0
 21
9.0
 12
0.0
 22
0.0
 32
0.0
 14
1.000000000000000E+20
 24
1.000000000000000E+20
 34
1.000000000000000E+20
 15
-1.000000000000000E+20
 25
-1.000000000000000E+20
 35
-1.000000000000000E+20
146
0.0
 13
0.0
 23
0.0
 33
0.0
 16
1.0
 26
0.0
 36
0.0
 17
0.0
 27
1.0
 37
0.0
 76
     0
330
1B
  0
LAYOUT
  5
26
102
{ACAD_REACTORS
330
1A
102
}
330
1A
100
AcDbPlotSettings
  1

  2
none_device
  4

  6

 40
0.0
 41
0.0
 42
0.0
 43
0.0
 44
0.0
 45
0.0
 46
0.0
 47
0.0
 48
0.0
 49
0.0
140
0.0
141
0.0
142
1.0
143
1.0
 70
   688
 72
     0
 73
     0
 74
     5
  7

 75
    16
 76
     0
 77
     2
 78
   300
147
1.0
148
0.0
149
0.0
100
AcDbLayout
  1
Layout2
 70
     1
 71
     2
 10
0.0
 20
0.0
 11
0.0
 21
0.0
 12
0.0
 22
0.0
 32
0.0
 14
0.0
 24
0.0
 34
0.0
 15
0.0
 25
0.0
 35
0.0
146
0.0
 13
0.0
 23
0.0
 33
0.0
 16
1.0
 26
0.0
 36
0.0
 17
0.0
 27
1.0
 37
0.0
 76
     0
330
23
  0
LAYOUT
  5
22
102
{ACAD_REACTORS
330
1A
102
}
330
1A
100
AcDbPlotSettings
  1

  2
none_device
  4

  6

 40
0.0
 41
0.0
 42
0.0
 43
0.0
 44
0.0
 45
0.0
 46
0.0
 47
0.0
 48
0.0
 49
0.0
140
0.0
141
0.0
142
1.0
143
1.0
 70
  1712
 72
     0
 73
     0
 74
     0
  7

 75
     0
 76
     0
 77
     2
 78
   300
147
1.0
148
0.0
149
0.0
100
AcDbLayout
  1
Model
 70
     1
 71
     0
 10
0.0
 20
0.0
 11
12.0
 21
9.0
 12
0.0
 22
0.0
 32
0.0
 14
1.000000000000000E+20
 24
1.000000000000000E+20
 34
1.000000000000000E+20
 15
-1.000000000000000E+20
 25
-1.000000000000000E+20
 35
-1.000000000000000E+20
146
0.0
 13
0.0
 23
0.0
 33
0.0
 16
1.0
 26
0.0
 36
0.0
 17
0.0
 27
1.0
 37
0.0
 76
     0
330
1F
331
29
  0
MATERIAL
  5
3D
102
{ACAD_REACTORS
330
3B
102
}
330
3B
100
AcDbMaterial
  1
ByBlock
 72
     1
 94
      127
  0
MATERIAL
  5
3C
102
{ACAD_REACTORS
330
3B
102
}
330
3B
100
AcDbMaterial
  1
ByLayer
 72
     1
 94
      127
  0
MATERIAL
  5
3E
102
{ACAD_REACTORS
330
3B
102
}
330
3B
100
AcDbMaterial
  1
Global
 72
     1
 94
      127
  0
MLINESTYLE
  5
18
102
{ACAD_REACTORS
330
17
102
}
330
17
100
AcDbMlineStyle
  2
Standard
 70
     0
  3

 62
   256
 51
90.0
 52
90.0
 71
     2
 49
0.5
 62
   256
  6
BYLAYER
 49
-0.5
 62
   256
  6
BYLAYER
  0
ACDBPLACEHOLDER
  5
F
102
{ACAD_REACTORS
330
E
102
}
330
E
  0
VISUALSTYLE
  5
2F
102
{ACAD_REACTORS
330
2A
102
}
330
2A
100
AcDbVisualStyle
  2
2dWireframe
 70
     4
177
     2
291
     0
 71
     0
176
     1
 72
     2
176
     1
 73
     0
176
     1
 90
        0
176
     1
 40
-0.6
176
     1
 41
-30.0
176
     1
 62
     5
 63
     7
421
 16777215
176
     1
 74
     1
176
     1
 91
        4
176
     1
 64
     7
176
     1
 65
   257
176
     1
 75
     1
176
     1
175
     1
176
     1
 42
1.0
176
     1
 92
        0
176
     1
 66
   257
176
     1
 43
1.0
176
     1
 76
     1
176
     1
 77
     6
176
     1
 78
     2
176
     1
 67
     7
176
     1
 79
     5
176
     1
170
     0
176
     1
171
     0
176
     1
290
     0
176
     1
 93
        1
176
     1
 44
0.0
176
     1
173
     0
176
     1
  0
VISUALSTYLE
  5
31
102
{ACAD_REACTORS
330
2A
102
}
330
2A
100
AcDbVisualStyle
  2
3D Hidden
 70
     6
177
     2
291
     0
 71
     1
176
     1
 72
     2
176
     1
 73
     2
176
     1
 90
        0
176
     1
 40
-0.6
176
     1
 41
-30.0
176
     1
 62
     5
 63
     7
421
 16777215
176
     1
 74
     2
176
     1
 91
        2
176
     1
 64
     7
176
     1
 65
   257
176
     1
 75
     2
176
     1
175
     1
176
     1
 42
40.0
176
     1
 92
        0
176
     1
 66
   257
176
     1
 43
1.0
176
     1
 76
     1
176
     1
 77
     6
176
     1
 78
     2
176
     1
 67
     7
176
     1
 79
     3
176
     1
170
     0
176
     1
171
     0
176
     1
290
     0
176
     1
 93
        1
176
     1
 44
0.0
176
     1
173
     0
176
     1
  0
VISUALSTYLE
  5
30
102
{ACAD_REACTORS
330
2A
102
}
330
2A
100
AcDbVisualStyle
  2
3dWireframe
 70
     5
177
     2
291
     0
 71
     0
176
     1
 72
     2
176
     1
 73
     0
176
     1
 90
        0
176
     1
 40
-0.6
176
     1
 41
-30.0
176
     1
 62
     5
 63
     7
421
 16777215
176
     1
 74
     1
176
     1
 91
        4
176
     1
 64
     7
176
     1
 65
   257
176
     1
 75
     1
176
     1
175
     1
176
     1
 42
1.0
176
     1
 92
        0
176
     1
 66
   257
176
     1
 43
1.0
176
     1
 76
     1
176
     1
 77
     6
176
     1
 78
     2
176
     1
 67
     7
176
     1
 79
     5
176
     1
170
     0
176
     1
171
     0
176
     1
290
     0
176
     1
 93
        1
176
     1
 44
0.0
176
     1
173
     0
176
     1
  0
VISUALSTYLE
  5
32
102
{ACAD_REACTORS
330
2A
102
}
330
2A
100
AcDbVisualStyle
  2
Basic
 70
     7
177
     2
291
     1
 71
     1
176
     1
 72
     0
176
     1
 73
     1
176
     1
 90
        0
176
     1
 40
-0.6
176
     1
 41
-30.0
176
     1
 62
     5
 63
     7
421
 16777215
176
     1
 74
     0
176
     1
 91
        4
176
     1
 64
     7
176
     1
 65
   257
176
     1
 75
     1
176
     1
175
     1
176
     1
 42
1.0
176
     1
 92
        8
176
     1
 66
     7
176
     1
 43
1.0
176
     1
 76
     1
176
     1
 77
     6
176
     1
 78
     2
176
     1
 67
     7
176
     1
 79
     5
176
     1
170
     0
176
     1
171
     0
176
     1
290
     0
176
     1
 93
        1
176
     1
 44
0.0
176
     1
173
     0
176
     1
  0
VISUALSTYLE
  5
36
102
{ACAD_REACTORS
330
2A
102
}
330
2A
100
AcDbVisualStyle
  2
Brighten
 70
    12
177
     2
291
     1
 71
     2
176
     1
 72
     2
176
     1
 73
     0
176
     1
 90
        0
176
     1
 40
-0.6
176
     1
 41
-30.0
176
     1
 62
     5
 63
     7
421
 16777215
176
     1
 74
     1
176
     1
 91
        4
176
     1
 64
     7
176
     1
 65
   257
176
     1
 75
     1
176
     1
175
     1
176
     1
 42
1.0
176
     1
 92
        8
176
     1
 66
     7
176
     1
 43
1.0
176
     1
 76
     1
176
     1
 77
     6
176
     1
 78
     2
176
     1
 67
     7
176
     1
 79
     5
176
     1
170
     0
176
     1
171
     0
176
     1
290
     0
176
     1
 93
        1
176
     1
 44
50.0
176
     1
173
     0
176
     1
  0
VISUALSTYLE
  5
3A
102
{ACAD_REACTORS
330
2A
102
}
330
2A
100
AcDbVisualStyle
  2
ColorChange
 70
    16
177
     2
291
     1
 71
     2
176
     1
 72
     2
176
     1
 73
     3
176
     1
 90
        0
176
     1
 40
-0.6
176
     1
 41
-30.0
176
     1
 62
     5
 63
     8
421
  8421504
176
     1
 74
     1
176
     1
 91
        4
176
     1
 64
     7
176
     1
 65
   257
176
     1
 75
     1
176
     1
175
     1
176
     1
 42
1.0
176
     1
 92
        8
176
     1
 66
     8
424
  8421504
176
     1
 43
1.0
176
     1
 76
     1
176
     1
 77
     6
176
     1
 78
     2
176
     1
 67
     7
176
     1
 79
     5
176
     1
170
     0
176
     1
171
     0
176
     1
290
     0
176
     1
 93
        1
176
     1
 44
0.0
176
     1
173
     0
176
     1
  0
VISUALSTYLE
  5
34
102
{ACAD_REACTORS
330
2A
102
}
330
2A
100
AcDbVisualStyle
  2
Conceptual
 70
     9
177
     2
291
     0
 71
     3
176
     1
 72
     2
176
     1
 73
     0
176
     1
 90
        0
176
     1
 40
-0.6
176
     1
 41
-30.0
176
     1
 62
     5
 63
     7
421
 16777215
176
     1
 74
     2
176
     1
 91
        2
176
     1
 64
     7
176
     1
 65
   257
176
     1
 75
     1
176
     1
175
     1
176
     1
 42
40.0
176
     1
 92
        8
176
     1
 66
     7
176
     1
 43
1.0
176
     1
 76
     1
176
     1
 77
     6
176
     1
 78
     2
176
     1
 67
     7
176
     1
 79
     3
176
     1
170
     0
176
     1
171
     0
176
     1
290
     0
176
     1
 93
        1
176
     1
 44
0.0
176
     1
173
     0
176
     1
  0
VISUALSTYLE
  5
35
102
{ACAD_REACTORS
330
2A
102
}
330
2A
100
AcDbVisualStyle
  2
Dim
 70
    11
177
     2
291
     1
 71
     2
176
     1
 72
     2
176
     1
 73
     0
176
     1
 90
        0
176
     1
 40
-0.6
176
     1
 41
-30.0
176
     1
 62
     5
 63
     7
421
 16777215
176
     1
 74
     1
176
     1
 91
        4
176
     1
 64
     7
176
     1
 65
   257
176
     1
 75
     1
176
     1
175
     1
176
     1
 42
1.0
176
     1
 92
        8
176
     1
 66
     7
176
     1
 43
1.0
176
     1
 76
     1
176
     1
 77
     6
176
     1
 78
     2
176
     1
 67
     7
176
     1
 79
     5
176
     1
170
     0
176
     1
171
     0
176
     1
290
     0
176
     1
 93
        1
176
     1
 44
-50.0
176
     1
173
     0
176
     1
  0
VISUALSTYLE
  5
39
102
{ACAD_REACTORS
330
2A
102
}
330
2A
100
AcDbVisualStyle
  2
Facepattern
 70
    15
177
     2
291
     1
 71
     2
176
     1
 72
     2
176
     1
 73
     0
176
     1
 90
        0
176
     1
 40
-0.6
176
     1
 41
-30.0
176
     1
 62
     5
 63
     7
421
 16777215
176
     1
 74
     1
176
     1
 91
        4
176
     1
 64
     7
176
     1
 65
   257
176
     1
 75
     1
176
     1
175
     1
176
     1
 42
1.0
176
     1
 92
        8
176
     1
 66
     7
176
     1
 43
1.0
176
     1
 76
     1
176
     1
 77
     6
176
     1
 78
     2
176
     1
 67
     7
176
     1
 79
     5
176
     1
170
     0
176
     1
171
     0
176
     1
290
     0
176
     1
 93
        1
176
     1
 44
0.0
176
     1
173
     0
176
     1
  0
VISUALSTYLE
  5
2B
102
{ACAD_REACTORS
330
2A
102
}
330
2A
100
AcDbVisualStyle
  2
Flat
 70
     0
177
     2
291
     1
 71
     2
176
     1
 72
     1
176
     1
 73
     1
176
     1
 90
        2
176
     1
 40
-0.6
176
     1
 41
30.0
176
     1
 62
     5
 63
     7
421
 16777215
176
     1
 74
     0
176
     1
 91
        4
176
     1
 64
     7
176
     1
 65
   257
176
     1
 75
     1
176
     1
175
     1
176
     1
 42
1.0
176
     1
 92
        8
176
     1
 66
     7
176
     1
 43
1.0
176
     1
 76
     1
176
     1
 77
     6
176
     1
 78
     2
176
     1
 67
     7
176
     1
 79
     5
176
     1
170
     0
176
     1
171
     0
176
     1
290
     0
176
     1
 93
       13
176
     1
 44
0.0
176
     1
173
     0
176
     1
  0
VISUALSTYLE
  5
2C
102
{ACAD_REACTORS
330
2A
102
}
330
2A
100
AcDbVisualStyle
  2
FlatWithEdges
 70
     1
177
     2
291
     1
 71
     2
176
     1
 72
     1
176
     1
 73
     1
176
     1
 90
        2
176
     1
 40
-0.6
176
     1
 41
30.0
176
     1
 62
     5
 63
     7
421
 16777215
176
     1
 74
     1
176
     1
 91
        4
176
     1
 64
     7
176
     1
 65
   257
176
     1
 75
     1
176
     1
175
     1
176
     1
 42
1.0
176
     1
 92
        0
176
     1
 66
   257
176
     1
 43
1.0
176
     1
 76
     1
176
     1
 77
     6
176
     1
 78
     2
176
     1
 67
     7
176
     1
 79
     5
176
     1
170
     0
176
     1
171
     0
176
     1
290
     0
176
     1
 93
       13
176
     1
 44
0.0
176
     1
173
     0
176
     1
  0
VISUALSTYLE
  5
2D
102
{ACAD_REACTORS
330
2A
102
}
330
2A
100
AcDbVisualStyle
  2
Gouraud
 70
     2
177
     2
291
     1
 71
     2
176
     1
 72
     2
176
     1
 73
     1
176
     1
 90
        2
176
     1
 40
-0.6
176
     1
 41
30.0
176
     1
 62
     5
 63
     7
421
 16777215
176
     1
 74
     0
176
     1
 91
        4
176
     1
 64
     7
176
     1
 65
   257
176
     1
 75
     1
176
     1
175
     1
176
     1
 42
1.0
176
     1
 92
        0
176
     1
 66
     7
176
     1
 43
1.0
176
     1
 76
     1
176
     1
 77
     6
176
     1
 78
     2
176
     1
 67
     7
176
     1
 79
     5
176
     1
170
     0
176
     1
171
     0
176
     1
290
     0
176
     1
 93
       13
176
     1
 44
0.0
176
     1
173
     0
176
     1
  0
VISUALSTYLE
  5
2E
102
{ACAD_REACTORS
330
2A
102
}
330
2A
100
AcDbVisualStyle
  2
GouraudWithEdges
 70
     3
177
     2
291
     1
 71
     2
176
     1
 72
     2
176
     1
 73
     1
176
     1
 90
        2
176
     1
 40
-0.6
176
     1
 41
30.0
176
     1
 62
     5
 63
     7
421
 16777215
176
     1
 74
     1
176
     1
 91
        4
176
     1
 64
     7
176
     1
 65
   257
176
     1
 75
     1
176
     1
175
     1
176
     1
 42
1.0
176
     1
 92
        0
176
     1
 66
   257
176
     1
 43
1.0
176
     1
 76
     1
176
     1
 77
     6
176
     1
 78
     2
176
     1
 67
     7
176
     1
 79
     5
176
     1
170
     0
176
     1
171
     0
176
     1
290
     0
176
     1
 93
       13
176
     1
 44
0.0
176
     1
173
     0
176
     1
  0
VISUALSTYLE
  5
38
102
{ACAD_REACTORS
330
2A
102
}
330
2A
100
AcDbVisualStyle
  2
Linepattern
 70
    14
177
     2
291
     1
 71
     2
176
     1
 72
     2
176
     1
 73
     0
176
     1
 90
        0
176
     1
 40
-0.6
176
     1
 41
-30.0
176
     1
 62
     5
 63
     7
421
 16777215
176
     1
 74
     1
176
     1
 91
        4
176
     1
 64
     7
176
     1
 65
   257
176
     1
 75
     7
176
     1
175
     7
176
     1
 42
1.0
176
     1
 92
        8
176
     1
 66
     7
176
     1
 43
1.0
176
     1
 76
     1
176
     1
 77
     6
176
     1
 78
     2
176
     1
 67
     7
176
     1
 79
     5
176
     1
170
     0
176
     1
171
     0
176
     1
290
     0
176
     1
 93
        1
176
     1
 44
0.0
176
     1
173
     0
176
     1
  0
VISUALSTYLE
  5
33
102
{ACAD_REACTORS
330
2A
102
}
330
2A
100
AcDbVisualStyle
  2
Realistic
 70
     8
177
     2
291
     0
 71
     2
176
     1
 72
     2
176
     1
 73
     0
176
     1
 90
        0
176
     1
 40
-0.6
176
     1
 41
-30.0
176
     1
 62
     5
 63
     7
421
 16777215
176
     1
 74
     1
176
     1
 91
        0
176
     1
 64
     7
176
     1
 65
   257
176
     1
 75
     1
176
     1
175
     1
176
     1
 42
1.0
176
     1
 92
        8
176
     1
 66
     8
424
  7895160
176
     1
 43
1.0
176
     1
 76
     1
176
     1
 77
     6
176
     1
 78
     2
176
     1
 67
     7
176
     1
 79
     5
176
     1
170
     0
176
     1
171
     0
176
     1
290
     0
176
     1
 93
       13
176
     1
 44
0.0
176
     1
173
     0
176
     1
  0
VISUALSTYLE
  5
37
102
{ACAD_REACTORS
330
2A
102
}
330
2A
100
AcDbVisualStyle
  2
Thicken
 70
    13
177
     2
291
     1
 71
     2
176
     1
 72
     2
176
     1
 73
     0
176
     1
 90
        0
176
     1
 40
-0.6
176
     1
 41
-30.0
176
     1
 62
     5
 63
     7
421
 16777215
176
     1
 74
     1
176
     1
 91
        4
176
     1
 64
     7
176
     1
 65
   257
176
     1
 75
     1
176
     1
175
     1
176
     1
 42
1.0
176
     1
 92
       12
176
     1
 66
     7
176
     1
 43
1.0
176
     1
 76
     1
176
     1
 77
     6
176
     1
 78
     2
176
     1
 67
     7
176
     1
 79
     5
176
     1
170
     0
176
     1
171
     0
176
     1
290
     0
176
     1
 93
        1
176
     1
 44
0.0
176
     1
173
     0
176
     1
  0
ENDSEC
  0
EOF
