  0
SECTION
  2
HEADER
  9
$ACADVER
  1
AC1024
  9
$ACADMAINTVER
 70
     6
  9
$DWGCODEPAGE
  3
UNDEFINED
  9
$INSBASE
 10
0.0
 20
0.0
 30
0.0
  9
$EXTMIN
 10
1.000000000000000E+20
 20
1.000000000000000E+20
 30
1.000000000000000E+20
  9
$EXTMAX
 10
-1.000000000000000E+20
 20
-1.000000000000000E+20
 30
-1.000000000000000E+20
  9
$LIMMIN
 10
0.0
 20
0.0
  9
$LIMMAX
 10
12.0
 20
9.0
  9
$ORTHOMODE
 70
     0
  9
$REGENMODE
 70
     1
  9
$FILLMODE
 70
     1
  9
$QTEXTMODE
 70
     0
  9
$MIRRTEXT
 70
     1
  9
$LTSCALE
 40
1.0
  9
$ATTMODE
 70
     1
  9
$TEXTSIZE
 40
0.2
  9
$TRACEWID
 40
0.05
  9
$TEXTSTYLE
  7
Standard
  9
$CLAYER
  8
0
  9
$CELTYPE
  6
ByLayer
  9
$CECOLOR
 62
   256
  9
$CELTSCALE
 40
1.0
  9
$DISPSILH
 70
     0
  9
$DIMSCALE
 40
1.0
  9
$DIMASZ
 40
0.18
  9
$DIMEXO
 40
0.0625
  9
$DIMDLI
 40
0.38
  9
$DIMRND
 40
0.0
  9
$DIMDLE
 40
0.0
  9
$DIMEXE
 40
0.18
  9
$DIMTP
 40
0.0
  9
$DIMTM
 40
0.0
  9
$DIMTXT
 40
0.18
  9
$DIMCEN
 40
0.09
  9
$DIMTSZ
 40
0.0
  9
$DIMTOL
 70
     0
  9
$DIMLIM
 70
     0
  9
$DIMTIH
 70
     1
  9
$DIMTOH
 70
     1
  9
$DIMSE1
 70
     0
  9
$DIMSE2
 70
     0
  9
$DIMTAD
 70
     0
  9
$DIMZIN
 70
     0
  9
$DIMBLK
  1

  9
$DIMASO
 70
     1
  9
$DIMSHO
 70
     1
  9
$DIMPOST
  1

  9
$DIMAPOST
  1

  9
$DIMALT
 70
     0
  9
$DIMALTD
 70
     2
  9
$DIMALTF
 40
25.4
  9
$DIMLFAC
 40
1.0
  9
$DIMTOFL
 70
     0
  9
$DIMTVP
 40
0.0
  9
$DIMTIX
 70
     0
  9
$DIMSOXD
 70
     0
  9
$DIMSAH
 70
     0
  9
$DIMBLK1
  1

  9
$DIMBLK2
  1

  9
$DIMSTYLE
  2
Standard
  9
$DIMCLRD
 70
     0
  9
$DIMCLRE
 70
     0
  9
$DIMCLRT
 70
     0
  9
$DIMTFAC
 40
1.0
  9
$DIMGAP
 40
0.09
  9
$DIMJUST
 70
     0
  9
$DIMSD1
 70
     0
  9
$DIMSD2
 70
     0
  9
$DIMTOLJ
 70
     1
  9
$DIMTZIN
 70
     0
  9
$DIMALTZ
 70
     0
  9
$DIMALTTZ
 70
     0
  9
$DIMUPT
 70
     0
  9
$DIMDEC
 70
     4
  9
$DIMTDEC
 70
     4
  9
$DIMALTU
 70
     2
  9
$DIMALTTD
 70
     2
  9
$DIMTXSTY
  7
Standard
  9
$DIMAUNIT
 70
     0
  9
$DIMADEC
 70
     0
  9
$DIMALTRND
 40
0.0
  9
$DIMAZIN
 70
     0
  9
$DIMDSEP
 70
    46
  9
$DIMATFIT
 70
     3
  9
$DIMFRAC
 70
     0
  9
$DIMLDRBLK
  1

  9
$DIMLUNIT
 70
     2
  9
$DIMLWD
 70
    -2
  9
$DIMLWE
 70
    -2
  9
$DIMTMOVE
 70
     0
  9
$DIMFXL
 40
1.0
  9
$DIMFXLON
 70
     0
  9
$DIMJOGANG
 40
0.7853981633974483
  9
$DIMTFILL
 70
     0
  9
$DIMTFILLCLR
 70
     0
  9
$DIMARCSYM
 70
     0
  9
$DIMLTYPE
  6

  9
$DIMLTEX1
  6

  9
$DIMLTEX2
  6

  9
$DIMTXTDIRECTION
 70
     0
  9
$LUNITS
 70
     2
  9
$LUPREC
 70
     4
  9
$SKETCHINC
 40
0.1
  9
$FILLETRAD
 40
0.5
  9
$AUNITS
 70
     0
  9
$AUPREC
 70
     0
  9
$MENU
  1
.
  9
$ELEVATION
 40
0.0
  9
$PELEVATION
 40
0.0
  9
$THICKNESS
 40
0.0
  9
$LIMCHECK
 70
     0
  9
$CHAMFERA
 40
0.5
  9
$CHAMFERB
 40
0.5
  9
$CHAMFERC
 40
1.0
  9
$CHAMFERD
 40
0.0
  9
$SKPOLY
 70
     0
  9
$TDCREATE
 40
2457917.612581007
  9
$TDUCREATE
 40
2457917.237581018
  9
$TDUPDATE
 40
2457917.612581007
  9
$TDUUPDATE
 40
2457917.237581018
  9
$TDINDWG
 40
0.0000000116
  9
$TDUSRTIMER
 40
0.0000000116
  9
$USRTIMER
 70
     1
  9
$ANGBASE
 50
0.0
  9
$ANGDIR
 70
     0
  9
$PDMODE
 70
     0
  9
$PDSIZE
 40
0.0
  9
$PLINEWID
 40
0.0
  9
$SPLFRAME
 70
     0
  9
$SPLINETYPE
 70
     6
  9
$SPLINESEGS
 70
     8
  9
$HANDSEED
  5
134
  9
$SURFTAB1
 70
     6
  9
$SURFTAB2
 70
     6
  9
$SURFTYPE
 70
     6
  9
$SURFU
 70
     6
  9
$SURFV
 70
     6
  9
$UCSBASE
  2

  9
$UCSNAME
  2

  9
$UCSORG
 10
0.0
 20
0.0
 30
0.0
  9
$UCSXDIR
 10
1.0
 20
0.0
 30
0.0
  9
$UCSYDIR
 10
0.0
 20
1.0
 30
0.0
  9
$UCSORTHOREF
  2

  9
$UCSORTHOVIEW
 70
     0
  9
$UCSORGTOP
 10
0.0
 20
0.0
 30
0.0
  9
$UCSORGBOTTOM
 10
0.0
 20
0.0
 30
0.0
  9
$UCSORGLEFT
 10
0.0
 20
0.0
 30
0.0
  9
$UCSORGRIGHT
 10
0.0
 20
0.0
 30
0.0
  9
$UCSORGFRONT
 10
0.0
 20
0.0
 30
0.0
  9
$UCSORGBACK
 10
0.0
 20
0.0
 30
0.0
  9
$PUCSBASE
  2

  9
$PUCSNAME
  2

  9
$PUCSORG
 10
0.0
 20
0.0
 30
0.0
  9
$PUCSXDIR
 10
1.0
 20
0.0
 30
0.0
  9
$PUCSYDIR
 10
0.0
 20
1.0
 30
0.0
  9
$PUCSORTHOREF
  2

  9
$PUCSORTHOVIEW
 70
     0
  9
$PUCSORGTOP
 10
0.0
 20
0.0
 30
0.0
  9
$PUCSORGBOTTOM
 10
0.0
 20
0.0
 30
0.0
  9
$PUCSORGLEFT
 10
0.0
 20
0.0
 30
0.0
  9
$PUCSORGRIGHT
 10
0.0
 20
0.0
 30
0.0
  9
$PUCSORGFRONT
 10
0.0
 20
0.0
 30
0.0
  9
$PUCSORGBACK
 10
0.0
 20
0.0
 30
0.0
  9
$USERI1
 70
     0
  9
$USERI2
 70
     0
  9
$USERI3
 70
     0
  9
$USERI4
 70
     0
  9
$USERI5
 70
     0
  9
$USERR1
 40
0.0
  9
$USERR2
 40
0.0
  9
$USERR3
 40
0.0
  9
$USERR4
 40
0.0
  9
$USERR5
 40
0.0
  9
$WORLDVIEW
 70
     1
  9
$SHADEDGE
 70
     3
  9
$SHADEDIF
 70
    70
  9
$TILEMODE
 70
     1
  9
$MAXACTVP
 70
    64
  9
$PINSBASE
 10
0.0
 20
0.0
 30
0.0
  9
$PLIMCHECK
 70
     0
  9
$PEXTMIN
 10
1.000000000000000E+20
 20
1.000000000000000E+20
 30
1.000000000000000E+20
  9
$PEXTMAX
 10
-1.000000000000000E+20
 20
-1.000000000000000E+20
 30
-1.000000000000000E+20
  9
$PLIMMIN
 10
0.0
 20
0.0
  9
$PLIMMAX
 10
12.0
 20
9.0
  9
$UNITMODE
 70
     0
  9
$VISRETAIN
 70
     1
  9
$PLINEGEN
 70
     0
  9
$PSLTSCALE
 70
     1
  9
$TREEDEPTH
 70
  3020
  9
$CMLSTYLE
  2
Standard
  9
$CMLJUST
 70
     0
  9
$CMLSCALE
 40
1.0
  9
$PROXYGRAPHICS
 70
     1
  9
$MEASUREMENT
 70
     0
  9
$CELWEIGHT
370
    -1
  9
$ENDCAPS
280
     0
  9
$JOINSTYLE
280
     0
  9
$LWDISPLAY
290
     1
  9
$INSUNITS
 70
     1
  9
$HYPERLINKBASE
  1

  9
$STYLESHEET
  1

  9
$XEDIT
290
     1
  9
$CEPSNTYPE
380
     0
  9
$PSTYLEMODE
290
     1
  9
$FINGERPRINTGUID
  2
{75AF04E5-98EC-4A91-CC71-1D6844A22E62}
  9
$VERSIONGUID
  2
{FAEB1C32-E019-11D5-929B-00C0DF256EC4}
  9
$EXTNAMES
290
     1
  9
$PSVPSCALE
 40
0.0
  9
$OLESTARTUP
290
     0
  9
$SORTENTS
280
   127
  9
$INDEXCTL
280
     0
  9
$HIDETEXT
280
     1
  9
$XCLIPFRAME
280
     2
  9
$HALOGAP
280
     0
  9
$OBSCOLOR
 70
   257
  9
$OBSLTYPE
280
     0
  9
$INTERSECTIONDISPLAY
280
     0
  9
$INTERSECTIONCOLOR
 70
   257
  9
$DIMASSOC
280
     2
  9
$PROJECTNAME
  1

  9
$CAMERADISPLAY
290
     0
  9
$LENSLENGTH
 40
50.0
  9
$CAMERAHEIGHT
 40
0.0
  9
$STEPSPERSEC
 40
2.0
  9
$STEPSIZE
 40
6.0
  9
$3DDWFPREC
 40
2.0
  9
$PSOLWIDTH
 40
0.25
  9
$PSOLHEIGHT
 40
4.0
  9
$LOFTANG1
 40
1.570796326794897
  9
$LOFTANG2
 40
1.570796326794897
  9
$LOFTMAG1
 40
0.0
  9
$LOFTMAG2
 40
0.0
  9
$LOFTPARAM
 70
     7
  9
$LOFTNORMALS
280
     1
  9
$LATITUDE
 40
37.795
  9
$LONGITUDE
 40
-122.394
  9
$NORTHDIRECTION
 40
0.0
  9
$TIMEZONE
 70
 -8000
  9
$LIGHTGLYPHDISPLAY
280
     1
  9
$TILEMODELIGHTSYNCH
280
     1
  9
$CMATERIAL
347
3C
  9
$SOLIDHIST
280
     1
  9
$SHOWHIST
280
     1
  9
$DWFFRAME
280
     2
  9
$DGNFRAME
280
     2
  9
$REALWORLDSCALE
290
     1
  9
$INTERFERECOLOR
 62
   256
  9
$CSHADOW
280
     0
  9
$SHADOWPLANELOCATION
 40
0.0
  0
ENDSEC
  0
SECTION
  2
CLASSES
  0
CLASS
  1
ACDBDICTIONARYWDFLT
  2
AcDbDictionaryWithDefault
  3
ObjectDBX Classes
 90
        0
 91
        4
280
     0
281
     0
  0
CLASS
  1
VISUALSTYLE
  2
AcDbVisualStyle
  3
ObjectDBX Classes
 90
     4095
 91
        4
280
     0
281
     0
  0
CLASS
  1
MATERIAL
  2
AcDbMaterial
  3
ObjectDBX Classes
 90
     1153
 91
        4
280
     0
281
     0
  0
CLASS
  1
SUN
  2
AcDbSun
  3
SCENEOE
 90
     1024
 91
        4
280
     0
281
     0
  0
ENDSEC
  0
SECTION
  2
TABLES
  0
TABLE
  2
VPORT
  5
8
330
0
100
AcDbSymbolTable
 70
     1
  0
VPORT
  5
29
330
8
100
AcDbSymbolTableRecord
100
AcDbViewportTableRecord
  2
*Active
 70
     0
 10
0.0
 20
0.0
 11
1.0
 21
1.0
 12
0.0
 22
0.0
 13
0.0
 23
0.0
 14
0.5
 24
0.5
 15
0.5
 25
0.5
 16
0.0
 26
0.0
 36
1.0
 17
91.00082462281999
 27
-128.4993055234307
 37
0.0
 40
256.9986110468615
 41
0.7081814508812795
 42
50.0
 43
0.0
 44
0.0
 50
0.0
 51
0.0
 71
     0
 72
   100
 73
     1
 74
     3
 75
     0
 76
     0
 77
     0
 78
     0
281
     0
 65
     1
110
0.0
120
0.0
130
0.0
111
1.0
121
0.0
131
0.0
112
0.0
122
1.0
132
0.0
 79
     0
146
0.0
 60
     3
 61
     5
292
     1
282
     1
141
0.0
142
0.0
 63
   250
361
3F
  0
ENDTAB
  0
TABLE
  2
LTYPE
  5
5
330
0
100
AcDbSymbolTable
 70
     1
  0
LTYPE
  5
14
330
5
100
AcDbSymbolTableRecord
100
AcDbLinetypeTableRecord
  2
ByBlock
 70
     0
  3

 72
    65
 73
     0
 40
0.0
  0
LTYPE
  5
15
330
5
100
AcDbSymbolTableRecord
100
AcDbLinetypeTableRecord
  2
ByLayer
 70
     0
  3

 72
    65
 73
     0
 40
0.0
  0
LTYPE
  5
16
330
5
100
AcDbSymbolTableRecord
100
AcDbLinetypeTableRecord
  2
Continuous
 70
     0
  3
Solid line
 72
    65
 73
     0
 40
0.0
  0
ENDTAB
  0
TABLE
  2
LAYER
  5
2
330
0
100
AcDbSymbolTable
 70
     2
  0
LAYER
  5
10
330
2
100
AcDbSymbolTableRecord
100
AcDbLayerTableRecord
  2
0
 70
     0
 62
     7
  6
Continuous
370
    -3
390
F
347
3E
  0
LAYER
  5
40
330
2
100
AcDbSymbolTableRecord
100
AcDbLayerTableRecord
  2
_U+30EC_U+30A4_U+30E4_U+30FC 1
 70
     0
 62
     7
  6
Continuous
370
    -3
390
F
347
3E
  0
ENDTAB
  0
TABLE
  2
STYLE
  5
3
330
0
100
AcDbSymbolTable
 70
     1
  0
STYLE
  5
11
330
3
100
AcDbSymbolTableRecord
100
AcDbTextStyleTableRecord
  2
Standard
 70
     0
 40
0.0
 41
1.0
 50
0.0
 71
     0
 42
0.2
  3
txt
  4

  0
ENDTAB
  0
TABLE
  2
VIEW
  5
6
330
0
100
AcDbSymbolTable
 70
     0
  0
ENDTAB
  0
TABLE
  2
UCS
  5
7
330
0
100
AcDbSymbolTable
 70
     0
  0
ENDTAB
  0
TABLE
  2
APPID
  5
9
330
0
100
AcDbSymbolTable
 70
     1
  0
APPID
  5
12
330
9
100
AcDbSymbolTableRecord
100
AcDbRegAppTableRecord
  2
ACAD
 70
     0
  0
ENDTAB
  0
TABLE
  2
DIMSTYLE
  5
A
330
0
100
AcDbSymbolTable
 70
     1
100
AcDbDimStyleTable
  0
DIMSTYLE
105
27
330
A
100
AcDbSymbolTableRecord
100
AcDbDimStyleTableRecord
  2
Standard
 70
     0
178
     0
340
11
  0
ENDTAB
  0
TABLE
  2
BLOCK_RECORD
  5
1
330
0
100
AcDbSymbolTable
 70
     8
  0
BLOCK_RECORD
  5
1F
330
1
100
AcDbSymbolTableRecord
100
AcDbBlockTableRecord
  2
*Model_Space
340
22
 70
     0
280
     1
281
     0
  0
BLOCK_RECORD
  5
1B
330
1
100
AcDbSymbolTableRecord
100
AcDbBlockTableRecord
  2
*Paper_Space
340
1E
 70
     0
280
     1
281
     0
  0
BLOCK_RECORD
  5
23
330
1
100
AcDbSymbolTableRecord
100
AcDbBlockTableRecord
  2
*Paper_Space0
340
26
 70
     0
280
     1
281
     0
  0
BLOCK_RECORD
  5
41
330
1
100
AcDbSymbolTableRecord
100
AcDbBlockTableRecord
  2
block 2
340
0
102
{BLKREFS
331
42
102
}
 70
     0
280
     1
281
     0
  0
BLOCK_RECORD
  5
95
330
1
100
AcDbSymbolTableRecord
100
AcDbBlockTableRecord
  2
block 3
340
0
102
{BLKREFS
331
96
102
}
 70
     0
280
     1
281
     0
  0
BLOCK_RECORD
  5
A8
330
1
100
AcDbSymbolTableRecord
100
AcDbBlockTableRecord
  2
block 4
340
0
102
{BLKREFS
331
A9
102
}
 70
     0
280
     1
281
     0
  0
BLOCK_RECORD
  5
B0
330
1
100
AcDbSymbolTableRecord
100
AcDbBlockTableRecord
  2
block 5
340
0
102
{BLKREFS
331
B1
102
}
 70
     0
280
     1
281
     0
  0
BLOCK_RECORD
  5
C3
330
1
100
AcDbSymbolTableRecord
100
AcDbBlockTableRecord
  2
block 6
340
0
102
{BLKREFS
331
C4
102
}
 70
     0
280
     1
281
     0
  0
BLOCK_RECORD
  5
CA
330
1
100
AcDbSymbolTableRecord
100
AcDbBlockTableRecord
  2
block 7
340
0
102
{BLKREFS
331
CB
102
}
 70
     0
280
     1
281
     0
  0
BLOCK_RECORD
  5
F0
330
1
100
AcDbSymbolTableRecord
100
AcDbBlockTableRecord
  2
block 8
340
0
102
{BLKREFS
331
F1
102
}
 70
     0
280
     1
281
     0
  0
ENDTAB
  0
ENDSEC
  0
SECTION
  2
BLOCKS
  0
BLOCK
  5
20
330
1F
100
AcDbEntity
  8
0
100
AcDbBlockBegin
  2
*Model_Space
 70
     0
 10
0.0
 20
0.0
 30
0.0
  3
*Model_Space
  1

  0
ENDBLK
  5
21
330
1F
100
AcDbEntity
  8
0
100
AcDbBlockEnd
  0
BLOCK
  5
1C
330
1B
100
AcDbEntity
 67
     1
  8
0
100
AcDbBlockBegin
  2
*Paper_Space
 70
     0
 10
0.0
 20
0.0
 30
0.0
  3
*Paper_Space
  1

  0
ENDBLK
  5
1D
330
1B
100
AcDbEntity
 67
     1
  8
0
100
AcDbBlockEnd
  0
BLOCK
  5
24
330
23
100
AcDbEntity
  8
0
100
AcDbBlockBegin
  2
*Paper_Space0
 70
     0
 10
0.0
 20
0.0
 30
0.0
  3
*Paper_Space0
  1

  0
ENDBLK
  5
25
330
23
100
AcDbEntity
  8
0
100
AcDbBlockEnd
  0
BLOCK
  5
43
330
41
100
AcDbEntity
  8
0
100
AcDbBlockBegin
  2
block 2
 70
     0
 10
0.0
 20
0.0
 30
0.0
  3
block 2
  1

  0
SPLINE
  5
45
330
41
100
AcDbEntity
  8
_U+30EC_U+30A4_U+30E4_U+30FC 1
370
     0
100
AcDbSpline
210
0.0
220
0.0
230
1.0
 70
    11
 71
     3
 72
    53
 73
    49
 74
     0
 42
0.0000000001
 43
0.0000000001
 12
1.0
 22
0.0
 32
0.0
 13
1.0
 23
0.0
 33
0.0
 40
0.0
 40
0.0
 40
0.0
 40
0.0
 40
1.0
 40
1.0
 40
1.0
 40
2.0
 40
2.0
 40
2.0
 40
3.0
 40
3.0
 40
3.0
 40
4.0
 40
4.0
 40
4.0
 40
5.0
 40
5.0
 40
5.0
 40
6.0
 40
6.0
 40
6.0
 40
7.0
 40
7.0
 40
7.0
 40
8.0
 40
8.0
 40
8.0
 40
9.0
 40
9.0
 40
9.0
 40
10.0
 40
10.0
 40
10.0
 40
11.0
 40
11.0
 40
11.0
 40
12.0
 40
12.0
 40
12.0
 40
13.0
 40
13.0
 40
13.0
 40
14.0
 40
14.0
 40
14.0
 40
15.0
 40
15.0
 40
15.0
 40
16.0
 40
16.0
 40
16.0
 40
16.0
 10
96.54673809244306
 20
-111.8317549720419
 30
0.0
 10
96.54673809244306
 20
-111.8317549720419
 30
0.0
 10
97.3466969609233
 20
-111.8317549720419
 30
0.0
 10
97.3466969609233
 20
-111.8317549720419
 30
0.0
 10
97.3466969609233
 20
-111.8317549720419
 30
0.0
 10
97.3466969609233
 20
-136.3313955214725
 30
0.0
 10
97.3466969609233
 20
-136.3313955214725
 30
0.0
 10
97.3466969609233
 20
-137.049333576849
 30
0.0
 10
96.76514280909332
 20
-137.6315580211474
 30
0.0
 10
96.04720477185388
 20
-137.6315580211474
 30
0.0
 10
96.04720477185388
 20
-137.6315580211474
 30
0.0
 10
88.84556412224971
 20
-137.6315580211474
 30
0.0
 10
88.84556412224971
 20
-137.6315580211474
 30
0.0
 10
88.56962135151183
 20
-137.6315580211474
 30
0.0
 10
88.34567802389176
 20
-137.8555013544253
 30
0.0
 10
88.34567802389176
 20
-138.1317969099117
 30
0.0
 10
88.34567802389176
 20
-138.1317969099117
 30
0.0
 10
88.34567802389176
 20
-147.4969532964591
 30
0.0
 10
88.34567802389176
 20
-147.4969532964591
 30
0.0
 10
88.34567802389176
 20
-147.7732488519455
 30
0.0
 10
88.56962135151183
 20
-147.9971569074453
 30
0.0
 10
88.84556412224971
 20
-147.9971569074453
 30
0.0
 10
88.84556412224971
 20
-147.9971569074453
 30
0.0
 10
97.3466969609233
 20
-147.9971569074453
 30
0.0
 10
97.3466969609233
 20
-147.9971569074453
 30
0.0
 10
97.3466969609233
 20
-147.9971569074453
 30
0.0
 10
97.3466969609233
 20
-148.7971157961339
 30
0.0
 10
97.3466969609233
 20
-148.7971157961339
 30
0.0
 10
97.3466969609233
 20
-148.7971157961339
 30
0.0
 10
88.84556412224971
 20
-148.7971157961339
 30
0.0
 10
88.84556412224971
 20
-148.7971157961339
 30
0.0
 10
88.1275908072334
 20
-148.7971157961339
 30
0.0
 10
87.54571915541152
 20
-148.2148913518349
 30
0.0
 10
87.54571915541152
 20
-147.4969532964591
 30
0.0
 10
87.54571915541152
 20
-147.4969532964591
 30
0.0
 10
87.54571915541152
 20
-138.1317969099117
 30
0.0
 10
87.54571915541152
 20
-138.1317969099117
 30
0.0
 10
87.54571915541152
 20
-137.4138235767578
 30
0.0
 10
88.1275908072334
 20
-136.8315991324587
 30
0.0
 10
88.84556412224971
 20
-136.8315991324587
 30
0.0
 10
88.84556412224971
 20
-136.8315991324587
 30
0.0
 10
96.04720477185388
 20
-136.8315991324587
 30
0.0
 10
96.04720477185388
 20
-136.8315991324587
 30
0.0
 10
96.32279719814126
 20
-136.8315991324587
 30
0.0
 10
96.54673809244306
 20
-136.607691076959
 30
0.0
 10
96.54673809244306
 20
-136.3313955214725
 30
0.0
 10
96.54673809244306
 20
-136.3313955214725
 30
0.0
 10
96.54673809244306
 20
-111.8317549720419
 30
0.0
 10
96.54673809244306
 20
-111.8317549720419
 30
0.0
  0
SPLINE
  5
46
330
41
100
AcDbEntity
  8
_U+30EC_U+30A4_U+30E4_U+30FC 1
 62
   179
420
  2234388
370
     9
100
AcDbSpline
210
0.0
220
0.0
230
1.0
 70
    11
 71
     3
 72
    17
 73
    13
 74
     0
 42
0.0000000001
 43
0.0000000001
 12
1.0
 22
0.0
 32
0.0
 13
1.0
 23
0.0
 33
0.0
 40
0.0
 40
0.0
 40
0.0
 40
0.0
 40
1.0
 40
1.0
 40
1.0
 40
2.0
 40
2.0
 40
2.0
 40
3.0
 40
3.0
 40
3.0
 40
4.0
 40
4.0
 40
4.0
 40
4.0
 10
96.44612587278768
 20
-107.8313255285977
 30
0.0
 10
96.44612587278768
 20
-107.7761863619449
 30
0.0
 10
96.49092864942243
 20
-107.731418861956
 30
0.0
 10
96.54673809244306
 20
-107.731418861956
 30
0.0
 10
96.6018444202941
 20
-107.731418861956
 30
0.0
 10
96.64664719806083
 20
-107.7761863619449
 30
0.0
 10
96.64664719806083
 20
-107.8313255285977
 30
0.0
 10
96.64664719806083
 20
-107.8867821952507
 30
0.0
 10
96.6018444202941
 20
-107.9315849730171
 30
0.0
 10
96.54673809244306
 20
-107.9315849730171
 30
0.0
 10
96.49092864942243
 20
-107.9315849730171
 30
0.0
 10
96.44612587278768
 20
-107.8867821952507
 30
0.0
 10
96.44612587278768
 20
-107.8313255285977
 30
0.0
  0
SPLINE
  5
47
330
41
100
AcDbEntity
  8
_U+30EC_U+30A4_U+30E4_U+30FC 1
 62
   179
420
  2234388
370
     9
100
AcDbSpline
210
0.0
220
0.0
230
1.0
 70
    11
 71
     3
 72
    17
 73
    13
 74
     0
 42
0.0000000001
 43
0.0000000001
 12
1.0
 22
0.0
 32
0.0
 13
1.0
 23
0.0
 33
0.0
 40
0.0
 40
0.0
 40
0.0
 40
0.0
 40
1.0
 40
1.0
 40
1.0
 40
2.0
 40
2.0
 40
2.0
 40
3.0
 40
3.0
 40
3.0
 40
4.0
 40
4.0
 40
4.0
 40
4.0
 10
97.24608474126791
 20
-107.8313255285977
 30
0.0
 10
97.24608474126791
 20
-107.7761863619449
 30
0.0
 10
97.29088751790268
 20
-107.731418861956
 30
0.0
 10
97.34599140538575
 20
-107.731418861956
 30
0.0
 10
97.40113057064569
 20
-107.731418861956
 30
0.0
 10
97.44589806950358
 20
-107.7761863619449
 30
0.0
 10
97.44589806950358
 20
-107.8313255285977
 30
0.0
 10
97.44589806950358
 20
-107.8867821952507
 30
0.0
 10
97.40113057064569
 20
-107.9315849730171
 30
0.0
 10
97.34599140538575
 20
-107.9315849730171
 30
0.0
 10
97.29088751790268
 20
-107.9315849730171
 30
0.0
 10
97.24608474126791
 20
-107.8867821952507
 30
0.0
 10
97.24608474126791
 20
-107.8313255285977
 30
0.0
  0
SPLINE
  5
48
330
41
100
AcDbEntity
  8
_U+30EC_U+30A4_U+30E4_U+30FC 1
 62
   179
420
  2234388
370
     9
100
AcDbSpline
210
0.0
220
0.0
230
1.0
 70
    11
 71
     3
 72
    17
 73
    13
 74
     0
 42
0.0000000001
 43
0.0000000001
 12
1.0
 22
0.0
 32
0.0
 13
1.0
 23
0.0
 33
0.0
 40
0.0
 40
0.0
 40
0.0
 40
0.0
 40
1.0
 40
1.0
 40
1.0
 40
2.0
 40
2.0
 40
2.0
 40
3.0
 40
3.0
 40
3.0
 40
4.0
 40
4.0
 40
4.0
 40
4.0
 10
101.045324922119
 20
-111.8317549720419
 30
0.0
 10
101.045324922119
 20
-111.7762983053892
 30
0.0
 10
101.0901276987538
 20
-111.7314955276225
 30
0.0
 10
101.1452315862368
 20
-111.7314955276225
 30
0.0
 10
101.2003707514968
 20
-111.7314955276225
 30
0.0
 10
101.2451382503547
 20
-111.7762983053892
 30
0.0
 10
101.2451382503547
 20
-111.8317549720419
 30
0.0
 10
101.2451382503547
 20
-111.886894138695
 30
0.0
 10
101.2003707514968
 20
-111.9316616386839
 30
0.0
 10
101.1452315862368
 20
-111.9316616386839
 30
0.0
 10
101.0901276987538
 20
-111.9316616386839
 30
0.0
 10
101.045324922119
 20
-111.886894138695
 30
0.0
 10
101.045324922119
 20
-111.8317549720419
 30
0.0
  0
SPLINE
  5
49
330
41
100
AcDbEntity
  8
_U+30EC_U+30A4_U+30E4_U+30FC 1
 62
   179
420
  2234388
370
     9
100
AcDbSpline
210
0.0
220
0.0
230
1.0
 70
    11
 71
     3
 72
    17
 73
    13
 74
     0
 42
0.0000000001
 43
0.0000000001
 12
1.0
 22
0.0
 32
0.0
 13
1.0
 23
0.0
 33
0.0
 40
0.0
 40
0.0
 40
0.0
 40
0.0
 40
1.0
 40
1.0
 40
1.0
 40
2.0
 40
2.0
 40
2.0
 40
3.0
 40
3.0
 40
3.0
 40
4.0
 40
4.0
 40
4.0
 40
4.0
 10
101.045324922119
 20
-137.6315580211474
 30
0.0
 10
101.045324922119
 20
-137.5764541322724
 30
0.0
 10
101.0901276987538
 20
-137.5316513545057
 30
0.0
 10
101.1452315862368
 20
-137.5316513545057
 30
0.0
 10
101.2003707514968
 20
-137.5316513545057
 30
0.0
 10
101.2451382503547
 20
-137.5764541322724
 30
0.0
 10
101.2451382503547
 20
-137.6315580211474
 30
0.0
 10
101.2451382503547
 20
-137.6873674655784
 30
0.0
 10
101.2003707514968
 20
-137.7321702433445
 30
0.0
 10
101.1452315862368
 20
-137.7321702433445
 30
0.0
 10
101.0901276987538
 20
-137.7321702433445
 30
0.0
 10
101.045324922119
 20
-137.6873674655784
 30
0.0
 10
101.045324922119
 20
-137.6315580211474
 30
0.0
  0
SPLINE
  5
4A
330
41
100
AcDbEntity
  8
_U+30EC_U+30A4_U+30E4_U+30FC 1
 62
   179
420
  2234388
370
     9
100
AcDbSpline
210
0.0
220
0.0
230
1.0
 70
    11
 71
     3
 72
    17
 73
    13
 74
     0
 42
0.0000000001
 43
0.0000000001
 12
1.0
 22
0.0
 32
0.0
 13
1.0
 23
0.0
 33
0.0
 40
0.0
 40
0.0
 40
0.0
 40
0.0
 40
1.0
 40
1.0
 40
1.0
 40
2.0
 40
2.0
 40
2.0
 40
3.0
 40
3.0
 40
3.0
 40
4.0
 40
4.0
 40
4.0
 40
4.0
 10
96.445455595027
 20
-132.83187524457
 30
0.0
 10
96.445455595027
 20
-132.7760305223614
 30
0.0
 10
96.49022309388488
 20
-132.7312630223728
 30
0.0
 10
96.54536225914482
 20
-132.7312630223728
 30
0.0
 10
96.6004661466279
 20
-132.7312630223728
 30
0.0
 10
96.64526892326266
 20
-132.7760305223614
 30
0.0
 10
96.64526892326266
 20
-132.83187524457
 30
0.0
 10
96.64526892326266
 20
-132.8869791334449
 30
0.0
 10
96.6004661466279
 20
-132.9317819112117
 30
0.0
 10
96.54536225914482
 20
-132.9317819112117
 30
0.0
 10
96.49022309388488
 20
-132.9317819112117
 30
0.0
 10
96.445455595027
 20
-132.8869791334449
 30
0.0
 10
96.445455595027
 20
-132.83187524457
 30
0.0
  0
SPLINE
  5
4B
330
41
100
AcDbEntity
  8
_U+30EC_U+30A4_U+30E4_U+30FC 1
 62
   179
420
  2234388
370
     9
100
AcDbSpline
210
0.0
220
0.0
230
1.0
 70
    11
 71
     3
 72
    17
 73
    13
 74
     0
 42
0.0000000001
 43
0.0000000001
 12
1.0
 22
0.0
 32
0.0
 13
1.0
 23
0.0
 33
0.0
 40
0.0
 40
0.0
 40
0.0
 40
0.0
 40
1.0
 40
1.0
 40
1.0
 40
2.0
 40
2.0
 40
2.0
 40
3.0
 40
3.0
 40
3.0
 40
4.0
 40
4.0
 40
4.0
 40
4.0
 10
83.44555953779309
 20
-136.8315991324587
 30
0.0
 10
83.44555953779309
 20
-136.7764952435838
 30
0.0
 10
83.49032703665097
 20
-136.7316924658171
 30
0.0
 10
83.5458189796797
 20
-136.7316924658171
 30
0.0
 10
83.60092497909987
 20
-136.7316924658171
 30
0.0
 10
83.64572775686626
 20
-136.7764952435838
 30
0.0
 10
83.64572775686626
 20
-136.8315991324587
 30
0.0
 10
83.64572775686626
 20
-136.8867382991118
 30
0.0
 10
83.60092497909987
 20
-136.9315057991004
 30
0.0
 10
83.5458189796797
 20
-136.9315057991004
 30
0.0
 10
83.49032703665097
 20
-136.9315057991004
 30
0.0
 10
83.44555953779309
 20
-136.8867382991118
 30
0.0
 10
83.44555953779309
 20
-136.8315991324587
 30
0.0
  0
SPLINE
  5
4C
330
41
100
AcDbEntity
  8
_U+30EC_U+30A4_U+30E4_U+30FC 1
 62
   179
420
  2234388
370
     9
100
AcDbSpline
210
0.0
220
0.0
230
1.0
 70
    11
 71
     3
 72
    17
 73
    13
 74
     0
 42
0.0000000001
 43
0.0000000001
 12
1.0
 22
0.0
 32
0.0
 13
1.0
 23
0.0
 33
0.0
 40
0.0
 40
0.0
 40
0.0
 40
0.0
 40
1.0
 40
1.0
 40
1.0
 40
2.0
 40
2.0
 40
2.0
 40
3.0
 40
3.0
 40
3.0
 40
4.0
 40
4.0
 40
4.0
 40
4.0
 10
87.4456361024093
 20
-132.83187524457
 30
0.0
 10
87.4456361024093
 20
-132.7760305223614
 30
0.0
 10
87.49043887904406
 20
-132.7312630223728
 30
0.0
 10
87.54554276652713
 20
-132.7312630223728
 30
0.0
 10
87.60103470955586
 20
-132.7312630223728
 30
0.0
 10
87.64580220841374
 20
-132.7760305223614
 30
0.0
 10
87.64580220841374
 20
-132.83187524457
 30
0.0
 10
87.64580220841374
 20
-132.8869791334449
 30
0.0
 10
87.60103470955586
 20
-132.9317819112117
 30
0.0
 10
87.54554276652713
 20
-132.9317819112117
 30
0.0
 10
87.49043887904406
 20
-132.9317819112117
 30
0.0
 10
87.4456361024093
 20
-132.8869791334449
 30
0.0
 10
87.4456361024093
 20
-132.83187524457
 30
0.0
  0
SPLINE
  5
4D
330
41
100
AcDbEntity
  8
_U+30EC_U+30A4_U+30E4_U+30FC 1
 62
   179
420
  2234388
370
     9
100
AcDbSpline
210
0.0
220
0.0
230
1.0
 70
    11
 71
     3
 72
    17
 73
    13
 74
     0
 42
0.0000000001
 43
0.0000000001
 12
1.0
 22
0.0
 32
0.0
 13
1.0
 23
0.0
 33
0.0
 40
0.0
 40
0.0
 40
0.0
 40
0.0
 40
1.0
 40
1.0
 40
1.0
 40
2.0
 40
2.0
 40
2.0
 40
3.0
 40
3.0
 40
3.0
 40
4.0
 40
4.0
 40
4.0
 40
4.0
 10
83.44555953779309
 20
-148.8315821850143
 30
0.0
 10
83.44555953779309
 20
-148.7757727405838
 30
0.0
 10
83.49032703665097
 20
-148.7309699628171
 30
0.0
 10
83.5458189796797
 20
-148.7309699628171
 30
0.0
 10
83.60092497909987
 20
-148.7309699628171
 30
0.0
 10
83.64572775686626
 20
-148.7757727405838
 30
0.0
 10
83.64572775686626
 20
-148.8315821850143
 30
0.0
 10
83.64572775686626
 20
-148.8866860738892
 30
0.0
 10
83.60092497909987
 20
-148.9314888516559
 30
0.0
 10
83.5458189796797
 20
-148.9314888516559
 30
0.0
 10
83.49032703665097
 20
-148.9314888516559
 30
0.0
 10
83.44555953779309
 20
-148.8866860738892
 30
0.0
 10
83.44555953779309
 20
-148.8315821850143
 30
0.0
  0
SPLINE
  5
4E
330
41
100
AcDbEntity
  8
_U+30EC_U+30A4_U+30E4_U+30FC 1
 62
   179
420
  2234388
370
     9
100
AcDbSpline
210
0.0
220
0.0
230
1.0
 70
    11
 71
     3
 72
    17
 73
    13
 74
     0
 42
0.0000000001
 43
0.0000000001
 12
1.0
 22
0.0
 32
0.0
 13
1.0
 23
0.0
 33
0.0
 40
0.0
 40
0.0
 40
0.0
 40
0.0
 40
1.0
 40
1.0
 40
1.0
 40
2.0
 40
2.0
 40
2.0
 40
3.0
 40
3.0
 40
3.0
 40
4.0
 40
4.0
 40
4.0
 40
4.0
 10
87.4456361024093
 20
-152.8313413506812
 30
0.0
 10
87.4456361024093
 20
-152.7762021840281
 30
0.0
 10
87.49043887904406
 20
-152.7314346840395
 30
0.0
 10
87.54554276652713
 20
-152.7314346840395
 30
0.0
 10
87.60103470955586
 20
-152.7314346840395
 30
0.0
 10
87.64580220841374
 20
-152.7762021840281
 30
0.0
 10
87.64580220841374
 20
-152.8313413506812
 30
0.0
 10
87.64580220841374
 20
-152.8864452395561
 30
0.0
 10
87.60103470955586
 20
-152.9312480173228
 30
0.0
 10
87.54554276652713
 20
-152.9312480173228
 30
0.0
 10
87.49043887904406
 20
-152.9312480173228
 30
0.0
 10
87.4456361024093
 20
-152.8864452395561
 30
0.0
 10
87.4456361024093
 20
-152.8313413506812
 30
0.0
  0
SPLINE
  5
4F
330
41
100
AcDbEntity
  8
_U+30EC_U+30A4_U+30E4_U+30FC 1
 62
   179
420
  2234388
370
     9
100
AcDbSpline
210
0.0
220
0.0
230
1.0
 70
    11
 71
     3
 72
    17
 73
    13
 74
     0
 42
0.0000000001
 43
0.0000000001
 12
1.0
 22
0.0
 32
0.0
 13
1.0
 23
0.0
 33
0.0
 40
0.0
 40
0.0
 40
0.0
 40
0.0
 40
1.0
 40
1.0
 40
1.0
 40
2.0
 40
2.0
 40
2.0
 40
3.0
 40
3.0
 40
3.0
 40
4.0
 40
4.0
 40
4.0
 40
4.0
 10
97.24541446350723
 20
-152.8313413506812
 30
0.0
 10
97.24541446350723
 20
-152.7762021840281
 30
0.0
 10
97.28951168460443
 20
-152.7314346840395
 30
0.0
 10
97.34532112762507
 20
-152.7314346840395
 30
0.0
 10
97.40042501510814
 20
-152.7314346840395
 30
0.0
 10
97.44522779174291
 20
-152.7762021840281
 30
0.0
 10
97.44522779174291
 20
-152.8313413506812
 30
0.0
 10
97.44522779174291
 20
-152.8864452395561
 30
0.0
 10
97.40042501510814
 20
-152.9312480173228
 30
0.0
 10
97.34532112762507
 20
-152.9312480173228
 30
0.0
 10
97.28951168460443
 20
-152.9312480173228
 30
0.0
 10
97.24541446350723
 20
-152.8864452395561
 30
0.0
 10
97.24541446350723
 20
-152.8313413506812
 30
0.0
  0
SPLINE
  5
50
330
41
100
AcDbEntity
  8
_U+30EC_U+30A4_U+30E4_U+30FC 1
 62
   179
420
  2234388
370
     9
100
AcDbSpline
210
0.0
220
0.0
230
1.0
 70
    11
 71
     3
 72
    17
 73
    13
 74
     0
 42
0.0000000001
 43
0.0000000001
 12
1.0
 22
0.0
 32
0.0
 13
1.0
 23
0.0
 33
0.0
 40
0.0
 40
0.0
 40
0.0
 40
0.0
 40
1.0
 40
1.0
 40
1.0
 40
2.0
 40
2.0
 40
2.0
 40
3.0
 40
3.0
 40
3.0
 40
4.0
 40
4.0
 40
4.0
 40
4.0
 10
101.045324922119
 20
-148.032293574103
 30
0.0
 10
101.045324922119
 20
-147.9764841296726
 30
0.0
 10
101.0901276987538
 20
-147.931716629684
 30
0.0
 10
101.1452315862368
 20
-147.931716629684
 30
0.0
 10
101.2003707514968
 20
-147.931716629684
 30
0.0
 10
101.2451382503547
 20
-147.9764841296726
 30
0.0
 10
101.2451382503547
 20
-148.032293574103
 30
0.0
 10
101.2451382503547
 20
-148.0874327407561
 30
0.0
 10
101.2003707514968
 20
-148.1322002407447
 30
0.0
 10
101.1452315862368
 20
-148.1322002407447
 30
0.0
 10
101.0901276987538
 20
-148.1322002407447
 30
0.0
 10
101.045324922119
 20
-148.0874327407561
 30
0.0
 10
101.045324922119
 20
-148.032293574103
 30
0.0
  0
POLYLINE
  5
51
330
41
100
AcDbEntity
  8
_U+30EC_U+30A4_U+30E4_U+30FC 1
 62
   179
420
  2234388
370
     9
100
AcDb2dPolyline
 66
     1
 10
0.0
 20
0.0
 30
0.0
  0
VERTEX
  5
52
330
51
100
AcDbEntity
  8
_U+30EC_U+30A4_U+30E4_U+30FC 1
 62
   179
420
  2234388
370
     9
100
AcDbVertex
100
AcDb2dVertex
 10
97.34599140538575
 20
-107.8313255285977
 30
0.0
  0
VERTEX
  5
53
330
51
100
AcDbEntity
  8
_U+30EC_U+30A4_U+30E4_U+30FC 1
 62
   179
420
  2234388
370
     9
100
AcDbVertex
100
AcDb2dVertex
 10
102.6038971045787
 20
-107.8313255285977
 30
0.0
  0
SEQEND
  5
54
330
51
100
AcDbEntity
  8
_U+30EC_U+30A4_U+30E4_U+30FC 1
 62
   179
420
  2234388
370
     9
  0
POLYLINE
  5
55
330
41
100
AcDbEntity
  8
_U+30EC_U+30A4_U+30E4_U+30FC 1
 62
   179
420
  2234388
370
     9
100
AcDb2dPolyline
 66
     1
 10
0.0
 20
0.0
 30
0.0
  0
VERTEX
  5
56
330
55
100
AcDbEntity
  8
_U+30EC_U+30A4_U+30E4_U+30FC 1
 62
   179
420
  2234388
370
     9
100
AcDbVertex
100
AcDb2dVertex
 10
97.34599140538575
 20
-107.8313255285977
 30
0.0
  0
VERTEX
  5
57
330
55
100
AcDbEntity
  8
_U+30EC_U+30A4_U+30E4_U+30FC 1
 62
   179
420
  2234388
370
     9
100
AcDbVertex
100
AcDb2dVertex
 10
95.5462603401896
 20
-107.8313255285977
 30
0.0
  0
SEQEND
  5
58
330
55
100
AcDbEntity
  8
_U+30EC_U+30A4_U+30E4_U+30FC 1
 62
   179
420
  2234388
370
     9
  0
POLYLINE
  5
59
330
41
100
AcDbEntity
  8
_U+30EC_U+30A4_U+30E4_U+30FC 1
 62
   179
420
  2234388
370
     9
100
AcDb2dPolyline
 66
     1
 10
0.0
 20
0.0
 30
0.0
  0
VERTEX
  5
5A
330
59
100
AcDbEntity
  8
_U+30EC_U+30A4_U+30E4_U+30FC 1
 62
   179
420
  2234388
370
     9
100
AcDbVertex
100
AcDb2dVertex
 10
97.34599140538575
 20
-109.2913316393439
 30
0.0
  0
VERTEX
  5
5B
330
59
100
AcDbEntity
  8
_U+30EC_U+30A4_U+30E4_U+30FC 1
 62
   179
420
  2234388
370
     9
100
AcDbVertex
100
AcDb2dVertex
 10
97.34599140538575
 20
-106.8315533066255
 30
0.0
  0
SEQEND
  5
5C
330
59
100
AcDbEntity
  8
_U+30EC_U+30A4_U+30E4_U+30FC 1
 62
   179
420
  2234388
370
     9
  0
POLYLINE
  5
5D
330
41
100
AcDbEntity
  8
_U+30EC_U+30A4_U+30E4_U+30FC 1
 62
   179
420
  2234388
370
     9
100
AcDb2dPolyline
 66
     1
 10
0.0
 20
0.0
 30
0.0
  0
VERTEX
  5
5E
330
5D
100
AcDbEntity
  8
_U+30EC_U+30A4_U+30E4_U+30FC 1
 62
   179
420
  2234388
370
     9
100
AcDbVertex
100
AcDb2dVertex
 10
96.54673809244306
 20
-109.2913316393439
 30
0.0
  0
VERTEX
  5
5F
330
5D
100
AcDbEntity
  8
_U+30EC_U+30A4_U+30E4_U+30FC 1
 62
   179
420
  2234388
370
     9
100
AcDbVertex
100
AcDb2dVertex
 10
96.54673809244306
 20
-106.8315533066255
 30
0.0
  0
SEQEND
  5
60
330
5D
100
AcDbEntity
  8
_U+30EC_U+30A4_U+30E4_U+30FC 1
 62
   179
420
  2234388
370
     9
  0
POLYLINE
  5
61
330
41
100
AcDbEntity
  8
_U+30EC_U+30A4_U+30E4_U+30FC 1
 62
   179
420
  2234388
370
     9
100
AcDb2dPolyline
 66
     1
 10
0.0
 20
0.0
 30
0.0
  0
VERTEX
  5
62
330
61
100
AcDbEntity
  8
_U+30EC_U+30A4_U+30E4_U+30FC 1
 62
   179
420
  2234388
370
     9
100
AcDbVertex
100
AcDb2dVertex
 10
99.68522551237358
 20
-148.032293574103
 30
0.0
  0
VERTEX
  5
63
330
61
100
AcDbEntity
  8
_U+30EC_U+30A4_U+30E4_U+30FC 1
 62
   179
420
  2234388
370
     9
100
AcDbVertex
100
AcDb2dVertex
 10
102.1450037829527
 20
-148.032293574103
 30
0.0
  0
SEQEND
  5
64
330
61
100
AcDbEntity
  8
_U+30EC_U+30A4_U+30E4_U+30FC 1
 62
   179
420
  2234388
370
     9
  0
POLYLINE
  5
65
330
41
100
AcDbEntity
  8
_U+30EC_U+30A4_U+30E4_U+30FC 1
 62
   179
420
  2234388
370
     9
100
AcDb2dPolyline
 66
     1
 10
0.0
 20
0.0
 30
0.0
  0
VERTEX
  5
66
330
65
100
AcDbEntity
  8
_U+30EC_U+30A4_U+30E4_U+30FC 1
 62
   179
420
  2234388
370
     9
100
AcDbVertex
100
AcDb2dVertex
 10
83.5458189796797
 20
-136.8315991324587
 30
0.0
  0
VERTEX
  5
67
330
65
100
AcDbEntity
  8
_U+30EC_U+30A4_U+30E4_U+30FC 1
 62
   179
420
  2234388
370
     9
100
AcDbVertex
100
AcDb2dVertex
 10
83.5458189796797
 20
-148.8315821850143
 30
0.0
  0
SEQEND
  5
68
330
65
100
AcDbEntity
  8
_U+30EC_U+30A4_U+30E4_U+30FC 1
 62
   179
420
  2234388
370
     9
  0
POLYLINE
  5
69
330
41
100
AcDbEntity
  8
_U+30EC_U+30A4_U+30E4_U+30FC 1
 62
   179
420
  2234388
370
     9
100
AcDb2dPolyline
 66
     1
 10
0.0
 20
0.0
 30
0.0
  0
VERTEX
  5
6A
330
69
100
AcDbEntity
  8
_U+30EC_U+30A4_U+30E4_U+30FC 1
 62
   179
420
  2234388
370
     9
100
AcDbVertex
100
AcDb2dVertex
 10
85.00582505354295
 20
-136.8315991324587
 30
0.0
  0
VERTEX
  5
6B
330
69
100
AcDbEntity
  8
_U+30EC_U+30A4_U+30E4_U+30FC 1
 62
   179
420
  2234388
370
     9
100
AcDbVertex
100
AcDb2dVertex
 10
82.54569400519502
 20
-136.8315991324587
 30
0.0
  0
SEQEND
  5
6C
330
69
100
AcDbEntity
  8
_U+30EC_U+30A4_U+30E4_U+30FC 1
 62
   179
420
  2234388
370
     9
  0
POLYLINE
  5
6D
330
41
100
AcDbEntity
  8
_U+30EC_U+30A4_U+30E4_U+30FC 1
 62
   179
420
  2234388
370
     9
100
AcDb2dPolyline
 66
     1
 10
0.0
 20
0.0
 30
0.0
  0
VERTEX
  5
6E
330
6D
100
AcDbEntity
  8
_U+30EC_U+30A4_U+30E4_U+30FC 1
 62
   179
420
  2234388
370
     9
100
AcDbVertex
100
AcDb2dVertex
 10
85.00582505354295
 20
-148.8315821850143
 30
0.0
  0
VERTEX
  5
6F
330
6D
100
AcDbEntity
  8
_U+30EC_U+30A4_U+30E4_U+30FC 1
 62
   179
420
  2234388
370
     9
100
AcDbVertex
100
AcDb2dVertex
 10
82.54569400519502
 20
-148.8315821850143
 30
0.0
  0
SEQEND
  5
70
330
6D
100
AcDbEntity
  8
_U+30EC_U+30A4_U+30E4_U+30FC 1
 62
   179
420
  2234388
370
     9
  0
POLYLINE
  5
71
330
41
100
AcDbEntity
  8
_U+30EC_U+30A4_U+30E4_U+30FC 1
 62
   179
420
  2234388
370
     9
100
AcDb2dPolyline
 66
     1
 10
0.0
 20
0.0
 30
0.0
  0
VERTEX
  5
72
330
71
100
AcDbEntity
  8
_U+30EC_U+30A4_U+30E4_U+30FC 1
 62
   179
420
  2234388
370
     9
100
AcDbVertex
100
AcDb2dVertex
 10
97.34532112762507
 20
-152.8313413506812
 30
0.0
  0
VERTEX
  5
73
330
71
100
AcDbEntity
  8
_U+30EC_U+30A4_U+30E4_U+30FC 1
 62
   179
420
  2234388
370
     9
100
AcDbVertex
100
AcDb2dVertex
 10
87.54554276652713
 20
-152.8313413506812
 30
0.0
  0
SEQEND
  5
74
330
71
100
AcDbEntity
  8
_U+30EC_U+30A4_U+30E4_U+30FC 1
 62
   179
420
  2234388
370
     9
  0
POLYLINE
  5
75
330
41
100
AcDbEntity
  8
_U+30EC_U+30A4_U+30E4_U+30FC 1
 62
   179
420
  2234388
370
     9
100
AcDb2dPolyline
 66
     1
 10
0.0
 20
0.0
 30
0.0
  0
VERTEX
  5
76
330
75
100
AcDbEntity
  8
_U+30EC_U+30A4_U+30E4_U+30FC 1
 62
   179
420
  2234388
370
     9
100
AcDbVertex
100
AcDb2dVertex
 10
97.34532112762507
 20
-151.3712999621575
 30
0.0
  0
VERTEX
  5
77
330
75
100
AcDbEntity
  8
_U+30EC_U+30A4_U+30E4_U+30FC 1
 62
   179
420
  2234388
370
     9
100
AcDbVertex
100
AcDb2dVertex
 10
97.34532112762507
 20
-153.8310782948755
 30
0.0
  0
SEQEND
  5
78
330
75
100
AcDbEntity
  8
_U+30EC_U+30A4_U+30E4_U+30FC 1
 62
   179
420
  2234388
370
     9
  0
POLYLINE
  5
79
330
41
100
AcDbEntity
  8
_U+30EC_U+30A4_U+30E4_U+30FC 1
 62
   179
420
  2234388
370
     9
100
AcDb2dPolyline
 66
     1
 10
0.0
 20
0.0
 30
0.0
  0
VERTEX
  5
7A
330
79
100
AcDbEntity
  8
_U+30EC_U+30A4_U+30E4_U+30FC 1
 62
   179
420
  2234388
370
     9
100
AcDbVertex
100
AcDb2dVertex
 10
87.54554276652713
 20
-151.3712999621575
 30
0.0
  0
VERTEX
  5
7B
330
79
100
AcDbEntity
  8
_U+30EC_U+30A4_U+30E4_U+30FC 1
 62
   179
420
  2234388
370
     9
100
AcDbVertex
100
AcDb2dVertex
 10
87.54554276652713
 20
-153.8310782948755
 30
0.0
  0
SEQEND
  5
7C
330
79
100
AcDbEntity
  8
_U+30EC_U+30A4_U+30E4_U+30FC 1
 62
   179
420
  2234388
370
     9
  0
POLYLINE
  5
7D
330
41
100
AcDbEntity
  8
_U+30EC_U+30A4_U+30E4_U+30FC 1
 62
   179
420
  2234388
370
     9
100
AcDb2dPolyline
 66
     1
 10
0.0
 20
0.0
 30
0.0
  0
VERTEX
  5
7E
330
7D
100
AcDbEntity
  8
_U+30EC_U+30A4_U+30E4_U+30FC 1
 62
   179
420
  2234388
370
     9
100
AcDbVertex
100
AcDb2dVertex
 10
87.54554276652713
 20
-132.83187524457
 30
0.0
  0
VERTEX
  5
7F
330
7D
100
AcDbEntity
  8
_U+30EC_U+30A4_U+30E4_U+30FC 1
 62
   179
420
  2234388
370
     9
100
AcDbVertex
100
AcDb2dVertex
 10
96.54536225914482
 20
-132.83187524457
 30
0.0
  0
SEQEND
  5
80
330
7D
100
AcDbEntity
  8
_U+30EC_U+30A4_U+30E4_U+30FC 1
 62
   179
420
  2234388
370
     9
  0
POLYLINE
  5
81
330
41
100
AcDbEntity
  8
_U+30EC_U+30A4_U+30E4_U+30FC 1
 62
   179
420
  2234388
370
     9
100
AcDb2dPolyline
 66
     1
 10
0.0
 20
0.0
 30
0.0
  0
VERTEX
  5
82
330
81
100
AcDbEntity
  8
_U+30EC_U+30A4_U+30E4_U+30FC 1
 62
   179
420
  2234388
370
     9
100
AcDbVertex
100
AcDb2dVertex
 10
87.54554276652713
 20
-134.2918813553162
 30
0.0
  0
VERTEX
  5
83
330
81
100
AcDbEntity
  8
_U+30EC_U+30A4_U+30E4_U+30FC 1
 62
   179
420
  2234388
370
     9
100
AcDbVertex
100
AcDb2dVertex
 10
87.54554276652713
 20
-131.8313974670419
 30
0.0
  0
SEQEND
  5
84
330
81
100
AcDbEntity
  8
_U+30EC_U+30A4_U+30E4_U+30FC 1
 62
   179
420
  2234388
370
     9
  0
POLYLINE
  5
85
330
41
100
AcDbEntity
  8
_U+30EC_U+30A4_U+30E4_U+30FC 1
 62
   179
420
  2234388
370
     9
100
AcDb2dPolyline
 66
     1
 10
0.0
 20
0.0
 30
0.0
  0
VERTEX
  5
86
330
85
100
AcDbEntity
  8
_U+30EC_U+30A4_U+30E4_U+30FC 1
 62
   179
420
  2234388
370
     9
100
AcDbVertex
100
AcDb2dVertex
 10
101.1452315862368
 20
-137.6315580211474
 30
0.0
  0
VERTEX
  5
87
330
85
100
AcDbEntity
  8
_U+30EC_U+30A4_U+30E4_U+30FC 1
 62
   179
420
  2234388
370
     9
100
AcDbVertex
100
AcDb2dVertex
 10
101.1452315862368
 20
-148.032293574103
 30
0.0
  0
SEQEND
  5
88
330
85
100
AcDbEntity
  8
_U+30EC_U+30A4_U+30E4_U+30FC 1
 62
   179
420
  2234388
370
     9
  0
POLYLINE
  5
89
330
41
100
AcDbEntity
  8
_U+30EC_U+30A4_U+30E4_U+30FC 1
 62
   179
420
  2234388
370
     9
100
AcDb2dPolyline
 66
     1
 10
0.0
 20
0.0
 30
0.0
  0
VERTEX
  5
8A
330
89
100
AcDbEntity
  8
_U+30EC_U+30A4_U+30E4_U+30FC 1
 62
   179
420
  2234388
370
     9
100
AcDbVertex
100
AcDb2dVertex
 10
99.88503884060925
 20
-137.6315580211474
 30
0.0
  0
VERTEX
  5
8B
330
89
100
AcDbEntity
  8
_U+30EC_U+30A4_U+30E4_U+30FC 1
 62
   179
420
  2234388
370
     9
100
AcDbVertex
100
AcDb2dVertex
 10
102.1450037829527
 20
-137.6315580211474
 30
0.0
  0
SEQEND
  5
8C
330
89
100
AcDbEntity
  8
_U+30EC_U+30A4_U+30E4_U+30FC 1
 62
   179
420
  2234388
370
     9
  0
POLYLINE
  5
8D
330
41
100
AcDbEntity
  8
_U+30EC_U+30A4_U+30E4_U+30FC 1
 62
   179
420
  2234388
370
     9
100
AcDb2dPolyline
 66
     1
 10
0.0
 20
0.0
 30
0.0
  0
VERTEX
  5
8E
330
8D
100
AcDbEntity
  8
_U+30EC_U+30A4_U+30E4_U+30FC 1
 62
   179
420
  2234388
370
     9
100
AcDbVertex
100
AcDb2dVertex
 10
101.1452315862368
 20
-137.6315580211474
 30
0.0
  0
VERTEX
  5
8F
330
8D
100
AcDbEntity
  8
_U+30EC_U+30A4_U+30E4_U+30FC 1
 62
   179
420
  2234388
370
     9
100
AcDbVertex
100
AcDb2dVertex
 10
101.1452315862368
 20
-111.8317549720419
 30
0.0
  0
SEQEND
  5
90
330
8D
100
AcDbEntity
  8
_U+30EC_U+30A4_U+30E4_U+30FC 1
 62
   179
420
  2234388
370
     9
  0
POLYLINE
  5
91
330
41
100
AcDbEntity
  8
_U+30EC_U+30A4_U+30E4_U+30FC 1
 62
   179
420
  2234388
370
     9
100
AcDb2dPolyline
 66
     1
 10
0.0
 20
0.0
 30
0.0
  0
VERTEX
  5
92
330
91
100
AcDbEntity
  8
_U+30EC_U+30A4_U+30E4_U+30FC 1
 62
   179
420
  2234388
370
     9
100
AcDbVertex
100
AcDb2dVertex
 10
99.88503884060925
 20
-111.8317549720419
 30
0.0
  0
VERTEX
  5
93
330
91
100
AcDbEntity
  8
_U+30EC_U+30A4_U+30E4_U+30FC 1
 62
   179
420
  2234388
370
     9
100
AcDbVertex
100
AcDb2dVertex
 10
102.1450037829527
 20
-111.8317549720419
 30
0.0
  0
SEQEND
  5
94
330
91
100
AcDbEntity
  8
_U+30EC_U+30A4_U+30E4_U+30FC 1
 62
   179
420
  2234388
370
     9
  0
INSERT
  5
96
330
41
100
AcDbEntity
  8
_U+30EC_U+30A4_U+30E4_U+30FC 1
100
AcDbBlockReference
  2
block 3
 10
0.0
 20
0.0
 30
0.0
  0
INSERT
  5
A9
330
41
100
AcDbEntity
  8
_U+30EC_U+30A4_U+30E4_U+30FC 1
100
AcDbBlockReference
  2
block 4
 10
0.0
 20
0.0
 30
0.0
  0
INSERT
  5
B1
330
41
100
AcDbEntity
  8
_U+30EC_U+30A4_U+30E4_U+30FC 1
100
AcDbBlockReference
  2
block 5
 10
0.0
 20
0.0
 30
0.0
  0
INSERT
  5
C4
330
41
100
AcDbEntity
  8
_U+30EC_U+30A4_U+30E4_U+30FC 1
100
AcDbBlockReference
  2
block 6
 10
0.0
 20
0.0
 30
0.0
  0
INSERT
  5
CB
330
41
100
AcDbEntity
  8
_U+30EC_U+30A4_U+30E4_U+30FC 1
100
AcDbBlockReference
  2
block 7
 10
0.0
 20
0.0
 30
0.0
  0
INSERT
  5
F1
330
41
100
AcDbEntity
  8
_U+30EC_U+30A4_U+30E4_U+30FC 1
100
AcDbBlockReference
  2
block 8
 10
0.0
 20
0.0
 30
0.0
  0
POLYLINE
  5
104
330
41
100
AcDbEntity
  8
_U+30EC_U+30A4_U+30E4_U+30FC 1
 62
   179
420
  2234388
370
    25
100
AcDb2dPolyline
 66
     1
 10
0.0
 20
0.0
 30
0.0
  0
VERTEX
  5
105
330
104
100
AcDbEntity
  8
_U+30EC_U+30A4_U+30E4_U+30FC 1
 62
   179
420
  2234388
370
    25
100
AcDbVertex
100
AcDb2dVertex
 10
87.54571915541152
 20
-147.4969532964591
 30
0.0
  0
VERTEX
  5
106
330
104
100
AcDbEntity
  8
_U+30EC_U+30A4_U+30E4_U+30FC 1
 62
   179
420
  2234388
370
    25
100
AcDbVertex
100
AcDb2dVertex
 10
87.54571915541152
 20
-138.1317969099117
 30
0.0
  0
SEQEND
  5
107
330
104
100
AcDbEntity
  8
_U+30EC_U+30A4_U+30E4_U+30FC 1
 62
   179
420
  2234388
370
    25
  0
POLYLINE
  5
108
330
41
100
AcDbEntity
  8
_U+30EC_U+30A4_U+30E4_U+30FC 1
 62
   179
420
  2234388
370
    25
100
AcDb2dPolyline
 66
     1
 10
0.0
 20
0.0
 30
0.0
  0
VERTEX
  5
109
330
108
100
AcDbEntity
  8
_U+30EC_U+30A4_U+30E4_U+30FC 1
 62
   179
420
  2234388
370
    25
100
AcDbVertex
100
AcDb2dVertex
 10
97.3466969609233
 20
-136.3913324659023
 30
0.0
  0
VERTEX
  5
10A
330
108
100
AcDbEntity
  8
_U+30EC_U+30A4_U+30E4_U+30FC 1
 62
   179
420
  2234388
370
    25
100
AcDbVertex
100
AcDb2dVertex
 10
97.3466969609233
 20
-111.8317549720419
 30
0.0
  0
SEQEND
  5
10B
330
108
100
AcDbEntity
  8
_U+30EC_U+30A4_U+30E4_U+30FC 1
 62
   179
420
  2234388
370
    25
  0
POLYLINE
  5
10C
330
41
100
AcDbEntity
  8
_U+30EC_U+30A4_U+30E4_U+30FC 1
 62
   179
420
  2234388
370
    25
100
AcDb2dPolyline
 66
     1
 10
0.0
 20
0.0
 30
0.0
  0
VERTEX
  5
10D
330
10C
100
AcDbEntity
  8
_U+30EC_U+30A4_U+30E4_U+30FC 1
 62
   179
420
  2234388
370
    25
100
AcDbVertex
100
AcDb2dVertex
 10
96.54673809244306
 20
-136.3313955214725
 30
0.0
  0
VERTEX
  5
10E
330
10C
100
AcDbEntity
  8
_U+30EC_U+30A4_U+30E4_U+30FC 1
 62
   179
420
  2234388
370
    25
100
AcDbVertex
100
AcDb2dVertex
 10
96.54673809244306
 20
-111.8317549720419
 30
0.0
  0
SEQEND
  5
10F
330
10C
100
AcDbEntity
  8
_U+30EC_U+30A4_U+30E4_U+30FC 1
 62
   179
420
  2234388
370
    25
  0
POLYLINE
  5
110
330
41
100
AcDbEntity
  8
_U+30EC_U+30A4_U+30E4_U+30FC 1
 62
   179
420
  2234388
370
    25
100
AcDb2dPolyline
 66
     1
 10
0.0
 20
0.0
 30
0.0
  0
VERTEX
  5
111
330
110
100
AcDbEntity
  8
_U+30EC_U+30A4_U+30E4_U+30FC 1
 62
   179
420
  2234388
370
    25
100
AcDbVertex
100
AcDb2dVertex
 10
97.3466969609233
 20
-148.7971157961339
 30
0.0
  0
VERTEX
  5
112
330
110
100
AcDbEntity
  8
_U+30EC_U+30A4_U+30E4_U+30FC 1
 62
   179
420
  2234388
370
    25
100
AcDbVertex
100
AcDb2dVertex
 10
97.3466969609233
 20
-147.9971569074453
 30
0.0
  0
SEQEND
  5
113
330
110
100
AcDbEntity
  8
_U+30EC_U+30A4_U+30E4_U+30FC 1
 62
   179
420
  2234388
370
    25
  0
POLYLINE
  5
114
330
41
100
AcDbEntity
  8
_U+30EC_U+30A4_U+30E4_U+30FC 1
 62
   179
420
  2234388
370
    25
100
AcDb2dPolyline
 66
     1
 10
0.0
 20
0.0
 30
0.0
  0
VERTEX
  5
115
330
114
100
AcDbEntity
  8
_U+30EC_U+30A4_U+30E4_U+30FC 1
 62
   179
420
  2234388
370
    25
100
AcDbVertex
100
AcDb2dVertex
 10
88.84556412224971
 20
-148.7971157961339
 30
0.0
  0
VERTEX
  5
116
330
114
100
AcDbEntity
  8
_U+30EC_U+30A4_U+30E4_U+30FC 1
 62
   179
420
  2234388
370
    25
100
AcDbVertex
100
AcDb2dVertex
 10
97.3466969609233
 20
-148.7971157961339
 30
0.0
  0
SEQEND
  5
117
330
114
100
AcDbEntity
  8
_U+30EC_U+30A4_U+30E4_U+30FC 1
 62
   179
420
  2234388
370
    25
  0
POLYLINE
  5
118
330
41
100
AcDbEntity
  8
_U+30EC_U+30A4_U+30E4_U+30FC 1
 62
   179
420
  2234388
370
    25
100
AcDb2dPolyline
 66
     1
 10
0.0
 20
0.0
 30
0.0
  0
VERTEX
  5
119
330
118
100
AcDbEntity
  8
_U+30EC_U+30A4_U+30E4_U+30FC 1
 62
   179
420
  2234388
370
    25
100
AcDbVertex
100
AcDb2dVertex
 10
88.84556412224971
 20
-136.8315991324587
 30
0.0
  0
VERTEX
  5
11A
330
118
100
AcDbEntity
  8
_U+30EC_U+30A4_U+30E4_U+30FC 1
 62
   179
420
  2234388
370
    25
100
AcDbVertex
100
AcDb2dVertex
 10
96.04720477185388
 20
-136.8315991324587
 30
0.0
  0
SEQEND
  5
11B
330
118
100
AcDbEntity
  8
_U+30EC_U+30A4_U+30E4_U+30FC 1
 62
   179
420
  2234388
370
    25
  0
POLYLINE
  5
11C
330
41
100
AcDbEntity
  8
_U+30EC_U+30A4_U+30E4_U+30FC 1
 62
   179
420
  2234388
370
    25
100
AcDb2dPolyline
 66
     1
 10
0.0
 20
0.0
 30
0.0
  0
VERTEX
  5
11D
330
11C
100
AcDbEntity
  8
_U+30EC_U+30A4_U+30E4_U+30FC 1
 62
   179
420
  2234388
370
    25
100
AcDbVertex
100
AcDb2dVertex
 10
96.54673809244306
 20
-111.8317549720419
 30
0.0
  0
VERTEX
  5
11E
330
11C
100
AcDbEntity
  8
_U+30EC_U+30A4_U+30E4_U+30FC 1
 62
   179
420
  2234388
370
    25
100
AcDbVertex
100
AcDb2dVertex
 10
97.3466969609233
 20
-111.8317549720419
 30
0.0
  0
SEQEND
  5
11F
330
11C
100
AcDbEntity
  8
_U+30EC_U+30A4_U+30E4_U+30FC 1
 62
   179
420
  2234388
370
    25
  0
POLYLINE
  5
120
330
41
100
AcDbEntity
  8
_U+30EC_U+30A4_U+30E4_U+30FC 1
 62
   179
420
  2234388
370
    25
100
AcDb2dPolyline
 66
     1
 10
0.0
 20
0.0
 30
0.0
  0
VERTEX
  5
121
330
120
100
AcDbEntity
  8
_U+30EC_U+30A4_U+30E4_U+30FC 1
 62
   179
420
  2234388
370
    25
100
AcDbVertex
100
AcDb2dVertex
 10
88.84556412224971
 20
-137.6315580211474
 30
0.0
  0
VERTEX
  5
122
330
120
100
AcDbEntity
  8
_U+30EC_U+30A4_U+30E4_U+30FC 1
 62
   179
420
  2234388
370
    25
100
AcDbVertex
100
AcDb2dVertex
 10
96.04720477185388
 20
-137.6315580211474
 30
0.0
  0
SEQEND
  5
123
330
120
100
AcDbEntity
  8
_U+30EC_U+30A4_U+30E4_U+30FC 1
 62
   179
420
  2234388
370
    25
  0
POLYLINE
  5
124
330
41
100
AcDbEntity
  8
_U+30EC_U+30A4_U+30E4_U+30FC 1
 62
   179
420
  2234388
370
    25
100
AcDb2dPolyline
 66
     1
 10
0.0
 20
0.0
 30
0.0
  0
VERTEX
  5
125
330
124
100
AcDbEntity
  8
_U+30EC_U+30A4_U+30E4_U+30FC 1
 62
   179
420
  2234388
370
    25
100
AcDbVertex
100
AcDb2dVertex
 10
88.34567802389176
 20
-147.4969532964591
 30
0.0
  0
VERTEX
  5
126
330
124
100
AcDbEntity
  8
_U+30EC_U+30A4_U+30E4_U+30FC 1
 62
   179
420
  2234388
370
    25
100
AcDbVertex
100
AcDb2dVertex
 10
88.34567802389176
 20
-138.1317969099117
 30
0.0
  0
SEQEND
  5
127
330
124
100
AcDbEntity
  8
_U+30EC_U+30A4_U+30E4_U+30FC 1
 62
   179
420
  2234388
370
    25
  0
POLYLINE
  5
128
330
41
100
AcDbEntity
  8
_U+30EC_U+30A4_U+30E4_U+30FC 1
 62
   179
420
  2234388
370
    25
100
AcDb2dPolyline
 66
     1
 10
0.0
 20
0.0
 30
0.0
  0
VERTEX
  5
129
330
128
100
AcDbEntity
  8
_U+30EC_U+30A4_U+30E4_U+30FC 1
 62
   179
420
  2234388
370
    25
100
AcDbVertex
100
AcDb2dVertex
 10
88.84556412224971
 20
-147.9971569074453
 30
0.0
  0
VERTEX
  5
12A
330
128
100
AcDbEntity
  8
_U+30EC_U+30A4_U+30E4_U+30FC 1
 62
   179
420
  2234388
370
    25
100
AcDbVertex
100
AcDb2dVertex
 10
97.3466969609233
 20
-147.9971569074453
 30
0.0
  0
SEQEND
  5
12B
330
128
100
AcDbEntity
  8
_U+30EC_U+30A4_U+30E4_U+30FC 1
 62
   179
420
  2234388
370
    25
  0
SPLINE
  5
12C
330
41
100
AcDbEntity
  8
_U+30EC_U+30A4_U+30E4_U+30FC 1
 62
   179
420
  2234388
370
    25
100
AcDbSpline
210
0.0
220
0.0
230
1.0
 70
     8
 71
     3
 72
     8
 73
     4
 74
     0
 42
0.0000000001
 43
0.0000000001
 12
1.0
 22
0.0
 32
0.0
 13
1.0
 23
0.0
 33
0.0
 40
0.0
 40
0.0
 40
0.0
 40
0.0
 40
1.0
 40
1.0
 40
1.0
 40
1.0
 10
88.34567802389176
 20
-147.4969532964591
 30
0.0
 10
88.34567802389176
 20
-147.7732488519455
 30
0.0
 10
88.56962135151183
 20
-147.9971569074453
 30
0.0
 10
88.84556412224971
 20
-147.9971569074453
 30
0.0
  0
SPLINE
  5
12D
330
41
100
AcDbEntity
  8
_U+30EC_U+30A4_U+30E4_U+30FC 1
 62
   179
420
  2234388
370
    25
100
AcDbSpline
210
0.0
220
0.0
230
1.0
 70
     8
 71
     3
 72
     8
 73
     4
 74
     0
 42
0.0000000001
 43
0.0000000001
 12
1.0
 22
0.0
 32
0.0
 13
1.0
 23
0.0
 33
0.0
 40
0.0
 40
0.0
 40
0.0
 40
0.0
 40
1.0
 40
1.0
 40
1.0
 40
1.0
 10
88.84556412224971
 20
-137.6315580211474
 30
0.0
 10
88.56962135151183
 20
-137.6315580211474
 30
0.0
 10
88.34567802389176
 20
-137.8555013544253
 30
0.0
 10
88.34567802389176
 20
-138.1317969099117
 30
0.0
  0
SPLINE
  5
12E
330
41
100
AcDbEntity
  8
_U+30EC_U+30A4_U+30E4_U+30FC 1
 62
   179
420
  2234388
370
    25
100
AcDbSpline
210
0.0
220
0.0
230
1.0
 70
     8
 71
     3
 72
     8
 73
     4
 74
     0
 42
0.0000000001
 43
0.0000000001
 12
1.0
 22
0.0
 32
0.0
 13
1.0
 23
0.0
 33
0.0
 40
0.0
 40
0.0
 40
0.0
 40
0.0
 40
1.0
 40
1.0
 40
1.0
 40
1.0
 10
88.84556412224971
 20
-136.8315991324587
 30
0.0
 10
88.1275908072334
 20
-136.8315991324587
 30
0.0
 10
87.54571915541152
 20
-137.4138235767578
 30
0.0
 10
87.54571915541152
 20
-138.1317969099117
 30
0.0
  0
SPLINE
  5
12F
330
41
100
AcDbEntity
  8
_U+30EC_U+30A4_U+30E4_U+30FC 1
 62
   179
420
  2234388
370
    25
100
AcDbSpline
210
0.0
220
0.0
230
1.0
 70
     8
 71
     3
 72
     8
 73
     4
 74
     0
 42
0.0000000001
 43
0.0000000001
 12
1.0
 22
0.0
 32
0.0
 13
1.0
 23
0.0
 33
0.0
 40
0.0
 40
0.0
 40
0.0
 40
0.0
 40
1.0
 40
1.0
 40
1.0
 40
1.0
 10
96.04720477185388
 20
-136.8315991324587
 30
0.0
 10
96.32279719814126
 20
-136.8315991324587
 30
0.0
 10
96.54673809244306
 20
-136.607691076959
 30
0.0
 10
96.54673809244306
 20
-136.3313955214725
 30
0.0
  0
SPLINE
  5
130
330
41
100
AcDbEntity
  8
_U+30EC_U+30A4_U+30E4_U+30FC 1
 62
   179
420
  2234388
370
    25
100
AcDbSpline
210
0.0
220
0.0
230
1.0
 70
     8
 71
     3
 72
     8
 73
     4
 74
     0
 42
0.0000000001
 43
0.0000000001
 12
1.0
 22
0.0
 32
0.0
 13
1.0
 23
0.0
 33
0.0
 40
0.0
 40
0.0
 40
0.0
 40
0.0
 40
1.0
 40
1.0
 40
1.0
 40
1.0
 10
96.04720477185388
 20
-137.6315580211474
 30
0.0
 10
96.76514280909332
 20
-137.6315580211474
 30
0.0
 10
97.3466969609233
 20
-137.049333576849
 30
0.0
 10
97.3466969609233
 20
-136.3313955214725
 30
0.0
  0
SPLINE
  5
131
330
41
100
AcDbEntity
  8
_U+30EC_U+30A4_U+30E4_U+30FC 1
 62
   179
420
  2234388
370
    25
100
AcDbSpline
210
0.0
220
0.0
230
1.0
 70
     8
 71
     3
 72
     8
 73
     4
 74
     0
 42
0.0000000001
 43
0.0000000001
 12
1.0
 22
0.0
 32
0.0
 13
1.0
 23
0.0
 33
0.0
 40
0.0
 40
0.0
 40
0.0
 40
0.0
 40
1.0
 40
1.0
 40
1.0
 40
1.0
 10
87.54571915541152
 20
-147.4969532964591
 30
0.0
 10
87.54571915541152
 20
-148.2148913518349
 30
0.0
 10
88.1275908072334
 20
-148.7971157961339
 30
0.0
 10
88.84556412224971
 20
-148.7971157961339
 30
0.0
  0
ENDBLK
  5
44
330
41
100
AcDbEntity
  8
0
100
AcDbBlockEnd
  0
BLOCK
  5
97
330
95
100
AcDbEntity
  8
0
100
AcDbBlockBegin
  2
block 3
 70
     0
 10
0.0
 20
0.0
 30
0.0
  3
block 3
  1

  0
SPLINE
  5
99
330
95
100
AcDbEntity
  8
_U+30EC_U+30A4_U+30E4_U+30FC 1
370
     0
100
AcDbSpline
210
0.0
220
0.0
230
1.0
 70
    11
 71
     3
 72
    29
 73
    25
 74
     0
 42
0.0000000001
 43
0.0000000001
 12
1.0
 22
0.0
 32
0.0
 13
1.0
 23
0.0
 33
0.0
 40
0.0
 40
0.0
 40
0.0
 40
0.0
 40
1.0
 40
1.0
 40
1.0
 40
2.0
 40
2.0
 40
2.0
 40
3.0
 40
3.0
 40
3.0
 40
4.0
 40
4.0
 40
4.0
 40
5.0
 40
5.0
 40
5.0
 40
6.0
 40
6.0
 40
6.0
 40
7.0
 40
7.0
 40
7.0
 40
8.0
 40
8.0
 40
8.0
 40
8.0
 10
96.53433157308865
 20
-106.0381442334731
 30
0.0
 10
96.43924693769574
 20
-106.2476060389763
 30
0.0
 10
96.28594018860213
 20
-106.2667263189194
 30
0.0
 10
96.18327634314169
 20
-106.2667263189194
 30
0.0
 10
96.04133840914939
 20
-106.2667263189194
 30
0.0
 10
95.91628144303482
 20
-106.2202175298686
 30
0.0
 10
95.83222111319472
 20
-106.0381442334731
 30
0.0
 10
95.74058157328709
 20
-105.8434963385565
 30
0.0
 10
95.72370060540936
 20
-105.6066460239456
 30
0.0
 10
95.72370060540936
 20
-105.4436930074933
 30
0.0
 10
95.72370060540936
 20
-105.2998602709841
 30
0.0
 10
95.73885902554446
 20
-105.0481960457866
 30
0.0
 10
95.83222111319472
 20
-104.8492417815134
 30
0.0
 10
95.92730574858763
 20
-104.6461534026579
 30
0.0
 10
96.06924368257991
 20
-104.6228990081325
 30
0.0
 10
96.18327634314169
 20
-104.6228990081325
 30
0.0
 10
96.32349172939135
 20
-104.6228990081325
 30
0.0
 10
96.45027124324855
 20
-104.6673407398922
 30
0.0
 10
96.53433157308865
 20
-104.8492417815134
 30
0.0
 10
96.62218150796251
 20
-105.0418226191389
 30
0.0
 10
96.64285208087401
 20
-105.2702324498109
 30
0.0
 10
96.64285208087401
 20
-105.4436930074933
 30
0.0
 10
96.64285208087401
 20
-105.6150865078844
 30
0.0
 10
96.62424856525367
 20
-105.8457356506219
 30
0.0
 10
96.53433157308865
 20
-106.0381442334731
 30
0.0
  0
SPLINE
  5
9A
330
95
100
AcDbEntity
  8
_U+30EC_U+30A4_U+30E4_U+30FC 1
370
     0
100
AcDbSpline
210
0.0
220
0.0
230
1.0
 70
    11
 71
     3
 72
    17
 73
    13
 74
     0
 42
0.0000000001
 43
0.0000000001
 12
1.0
 22
0.0
 32
0.0
 13
1.0
 23
0.0
 33
0.0
 40
0.0
 40
0.0
 40
0.0
 40
0.0
 40
1.0
 40
1.0
 40
1.0
 40
2.0
 40
2.0
 40
2.0
 40
3.0
 40
3.0
 40
3.0
 40
4.0
 40
4.0
 40
4.0
 40
4.0
 10
96.18327634314169
 20
-104.8154798457579
 30
0.0
 10
95.9627902320857
 20
-104.8154798457579
 30
0.0
 10
95.92179359581122
 20
-105.099011204194
 30
0.0
 10
95.92179359581122
 20
-105.4436930074933
 30
0.0
 10
95.92179359581122
 20
-105.7632256137502
 30
0.0
 10
95.95348847427552
 20
-106.0720784240028
 30
0.0
 10
96.18327634314169
 20
-106.0720784240028
 30
0.0
 10
96.40169539690652
 20
-106.0720784240028
 30
0.0
 10
96.44475909047215
 20
-105.7906141228579
 30
0.0
 10
96.44475909047215
 20
-105.4436930074933
 30
0.0
 10
96.44475909047215
 20
-105.1243326560106
 30
0.0
 10
96.41134166426522
 20
-104.8154798457579
 30
0.0
 10
96.18327634314169
 20
-104.8154798457579
 30
0.0
  0
HATCH
  5
9B
330
95
100
AcDbEntity
  8
_U+30EC_U+30A4_U+30E4_U+30FC 1
 62
   179
420
  2234388
100
AcDbHatch
 10
0.0
 20
0.0
 30
0.0
210
0.0
220
0.0
230
1.0
  2
SOLID
 70
     1
 71
     0
 91
        2
 92
        1
 93
        1
 72
     4
 94
        3
 73
     0
 74
     1
 95
       29
 96
       25
 40
0.0
 40
0.0
 40
0.0
 40
0.0
 40
1.0
 40
1.0
 40
1.0
 40
2.0
 40
2.0
 40
2.0
 40
3.0
 40
3.0
 40
3.0
 40
4.0
 40
4.0
 40
4.0
 40
5.0
 40
5.0
 40
5.0
 40
6.0
 40
6.0
 40
6.0
 40
7.0
 40
7.0
 40
7.0
 40
8.0
 40
8.0
 40
8.0
 40
8.0
 10
96.53433157308865
 20
-106.0381442334731
 10
96.43924693769574
 20
-106.2476060389763
 10
96.28594018860213
 20
-106.2667263189194
 10
96.18327634314169
 20
-106.2667263189194
 10
96.04133840914939
 20
-106.2667263189194
 10
95.91628144303482
 20
-106.2202175298686
 10
95.83222111319472
 20
-106.0381442334731
 10
95.74058157328709
 20
-105.8434963385565
 10
95.72370060540936
 20
-105.6066460239456
 10
95.72370060540936
 20
-105.4436930074933
 10
95.72370060540936
 20
-105.2998602709841
 10
95.73885902554446
 20
-105.0481960457866
 10
95.83222111319472
 20
-104.8492417815134
 10
95.92730574858763
 20
-104.6461534026579
 10
96.06924368257991
 20
-104.6228990081325
 10
96.18327634314169
 20
-104.6228990081325
 10
96.32349172939135
 20
-104.6228990081325
 10
96.45027124324855
 20
-104.6673407398922
 10
96.53433157308865
 20
-104.8492417815134
 10
96.62218150796251
 20
-105.0418226191389
 10
96.64285208087401
 20
-105.2702324498109
 10
96.64285208087401
 20
-105.4436930074933
 10
96.64285208087401
 20
-105.6150865078844
 10
96.62424856525367
 20
-105.8457356506219
 10
96.53433157308865
 20
-106.0381442334731
 97
        0
 97
        0
 92
        1
 93
        1
 72
     4
 94
        3
 73
     0
 74
     1
 95
       17
 96
       13
 40
0.0
 40
0.0
 40
0.0
 40
0.0
 40
1.0
 40
1.0
 40
1.0
 40
2.0
 40
2.0
 40
2.0
 40
3.0
 40
3.0
 40
3.0
 40
4.0
 40
4.0
 40
4.0
 40
4.0
 10
96.18327634314169
 20
-104.8154798457579
 10
95.9627902320857
 20
-104.8154798457579
 10
95.92179359581122
 20
-105.099011204194
 10
95.92179359581122
 20
-105.4436930074933
 10
95.92179359581122
 20
-105.7632256137502
 10
95.95348847427552
 20
-106.0720784240028
 10
96.18327634314169
 20
-106.0720784240028
 10
96.40169539690652
 20
-106.0720784240028
 10
96.44475909047215
 20
-105.7906141228579
 10
96.44475909047215
 20
-105.4436930074933
 10
96.44475909047215
 20
-105.1243326560106
 10
96.41134166426522
 20
-104.8154798457579
 10
96.18327634314169
 20
-104.8154798457579
 97
        0
 97
        0
 75
     2
 76
     1
 98
        0
  0
POLYLINE
  5
9C
330
95
100
AcDbEntity
  8
_U+30EC_U+30A4_U+30E4_U+30FC 1
370
     0
100
AcDb2dPolyline
 66
     1
 10
0.0
 20
0.0
 30
0.0
  0
VERTEX
  5
9D
330
9C
100
AcDbEntity
  8
_U+30EC_U+30A4_U+30E4_U+30FC 1
370
     0
100
AcDbVertex
100
AcDb2dVertex
 10
96.8343993898539
 20
-106.215911160512
 30
0.0
  0
VERTEX
  5
9E
330
9C
100
AcDbEntity
  8
_U+30EC_U+30A4_U+30E4_U+30FC 1
370
     0
100
AcDbVertex
100
AcDb2dVertex
 10
96.8343993898539
 20
-105.9642469353145
 30
0.0
  0
VERTEX
  5
9F
330
9C
100
AcDbEntity
  8
_U+30EC_U+30A4_U+30E4_U+30FC 1
370
     0
100
AcDbVertex
100
AcDb2dVertex
 10
97.05660804865252
 20
-105.9642469353145
 30
0.0
  0
VERTEX
  5
A0
330
9C
100
AcDbEntity
  8
_U+30EC_U+30A4_U+30E4_U+30FC 1
370
     0
100
AcDbVertex
100
AcDb2dVertex
 10
97.05660804865252
 20
-106.215911160512
 30
0.0
  0
VERTEX
  5
A1
330
9C
100
AcDbEntity
  8
_U+30EC_U+30A4_U+30E4_U+30FC 1
370
     0
100
AcDbVertex
100
AcDb2dVertex
 10
96.8343993898539
 20
-106.215911160512
 30
0.0
  0
SEQEND
  5
A2
330
9C
100
AcDbEntity
  8
_U+30EC_U+30A4_U+30E4_U+30FC 1
370
     0
  0
HATCH
  5
A3
330
95
100
AcDbEntity
  8
_U+30EC_U+30A4_U+30E4_U+30FC 1
 62
   179
420
  2234388
100
AcDbHatch
 10
0.0
 20
0.0
 30
0.0
210
0.0
220
0.0
230
1.0
  2
SOLID
 70
     1
 71
     0
 91
        1
 92
        1
 93
        4
 72
     1
 10
96.8343993898539
 20
-106.215911160512
 11
96.8343993898539
 21
-105.9642469353145
 72
     1
 10
96.8343993898539
 20
-105.9642469353145
 11
97.05660804865252
 21
-105.9642469353145
 72
     1
 10
97.05660804865252
 20
-105.9642469353145
 11
97.05660804865252
 21
-106.215911160512
 72
     1
 10
97.05660804865252
 20
-106.215911160512
 11
96.8343993898539
 21
-106.215911160512
 97
        0
 75
     2
 76
     1
 98
        0
  0
SPLINE
  5
A4
330
95
100
AcDbEntity
  8
_U+30EC_U+30A4_U+30E4_U+30FC 1
370
     0
100
AcDbSpline
210
0.0
220
0.0
230
1.0
 70
    11
 71
     3
 72
    29
 73
    25
 74
     0
 42
0.0000000001
 43
0.0000000001
 12
1.0
 22
0.0
 32
0.0
 13
1.0
 23
0.0
 33
0.0
 40
0.0
 40
0.0
 40
0.0
 40
0.0
 40
1.0
 40
1.0
 40
1.0
 40
2.0
 40
2.0
 40
2.0
 40
3.0
 40
3.0
 40
3.0
 40
4.0
 40
4.0
 40
4.0
 40
5.0
 40
5.0
 40
5.0
 40
6.0
 40
6.0
 40
6.0
 40
7.0
 40
7.0
 40
7.0
 40
8.0
 40
8.0
 40
8.0
 40
8.0
 10
97.70738658581621
 20
-106.2667263189194
 30
0.0
 10
97.47208656417365
 20
-106.2667263189194
 30
0.0
 10
97.24781084808389
 20
-106.1290947542837
 30
0.0
 10
97.24781084808389
 20
-105.7801065816279
 30
0.0
 10
97.24781084808389
 20
-105.5241359870738
 30
0.0
 10
97.37321232374698
 20
-105.4288790969067
 30
0.0
 10
97.46657441139725
 20
-105.3675563972692
 30
0.0
 10
97.35633135586926
 20
-105.3083007549229
 30
0.0
 10
97.28915199390688
 20
-105.1940958395869
 30
0.0
 10
97.28915199390688
 20
-105.0333821352
 30
0.0
 10
97.28915199390688
 20
-104.7582912607028
 30
0.0
 10
97.4645073541061
 20
-104.6228990081325
 30
0.0
 10
97.70738658581621
 20
-104.6228990081325
 30
0.0
 10
97.95784502759388
 20
-104.6228990081325
 30
0.0
 10
98.12596568727407
 20
-104.7667317446417
 30
0.0
 10
98.12596568727407
 20
-105.0333821352
 30
0.0
 10
98.12596568727407
 20
-105.1940958395869
 30
0.0
 10
98.05671926802054
 20
-105.3083007549229
 30
0.0
 10
97.94647621249256
 20
-105.3675563972692
 30
0.0
 10
98.02502438955625
 20
-105.4183715556767
 30
0.0
 10
98.16489526625739
 20
-105.5136284458438
 30
0.0
 10
98.16489526625739
 20
-105.7759724670456
 30
0.0
 10
98.16489526625739
 20
-106.150282091518
 30
0.0
 10
97.91857093906202
 20
-106.2667263189194
 30
0.0
 10
97.70738658581621
 20
-106.2667263189194
 30
0.0
  0
SPLINE
  5
A5
330
95
100
AcDbEntity
  8
_U+30EC_U+30A4_U+30E4_U+30FC 1
370
     0
100
AcDbSpline
210
0.0
220
0.0
230
1.0
 70
    11
 71
     3
 72
    17
 73
    13
 74
     0
 42
0.0000000001
 43
0.0000000001
 12
1.0
 22
0.0
 32
0.0
 13
1.0
 23
0.0
 33
0.0
 40
0.0
 40
0.0
 40
0.0
 40
0.0
 40
1.0
 40
1.0
 40
1.0
 40
2.0
 40
2.0
 40
2.0
 40
3.0
 40
3.0
 40
3.0
 40
4.0
 40
4.0
 40
4.0
 40
4.0
 10
97.70738658581621
 20
-105.4755601407318
 30
0.0
 10
97.5802625624105
 20
-105.4755601407318
 30
0.0
 10
97.44590383848575
 20
-105.5622042921858
 30
0.0
 10
97.44590383848575
 20
-105.7652926710413
 30
0.0
 10
97.44590383848575
 20
-105.9704481071879
 30
0.0
 10
97.55786944175637
 20
-106.0720784240028
 30
0.0
 10
97.70738658581621
 20
-106.0720784240028
 30
0.0
 10
97.87171764046263
 20
-106.0720784240028
 30
0.0
 10
97.96886933314667
 20
-105.9494330247279
 30
0.0
 10
97.96886933314667
 20
-105.771666097689
 30
0.0
 10
97.96886933314667
 20
-105.5494574388904
 30
0.0
 10
97.82520885141176
 20
-105.4755601407318
 30
0.0
 10
97.70738658581621
 20
-105.4755601407318
 30
0.0
  0
SPLINE
  5
A6
330
95
100
AcDbEntity
  8
_U+30EC_U+30A4_U+30E4_U+30FC 1
370
     0
100
AcDbSpline
210
0.0
220
0.0
230
1.0
 70
    11
 71
     3
 72
    17
 73
    13
 74
     0
 42
0.0000000001
 43
0.0000000001
 12
1.0
 22
0.0
 32
0.0
 13
1.0
 23
0.0
 33
0.0
 40
0.0
 40
0.0
 40
0.0
 40
0.0
 40
1.0
 40
1.0
 40
1.0
 40
2.0
 40
2.0
 40
2.0
 40
3.0
 40
3.0
 40
3.0
 40
4.0
 40
4.0
 40
4.0
 40
4.0
 10
97.70738658581621
 20
-104.8154798457579
 30
0.0
 10
97.56165904679014
 20
-104.8154798457579
 30
0.0
 10
97.48690047476022
 20
-104.9105644811508
 30
0.0
 10
97.48690047476022
 20
-105.0459567337212
 30
0.0
 10
97.48690047476022
 20
-105.1687743877703
 30
0.0
 10
97.55063474123735
 20
-105.2872856724629
 30
0.0
 10
97.70738658581621
 20
-105.2872856724629
 30
0.0
 10
97.86413843039509
 20
-105.2872856724629
 30
0.0
 10
97.9278726968722
 20
-105.1687743877703
 30
0.0
 10
97.9278726968722
 20
-105.0459567337212
 30
0.0
 10
97.9278726968722
 20
-104.9105644811508
 30
0.0
 10
97.85139157709966
 20
-104.8154798457579
 30
0.0
 10
97.70738658581621
 20
-104.8154798457579
 30
0.0
  0
HATCH
  5
A7
330
95
100
AcDbEntity
  8
_U+30EC_U+30A4_U+30E4_U+30FC 1
 62
   179
420
  2234388
100
AcDbHatch
 10
0.0
 20
0.0
 30
0.0
210
0.0
220
0.0
230
1.0
  2
SOLID
 70
     1
 71
     0
 91
        3
 92
        1
 93
        1
 72
     4
 94
        3
 73
     0
 74
     1
 95
       29
 96
       25
 40
0.0
 40
0.0
 40
0.0
 40
0.0
 40
1.0
 40
1.0
 40
1.0
 40
2.0
 40
2.0
 40
2.0
 40
3.0
 40
3.0
 40
3.0
 40
4.0
 40
4.0
 40
4.0
 40
5.0
 40
5.0
 40
5.0
 40
6.0
 40
6.0
 40
6.0
 40
7.0
 40
7.0
 40
7.0
 40
8.0
 40
8.0
 40
8.0
 40
8.0
 10
97.70738658581621
 20
-106.2667263189194
 10
97.47208656417365
 20
-106.2667263189194
 10
97.24781084808389
 20
-106.1290947542837
 10
97.24781084808389
 20
-105.7801065816279
 10
97.24781084808389
 20
-105.5241359870738
 10
97.37321232374698
 20
-105.4288790969067
 10
97.46657441139725
 20
-105.3675563972692
 10
97.35633135586926
 20
-105.3083007549229
 10
97.28915199390688
 20
-105.1940958395869
 10
97.28915199390688
 20
-105.0333821352
 10
97.28915199390688
 20
-104.7582912607028
 10
97.4645073541061
 20
-104.6228990081325
 10
97.70738658581621
 20
-104.6228990081325
 10
97.95784502759388
 20
-104.6228990081325
 10
98.12596568727407
 20
-104.7667317446417
 10
98.12596568727407
 20
-105.0333821352
 10
98.12596568727407
 20
-105.1940958395869
 10
98.05671926802054
 20
-105.3083007549229
 10
97.94647621249256
 20
-105.3675563972692
 10
98.02502438955625
 20
-105.4183715556767
 10
98.16489526625739
 20
-105.5136284458438
 10
98.16489526625739
 20
-105.7759724670456
 10
98.16489526625739
 20
-106.150282091518
 10
97.91857093906202
 20
-106.2667263189194
 10
97.70738658581621
 20
-106.2667263189194
 97
        0
 97
        0
 92
        1
 93
        1
 72
     4
 94
        3
 73
     0
 74
     1
 95
       17
 96
       13
 40
0.0
 40
0.0
 40
0.0
 40
0.0
 40
1.0
 40
1.0
 40
1.0
 40
2.0
 40
2.0
 40
2.0
 40
3.0
 40
3.0
 40
3.0
 40
4.0
 40
4.0
 40
4.0
 40
4.0
 10
97.70738658581621
 20
-105.4755601407318
 10
97.5802625624105
 20
-105.4755601407318
 10
97.44590383848575
 20
-105.5622042921858
 10
97.44590383848575
 20
-105.7652926710413
 10
97.44590383848575
 20
-105.9704481071879
 10
97.55786944175637
 20
-106.0720784240028
 10
97.70738658581621
 20
-106.0720784240028
 10
97.87171764046263
 20
-106.0720784240028
 10
97.96886933314667
 20
-105.9494330247279
 10
97.96886933314667
 20
-105.771666097689
 10
97.96886933314667
 20
-105.5494574388904
 10
97.82520885141176
 20
-105.4755601407318
 10
97.70738658581621
 20
-105.4755601407318
 97
        0
 97
        0
 92
        1
 93
        1
 72
     4
 94
        3
 73
     0
 74
     1
 95
       17
 96
       13
 40
0.0
 40
0.0
 40
0.0
 40
0.0
 40
1.0
 40
1.0
 40
1.0
 40
2.0
 40
2.0
 40
2.0
 40
3.0
 40
3.0
 40
3.0
 40
4.0
 40
4.0
 40
4.0
 40
4.0
 10
97.70738658581621
 20
-104.8154798457579
 10
97.56165904679014
 20
-104.8154798457579
 10
97.48690047476022
 20
-104.9105644811508
 10
97.48690047476022
 20
-105.0459567337212
 10
97.48690047476022
 20
-105.1687743877703
 10
97.55063474123735
 20
-105.2872856724629
 10
97.70738658581621
 20
-105.2872856724629
 10
97.86413843039509
 20
-105.2872856724629
 10
97.9278726968722
 20
-105.1687743877703
 10
97.9278726968722
 20
-105.0459567337212
 10
97.9278726968722
 20
-104.9105644811508
 10
97.85139157709966
 20
-104.8154798457579
 10
97.70738658581621
 20
-104.8154798457579
 97
        0
 97
        0
 75
     2
 76
     1
 98
        0
  0
ENDBLK
  5
98
330
95
100
AcDbEntity
  8
0
100
AcDbBlockEnd
  0
BLOCK
  5
AA
330
A8
100
AcDbEntity
  8
0
100
AcDbBlockBegin
  2
block 4
 70
     0
 10
0.0
 20
0.0
 30
0.0
  3
block 4
  1

  0
SPLINE
  5
AC
330
A8
100
AcDbEntity
  8
_U+30EC_U+30A4_U+30E4_U+30FC 1
370
     0
100
AcDbSpline
210
0.0
220
0.0
230
1.0
 70
    11
 71
     3
 72
    26
 73
    22
 74
     0
 42
0.0000000001
 43
0.0000000001
 12
1.0
 22
0.0
 32
0.0
 13
1.0
 23
0.0
 33
0.0
 40
0.0
 40
0.0
 40
0.0
 40
0.0
 40
1.0
 40
1.0
 40
1.0
 40
2.0
 40
2.0
 40
2.0
 40
3.0
 40
3.0
 40
3.0
 40
4.0
 40
4.0
 40
4.0
 40
5.0
 40
5.0
 40
5.0
 40
6.0
 40
6.0
 40
6.0
 40
7.0
 40
7.0
 40
7.0
 40
7.0
 10
82.89071992285372
 20
-143.3948648730054
 30
0.0
 10
82.89071992285372
 20
-143.3948648730054
 30
0.0
 10
81.78656681983114
 20
-143.3948648730054
 30
0.0
 10
81.78656681983114
 20
-143.3948648730054
 30
0.0
 10
81.78656681983114
 20
-143.3948648730054
 30
0.0
 10
81.78656681983114
 20
-143.6863199510576
 30
0.0
 10
81.78656681983114
 20
-143.6863199510576
 30
0.0
 10
81.78656681983114
 20
-143.6863199510576
 30
0.0
 10
81.6384277139654
 20
-143.6863199510576
 30
0.0
 10
81.6384277139654
 20
-143.6863199510576
 30
0.0
 10
81.62361380337882
 20
-143.3931423252628
 30
0.0
 10
81.46066078692651
 20
-143.3521456889884
 30
0.0
 10
81.34628361681621
 20
-143.3259629633005
 30
0.0
 10
81.34628361681621
 20
-143.3259629633005
 30
0.0
 10
81.34628361681621
 20
-143.1971163921521
 30
0.0
 10
81.34628361681621
 20
-143.1971163921521
 30
0.0
 10
81.34628361681621
 20
-143.1971163921521
 30
0.0
 10
82.89071992285372
 20
-143.1971163921521
 30
0.0
 10
82.89071992285372
 20
-143.1971163921521
 30
0.0
 10
82.89071992285372
 20
-143.1971163921521
 30
0.0
 10
82.89071992285372
 20
-143.3948648730054
 30
0.0
 10
82.89071992285372
 20
-143.3948648730054
 30
0.0
  0
HATCH
  5
AD
330
A8
100
AcDbEntity
  8
_U+30EC_U+30A4_U+30E4_U+30FC 1
 62
   179
420
  2234388
100
AcDbHatch
 10
0.0
 20
0.0
 30
0.0
210
0.0
220
0.0
230
1.0
  2
SOLID
 70
     1
 71
     0
 91
        1
 92
        1
 93
        1
 72
     4
 94
        3
 73
     0
 74
     1
 95
       26
 96
       22
 40
0.0
 40
0.0
 40
0.0
 40
0.0
 40
1.0
 40
1.0
 40
1.0
 40
2.0
 40
2.0
 40
2.0
 40
3.0
 40
3.0
 40
3.0
 40
4.0
 40
4.0
 40
4.0
 40
5.0
 40
5.0
 40
5.0
 40
6.0
 40
6.0
 40
6.0
 40
7.0
 40
7.0
 40
7.0
 40
7.0
 10
82.89071992285372
 20
-143.3948648730054
 10
82.89071992285372
 20
-143.3948648730054
 10
81.78656681983114
 20
-143.3948648730054
 10
81.78656681983114
 20
-143.3948648730054
 10
81.78656681983114
 20
-143.3948648730054
 10
81.78656681983114
 20
-143.6863199510576
 10
81.78656681983114
 20
-143.6863199510576
 10
81.78656681983114
 20
-143.6863199510576
 10
81.6384277139654
 20
-143.6863199510576
 10
81.6384277139654
 20
-143.6863199510576
 10
81.62361380337882
 20
-143.3931423252628
 10
81.46066078692651
 20
-143.3521456889884
 10
81.34628361681621
 20
-143.3259629633005
 10
81.34628361681621
 20
-143.3259629633005
 10
81.34628361681621
 20
-143.1971163921521
 10
81.34628361681621
 20
-143.1971163921521
 10
81.34628361681621
 20
-143.1971163921521
 10
82.89071992285372
 20
-143.1971163921521
 10
82.89071992285372
 20
-143.1971163921521
 10
82.89071992285372
 20
-143.1971163921521
 10
82.89071992285372
 20
-143.3948648730054
 10
82.89071992285372
 20
-143.3948648730054
 97
        0
 97
        0
 75
     2
 76
     1
 98
        0
  0
SPLINE
  5
AE
330
A8
100
AcDbEntity
  8
_U+30EC_U+30A4_U+30E4_U+30FC 1
370
     0
100
AcDbSpline
210
0.0
220
0.0
230
1.0
 70
    11
 71
     3
 72
    44
 73
    40
 74
     0
 42
0.0000000001
 43
0.0000000001
 12
1.0
 22
0.0
 32
0.0
 13
1.0
 23
0.0
 33
0.0
 40
0.0
 40
0.0
 40
0.0
 40
0.0
 40
1.0
 40
1.0
 40
1.0
 40
2.0
 40
2.0
 40
2.0
 40
3.0
 40
3.0
 40
3.0
 40
4.0
 40
4.0
 40
4.0
 40
5.0
 40
5.0
 40
5.0
 40
6.0
 40
6.0
 40
6.0
 40
7.0
 40
7.0
 40
7.0
 40
8.0
 40
8.0
 40
8.0
 40
9.0
 40
9.0
 40
9.0
 40
10.0
 40
10.0
 40
10.0
 40
11.0
 40
11.0
 40
11.0
 40
12.0
 40
12.0
 40
12.0
 40
13.0
 40
13.0
 40
13.0
 40
13.0
 10
82.30884329539502
 20
-142.2300780894425
 30
0.0
 10
82.46766219726503
 20
-142.4226589270679
 30
0.0
 10
82.5417317501979
 20
-142.5046521996169
 30
0.0
 10
82.68539223193282
 20
-142.5477158931825
 30
0.0
 10
82.68539223193282
 20
-142.5477158931825
 30
0.0
 10
82.68539223193282
 20
-141.8604193438752
 30
0.0
 10
82.68539223193282
 20
-141.8604193438752
 30
0.0
 10
82.68539223193282
 20
-141.8604193438752
 30
0.0
 10
82.89071992285372
 20
-141.8604193438752
 30
0.0
 10
82.89071992285372
 20
-141.8604193438752
 30
0.0
 10
82.89071992285372
 20
-141.8604193438752
 30
0.0
 10
82.89071992285372
 20
-142.7682020042385
 30
0.0
 10
82.89071992285372
 20
-142.7682020042385
 30
0.0
 10
82.53311901148479
 20
-142.7399522212595
 30
0.0
 10
82.4549153439696
 20
-142.6820746171073
 30
0.0
 10
82.15657007494697
 20
-142.3420436927131
 30
0.0
 10
81.95778806544806
 20
-142.1160454288807
 30
0.0
 10
81.88991968438863
 20
-142.0581678247285
 30
0.0
 10
81.75246037452716
 20
-142.0581678247285
 30
0.0
 10
81.63394908983457
 20
-142.0581678247285
 30
0.0
 10
81.50303546139507
 20
-142.1219020912056
 30
0.0
 10
81.50303546139507
 20
-142.2955349036622
 30
0.0
 10
81.50303546139507
 20
-142.5253227725284
 30
0.0
 10
81.73351234935829
 20
-142.5325574730474
 30
0.0
 10
81.84995657675974
 20
-142.5363470780812
 30
0.0
 10
81.84995657675974
 20
-142.5363470780812
 30
0.0
 10
81.84995657675974
 20
-142.7344400684831
 30
0.0
 10
81.84995657675974
 20
-142.7344400684831
 30
0.0
 10
81.72283255335402
 20
-142.7268608584155
 30
0.0
 10
81.61086695008339
 20
-142.7175591006053
 30
0.0
 10
81.4923556653908
 20
-142.6465901336092
 30
0.0
 10
81.33146970622964
 20
-142.5494384409251
 30
0.0
 10
81.29770777047419
 20
-142.3851073862787
 30
0.0
 10
81.29770777047419
 20
-142.2824435408183
 30
0.0
 10
81.29770777047419
 20
-142.0378417613655
 30
0.0
 10
81.48167586938654
 20
-141.8545626815502
 30
0.0
 10
81.75452743181832
 20
-141.8545626815502
 30
0.0
 10
81.98328177203891
 20
-141.8545626815502
 30
0.0
 10
82.0825005220141
 20
-141.9575710365592
 30
0.0
 10
82.30884329539502
 20
-142.2300780894425
 30
0.0
  0
HATCH
  5
AF
330
A8
100
AcDbEntity
  8
_U+30EC_U+30A4_U+30E4_U+30FC 1
 62
   179
420
  2234388
100
AcDbHatch
 10
0.0
 20
0.0
 30
0.0
210
0.0
220
0.0
230
1.0
  2
SOLID
 70
     1
 71
     0
 91
        1
 92
        1
 93
        1
 72
     4
 94
        3
 73
     0
 74
     1
 95
       44
 96
       40
 40
0.0
 40
0.0
 40
0.0
 40
0.0
 40
1.0
 40
1.0
 40
1.0
 40
2.0
 40
2.0
 40
2.0
 40
3.0
 40
3.0
 40
3.0
 40
4.0
 40
4.0
 40
4.0
 40
5.0
 40
5.0
 40
5.0
 40
6.0
 40
6.0
 40
6.0
 40
7.0
 40
7.0
 40
7.0
 40
8.0
 40
8.0
 40
8.0
 40
9.0
 40
9.0
 40
9.0
 40
10.0
 40
10.0
 40
10.0
 40
11.0
 40
11.0
 40
11.0
 40
12.0
 40
12.0
 40
12.0
 40
13.0
 40
13.0
 40
13.0
 40
13.0
 10
82.30884329539502
 20
-142.2300780894425
 10
82.46766219726503
 20
-142.4226589270679
 10
82.5417317501979
 20
-142.5046521996169
 10
82.68539223193282
 20
-142.5477158931825
 10
82.68539223193282
 20
-142.5477158931825
 10
82.68539223193282
 20
-141.8604193438752
 10
82.68539223193282
 20
-141.8604193438752
 10
82.68539223193282
 20
-141.8604193438752
 10
82.89071992285372
 20
-141.8604193438752
 10
82.89071992285372
 20
-141.8604193438752
 10
82.89071992285372
 20
-141.8604193438752
 10
82.89071992285372
 20
-142.7682020042385
 10
82.89071992285372
 20
-142.7682020042385
 10
82.53311901148479
 20
-142.7399522212595
 10
82.4549153439696
 20
-142.6820746171073
 10
82.15657007494697
 20
-142.3420436927131
 10
81.95778806544806
 20
-142.1160454288807
 10
81.88991968438863
 20
-142.0581678247285
 10
81.75246037452716
 20
-142.0581678247285
 10
81.63394908983457
 20
-142.0581678247285
 10
81.50303546139507
 20
-142.1219020912056
 10
81.50303546139507
 20
-142.2955349036622
 10
81.50303546139507
 20
-142.5253227725284
 10
81.73351234935829
 20
-142.5325574730474
 10
81.84995657675974
 20
-142.5363470780812
 10
81.84995657675974
 20
-142.5363470780812
 10
81.84995657675974
 20
-142.7344400684831
 10
81.84995657675974
 20
-142.7344400684831
 10
81.72283255335402
 20
-142.7268608584155
 10
81.61086695008339
 20
-142.7175591006053
 10
81.4923556653908
 20
-142.6465901336092
 10
81.33146970622964
 20
-142.5494384409251
 10
81.29770777047419
 20
-142.3851073862787
 10
81.29770777047419
 20
-142.2824435408183
 10
81.29770777047419
 20
-142.0378417613655
 10
81.48167586938654
 20
-141.8545626815502
 10
81.75452743181832
 20
-141.8545626815502
 10
81.98328177203891
 20
-141.8545626815502
 10
82.0825005220141
 20
-141.9575710365592
 10
82.30884329539502
 20
-142.2300780894425
 97
        0
 97
        0
 75
     2
 76
     1
 98
        0
  0
ENDBLK
  5
AB
330
A8
100
AcDbEntity
  8
0
100
AcDbBlockEnd
  0
BLOCK
  5
B2
330
B0
100
AcDbEntity
  8
0
100
AcDbBlockBegin
  2
block 5
 70
     0
 10
0.0
 20
0.0
 30
0.0
  3
block 5
  1

  0
SPLINE
  5
B4
330
B0
100
AcDbEntity
  8
_U+30EC_U+30A4_U+30E4_U+30FC 1
370
     0
100
AcDbSpline
210
0.0
220
0.0
230
1.0
 70
    11
 71
     3
 72
    32
 73
    28
 74
     0
 42
0.0000000001
 43
0.0000000001
 12
1.0
 22
0.0
 32
0.0
 13
1.0
 23
0.0
 33
0.0
 40
0.0
 40
0.0
 40
0.0
 40
0.0
 40
1.0
 40
1.0
 40
1.0
 40
2.0
 40
2.0
 40
2.0
 40
3.0
 40
3.0
 40
3.0
 40
4.0
 40
4.0
 40
4.0
 40
5.0
 40
5.0
 40
5.0
 40
6.0
 40
6.0
 40
6.0
 40
7.0
 40
7.0
 40
7.0
 40
8.0
 40
8.0
 40
8.0
 40
9.0
 40
9.0
 40
9.0
 40
9.0
 10
91.6453965699706
 20
-152.2363579263506
 30
0.0
 10
91.49208982087698
 20
-152.2363579263506
 30
0.0
 10
91.27539331485477
 20
-152.1667669975486
 30
0.0
 10
91.24197588864784
 20
-151.8346597927705
 30
0.0
 10
91.24197588864784
 20
-151.8346597927705
 30
0.0
 10
91.43042261169101
 20
-151.8346597927705
 30
0.0
 10
91.43042261169101
 20
-151.8346597927705
 30
0.0
 10
91.43972436950118
 20
-151.8939154351168
 30
0.0
 10
91.46797415248024
 20
-152.041710031434
 30
0.0
 10
91.64711911771323
 20
-152.041710031434
 30
0.0
 10
91.90481226000992
 20
-152.041710031434
 30
0.0
 10
91.93857419576536
 20
-151.7120143934956
 30
0.0
 10
91.94994301086669
 20
-151.5066867025747
 30
0.0
 10
91.86932777651184
 20
-151.586957427381
 30
0.0
 10
91.80972762461701
 20
-151.6441460124362
 30
0.0
 10
91.64918617500437
 20
-151.6441460124362
 30
0.0
 10
91.49036727313435
 20
-151.6441460124362
 30
0.0
 10
91.22337237302749
 20
-151.538381581039
 30
0.0
 10
91.22337237302749
 20
-151.1322048233281
 30
0.0
 10
91.22337237302749
 20
-150.8128444718454
 30
0.0
 10
91.3987277332267
 20
-150.5927028703379
 30
0.0
 10
91.67881399617752
 20
-150.5927028703379
 30
0.0
 10
92.13287758113346
 20
-150.5927028703379
 30
0.0
 10
92.14217933894362
 20
-151.1470187339146
 30
0.0
 10
92.14217933894362
 20
-151.3606146540001
 30
0.0
 10
92.14217933894362
 20
-151.5910915419634
 30
0.0
 10
92.1252983710659
 20
-152.2363579263506
 30
0.0
 10
91.6453965699706
 20
-152.2363579263506
 30
0.0
  0
SPLINE
  5
B5
330
B0
100
AcDbEntity
  8
_U+30EC_U+30A4_U+30E4_U+30FC 1
370
     0
100
AcDbSpline
210
0.0
220
0.0
230
1.0
 70
    11
 71
     3
 72
    17
 73
    13
 74
     0
 42
0.0000000001
 43
0.0000000001
 12
1.0
 22
0.0
 32
0.0
 13
1.0
 23
0.0
 33
0.0
 40
0.0
 40
0.0
 40
0.0
 40
0.0
 40
1.0
 40
1.0
 40
1.0
 40
2.0
 40
2.0
 40
2.0
 40
3.0
 40
3.0
 40
3.0
 40
4.0
 40
4.0
 40
4.0
 40
4.0
 10
91.68088105346867
 20
-150.7852837079634
 30
0.0
 10
91.57615015071708
 20
-150.7852837079634
 30
0.0
 10
91.42112085388084
 20
-150.8424722930185
 30
0.0
 10
91.42112085388084
 20
-151.1280707087458
 30
0.0
 10
91.42112085388084
 20
-151.3544134821267
 30
0.0
 10
91.54445527225278
 20
-151.4494981175196
 30
0.0
 10
91.66400008559094
 20
-151.4494981175196
 30
0.0
 10
91.89551050219974
 20
-151.4494981175196
 30
0.0
 10
91.92927243795519
 20
-151.2400363120164
 30
0.0
 10
91.92927243795519
 20
-151.123592084615
 30
0.0
 10
91.92927243795519
 20
-150.9482367244157
 30
0.0
 10
91.84521210811509
 20
-150.7852837079634
 30
0.0
 10
91.68088105346867
 20
-150.7852837079634
 30
0.0
  0
HATCH
  5
B6
330
B0
100
AcDbEntity
  8
_U+30EC_U+30A4_U+30E4_U+30FC 1
 62
   179
420
  2234388
100
AcDbHatch
 10
0.0
 20
0.0
 30
0.0
210
0.0
220
0.0
230
1.0
  2
SOLID
 70
     1
 71
     0
 91
        2
 92
        1
 93
        1
 72
     4
 94
        3
 73
     0
 74
     1
 95
       32
 96
       28
 40
0.0
 40
0.0
 40
0.0
 40
0.0
 40
1.0
 40
1.0
 40
1.0
 40
2.0
 40
2.0
 40
2.0
 40
3.0
 40
3.0
 40
3.0
 40
4.0
 40
4.0
 40
4.0
 40
5.0
 40
5.0
 40
5.0
 40
6.0
 40
6.0
 40
6.0
 40
7.0
 40
7.0
 40
7.0
 40
8.0
 40
8.0
 40
8.0
 40
9.0
 40
9.0
 40
9.0
 40
9.0
 10
91.6453965699706
 20
-152.2363579263506
 10
91.49208982087698
 20
-152.2363579263506
 10
91.27539331485477
 20
-152.1667669975486
 10
91.24197588864784
 20
-151.8346597927705
 10
91.24197588864784
 20
-151.8346597927705
 10
91.43042261169101
 20
-151.8346597927705
 10
91.43042261169101
 20
-151.8346597927705
 10
91.43972436950118
 20
-151.8939154351168
 10
91.46797415248024
 20
-152.041710031434
 10
91.64711911771323
 20
-152.041710031434
 10
91.90481226000992
 20
-152.041710031434
 10
91.93857419576536
 20
-151.7120143934956
 10
91.94994301086669
 20
-151.5066867025747
 10
91.86932777651184
 20
-151.586957427381
 10
91.80972762461701
 20
-151.6441460124362
 10
91.64918617500437
 20
-151.6441460124362
 10
91.49036727313435
 20
-151.6441460124362
 10
91.22337237302749
 20
-151.538381581039
 10
91.22337237302749
 20
-151.1322048233281
 10
91.22337237302749
 20
-150.8128444718454
 10
91.3987277332267
 20
-150.5927028703379
 10
91.67881399617752
 20
-150.5927028703379
 10
92.13287758113346
 20
-150.5927028703379
 10
92.14217933894362
 20
-151.1470187339146
 10
92.14217933894362
 20
-151.3606146540001
 10
92.14217933894362
 20
-151.5910915419634
 10
92.1252983710659
 20
-152.2363579263506
 10
91.6453965699706
 20
-152.2363579263506
 97
        0
 97
        0
 92
        1
 93
        1
 72
     4
 94
        3
 73
     0
 74
     1
 95
       17
 96
       13
 40
0.0
 40
0.0
 40
0.0
 40
0.0
 40
1.0
 40
1.0
 40
1.0
 40
2.0
 40
2.0
 40
2.0
 40
3.0
 40
3.0
 40
3.0
 40
4.0
 40
4.0
 40
4.0
 40
4.0
 10
91.68088105346867
 20
-150.7852837079634
 10
91.57615015071708
 20
-150.7852837079634
 10
91.42112085388084
 20
-150.8424722930185
 10
91.42112085388084
 20
-151.1280707087458
 10
91.42112085388084
 20
-151.3544134821267
 10
91.54445527225278
 20
-151.4494981175196
 10
91.66400008559094
 20
-151.4494981175196
 10
91.89551050219974
 20
-151.4494981175196
 10
91.92927243795519
 20
-151.2400363120164
 10
91.92927243795519
 20
-151.123592084615
 10
91.92927243795519
 20
-150.9482367244157
 10
91.84521210811509
 20
-150.7852837079634
 10
91.68088105346867
 20
-150.7852837079634
 97
        0
 97
        0
 75
     2
 76
     1
 98
        0
  0
POLYLINE
  5
B7
330
B0
100
AcDbEntity
  8
_U+30EC_U+30A4_U+30E4_U+30FC 1
370
     0
100
AcDb2dPolyline
 66
     1
 10
0.0
 20
0.0
 30
0.0
  0
VERTEX
  5
B8
330
B7
100
AcDbEntity
  8
_U+30EC_U+30A4_U+30E4_U+30FC 1
370
     0
100
AcDbVertex
100
AcDb2dVertex
 10
92.33407115747204
 20
-152.1857150227175
 30
0.0
  0
VERTEX
  5
B9
330
B7
100
AcDbEntity
  8
_U+30EC_U+30A4_U+30E4_U+30FC 1
370
     0
100
AcDbVertex
100
AcDb2dVertex
 10
92.33407115747204
 20
-151.9338785427457
 30
0.0
  0
VERTEX
  5
BA
330
B7
100
AcDbEntity
  8
_U+30EC_U+30A4_U+30E4_U+30FC 1
370
     0
100
AcDbVertex
100
AcDb2dVertex
 10
92.55627981627066
 20
-151.9338785427457
 30
0.0
  0
VERTEX
  5
BB
330
B7
100
AcDbEntity
  8
_U+30EC_U+30A4_U+30E4_U+30FC 1
370
     0
100
AcDbVertex
100
AcDb2dVertex
 10
92.55627981627066
 20
-152.1857150227175
 30
0.0
  0
VERTEX
  5
BC
330
B7
100
AcDbEntity
  8
_U+30EC_U+30A4_U+30E4_U+30FC 1
370
     0
100
AcDbVertex
100
AcDb2dVertex
 10
92.33407115747204
 20
-152.1857150227175
 30
0.0
  0
SEQEND
  5
BD
330
B7
100
AcDbEntity
  8
_U+30EC_U+30A4_U+30E4_U+30FC 1
370
     0
  0
HATCH
  5
BE
330
B0
100
AcDbEntity
  8
_U+30EC_U+30A4_U+30E4_U+30FC 1
 62
   179
420
  2234388
100
AcDbHatch
 10
0.0
 20
0.0
 30
0.0
210
0.0
220
0.0
230
1.0
  2
SOLID
 70
     1
 71
     0
 91
        1
 92
        1
 93
        4
 72
     1
 10
92.33407115747204
 20
-152.1857150227175
 11
92.33407115747204
 21
-151.9338785427457
 72
     1
 10
92.33407115747204
 20
-151.9338785427457
 11
92.55627981627066
 21
-151.9338785427457
 72
     1
 10
92.55627981627066
 20
-151.9338785427457
 11
92.55627981627066
 21
-152.1857150227175
 72
     1
 10
92.55627981627066
 20
-152.1857150227175
 11
92.33407115747204
 21
-152.1857150227175
 97
        0
 75
     2
 76
     1
 98
        0
  0
SPLINE
  5
BF
330
B0
100
AcDbEntity
  8
_U+30EC_U+30A4_U+30E4_U+30FC 1
370
     0
100
AcDbSpline
210
0.0
220
0.0
230
1.0
 70
    11
 71
     3
 72
    29
 73
    25
 74
     0
 42
0.0000000001
 43
0.0000000001
 12
1.0
 22
0.0
 32
0.0
 13
1.0
 23
0.0
 33
0.0
 40
0.0
 40
0.0
 40
0.0
 40
0.0
 40
1.0
 40
1.0
 40
1.0
 40
2.0
 40
2.0
 40
2.0
 40
3.0
 40
3.0
 40
3.0
 40
4.0
 40
4.0
 40
4.0
 40
5.0
 40
5.0
 40
5.0
 40
6.0
 40
6.0
 40
6.0
 40
7.0
 40
7.0
 40
7.0
 40
8.0
 40
8.0
 40
8.0
 40
8.0
 10
93.20671384388582
 20
-152.2363579263506
 30
0.0
 10
92.97141382224326
 20
-152.2363579263506
 30
0.0
 10
92.74748261570203
 20
-152.0988986164892
 30
0.0
 10
92.74748261570203
 20
-151.7499104438334
 30
0.0
 10
92.74748261570203
 20
-151.4939398492793
 30
0.0
 10
92.8725395818166
 20
-151.3988552138864
 30
0.0
 10
92.96590166946686
 20
-151.3375325142489
 30
0.0
 10
92.85565861393887
 20
-151.2782768719026
 30
0.0
 10
92.7884792519765
 20
-151.1638997017924
 30
0.0
 10
92.7884792519765
 20
-151.0030137426312
 30
0.0
 10
92.7884792519765
 20
-150.7280951229083
 30
0.0
 10
92.96383461217572
 20
-150.5927028703379
 30
0.0
 10
93.20671384388582
 20
-150.5927028703379
 30
0.0
 10
93.45717228566349
 20
-150.5927028703379
 30
0.0
 10
93.62529294534369
 20
-150.7367078616214
 30
0.0
 10
93.62529294534369
 20
-151.0030137426312
 30
0.0
 10
93.62529294534369
 20
-151.1638997017924
 30
0.0
 10
93.55604652609016
 20
-151.2782768719026
 30
0.0
 10
93.44580347056217
 20
-151.3375325142489
 30
0.0
 10
93.52435164762586
 20
-151.3881754178821
 30
0.0
 10
93.66456703387553
 20
-151.483260053275
 30
0.0
 10
93.66456703387553
 20
-151.7457763292511
 30
0.0
 10
93.66456703387553
 20
-152.1202582084977
 30
0.0
 10
93.41789819713163
 20
-152.2363579263506
 30
0.0
 10
93.20671384388582
 20
-152.2363579263506
 30
0.0
  0
SPLINE
  5
C0
330
B0
100
AcDbEntity
  8
_U+30EC_U+30A4_U+30E4_U+30FC 1
370
     0
100
AcDbSpline
210
0.0
220
0.0
230
1.0
 70
    11
 71
     3
 72
    17
 73
    13
 74
     0
 42
0.0000000001
 43
0.0000000001
 12
1.0
 22
0.0
 32
0.0
 13
1.0
 23
0.0
 33
0.0
 40
0.0
 40
0.0
 40
0.0
 40
0.0
 40
1.0
 40
1.0
 40
1.0
 40
2.0
 40
2.0
 40
2.0
 40
3.0
 40
3.0
 40
3.0
 40
4.0
 40
4.0
 40
4.0
 40
4.0
 10
93.20671384388582
 20
-151.4453640029373
 30
0.0
 10
93.07993433002864
 20
-151.4453640029373
 30
0.0
 10
92.94523109655536
 20
-151.5321804091656
 30
0.0
 10
92.94523109655536
 20
-151.7350965332468
 30
0.0
 10
92.94523109655536
 20
-151.9404242241677
 30
0.0
 10
93.0575412093745
 20
-152.041710031434
 30
0.0
 10
93.20671384388582
 20
-152.041710031434
 30
0.0
 10
93.37104489853225
 20
-152.041710031434
 30
0.0
 10
93.46819659121628
 20
-151.9190646321591
 30
0.0
 10
93.46819659121628
 20
-151.7412977051202
 30
0.0
 10
93.46819659121628
 20
-151.5194335558701
 30
0.0
 10
93.32453610948137
 20
-151.4453640029373
 30
0.0
 10
93.20671384388582
 20
-151.4453640029373
 30
0.0
  0
SPLINE
  5
C1
330
B0
100
AcDbEntity
  8
_U+30EC_U+30A4_U+30E4_U+30FC 1
370
     0
100
AcDbSpline
210
0.0
220
0.0
230
1.0
 70
    11
 71
     3
 72
    17
 73
    13
 74
     0
 42
0.0000000001
 43
0.0000000001
 12
1.0
 22
0.0
 32
0.0
 13
1.0
 23
0.0
 33
0.0
 40
0.0
 40
0.0
 40
0.0
 40
0.0
 40
1.0
 40
1.0
 40
1.0
 40
2.0
 40
2.0
 40
2.0
 40
3.0
 40
3.0
 40
3.0
 40
4.0
 40
4.0
 40
4.0
 40
4.0
 10
93.20671384388582
 20
-150.7852837079634
 30
0.0
 10
93.06098630485975
 20
-150.7852837079634
 30
0.0
 10
92.98657224237836
 20
-150.8803683433563
 30
0.0
 10
92.98657224237836
 20
-151.0157605959266
 30
0.0
 10
92.98657224237836
 20
-151.1384059952015
 30
0.0
 10
93.04996199930696
 20
-151.2569172798941
 30
0.0
 10
93.20671384388582
 20
-151.2569172798941
 30
0.0
 10
93.36381019801321
 20
-151.2569172798941
 30
0.0
 10
93.42719995494181
 20
-151.1384059952015
 30
0.0
 10
93.42719995494181
 20
-151.0157605959266
 30
0.0
 10
93.42719995494181
 20
-150.8803683433563
 30
0.0
 10
93.35071883516927
 20
-150.7852837079634
 30
0.0
 10
93.20671384388582
 20
-150.7852837079634
 30
0.0
  0
HATCH
  5
C2
330
B0
100
AcDbEntity
  8
_U+30EC_U+30A4_U+30E4_U+30FC 1
 62
   179
420
  2234388
100
AcDbHatch
 10
0.0
 20
0.0
 30
0.0
210
0.0
220
0.0
230
1.0
  2
SOLID
 70
     1
 71
     0
 91
        3
 92
        1
 93
        1
 72
     4
 94
        3
 73
     0
 74
     1
 95
       29
 96
       25
 40
0.0
 40
0.0
 40
0.0
 40
0.0
 40
1.0
 40
1.0
 40
1.0
 40
2.0
 40
2.0
 40
2.0
 40
3.0
 40
3.0
 40
3.0
 40
4.0
 40
4.0
 40
4.0
 40
5.0
 40
5.0
 40
5.0
 40
6.0
 40
6.0
 40
6.0
 40
7.0
 40
7.0
 40
7.0
 40
8.0
 40
8.0
 40
8.0
 40
8.0
 10
93.20671384388582
 20
-152.2363579263506
 10
92.97141382224326
 20
-152.2363579263506
 10
92.74748261570203
 20
-152.0988986164892
 10
92.74748261570203
 20
-151.7499104438334
 10
92.74748261570203
 20
-151.4939398492793
 10
92.8725395818166
 20
-151.3988552138864
 10
92.96590166946686
 20
-151.3375325142489
 10
92.85565861393887
 20
-151.2782768719026
 10
92.7884792519765
 20
-151.1638997017924
 10
92.7884792519765
 20
-151.0030137426312
 10
92.7884792519765
 20
-150.7280951229083
 10
92.96383461217572
 20
-150.5927028703379
 10
93.20671384388582
 20
-150.5927028703379
 10
93.45717228566349
 20
-150.5927028703379
 10
93.62529294534369
 20
-150.7367078616214
 10
93.62529294534369
 20
-151.0030137426312
 10
93.62529294534369
 20
-151.1638997017924
 10
93.55604652609016
 20
-151.2782768719026
 10
93.44580347056217
 20
-151.3375325142489
 10
93.52435164762586
 20
-151.3881754178821
 10
93.66456703387553
 20
-151.483260053275
 10
93.66456703387553
 20
-151.7457763292511
 10
93.66456703387553
 20
-152.1202582084977
 10
93.41789819713163
 20
-152.2363579263506
 10
93.20671384388582
 20
-152.2363579263506
 97
        0
 97
        0
 92
        1
 93
        1
 72
     4
 94
        3
 73
     0
 74
     1
 95
       17
 96
       13
 40
0.0
 40
0.0
 40
0.0
 40
0.0
 40
1.0
 40
1.0
 40
1.0
 40
2.0
 40
2.0
 40
2.0
 40
3.0
 40
3.0
 40
3.0
 40
4.0
 40
4.0
 40
4.0
 40
4.0
 10
93.20671384388582
 20
-151.4453640029373
 10
93.07993433002864
 20
-151.4453640029373
 10
92.94523109655536
 20
-151.5321804091656
 10
92.94523109655536
 20
-151.7350965332468
 10
92.94523109655536
 20
-151.9404242241677
 10
93.0575412093745
 20
-152.041710031434
 10
93.20671384388582
 20
-152.041710031434
 10
93.37104489853225
 20
-152.041710031434
 10
93.46819659121628
 20
-151.9190646321591
 10
93.46819659121628
 20
-151.7412977051202
 10
93.46819659121628
 20
-151.5194335558701
 10
93.32453610948137
 20
-151.4453640029373
 10
93.20671384388582
 20
-151.4453640029373
 97
        0
 97
        0
 92
        1
 93
        1
 72
     4
 94
        3
 73
     0
 74
     1
 95
       17
 96
       13
 40
0.0
 40
0.0
 40
0.0
 40
0.0
 40
1.0
 40
1.0
 40
1.0
 40
2.0
 40
2.0
 40
2.0
 40
3.0
 40
3.0
 40
3.0
 40
4.0
 40
4.0
 40
4.0
 40
4.0
 10
93.20671384388582
 20
-150.7852837079634
 10
93.06098630485975
 20
-150.7852837079634
 10
92.98657224237836
 20
-150.8803683433563
 10
92.98657224237836
 20
-151.0157605959266
 10
92.98657224237836
 20
-151.1384059952015
 10
93.04996199930696
 20
-151.2569172798941
 10
93.20671384388582
 20
-151.2569172798941
 10
93.36381019801321
 20
-151.2569172798941
 10
93.42719995494181
 20
-151.1384059952015
 10
93.42719995494181
 20
-151.0157605959266
 10
93.42719995494181
 20
-150.8803683433563
 10
93.35071883516927
 20
-150.7852837079634
 10
93.20671384388582
 20
-150.7852837079634
 97
        0
 97
        0
 75
     2
 76
     1
 98
        0
  0
ENDBLK
  5
B3
330
B0
100
AcDbEntity
  8
0
100
AcDbBlockEnd
  0
BLOCK
  5
C5
330
C3
100
AcDbEntity
  8
0
100
AcDbBlockBegin
  2
block 6
 70
     0
 10
0.0
 20
0.0
 30
0.0
  3
block 6
  1

  0
SPLINE
  5
C7
330
C3
100
AcDbEntity
  8
_U+30EC_U+30A4_U+30E4_U+30FC 1
370
     0
100
AcDbSpline
210
0.0
220
0.0
230
1.0
 70
    11
 71
     3
 72
    32
 73
    28
 74
     0
 42
0.0000000001
 43
0.0000000001
 12
1.0
 22
0.0
 32
0.0
 13
1.0
 23
0.0
 33
0.0
 40
0.0
 40
0.0
 40
0.0
 40
0.0
 40
1.0
 40
1.0
 40
1.0
 40
2.0
 40
2.0
 40
2.0
 40
3.0
 40
3.0
 40
3.0
 40
4.0
 40
4.0
 40
4.0
 40
5.0
 40
5.0
 40
5.0
 40
6.0
 40
6.0
 40
6.0
 40
7.0
 40
7.0
 40
7.0
 40
8.0
 40
8.0
 40
8.0
 40
9.0
 40
9.0
 40
9.0
 40
9.0
 10
92.00747610547036
 20
-132.2368896153783
 30
0.0
 10
91.85416935637674
 20
-132.2368896153783
 30
0.0
 10
91.63747285035453
 20
-132.1669541770277
 30
0.0
 10
91.6040554241476
 20
-131.8348469722496
 30
0.0
 10
91.6040554241476
 20
-131.8348469722496
 30
0.0
 10
91.79250214719077
 20
-131.8348469722496
 30
0.0
 10
91.79250214719077
 20
-131.8348469722496
 30
0.0
 10
91.80180390500094
 20
-131.8941026145959
 30
0.0
 10
91.83005368798
 20
-132.0422417204617
 30
0.0
 10
92.00919865321298
 20
-132.0422417204617
 30
0.0
 10
92.26689179550966
 20
-132.0422417204617
 30
0.0
 10
92.30065373126511
 20
-131.7122015729747
 30
0.0
 10
92.31202254636645
 20
-131.5068738820538
 30
0.0
 10
92.2314073120116
 20
-131.5871446068602
 30
0.0
 10
92.17180716011677
 20
-131.6443331919153
 30
0.0
 10
92.01126571050413
 20
-131.6443331919153
 30
0.0
 10
91.85244680863411
 20
-131.6443331919153
 30
0.0
 10
91.58510739897872
 20
-131.5385687605181
 30
0.0
 10
91.58510739897872
 20
-131.1323920028072
 30
0.0
 10
91.58510739897872
 20
-130.8130316513245
 30
0.0
 10
91.76080726872647
 20
-130.5928900498171
 30
0.0
 10
92.04089353167728
 20
-130.5928900498171
 30
0.0
 10
92.49495711663322
 20
-130.5928900498171
 30
0.0
 10
92.50425887444338
 20
-131.1472059133937
 30
0.0
 10
92.50425887444338
 20
-131.3608018334793
 30
0.0
 10
92.50425887444338
 20
-131.591623230991
 30
0.0
 10
92.48737790656565
 20
-132.2368896153783
 30
0.0
 10
92.00747610547036
 20
-132.2368896153783
 30
0.0
  0
SPLINE
  5
C8
330
C3
100
AcDbEntity
  8
_U+30EC_U+30A4_U+30E4_U+30FC 1
370
     0
100
AcDbSpline
210
0.0
220
0.0
230
1.0
 70
    11
 71
     3
 72
    17
 73
    13
 74
     0
 42
0.0000000001
 43
0.0000000001
 12
1.0
 22
0.0
 32
0.0
 13
1.0
 23
0.0
 33
0.0
 40
0.0
 40
0.0
 40
0.0
 40
0.0
 40
1.0
 40
1.0
 40
1.0
 40
2.0
 40
2.0
 40
2.0
 40
3.0
 40
3.0
 40
3.0
 40
4.0
 40
4.0
 40
4.0
 40
4.0
 10
92.04296058896843
 20
-130.7854708874425
 30
0.0
 10
91.93822968621683
 20
-130.7854708874425
 30
0.0
 10
91.7832003893806
 20
-130.8426594724977
 30
0.0
 10
91.7832003893806
 20
-131.1282578882249
 30
0.0
 10
91.7832003893806
 20
-131.3546006616058
 30
0.0
 10
91.90653480775254
 20
-131.4496852969987
 30
0.0
 10
92.0260796210907
 20
-131.4496852969987
 30
0.0
 10
92.2575900376995
 20
-131.4496852969987
 30
0.0
 10
92.29135197345495
 20
-131.2402234914955
 30
0.0
 10
92.29135197345495
 20
-131.1241237736426
 30
0.0
 10
92.29135197345495
 20
-130.9484239038948
 30
0.0
 10
92.20729164361485
 20
-130.7854708874425
 30
0.0
 10
92.04296058896843
 20
-130.7854708874425
 30
0.0
  0
HATCH
  5
C9
330
C3
100
AcDbEntity
  8
_U+30EC_U+30A4_U+30E4_U+30FC 1
 62
   179
420
  2234388
100
AcDbHatch
 10
0.0
 20
0.0
 30
0.0
210
0.0
220
0.0
230
1.0
  2
SOLID
 70
     1
 71
     0
 91
        2
 92
        1
 93
        1
 72
     4
 94
        3
 73
     0
 74
     1
 95
       32
 96
       28
 40
0.0
 40
0.0
 40
0.0
 40
0.0
 40
1.0
 40
1.0
 40
1.0
 40
2.0
 40
2.0
 40
2.0
 40
3.0
 40
3.0
 40
3.0
 40
4.0
 40
4.0
 40
4.0
 40
5.0
 40
5.0
 40
5.0
 40
6.0
 40
6.0
 40
6.0
 40
7.0
 40
7.0
 40
7.0
 40
8.0
 40
8.0
 40
8.0
 40
9.0
 40
9.0
 40
9.0
 40
9.0
 10
92.00747610547036
 20
-132.2368896153783
 10
91.85416935637674
 20
-132.2368896153783
 10
91.63747285035453
 20
-132.1669541770277
 10
91.6040554241476
 20
-131.8348469722496
 10
91.6040554241476
 20
-131.8348469722496
 10
91.79250214719077
 20
-131.8348469722496
 10
91.79250214719077
 20
-131.8348469722496
 10
91.80180390500094
 20
-131.8941026145959
 10
91.83005368798
 20
-132.0422417204617
 10
92.00919865321298
 20
-132.0422417204617
 10
92.26689179550966
 20
-132.0422417204617
 10
92.30065373126511
 20
-131.7122015729747
 10
92.31202254636645
 20
-131.5068738820538
 10
92.2314073120116
 20
-131.5871446068602
 10
92.17180716011677
 20
-131.6443331919153
 10
92.01126571050413
 20
-131.6443331919153
 10
91.85244680863411
 20
-131.6443331919153
 10
91.58510739897872
 20
-131.5385687605181
 10
91.58510739897872
 20
-131.1323920028072
 10
91.58510739897872
 20
-130.8130316513245
 10
91.76080726872647
 20
-130.5928900498171
 10
92.04089353167728
 20
-130.5928900498171
 10
92.49495711663322
 20
-130.5928900498171
 10
92.50425887444338
 20
-131.1472059133937
 10
92.50425887444338
 20
-131.3608018334793
 10
92.50425887444338
 20
-131.591623230991
 10
92.48737790656565
 20
-132.2368896153783
 10
92.00747610547036
 20
-132.2368896153783
 97
        0
 97
        0
 92
        1
 93
        1
 72
     4
 94
        3
 73
     0
 74
     1
 95
       17
 96
       13
 40
0.0
 40
0.0
 40
0.0
 40
0.0
 40
1.0
 40
1.0
 40
1.0
 40
2.0
 40
2.0
 40
2.0
 40
3.0
 40
3.0
 40
3.0
 40
4.0
 40
4.0
 40
4.0
 40
4.0
 10
92.04296058896843
 20
-130.7854708874425
 10
91.93822968621683
 20
-130.7854708874425
 10
91.7832003893806
 20
-130.8426594724977
 10
91.7832003893806
 20
-131.1282578882249
 10
91.7832003893806
 20
-131.3546006616058
 10
91.90653480775254
 20
-131.4496852969987
 10
92.0260796210907
 20
-131.4496852969987
 10
92.2575900376995
 20
-131.4496852969987
 10
92.29135197345495
 20
-131.2402234914955
 10
92.29135197345495
 20
-131.1241237736426
 10
92.29135197345495
 20
-130.9484239038948
 10
92.20729164361485
 20
-130.7854708874425
 10
92.04296058896843
 20
-130.7854708874425
 97
        0
 97
        0
 75
     2
 76
     1
 98
        0
  0
ENDBLK
  5
C6
330
C3
100
AcDbEntity
  8
0
100
AcDbBlockEnd
  0
BLOCK
  5
CC
330
CA
100
AcDbEntity
  8
0
100
AcDbBlockBegin
  2
block 7
 70
     0
 10
0.0
 20
0.0
 30
0.0
  3
block 7
  1

  0
SPLINE
  5
CE
330
CA
100
AcDbEntity
  8
_U+30EC_U+30A4_U+30E4_U+30FC 1
370
     0
100
AcDbSpline
210
0.0
220
0.0
230
1.0
 70
    11
 71
     3
 72
    26
 73
    22
 74
     0
 42
0.0000000001
 43
0.0000000001
 12
1.0
 22
0.0
 32
0.0
 13
1.0
 23
0.0
 33
0.0
 40
0.0
 40
0.0
 40
0.0
 40
0.0
 40
1.0
 40
1.0
 40
1.0
 40
2.0
 40
2.0
 40
2.0
 40
3.0
 40
3.0
 40
3.0
 40
4.0
 40
4.0
 40
4.0
 40
5.0
 40
5.0
 40
5.0
 40
6.0
 40
6.0
 40
6.0
 40
7.0
 40
7.0
 40
7.0
 40
7.0
 10
100.352530899391
 20
-144.1565754847942
 30
0.0
 10
100.352530899391
 20
-144.1565754847942
 30
0.0
 10
99.24837779636846
 20
-144.1565754847942
 30
0.0
 10
99.24837779636846
 20
-144.1565754847942
 30
0.0
 10
99.24837779636846
 20
-144.1565754847942
 30
0.0
 10
99.24837779636846
 20
-144.4480305628463
 30
0.0
 10
99.24837779636846
 20
-144.4480305628463
 30
0.0
 10
99.24837779636846
 20
-144.4480305628463
 30
0.0
 10
99.10023869050272
 20
-144.4480305628463
 30
0.0
 10
99.10023869050272
 20
-144.4480305628463
 30
0.0
 10
99.08542477991615
 20
-144.1548529370516
 30
0.0
 10
98.92247176346383
 20
-144.1138563007771
 30
0.0
 10
98.80809459335353
 20
-144.0876735750892
 30
0.0
 10
98.80809459335353
 20
-144.0876735750892
 30
0.0
 10
98.80809459335353
 20
-143.9588270039409
 30
0.0
 10
98.80809459335353
 20
-143.9588270039409
 30
0.0
 10
98.80809459335353
 20
-143.9588270039409
 30
0.0
 10
100.352530899391
 20
-143.9588270039409
 30
0.0
 10
100.352530899391
 20
-143.9588270039409
 30
0.0
 10
100.352530899391
 20
-143.9588270039409
 30
0.0
 10
100.352530899391
 20
-144.1565754847942
 30
0.0
 10
100.352530899391
 20
-144.1565754847942
 30
0.0
  0
HATCH
  5
CF
330
CA
100
AcDbEntity
  8
_U+30EC_U+30A4_U+30E4_U+30FC 1
 62
   179
420
  2234388
100
AcDbHatch
 10
0.0
 20
0.0
 30
0.0
210
0.0
220
0.0
230
1.0
  2
SOLID
 70
     1
 71
     0
 91
        1
 92
        1
 93
        1
 72
     4
 94
        3
 73
     0
 74
     1
 95
       26
 96
       22
 40
0.0
 40
0.0
 40
0.0
 40
0.0
 40
1.0
 40
1.0
 40
1.0
 40
2.0
 40
2.0
 40
2.0
 40
3.0
 40
3.0
 40
3.0
 40
4.0
 40
4.0
 40
4.0
 40
5.0
 40
5.0
 40
5.0
 40
6.0
 40
6.0
 40
6.0
 40
7.0
 40
7.0
 40
7.0
 40
7.0
 10
100.352530899391
 20
-144.1565754847942
 10
100.352530899391
 20
-144.1565754847942
 10
99.24837779636846
 20
-144.1565754847942
 10
99.24837779636846
 20
-144.1565754847942
 10
99.24837779636846
 20
-144.1565754847942
 10
99.24837779636846
 20
-144.4480305628463
 10
99.24837779636846
 20
-144.4480305628463
 10
99.24837779636846
 20
-144.4480305628463
 10
99.10023869050272
 20
-144.4480305628463
 10
99.10023869050272
 20
-144.4480305628463
 10
99.08542477991615
 20
-144.1548529370516
 10
98.92247176346383
 20
-144.1138563007771
 10
98.80809459335353
 20
-144.0876735750892
 10
98.80809459335353
 20
-144.0876735750892
 10
98.80809459335353
 20
-143.9588270039409
 10
98.80809459335353
 20
-143.9588270039409
 10
98.80809459335353
 20
-143.9588270039409
 10
100.352530899391
 20
-143.9588270039409
 10
100.352530899391
 20
-143.9588270039409
 10
100.352530899391
 20
-143.9588270039409
 10
100.352530899391
 20
-144.1565754847942
 10
100.352530899391
 20
-144.1565754847942
 97
        0
 97
        0
 75
     2
 76
     1
 98
        0
  0
SPLINE
  5
D0
330
CA
100
AcDbEntity
  8
_U+30EC_U+30A4_U+30E4_U+30FC 1
370
     0
100
AcDbSpline
210
0.0
220
0.0
230
1.0
 70
    11
 71
     3
 72
    29
 73
    25
 74
     0
 42
0.0000000001
 43
0.0000000001
 12
1.0
 22
0.0
 32
0.0
 13
1.0
 23
0.0
 33
0.0
 40
0.0
 40
0.0
 40
0.0
 40
0.0
 40
1.0
 40
1.0
 40
1.0
 40
2.0
 40
2.0
 40
2.0
 40
3.0
 40
3.0
 40
3.0
 40
4.0
 40
4.0
 40
4.0
 40
5.0
 40
5.0
 40
5.0
 40
6.0
 40
6.0
 40
6.0
 40
7.0
 40
7.0
 40
7.0
 40
8.0
 40
8.0
 40
8.0
 40
8.0
 10
100.1747639723522
 20
-142.7227267438332
 30
0.0
 10
100.3842257778553
 20
-142.8181558887746
 30
0.0
 10
100.4031738030242
 20
-142.9714626378683
 30
0.0
 10
100.4031738030242
 20
-143.0741264833287
 30
0.0
 10
100.4031738030242
 20
-143.216064417321
 30
0.0
 10
100.3566650139733
 20
-143.3411213834356
 30
0.0
 10
100.1747639723522
 20
-143.4251817132757
 30
0.0
 10
99.98011607743553
 20
-143.5168212531833
 30
0.0
 10
99.74309350805034
 20
-143.533702221061
 30
0.0
 10
99.58048500114656
 20
-143.533702221061
 30
0.0
 10
99.4364800098631
 20
-143.533702221061
 30
0.0
 10
99.18464352989135
 20
-143.5185438009259
 30
0.0
 10
98.98586152039243
 20
-143.4251817132757
 30
0.0
 10
98.7829453963112
 20
-143.3300970778828
 30
0.0
 10
98.75951874701151
 20
-143.1878146343419
 30
0.0
 10
98.75951874701151
 20
-143.0741264833287
 30
0.0
 10
98.75951874701151
 20
-142.933911097079
 30
0.0
 10
98.80396047877123
 20
-142.8067870736733
 30
0.0
 10
98.98586152039243
 20
-142.7227267438332
 30
0.0
 10
99.17844235801789
 20
-142.6352213185079
 30
0.0
 10
99.40685218868995
 20
-142.6145507455964
 30
0.0
 10
99.58048500114656
 20
-142.6145507455964
 30
0.0
 10
99.75170624676346
 20
-142.6145507455964
 30
0.0
 10
99.98218313472668
 20
-142.6331542612167
 30
0.0
 10
100.1747639723522
 20
-142.7227267438332
 30
0.0
  0
SPLINE
  5
D1
330
CA
100
AcDbEntity
  8
_U+30EC_U+30A4_U+30E4_U+30FC 1
370
     0
100
AcDbSpline
210
0.0
220
0.0
230
1.0
 70
    11
 71
     3
 72
    17
 73
    13
 74
     0
 42
0.0000000001
 43
0.0000000001
 12
1.0
 22
0.0
 32
0.0
 13
1.0
 23
0.0
 33
0.0
 40
0.0
 40
0.0
 40
0.0
 40
0.0
 40
1.0
 40
1.0
 40
1.0
 40
2.0
 40
2.0
 40
2.0
 40
3.0
 40
3.0
 40
3.0
 40
4.0
 40
4.0
 40
4.0
 40
4.0
 10
98.95209958463698
 20
-143.0741264833287
 30
0.0
 10
98.95209958463698
 20
-143.2946125943847
 30
0.0
 10
99.23563094307305
 20
-143.3356092306592
 30
0.0
 10
99.58048500114656
 20
-143.3356092306592
 30
0.0
 10
99.89984535262921
 20
-143.3356092306592
 30
0.0
 10
100.2085259081076
 20
-143.3039143521949
 30
0.0
 10
100.2085259081076
 20
-143.0741264833287
 30
0.0
 10
100.2085259081076
 20
-142.8553629200153
 30
0.0
 10
99.92740611651121
 20
-142.8126437359982
 30
0.0
 10
99.58048500114656
 20
-142.8126437359982
 30
0.0
 10
99.26078014011536
 20
-142.8126437359982
 30
0.0
 10
98.95209958463698
 20
-142.8460611622052
 30
0.0
 10
98.95209958463698
 20
-143.0741264833287
 30
0.0
  0
HATCH
  5
D2
330
CA
100
AcDbEntity
  8
_U+30EC_U+30A4_U+30E4_U+30FC 1
 62
   179
420
  2234388
100
AcDbHatch
 10
0.0
 20
0.0
 30
0.0
210
0.0
220
0.0
230
1.0
  2
SOLID
 70
     1
 71
     0
 91
        2
 92
        1
 93
        1
 72
     4
 94
        3
 73
     0
 74
     1
 95
       29
 96
       25
 40
0.0
 40
0.0
 40
0.0
 40
0.0
 40
1.0
 40
1.0
 40
1.0
 40
2.0
 40
2.0
 40
2.0
 40
3.0
 40
3.0
 40
3.0
 40
4.0
 40
4.0
 40
4.0
 40
5.0
 40
5.0
 40
5.0
 40
6.0
 40
6.0
 40
6.0
 40
7.0
 40
7.0
 40
7.0
 40
8.0
 40
8.0
 40
8.0
 40
8.0
 10
100.1747639723522
 20
-142.7227267438332
 10
100.3842257778553
 20
-142.8181558887746
 10
100.4031738030242
 20
-142.9714626378683
 10
100.4031738030242
 20
-143.0741264833287
 10
100.4031738030242
 20
-143.216064417321
 10
100.3566650139733
 20
-143.3411213834356
 10
100.1747639723522
 20
-143.4251817132757
 10
99.98011607743553
 20
-143.5168212531833
 10
99.74309350805034
 20
-143.533702221061
 10
99.58048500114656
 20
-143.533702221061
 10
99.4364800098631
 20
-143.533702221061
 10
99.18464352989135
 20
-143.5185438009259
 10
98.98586152039243
 20
-143.4251817132757
 10
98.7829453963112
 20
-143.3300970778828
 10
98.75951874701151
 20
-143.1878146343419
 10
98.75951874701151
 20
-143.0741264833287
 10
98.75951874701151
 20
-142.933911097079
 10
98.80396047877123
 20
-142.8067870736733
 10
98.98586152039243
 20
-142.7227267438332
 10
99.17844235801789
 20
-142.6352213185079
 10
99.40685218868995
 20
-142.6145507455964
 10
99.58048500114656
 20
-142.6145507455964
 10
99.75170624676346
 20
-142.6145507455964
 10
99.98218313472668
 20
-142.6331542612167
 10
100.1747639723522
 20
-142.7227267438332
 97
        0
 97
        0
 92
        1
 93
        1
 72
     4
 94
        3
 73
     0
 74
     1
 95
       17
 96
       13
 40
0.0
 40
0.0
 40
0.0
 40
0.0
 40
1.0
 40
1.0
 40
1.0
 40
2.0
 40
2.0
 40
2.0
 40
3.0
 40
3.0
 40
3.0
 40
4.0
 40
4.0
 40
4.0
 40
4.0
 10
98.95209958463698
 20
-143.0741264833287
 10
98.95209958463698
 20
-143.2946125943847
 10
99.23563094307305
 20
-143.3356092306592
 10
99.58048500114656
 20
-143.3356092306592
 10
99.89984535262921
 20
-143.3356092306592
 10
100.2085259081076
 20
-143.3039143521949
 10
100.2085259081076
 20
-143.0741264833287
 10
100.2085259081076
 20
-142.8553629200153
 10
99.92740611651121
 20
-142.8126437359982
 10
99.58048500114656
 20
-142.8126437359982
 10
99.26078014011536
 20
-142.8126437359982
 10
98.95209958463698
 20
-142.8460611622052
 10
98.95209958463698
 20
-143.0741264833287
 97
        0
 97
        0
 75
     2
 76
     1
 98
        0
  0
POLYLINE
  5
D3
330
CA
100
AcDbEntity
  8
_U+30EC_U+30A4_U+30E4_U+30FC 1
370
     0
100
AcDb2dPolyline
 66
     1
 10
0.0
 20
0.0
 30
0.0
  0
VERTEX
  5
D4
330
D3
100
AcDbEntity
  8
_U+30EC_U+30A4_U+30E4_U+30FC 1
370
     0
100
AcDbVertex
100
AcDb2dVertex
 10
100.352530899391
 20
-142.4226589270679
 30
0.0
  0
VERTEX
  5
D5
330
D3
100
AcDbEntity
  8
_U+30EC_U+30A4_U+30E4_U+30FC 1
370
     0
100
AcDbVertex
100
AcDb2dVertex
 10
100.1006944194193
 20
-142.4226589270679
 30
0.0
  0
VERTEX
  5
D6
330
D3
100
AcDbEntity
  8
_U+30EC_U+30A4_U+30E4_U+30FC 1
370
     0
100
AcDbVertex
100
AcDb2dVertex
 10
100.1006944194193
 20
-142.2004502682693
 30
0.0
  0
VERTEX
  5
D7
330
D3
100
AcDbEntity
  8
_U+30EC_U+30A4_U+30E4_U+30FC 1
370
     0
100
AcDbVertex
100
AcDb2dVertex
 10
100.352530899391
 20
-142.2004502682693
 30
0.0
  0
VERTEX
  5
D8
330
D3
100
AcDbEntity
  8
_U+30EC_U+30A4_U+30E4_U+30FC 1
370
     0
100
AcDbVertex
100
AcDb2dVertex
 10
100.352530899391
 20
-142.4226589270679
 30
0.0
  0
SEQEND
  5
D9
330
D3
100
AcDbEntity
  8
_U+30EC_U+30A4_U+30E4_U+30FC 1
370
     0
  0
HATCH
  5
DA
330
CA
100
AcDbEntity
  8
_U+30EC_U+30A4_U+30E4_U+30FC 1
 62
   179
420
  2234388
100
AcDbHatch
 10
0.0
 20
0.0
 30
0.0
210
0.0
220
0.0
230
1.0
  2
SOLID
 70
     1
 71
     0
 91
        1
 92
        1
 93
        4
 72
     1
 10
100.352530899391
 20
-142.4226589270679
 11
100.1006944194193
 21
-142.4226589270679
 72
     1
 10
100.1006944194193
 20
-142.4226589270679
 11
100.1006944194193
 21
-142.2004502682693
 72
     1
 10
100.1006944194193
 20
-142.2004502682693
 11
100.352530899391
 21
-142.2004502682693
 72
     1
 10
100.352530899391
 20
-142.2004502682693
 11
100.352530899391
 21
-142.4226589270679
 97
        0
 75
     2
 76
     1
 98
        0
  0
POLYLINE
  5
DB
330
CA
100
AcDbEntity
  8
_U+30EC_U+30A4_U+30E4_U+30FC 1
370
     0
100
AcDb2dPolyline
 66
     1
 10
0.0
 20
0.0
 30
0.0
  0
VERTEX
  5
DC
330
DB
100
AcDbEntity
  8
_U+30EC_U+30A4_U+30E4_U+30FC 1
370
     0
100
AcDbVertex
100
AcDb2dVertex
 10
100.0056097840264
 20
-141.2564941053109
 30
0.0
  0
VERTEX
  5
DD
330
DB
100
AcDbEntity
  8
_U+30EC_U+30A4_U+30E4_U+30FC 1
370
     0
100
AcDbVertex
100
AcDb2dVertex
 10
100.352530899391
 20
-141.2564941053109
 30
0.0
  0
VERTEX
  5
DE
330
DB
100
AcDbEntity
  8
_U+30EC_U+30A4_U+30E4_U+30FC 1
370
     0
100
AcDbVertex
100
AcDb2dVertex
 10
100.352530899391
 20
-141.4490749429363
 30
0.0
  0
VERTEX
  5
DF
330
DB
100
AcDbEntity
  8
_U+30EC_U+30A4_U+30E4_U+30FC 1
370
     0
100
AcDbVertex
100
AcDb2dVertex
 10
100.0056097840264
 20
-141.4490749429363
 30
0.0
  0
VERTEX
  5
E0
330
DB
100
AcDbEntity
  8
_U+30EC_U+30A4_U+30E4_U+30FC 1
370
     0
100
AcDbVertex
100
AcDb2dVertex
 10
100.0056097840264
 20
-142.0281954940068
 30
0.0
  0
VERTEX
  5
E1
330
DB
100
AcDbEntity
  8
_U+30EC_U+30A4_U+30E4_U+30FC 1
370
     0
100
AcDbVertex
100
AcDb2dVertex
 10
99.78133406793661
 20
-142.0281954940068
 30
0.0
  0
VERTEX
  5
E2
330
DB
100
AcDbEntity
  8
_U+30EC_U+30A4_U+30E4_U+30FC 1
370
     0
100
AcDbVertex
100
AcDb2dVertex
 10
98.80809459335353
 20
-141.4284043700249
 30
0.0
  0
VERTEX
  5
E3
330
DB
100
AcDbEntity
  8
_U+30EC_U+30A4_U+30E4_U+30FC 1
370
     0
100
AcDbVertex
100
AcDb2dVertex
 10
98.80809459335353
 20
-141.2564941053109
 30
0.0
  0
VERTEX
  5
E4
330
DB
100
AcDbEntity
  8
_U+30EC_U+30A4_U+30E4_U+30FC 1
370
     0
100
AcDbVertex
100
AcDb2dVertex
 10
99.80682777452746
 20
-141.2564941053109
 30
0.0
  0
VERTEX
  5
E5
330
DB
100
AcDbEntity
  8
_U+30EC_U+30A4_U+30E4_U+30FC 1
370
     0
100
AcDbVertex
100
AcDb2dVertex
 10
99.80682777452746
 20
-141.0735595350441
 30
0.0
  0
VERTEX
  5
E6
330
DB
100
AcDbEntity
  8
_U+30EC_U+30A4_U+30E4_U+30FC 1
370
     0
100
AcDbVertex
100
AcDb2dVertex
 10
100.0056097840264
 20
-141.0735595350441
 30
0.0
  0
VERTEX
  5
E7
330
DB
100
AcDbEntity
  8
_U+30EC_U+30A4_U+30E4_U+30FC 1
370
     0
100
AcDbVertex
100
AcDb2dVertex
 10
100.0056097840264
 20
-141.2564941053109
 30
0.0
  0
SEQEND
  5
E8
330
DB
100
AcDbEntity
  8
_U+30EC_U+30A4_U+30E4_U+30FC 1
370
     0
  0
POLYLINE
  5
E9
330
CA
100
AcDbEntity
  8
_U+30EC_U+30A4_U+30E4_U+30FC 1
370
     0
100
AcDb2dPolyline
 66
     1
 10
0.0
 20
0.0
 30
0.0
  0
VERTEX
  5
EA
330
E9
100
AcDbEntity
  8
_U+30EC_U+30A4_U+30E4_U+30FC 1
370
     0
100
AcDbVertex
100
AcDb2dVertex
 10
99.1508815941359
 20
-141.4490749429363
 30
0.0
  0
VERTEX
  5
EB
330
E9
100
AcDbEntity
  8
_U+30EC_U+30A4_U+30E4_U+30FC 1
370
     0
100
AcDbVertex
100
AcDb2dVertex
 10
99.80682777452746
 20
-141.8524956242591
 30
0.0
  0
VERTEX
  5
EC
330
E9
100
AcDbEntity
  8
_U+30EC_U+30A4_U+30E4_U+30FC 1
370
     0
100
AcDbVertex
100
AcDb2dVertex
 10
99.80682777452746
 20
-141.4490749429363
 30
0.0
  0
VERTEX
  5
ED
330
E9
100
AcDbEntity
  8
_U+30EC_U+30A4_U+30E4_U+30FC 1
370
     0
100
AcDbVertex
100
AcDb2dVertex
 10
99.1508815941359
 20
-141.4490749429363
 30
0.0
  0
SEQEND
  5
EE
330
E9
100
AcDbEntity
  8
_U+30EC_U+30A4_U+30E4_U+30FC 1
370
     0
  0
HATCH
  5
EF
330
CA
100
AcDbEntity
  8
_U+30EC_U+30A4_U+30E4_U+30FC 1
 62
   179
420
  2234388
100
AcDbHatch
 10
0.0
 20
0.0
 30
0.0
210
0.0
220
0.0
230
1.0
  2
SOLID
 70
     1
 71
     0
 91
        2
 92
        1
 93
       11
 72
     1
 10
100.0056097840264
 20
-141.2564941053109
 11
100.352530899391
 21
-141.2564941053109
 72
     1
 10
100.352530899391
 20
-141.2564941053109
 11
100.352530899391
 21
-141.4490749429363
 72
     1
 10
100.352530899391
 20
-141.4490749429363
 11
100.0056097840264
 21
-141.4490749429363
 72
     1
 10
100.0056097840264
 20
-141.4490749429363
 11
100.0056097840264
 21
-142.0281954940068
 72
     1
 10
100.0056097840264
 20
-142.0281954940068
 11
99.78133406793661
 21
-142.0281954940068
 72
     1
 10
99.78133406793661
 20
-142.0281954940068
 11
98.80809459335353
 21
-141.4284043700249
 72
     1
 10
98.80809459335353
 20
-141.4284043700249
 11
98.80809459335353
 21
-141.2564941053109
 72
     1
 10
98.80809459335353
 20
-141.2564941053109
 11
99.80682777452746
 21
-141.2564941053109
 72
     1
 10
99.80682777452746
 20
-141.2564941053109
 11
99.80682777452746
 21
-141.0735595350441
 72
     1
 10
99.80682777452746
 20
-141.0735595350441
 11
100.0056097840264
 21
-141.0735595350441
 72
     1
 10
100.0056097840264
 20
-141.0735595350441
 11
100.0056097840264
 21
-141.2564941053109
 97
        0
 92
        1
 93
        3
 72
     1
 10
99.1508815941359
 20
-141.4490749429363
 11
99.80682777452746
 21
-141.8524956242591
 72
     1
 10
99.80682777452746
 20
-141.8524956242591
 11
99.80682777452746
 21
-141.4490749429363
 72
     1
 10
99.80682777452746
 20
-141.4490749429363
 11
99.1508815941359
 21
-141.4490749429363
 97
        0
 75
     2
 76
     1
 98
        0
  0
ENDBLK
  5
CD
330
CA
100
AcDbEntity
  8
0
100
AcDbBlockEnd
  0
BLOCK
  5
F2
330
F0
100
AcDbEntity
  8
0
100
AcDbBlockBegin
  2
block 8
 70
     0
 10
0.0
 20
0.0
 30
0.0
  3
block 8
  1

  0
SPLINE
  5
F4
330
F0
100
AcDbEntity
  8
_U+30EC_U+30A4_U+30E4_U+30FC 1
370
     0
100
AcDbSpline
210
0.0
220
0.0
230
1.0
 70
    11
 71
     3
 72
    44
 73
    40
 74
     0
 42
0.0000000001
 43
0.0000000001
 12
1.0
 22
0.0
 32
0.0
 13
1.0
 23
0.0
 33
0.0
 40
0.0
 40
0.0
 40
0.0
 40
0.0
 40
1.0
 40
1.0
 40
1.0
 40
2.0
 40
2.0
 40
2.0
 40
3.0
 40
3.0
 40
3.0
 40
4.0
 40
4.0
 40
4.0
 40
5.0
 40
5.0
 40
5.0
 40
6.0
 40
6.0
 40
6.0
 40
7.0
 40
7.0
 40
7.0
 40
8.0
 40
8.0
 40
8.0
 40
9.0
 40
9.0
 40
9.0
 40
10.0
 40
10.0
 40
10.0
 40
11.0
 40
11.0
 40
11.0
 40
12.0
 40
12.0
 40
12.0
 40
13.0
 40
13.0
 40
13.0
 40
13.0
 10
99.76927623373824
 20
-125.9313313487255
 30
0.0
 10
99.92809513560826
 20
-126.123912186351
 30
0.0
 10
100.0021646885411
 20
-126.2059054588999
 30
0.0
 10
100.1458251702761
 20
-126.2489691524655
 30
0.0
 10
100.1458251702761
 20
-126.2489691524655
 30
0.0
 10
100.1458251702761
 20
-125.5616726031582
 30
0.0
 10
100.1458251702761
 20
-125.5616726031582
 30
0.0
 10
100.1458251702761
 20
-125.5616726031582
 30
0.0
 10
100.3511528611969
 20
-125.5616726031582
 30
0.0
 10
100.3511528611969
 20
-125.5616726031582
 30
0.0
 10
100.3511528611969
 20
-125.5616726031582
 30
0.0
 10
100.3511528611969
 20
-126.4694552635215
 30
0.0
 10
100.3511528611969
 20
-126.4694552635215
 30
0.0
 10
99.993551949828
 20
-126.4412054805425
 30
0.0
 10
99.91534828231283
 20
-126.3833278763903
 30
0.0
 10
99.6170030132902
 20
-126.0432969519961
 30
0.0
 10
99.41822100379129
 20
-125.8172986881637
 30
0.0
 10
99.35035262273186
 20
-125.7594210840115
 30
0.0
 10
99.21289331287039
 20
-125.7594210840115
 30
0.0
 10
99.0943820281778
 20
-125.7594210840115
 30
0.0
 10
98.9634683997383
 20
-125.8231553504887
 30
0.0
 10
98.9634683997383
 20
-125.9967881629453
 30
0.0
 10
98.9634683997383
 20
-126.2265760318114
 30
0.0
 10
99.19394528770152
 20
-126.2338107323304
 30
0.0
 10
99.31038951510297
 20
-126.2376003373642
 30
0.0
 10
99.31038951510297
 20
-126.2376003373642
 30
0.0
 10
99.31038951510297
 20
-126.4356933277661
 30
0.0
 10
99.31038951510297
 20
-126.4356933277661
 30
0.0
 10
99.18326549169724
 20
-126.4281141176985
 30
0.0
 10
99.07129988842662
 20
-126.4188123598884
 30
0.0
 10
98.95278860373404
 20
-126.3478433928922
 30
0.0
 10
98.79190264457286
 20
-126.2506917002082
 30
0.0
 10
98.75814070881741
 20
-126.0863606455618
 30
0.0
 10
98.75814070881741
 20
-125.9836968001013
 30
0.0
 10
98.75814070881741
 20
-125.7390950206486
 30
0.0
 10
98.94210880772975
 20
-125.5558159408333
 30
0.0
 10
99.21496037016155
 20
-125.5558159408333
 30
0.0
 10
99.44371471038212
 20
-125.5558159408333
 30
0.0
 10
99.54293346035733
 20
-125.6588242958422
 30
0.0
 10
99.76927623373824
 20
-125.9313313487255
 30
0.0
  0
HATCH
  5
F5
330
F0
100
AcDbEntity
  8
_U+30EC_U+30A4_U+30E4_U+30FC 1
 62
   179
420
  2234388
100
AcDbHatch
 10
0.0
 20
0.0
 30
0.0
210
0.0
220
0.0
230
1.0
  2
SOLID
 70
     1
 71
     0
 91
        1
 92
        1
 93
        1
 72
     4
 94
        3
 73
     0
 74
     1
 95
       44
 96
       40
 40
0.0
 40
0.0
 40
0.0
 40
0.0
 40
1.0
 40
1.0
 40
1.0
 40
2.0
 40
2.0
 40
2.0
 40
3.0
 40
3.0
 40
3.0
 40
4.0
 40
4.0
 40
4.0
 40
5.0
 40
5.0
 40
5.0
 40
6.0
 40
6.0
 40
6.0
 40
7.0
 40
7.0
 40
7.0
 40
8.0
 40
8.0
 40
8.0
 40
9.0
 40
9.0
 40
9.0
 40
10.0
 40
10.0
 40
10.0
 40
11.0
 40
11.0
 40
11.0
 40
12.0
 40
12.0
 40
12.0
 40
13.0
 40
13.0
 40
13.0
 40
13.0
 10
99.76927623373824
 20
-125.9313313487255
 10
99.92809513560826
 20
-126.123912186351
 10
100.0021646885411
 20
-126.2059054588999
 10
100.1458251702761
 20
-126.2489691524655
 10
100.1458251702761
 20
-126.2489691524655
 10
100.1458251702761
 20
-125.5616726031582
 10
100.1458251702761
 20
-125.5616726031582
 10
100.1458251702761
 20
-125.5616726031582
 10
100.3511528611969
 20
-125.5616726031582
 10
100.3511528611969
 20
-125.5616726031582
 10
100.3511528611969
 20
-125.5616726031582
 10
100.3511528611969
 20
-126.4694552635215
 10
100.3511528611969
 20
-126.4694552635215
 10
99.993551949828
 20
-126.4412054805425
 10
99.91534828231283
 20
-126.3833278763903
 10
99.6170030132902
 20
-126.0432969519961
 10
99.41822100379129
 20
-125.8172986881637
 10
99.35035262273186
 20
-125.7594210840115
 10
99.21289331287039
 20
-125.7594210840115
 10
99.0943820281778
 20
-125.7594210840115
 10
98.9634683997383
 20
-125.8231553504887
 10
98.9634683997383
 20
-125.9967881629453
 10
98.9634683997383
 20
-126.2265760318114
 10
99.19394528770152
 20
-126.2338107323304
 10
99.31038951510297
 20
-126.2376003373642
 10
99.31038951510297
 20
-126.2376003373642
 10
99.31038951510297
 20
-126.4356933277661
 10
99.31038951510297
 20
-126.4356933277661
 10
99.18326549169724
 20
-126.4281141176985
 10
99.07129988842662
 20
-126.4188123598884
 10
98.95278860373404
 20
-126.3478433928922
 10
98.79190264457286
 20
-126.2506917002082
 10
98.75814070881741
 20
-126.0863606455618
 10
98.75814070881741
 20
-125.9836968001013
 10
98.75814070881741
 20
-125.7390950206486
 10
98.94210880772975
 20
-125.5558159408333
 10
99.21496037016155
 20
-125.5558159408333
 10
99.44371471038212
 20
-125.5558159408333
 10
99.54293346035733
 20
-125.6588242958422
 10
99.76927623373824
 20
-125.9313313487255
 97
        0
 97
        0
 75
     2
 76
     1
 98
        0
  0
SPLINE
  5
F6
330
F0
100
AcDbEntity
  8
_U+30EC_U+30A4_U+30E4_U+30FC 1
370
     0
100
AcDbSpline
210
0.0
220
0.0
230
1.0
 70
    11
 71
     3
 72
    53
 73
    49
 74
     0
 42
0.0000000001
 43
0.0000000001
 12
1.0
 22
0.0
 32
0.0
 13
1.0
 23
0.0
 33
0.0
 40
0.0
 40
0.0
 40
0.0
 40
0.0
 40
1.0
 40
1.0
 40
1.0
 40
2.0
 40
2.0
 40
2.0
 40
3.0
 40
3.0
 40
3.0
 40
4.0
 40
4.0
 40
4.0
 40
5.0
 40
5.0
 40
5.0
 40
6.0
 40
6.0
 40
6.0
 40
7.0
 40
7.0
 40
7.0
 40
8.0
 40
8.0
 40
8.0
 40
9.0
 40
9.0
 40
9.0
 40
10.0
 40
10.0
 40
10.0
 40
11.0
 40
11.0
 40
11.0
 40
12.0
 40
12.0
 40
12.0
 40
13.0
 40
13.0
 40
13.0
 40
14.0
 40
14.0
 40
14.0
 40
15.0
 40
15.0
 40
15.0
 40
16.0
 40
16.0
 40
16.0
 40
16.0
 10
100.4017957648301
 20
-124.9908202812523
 30
0.0
 10
100.4017957648301
 20
-125.0597221909573
 30
0.0
 10
100.3849147969524
 20
-125.1492946735738
 30
0.0
 10
100.3215250400238
 20
-125.2392116657388
 30
0.0
 10
100.2116264940443
 20
-125.3921739052839
 30
0.0
 10
100.0803683560563
 20
-125.4107774209043
 30
0.0
 10
99.97253686736798
 20
-125.427658388782
 30
0.0
 10
99.97253686736798
 20
-125.427658388782
 30
0.0
 10
99.97253686736798
 20
-125.2316324556713
 30
0.0
 10
99.97253686736798
 20
-125.2316324556713
 30
0.0
 10
100.1713188768669
 20
-125.1830566093292
 30
0.0
 10
100.20094669804
 20
-125.0710910060586
 30
0.0
 10
100.20094669804
 20
-124.9887532239612
 30
0.0
 10
100.20094669804
 20
-124.8654188055892
 30
0.0
 10
100.1013834385163
 20
-124.7310600816645
 30
0.0
 10
99.86883949326196
 20
-124.7310600816645
 30
0.0
 10
99.6128688987079
 20
-124.7310600816645
 30
0.0
 10
99.54293346035733
 20
-124.8898789835345
 30
0.0
 10
99.54293346035733
 20
-124.9963324340287
 30
0.0
 10
99.54293346035733
 20
-125.0242377074592
 30
0.0
 10
99.54293346035733
 20
-125.1492946735738
 30
0.0
 10
99.6721245410542
 20
-125.2278428506375
 30
0.0
 10
99.6721245410542
 20
-125.2278428506375
 30
0.0
 10
99.65317651588532
 20
-125.3828721474737
 30
0.0
 10
99.65317651588532
 20
-125.3828721474737
 30
0.0
 10
99.65317651588532
 20
-125.3828721474737
 30
0.0
 10
98.80671655515944
 20
-125.2764186969795
 30
0.0
 10
98.80671655515944
 20
-125.2764186969795
 30
0.0
 10
98.80671655515944
 20
-125.2764186969795
 30
0.0
 10
98.80671655515944
 20
-124.5891221476722
 30
0.0
 10
98.80671655515944
 20
-124.5891221476722
 30
0.0
 10
98.80671655515944
 20
-124.5891221476722
 30
0.0
 10
99.00136445007605
 20
-124.5891221476722
 30
0.0
 10
99.00136445007605
 20
-124.5891221476722
 30
0.0
 10
99.00136445007605
 20
-124.5891221476722
 30
0.0
 10
99.00136445007605
 20
-125.1327582152446
 30
0.0
 10
99.00136445007605
 20
-125.1327582152446
 30
0.0
 10
99.00136445007605
 20
-125.1327582152446
 30
0.0
 10
99.42442217566473
 20
-125.1906358193968
 30
0.0
 10
99.42442217566473
 20
-125.1906358193968
 30
0.0
 10
99.39066023990928
 20
-125.1362033107298
 30
0.0
 10
99.35035262273186
 20
-125.0635117959911
 30
0.0
 10
99.35035262273186
 20
-124.9587808932395
 30
0.0
 10
99.35035262273186
 20
-124.7348496866982
 30
0.0
 10
99.53673228848388
 20
-124.525387881195
 30
0.0
 10
99.84989146809309
 20
-124.525387881195
 30
0.0
 10
100.1671847622846
 20
-124.525387881195
 30
0.0
 10
100.4017957648301
 20
-124.7234808715969
 30
0.0
 10
100.4017957648301
 20
-124.9908202812523
 30
0.0
  0
HATCH
  5
F7
330
F0
100
AcDbEntity
  8
_U+30EC_U+30A4_U+30E4_U+30FC 1
 62
   179
420
  2234388
100
AcDbHatch
 10
0.0
 20
0.0
 30
0.0
210
0.0
220
0.0
230
1.0
  2
SOLID
 70
     1
 71
     0
 91
        1
 92
        1
 93
        1
 72
     4
 94
        3
 73
     0
 74
     1
 95
       53
 96
       49
 40
0.0
 40
0.0
 40
0.0
 40
0.0
 40
1.0
 40
1.0
 40
1.0
 40
2.0
 40
2.0
 40
2.0
 40
3.0
 40
3.0
 40
3.0
 40
4.0
 40
4.0
 40
4.0
 40
5.0
 40
5.0
 40
5.0
 40
6.0
 40
6.0
 40
6.0
 40
7.0
 40
7.0
 40
7.0
 40
8.0
 40
8.0
 40
8.0
 40
9.0
 40
9.0
 40
9.0
 40
10.0
 40
10.0
 40
10.0
 40
11.0
 40
11.0
 40
11.0
 40
12.0
 40
12.0
 40
12.0
 40
13.0
 40
13.0
 40
13.0
 40
14.0
 40
14.0
 40
14.0
 40
15.0
 40
15.0
 40
15.0
 40
16.0
 40
16.0
 40
16.0
 40
16.0
 10
100.4017957648301
 20
-124.9908202812523
 10
100.4017957648301
 20
-125.0597221909573
 10
100.3849147969524
 20
-125.1492946735738
 10
100.3215250400238
 20
-125.2392116657388
 10
100.2116264940443
 20
-125.3921739052839
 10
100.0803683560563
 20
-125.4107774209043
 10
99.97253686736798
 20
-125.427658388782
 10
99.97253686736798
 20
-125.427658388782
 10
99.97253686736798
 20
-125.2316324556713
 10
99.97253686736798
 20
-125.2316324556713
 10
100.1713188768669
 20
-125.1830566093292
 10
100.20094669804
 20
-125.0710910060586
 10
100.20094669804
 20
-124.9887532239612
 10
100.20094669804
 20
-124.8654188055892
 10
100.1013834385163
 20
-124.7310600816645
 10
99.86883949326196
 20
-124.7310600816645
 10
99.6128688987079
 20
-124.7310600816645
 10
99.54293346035733
 20
-124.8898789835345
 10
99.54293346035733
 20
-124.9963324340287
 10
99.54293346035733
 20
-125.0242377074592
 10
99.54293346035733
 20
-125.1492946735738
 10
99.6721245410542
 20
-125.2278428506375
 10
99.6721245410542
 20
-125.2278428506375
 10
99.65317651588532
 20
-125.3828721474737
 10
99.65317651588532
 20
-125.3828721474737
 10
99.65317651588532
 20
-125.3828721474737
 10
98.80671655515944
 20
-125.2764186969795
 10
98.80671655515944
 20
-125.2764186969795
 10
98.80671655515944
 20
-125.2764186969795
 10
98.80671655515944
 20
-124.5891221476722
 10
98.80671655515944
 20
-124.5891221476722
 10
98.80671655515944
 20
-124.5891221476722
 10
99.00136445007605
 20
-124.5891221476722
 10
99.00136445007605
 20
-124.5891221476722
 10
99.00136445007605
 20
-124.5891221476722
 10
99.00136445007605
 20
-125.1327582152446
 10
99.00136445007605
 20
-125.1327582152446
 10
99.00136445007605
 20
-125.1327582152446
 10
99.42442217566473
 20
-125.1906358193968
 10
99.42442217566473
 20
-125.1906358193968
 10
99.39066023990928
 20
-125.1362033107298
 10
99.35035262273186
 20
-125.0635117959911
 10
99.35035262273186
 20
-124.9587808932395
 10
99.35035262273186
 20
-124.7348496866982
 10
99.53673228848388
 20
-124.525387881195
 10
99.84989146809309
 20
-124.525387881195
 10
100.1671847622846
 20
-124.525387881195
 10
100.4017957648301
 20
-124.7234808715969
 10
100.4017957648301
 20
-124.9908202812523
 97
        0
 97
        0
 75
     2
 76
     1
 98
        0
  0
POLYLINE
  5
F8
330
F0
100
AcDbEntity
  8
_U+30EC_U+30A4_U+30E4_U+30FC 1
370
     0
100
AcDb2dPolyline
 66
     1
 10
0.0
 20
0.0
 30
0.0
  0
VERTEX
  5
F9
330
F8
100
AcDbEntity
  8
_U+30EC_U+30A4_U+30E4_U+30FC 1
370
     0
100
AcDbVertex
100
AcDb2dVertex
 10
100.3511528611969
 20
-124.3224717571138
 30
0.0
  0
VERTEX
  5
FA
330
F8
100
AcDbEntity
  8
_U+30EC_U+30A4_U+30E4_U+30FC 1
370
     0
100
AcDbVertex
100
AcDb2dVertex
 10
100.0993163812252
 20
-124.3224717571138
 30
0.0
  0
VERTEX
  5
FB
330
F8
100
AcDbEntity
  8
_U+30EC_U+30A4_U+30E4_U+30FC 1
370
     0
100
AcDbVertex
100
AcDb2dVertex
 10
100.0993163812252
 20
-124.1002630983152
 30
0.0
  0
VERTEX
  5
FC
330
F8
100
AcDbEntity
  8
_U+30EC_U+30A4_U+30E4_U+30FC 1
370
     0
100
AcDbVertex
100
AcDb2dVertex
 10
100.3511528611969
 20
-124.1002630983152
 30
0.0
  0
VERTEX
  5
FD
330
F8
100
AcDbEntity
  8
_U+30EC_U+30A4_U+30E4_U+30FC 1
370
     0
100
AcDbVertex
100
AcDb2dVertex
 10
100.3511528611969
 20
-124.3224717571138
 30
0.0
  0
SEQEND
  5
FE
330
F8
100
AcDbEntity
  8
_U+30EC_U+30A4_U+30E4_U+30FC 1
370
     0
  0
HATCH
  5
FF
330
F0
100
AcDbEntity
  8
_U+30EC_U+30A4_U+30E4_U+30FC 1
 62
   179
420
  2234388
100
AcDbHatch
 10
0.0
 20
0.0
 30
0.0
210
0.0
220
0.0
230
1.0
  2
SOLID
 70
     1
 71
     0
 91
        1
 92
        1
 93
        4
 72
     1
 10
100.3511528611969
 20
-124.3224717571138
 11
100.0993163812252
 21
-124.3224717571138
 72
     1
 10
100.0993163812252
 20
-124.3224717571138
 11
100.0993163812252
 21
-124.1002630983152
 72
     1
 10
100.0993163812252
 20
-124.1002630983152
 11
100.3511528611969
 21
-124.1002630983152
 72
     1
 10
100.3511528611969
 20
-124.1002630983152
 11
100.3511528611969
 21
-124.3224717571138
 97
        0
 75
     2
 76
     1
 98
        0
  0
SPLINE
  5
100
330
F0
100
AcDbEntity
  8
_U+30EC_U+30A4_U+30E4_U+30FC 1
370
     0
100
AcDbSpline
210
0.0
220
0.0
230
1.0
 70
    11
 71
     3
 72
    29
 73
    25
 74
     0
 42
0.0000000001
 43
0.0000000001
 12
1.0
 22
0.0
 32
0.0
 13
1.0
 23
0.0
 33
0.0
 40
0.0
 40
0.0
 40
0.0
 40
0.0
 40
1.0
 40
1.0
 40
1.0
 40
2.0
 40
2.0
 40
2.0
 40
3.0
 40
3.0
 40
3.0
 40
4.0
 40
4.0
 40
4.0
 40
5.0
 40
5.0
 40
5.0
 40
6.0
 40
6.0
 40
6.0
 40
7.0
 40
7.0
 40
7.0
 40
8.0
 40
8.0
 40
8.0
 40
8.0
 10
100.4017957648301
 20
-123.4498290707
 30
0.0
 10
100.4017957648301
 20
-123.6851290923426
 30
0.0
 10
100.2643364549686
 20
-123.9090602988839
 30
0.0
 10
99.91534828231283
 20
-123.9090602988839
 30
0.0
 10
99.65937768775878
 20
-123.9090602988839
 30
0.0
 10
99.56429305236587
 20
-123.7840033327693
 30
0.0
 10
99.50297035272843
 20
-123.690641245119
 30
0.0
 10
99.44371471038212
 20
-123.800884300647
 30
0.0
 10
99.32933754027184
 20
-123.8680636626094
 30
0.0
 10
99.16845158111067
 20
-123.8680636626094
 30
0.0
 10
98.89353296138773
 20
-123.8680636626094
 30
0.0
 10
98.75814070881741
 20
-123.6927083024102
 30
0.0
 10
98.75814070881741
 20
-123.4498290707
 30
0.0
 10
98.75814070881741
 20
-123.1993706289224
 30
0.0
 10
98.90214570010086
 20
-123.0312499692422
 30
0.0
 10
99.16845158111067
 20
-123.0312499692422
 30
0.0
 10
99.32933754027184
 20
-123.0312499692422
 30
0.0
 10
99.44371471038212
 20
-123.1004963884957
 30
0.0
 10
99.50297035272843
 20
-123.2107394440237
 30
0.0
 10
99.5536132563616
 20
-123.13219126696
 30
0.0
 10
99.6486978917545
 20
-122.9919758807103
 30
0.0
 10
99.91121416773053
 20
-122.9919758807103
 30
0.0
 10
100.2856960469772
 20
-122.9919758807103
 30
0.0
 10
100.4017957648301
 20
-123.2386447174542
 30
0.0
 10
100.4017957648301
 20
-123.4498290707
 30
0.0
  0
SPLINE
  5
101
330
F0
100
AcDbEntity
  8
_U+30EC_U+30A4_U+30E4_U+30FC 1
370
     0
100
AcDbSpline
210
0.0
220
0.0
230
1.0
 70
    11
 71
     3
 72
    17
 73
    13
 74
     0
 42
0.0000000001
 43
0.0000000001
 12
1.0
 22
0.0
 32
0.0
 13
1.0
 23
0.0
 33
0.0
 40
0.0
 40
0.0
 40
0.0
 40
0.0
 40
1.0
 40
1.0
 40
1.0
 40
2.0
 40
2.0
 40
2.0
 40
3.0
 40
3.0
 40
3.0
 40
4.0
 40
4.0
 40
4.0
 40
4.0
 10
98.95072154644288
 20
-123.4498290707
 30
0.0
 10
98.95072154644288
 20
-123.5955566097261
 30
0.0
 10
99.04580618183577
 20
-123.6699706722075
 30
0.0
 10
99.1811984344061
 20
-123.6699706722075
 30
0.0
 10
99.30384383368099
 20
-123.6699706722075
 30
0.0
 10
99.42235511837359
 20
-123.6065809152789
 30
0.0
 10
99.42235511837359
 20
-123.4498290707
 30
0.0
 10
99.42235511837359
 20
-123.2927327165727
 30
0.0
 10
99.30384383368099
 20
-123.2293429596441
 30
0.0
 10
99.1811984344061
 20
-123.2293429596441
 30
0.0
 10
99.04580618183577
 20
-123.2293429596441
 30
0.0
 10
98.95072154644288
 20
-123.3058240794166
 30
0.0
 10
98.95072154644288
 20
-123.4498290707
 30
0.0
  0
SPLINE
  5
102
330
F0
100
AcDbEntity
  8
_U+30EC_U+30A4_U+30E4_U+30FC 1
370
     0
100
AcDbSpline
210
0.0
220
0.0
230
1.0
 70
    11
 71
     3
 72
    17
 73
    13
 74
     0
 42
0.0000000001
 43
0.0000000001
 12
1.0
 22
0.0
 32
0.0
 13
1.0
 23
0.0
 33
0.0
 40
0.0
 40
0.0
 40
0.0
 40
0.0
 40
1.0
 40
1.0
 40
1.0
 40
2.0
 40
2.0
 40
2.0
 40
3.0
 40
3.0
 40
3.0
 40
4.0
 40
4.0
 40
4.0
 40
4.0
 10
99.61080184141674
 20
-123.4498290707
 30
0.0
 10
99.61080184141674
 20
-123.5766085845572
 30
0.0
 10
99.69761824764504
 20
-123.7113118180305
 30
0.0
 10
99.90053437172627
 20
-123.7113118180305
 30
0.0
 10
100.1058620626471
 20
-123.7113118180305
 30
0.0
 10
100.2071478699135
 20
-123.5990017052114
 30
0.0
 10
100.2071478699135
 20
-123.4498290707
 30
0.0
 10
100.2071478699135
 20
-123.2854980160536
 30
0.0
 10
100.0845024706386
 20
-123.1883463233696
 30
0.0
 10
99.90673554359971
 20
-123.1883463233696
 30
0.0
 10
99.68487139434961
 20
-123.1883463233696
 30
0.0
 10
99.61080184141674
 20
-123.3320068051045
 30
0.0
 10
99.61080184141674
 20
-123.4498290707
 30
0.0
  0
HATCH
  5
103
330
F0
100
AcDbEntity
  8
_U+30EC_U+30A4_U+30E4_U+30FC 1
 62
   179
420
  2234388
100
AcDbHatch
 10
0.0
 20
0.0
 30
0.0
210
0.0
220
0.0
230
1.0
  2
SOLID
 70
     1
 71
     0
 91
        3
 92
        1
 93
        1
 72
     4
 94
        3
 73
     0
 74
     1
 95
       29
 96
       25
 40
0.0
 40
0.0
 40
0.0
 40
0.0
 40
1.0
 40
1.0
 40
1.0
 40
2.0
 40
2.0
 40
2.0
 40
3.0
 40
3.0
 40
3.0
 40
4.0
 40
4.0
 40
4.0
 40
5.0
 40
5.0
 40
5.0
 40
6.0
 40
6.0
 40
6.0
 40
7.0
 40
7.0
 40
7.0
 40
8.0
 40
8.0
 40
8.0
 40
8.0
 10
100.4017957648301
 20
-123.4498290707
 10
100.4017957648301
 20
-123.6851290923426
 10
100.2643364549686
 20
-123.9090602988839
 10
99.91534828231283
 20
-123.9090602988839
 10
99.65937768775878
 20
-123.9090602988839
 10
99.56429305236587
 20
-123.7840033327693
 10
99.50297035272843
 20
-123.690641245119
 10
99.44371471038212
 20
-123.800884300647
 10
99.32933754027184
 20
-123.8680636626094
 10
99.16845158111067
 20
-123.8680636626094
 10
98.89353296138773
 20
-123.8680636626094
 10
98.75814070881741
 20
-123.6927083024102
 10
98.75814070881741
 20
-123.4498290707
 10
98.75814070881741
 20
-123.1993706289224
 10
98.90214570010086
 20
-123.0312499692422
 10
99.16845158111067
 20
-123.0312499692422
 10
99.32933754027184
 20
-123.0312499692422
 10
99.44371471038212
 20
-123.1004963884957
 10
99.50297035272843
 20
-123.2107394440237
 10
99.5536132563616
 20
-123.13219126696
 10
99.6486978917545
 20
-122.9919758807103
 10
99.91121416773053
 20
-122.9919758807103
 10
100.2856960469772
 20
-122.9919758807103
 10
100.4017957648301
 20
-123.2386447174542
 10
100.4017957648301
 20
-123.4498290707
 97
        0
 97
        0
 92
        1
 93
        1
 72
     4
 94
        3
 73
     0
 74
     1
 95
       17
 96
       13
 40
0.0
 40
0.0
 40
0.0
 40
0.0
 40
1.0
 40
1.0
 40
1.0
 40
2.0
 40
2.0
 40
2.0
 40
3.0
 40
3.0
 40
3.0
 40
4.0
 40
4.0
 40
4.0
 40
4.0
 10
98.95072154644288
 20
-123.4498290707
 10
98.95072154644288
 20
-123.5955566097261
 10
99.04580618183577
 20
-123.6699706722075
 10
99.1811984344061
 20
-123.6699706722075
 10
99.30384383368099
 20
-123.6699706722075
 10
99.42235511837359
 20
-123.6065809152789
 10
99.42235511837359
 20
-123.4498290707
 10
99.42235511837359
 20
-123.2927327165727
 10
99.30384383368099
 20
-123.2293429596441
 10
99.1811984344061
 20
-123.2293429596441
 10
99.04580618183577
 20
-123.2293429596441
 10
98.95072154644288
 20
-123.3058240794166
 10
98.95072154644288
 20
-123.4498290707
 97
        0
 97
        0
 92
        1
 93
        1
 72
     4
 94
        3
 73
     0
 74
     1
 95
       17
 96
       13
 40
0.0
 40
0.0
 40
0.0
 40
0.0
 40
1.0
 40
1.0
 40
1.0
 40
2.0
 40
2.0
 40
2.0
 40
3.0
 40
3.0
 40
3.0
 40
4.0
 40
4.0
 40
4.0
 40
4.0
 10
99.61080184141674
 20
-123.4498290707
 10
99.61080184141674
 20
-123.5766085845572
 10
99.69761824764504
 20
-123.7113118180305
 10
99.90053437172627
 20
-123.7113118180305
 10
100.1058620626471
 20
-123.7113118180305
 10
100.2071478699135
 20
-123.5990017052114
 10
100.2071478699135
 20
-123.4498290707
 10
100.2071478699135
 20
-123.2854980160536
 10
100.0845024706386
 20
-123.1883463233696
 10
99.90673554359971
 20
-123.1883463233696
 10
99.68487139434961
 20
-123.1883463233696
 10
99.61080184141674
 20
-123.3320068051045
 10
99.61080184141674
 20
-123.4498290707
 97
        0
 97
        0
 75
     2
 76
     1
 98
        0
  0
ENDBLK
  5
F3
330
F0
100
AcDbEntity
  8
0
100
AcDbBlockEnd
  0
ENDSEC
  0
SECTION
  2
ENTITIES
  0
INSERT
  5
42
330
1F
100
AcDbEntity
  8
_U+30EC_U+30A4_U+30E4_U+30FC 1
100
AcDbBlockReference
  2
block 2
 10
0.0
 20
0.0
 30
0.0
  0
ENDSEC
  0
SECTION
  2
OBJECTS
  0
DICTIONARY
  5
C
330
0
100
AcDbDictionary
281
     1
  3
ACAD_GROUP
350
D
  3
ACAD_LAYOUT
350
1A
  3
ACAD_MATERIAL
350
3B
  3
ACAD_MLEADERSTYLE
350
133
  3
ACAD_MLINESTYLE
350
17
  3
ACAD_PLOTSETTINGS
350
19
  3
ACAD_PLOTSTYLENAME
350
E
  3
ACAD_TABLESTYLE
350
132
  3
ACAD_VISUALSTYLE
350
2A
  0
SUN
  5
3F
330
29
100
AcDbSun
 90
        1
290
     0
 63
     7
421
 16777215
 40
1.0
291
     1
 91
  2455826
 92
 54000000
292
     0
 70
     2
 71
   256
280
     1
  0
DICTIONARY
  5
D
102
{ACAD_REACTORS
330
C
102
}
330
C
100
AcDbDictionary
281
     1
  0
DICTIONARY
  5
1A
102
{ACAD_REACTORS
330
C
102
}
330
C
100
AcDbDictionary
281
     1
  3
Layout1
350
1E
  3
Layout2
350
26
  3
Model
350
22
  0
DICTIONARY
  5
3B
102
{ACAD_REACTORS
330
C
102
}
330
C
100
AcDbDictionary
281
     1
  3
ByBlock
350
3D
  3
ByLayer
350
3C
  3
Global
350
3E
  0
DICTIONARY
  5
133
102
{ACAD_REACTORS
330
C
102
}
330
C
100
AcDbDictionary
281
     1
  0
DICTIONARY
  5
17
102
{ACAD_REACTORS
330
C
102
}
330
C
100
AcDbDictionary
281
     1
  3
Standard
350
18
  0
DICTIONARY
  5
19
102
{ACAD_REACTORS
330
C
102
}
330
C
100
AcDbDictionary
281
     1
  0
ACDBDICTIONARYWDFLT
  5
E
102
{ACAD_REACTORS
330
C
102
}
330
C
100
AcDbDictionary
281
     1
  3
Normal
350
F
100
AcDbDictionaryWithDefault
340
F
  0
DICTIONARY
  5
132
102
{ACAD_REACTORS
330
C
102
}
330
C
100
AcDbDictionary
281
     1
  0
DICTIONARY
  5
2A
102
{ACAD_REACTORS
330
C
102
}
330
C
100
AcDbDictionary
281
     1
  3
2dWireframe
350
2F
  3
3D Hidden
350
31
  3
3dWireframe
350
30
  3
Basic
350
32
  3
Brighten
350
36
  3
ColorChange
350
3A
  3
Conceptual
350
34
  3
Dim
350
35
  3
Facepattern
350
39
  3
Flat
350
2B
  3
FlatWithEdges
350
2C
  3
Gouraud
350
2D
  3
GouraudWithEdges
350
2E
  3
Linepattern
350
38
  3
Realistic
350
33
  3
Thicken
350
37
  0
LAYOUT
  5
1E
102
{ACAD_REACTORS
330
1A
102
}
330
1A
100
AcDbPlotSettings
  1

  2
none_device
  4

  6

 40
0.0
 41
0.0
 42
0.0
 43
0.0
 44
0.0
 45
0.0
 46
0.0
 47
0.0
 48
0.0
 49
0.0
140
0.0
141
0.0
142
1.0
143
1.0
 70
   688
 72
     0
 73
     0
 74
     5
  7

 75
    16
 76
     0
 77
     2
 78
   300
147
1.0
148
0.0
149
0.0
100
AcDbLayout
  1
Layout1
 70
     1
 71
     1
 10
0.0
 20
0.0
 11
12.0
 21
9.0
 12
0.0
 22
0.0
 32
0.0
 14
1.000000000000000E+20
 24
1.000000000000000E+20
 34
1.000000000000000E+20
 15
-1.000000000000000E+20
 25
-1.000000000000000E+20
 35
-1.000000000000000E+20
146
0.0
 13
0.0
 23
0.0
 33
0.0
 16
1.0
 26
0.0
 36
0.0
 17
0.0
 27
1.0
 37
0.0
 76
     0
330
1B
  0
LAYOUT
  5
26
102
{ACAD_REACTORS
330
1A
102
}
330
1A
100
AcDbPlotSettings
  1

  2
none_device
  4

  6

 40
0.0
 41
0.0
 42
0.0
 43
0.0
 44
0.0
 45
0.0
 46
0.0
 47
0.0
 48
0.0
 49
0.0
140
0.0
141
0.0
142
1.0
143
1.0
 70
   688
 72
     0
 73
     0
 74
     5
  7

 75
    16
 76
     0
 77
     2
 78
   300
147
1.0
148
0.0
149
0.0
100
AcDbLayout
  1
Layout2
 70
     1
 71
     2
 10
0.0
 20
0.0
 11
0.0
 21
0.0
 12
0.0
 22
0.0
 32
0.0
 14
0.0
 24
0.0
 34
0.0
 15
0.0
 25
0.0
 35
0.0
146
0.0
 13
0.0
 23
0.0
 33
0.0
 16
1.0
 26
0.0
 36
0.0
 17
0.0
 27
1.0
 37
0.0
 76
     0
330
23
  0
LAYOUT
  5
22
102
{ACAD_REACTORS
330
1A
102
}
330
1A
100
AcDbPlotSettings
  1

  2
none_device
  4

  6

 40
0.0
 41
0.0
 42
0.0
 43
0.0
 44
0.0
 45
0.0
 46
0.0
 47
0.0
 48
0.0
 49
0.0
140
0.0
141
0.0
142
1.0
143
1.0
 70
  1712
 72
     0
 73
     0
 74
     0
  7

 75
     0
 76
     0
 77
     2
 78
   300
147
1.0
148
0.0
149
0.0
100
AcDbLayout
  1
Model
 70
     1
 71
     0
 10
0.0
 20
0.0
 11
12.0
 21
9.0
 12
0.0
 22
0.0
 32
0.0
 14
1.000000000000000E+20
 24
1.000000000000000E+20
 34
1.000000000000000E+20
 15
-1.000000000000000E+20
 25
-1.000000000000000E+20
 35
-1.000000000000000E+20
146
0.0
 13
0.0
 23
0.0
 33
0.0
 16
1.0
 26
0.0
 36
0.0
 17
0.0
 27
1.0
 37
0.0
 76
     0
330
1F
331
29
  0
MATERIAL
  5
3D
102
{ACAD_REACTORS
330
3B
102
}
330
3B
100
AcDbMaterial
  1
ByBlock
 72
     1
 94
      127
  0
MATERIAL
  5
3C
102
{ACAD_REACTORS
330
3B
102
}
330
3B
100
AcDbMaterial
  1
ByLayer
 72
     1
 94
      127
  0
MATERIAL
  5
3E
102
{ACAD_REACTORS
330
3B
102
}
330
3B
100
AcDbMaterial
  1
Global
 72
     1
 94
      127
  0
MLINESTYLE
  5
18
102
{ACAD_REACTORS
330
17
102
}
330
17
100
AcDbMlineStyle
  2
Standard
 70
     0
  3

 62
   256
 51
90.0
 52
90.0
 71
     2
 49
0.5
 62
   256
  6
BYLAYER
 49
-0.5
 62
   256
  6
BYLAYER
  0
ACDBPLACEHOLDER
  5
F
102
{ACAD_REACTORS
330
E
102
}
330
E
  0
VISUALSTYLE
  5
2F
102
{ACAD_REACTORS
330
2A
102
}
330
2A
100
AcDbVisualStyle
  2
2dWireframe
 70
     4
177
     2
291
     0
 71
     0
176
     1
 72
     2
176
     1
 73
     0
176
     1
 90
        0
176
     1
 40
-0.6
176
     1
 41
-30.0
176
     1
 62
     5
 63
     7
421
 16777215
176
     1
 74
     1
176
     1
 91
        4
176
     1
 64
     7
176
     1
 65
   257
176
     1
 75
     1
176
     1
175
     1
176
     1
 42
1.0
176
     1
 92
        0
176
     1
 66
   257
176
     1
 43
1.0
176
     1
 76
     1
176
     1
 77
     6
176
     1
 78
     2
176
     1
 67
     7
176
     1
 79
     5
176
     1
170
     0
176
     1
171
     0
176
     1
290
     0
176
     1
 93
        1
176
     1
 44
0.0
176
     1
173
     0
176
     1
  0
VISUALSTYLE
  5
31
102
{ACAD_REACTORS
330
2A
102
}
330
2A
100
AcDbVisualStyle
  2
3D Hidden
 70
     6
177
     2
291
     0
 71
     1
176
     1
 72
     2
176
     1
 73
     2
176
     1
 90
        0
176
     1
 40
-0.6
176
     1
 41
-30.0
176
     1
 62
     5
 63
     7
421
 16777215
176
     1
 74
     2
176
     1
 91
        2
176
     1
 64
     7
176
     1
 65
   257
176
     1
 75
     2
176
     1
175
     1
176
     1
 42
40.0
176
     1
 92
        0
176
     1
 66
   257
176
     1
 43
1.0
176
     1
 76
     1
176
     1
 77
     6
176
     1
 78
     2
176
     1
 67
     7
176
     1
 79
     3
176
     1
170
     0
176
     1
171
     0
176
     1
290
     0
176
     1
 93
        1
176
     1
 44
0.0
176
     1
173
     0
176
     1
  0
VISUALSTYLE
  5
30
102
{ACAD_REACTORS
330
2A
102
}
330
2A
100
AcDbVisualStyle
  2
3dWireframe
 70
     5
177
     2
291
     0
 71
     0
176
     1
 72
     2
176
     1
 73
     0
176
     1
 90
        0
176
     1
 40
-0.6
176
     1
 41
-30.0
176
     1
 62
     5
 63
     7
421
 16777215
176
     1
 74
     1
176
     1
 91
        4
176
     1
 64
     7
176
     1
 65
   257
176
     1
 75
     1
176
     1
175
     1
176
     1
 42
1.0
176
     1
 92
        0
176
     1
 66
   257
176
     1
 43
1.0
176
     1
 76
     1
176
     1
 77
     6
176
     1
 78
     2
176
     1
 67
     7
176
     1
 79
     5
176
     1
170
     0
176
     1
171
     0
176
     1
290
     0
176
     1
 93
        1
176
     1
 44
0.0
176
     1
173
     0
176
     1
  0
VISUALSTYLE
  5
32
102
{ACAD_REACTORS
330
2A
102
}
330
2A
100
AcDbVisualStyle
  2
Basic
 70
     7
177
     2
291
     1
 71
     1
176
     1
 72
     0
176
     1
 73
     1
176
     1
 90
        0
176
     1
 40
-0.6
176
     1
 41
-30.0
176
     1
 62
     5
 63
     7
421
 16777215
176
     1
 74
     0
176
     1
 91
        4
176
     1
 64
     7
176
     1
 65
   257
176
     1
 75
     1
176
     1
175
     1
176
     1
 42
1.0
176
     1
 92
        8
176
     1
 66
     7
176
     1
 43
1.0
176
     1
 76
     1
176
     1
 77
     6
176
     1
 78
     2
176
     1
 67
     7
176
     1
 79
     5
176
     1
170
     0
176
     1
171
     0
176
     1
290
     0
176
     1
 93
        1
176
     1
 44
0.0
176
     1
173
     0
176
     1
  0
VISUALSTYLE
  5
36
102
{ACAD_REACTORS
330
2A
102
}
330
2A
100
AcDbVisualStyle
  2
Brighten
 70
    12
177
     2
291
     1
 71
     2
176
     1
 72
     2
176
     1
 73
     0
176
     1
 90
        0
176
     1
 40
-0.6
176
     1
 41
-30.0
176
     1
 62
     5
 63
     7
421
 16777215
176
     1
 74
     1
176
     1
 91
        4
176
     1
 64
     7
176
     1
 65
   257
176
     1
 75
     1
176
     1
175
     1
176
     1
 42
1.0
176
     1
 92
        8
176
     1
 66
     7
176
     1
 43
1.0
176
     1
 76
     1
176
     1
 77
     6
176
     1
 78
     2
176
     1
 67
     7
176
     1
 79
     5
176
     1
170
     0
176
     1
171
     0
176
     1
290
     0
176
     1
 93
        1
176
     1
 44
50.0
176
     1
173
     0
176
     1
  0
VISUALSTYLE
  5
3A
102
{ACAD_REACTORS
330
2A
102
}
330
2A
100
AcDbVisualStyle
  2
ColorChange
 70
    16
177
     2
291
     1
 71
     2
176
     1
 72
     2
176
     1
 73
     3
176
     1
 90
        0
176
     1
 40
-0.6
176
     1
 41
-30.0
176
     1
 62
     5
 63
     8
421
  8421504
176
     1
 74
     1
176
     1
 91
        4
176
     1
 64
     7
176
     1
 65
   257
176
     1
 75
     1
176
     1
175
     1
176
     1
 42
1.0
176
     1
 92
        8
176
     1
 66
     8
424
  8421504
176
     1
 43
1.0
176
     1
 76
     1
176
     1
 77
     6
176
     1
 78
     2
176
     1
 67
     7
176
     1
 79
     5
176
     1
170
     0
176
     1
171
     0
176
     1
290
     0
176
     1
 93
        1
176
     1
 44
0.0
176
     1
173
     0
176
     1
  0
VISUALSTYLE
  5
34
102
{ACAD_REACTORS
330
2A
102
}
330
2A
100
AcDbVisualStyle
  2
Conceptual
 70
     9
177
     2
291
     0
 71
     3
176
     1
 72
     2
176
     1
 73
     0
176
     1
 90
        0
176
     1
 40
-0.6
176
     1
 41
-30.0
176
     1
 62
     5
 63
     7
421
 16777215
176
     1
 74
     2
176
     1
 91
        2
176
     1
 64
     7
176
     1
 65
   257
176
     1
 75
     1
176
     1
175
     1
176
     1
 42
40.0
176
     1
 92
        8
176
     1
 66
     7
176
     1
 43
1.0
176
     1
 76
     1
176
     1
 77
     6
176
     1
 78
     2
176
     1
 67
     7
176
     1
 79
     3
176
     1
170
     0
176
     1
171
     0
176
     1
290
     0
176
     1
 93
        1
176
     1
 44
0.0
176
     1
173
     0
176
     1
  0
VISUALSTYLE
  5
35
102
{ACAD_REACTORS
330
2A
102
}
330
2A
100
AcDbVisualStyle
  2
Dim
 70
    11
177
     2
291
     1
 71
     2
176
     1
 72
     2
176
     1
 73
     0
176
     1
 90
        0
176
     1
 40
-0.6
176
     1
 41
-30.0
176
     1
 62
     5
 63
     7
421
 16777215
176
     1
 74
     1
176
     1
 91
        4
176
     1
 64
     7
176
     1
 65
   257
176
     1
 75
     1
176
     1
175
     1
176
     1
 42
1.0
176
     1
 92
        8
176
     1
 66
     7
176
     1
 43
1.0
176
     1
 76
     1
176
     1
 77
     6
176
     1
 78
     2
176
     1
 67
     7
176
     1
 79
     5
176
     1
170
     0
176
     1
171
     0
176
     1
290
     0
176
     1
 93
        1
176
     1
 44
-50.0
176
     1
173
     0
176
     1
  0
VISUALSTYLE
  5
39
102
{ACAD_REACTORS
330
2A
102
}
330
2A
100
AcDbVisualStyle
  2
Facepattern
 70
    15
177
     2
291
     1
 71
     2
176
     1
 72
     2
176
     1
 73
     0
176
     1
 90
        0
176
     1
 40
-0.6
176
     1
 41
-30.0
176
     1
 62
     5
 63
     7
421
 16777215
176
     1
 74
     1
176
     1
 91
        4
176
     1
 64
     7
176
     1
 65
   257
176
     1
 75
     1
176
     1
175
     1
176
     1
 42
1.0
176
     1
 92
        8
176
     1
 66
     7
176
     1
 43
1.0
176
     1
 76
     1
176
     1
 77
     6
176
     1
 78
     2
176
     1
 67
     7
176
     1
 79
     5
176
     1
170
     0
176
     1
171
     0
176
     1
290
     0
176
     1
 93
        1
176
     1
 44
0.0
176
     1
173
     0
176
     1
  0
VISUALSTYLE
  5
2B
102
{ACAD_REACTORS
330
2A
102
}
330
2A
100
AcDbVisualStyle
  2
Flat
 70
     0
177
     2
291
     1
 71
     2
176
     1
 72
     1
176
     1
 73
     1
176
     1
 90
        2
176
     1
 40
-0.6
176
     1
 41
30.0
176
     1
 62
     5
 63
     7
421
 16777215
176
     1
 74
     0
176
     1
 91
        4
176
     1
 64
     7
176
     1
 65
   257
176
     1
 75
     1
176
     1
175
     1
176
     1
 42
1.0
176
     1
 92
        8
176
     1
 66
     7
176
     1
 43
1.0
176
     1
 76
     1
176
     1
 77
     6
176
     1
 78
     2
176
     1
 67
     7
176
     1
 79
     5
176
     1
170
     0
176
     1
171
     0
176
     1
290
     0
176
     1
 93
       13
176
     1
 44
0.0
176
     1
173
     0
176
     1
  0
VISUALSTYLE
  5
2C
102
{ACAD_REACTORS
330
2A
102
}
330
2A
100
AcDbVisualStyle
  2
FlatWithEdges
 70
     1
177
     2
291
     1
 71
     2
176
     1
 72
     1
176
     1
 73
     1
176
     1
 90
        2
176
     1
 40
-0.6
176
     1
 41
30.0
176
     1
 62
     5
 63
     7
421
 16777215
176
     1
 74
     1
176
     1
 91
        4
176
     1
 64
     7
176
     1
 65
   257
176
     1
 75
     1
176
     1
175
     1
176
     1
 42
1.0
176
     1
 92
        0
176
     1
 66
   257
176
     1
 43
1.0
176
     1
 76
     1
176
     1
 77
     6
176
     1
 78
     2
176
     1
 67
     7
176
     1
 79
     5
176
     1
170
     0
176
     1
171
     0
176
     1
290
     0
176
     1
 93
       13
176
     1
 44
0.0
176
     1
173
     0
176
     1
  0
VISUALSTYLE
  5
2D
102
{ACAD_REACTORS
330
2A
102
}
330
2A
100
AcDbVisualStyle
  2
Gouraud
 70
     2
177
     2
291
     1
 71
     2
176
     1
 72
     2
176
     1
 73
     1
176
     1
 90
        2
176
     1
 40
-0.6
176
     1
 41
30.0
176
     1
 62
     5
 63
     7
421
 16777215
176
     1
 74
     0
176
     1
 91
        4
176
     1
 64
     7
176
     1
 65
   257
176
     1
 75
     1
176
     1
175
     1
176
     1
 42
1.0
176
     1
 92
        0
176
     1
 66
     7
176
     1
 43
1.0
176
     1
 76
     1
176
     1
 77
     6
176
     1
 78
     2
176
     1
 67
     7
176
     1
 79
     5
176
     1
170
     0
176
     1
171
     0
176
     1
290
     0
176
     1
 93
       13
176
     1
 44
0.0
176
     1
173
     0
176
     1
  0
VISUALSTYLE
  5
2E
102
{ACAD_REACTORS
330
2A
102
}
330
2A
100
AcDbVisualStyle
  2
GouraudWithEdges
 70
     3
177
     2
291
     1
 71
     2
176
     1
 72
     2
176
     1
 73
     1
176
     1
 90
        2
176
     1
 40
-0.6
176
     1
 41
30.0
176
     1
 62
     5
 63
     7
421
 16777215
176
     1
 74
     1
176
     1
 91
        4
176
     1
 64
     7
176
     1
 65
   257
176
     1
 75
     1
176
     1
175
     1
176
     1
 42
1.0
176
     1
 92
        0
176
     1
 66
   257
176
     1
 43
1.0
176
     1
 76
     1
176
     1
 77
     6
176
     1
 78
     2
176
     1
 67
     7
176
     1
 79
     5
176
     1
170
     0
176
     1
171
     0
176
     1
290
     0
176
     1
 93
       13
176
     1
 44
0.0
176
     1
173
     0
176
     1
  0
VISUALSTYLE
  5
38
102
{ACAD_REACTORS
330
2A
102
}
330
2A
100
AcDbVisualStyle
  2
Linepattern
 70
    14
177
     2
291
     1
 71
     2
176
     1
 72
     2
176
     1
 73
     0
176
     1
 90
        0
176
     1
 40
-0.6
176
     1
 41
-30.0
176
     1
 62
     5
 63
     7
421
 16777215
176
     1
 74
     1
176
     1
 91
        4
176
     1
 64
     7
176
     1
 65
   257
176
     1
 75
     7
176
     1
175
     7
176
     1
 42
1.0
176
     1
 92
        8
176
     1
 66
     7
176
     1
 43
1.0
176
     1
 76
     1
176
     1
 77
     6
176
     1
 78
     2
176
     1
 67
     7
176
     1
 79
     5
176
     1
170
     0
176
     1
171
     0
176
     1
290
     0
176
     1
 93
        1
176
     1
 44
0.0
176
     1
173
     0
176
     1
  0
VISUALSTYLE
  5
33
102
{ACAD_REACTORS
330
2A
102
}
330
2A
100
AcDbVisualStyle
  2
Realistic
 70
     8
177
     2
291
     0
 71
     2
176
     1
 72
     2
176
     1
 73
     0
176
     1
 90
        0
176
     1
 40
-0.6
176
     1
 41
-30.0
176
     1
 62
     5
 63
     7
421
 16777215
176
     1
 74
     1
176
     1
 91
        0
176
     1
 64
     7
176
     1
 65
   257
176
     1
 75
     1
176
     1
175
     1
176
     1
 42
1.0
176
     1
 92
        8
176
     1
 66
     8
424
  7895160
176
     1
 43
1.0
176
     1
 76
     1
176
     1
 77
     6
176
     1
 78
     2
176
     1
 67
     7
176
     1
 79
     5
176
     1
170
     0
176
     1
171
     0
176
     1
290
     0
176
     1
 93
       13
176
     1
 44
0.0
176
     1
173
     0
176
     1
  0
VISUALSTYLE
  5
37
102
{ACAD_REACTORS
330
2A
102
}
330
2A
100
AcDbVisualStyle
  2
Thicken
 70
    13
177
     2
291
     1
 71
     2
176
     1
 72
     2
176
     1
 73
     0
176
     1
 90
        0
176
     1
 40
-0.6
176
     1
 41
-30.0
176
     1
 62
     5
 63
     7
421
 16777215
176
     1
 74
     1
176
     1
 91
        4
176
     1
 64
     7
176
     1
 65
   257
176
     1
 75
     1
176
     1
175
     1
176
     1
 42
1.0
176
     1
 92
       12
176
     1
 66
     7
176
     1
 43
1.0
176
     1
 76
     1
176
     1
 77
     6
176
     1
 78
     2
176
     1
 67
     7
176
     1
 79
     5
176
     1
170
     0
176
     1
171
     0
176
     1
290
     0
176
     1
 93
        1
176
     1
 44
0.0
176
     1
173
     0
176
     1
  0
ENDSEC
  0
EOF
