  0
SECTION
  2
HEADER
  9
$ACADVER
  1
AC1024
  9
$ACADMAINTVER
 70
     6
  9
$DWGCODEPAGE
  3
UNDEFINED
  9
$INSBASE
 10
0.0
 20
0.0
 30
0.0
  9
$EXTMIN
 10
1.000000000000000E+20
 20
1.000000000000000E+20
 30
1.000000000000000E+20
  9
$EXTMAX
 10
-1.000000000000000E+20
 20
-1.000000000000000E+20
 30
-1.000000000000000E+20
  9
$LIMMIN
 10
0.0
 20
0.0
  9
$LIMMAX
 10
12.0
 20
9.0
  9
$ORTHOMODE
 70
     0
  9
$REGENMODE
 70
     1
  9
$FILLMODE
 70
     1
  9
$QTEXTMODE
 70
     0
  9
$MIRRTEXT
 70
     1
  9
$LTSCALE
 40
1.0
  9
$ATTMODE
 70
     1
  9
$TEXTSIZE
 40
0.2
  9
$TRACEWID
 40
0.05
  9
$TEXTSTYLE
  7
Standard
  9
$CLAYER
  8
0
  9
$CELTYPE
  6
ByLayer
  9
$CECOLOR
 62
   256
  9
$CELTSCALE
 40
1.0
  9
$DISPSILH
 70
     0
  9
$DIMSCALE
 40
1.0
  9
$DIMASZ
 40
0.18
  9
$DIMEXO
 40
0.0625
  9
$DIMDLI
 40
0.38
  9
$DIMRND
 40
0.0
  9
$DIMDLE
 40
0.0
  9
$DIMEXE
 40
0.18
  9
$DIMTP
 40
0.0
  9
$DIMTM
 40
0.0
  9
$DIMTXT
 40
0.18
  9
$DIMCEN
 40
0.09
  9
$DIMTSZ
 40
0.0
  9
$DIMTOL
 70
     0
  9
$DIMLIM
 70
     0
  9
$DIMTIH
 70
     1
  9
$DIMTOH
 70
     1
  9
$DIMSE1
 70
     0
  9
$DIMSE2
 70
     0
  9
$DIMTAD
 70
     0
  9
$DIMZIN
 70
     0
  9
$DIMBLK
  1

  9
$DIMASO
 70
     1
  9
$DIMSHO
 70
     1
  9
$DIMPOST
  1

  9
$DIMAPOST
  1

  9
$DIMALT
 70
     0
  9
$DIMALTD
 70
     2
  9
$DIMALTF
 40
25.4
  9
$DIMLFAC
 40
1.0
  9
$DIMTOFL
 70
     0
  9
$DIMTVP
 40
0.0
  9
$DIMTIX
 70
     0
  9
$DIMSOXD
 70
     0
  9
$DIMSAH
 70
     0
  9
$DIMBLK1
  1

  9
$DIMBLK2
  1

  9
$DIMSTYLE
  2
Standard
  9
$DIMCLRD
 70
     0
  9
$DIMCLRE
 70
     0
  9
$DIMCLRT
 70
     0
  9
$DIMTFAC
 40
1.0
  9
$DIMGAP
 40
0.09
  9
$DIMJUST
 70
     0
  9
$DIMSD1
 70
     0
  9
$DIMSD2
 70
     0
  9
$DIMTOLJ
 70
     1
  9
$DIMTZIN
 70
     0
  9
$DIMALTZ
 70
     0
  9
$DIMALTTZ
 70
     0
  9
$DIMUPT
 70
     0
  9
$DIMDEC
 70
     4
  9
$DIMTDEC
 70
     4
  9
$DIMALTU
 70
     2
  9
$DIMALTTD
 70
     2
  9
$DIMTXSTY
  7
Standard
  9
$DIMAUNIT
 70
     0
  9
$DIMADEC
 70
     0
  9
$DIMALTRND
 40
0.0
  9
$DIMAZIN
 70
     0
  9
$DIMDSEP
 70
    46
  9
$DIMATFIT
 70
     3
  9
$DIMFRAC
 70
     0
  9
$DIMLDRBLK
  1

  9
$DIMLUNIT
 70
     2
  9
$DIMLWD
 70
    -2
  9
$DIMLWE
 70
    -2
  9
$DIMTMOVE
 70
     0
  9
$DIMFXL
 40
1.0
  9
$DIMFXLON
 70
     0
  9
$DIMJOGANG
 40
0.7853981633974483
  9
$DIMTFILL
 70
     0
  9
$DIMTFILLCLR
 70
     0
  9
$DIMARCSYM
 70
     0
  9
$DIMLTYPE
  6

  9
$DIMLTEX1
  6

  9
$DIMLTEX2
  6

  9
$DIMTXTDIRECTION
 70
     0
  9
$LUNITS
 70
     2
  9
$LUPREC
 70
     4
  9
$SKETCHINC
 40
0.1
  9
$FILLETRAD
 40
0.5
  9
$AUNITS
 70
     0
  9
$AUPREC
 70
     0
  9
$MENU
  1
.
  9
$ELEVATION
 40
0.0
  9
$PELEVATION
 40
0.0
  9
$THICKNESS
 40
0.0
  9
$LIMCHECK
 70
     0
  9
$CHAMFERA
 40
0.5
  9
$CHAMFERB
 40
0.5
  9
$CHAMFERC
 40
1.0
  9
$CHAMFERD
 40
0.0
  9
$SKPOLY
 70
     0
  9
$TDCREATE
 40
2457917.612523148
  9
$TDUCREATE
 40
2457917.237523148
  9
$TDUPDATE
 40
2457917.612523148
  9
$TDUUPDATE
 40
2457917.237523148
  9
$TDINDWG
 40
0.0000000116
  9
$TDUSRTIMER
 40
0.0000000116
  9
$USRTIMER
 70
     1
  9
$ANGBASE
 50
0.0
  9
$ANGDIR
 70
     0
  9
$PDMODE
 70
     0
  9
$PDSIZE
 40
0.0
  9
$PLINEWID
 40
0.0
  9
$SPLFRAME
 70
     0
  9
$SPLINETYPE
 70
     6
  9
$SPLINESEGS
 70
     8
  9
$HANDSEED
  5
DE
  9
$SURFTAB1
 70
     6
  9
$SURFTAB2
 70
     6
  9
$SURFTYPE
 70
     6
  9
$SURFU
 70
     6
  9
$SURFV
 70
     6
  9
$UCSBASE
  2

  9
$UCSNAME
  2

  9
$UCSORG
 10
0.0
 20
0.0
 30
0.0
  9
$UCSXDIR
 10
1.0
 20
0.0
 30
0.0
  9
$UCSYDIR
 10
0.0
 20
1.0
 30
0.0
  9
$UCSORTHOREF
  2

  9
$UCSORTHOVIEW
 70
     0
  9
$UCSORGTOP
 10
0.0
 20
0.0
 30
0.0
  9
$UCSORGBOTTOM
 10
0.0
 20
0.0
 30
0.0
  9
$UCSORGLEFT
 10
0.0
 20
0.0
 30
0.0
  9
$UCSORGRIGHT
 10
0.0
 20
0.0
 30
0.0
  9
$UCSORGFRONT
 10
0.0
 20
0.0
 30
0.0
  9
$UCSORGBACK
 10
0.0
 20
0.0
 30
0.0
  9
$PUCSBASE
  2

  9
$PUCSNAME
  2

  9
$PUCSORG
 10
0.0
 20
0.0
 30
0.0
  9
$PUCSXDIR
 10
1.0
 20
0.0
 30
0.0
  9
$PUCSYDIR
 10
0.0
 20
1.0
 30
0.0
  9
$PUCSORTHOREF
  2

  9
$PUCSORTHOVIEW
 70
     0
  9
$PUCSORGTOP
 10
0.0
 20
0.0
 30
0.0
  9
$PUCSORGBOTTOM
 10
0.0
 20
0.0
 30
0.0
  9
$PUCSORGLEFT
 10
0.0
 20
0.0
 30
0.0
  9
$PUCSORGRIGHT
 10
0.0
 20
0.0
 30
0.0
  9
$PUCSORGFRONT
 10
0.0
 20
0.0
 30
0.0
  9
$PUCSORGBACK
 10
0.0
 20
0.0
 30
0.0
  9
$USERI1
 70
     0
  9
$USERI2
 70
     0
  9
$USERI3
 70
     0
  9
$USERI4
 70
     0
  9
$USERI5
 70
     0
  9
$USERR1
 40
0.0
  9
$USERR2
 40
0.0
  9
$USERR3
 40
0.0
  9
$USERR4
 40
0.0
  9
$USERR5
 40
0.0
  9
$WORLDVIEW
 70
     1
  9
$SHADEDGE
 70
     3
  9
$SHADEDIF
 70
    70
  9
$TILEMODE
 70
     1
  9
$MAXACTVP
 70
    64
  9
$PINSBASE
 10
0.0
 20
0.0
 30
0.0
  9
$PLIMCHECK
 70
     0
  9
$PEXTMIN
 10
1.000000000000000E+20
 20
1.000000000000000E+20
 30
1.000000000000000E+20
  9
$PEXTMAX
 10
-1.000000000000000E+20
 20
-1.000000000000000E+20
 30
-1.000000000000000E+20
  9
$PLIMMIN
 10
0.0
 20
0.0
  9
$PLIMMAX
 10
12.0
 20
9.0
  9
$UNITMODE
 70
     0
  9
$VISRETAIN
 70
     1
  9
$PLINEGEN
 70
     0
  9
$PSLTSCALE
 70
     1
  9
$TREEDEPTH
 70
  3020
  9
$CMLSTYLE
  2
Standard
  9
$CMLJUST
 70
     0
  9
$CMLSCALE
 40
1.0
  9
$PROXYGRAPHICS
 70
     1
  9
$MEASUREMENT
 70
     0
  9
$CELWEIGHT
370
    -1
  9
$ENDCAPS
280
     0
  9
$JOINSTYLE
280
     0
  9
$LWDISPLAY
290
     1
  9
$INSUNITS
 70
     1
  9
$HYPERLINKBASE
  1

  9
$STYLESHEET
  1

  9
$XEDIT
290
     1
  9
$CEPSNTYPE
380
     0
  9
$PSTYLEMODE
290
     1
  9
$FINGERPRINTGUID
  2
{6D6C6377-E1C8-D16E-8F8D-E4D487128EB6}
  9
$VERSIONGUID
  2
{FAEB1C32-E019-11D5-929B-00C0DF256EC4}
  9
$EXTNAMES
290
     1
  9
$PSVPSCALE
 40
0.0
  9
$OLESTARTUP
290
     0
  9
$SORTENTS
280
   127
  9
$INDEXCTL
280
     0
  9
$HIDETEXT
280
     1
  9
$XCLIPFRAME
280
     2
  9
$HALOGAP
280
     0
  9
$OBSCOLOR
 70
   257
  9
$OBSLTYPE
280
     0
  9
$INTERSECTIONDISPLAY
280
     0
  9
$INTERSECTIONCOLOR
 70
   257
  9
$DIMASSOC
280
     2
  9
$PROJECTNAME
  1

  9
$CAMERADISPLAY
290
     0
  9
$LENSLENGTH
 40
50.0
  9
$CAMERAHEIGHT
 40
0.0
  9
$STEPSPERSEC
 40
2.0
  9
$STEPSIZE
 40
6.0
  9
$3DDWFPREC
 40
2.0
  9
$PSOLWIDTH
 40
0.25
  9
$PSOLHEIGHT
 40
4.0
  9
$LOFTANG1
 40
1.570796326794897
  9
$LOFTANG2
 40
1.570796326794897
  9
$LOFTMAG1
 40
0.0
  9
$LOFTMAG2
 40
0.0
  9
$LOFTPARAM
 70
     7
  9
$LOFTNORMALS
280
     1
  9
$LATITUDE
 40
37.795
  9
$LONGITUDE
 40
-122.394
  9
$NORTHDIRECTION
 40
0.0
  9
$TIMEZONE
 70
 -8000
  9
$LIGHTGLYPHDISPLAY
280
     1
  9
$TILEMODELIGHTSYNCH
280
     1
  9
$CMATERIAL
347
3C
  9
$SOLIDHIST
280
     1
  9
$SHOWHIST
280
     1
  9
$DWFFRAME
280
     2
  9
$DGNFRAME
280
     2
  9
$REALWORLDSCALE
290
     1
  9
$INTERFERECOLOR
 62
   256
  9
$CSHADOW
280
     0
  9
$SHADOWPLANELOCATION
 40
0.0
  0
ENDSEC
  0
SECTION
  2
CLASSES
  0
CLASS
  1
ACDBDICTIONARYWDFLT
  2
AcDbDictionaryWithDefault
  3
ObjectDBX Classes
 90
        0
 91
        4
280
     0
281
     0
  0
CLASS
  1
VISUALSTYLE
  2
AcDbVisualStyle
  3
ObjectDBX Classes
 90
     4095
 91
        4
280
     0
281
     0
  0
CLASS
  1
MATERIAL
  2
AcDbMaterial
  3
ObjectDBX Classes
 90
     1153
 91
        4
280
     0
281
     0
  0
CLASS
  1
SUN
  2
AcDbSun
  3
SCENEOE
 90
     1024
 91
        4
280
     0
281
     0
  0
ENDSEC
  0
SECTION
  2
TABLES
  0
TABLE
  2
VPORT
  5
8
330
0
100
AcDbSymbolTable
 70
     1
  0
VPORT
  5
29
330
8
100
AcDbSymbolTableRecord
100
AcDbViewportTableRecord
  2
*Active
 70
     0
 10
0.0
 20
0.0
 11
1.0
 21
1.0
 12
0.0
 22
0.0
 13
0.0
 23
0.0
 14
0.5
 24
0.5
 15
0.5
 25
0.5
 16
0.0
 26
0.0
 36
1.0
 17
91.00082462281999
 27
-128.4993055234307
 37
0.0
 40
256.9986110468615
 41
0.7081814508812795
 42
50.0
 43
0.0
 44
0.0
 50
0.0
 51
0.0
 71
     0
 72
   100
 73
     1
 74
     3
 75
     0
 76
     0
 77
     0
 78
     0
281
     0
 65
     1
110
0.0
120
0.0
130
0.0
111
1.0
121
0.0
131
0.0
112
0.0
122
1.0
132
0.0
 79
     0
146
0.0
 60
     3
 61
     5
292
     1
282
     1
141
0.0
142
0.0
 63
   250
361
3F
  0
ENDTAB
  0
TABLE
  2
LTYPE
  5
5
330
0
100
AcDbSymbolTable
 70
     1
  0
LTYPE
  5
14
330
5
100
AcDbSymbolTableRecord
100
AcDbLinetypeTableRecord
  2
ByBlock
 70
     0
  3

 72
    65
 73
     0
 40
0.0
  0
LTYPE
  5
15
330
5
100
AcDbSymbolTableRecord
100
AcDbLinetypeTableRecord
  2
ByLayer
 70
     0
  3

 72
    65
 73
     0
 40
0.0
  0
LTYPE
  5
16
330
5
100
AcDbSymbolTableRecord
100
AcDbLinetypeTableRecord
  2
Continuous
 70
     0
  3
Solid line
 72
    65
 73
     0
 40
0.0
  0
ENDTAB
  0
TABLE
  2
LAYER
  5
2
330
0
100
AcDbSymbolTable
 70
     2
  0
LAYER
  5
10
330
2
100
AcDbSymbolTableRecord
100
AcDbLayerTableRecord
  2
0
 70
     0
 62
     7
  6
Continuous
370
    -3
390
F
347
3E
  0
LAYER
  5
40
330
2
100
AcDbSymbolTableRecord
100
AcDbLayerTableRecord
  2
_U+30EC_U+30A4_U+30E4_U+30FC 1
 70
     0
 62
     7
  6
Continuous
370
    -3
390
F
347
3E
  0
ENDTAB
  0
TABLE
  2
STYLE
  5
3
330
0
100
AcDbSymbolTable
 70
     1
  0
STYLE
  5
11
330
3
100
AcDbSymbolTableRecord
100
AcDbTextStyleTableRecord
  2
Standard
 70
     0
 40
0.0
 41
1.0
 50
0.0
 71
     0
 42
0.2
  3
txt
  4

  0
ENDTAB
  0
TABLE
  2
VIEW
  5
6
330
0
100
AcDbSymbolTable
 70
     0
  0
ENDTAB
  0
TABLE
  2
UCS
  5
7
330
0
100
AcDbSymbolTable
 70
     0
  0
ENDTAB
  0
TABLE
  2
APPID
  5
9
330
0
100
AcDbSymbolTable
 70
     1
  0
APPID
  5
12
330
9
100
AcDbSymbolTableRecord
100
AcDbRegAppTableRecord
  2
ACAD
 70
     0
  0
ENDTAB
  0
TABLE
  2
DIMSTYLE
  5
A
330
0
100
AcDbSymbolTable
 70
     1
100
AcDbDimStyleTable
  0
DIMSTYLE
105
27
330
A
100
AcDbSymbolTableRecord
100
AcDbDimStyleTableRecord
  2
Standard
 70
     0
178
     0
340
11
  0
ENDTAB
  0
TABLE
  2
BLOCK_RECORD
  5
1
330
0
100
AcDbSymbolTable
 70
     5
  0
BLOCK_RECORD
  5
1F
330
1
100
AcDbSymbolTableRecord
100
AcDbBlockTableRecord
  2
*Model_Space
340
22
 70
     0
280
     1
281
     0
  0
BLOCK_RECORD
  5
1B
330
1
100
AcDbSymbolTableRecord
100
AcDbBlockTableRecord
  2
*Paper_Space
340
1E
 70
     0
280
     1
281
     0
  0
BLOCK_RECORD
  5
23
330
1
100
AcDbSymbolTableRecord
100
AcDbBlockTableRecord
  2
*Paper_Space0
340
26
 70
     0
280
     1
281
     0
  0
BLOCK_RECORD
  5
80
330
1
100
AcDbSymbolTableRecord
100
AcDbBlockTableRecord
  2
block 2
340
0
102
{BLKREFS
331
81
102
}
 70
     0
280
     1
281
     0
  0
BLOCK_RECORD
  5
94
330
1
100
AcDbSymbolTableRecord
100
AcDbBlockTableRecord
  2
block 3
340
0
102
{BLKREFS
331
95
102
}
 70
     0
280
     1
281
     0
  0
BLOCK_RECORD
  5
B7
330
1
100
AcDbSymbolTableRecord
100
AcDbBlockTableRecord
  2
block 4
340
0
102
{BLKREFS
331
B8
102
}
 70
     0
280
     1
281
     0
  0
BLOCK_RECORD
  5
D3
330
1
100
AcDbSymbolTableRecord
100
AcDbBlockTableRecord
  2
block 5
340
0
102
{BLKREFS
331
D4
102
}
 70
     0
280
     1
281
     0
  0
ENDTAB
  0
ENDSEC
  0
SECTION
  2
BLOCKS
  0
BLOCK
  5
20
330
1F
100
AcDbEntity
  8
0
100
AcDbBlockBegin
  2
*Model_Space
 70
     0
 10
0.0
 20
0.0
 30
0.0
  3
*Model_Space
  1

  0
ENDBLK
  5
21
330
1F
100
AcDbEntity
  8
0
100
AcDbBlockEnd
  0
BLOCK
  5
1C
330
1B
100
AcDbEntity
 67
     1
  8
0
100
AcDbBlockBegin
  2
*Paper_Space
 70
     0
 10
0.0
 20
0.0
 30
0.0
  3
*Paper_Space
  1

  0
ENDBLK
  5
1D
330
1B
100
AcDbEntity
 67
     1
  8
0
100
AcDbBlockEnd
  0
BLOCK
  5
24
330
23
100
AcDbEntity
  8
0
100
AcDbBlockBegin
  2
*Paper_Space0
 70
     0
 10
0.0
 20
0.0
 30
0.0
  3
*Paper_Space0
  1

  0
ENDBLK
  5
25
330
23
100
AcDbEntity
  8
0
100
AcDbBlockEnd
  0
BLOCK
  5
82
330
80
100
AcDbEntity
  8
0
100
AcDbBlockBegin
  2
block 2
 70
     0
 10
0.0
 20
0.0
 30
0.0
  3
block 2
  1

  0
SPLINE
  5
84
330
80
100
AcDbEntity
  8
_U+30EC_U+30A4_U+30E4_U+30FC 1
370
     0
100
AcDbSpline
210
0.0
220
0.0
230
1.0
 70
    11
 71
     3
 72
    44
 73
    40
 74
     0
 42
0.0000000001
 43
0.0000000001
 12
1.0
 22
0.0
 32
0.0
 13
1.0
 23
0.0
 33
0.0
 40
0.0
 40
0.0
 40
0.0
 40
0.0
 40
1.0
 40
1.0
 40
1.0
 40
2.0
 40
2.0
 40
2.0
 40
3.0
 40
3.0
 40
3.0
 40
4.0
 40
4.0
 40
4.0
 40
5.0
 40
5.0
 40
5.0
 40
6.0
 40
6.0
 40
6.0
 40
7.0
 40
7.0
 40
7.0
 40
8.0
 40
8.0
 40
8.0
 40
9.0
 40
9.0
 40
9.0
 40
10.0
 40
10.0
 40
10.0
 40
11.0
 40
11.0
 40
11.0
 40
12.0
 40
12.0
 40
12.0
 40
13.0
 40
13.0
 40
13.0
 40
13.0
 10
75.43708358574143
 20
-158.7799722910342
 30
0.0
 10
75.20212807364739
 20
-158.9511935366511
 30
0.0
 10
75.10170354025236
 20
-159.0311197519089
 30
0.0
 10
75.0491658341023
 20
-159.1861490487451
 30
0.0
 10
75.0491658341023
 20
-159.1861490487451
 30
0.0
 10
75.88908011340621
 20
-159.1861490487451
 30
0.0
 10
75.88908011340621
 20
-159.1861490487451
 30
0.0
 10
75.88908011340621
 20
-159.1861490487451
 30
0.0
 10
75.88908011340621
 20
-159.4076686884467
 30
0.0
 10
75.88908011340621
 20
-159.4076686884467
 30
0.0
 10
75.88908011340621
 20
-159.4076686884467
 30
0.0
 10
74.77975936715576
 20
-159.4076686884467
 30
0.0
 10
74.77975936715576
 20
-159.4076686884467
 30
0.0
 10
74.814038067234
 20
-159.0218179940987
 30
0.0
 10
74.88483477945587
 20
-158.9374131547101
 30
0.0
 10
75.300313294977
 20
-158.6156412363878
 30
0.0
 10
75.57643769811979
 20
-158.4010117876567
 30
0.0
 10
75.64723441034167
 20
-158.3279757633694
 30
0.0
 10
75.64723441034167
 20
-158.1798366575037
 30
0.0
 10
75.64723441034167
 20
-158.0520236150009
 30
0.0
 10
75.56954750714928
 20
-157.9104301905571
 30
0.0
 10
75.35732962525789
 20
-157.9104301905571
 30
0.0
 10
75.07655434321003
 20
-157.9104301905571
 30
0.0
 10
75.06742484017411
 20
-158.1591660845922
 30
0.0
 10
75.0629462160433
 20
-158.2849120698038
 30
0.0
 10
75.0629462160433
 20
-158.2849120698038
 30
0.0
 10
74.82092825820449
 20
-158.2849120698038
 30
0.0
 10
74.82092825820449
 20
-158.2849120698038
 30
0.0
 10
74.83005776124041
 20
-158.1477972694908
 30
0.0
 10
74.84142657634173
 20
-158.0268744179586
 30
0.0
 10
74.92824298257003
 20
-157.8990613754558
 30
0.0
 10
75.04692652203688
 20
-157.7254285629992
 30
0.0
 10
75.24777558882695
 20
-157.6889105508556
 30
0.0
 10
75.3733493192643
 20
-157.6889105508556
 30
0.0
 10
75.67221135260972
 20
-157.6889105508556
 30
0.0
 10
75.8959703043767
 20
-157.8876925603545
 30
0.0
 10
75.8959703043767
 20
-158.1819037147948
 30
0.0
 10
75.8959703043767
 20
-158.4285725515387
 30
0.0
 10
75.77039657393935
 20
-158.53571502113
 30
0.0
 10
75.43708358574143
 20
-158.7799722910342
 30
0.0
  0
HATCH
  5
85
330
80
100
AcDbEntity
  8
_U+30EC_U+30A4_U+30E4_U+30FC 1
 62
   179
420
  2234388
100
AcDbHatch
 10
0.0
 20
0.0
 30
0.0
210
0.0
220
0.0
230
1.0
  2
SOLID
 70
     1
 71
     0
 91
        1
 92
        1
 93
        1
 72
     4
 94
        3
 73
     0
 74
     1
 95
       44
 96
       40
 40
0.0
 40
0.0
 40
0.0
 40
0.0
 40
1.0
 40
1.0
 40
1.0
 40
2.0
 40
2.0
 40
2.0
 40
3.0
 40
3.0
 40
3.0
 40
4.0
 40
4.0
 40
4.0
 40
5.0
 40
5.0
 40
5.0
 40
6.0
 40
6.0
 40
6.0
 40
7.0
 40
7.0
 40
7.0
 40
8.0
 40
8.0
 40
8.0
 40
9.0
 40
9.0
 40
9.0
 40
10.0
 40
10.0
 40
10.0
 40
11.0
 40
11.0
 40
11.0
 40
12.0
 40
12.0
 40
12.0
 40
13.0
 40
13.0
 40
13.0
 40
13.0
 10
75.43708358574143
 20
-158.7799722910342
 10
75.20212807364739
 20
-158.9511935366511
 10
75.10170354025236
 20
-159.0311197519089
 10
75.0491658341023
 20
-159.1861490487451
 10
75.0491658341023
 20
-159.1861490487451
 10
75.88908011340621
 20
-159.1861490487451
 10
75.88908011340621
 20
-159.1861490487451
 10
75.88908011340621
 20
-159.1861490487451
 10
75.88908011340621
 20
-159.4076686884467
 10
75.88908011340621
 20
-159.4076686884467
 10
75.88908011340621
 20
-159.4076686884467
 10
74.77975936715576
 20
-159.4076686884467
 10
74.77975936715576
 20
-159.4076686884467
 10
74.814038067234
 20
-159.0218179940987
 10
74.88483477945587
 20
-158.9374131547101
 10
75.300313294977
 20
-158.6156412363878
 10
75.57643769811979
 20
-158.4010117876567
 10
75.64723441034167
 20
-158.3279757633694
 10
75.64723441034167
 20
-158.1798366575037
 10
75.64723441034167
 20
-158.0520236150009
 10
75.56954750714928
 20
-157.9104301905571
 10
75.35732962525789
 20
-157.9104301905571
 10
75.07655434321003
 20
-157.9104301905571
 10
75.06742484017411
 20
-158.1591660845922
 10
75.0629462160433
 20
-158.2849120698038
 10
75.0629462160433
 20
-158.2849120698038
 10
74.82092825820449
 20
-158.2849120698038
 10
74.82092825820449
 20
-158.2849120698038
 10
74.83005776124041
 20
-158.1477972694908
 10
74.84142657634173
 20
-158.0268744179586
 10
74.92824298257003
 20
-157.8990613754558
 10
75.04692652203688
 20
-157.7254285629992
 10
75.24777558882695
 20
-157.6889105508556
 10
75.3733493192643
 20
-157.6889105508556
 10
75.67221135260972
 20
-157.6889105508556
 10
75.8959703043767
 20
-157.8876925603545
 10
75.8959703043767
 20
-158.1819037147948
 10
75.8959703043767
 20
-158.4285725515387
 10
75.77039657393935
 20
-158.53571502113
 10
75.43708358574143
 20
-158.7799722910342
 97
        0
 97
        0
 75
     2
 76
     1
 98
        0
  0
SPLINE
  5
86
330
80
100
AcDbEntity
  8
_U+30EC_U+30A4_U+30E4_U+30FC 1
370
     0
100
AcDbSpline
210
0.0
220
0.0
230
1.0
 70
    11
 71
     3
 72
    53
 73
    49
 74
     0
 42
0.0000000001
 43
0.0000000001
 12
1.0
 22
0.0
 32
0.0
 13
1.0
 23
0.0
 33
0.0
 40
0.0
 40
0.0
 40
0.0
 40
0.0
 40
1.0
 40
1.0
 40
1.0
 40
2.0
 40
2.0
 40
2.0
 40
3.0
 40
3.0
 40
3.0
 40
4.0
 40
4.0
 40
4.0
 40
5.0
 40
5.0
 40
5.0
 40
6.0
 40
6.0
 40
6.0
 40
7.0
 40
7.0
 40
7.0
 40
8.0
 40
8.0
 40
8.0
 40
9.0
 40
9.0
 40
9.0
 40
10.0
 40
10.0
 40
10.0
 40
11.0
 40
11.0
 40
11.0
 40
12.0
 40
12.0
 40
12.0
 40
13.0
 40
13.0
 40
13.0
 40
14.0
 40
14.0
 40
14.0
 40
15.0
 40
15.0
 40
15.0
 40
16.0
 40
16.0
 40
16.0
 40
16.0
 10
76.58653969439503
 20
-159.4624457066622
 30
0.0
 10
76.50213485500642
 20
-159.4624457066622
 30
0.0
 10
76.39258081857547
 20
-159.4441867005903
 30
0.0
 10
76.28302678214452
 20
-159.3756293004339
 30
0.0
 10
76.0957858425212
 20
-159.2571180157413
 30
0.0
 10
76.07304821231855
 20
-159.1155245912975
 30
0.0
 10
76.05254989418131
 20
-158.9990803638961
 30
0.0
 10
76.05254989418131
 20
-158.9990803638961
 30
0.0
 10
76.29215628518044
 20
-158.9990803638961
 30
0.0
 10
76.29215628518044
 20
-158.9990803638961
 30
0.0
 10
76.35141192752674
 20
-159.2137098126271
 30
0.0
 10
76.48852672783968
 20
-159.2457492006399
 30
0.0
 10
76.58877900646044
 20
-159.2457492006399
 30
0.0
 10
76.73950193394013
 20
-159.2457492006399
 30
0.0
 10
76.90383298858654
 20
-159.1382622215002
 30
0.0
 10
76.90383298858654
 20
-158.8871147606255
 30
0.0
 10
76.90383298858654
 20
-158.6111626122569
 30
0.0
 10
76.70987411276698
 20
-158.53571502113
 30
0.0
 10
76.5798217581988
 20
-158.53571502113
 30
0.0
 10
76.54554305812056
 20
-158.53571502113
 30
0.0
 10
76.39258081857547
 20
-158.53571502113
 30
0.0
 10
76.29663490931127
 20
-158.6748968787341
 30
0.0
 10
76.29663490931127
 20
-158.6748968787341
 30
0.0
 10
76.10732691239679
 20
-158.6545708153711
 30
0.0
 10
76.10732691239679
 20
-158.6545708153711
 30
0.0
 10
76.10732691239679
 20
-158.6545708153711
 30
0.0
 10
76.23737926696496
 20
-157.7416205117799
 30
0.0
 10
76.23737926696496
 20
-157.7416205117799
 30
0.0
 10
76.23737926696496
 20
-157.7416205117799
 30
0.0
 10
77.07729354626888
 20
-157.7416205117799
 30
0.0
 10
77.07729354626888
 20
-157.7416205117799
 30
0.0
 10
77.07729354626888
 20
-157.7416205117799
 30
0.0
 10
77.07729354626888
 20
-157.9514268268316
 30
0.0
 10
77.07729354626888
 20
-157.9514268268316
 30
0.0
 10
77.07729354626888
 20
-157.9514268268316
 30
0.0
 10
76.41307913671271
 20
-157.9514268268316
 30
0.0
 10
76.41307913671271
 20
-157.9514268268316
 30
0.0
 10
76.41307913671271
 20
-157.9514268268316
 30
0.0
 10
76.34245467926509
 20
-158.4079019786272
 30
0.0
 10
76.34245467926509
 20
-158.4079019786272
 30
0.0
 10
76.40860051258188
 20
-158.3713839664836
 30
0.0
 10
76.49748397610132
 20
-158.3279757633694
 30
0.0
 10
76.6252970186041
 20
-158.3279757633694
 30
0.0
 10
76.89918210968146
 20
-158.3279757633694
 30
0.0
 10
77.15480819468699
 20
-158.5288248301595
 30
0.0
 10
77.15480819468699
 20
-158.8667886972625
 30
0.0
 10
77.15480819468699
 20
-159.2092311884963
 30
0.0
 10
76.91296249162245
 20
-159.4624457066622
 30
0.0
 10
76.58653969439503
 20
-159.4624457066622
 30
0.0
  0
HATCH
  5
87
330
80
100
AcDbEntity
  8
_U+30EC_U+30A4_U+30E4_U+30FC 1
 62
   179
420
  2234388
100
AcDbHatch
 10
0.0
 20
0.0
 30
0.0
210
0.0
220
0.0
230
1.0
  2
SOLID
 70
     1
 71
     0
 91
        1
 92
        1
 93
        1
 72
     4
 94
        3
 73
     0
 74
     1
 95
       53
 96
       49
 40
0.0
 40
0.0
 40
0.0
 40
0.0
 40
1.0
 40
1.0
 40
1.0
 40
2.0
 40
2.0
 40
2.0
 40
3.0
 40
3.0
 40
3.0
 40
4.0
 40
4.0
 40
4.0
 40
5.0
 40
5.0
 40
5.0
 40
6.0
 40
6.0
 40
6.0
 40
7.0
 40
7.0
 40
7.0
 40
8.0
 40
8.0
 40
8.0
 40
9.0
 40
9.0
 40
9.0
 40
10.0
 40
10.0
 40
10.0
 40
11.0
 40
11.0
 40
11.0
 40
12.0
 40
12.0
 40
12.0
 40
13.0
 40
13.0
 40
13.0
 40
14.0
 40
14.0
 40
14.0
 40
15.0
 40
15.0
 40
15.0
 40
16.0
 40
16.0
 40
16.0
 40
16.0
 10
76.58653969439503
 20
-159.4624457066622
 10
76.50213485500642
 20
-159.4624457066622
 10
76.39258081857547
 20
-159.4441867005903
 10
76.28302678214452
 20
-159.3756293004339
 10
76.0957858425212
 20
-159.2571180157413
 10
76.07304821231855
 20
-159.1155245912975
 10
76.05254989418131
 20
-158.9990803638961
 10
76.05254989418131
 20
-158.9990803638961
 10
76.29215628518044
 20
-158.9990803638961
 10
76.29215628518044
 20
-158.9990803638961
 10
76.35141192752674
 20
-159.2137098126271
 10
76.48852672783968
 20
-159.2457492006399
 10
76.58877900646044
 20
-159.2457492006399
 10
76.73950193394013
 20
-159.2457492006399
 10
76.90383298858654
 20
-159.1382622215002
 10
76.90383298858654
 20
-158.8871147606255
 10
76.90383298858654
 20
-158.6111626122569
 10
76.70987411276698
 20
-158.53571502113
 10
76.5798217581988
 20
-158.53571502113
 10
76.54554305812056
 20
-158.53571502113
 10
76.39258081857547
 20
-158.53571502113
 10
76.29663490931127
 20
-158.6748968787341
 10
76.29663490931127
 20
-158.6748968787341
 10
76.10732691239679
 20
-158.6545708153711
 10
76.10732691239679
 20
-158.6545708153711
 10
76.10732691239679
 20
-158.6545708153711
 10
76.23737926696496
 20
-157.7416205117799
 10
76.23737926696496
 20
-157.7416205117799
 10
76.23737926696496
 20
-157.7416205117799
 10
77.07729354626888
 20
-157.7416205117799
 10
77.07729354626888
 20
-157.7416205117799
 10
77.07729354626888
 20
-157.7416205117799
 10
77.07729354626888
 20
-157.9514268268316
 10
77.07729354626888
 20
-157.9514268268316
 10
77.07729354626888
 20
-157.9514268268316
 10
76.41307913671271
 20
-157.9514268268316
 10
76.41307913671271
 20
-157.9514268268316
 10
76.41307913671271
 20
-157.9514268268316
 10
76.34245467926509
 20
-158.4079019786272
 10
76.34245467926509
 20
-158.4079019786272
 10
76.40860051258188
 20
-158.3713839664836
 10
76.49748397610132
 20
-158.3279757633694
 10
76.6252970186041
 20
-158.3279757633694
 10
76.89918210968146
 20
-158.3279757633694
 10
77.15480819468699
 20
-158.5288248301595
 10
77.15480819468699
 20
-158.8667886972625
 10
77.15480819468699
 20
-159.2092311884963
 10
76.91296249162245
 20
-159.4624457066622
 10
76.58653969439503
 20
-159.4624457066622
 97
        0
 97
        0
 75
     2
 76
     1
 98
        0
  0
ENDBLK
  5
83
330
80
100
AcDbEntity
  8
0
100
AcDbBlockEnd
  0
BLOCK
  5
96
330
94
100
AcDbEntity
  8
0
100
AcDbBlockBegin
  2
block 3
 70
     0
 10
0.0
 20
0.0
 30
0.0
  3
block 3
  1

  0
POLYLINE
  5
98
330
94
100
AcDbEntity
  8
_U+30EC_U+30A4_U+30E4_U+30FC 1
370
     0
100
AcDb2dPolyline
 66
     1
 10
0.0
 20
0.0
 30
0.0
  0
VERTEX
  5
99
330
98
100
AcDbEntity
  8
_U+30EC_U+30A4_U+30E4_U+30FC 1
370
     0
100
AcDbVertex
100
AcDb2dVertex
 10
85.69502764784708
 20
-98.63342825225136
 30
0.0
  0
VERTEX
  5
9A
330
98
100
AcDbEntity
  8
_U+30EC_U+30A4_U+30E4_U+30FC 1
370
     0
100
AcDbVertex
100
AcDb2dVertex
 10
85.69502764784708
 20
-99.00773787672377
 30
0.0
  0
VERTEX
  5
9B
330
98
100
AcDbEntity
  8
_U+30EC_U+30A4_U+30E4_U+30FC 1
370
     0
100
AcDbVertex
100
AcDb2dVertex
 10
85.45989988097878
 20
-99.00773787672377
 30
0.0
  0
VERTEX
  5
9C
330
98
100
AcDbEntity
  8
_U+30EC_U+30A4_U+30E4_U+30FC 1
370
     0
100
AcDbVertex
100
AcDb2dVertex
 10
85.45989988097878
 20
-98.63342825225136
 30
0.0
  0
VERTEX
  5
9D
330
98
100
AcDbEntity
  8
_U+30EC_U+30A4_U+30E4_U+30FC 1
370
     0
100
AcDbVertex
100
AcDb2dVertex
 10
84.75227726830846
 20
-98.63342825225136
 30
0.0
  0
VERTEX
  5
9E
330
98
100
AcDbEntity
  8
_U+30EC_U+30A4_U+30E4_U+30FC 1
370
     0
100
AcDbVertex
100
AcDb2dVertex
 10
84.75227726830846
 20
-98.39158254918684
 30
0.0
  0
VERTEX
  5
9F
330
98
100
AcDbEntity
  8
_U+30EC_U+30A4_U+30E4_U+30FC 1
370
     0
100
AcDbVertex
100
AcDb2dVertex
 10
85.4850490780211
 20
-97.34151744528268
 30
0.0
  0
VERTEX
  5
A0
330
98
100
AcDbEntity
  8
_U+30EC_U+30A4_U+30E4_U+30FC 1
370
     0
100
AcDbVertex
100
AcDb2dVertex
 10
85.69502764784708
 20
-97.34151744528268
 30
0.0
  0
VERTEX
  5
A1
330
98
100
AcDbEntity
  8
_U+30EC_U+30A4_U+30E4_U+30FC 1
370
     0
100
AcDbVertex
100
AcDb2dVertex
 10
85.69502764784708
 20
-98.4187988035203
 30
0.0
  0
VERTEX
  5
A2
330
98
100
AcDbEntity
  8
_U+30EC_U+30A4_U+30E4_U+30FC 1
370
     0
100
AcDbVertex
100
AcDb2dVertex
 10
85.9186143448398
 20
-98.4187988035203
 30
0.0
  0
VERTEX
  5
A3
330
98
100
AcDbEntity
  8
_U+30EC_U+30A4_U+30E4_U+30FC 1
370
     0
100
AcDbVertex
100
AcDb2dVertex
 10
85.9186143448398
 20
-98.63342825225136
 30
0.0
  0
VERTEX
  5
A4
330
98
100
AcDbEntity
  8
_U+30EC_U+30A4_U+30E4_U+30FC 1
370
     0
100
AcDbVertex
100
AcDb2dVertex
 10
85.69502764784708
 20
-98.63342825225136
 30
0.0
  0
SEQEND
  5
A5
330
98
100
AcDbEntity
  8
_U+30EC_U+30A4_U+30E4_U+30FC 1
370
     0
  0
POLYLINE
  5
A6
330
94
100
AcDbEntity
  8
_U+30EC_U+30A4_U+30E4_U+30FC 1
370
     0
100
AcDb2dPolyline
 66
     1
 10
0.0
 20
0.0
 30
0.0
  0
VERTEX
  5
A7
330
A6
100
AcDbEntity
  8
_U+30EC_U+30A4_U+30E4_U+30FC 1
370
     0
100
AcDbVertex
100
AcDb2dVertex
 10
85.45989988097878
 20
-97.71134844562425
 30
0.0
  0
VERTEX
  5
A8
330
A6
100
AcDbEntity
  8
_U+30EC_U+30A4_U+30E4_U+30FC 1
370
     0
100
AcDbVertex
100
AcDb2dVertex
 10
84.96690671703952
 20
-98.4187988035203
 30
0.0
  0
VERTEX
  5
A9
330
A6
100
AcDbEntity
  8
_U+30EC_U+30A4_U+30E4_U+30FC 1
370
     0
100
AcDbVertex
100
AcDb2dVertex
 10
85.45989988097878
 20
-98.4187988035203
 30
0.0
  0
VERTEX
  5
AA
330
A6
100
AcDbEntity
  8
_U+30EC_U+30A4_U+30E4_U+30FC 1
370
     0
100
AcDbVertex
100
AcDb2dVertex
 10
85.45989988097878
 20
-97.71134844562425
 30
0.0
  0
SEQEND
  5
AB
330
A6
100
AcDbEntity
  8
_U+30EC_U+30A4_U+30E4_U+30FC 1
370
     0
  0
HATCH
  5
AC
330
94
100
AcDbEntity
  8
_U+30EC_U+30A4_U+30E4_U+30FC 1
 62
   179
420
  2234388
100
AcDbHatch
 10
0.0
 20
0.0
 30
0.0
210
0.0
220
0.0
230
1.0
  2
SOLID
 70
     1
 71
     0
 91
        2
 92
        1
 93
       11
 72
     1
 10
85.69502764784708
 20
-98.63342825225136
 11
85.69502764784708
 21
-99.00773787672377
 72
     1
 10
85.69502764784708
 20
-99.00773787672377
 11
85.45989988097878
 21
-99.00773787672377
 72
     1
 10
85.45989988097878
 20
-99.00773787672377
 11
85.45989988097878
 21
-98.63342825225136
 72
     1
 10
85.45989988097878
 20
-98.63342825225136
 11
84.75227726830846
 21
-98.63342825225136
 72
     1
 10
84.75227726830846
 20
-98.63342825225136
 11
84.75227726830846
 21
-98.39158254918684
 72
     1
 10
84.75227726830846
 20
-98.39158254918684
 11
85.4850490780211
 21
-97.34151744528268
 72
     1
 10
85.4850490780211
 20
-97.34151744528268
 11
85.69502764784708
 21
-97.34151744528268
 72
     1
 10
85.69502764784708
 20
-97.34151744528268
 11
85.69502764784708
 21
-98.4187988035203
 72
     1
 10
85.69502764784708
 20
-98.4187988035203
 11
85.9186143448398
 21
-98.4187988035203
 72
     1
 10
85.9186143448398
 20
-98.4187988035203
 11
85.9186143448398
 21
-98.63342825225136
 72
     1
 10
85.9186143448398
 20
-98.63342825225136
 11
85.69502764784708
 21
-98.63342825225136
 97
        0
 92
        1
 93
        3
 72
     1
 10
85.45989988097878
 20
-97.71134844562425
 11
84.96690671703952
 21
-98.4187988035203
 72
     1
 10
84.96690671703952
 20
-98.4187988035203
 11
85.45989988097878
 21
-98.4187988035203
 72
     1
 10
85.45989988097878
 20
-98.4187988035203
 11
85.45989988097878
 21
-97.71134844562425
 97
        0
 75
     2
 76
     1
 98
        0
  0
SPLINE
  5
AD
330
94
100
AcDbEntity
  8
_U+30EC_U+30A4_U+30E4_U+30FC 1
370
     0
100
AcDbSpline
210
0.0
220
0.0
230
1.0
 70
    11
 71
     3
 72
    53
 73
    49
 74
     0
 42
0.0000000001
 43
0.0000000001
 12
1.0
 22
0.0
 32
0.0
 13
1.0
 23
0.0
 33
0.0
 40
0.0
 40
0.0
 40
0.0
 40
0.0
 40
1.0
 40
1.0
 40
1.0
 40
2.0
 40
2.0
 40
2.0
 40
3.0
 40
3.0
 40
3.0
 40
4.0
 40
4.0
 40
4.0
 40
5.0
 40
5.0
 40
5.0
 40
6.0
 40
6.0
 40
6.0
 40
7.0
 40
7.0
 40
7.0
 40
8.0
 40
8.0
 40
8.0
 40
9.0
 40
9.0
 40
9.0
 40
10.0
 40
10.0
 40
10.0
 40
11.0
 40
11.0
 40
11.0
 40
12.0
 40
12.0
 40
12.0
 40
13.0
 40
13.0
 40
13.0
 40
14.0
 40
14.0
 40
14.0
 40
15.0
 40
15.0
 40
15.0
 40
16.0
 40
16.0
 40
16.0
 40
16.0
 10
86.58644610465548
 20
-99.06251489493924
 30
0.0
 10
86.50204126526685
 20
-99.06251489493924
 30
0.0
 10
86.3924872288359
 20
-99.04425588886741
 30
0.0
 10
86.28293319240497
 20
-98.9758707434852
 30
0.0
 10
86.0958645075559
 20
-98.85701494924409
 30
0.0
 10
86.07295462257899
 20
-98.71559377957458
 30
0.0
 10
86.05245630444175
 20
-98.59914955217313
 30
0.0
 10
86.05245630444175
 20
-98.59914955217313
 30
0.0
 10
86.29189044066662
 20
-98.59914955217313
 30
0.0
 10
86.29189044066662
 20
-98.59914955217313
 30
0.0
 10
86.35149059256143
 20
-98.8137790009042
 30
0.0
 10
86.48826088332585
 20
-98.84564613414275
 30
0.0
 10
86.58885767149515
 20
-98.84564613414275
 30
0.0
 10
86.73940834420057
 20
-98.84564613414275
 30
0.0
 10
86.90373939884698
 20
-98.73850366455149
 30
0.0
 10
86.90373939884698
 20
-98.48735620367678
 30
0.0
 10
86.90373939884698
 20
-98.21123180053401
 30
0.0
 10
86.70978052302742
 20
-98.13595646418129
 30
0.0
 10
86.57955591368497
 20
-98.13595646418129
 30
0.0
 10
86.54544946838101
 20
-98.13595646418129
 30
0.0
 10
86.3924872288359
 20
-98.13595646418129
 30
0.0
 10
86.29671357434596
 20
-98.27513832178539
 30
0.0
 10
86.29671357434596
 20
-98.27513832178539
 30
0.0
 10
86.10723332265722
 20
-98.25446774887389
 30
0.0
 10
86.10723332265722
 20
-98.25446774887389
 30
0.0
 10
86.10723332265722
 20
-98.25446774887389
 30
0.0
 10
86.23745793199967
 20
-97.34151744528268
 30
0.0
 10
86.23745793199967
 20
-97.34151744528268
 30
0.0
 10
86.23745793199967
 20
-97.34151744528268
 30
0.0
 10
87.07737221130358
 20
-97.34151744528268
 30
0.0
 10
87.07737221130358
 20
-97.34151744528268
 30
0.0
 10
87.07737221130358
 20
-97.34151744528268
 30
0.0
 10
87.07737221130358
 20
-97.55166826988292
 30
0.0
 10
87.07737221130358
 20
-97.55166826988292
 30
0.0
 10
87.07737221130358
 20
-97.55166826988292
 30
0.0
 10
86.4131578017474
 20
-97.55166826988292
 30
0.0
 10
86.4131578017474
 20
-97.55166826988292
 30
0.0
 10
86.4131578017474
 20
-97.55166826988292
 30
0.0
 10
86.34218883475127
 20
-98.00814342167853
 30
0.0
 10
86.34218883475127
 20
-98.00814342167853
 30
0.0
 10
86.40833466806806
 20
-97.97162540953488
 30
0.0
 10
86.49756264113603
 20
-97.92821720642073
 30
0.0
 10
86.6253756836388
 20
-97.92821720642073
 30
0.0
 10
86.89926077471615
 20
-97.92821720642073
 30
0.0
 10
87.1548868597217
 20
-98.1290662732108
 30
0.0
 10
87.1548868597217
 20
-98.46685788553954
 30
0.0
 10
87.1548868597217
 20
-98.80912812199911
 30
0.0
 10
86.91269664710863
 20
-99.06251489493924
 30
0.0
 10
86.58644610465548
 20
-99.06251489493924
 30
0.0
  0
HATCH
  5
AE
330
94
100
AcDbEntity
  8
_U+30EC_U+30A4_U+30E4_U+30FC 1
 62
   179
420
  2234388
100
AcDbHatch
 10
0.0
 20
0.0
 30
0.0
210
0.0
220
0.0
230
1.0
  2
SOLID
 70
     1
 71
     0
 91
        1
 92
        1
 93
        1
 72
     4
 94
        3
 73
     0
 74
     1
 95
       53
 96
       49
 40
0.0
 40
0.0
 40
0.0
 40
0.0
 40
1.0
 40
1.0
 40
1.0
 40
2.0
 40
2.0
 40
2.0
 40
3.0
 40
3.0
 40
3.0
 40
4.0
 40
4.0
 40
4.0
 40
5.0
 40
5.0
 40
5.0
 40
6.0
 40
6.0
 40
6.0
 40
7.0
 40
7.0
 40
7.0
 40
8.0
 40
8.0
 40
8.0
 40
9.0
 40
9.0
 40
9.0
 40
10.0
 40
10.0
 40
10.0
 40
11.0
 40
11.0
 40
11.0
 40
12.0
 40
12.0
 40
12.0
 40
13.0
 40
13.0
 40
13.0
 40
14.0
 40
14.0
 40
14.0
 40
15.0
 40
15.0
 40
15.0
 40
16.0
 40
16.0
 40
16.0
 40
16.0
 10
86.58644610465548
 20
-99.06251489493924
 10
86.50204126526685
 20
-99.06251489493924
 10
86.3924872288359
 20
-99.04425588886741
 10
86.28293319240497
 20
-98.9758707434852
 10
86.0958645075559
 20
-98.85701494924409
 10
86.07295462257899
 20
-98.71559377957458
 10
86.05245630444175
 20
-98.59914955217313
 10
86.05245630444175
 20
-98.59914955217313
 10
86.29189044066662
 20
-98.59914955217313
 10
86.29189044066662
 20
-98.59914955217313
 10
86.35149059256143
 20
-98.8137790009042
 10
86.48826088332585
 20
-98.84564613414275
 10
86.58885767149515
 20
-98.84564613414275
 10
86.73940834420057
 20
-98.84564613414275
 10
86.90373939884698
 20
-98.73850366455149
 10
86.90373939884698
 20
-98.48735620367678
 10
86.90373939884698
 20
-98.21123180053401
 10
86.70978052302742
 20
-98.13595646418129
 10
86.57955591368497
 20
-98.13595646418129
 10
86.54544946838101
 20
-98.13595646418129
 10
86.3924872288359
 20
-98.13595646418129
 10
86.29671357434596
 20
-98.27513832178539
 10
86.29671357434596
 20
-98.27513832178539
 10
86.10723332265722
 20
-98.25446774887389
 10
86.10723332265722
 20
-98.25446774887389
 10
86.10723332265722
 20
-98.25446774887389
 10
86.23745793199967
 20
-97.34151744528268
 10
86.23745793199967
 20
-97.34151744528268
 10
86.23745793199967
 20
-97.34151744528268
 10
87.07737221130358
 20
-97.34151744528268
 10
87.07737221130358
 20
-97.34151744528268
 10
87.07737221130358
 20
-97.34151744528268
 10
87.07737221130358
 20
-97.55166826988292
 10
87.07737221130358
 20
-97.55166826988292
 10
87.07737221130358
 20
-97.55166826988292
 10
86.4131578017474
 20
-97.55166826988292
 10
86.4131578017474
 20
-97.55166826988292
 10
86.4131578017474
 20
-97.55166826988292
 10
86.34218883475127
 20
-98.00814342167853
 10
86.34218883475127
 20
-98.00814342167853
 10
86.40833466806806
 20
-97.97162540953488
 10
86.49756264113603
 20
-97.92821720642073
 10
86.6253756836388
 20
-97.92821720642073
 10
86.89926077471615
 20
-97.92821720642073
 10
87.1548868597217
 20
-98.1290662732108
 10
87.1548868597217
 20
-98.46685788553954
 10
87.1548868597217
 20
-98.80912812199911
 10
86.91269664710863
 20
-99.06251489493924
 10
86.58644610465548
 20
-99.06251489493924
 97
        0
 97
        0
 75
     2
 76
     1
 98
        0
  0
ENDBLK
  5
97
330
94
100
AcDbEntity
  8
0
100
AcDbBlockEnd
  0
BLOCK
  5
B9
330
B7
100
AcDbEntity
  8
0
100
AcDbBlockBegin
  2
block 4
 70
     0
 10
0.0
 20
0.0
 30
0.0
  3
block 4
  1

  0
SPLINE
  5
BB
330
B7
100
AcDbEntity
  8
_U+30EC_U+30A4_U+30E4_U+30FC 1
370
     0
100
AcDbSpline
210
0.0
220
0.0
230
1.0
 70
    11
 71
     3
 72
    26
 73
    22
 74
     0
 42
0.0000000001
 43
0.0000000001
 12
1.0
 22
0.0
 32
0.0
 13
1.0
 23
0.0
 33
0.0
 40
0.0
 40
0.0
 40
0.0
 40
0.0
 40
1.0
 40
1.0
 40
1.0
 40
2.0
 40
2.0
 40
2.0
 40
3.0
 40
3.0
 40
3.0
 40
4.0
 40
4.0
 40
4.0
 40
5.0
 40
5.0
 40
5.0
 40
6.0
 40
6.0
 40
6.0
 40
7.0
 40
7.0
 40
7.0
 40
7.0
 10
116.3839382304526
 20
-156.8917154555687
 30
0.0
 10
116.3839382304526
 20
-156.8917154555687
 30
0.0
 10
115.1926242116532
 20
-156.8917154555687
 30
0.0
 10
115.1926242116532
 20
-156.8917154555687
 30
0.0
 10
115.1926242116532
 20
-156.8917154555687
 30
0.0
 10
115.1926242116532
 20
-157.2475938191951
 30
0.0
 10
115.1926242116532
 20
-157.2475938191951
 30
0.0
 10
115.1926242116532
 20
-157.2475938191951
 30
0.0
 10
115.0327717811376
 20
-157.2475938191951
 30
0.0
 10
115.0327717811376
 20
-157.2475938191951
 30
0.0
 10
115.0169243419055
 20
-156.8893038887291
 30
0.0
 10
114.8408799626092
 20
-156.8390054946444
 30
0.0
 10
114.7178900537858
 20
-156.8069661066316
 30
0.0
 10
114.7178900537858
 20
-156.8069661066316
 30
0.0
 10
114.7178900537858
 20
-156.6495252429557
 30
0.0
 10
114.7178900537858
 20
-156.6495252429557
 30
0.0
 10
114.7178900537858
 20
-156.6495252429557
 30
0.0
 10
116.3839382304526
 20
-156.6495252429557
 30
0.0
 10
116.3839382304526
 20
-156.6495252429557
 30
0.0
 10
116.3839382304526
 20
-156.6495252429557
 30
0.0
 10
116.3839382304526
 20
-156.8917154555687
 30
0.0
 10
116.3839382304526
 20
-156.8917154555687
 30
0.0
  0
HATCH
  5
BC
330
B7
100
AcDbEntity
  8
_U+30EC_U+30A4_U+30E4_U+30FC 1
 62
   179
420
  2234388
100
AcDbHatch
 10
0.0
 20
0.0
 30
0.0
210
0.0
220
0.0
230
1.0
  2
SOLID
 70
     1
 71
     0
 91
        1
 92
        1
 93
        1
 72
     4
 94
        3
 73
     0
 74
     1
 95
       26
 96
       22
 40
0.0
 40
0.0
 40
0.0
 40
0.0
 40
1.0
 40
1.0
 40
1.0
 40
2.0
 40
2.0
 40
2.0
 40
3.0
 40
3.0
 40
3.0
 40
4.0
 40
4.0
 40
4.0
 40
5.0
 40
5.0
 40
5.0
 40
6.0
 40
6.0
 40
6.0
 40
7.0
 40
7.0
 40
7.0
 40
7.0
 10
116.3839382304526
 20
-156.8917154555687
 10
116.3839382304526
 20
-156.8917154555687
 10
115.1926242116532
 20
-156.8917154555687
 10
115.1926242116532
 20
-156.8917154555687
 10
115.1926242116532
 20
-156.8917154555687
 10
115.1926242116532
 20
-157.2475938191951
 10
115.1926242116532
 20
-157.2475938191951
 10
115.1926242116532
 20
-157.2475938191951
 10
115.0327717811376
 20
-157.2475938191951
 10
115.0327717811376
 20
-157.2475938191951
 10
115.0169243419055
 20
-156.8893038887291
 10
114.8408799626092
 20
-156.8390054946444
 10
114.7178900537858
 20
-156.8069661066316
 10
114.7178900537858
 20
-156.8069661066316
 10
114.7178900537858
 20
-156.6495252429557
 10
114.7178900537858
 20
-156.6495252429557
 10
114.7178900537858
 20
-156.6495252429557
 10
116.3839382304526
 20
-156.6495252429557
 10
116.3839382304526
 20
-156.6495252429557
 10
116.3839382304526
 20
-156.6495252429557
 10
116.3839382304526
 20
-156.8917154555687
 10
116.3839382304526
 20
-156.8917154555687
 97
        0
 97
        0
 75
     2
 76
     1
 98
        0
  0
POLYLINE
  5
BD
330
B7
100
AcDbEntity
  8
_U+30EC_U+30A4_U+30E4_U+30FC 1
370
     0
100
AcDb2dPolyline
 66
     1
 10
0.0
 20
0.0
 30
0.0
  0
VERTEX
  5
BE
330
BD
100
AcDbEntity
  8
_U+30EC_U+30A4_U+30E4_U+30FC 1
370
     0
100
AcDbVertex
100
AcDb2dVertex
 10
116.3839382304526
 20
-156.0435329471002
 30
0.0
  0
VERTEX
  5
BF
330
BD
100
AcDbEntity
  8
_U+30EC_U+30A4_U+30E4_U+30FC 1
370
     0
100
AcDbVertex
100
AcDb2dVertex
 10
116.112464706215
 20
-156.0435329471002
 30
0.0
  0
VERTEX
  5
C0
330
BD
100
AcDbEntity
  8
_U+30EC_U+30A4_U+30E4_U+30FC 1
370
     0
100
AcDbVertex
100
AcDb2dVertex
 10
116.112464706215
 20
-155.7720594228626
 30
0.0
  0
VERTEX
  5
C1
330
BD
100
AcDbEntity
  8
_U+30EC_U+30A4_U+30E4_U+30FC 1
370
     0
100
AcDbVertex
100
AcDb2dVertex
 10
116.3839382304526
 20
-155.7720594228626
 30
0.0
  0
VERTEX
  5
C2
330
BD
100
AcDbEntity
  8
_U+30EC_U+30A4_U+30E4_U+30FC 1
370
     0
100
AcDbVertex
100
AcDb2dVertex
 10
116.3839382304526
 20
-156.0435329471002
 30
0.0
  0
SEQEND
  5
C3
330
BD
100
AcDbEntity
  8
_U+30EC_U+30A4_U+30E4_U+30FC 1
370
     0
  0
HATCH
  5
C4
330
B7
100
AcDbEntity
  8
_U+30EC_U+30A4_U+30E4_U+30FC 1
 62
   179
420
  2234388
100
AcDbHatch
 10
0.0
 20
0.0
 30
0.0
210
0.0
220
0.0
230
1.0
  2
SOLID
 70
     1
 71
     0
 91
        1
 92
        1
 93
        4
 72
     1
 10
116.3839382304526
 20
-156.0435329471002
 11
116.112464706215
 21
-156.0435329471002
 72
     1
 10
116.112464706215
 20
-156.0435329471002
 11
116.112464706215
 21
-155.7720594228626
 72
     1
 10
116.112464706215
 20
-155.7720594228626
 11
116.3839382304526
 21
-155.7720594228626
 72
     1
 10
116.3839382304526
 20
-155.7720594228626
 11
116.3839382304526
 21
-156.0435329471002
 97
        0
 75
     2
 76
     1
 98
        0
  0
SPLINE
  5
C5
330
B7
100
AcDbEntity
  8
_U+30EC_U+30A4_U+30E4_U+30FC 1
370
     0
100
AcDbSpline
210
0.0
220
0.0
230
1.0
 70
    11
 71
     3
 72
    44
 73
    40
 74
     0
 42
0.0000000001
 43
0.0000000001
 12
1.0
 22
0.0
 32
0.0
 13
1.0
 23
0.0
 33
0.0
 40
0.0
 40
0.0
 40
0.0
 40
0.0
 40
1.0
 40
1.0
 40
1.0
 40
2.0
 40
2.0
 40
2.0
 40
3.0
 40
3.0
 40
3.0
 40
4.0
 40
4.0
 40
4.0
 40
5.0
 40
5.0
 40
5.0
 40
6.0
 40
6.0
 40
6.0
 40
7.0
 40
7.0
 40
7.0
 40
8.0
 40
8.0
 40
8.0
 40
9.0
 40
9.0
 40
9.0
 40
10.0
 40
10.0
 40
10.0
 40
11.0
 40
11.0
 40
11.0
 40
12.0
 40
12.0
 40
12.0
 40
13.0
 40
13.0
 40
13.0
 40
13.0
 10
115.7562418330401
 20
-154.8766791062461
 30
0.0
 10
115.927463078657
 20
-155.1116346183402
 30
0.0
 10
116.0073892939148
 20
-155.2122314065095
 30
0.0
 10
116.1624185907511
 20
-155.2645968578852
 30
0.0
 10
116.1624185907511
 20
-155.2645968578852
 30
0.0
 10
116.1624185907511
 20
-154.4246825785813
 30
0.0
 10
116.1624185907511
 20
-154.4246825785813
 30
0.0
 10
116.1624185907511
 20
-154.4246825785813
 30
0.0
 10
116.3839382304526
 20
-154.4246825785813
 30
0.0
 10
116.3839382304526
 20
-154.4246825785813
 30
0.0
 10
116.3839382304526
 20
-154.4246825785813
 30
0.0
 10
116.3839382304526
 20
-155.5340033248318
 30
0.0
 10
116.3839382304526
 20
-155.5340033248318
 30
0.0
 10
115.9980875361046
 20
-155.4995523699793
 30
0.0
 10
115.913682696716
 20
-155.4289279125317
 30
0.0
 10
115.5919107783937
 20
-155.0134493970105
 30
0.0
 10
115.3772813296626
 20
-154.737497248642
 30
0.0
 10
115.3042453053753
 20
-154.6665282816459
 30
0.0
 10
115.1561061995096
 20
-154.6665282816459
 30
0.0
 10
115.0282931570068
 20
-154.6665282816459
 30
0.0
 10
114.8866997325631
 20
-154.744042930064
 30
0.0
 10
114.8866997325631
 20
-154.9566053215039
 30
0.0
 10
114.8866997325631
 20
-155.2373806035518
 30
0.0
 10
115.1354356265981
 20
-155.2463378518134
 30
0.0
 10
115.2611816118097
 20
-155.2508164759442
 30
0.0
 10
115.2611816118097
 20
-155.2508164759442
 30
0.0
 10
115.2611816118097
 20
-155.4930066885573
 30
0.0
 10
115.2611816118097
 20
-155.4930066885573
 30
0.0
 10
115.1240668114968
 20
-155.4837049307471
 30
0.0
 10
115.0031439599645
 20
-155.4723361156458
 30
0.0
 10
114.8753309174617
 20
-155.3855197094175
 30
0.0
 10
114.7016981050051
 20
-155.2670084247249
 30
0.0
 10
114.6651800928615
 20
-155.0661593579349
 30
0.0
 10
114.6651800928615
 20
-154.9404133727232
 30
0.0
 10
114.6651800928615
 20
-154.6413790846036
 30
0.0
 10
114.8639621023604
 20
-154.4177923876108
 30
0.0
 10
115.1581732568007
 20
-154.4177923876108
 30
0.0
 10
115.4048420935446
 20
-154.4177923876108
 30
0.0
 10
115.5119845631359
 20
-154.5435383728225
 30
0.0
 10
115.7562418330401
 20
-154.8766791062461
 30
0.0
  0
HATCH
  5
C6
330
B7
100
AcDbEntity
  8
_U+30EC_U+30A4_U+30E4_U+30FC 1
 62
   179
420
  2234388
100
AcDbHatch
 10
0.0
 20
0.0
 30
0.0
210
0.0
220
0.0
230
1.0
  2
SOLID
 70
     1
 71
     0
 91
        1
 92
        1
 93
        1
 72
     4
 94
        3
 73
     0
 74
     1
 95
       44
 96
       40
 40
0.0
 40
0.0
 40
0.0
 40
0.0
 40
1.0
 40
1.0
 40
1.0
 40
2.0
 40
2.0
 40
2.0
 40
3.0
 40
3.0
 40
3.0
 40
4.0
 40
4.0
 40
4.0
 40
5.0
 40
5.0
 40
5.0
 40
6.0
 40
6.0
 40
6.0
 40
7.0
 40
7.0
 40
7.0
 40
8.0
 40
8.0
 40
8.0
 40
9.0
 40
9.0
 40
9.0
 40
10.0
 40
10.0
 40
10.0
 40
11.0
 40
11.0
 40
11.0
 40
12.0
 40
12.0
 40
12.0
 40
13.0
 40
13.0
 40
13.0
 40
13.0
 10
115.7562418330401
 20
-154.8766791062461
 10
115.927463078657
 20
-155.1116346183402
 10
116.0073892939148
 20
-155.2122314065095
 10
116.1624185907511
 20
-155.2645968578852
 10
116.1624185907511
 20
-155.2645968578852
 10
116.1624185907511
 20
-154.4246825785813
 10
116.1624185907511
 20
-154.4246825785813
 10
116.1624185907511
 20
-154.4246825785813
 10
116.3839382304526
 20
-154.4246825785813
 10
116.3839382304526
 20
-154.4246825785813
 10
116.3839382304526
 20
-154.4246825785813
 10
116.3839382304526
 20
-155.5340033248318
 10
116.3839382304526
 20
-155.5340033248318
 10
115.9980875361046
 20
-155.4995523699793
 10
115.913682696716
 20
-155.4289279125317
 10
115.5919107783937
 20
-155.0134493970105
 10
115.3772813296626
 20
-154.737497248642
 10
115.3042453053753
 20
-154.6665282816459
 10
115.1561061995096
 20
-154.6665282816459
 10
115.0282931570068
 20
-154.6665282816459
 10
114.8866997325631
 20
-154.744042930064
 10
114.8866997325631
 20
-154.9566053215039
 10
114.8866997325631
 20
-155.2373806035518
 10
115.1354356265981
 20
-155.2463378518134
 10
115.2611816118097
 20
-155.2508164759442
 10
115.2611816118097
 20
-155.2508164759442
 10
115.2611816118097
 20
-155.4930066885573
 10
115.2611816118097
 20
-155.4930066885573
 10
115.1240668114968
 20
-155.4837049307471
 10
115.0031439599645
 20
-155.4723361156458
 10
114.8753309174617
 20
-155.3855197094175
 10
114.7016981050051
 20
-155.2670084247249
 10
114.6651800928615
 20
-155.0661593579349
 10
114.6651800928615
 20
-154.9404133727232
 10
114.6651800928615
 20
-154.6413790846036
 10
114.8639621023604
 20
-154.4177923876108
 10
115.1581732568007
 20
-154.4177923876108
 10
115.4048420935446
 20
-154.4177923876108
 10
115.5119845631359
 20
-154.5435383728225
 10
115.7562418330401
 20
-154.8766791062461
 97
        0
 97
        0
 75
     2
 76
     1
 98
        0
  0
ENDBLK
  5
BA
330
B7
100
AcDbEntity
  8
0
100
AcDbBlockEnd
  0
BLOCK
  5
D5
330
D3
100
AcDbEntity
  8
0
100
AcDbBlockBegin
  2
block 5
 70
     0
 10
0.0
 20
0.0
 30
0.0
  3
block 5
  1

  0
SPLINE
  5
D7
330
D3
100
AcDbEntity
  8
_U+30EC_U+30A4_U+30E4_U+30FC 1
370
     0
100
AcDbSpline
210
0.0
220
0.0
230
1.0
 70
    11
 71
     3
 72
    53
 73
    49
 74
     0
 42
0.0000000001
 43
0.0000000001
 12
1.0
 22
0.0
 32
0.0
 13
1.0
 23
0.0
 33
0.0
 40
0.0
 40
0.0
 40
0.0
 40
0.0
 40
1.0
 40
1.0
 40
1.0
 40
2.0
 40
2.0
 40
2.0
 40
3.0
 40
3.0
 40
3.0
 40
4.0
 40
4.0
 40
4.0
 40
5.0
 40
5.0
 40
5.0
 40
6.0
 40
6.0
 40
6.0
 40
7.0
 40
7.0
 40
7.0
 40
8.0
 40
8.0
 40
8.0
 40
9.0
 40
9.0
 40
9.0
 40
10.0
 40
10.0
 40
10.0
 40
11.0
 40
11.0
 40
11.0
 40
12.0
 40
12.0
 40
12.0
 40
13.0
 40
13.0
 40
13.0
 40
14.0
 40
14.0
 40
14.0
 40
15.0
 40
15.0
 40
15.0
 40
16.0
 40
16.0
 40
16.0
 40
16.0
 10
112.0289930275483
 20
-130.3624131618539
 30
0.0
 10
112.0289930275483
 20
-130.4468180012425
 30
0.0
 10
112.0107340214765
 20
-130.5563720376734
 30
0.0
 10
111.94217662132
 20
-130.6659260741044
 30
0.0
 10
111.8236653366274
 20
-130.8529947589534
 30
0.0
 10
111.6820719121837
 20
-130.8757323891561
 30
0.0
 10
111.5656276847822
 20
-130.8964029620676
 30
0.0
 10
111.5656276847822
 20
-130.8964029620676
 30
0.0
 10
111.5656276847822
 20
-130.6566243162942
 30
0.0
 10
111.5656276847822
 20
-130.6566243162942
 30
0.0
 10
111.7802571335133
 20
-130.5973686739479
 30
0.0
 10
111.8122965215261
 20
-130.4605983831835
 30
0.0
 10
111.8122965215261
 20
-130.3600015950142
 30
0.0
 10
111.8122965215261
 20
-130.2094509223087
 30
0.0
 10
111.7048095423863
 20
-130.0451198676624
 30
0.0
 10
111.4536620815116
 20
-130.0451198676624
 30
0.0
 10
111.1777099331431
 20
-130.0451198676624
 30
0.0
 10
111.1022623420161
 20
-130.2390787434819
 30
0.0
 10
111.1022623420161
 20
-130.3693033528243
 30
0.0
 10
111.1022623420161
 20
-130.4034097981283
 30
0.0
 10
111.1022623420161
 20
-130.5563720376734
 30
0.0
 10
111.2414441996202
 20
-130.6521456921633
 30
0.0
 10
111.2414441996202
 20
-130.6521456921633
 30
0.0
 10
111.2211181362572
 20
-130.8416259438521
 30
0.0
 10
111.2211181362572
 20
-130.8416259438521
 30
0.0
 10
111.2211181362572
 20
-130.8416259438521
 30
0.0
 10
110.308167832666
 20
-130.7117458440582
 30
0.0
 10
110.308167832666
 20
-130.7117458440582
 30
0.0
 10
110.308167832666
 20
-130.7117458440582
 30
0.0
 10
110.308167832666
 20
-129.8718315647543
 30
0.0
 10
110.308167832666
 20
-129.8718315647543
 30
0.0
 10
110.308167832666
 20
-129.8718315647543
 30
0.0
 10
110.5179741477177
 20
-129.8718315647543
 30
0.0
 10
110.5179741477177
 20
-129.8718315647543
 30
0.0
 10
110.5179741477177
 20
-129.8718315647543
 30
0.0
 10
110.5179741477177
 20
-130.5357014647619
 30
0.0
 10
110.5179741477177
 20
-130.5357014647619
 30
0.0
 10
110.5179741477177
 20
-130.5357014647619
 30
0.0
 10
110.9744492995133
 20
-130.6066704317581
 30
0.0
 10
110.9744492995133
 20
-130.6066704317581
 30
0.0
 10
110.9379312873697
 20
-130.5405245984413
 30
0.0
 10
110.8945230842555
 20
-130.4512966253733
 30
0.0
 10
110.8945230842555
 20
-130.3234835828705
 30
0.0
 10
110.8945230842555
 20
-130.0495984917931
 30
0.0
 10
111.0953721510456
 20
-129.7939724067876
 30
0.0
 10
111.4333360181486
 20
-129.7939724067876
 30
0.0
 10
111.7757785093824
 20
-129.7939724067876
 30
0.0
 10
112.0289930275483
 20
-130.0358181098522
 30
0.0
 10
112.0289930275483
 20
-130.3624131618539
 30
0.0
  0
HATCH
  5
D8
330
D3
100
AcDbEntity
  8
_U+30EC_U+30A4_U+30E4_U+30FC 1
 62
   179
420
  2234388
100
AcDbHatch
 10
0.0
 20
0.0
 30
0.0
210
0.0
220
0.0
230
1.0
  2
SOLID
 70
     1
 71
     0
 91
        1
 92
        1
 93
        1
 72
     4
 94
        3
 73
     0
 74
     1
 95
       53
 96
       49
 40
0.0
 40
0.0
 40
0.0
 40
0.0
 40
1.0
 40
1.0
 40
1.0
 40
2.0
 40
2.0
 40
2.0
 40
3.0
 40
3.0
 40
3.0
 40
4.0
 40
4.0
 40
4.0
 40
5.0
 40
5.0
 40
5.0
 40
6.0
 40
6.0
 40
6.0
 40
7.0
 40
7.0
 40
7.0
 40
8.0
 40
8.0
 40
8.0
 40
9.0
 40
9.0
 40
9.0
 40
10.0
 40
10.0
 40
10.0
 40
11.0
 40
11.0
 40
11.0
 40
12.0
 40
12.0
 40
12.0
 40
13.0
 40
13.0
 40
13.0
 40
14.0
 40
14.0
 40
14.0
 40
15.0
 40
15.0
 40
15.0
 40
16.0
 40
16.0
 40
16.0
 40
16.0
 10
112.0289930275483
 20
-130.3624131618539
 10
112.0289930275483
 20
-130.4468180012425
 10
112.0107340214765
 20
-130.5563720376734
 10
111.94217662132
 20
-130.6659260741044
 10
111.8236653366274
 20
-130.8529947589534
 10
111.6820719121837
 20
-130.8757323891561
 10
111.5656276847822
 20
-130.8964029620676
 10
111.5656276847822
 20
-130.8964029620676
 10
111.5656276847822
 20
-130.6566243162942
 10
111.5656276847822
 20
-130.6566243162942
 10
111.7802571335133
 20
-130.5973686739479
 10
111.8122965215261
 20
-130.4605983831835
 10
111.8122965215261
 20
-130.3600015950142
 10
111.8122965215261
 20
-130.2094509223087
 10
111.7048095423863
 20
-130.0451198676624
 10
111.4536620815116
 20
-130.0451198676624
 10
111.1777099331431
 20
-130.0451198676624
 10
111.1022623420161
 20
-130.2390787434819
 10
111.1022623420161
 20
-130.3693033528243
 10
111.1022623420161
 20
-130.4034097981283
 10
111.1022623420161
 20
-130.5563720376734
 10
111.2414441996202
 20
-130.6521456921633
 10
111.2414441996202
 20
-130.6521456921633
 10
111.2211181362572
 20
-130.8416259438521
 10
111.2211181362572
 20
-130.8416259438521
 10
111.2211181362572
 20
-130.8416259438521
 10
110.308167832666
 20
-130.7117458440582
 10
110.308167832666
 20
-130.7117458440582
 10
110.308167832666
 20
-130.7117458440582
 10
110.308167832666
 20
-129.8718315647543
 10
110.308167832666
 20
-129.8718315647543
 10
110.308167832666
 20
-129.8718315647543
 10
110.5179741477177
 20
-129.8718315647543
 10
110.5179741477177
 20
-129.8718315647543
 10
110.5179741477177
 20
-129.8718315647543
 10
110.5179741477177
 20
-130.5357014647619
 10
110.5179741477177
 20
-130.5357014647619
 10
110.5179741477177
 20
-130.5357014647619
 10
110.9744492995133
 20
-130.6066704317581
 10
110.9744492995133
 20
-130.6066704317581
 10
110.9379312873697
 20
-130.5405245984413
 10
110.8945230842555
 20
-130.4512966253733
 10
110.8945230842555
 20
-130.3234835828705
 10
110.8945230842555
 20
-130.0495984917931
 10
111.0953721510456
 20
-129.7939724067876
 10
111.4333360181486
 20
-129.7939724067876
 10
111.7757785093824
 20
-129.7939724067876
 10
112.0289930275483
 20
-130.0358181098522
 10
112.0289930275483
 20
-130.3624131618539
 97
        0
 97
        0
 75
     2
 76
     1
 98
        0
  0
SPLINE
  5
D9
330
D3
100
AcDbEntity
  8
_U+30EC_U+30A4_U+30E4_U+30FC 1
370
     0
100
AcDbSpline
210
0.0
220
0.0
230
1.0
 70
    11
 71
     3
 72
    29
 73
    25
 74
     0
 42
0.0000000001
 43
0.0000000001
 12
1.0
 22
0.0
 32
0.0
 13
1.0
 23
0.0
 33
0.0
 40
0.0
 40
0.0
 40
0.0
 40
0.0
 40
1.0
 40
1.0
 40
1.0
 40
2.0
 40
2.0
 40
2.0
 40
3.0
 40
3.0
 40
3.0
 40
4.0
 40
4.0
 40
4.0
 40
5.0
 40
5.0
 40
5.0
 40
6.0
 40
6.0
 40
6.0
 40
7.0
 40
7.0
 40
7.0
 40
8.0
 40
8.0
 40
8.0
 40
8.0
 10
111.7823241908044
 20
-128.6426214956171
 30
0.0
 10
112.0083224546368
 20
-128.7590657230186
 30
0.0
 10
112.0289930275483
 20
-128.9461344078676
 30
0.0
 10
112.0289930275483
 20
-129.0715358835307
 30
0.0
 10
112.0289930275483
 20
-129.2451686959873
 30
0.0
 10
111.9786946334637
 20
-129.3981309355324
 30
0.0
 10
111.7823241908044
 20
-129.5007947809929
 30
0.0
 10
111.5725178757527
 20
-129.612415874715
 30
0.0
 10
111.3168917907472
 20
-129.6330864476265
 30
0.0
 10
111.1411919209994
 20
-129.6330864476265
 30
0.0
 10
110.9858181146147
 20
-129.6330864476265
 30
0.0
 10
110.714344590377
 20
-129.6148274415546
 30
0.0
 10
110.4997151416459
 20
-129.5007947809929
 30
0.0
 10
110.280607068784
 20
-129.3843505535914
 30
0.0
 10
110.2554578717417
 20
-129.2107177411348
 30
0.0
 10
110.2554578717417
 20
-129.0715358835307
 30
0.0
 10
110.2554578717417
 20
-128.9003146379138
 30
0.0
 10
110.3036892085352
 20
-128.7452853410776
 30
0.0
 10
110.4997151416459
 20
-128.6426214956171
 30
0.0
 10
110.7074543994065
 20
-128.5351345164773
 30
0.0
 10
110.9541232361504
 20
-128.5103298289835
 30
0.0
 10
111.1411919209994
 20
-128.5103298289835
 30
0.0
 10
111.3261935485573
 20
-128.5103298289835
 30
0.0
 10
111.5749294425924
 20
-128.5330674591862
 30
0.0
 10
111.7823241908044
 20
-128.6426214956171
 30
0.0
  0
SPLINE
  5
DA
330
D3
100
AcDbEntity
  8
_U+30EC_U+30A4_U+30E4_U+30FC 1
370
     0
100
AcDbSpline
210
0.0
220
0.0
230
1.0
 70
    11
 71
     3
 72
    17
 73
    13
 74
     0
 42
0.0000000001
 43
0.0000000001
 12
1.0
 22
0.0
 32
0.0
 13
1.0
 23
0.0
 33
0.0
 40
0.0
 40
0.0
 40
0.0
 40
0.0
 40
1.0
 40
1.0
 40
1.0
 40
2.0
 40
2.0
 40
2.0
 40
3.0
 40
3.0
 40
3.0
 40
4.0
 40
4.0
 40
4.0
 40
4.0
 10
110.4631971295023
 20
-129.0715358835307
 30
0.0
 10
110.4631971295023
 20
-129.3409423504773
 30
0.0
 10
110.7691216085924
 20
-129.3912407445619
 30
0.0
 10
111.1411919209994
 20
-129.3912407445619
 30
0.0
 10
111.4857014695244
 20
-129.3912407445619
 30
0.0
 10
111.8188422029481
 20
-129.3523111655786
 30
0.0
 10
111.8188422029481
 20
-129.0715358835307
 30
0.0
 10
111.8188422029481
 20
-128.8045409834239
 30
0.0
 10
111.5153292906976
 20
-128.7521755320481
 30
0.0
 10
111.1411919209994
 20
-128.7521755320481
 30
0.0
 10
110.7963378629259
 20
-128.7521755320481
 30
0.0
 10
110.4631971295023
 20
-128.7931721683225
 30
0.0
 10
110.4631971295023
 20
-129.0715358835307
 30
0.0
  0
HATCH
  5
DB
330
D3
100
AcDbEntity
  8
_U+30EC_U+30A4_U+30E4_U+30FC 1
 62
   179
420
  2234388
100
AcDbHatch
 10
0.0
 20
0.0
 30
0.0
210
0.0
220
0.0
230
1.0
  2
SOLID
 70
     1
 71
     0
 91
        2
 92
        1
 93
        1
 72
     4
 94
        3
 73
     0
 74
     1
 95
       29
 96
       25
 40
0.0
 40
0.0
 40
0.0
 40
0.0
 40
1.0
 40
1.0
 40
1.0
 40
2.0
 40
2.0
 40
2.0
 40
3.0
 40
3.0
 40
3.0
 40
4.0
 40
4.0
 40
4.0
 40
5.0
 40
5.0
 40
5.0
 40
6.0
 40
6.0
 40
6.0
 40
7.0
 40
7.0
 40
7.0
 40
8.0
 40
8.0
 40
8.0
 40
8.0
 10
111.7823241908044
 20
-128.6426214956171
 10
112.0083224546368
 20
-128.7590657230186
 10
112.0289930275483
 20
-128.9461344078676
 10
112.0289930275483
 20
-129.0715358835307
 10
112.0289930275483
 20
-129.2451686959873
 10
111.9786946334637
 20
-129.3981309355324
 10
111.7823241908044
 20
-129.5007947809929
 10
111.5725178757527
 20
-129.612415874715
 10
111.3168917907472
 20
-129.6330864476265
 10
111.1411919209994
 20
-129.6330864476265
 10
110.9858181146147
 20
-129.6330864476265
 10
110.714344590377
 20
-129.6148274415546
 10
110.4997151416459
 20
-129.5007947809929
 10
110.280607068784
 20
-129.3843505535914
 10
110.2554578717417
 20
-129.2107177411348
 10
110.2554578717417
 20
-129.0715358835307
 10
110.2554578717417
 20
-128.9003146379138
 10
110.3036892085352
 20
-128.7452853410776
 10
110.4997151416459
 20
-128.6426214956171
 10
110.7074543994065
 20
-128.5351345164773
 10
110.9541232361504
 20
-128.5103298289835
 10
111.1411919209994
 20
-128.5103298289835
 10
111.3261935485573
 20
-128.5103298289835
 10
111.5749294425924
 20
-128.5330674591862
 10
111.7823241908044
 20
-128.6426214956171
 97
        0
 97
        0
 92
        1
 93
        1
 72
     4
 94
        3
 73
     0
 74
     1
 95
       17
 96
       13
 40
0.0
 40
0.0
 40
0.0
 40
0.0
 40
1.0
 40
1.0
 40
1.0
 40
2.0
 40
2.0
 40
2.0
 40
3.0
 40
3.0
 40
3.0
 40
4.0
 40
4.0
 40
4.0
 40
4.0
 10
110.4631971295023
 20
-129.0715358835307
 10
110.4631971295023
 20
-129.3409423504773
 10
110.7691216085924
 20
-129.3912407445619
 10
111.1411919209994
 20
-129.3912407445619
 10
111.4857014695244
 20
-129.3912407445619
 10
111.8188422029481
 20
-129.3523111655786
 10
111.8188422029481
 20
-129.0715358835307
 10
111.8188422029481
 20
-128.8045409834239
 10
111.5153292906976
 20
-128.7521755320481
 10
111.1411919209994
 20
-128.7521755320481
 10
110.7963378629259
 20
-128.7521755320481
 10
110.4631971295023
 20
-128.7931721683225
 10
110.4631971295023
 20
-129.0715358835307
 97
        0
 97
        0
 75
     2
 76
     1
 98
        0
  0
ENDBLK
  5
D6
330
D3
100
AcDbEntity
  8
0
100
AcDbBlockEnd
  0
ENDSEC
  0
SECTION
  2
ENTITIES
  0
POLYLINE
  5
41
330
1F
100
AcDbEntity
  8
_U+30EC_U+30A4_U+30E4_U+30FC 1
370
     0
100
AcDb2dPolyline
 66
     1
 10
0.0
 20
0.0
 30
0.0
  0
VERTEX
  5
42
330
41
100
AcDbEntity
  8
_U+30EC_U+30A4_U+30E4_U+30FC 1
370
     0
100
AcDbVertex
100
AcDb2dVertex
 10
63.47227004735415
 20
-155.9057291276903
 30
0.0
  0
VERTEX
  5
43
330
41
100
AcDbEntity
  8
_U+30EC_U+30A4_U+30E4_U+30FC 1
370
     0
100
AcDbVertex
100
AcDb2dVertex
 10
88.47264274287484
 20
-155.9057291276903
 30
0.0
  0
VERTEX
  5
44
330
41
100
AcDbEntity
  8
_U+30EC_U+30A4_U+30E4_U+30FC 1
370
     0
100
AcDbVertex
100
AcDb2dVertex
 10
88.47264274287484
 20
-154.7054732946571
 30
0.0
  0
VERTEX
  5
45
330
41
100
AcDbEntity
  8
_U+30EC_U+30A4_U+30E4_U+30FC 1
370
     0
100
AcDbVertex
100
AcDb2dVertex
 10
64.6725258500664
 20
-154.7054732946571
 30
0.0
  0
VERTEX
  5
46
330
41
100
AcDbEntity
  8
_U+30EC_U+30A4_U+30E4_U+30FC 1
370
     0
100
AcDbVertex
100
AcDb2dVertex
 10
64.6725258500664
 20
-104.7061024738234
 30
0.0
  0
VERTEX
  5
47
330
41
100
AcDbEntity
  8
_U+30EC_U+30A4_U+30E4_U+30FC 1
370
     0
100
AcDbVertex
100
AcDb2dVertex
 10
108.4722847326415
 20
-104.7061024738234
 30
0.0
  0
VERTEX
  5
48
330
41
100
AcDbEntity
  8
_U+30EC_U+30A4_U+30E4_U+30FC 1
370
     0
100
AcDbVertex
100
AcDb2dVertex
 10
108.4722847326415
 20
-103.5058113630124
 30
0.0
  0
VERTEX
  5
49
330
41
100
AcDbEntity
  8
_U+30EC_U+30A4_U+30E4_U+30FC 1
370
     0
100
AcDbVertex
100
AcDb2dVertex
 10
63.47227004735415
 20
-103.5058113630124
 30
0.0
  0
VERTEX
  5
4A
330
41
100
AcDbEntity
  8
_U+30EC_U+30A4_U+30E4_U+30FC 1
370
     0
100
AcDbVertex
100
AcDb2dVertex
 10
63.47227004735415
 20
-155.9057291276903
 30
0.0
  0
SEQEND
  5
4C
330
41
100
AcDbEntity
  8
_U+30EC_U+30A4_U+30E4_U+30FC 1
370
     0
  0
HATCH
  5
4B
330
1F
100
AcDbEntity
  8
_U+30EC_U+30A4_U+30E4_U+30FC 1
 62
   253
420
 11711154
100
AcDbHatch
 10
0.0
 20
0.0
 30
0.0
210
0.0
220
0.0
230
1.0
  2
SOLID
 70
     1
 71
     0
 91
        1
 92
        1
 93
        8
 72
     1
 10
63.47227004735415
 20
-155.9057291276903
 11
88.47264274287484
 21
-155.9057291276903
 72
     1
 10
88.47264274287484
 20
-155.9057291276903
 11
88.47264274287484
 21
-154.7054732946571
 72
     1
 10
88.47264274287484
 20
-154.7054732946571
 11
64.6725258500664
 21
-154.7054732946571
 72
     1
 10
64.6725258500664
 20
-154.7054732946571
 11
64.6725258500664
 21
-104.7061024738234
 72
     1
 10
64.6725258500664
 20
-104.7061024738234
 11
108.4722847326415
 21
-104.7061024738234
 72
     1
 10
108.4722847326415
 20
-104.7061024738234
 11
108.4722847326415
 21
-103.5058113630124
 72
     1
 10
108.4722847326415
 20
-103.5058113630124
 11
63.47227004735415
 21
-103.5058113630124
 72
     1
 10
63.47227004735415
 20
-103.5058113630124
 11
63.47227004735415
 21
-155.9057291276903
 97
        0
 75
     2
 76
     1
 98
        0
  0
POLYLINE
  5
4D
330
1F
100
AcDbEntity
  8
_U+30EC_U+30A4_U+30E4_U+30FC 1
 62
   179
420
  2234388
370
    25
100
AcDb2dPolyline
 66
     1
 10
0.0
 20
0.0
 30
0.0
  0
VERTEX
  5
4E
330
4D
100
AcDbEntity
  8
_U+30EC_U+30A4_U+30E4_U+30FC 1
 62
   179
420
  2234388
370
    25
100
AcDbVertex
100
AcDb2dVertex
 10
63.47227004735415
 20
-103.5058113630124
 30
0.0
  0
VERTEX
  5
4F
330
4D
100
AcDbEntity
  8
_U+30EC_U+30A4_U+30E4_U+30FC 1
 62
   179
420
  2234388
370
    25
100
AcDbVertex
100
AcDb2dVertex
 10
108.4722847326415
 20
-103.5058113630124
 30
0.0
  0
SEQEND
  5
50
330
4D
100
AcDbEntity
  8
_U+30EC_U+30A4_U+30E4_U+30FC 1
 62
   179
420
  2234388
370
    25
  0
POLYLINE
  5
51
330
1F
100
AcDbEntity
  8
_U+30EC_U+30A4_U+30E4_U+30FC 1
 62
   179
420
  2234388
370
    25
100
AcDb2dPolyline
 66
     1
 10
0.0
 20
0.0
 30
0.0
  0
VERTEX
  5
52
330
51
100
AcDbEntity
  8
_U+30EC_U+30A4_U+30E4_U+30FC 1
 62
   179
420
  2234388
370
    25
100
AcDbVertex
100
AcDb2dVertex
 10
63.47227004735415
 20
-155.9057291276903
 30
0.0
  0
VERTEX
  5
53
330
51
100
AcDbEntity
  8
_U+30EC_U+30A4_U+30E4_U+30FC 1
 62
   179
420
  2234388
370
    25
100
AcDbVertex
100
AcDb2dVertex
 10
88.47264274287484
 20
-155.9057291276903
 30
0.0
  0
SEQEND
  5
54
330
51
100
AcDbEntity
  8
_U+30EC_U+30A4_U+30E4_U+30FC 1
 62
   179
420
  2234388
370
    25
  0
POLYLINE
  5
55
330
1F
100
AcDbEntity
  8
_U+30EC_U+30A4_U+30E4_U+30FC 1
 62
   179
420
  2234388
370
    25
100
AcDb2dPolyline
 66
     1
 10
0.0
 20
0.0
 30
0.0
  0
VERTEX
  5
56
330
55
100
AcDbEntity
  8
_U+30EC_U+30A4_U+30E4_U+30FC 1
 62
   179
420
  2234388
370
    25
100
AcDbVertex
100
AcDb2dVertex
 10
63.47227004735415
 20
-155.9057291276903
 30
0.0
  0
VERTEX
  5
57
330
55
100
AcDbEntity
  8
_U+30EC_U+30A4_U+30E4_U+30FC 1
 62
   179
420
  2234388
370
    25
100
AcDbVertex
100
AcDb2dVertex
 10
63.47227004735415
 20
-103.5058113630124
 30
0.0
  0
SEQEND
  5
58
330
55
100
AcDbEntity
  8
_U+30EC_U+30A4_U+30E4_U+30FC 1
 62
   179
420
  2234388
370
    25
  0
POLYLINE
  5
59
330
1F
100
AcDbEntity
  8
_U+30EC_U+30A4_U+30E4_U+30FC 1
 62
   179
420
  2234388
370
    25
100
AcDb2dPolyline
 66
     1
 10
0.0
 20
0.0
 30
0.0
  0
VERTEX
  5
5A
330
59
100
AcDbEntity
  8
_U+30EC_U+30A4_U+30E4_U+30FC 1
 62
   179
420
  2234388
370
    25
100
AcDbVertex
100
AcDb2dVertex
 10
108.4722847326415
 20
-104.7061024738234
 30
0.0
  0
VERTEX
  5
5B
330
59
100
AcDbEntity
  8
_U+30EC_U+30A4_U+30E4_U+30FC 1
 62
   179
420
  2234388
370
    25
100
AcDbVertex
100
AcDb2dVertex
 10
108.4722847326415
 20
-103.5058113630124
 30
0.0
  0
SEQEND
  5
5C
330
59
100
AcDbEntity
  8
_U+30EC_U+30A4_U+30E4_U+30FC 1
 62
   179
420
  2234388
370
    25
  0
POLYLINE
  5
5D
330
1F
100
AcDbEntity
  8
_U+30EC_U+30A4_U+30E4_U+30FC 1
 62
   179
420
  2234388
370
    25
100
AcDb2dPolyline
 66
     1
 10
0.0
 20
0.0
 30
0.0
  0
VERTEX
  5
5E
330
5D
100
AcDbEntity
  8
_U+30EC_U+30A4_U+30E4_U+30FC 1
 62
   179
420
  2234388
370
    25
100
AcDbVertex
100
AcDb2dVertex
 10
64.6725258500664
 20
-104.7061024738234
 30
0.0
  0
VERTEX
  5
5F
330
5D
100
AcDbEntity
  8
_U+30EC_U+30A4_U+30E4_U+30FC 1
 62
   179
420
  2234388
370
    25
100
AcDbVertex
100
AcDb2dVertex
 10
108.4722847326415
 20
-104.7061024738234
 30
0.0
  0
SEQEND
  5
60
330
5D
100
AcDbEntity
  8
_U+30EC_U+30A4_U+30E4_U+30FC 1
 62
   179
420
  2234388
370
    25
  0
POLYLINE
  5
61
330
1F
100
AcDbEntity
  8
_U+30EC_U+30A4_U+30E4_U+30FC 1
 62
   179
420
  2234388
370
    25
100
AcDb2dPolyline
 66
     1
 10
0.0
 20
0.0
 30
0.0
  0
VERTEX
  5
62
330
61
100
AcDbEntity
  8
_U+30EC_U+30A4_U+30E4_U+30FC 1
 62
   179
420
  2234388
370
    25
100
AcDbVertex
100
AcDb2dVertex
 10
64.6725258500664
 20
-154.7054732946571
 30
0.0
  0
VERTEX
  5
63
330
61
100
AcDbEntity
  8
_U+30EC_U+30A4_U+30E4_U+30FC 1
 62
   179
420
  2234388
370
    25
100
AcDbVertex
100
AcDb2dVertex
 10
64.6725258500664
 20
-104.7061024738234
 30
0.0
  0
SEQEND
  5
64
330
61
100
AcDbEntity
  8
_U+30EC_U+30A4_U+30E4_U+30FC 1
 62
   179
420
  2234388
370
    25
  0
POLYLINE
  5
65
330
1F
100
AcDbEntity
  8
_U+30EC_U+30A4_U+30E4_U+30FC 1
 62
   179
420
  2234388
370
    25
100
AcDb2dPolyline
 66
     1
 10
0.0
 20
0.0
 30
0.0
  0
VERTEX
  5
66
330
65
100
AcDbEntity
  8
_U+30EC_U+30A4_U+30E4_U+30FC 1
 62
   179
420
  2234388
370
    25
100
AcDbVertex
100
AcDb2dVertex
 10
88.47264274287484
 20
-155.9057291276903
 30
0.0
  0
VERTEX
  5
67
330
65
100
AcDbEntity
  8
_U+30EC_U+30A4_U+30E4_U+30FC 1
 62
   179
420
  2234388
370
    25
100
AcDbVertex
100
AcDb2dVertex
 10
88.47264274287484
 20
-154.7054732946571
 30
0.0
  0
SEQEND
  5
68
330
65
100
AcDbEntity
  8
_U+30EC_U+30A4_U+30E4_U+30FC 1
 62
   179
420
  2234388
370
    25
  0
POLYLINE
  5
69
330
1F
100
AcDbEntity
  8
_U+30EC_U+30A4_U+30E4_U+30FC 1
 62
   179
420
  2234388
370
    25
100
AcDb2dPolyline
 66
     1
 10
0.0
 20
0.0
 30
0.0
  0
VERTEX
  5
6A
330
69
100
AcDbEntity
  8
_U+30EC_U+30A4_U+30E4_U+30FC 1
 62
   179
420
  2234388
370
    25
100
AcDbVertex
100
AcDb2dVertex
 10
64.6725258500664
 20
-154.7054732946571
 30
0.0
  0
VERTEX
  5
6B
330
69
100
AcDbEntity
  8
_U+30EC_U+30A4_U+30E4_U+30FC 1
 62
   179
420
  2234388
370
    25
100
AcDbVertex
100
AcDb2dVertex
 10
88.47264274287484
 20
-154.7054732946571
 30
0.0
  0
SEQEND
  5
6C
330
69
100
AcDbEntity
  8
_U+30EC_U+30A4_U+30E4_U+30FC 1
 62
   179
420
  2234388
370
    25
  0
SPLINE
  5
6D
330
1F
100
AcDbEntity
  8
_U+30EC_U+30A4_U+30E4_U+30FC 1
 62
   179
420
  2234388
370
     9
100
AcDbSpline
210
0.0
220
0.0
230
1.0
 70
    11
 71
     3
 72
    17
 73
    13
 74
     0
 42
0.0000000001
 43
0.0000000001
 12
1.0
 22
0.0
 32
0.0
 13
1.0
 23
0.0
 33
0.0
 40
0.0
 40
0.0
 40
0.0
 40
0.0
 40
1.0
 40
1.0
 40
1.0
 40
2.0
 40
2.0
 40
2.0
 40
3.0
 40
3.0
 40
3.0
 40
4.0
 40
4.0
 40
4.0
 40
4.0
 10
112.5726207391443
 20
-104.7061024738234
 30
0.0
 10
112.5726207391443
 20
-104.6502930293929
 30
0.0
 10
112.5278532402864
 20
-104.6054902516265
 30
0.0
 10
112.4727140750265
 20
-104.6054902516265
 30
0.0
 10
112.4176101875434
 20
-104.6054902516265
 30
0.0
 10
112.3728074109086
 20
-104.6502930293929
 30
0.0
 10
112.3728074109086
 20
-104.7061024738234
 30
0.0
 10
112.3728074109086
 20
-104.7612063626986
 30
0.0
 10
112.4176101875434
 20
-104.8060091404653
 30
0.0
 10
112.4727140750265
 20
-104.8060091404653
 30
0.0
 10
112.5278532402864
 20
-104.8060091404653
 30
0.0
 10
112.5726207391443
 20
-104.7612063626986
 30
0.0
 10
112.5726207391443
 20
-104.7061024738234
 30
0.0
  0
SPLINE
  5
6E
330
1F
100
AcDbEntity
  8
_U+30EC_U+30A4_U+30E4_U+30FC 1
 62
   179
420
  2234388
370
     9
100
AcDbSpline
210
0.0
220
0.0
230
1.0
 70
    11
 71
     3
 72
    17
 73
    13
 74
     0
 42
0.0000000001
 43
0.0000000001
 12
1.0
 22
0.0
 32
0.0
 13
1.0
 23
0.0
 33
0.0
 40
0.0
 40
0.0
 40
0.0
 40
0.0
 40
1.0
 40
1.0
 40
1.0
 40
2.0
 40
2.0
 40
2.0
 40
3.0
 40
3.0
 40
3.0
 40
4.0
 40
4.0
 40
4.0
 40
4.0
 10
112.5726207391443
 20
-154.7054732946571
 30
0.0
 10
112.5726207391443
 20
-154.650334128004
 30
0.0
 10
112.5278532402864
 20
-154.6055666280154
 30
0.0
 10
112.4727140750265
 20
-154.6055666280154
 30
0.0
 10
112.4176101875434
 20
-154.6055666280154
 30
0.0
 10
112.3728074109086
 20
-154.650334128004
 30
0.0
 10
112.3728074109086
 20
-154.7054732946571
 30
0.0
 10
112.3728074109086
 20
-154.7612827390875
 30
0.0
 10
112.4176101875434
 20
-154.8060502390761
 30
0.0
 10
112.4727140750265
 20
-154.8060502390761
 30
0.0
 10
112.5278532402864
 20
-154.8060502390761
 30
0.0
 10
112.5726207391443
 20
-154.7612827390875
 30
0.0
 10
112.5726207391443
 20
-154.7054732946571
 30
0.0
  0
SPLINE
  5
6F
330
1F
100
AcDbEntity
  8
_U+30EC_U+30A4_U+30E4_U+30FC 1
 62
   179
420
  2234388
370
     9
100
AcDbSpline
210
0.0
220
0.0
230
1.0
 70
    11
 71
     3
 72
    17
 73
    13
 74
     0
 42
0.0000000001
 43
0.0000000001
 12
1.0
 22
0.0
 32
0.0
 13
1.0
 23
0.0
 33
0.0
 40
0.0
 40
0.0
 40
0.0
 40
0.0
 40
1.0
 40
1.0
 40
1.0
 40
2.0
 40
2.0
 40
2.0
 40
3.0
 40
3.0
 40
3.0
 40
4.0
 40
4.0
 40
4.0
 40
4.0
 10
88.57254940699268
 20
-159.9054882933571
 30
0.0
 10
88.57254940699268
 20
-159.8503491267041
 30
0.0
 10
88.52774663035791
 20
-159.8055816267155
 30
0.0
 10
88.47264274287484
 20
-159.8055816267155
 30
0.0
 10
88.41683329985422
 20
-159.8055816267155
 30
0.0
 10
88.372736078757
 20
-159.8503491267041
 30
0.0
 10
88.372736078757
 20
-159.9054882933571
 30
0.0
 10
88.372736078757
 20
-159.9612977377876
 30
0.0
 10
88.41683329985422
 20
-160.0060652377761
 30
0.0
 10
88.47264274287484
 20
-160.0060652377761
 30
0.0
 10
88.52774663035791
 20
-160.0060652377761
 30
0.0
 10
88.57254940699268
 20
-159.9612977377876
 30
0.0
 10
88.57254940699268
 20
-159.9054882933571
 30
0.0
  0
SPLINE
  5
70
330
1F
100
AcDbEntity
  8
_U+30EC_U+30A4_U+30E4_U+30FC 1
 62
   179
420
  2234388
370
     9
100
AcDbSpline
210
0.0
220
0.0
230
1.0
 70
    11
 71
     3
 72
    17
 73
    13
 74
     0
 42
0.0000000001
 43
0.0000000001
 12
1.0
 22
0.0
 32
0.0
 13
1.0
 23
0.0
 33
0.0
 40
0.0
 40
0.0
 40
0.0
 40
0.0
 40
1.0
 40
1.0
 40
1.0
 40
2.0
 40
2.0
 40
2.0
 40
3.0
 40
3.0
 40
3.0
 40
4.0
 40
4.0
 40
4.0
 40
4.0
 10
63.57217671147199
 20
-159.9054882933571
 30
0.0
 10
63.57217671147199
 20
-159.8503491267041
 30
0.0
 10
63.52737393483722
 20
-159.8055816267155
 30
0.0
 10
63.47227004735415
 20
-159.8055816267155
 30
0.0
 10
63.4171308820942
 20
-159.8055816267155
 30
0.0
 10
63.37236338323632
 20
-159.8503491267041
 30
0.0
 10
63.37236338323632
 20
-159.9054882933571
 30
0.0
 10
63.37236338323632
 20
-159.9612977377876
 30
0.0
 10
63.4171308820942
 20
-160.0060652377761
 30
0.0
 10
63.47227004735415
 20
-160.0060652377761
 30
0.0
 10
63.52737393483722
 20
-160.0060652377761
 30
0.0
 10
63.57217671147199
 20
-159.9612977377876
 30
0.0
 10
63.57217671147199
 20
-159.9054882933571
 30
0.0
  0
SPLINE
  5
71
330
1F
100
AcDbEntity
  8
_U+30EC_U+30A4_U+30E4_U+30FC 1
 62
   179
420
  2234388
370
     9
100
AcDbSpline
210
0.0
220
0.0
230
1.0
 70
    11
 71
     3
 72
    17
 73
    13
 74
     0
 42
0.0000000001
 43
0.0000000001
 12
1.0
 22
0.0
 32
0.0
 13
1.0
 23
0.0
 33
0.0
 40
0.0
 40
0.0
 40
0.0
 40
0.0
 40
1.0
 40
1.0
 40
1.0
 40
2.0
 40
2.0
 40
2.0
 40
3.0
 40
3.0
 40
3.0
 40
4.0
 40
4.0
 40
4.0
 40
4.0
 10
63.57217671147199
 20
-99.50608747512362
 30
0.0
 10
63.57217671147199
 20
-99.45027803069287
 30
0.0
 10
63.52737393483722
 20
-99.40547525292646
 30
0.0
 10
63.47227004735415
 20
-99.40547525292646
 30
0.0
 10
63.4171308820942
 20
-99.40547525292646
 30
0.0
 10
63.37236338323632
 20
-99.45027803069287
 30
0.0
 10
63.37236338323632
 20
-99.50608747512362
 30
0.0
 10
63.37236338323632
 20
-99.56119136399855
 30
0.0
 10
63.4171308820942
 20
-99.60599414176527
 30
0.0
 10
63.47227004735415
 20
-99.60599414176527
 30
0.0
 10
63.52737393483722
 20
-99.60599414176527
 30
0.0
 10
63.57217671147199
 20
-99.56119136399855
 30
0.0
 10
63.57217671147199
 20
-99.50608747512362
 30
0.0
  0
SPLINE
  5
72
330
1F
100
AcDbEntity
  8
_U+30EC_U+30A4_U+30E4_U+30FC 1
 62
   179
420
  2234388
370
     9
100
AcDbSpline
210
0.0
220
0.0
230
1.0
 70
    11
 71
     3
 72
    17
 73
    13
 74
     0
 42
0.0000000001
 43
0.0000000001
 12
1.0
 22
0.0
 32
0.0
 13
1.0
 23
0.0
 33
0.0
 40
0.0
 40
0.0
 40
0.0
 40
0.0
 40
1.0
 40
1.0
 40
1.0
 40
2.0
 40
2.0
 40
2.0
 40
3.0
 40
3.0
 40
3.0
 40
4.0
 40
4.0
 40
4.0
 40
4.0
 10
108.57286167452
 20
-99.50608747512362
 30
0.0
 10
108.57286167452
 20
-99.45027803069287
 30
0.0
 10
108.5280941756621
 20
-99.40547525292646
 30
0.0
 10
108.4722847326415
 20
-99.40547525292646
 30
0.0
 10
108.4171455673815
 20
-99.40547525292646
 30
0.0
 10
108.3723780685236
 20
-99.45027803069287
 30
0.0
 10
108.3723780685236
 20
-99.50608747512362
 30
0.0
 10
108.3723780685236
 20
-99.56119136399855
 30
0.0
 10
108.4171455673815
 20
-99.60599414176527
 30
0.0
 10
108.4722847326415
 20
-99.60599414176527
 30
0.0
 10
108.5280941756621
 20
-99.60599414176527
 30
0.0
 10
108.57286167452
 20
-99.56119136399855
 30
0.0
 10
108.57286167452
 20
-99.50608747512362
 30
0.0
  0
SPLINE
  5
73
330
1F
100
AcDbEntity
  8
_U+30EC_U+30A4_U+30E4_U+30FC 1
 62
   179
420
  2234388
370
     9
100
AcDbSpline
210
0.0
220
0.0
230
1.0
 70
    11
 71
     3
 72
    17
 73
    13
 74
     0
 42
0.0000000001
 43
0.0000000001
 12
1.0
 22
0.0
 32
0.0
 13
1.0
 23
0.0
 33
0.0
 40
0.0
 40
0.0
 40
0.0
 40
0.0
 40
1.0
 40
1.0
 40
1.0
 40
2.0
 40
2.0
 40
2.0
 40
3.0
 40
3.0
 40
3.0
 40
4.0
 40
4.0
 40
4.0
 40
4.0
 10
112.5726207391443
 20
-155.9057291276903
 30
0.0
 10
112.5726207391443
 20
-155.8506252388153
 30
0.0
 10
112.5278532402864
 20
-155.8058224610486
 30
0.0
 10
112.4727140750265
 20
-155.8058224610486
 30
0.0
 10
112.4176101875434
 20
-155.8058224610486
 30
0.0
 10
112.3728074109086
 20
-155.8506252388153
 30
0.0
 10
112.3728074109086
 20
-155.9057291276903
 30
0.0
 10
112.3728074109086
 20
-155.9608682943433
 30
0.0
 10
112.4176101875434
 20
-156.0056357943319
 30
0.0
 10
112.4727140750265
 20
-156.0056357943319
 30
0.0
 10
112.5278532402864
 20
-156.0056357943319
 30
0.0
 10
112.5726207391443
 20
-155.9608682943433
 30
0.0
 10
112.5726207391443
 20
-155.9057291276903
 30
0.0
  0
POLYLINE
  5
74
330
1F
100
AcDbEntity
  8
_U+30EC_U+30A4_U+30E4_U+30FC 1
 62
   179
420
  2234388
370
     9
100
AcDb2dPolyline
 66
     1
 10
0.0
 20
0.0
 30
0.0
  0
VERTEX
  5
75
330
74
100
AcDbEntity
  8
_U+30EC_U+30A4_U+30E4_U+30FC 1
 62
   179
420
  2234388
370
     9
100
AcDbVertex
100
AcDb2dVertex
 10
63.47227004735415
 20
-159.9054882933571
 30
0.0
  0
VERTEX
  5
76
330
74
100
AcDbEntity
  8
_U+30EC_U+30A4_U+30E4_U+30FC 1
 62
   179
420
  2234388
370
     9
100
AcDbVertex
100
AcDb2dVertex
 10
88.47264274287484
 20
-159.9054882933571
 30
0.0
  0
SEQEND
  5
77
330
74
100
AcDbEntity
  8
_U+30EC_U+30A4_U+30E4_U+30FC 1
 62
   179
420
  2234388
370
     9
  0
POLYLINE
  5
78
330
1F
100
AcDbEntity
  8
_U+30EC_U+30A4_U+30E4_U+30FC 1
 62
   179
420
  2234388
370
     9
100
AcDb2dPolyline
 66
     1
 10
0.0
 20
0.0
 30
0.0
  0
VERTEX
  5
79
330
78
100
AcDbEntity
  8
_U+30EC_U+30A4_U+30E4_U+30FC 1
 62
   179
420
  2234388
370
     9
100
AcDbVertex
100
AcDb2dVertex
 10
63.47227004735415
 20
-158.4454469048328
 30
0.0
  0
VERTEX
  5
7A
330
78
100
AcDbEntity
  8
_U+30EC_U+30A4_U+30E4_U+30FC 1
 62
   179
420
  2234388
370
     9
100
AcDbVertex
100
AcDb2dVertex
 10
63.47227004735415
 20
-160.905930793107
 30
0.0
  0
SEQEND
  5
7B
330
78
100
AcDbEntity
  8
_U+30EC_U+30A4_U+30E4_U+30FC 1
 62
   179
420
  2234388
370
     9
  0
POLYLINE
  5
7C
330
1F
100
AcDbEntity
  8
_U+30EC_U+30A4_U+30E4_U+30FC 1
 62
   179
420
  2234388
370
     9
100
AcDb2dPolyline
 66
     1
 10
0.0
 20
0.0
 30
0.0
  0
VERTEX
  5
7D
330
7C
100
AcDbEntity
  8
_U+30EC_U+30A4_U+30E4_U+30FC 1
 62
   179
420
  2234388
370
     9
100
AcDbVertex
100
AcDb2dVertex
 10
88.47264274287484
 20
-158.4454469048328
 30
0.0
  0
VERTEX
  5
7E
330
7C
100
AcDbEntity
  8
_U+30EC_U+30A4_U+30E4_U+30FC 1
 62
   179
420
  2234388
370
     9
100
AcDbVertex
100
AcDb2dVertex
 10
88.47264274287484
 20
-160.905930793107
 30
0.0
  0
SEQEND
  5
7F
330
7C
100
AcDbEntity
  8
_U+30EC_U+30A4_U+30E4_U+30FC 1
 62
   179
420
  2234388
370
     9
  0
INSERT
  5
81
330
1F
100
AcDbEntity
  8
_U+30EC_U+30A4_U+30E4_U+30FC 1
100
AcDbBlockReference
  2
block 2
 10
0.0
 20
0.0
 30
0.0
  0
POLYLINE
  5
88
330
1F
100
AcDbEntity
  8
_U+30EC_U+30A4_U+30E4_U+30FC 1
 62
   179
420
  2234388
370
     9
100
AcDb2dPolyline
 66
     1
 10
0.0
 20
0.0
 30
0.0
  0
VERTEX
  5
89
330
88
100
AcDbEntity
  8
_U+30EC_U+30A4_U+30E4_U+30FC 1
 62
   179
420
  2234388
370
     9
100
AcDbVertex
100
AcDb2dVertex
 10
63.47227004735415
 20
-99.50608747512362
 30
0.0
  0
VERTEX
  5
8A
330
88
100
AcDbEntity
  8
_U+30EC_U+30A4_U+30E4_U+30FC 1
 62
   179
420
  2234388
370
     9
100
AcDbVertex
100
AcDb2dVertex
 10
108.4722847326415
 20
-99.50608747512362
 30
0.0
  0
SEQEND
  5
8B
330
88
100
AcDbEntity
  8
_U+30EC_U+30A4_U+30E4_U+30FC 1
 62
   179
420
  2234388
370
     9
  0
POLYLINE
  5
8C
330
1F
100
AcDbEntity
  8
_U+30EC_U+30A4_U+30E4_U+30FC 1
 62
   179
420
  2234388
370
     9
100
AcDb2dPolyline
 66
     1
 10
0.0
 20
0.0
 30
0.0
  0
VERTEX
  5
8D
330
8C
100
AcDbEntity
  8
_U+30EC_U+30A4_U+30E4_U+30FC 1
 62
   179
420
  2234388
370
     9
100
AcDbVertex
100
AcDb2dVertex
 10
63.47227004735415
 20
-100.9660935858695
 30
0.0
  0
VERTEX
  5
8E
330
8C
100
AcDbEntity
  8
_U+30EC_U+30A4_U+30E4_U+30FC 1
 62
   179
420
  2234388
370
     9
100
AcDbVertex
100
AcDb2dVertex
 10
63.47227004735415
 20
-98.50560969759589
 30
0.0
  0
SEQEND
  5
8F
330
8C
100
AcDbEntity
  8
_U+30EC_U+30A4_U+30E4_U+30FC 1
 62
   179
420
  2234388
370
     9
  0
POLYLINE
  5
90
330
1F
100
AcDbEntity
  8
_U+30EC_U+30A4_U+30E4_U+30FC 1
 62
   179
420
  2234388
370
     9
100
AcDb2dPolyline
 66
     1
 10
0.0
 20
0.0
 30
0.0
  0
VERTEX
  5
91
330
90
100
AcDbEntity
  8
_U+30EC_U+30A4_U+30E4_U+30FC 1
 62
   179
420
  2234388
370
     9
100
AcDbVertex
100
AcDb2dVertex
 10
108.4722847326415
 20
-100.9660935858695
 30
0.0
  0
VERTEX
  5
92
330
90
100
AcDbEntity
  8
_U+30EC_U+30A4_U+30E4_U+30FC 1
 62
   179
420
  2234388
370
     9
100
AcDbVertex
100
AcDb2dVertex
 10
108.4722847326415
 20
-98.50560969759589
 30
0.0
  0
SEQEND
  5
93
330
90
100
AcDbEntity
  8
_U+30EC_U+30A4_U+30E4_U+30FC 1
 62
   179
420
  2234388
370
     9
  0
INSERT
  5
95
330
1F
100
AcDbEntity
  8
_U+30EC_U+30A4_U+30E4_U+30FC 1
100
AcDbBlockReference
  2
block 3
 10
0.0
 20
0.0
 30
0.0
  0
POLYLINE
  5
AF
330
1F
100
AcDbEntity
  8
_U+30EC_U+30A4_U+30E4_U+30FC 1
 62
   179
420
  2234388
370
     9
100
AcDb2dPolyline
 66
     1
 10
0.0
 20
0.0
 30
0.0
  0
VERTEX
  5
B0
330
AF
100
AcDbEntity
  8
_U+30EC_U+30A4_U+30E4_U+30FC 1
 62
   179
420
  2234388
370
     9
100
AcDbVertex
100
AcDb2dVertex
 10
112.4727140750265
 20
-154.7054732946571
 30
0.0
  0
VERTEX
  5
B1
330
AF
100
AcDbEntity
  8
_U+30EC_U+30A4_U+30E4_U+30FC 1
 62
   179
420
  2234388
370
     9
100
AcDbVertex
100
AcDb2dVertex
 10
112.4727140750265
 20
-155.9057291276903
 30
0.0
  0
SEQEND
  5
B2
330
AF
100
AcDbEntity
  8
_U+30EC_U+30A4_U+30E4_U+30FC 1
 62
   179
420
  2234388
370
     9
  0
POLYLINE
  5
B3
330
1F
100
AcDbEntity
  8
_U+30EC_U+30A4_U+30E4_U+30FC 1
 62
   179
420
  2234388
370
     9
100
AcDb2dPolyline
 66
     1
 10
0.0
 20
0.0
 30
0.0
  0
VERTEX
  5
B4
330
B3
100
AcDbEntity
  8
_U+30EC_U+30A4_U+30E4_U+30FC 1
 62
   179
420
  2234388
370
     9
100
AcDbVertex
100
AcDb2dVertex
 10
91.01236045585902
 20
-155.9057291276903
 30
0.0
  0
VERTEX
  5
B5
330
B3
100
AcDbEntity
  8
_U+30EC_U+30A4_U+30E4_U+30FC 1
 62
   179
420
  2234388
370
     9
100
AcDbVertex
100
AcDb2dVertex
 10
113.4724862717424
 20
-155.9057291276903
 30
0.0
  0
SEQEND
  5
B6
330
B3
100
AcDbEntity
  8
_U+30EC_U+30A4_U+30E4_U+30FC 1
 62
   179
420
  2234388
370
     9
  0
INSERT
  5
B8
330
1F
100
AcDbEntity
  8
_U+30EC_U+30A4_U+30E4_U+30FC 1
100
AcDbBlockReference
  2
block 4
 10
0.0
 20
0.0
 30
0.0
  0
POLYLINE
  5
C7
330
1F
100
AcDbEntity
  8
_U+30EC_U+30A4_U+30E4_U+30FC 1
 62
   179
420
  2234388
370
     9
100
AcDb2dPolyline
 66
     1
 10
0.0
 20
0.0
 30
0.0
  0
VERTEX
  5
C8
330
C7
100
AcDbEntity
  8
_U+30EC_U+30A4_U+30E4_U+30FC 1
 62
   179
420
  2234388
370
     9
100
AcDbVertex
100
AcDb2dVertex
 10
112.4727140750265
 20
-154.7054732946571
 30
0.0
  0
VERTEX
  5
C9
330
C7
100
AcDbEntity
  8
_U+30EC_U+30A4_U+30E4_U+30FC 1
 62
   179
420
  2234388
370
     9
100
AcDbVertex
100
AcDb2dVertex
 10
112.4727140750265
 20
-104.7061024738234
 30
0.0
  0
SEQEND
  5
CA
330
C7
100
AcDbEntity
  8
_U+30EC_U+30A4_U+30E4_U+30FC 1
 62
   179
420
  2234388
370
     9
  0
POLYLINE
  5
CB
330
1F
100
AcDbEntity
  8
_U+30EC_U+30A4_U+30E4_U+30FC 1
 62
   179
420
  2234388
370
     9
100
AcDb2dPolyline
 66
     1
 10
0.0
 20
0.0
 30
0.0
  0
VERTEX
  5
CC
330
CB
100
AcDbEntity
  8
_U+30EC_U+30A4_U+30E4_U+30FC 1
 62
   179
420
  2234388
370
     9
100
AcDbVertex
100
AcDb2dVertex
 10
91.01236045585902
 20
-154.7054732946571
 30
0.0
  0
VERTEX
  5
CD
330
CB
100
AcDbEntity
  8
_U+30EC_U+30A4_U+30E4_U+30FC 1
 62
   179
420
  2234388
370
     9
100
AcDbVertex
100
AcDb2dVertex
 10
113.4724862717424
 20
-154.7054732946571
 30
0.0
  0
SEQEND
  5
CE
330
CB
100
AcDbEntity
  8
_U+30EC_U+30A4_U+30E4_U+30FC 1
 62
   179
420
  2234388
370
     9
  0
POLYLINE
  5
CF
330
1F
100
AcDbEntity
  8
_U+30EC_U+30A4_U+30E4_U+30FC 1
 62
   179
420
  2234388
370
     9
100
AcDb2dPolyline
 66
     1
 10
0.0
 20
0.0
 30
0.0
  0
VERTEX
  5
D0
330
CF
100
AcDbEntity
  8
_U+30EC_U+30A4_U+30E4_U+30FC 1
 62
   179
420
  2234388
370
     9
100
AcDbVertex
100
AcDb2dVertex
 10
111.0126727233863
 20
-104.7061024738234
 30
0.0
  0
VERTEX
  5
D1
330
CF
100
AcDbEntity
  8
_U+30EC_U+30A4_U+30E4_U+30FC 1
 62
   179
420
  2234388
370
     9
100
AcDbVertex
100
AcDb2dVertex
 10
113.4724862717424
 20
-104.7061024738234
 30
0.0
  0
SEQEND
  5
D2
330
CF
100
AcDbEntity
  8
_U+30EC_U+30A4_U+30E4_U+30FC 1
 62
   179
420
  2234388
370
     9
  0
INSERT
  5
D4
330
1F
100
AcDbEntity
  8
_U+30EC_U+30A4_U+30E4_U+30FC 1
100
AcDbBlockReference
  2
block 5
 10
0.0
 20
0.0
 30
0.0
  0
ENDSEC
  0
SECTION
  2
OBJECTS
  0
DICTIONARY
  5
C
330
0
100
AcDbDictionary
281
     1
  3
ACAD_GROUP
350
D
  3
ACAD_LAYOUT
350
1A
  3
ACAD_MATERIAL
350
3B
  3
ACAD_MLEADERSTYLE
350
DD
  3
ACAD_MLINESTYLE
350
17
  3
ACAD_PLOTSETTINGS
350
19
  3
ACAD_PLOTSTYLENAME
350
E
  3
ACAD_TABLESTYLE
350
DC
  3
ACAD_VISUALSTYLE
350
2A
  0
SUN
  5
3F
330
29
100
AcDbSun
 90
        1
290
     0
 63
     7
421
 16777215
 40
1.0
291
     1
 91
  2455826
 92
 54000000
292
     0
 70
     2
 71
   256
280
     1
  0
DICTIONARY
  5
D
102
{ACAD_REACTORS
330
C
102
}
330
C
100
AcDbDictionary
281
     1
  0
DICTIONARY
  5
1A
102
{ACAD_REACTORS
330
C
102
}
330
C
100
AcDbDictionary
281
     1
  3
Layout1
350
1E
  3
Layout2
350
26
  3
Model
350
22
  0
DICTIONARY
  5
3B
102
{ACAD_REACTORS
330
C
102
}
330
C
100
AcDbDictionary
281
     1
  3
ByBlock
350
3D
  3
ByLayer
350
3C
  3
Global
350
3E
  0
DICTIONARY
  5
DD
102
{ACAD_REACTORS
330
C
102
}
330
C
100
AcDbDictionary
281
     1
  0
DICTIONARY
  5
17
102
{ACAD_REACTORS
330
C
102
}
330
C
100
AcDbDictionary
281
     1
  3
Standard
350
18
  0
DICTIONARY
  5
19
102
{ACAD_REACTORS
330
C
102
}
330
C
100
AcDbDictionary
281
     1
  0
ACDBDICTIONARYWDFLT
  5
E
102
{ACAD_REACTORS
330
C
102
}
330
C
100
AcDbDictionary
281
     1
  3
Normal
350
F
100
AcDbDictionaryWithDefault
340
F
  0
DICTIONARY
  5
DC
102
{ACAD_REACTORS
330
C
102
}
330
C
100
AcDbDictionary
281
     1
  0
DICTIONARY
  5
2A
102
{ACAD_REACTORS
330
C
102
}
330
C
100
AcDbDictionary
281
     1
  3
2dWireframe
350
2F
  3
3D Hidden
350
31
  3
3dWireframe
350
30
  3
Basic
350
32
  3
Brighten
350
36
  3
ColorChange
350
3A
  3
Conceptual
350
34
  3
Dim
350
35
  3
Facepattern
350
39
  3
Flat
350
2B
  3
FlatWithEdges
350
2C
  3
Gouraud
350
2D
  3
GouraudWithEdges
350
2E
  3
Linepattern
350
38
  3
Realistic
350
33
  3
Thicken
350
37
  0
LAYOUT
  5
1E
102
{ACAD_REACTORS
330
1A
102
}
330
1A
100
AcDbPlotSettings
  1

  2
none_device
  4

  6

 40
0.0
 41
0.0
 42
0.0
 43
0.0
 44
0.0
 45
0.0
 46
0.0
 47
0.0
 48
0.0
 49
0.0
140
0.0
141
0.0
142
1.0
143
1.0
 70
   688
 72
     0
 73
     0
 74
     5
  7

 75
    16
 76
     0
 77
     2
 78
   300
147
1.0
148
0.0
149
0.0
100
AcDbLayout
  1
Layout1
 70
     1
 71
     1
 10
0.0
 20
0.0
 11
12.0
 21
9.0
 12
0.0
 22
0.0
 32
0.0
 14
1.000000000000000E+20
 24
1.000000000000000E+20
 34
1.000000000000000E+20
 15
-1.000000000000000E+20
 25
-1.000000000000000E+20
 35
-1.000000000000000E+20
146
0.0
 13
0.0
 23
0.0
 33
0.0
 16
1.0
 26
0.0
 36
0.0
 17
0.0
 27
1.0
 37
0.0
 76
     0
330
1B
  0
LAYOUT
  5
26
102
{ACAD_REACTORS
330
1A
102
}
330
1A
100
AcDbPlotSettings
  1

  2
none_device
  4

  6

 40
0.0
 41
0.0
 42
0.0
 43
0.0
 44
0.0
 45
0.0
 46
0.0
 47
0.0
 48
0.0
 49
0.0
140
0.0
141
0.0
142
1.0
143
1.0
 70
   688
 72
     0
 73
     0
 74
     5
  7

 75
    16
 76
     0
 77
     2
 78
   300
147
1.0
148
0.0
149
0.0
100
AcDbLayout
  1
Layout2
 70
     1
 71
     2
 10
0.0
 20
0.0
 11
0.0
 21
0.0
 12
0.0
 22
0.0
 32
0.0
 14
0.0
 24
0.0
 34
0.0
 15
0.0
 25
0.0
 35
0.0
146
0.0
 13
0.0
 23
0.0
 33
0.0
 16
1.0
 26
0.0
 36
0.0
 17
0.0
 27
1.0
 37
0.0
 76
     0
330
23
  0
LAYOUT
  5
22
102
{ACAD_REACTORS
330
1A
102
}
330
1A
100
AcDbPlotSettings
  1

  2
none_device
  4

  6

 40
0.0
 41
0.0
 42
0.0
 43
0.0
 44
0.0
 45
0.0
 46
0.0
 47
0.0
 48
0.0
 49
0.0
140
0.0
141
0.0
142
1.0
143
1.0
 70
  1712
 72
     0
 73
     0
 74
     0
  7

 75
     0
 76
     0
 77
     2
 78
   300
147
1.0
148
0.0
149
0.0
100
AcDbLayout
  1
Model
 70
     1
 71
     0
 10
0.0
 20
0.0
 11
12.0
 21
9.0
 12
0.0
 22
0.0
 32
0.0
 14
1.000000000000000E+20
 24
1.000000000000000E+20
 34
1.000000000000000E+20
 15
-1.000000000000000E+20
 25
-1.000000000000000E+20
 35
-1.000000000000000E+20
146
0.0
 13
0.0
 23
0.0
 33
0.0
 16
1.0
 26
0.0
 36
0.0
 17
0.0
 27
1.0
 37
0.0
 76
     0
330
1F
331
29
  0
MATERIAL
  5
3D
102
{ACAD_REACTORS
330
3B
102
}
330
3B
100
AcDbMaterial
  1
ByBlock
 72
     1
 94
      127
  0
MATERIAL
  5
3C
102
{ACAD_REACTORS
330
3B
102
}
330
3B
100
AcDbMaterial
  1
ByLayer
 72
     1
 94
      127
  0
MATERIAL
  5
3E
102
{ACAD_REACTORS
330
3B
102
}
330
3B
100
AcDbMaterial
  1
Global
 72
     1
 94
      127
  0
MLINESTYLE
  5
18
102
{ACAD_REACTORS
330
17
102
}
330
17
100
AcDbMlineStyle
  2
Standard
 70
     0
  3

 62
   256
 51
90.0
 52
90.0
 71
     2
 49
0.5
 62
   256
  6
BYLAYER
 49
-0.5
 62
   256
  6
BYLAYER
  0
ACDBPLACEHOLDER
  5
F
102
{ACAD_REACTORS
330
E
102
}
330
E
  0
VISUALSTYLE
  5
2F
102
{ACAD_REACTORS
330
2A
102
}
330
2A
100
AcDbVisualStyle
  2
2dWireframe
 70
     4
177
     2
291
     0
 71
     0
176
     1
 72
     2
176
     1
 73
     0
176
     1
 90
        0
176
     1
 40
-0.6
176
     1
 41
-30.0
176
     1
 62
     5
 63
     7
421
 16777215
176
     1
 74
     1
176
     1
 91
        4
176
     1
 64
     7
176
     1
 65
   257
176
     1
 75
     1
176
     1
175
     1
176
     1
 42
1.0
176
     1
 92
        0
176
     1
 66
   257
176
     1
 43
1.0
176
     1
 76
     1
176
     1
 77
     6
176
     1
 78
     2
176
     1
 67
     7
176
     1
 79
     5
176
     1
170
     0
176
     1
171
     0
176
     1
290
     0
176
     1
 93
        1
176
     1
 44
0.0
176
     1
173
     0
176
     1
  0
VISUALSTYLE
  5
31
102
{ACAD_REACTORS
330
2A
102
}
330
2A
100
AcDbVisualStyle
  2
3D Hidden
 70
     6
177
     2
291
     0
 71
     1
176
     1
 72
     2
176
     1
 73
     2
176
     1
 90
        0
176
     1
 40
-0.6
176
     1
 41
-30.0
176
     1
 62
     5
 63
     7
421
 16777215
176
     1
 74
     2
176
     1
 91
        2
176
     1
 64
     7
176
     1
 65
   257
176
     1
 75
     2
176
     1
175
     1
176
     1
 42
40.0
176
     1
 92
        0
176
     1
 66
   257
176
     1
 43
1.0
176
     1
 76
     1
176
     1
 77
     6
176
     1
 78
     2
176
     1
 67
     7
176
     1
 79
     3
176
     1
170
     0
176
     1
171
     0
176
     1
290
     0
176
     1
 93
        1
176
     1
 44
0.0
176
     1
173
     0
176
     1
  0
VISUALSTYLE
  5
30
102
{ACAD_REACTORS
330
2A
102
}
330
2A
100
AcDbVisualStyle
  2
3dWireframe
 70
     5
177
     2
291
     0
 71
     0
176
     1
 72
     2
176
     1
 73
     0
176
     1
 90
        0
176
     1
 40
-0.6
176
     1
 41
-30.0
176
     1
 62
     5
 63
     7
421
 16777215
176
     1
 74
     1
176
     1
 91
        4
176
     1
 64
     7
176
     1
 65
   257
176
     1
 75
     1
176
     1
175
     1
176
     1
 42
1.0
176
     1
 92
        0
176
     1
 66
   257
176
     1
 43
1.0
176
     1
 76
     1
176
     1
 77
     6
176
     1
 78
     2
176
     1
 67
     7
176
     1
 79
     5
176
     1
170
     0
176
     1
171
     0
176
     1
290
     0
176
     1
 93
        1
176
     1
 44
0.0
176
     1
173
     0
176
     1
  0
VISUALSTYLE
  5
32
102
{ACAD_REACTORS
330
2A
102
}
330
2A
100
AcDbVisualStyle
  2
Basic
 70
     7
177
     2
291
     1
 71
     1
176
     1
 72
     0
176
     1
 73
     1
176
     1
 90
        0
176
     1
 40
-0.6
176
     1
 41
-30.0
176
     1
 62
     5
 63
     7
421
 16777215
176
     1
 74
     0
176
     1
 91
        4
176
     1
 64
     7
176
     1
 65
   257
176
     1
 75
     1
176
     1
175
     1
176
     1
 42
1.0
176
     1
 92
        8
176
     1
 66
     7
176
     1
 43
1.0
176
     1
 76
     1
176
     1
 77
     6
176
     1
 78
     2
176
     1
 67
     7
176
     1
 79
     5
176
     1
170
     0
176
     1
171
     0
176
     1
290
     0
176
     1
 93
        1
176
     1
 44
0.0
176
     1
173
     0
176
     1
  0
VISUALSTYLE
  5
36
102
{ACAD_REACTORS
330
2A
102
}
330
2A
100
AcDbVisualStyle
  2
Brighten
 70
    12
177
     2
291
     1
 71
     2
176
     1
 72
     2
176
     1
 73
     0
176
     1
 90
        0
176
     1
 40
-0.6
176
     1
 41
-30.0
176
     1
 62
     5
 63
     7
421
 16777215
176
     1
 74
     1
176
     1
 91
        4
176
     1
 64
     7
176
     1
 65
   257
176
     1
 75
     1
176
     1
175
     1
176
     1
 42
1.0
176
     1
 92
        8
176
     1
 66
     7
176
     1
 43
1.0
176
     1
 76
     1
176
     1
 77
     6
176
     1
 78
     2
176
     1
 67
     7
176
     1
 79
     5
176
     1
170
     0
176
     1
171
     0
176
     1
290
     0
176
     1
 93
        1
176
     1
 44
50.0
176
     1
173
     0
176
     1
  0
VISUALSTYLE
  5
3A
102
{ACAD_REACTORS
330
2A
102
}
330
2A
100
AcDbVisualStyle
  2
ColorChange
 70
    16
177
     2
291
     1
 71
     2
176
     1
 72
     2
176
     1
 73
     3
176
     1
 90
        0
176
     1
 40
-0.6
176
     1
 41
-30.0
176
     1
 62
     5
 63
     8
421
  8421504
176
     1
 74
     1
176
     1
 91
        4
176
     1
 64
     7
176
     1
 65
   257
176
     1
 75
     1
176
     1
175
     1
176
     1
 42
1.0
176
     1
 92
        8
176
     1
 66
     8
424
  8421504
176
     1
 43
1.0
176
     1
 76
     1
176
     1
 77
     6
176
     1
 78
     2
176
     1
 67
     7
176
     1
 79
     5
176
     1
170
     0
176
     1
171
     0
176
     1
290
     0
176
     1
 93
        1
176
     1
 44
0.0
176
     1
173
     0
176
     1
  0
VISUALSTYLE
  5
34
102
{ACAD_REACTORS
330
2A
102
}
330
2A
100
AcDbVisualStyle
  2
Conceptual
 70
     9
177
     2
291
     0
 71
     3
176
     1
 72
     2
176
     1
 73
     0
176
     1
 90
        0
176
     1
 40
-0.6
176
     1
 41
-30.0
176
     1
 62
     5
 63
     7
421
 16777215
176
     1
 74
     2
176
     1
 91
        2
176
     1
 64
     7
176
     1
 65
   257
176
     1
 75
     1
176
     1
175
     1
176
     1
 42
40.0
176
     1
 92
        8
176
     1
 66
     7
176
     1
 43
1.0
176
     1
 76
     1
176
     1
 77
     6
176
     1
 78
     2
176
     1
 67
     7
176
     1
 79
     3
176
     1
170
     0
176
     1
171
     0
176
     1
290
     0
176
     1
 93
        1
176
     1
 44
0.0
176
     1
173
     0
176
     1
  0
VISUALSTYLE
  5
35
102
{ACAD_REACTORS
330
2A
102
}
330
2A
100
AcDbVisualStyle
  2
Dim
 70
    11
177
     2
291
     1
 71
     2
176
     1
 72
     2
176
     1
 73
     0
176
     1
 90
        0
176
     1
 40
-0.6
176
     1
 41
-30.0
176
     1
 62
     5
 63
     7
421
 16777215
176
     1
 74
     1
176
     1
 91
        4
176
     1
 64
     7
176
     1
 65
   257
176
     1
 75
     1
176
     1
175
     1
176
     1
 42
1.0
176
     1
 92
        8
176
     1
 66
     7
176
     1
 43
1.0
176
     1
 76
     1
176
     1
 77
     6
176
     1
 78
     2
176
     1
 67
     7
176
     1
 79
     5
176
     1
170
     0
176
     1
171
     0
176
     1
290
     0
176
     1
 93
        1
176
     1
 44
-50.0
176
     1
173
     0
176
     1
  0
VISUALSTYLE
  5
39
102
{ACAD_REACTORS
330
2A
102
}
330
2A
100
AcDbVisualStyle
  2
Facepattern
 70
    15
177
     2
291
     1
 71
     2
176
     1
 72
     2
176
     1
 73
     0
176
     1
 90
        0
176
     1
 40
-0.6
176
     1
 41
-30.0
176
     1
 62
     5
 63
     7
421
 16777215
176
     1
 74
     1
176
     1
 91
        4
176
     1
 64
     7
176
     1
 65
   257
176
     1
 75
     1
176
     1
175
     1
176
     1
 42
1.0
176
     1
 92
        8
176
     1
 66
     7
176
     1
 43
1.0
176
     1
 76
     1
176
     1
 77
     6
176
     1
 78
     2
176
     1
 67
     7
176
     1
 79
     5
176
     1
170
     0
176
     1
171
     0
176
     1
290
     0
176
     1
 93
        1
176
     1
 44
0.0
176
     1
173
     0
176
     1
  0
VISUALSTYLE
  5
2B
102
{ACAD_REACTORS
330
2A
102
}
330
2A
100
AcDbVisualStyle
  2
Flat
 70
     0
177
     2
291
     1
 71
     2
176
     1
 72
     1
176
     1
 73
     1
176
     1
 90
        2
176
     1
 40
-0.6
176
     1
 41
30.0
176
     1
 62
     5
 63
     7
421
 16777215
176
     1
 74
     0
176
     1
 91
        4
176
     1
 64
     7
176
     1
 65
   257
176
     1
 75
     1
176
     1
175
     1
176
     1
 42
1.0
176
     1
 92
        8
176
     1
 66
     7
176
     1
 43
1.0
176
     1
 76
     1
176
     1
 77
     6
176
     1
 78
     2
176
     1
 67
     7
176
     1
 79
     5
176
     1
170
     0
176
     1
171
     0
176
     1
290
     0
176
     1
 93
       13
176
     1
 44
0.0
176
     1
173
     0
176
     1
  0
VISUALSTYLE
  5
2C
102
{ACAD_REACTORS
330
2A
102
}
330
2A
100
AcDbVisualStyle
  2
FlatWithEdges
 70
     1
177
     2
291
     1
 71
     2
176
     1
 72
     1
176
     1
 73
     1
176
     1
 90
        2
176
     1
 40
-0.6
176
     1
 41
30.0
176
     1
 62
     5
 63
     7
421
 16777215
176
     1
 74
     1
176
     1
 91
        4
176
     1
 64
     7
176
     1
 65
   257
176
     1
 75
     1
176
     1
175
     1
176
     1
 42
1.0
176
     1
 92
        0
176
     1
 66
   257
176
     1
 43
1.0
176
     1
 76
     1
176
     1
 77
     6
176
     1
 78
     2
176
     1
 67
     7
176
     1
 79
     5
176
     1
170
     0
176
     1
171
     0
176
     1
290
     0
176
     1
 93
       13
176
     1
 44
0.0
176
     1
173
     0
176
     1
  0
VISUALSTYLE
  5
2D
102
{ACAD_REACTORS
330
2A
102
}
330
2A
100
AcDbVisualStyle
  2
Gouraud
 70
     2
177
     2
291
     1
 71
     2
176
     1
 72
     2
176
     1
 73
     1
176
     1
 90
        2
176
     1
 40
-0.6
176
     1
 41
30.0
176
     1
 62
     5
 63
     7
421
 16777215
176
     1
 74
     0
176
     1
 91
        4
176
     1
 64
     7
176
     1
 65
   257
176
     1
 75
     1
176
     1
175
     1
176
     1
 42
1.0
176
     1
 92
        0
176
     1
 66
     7
176
     1
 43
1.0
176
     1
 76
     1
176
     1
 77
     6
176
     1
 78
     2
176
     1
 67
     7
176
     1
 79
     5
176
     1
170
     0
176
     1
171
     0
176
     1
290
     0
176
     1
 93
       13
176
     1
 44
0.0
176
     1
173
     0
176
     1
  0
VISUALSTYLE
  5
2E
102
{ACAD_REACTORS
330
2A
102
}
330
2A
100
AcDbVisualStyle
  2
GouraudWithEdges
 70
     3
177
     2
291
     1
 71
     2
176
     1
 72
     2
176
     1
 73
     1
176
     1
 90
        2
176
     1
 40
-0.6
176
     1
 41
30.0
176
     1
 62
     5
 63
     7
421
 16777215
176
     1
 74
     1
176
     1
 91
        4
176
     1
 64
     7
176
     1
 65
   257
176
     1
 75
     1
176
     1
175
     1
176
     1
 42
1.0
176
     1
 92
        0
176
     1
 66
   257
176
     1
 43
1.0
176
     1
 76
     1
176
     1
 77
     6
176
     1
 78
     2
176
     1
 67
     7
176
     1
 79
     5
176
     1
170
     0
176
     1
171
     0
176
     1
290
     0
176
     1
 93
       13
176
     1
 44
0.0
176
     1
173
     0
176
     1
  0
VISUALSTYLE
  5
38
102
{ACAD_REACTORS
330
2A
102
}
330
2A
100
AcDbVisualStyle
  2
Linepattern
 70
    14
177
     2
291
     1
 71
     2
176
     1
 72
     2
176
     1
 73
     0
176
     1
 90
        0
176
     1
 40
-0.6
176
     1
 41
-30.0
176
     1
 62
     5
 63
     7
421
 16777215
176
     1
 74
     1
176
     1
 91
        4
176
     1
 64
     7
176
     1
 65
   257
176
     1
 75
     7
176
     1
175
     7
176
     1
 42
1.0
176
     1
 92
        8
176
     1
 66
     7
176
     1
 43
1.0
176
     1
 76
     1
176
     1
 77
     6
176
     1
 78
     2
176
     1
 67
     7
176
     1
 79
     5
176
     1
170
     0
176
     1
171
     0
176
     1
290
     0
176
     1
 93
        1
176
     1
 44
0.0
176
     1
173
     0
176
     1
  0
VISUALSTYLE
  5
33
102
{ACAD_REACTORS
330
2A
102
}
330
2A
100
AcDbVisualStyle
  2
Realistic
 70
     8
177
     2
291
     0
 71
     2
176
     1
 72
     2
176
     1
 73
     0
176
     1
 90
        0
176
     1
 40
-0.6
176
     1
 41
-30.0
176
     1
 62
     5
 63
     7
421
 16777215
176
     1
 74
     1
176
     1
 91
        0
176
     1
 64
     7
176
     1
 65
   257
176
     1
 75
     1
176
     1
175
     1
176
     1
 42
1.0
176
     1
 92
        8
176
     1
 66
     8
424
  7895160
176
     1
 43
1.0
176
     1
 76
     1
176
     1
 77
     6
176
     1
 78
     2
176
     1
 67
     7
176
     1
 79
     5
176
     1
170
     0
176
     1
171
     0
176
     1
290
     0
176
     1
 93
       13
176
     1
 44
0.0
176
     1
173
     0
176
     1
  0
VISUALSTYLE
  5
37
102
{ACAD_REACTORS
330
2A
102
}
330
2A
100
AcDbVisualStyle
  2
Thicken
 70
    13
177
     2
291
     1
 71
     2
176
     1
 72
     2
176
     1
 73
     0
176
     1
 90
        0
176
     1
 40
-0.6
176
     1
 41
-30.0
176
     1
 62
     5
 63
     7
421
 16777215
176
     1
 74
     1
176
     1
 91
        4
176
     1
 64
     7
176
     1
 65
   257
176
     1
 75
     1
176
     1
175
     1
176
     1
 42
1.0
176
     1
 92
       12
176
     1
 66
     7
176
     1
 43
1.0
176
     1
 76
     1
176
     1
 77
     6
176
     1
 78
     2
176
     1
 67
     7
176
     1
 79
     5
176
     1
170
     0
176
     1
171
     0
176
     1
290
     0
176
     1
 93
        1
176
     1
 44
0.0
176
     1
173
     0
176
     1
  0
ENDSEC
  0
EOF
