  0
SECTION
  2
HEADER
  9
$ACADVER
  1
AC1024
  9
$ACADMAINTVER
 70
     6
  9
$DWGCODEPAGE
  3
UNDEFINED
  9
$INSBASE
 10
0.0
 20
0.0
 30
0.0
  9
$EXTMIN
 10
1.000000000000000E+20
 20
1.000000000000000E+20
 30
1.000000000000000E+20
  9
$EXTMAX
 10
-1.000000000000000E+20
 20
-1.000000000000000E+20
 30
-1.000000000000000E+20
  9
$LIMMIN
 10
0.0
 20
0.0
  9
$LIMMAX
 10
12.0
 20
9.0
  9
$ORTHOMODE
 70
     0
  9
$REGENMODE
 70
     1
  9
$FILLMODE
 70
     1
  9
$QTEXTMODE
 70
     0
  9
$MIRRTEXT
 70
     1
  9
$LTSCALE
 40
1.0
  9
$ATTMODE
 70
     1
  9
$TEXTSIZE
 40
0.2
  9
$TRACEWID
 40
0.05
  9
$TEXTSTYLE
  7
Standard
  9
$CLAYER
  8
0
  9
$CELTYPE
  6
ByLayer
  9
$CECOLOR
 62
   256
  9
$CELTSCALE
 40
1.0
  9
$DISPSILH
 70
     0
  9
$DIMSCALE
 40
1.0
  9
$DIMASZ
 40
0.18
  9
$DIMEXO
 40
0.0625
  9
$DIMDLI
 40
0.38
  9
$DIMRND
 40
0.0
  9
$DIMDLE
 40
0.0
  9
$DIMEXE
 40
0.18
  9
$DIMTP
 40
0.0
  9
$DIMTM
 40
0.0
  9
$DIMTXT
 40
0.18
  9
$DIMCEN
 40
0.09
  9
$DIMTSZ
 40
0.0
  9
$DIMTOL
 70
     0
  9
$DIMLIM
 70
     0
  9
$DIMTIH
 70
     1
  9
$DIMTOH
 70
     1
  9
$DIMSE1
 70
     0
  9
$DIMSE2
 70
     0
  9
$DIMTAD
 70
     0
  9
$DIMZIN
 70
     0
  9
$DIMBLK
  1

  9
$DIMASO
 70
     1
  9
$DIMSHO
 70
     1
  9
$DIMPOST
  1

  9
$DIMAPOST
  1

  9
$DIMALT
 70
     0
  9
$DIMALTD
 70
     2
  9
$DIMALTF
 40
25.4
  9
$DIMLFAC
 40
1.0
  9
$DIMTOFL
 70
     0
  9
$DIMTVP
 40
0.0
  9
$DIMTIX
 70
     0
  9
$DIMSOXD
 70
     0
  9
$DIMSAH
 70
     0
  9
$DIMBLK1
  1

  9
$DIMBLK2
  1

  9
$DIMSTYLE
  2
Standard
  9
$DIMCLRD
 70
     0
  9
$DIMCLRE
 70
     0
  9
$DIMCLRT
 70
     0
  9
$DIMTFAC
 40
1.0
  9
$DIMGAP
 40
0.09
  9
$DIMJUST
 70
     0
  9
$DIMSD1
 70
     0
  9
$DIMSD2
 70
     0
  9
$DIMTOLJ
 70
     1
  9
$DIMTZIN
 70
     0
  9
$DIMALTZ
 70
     0
  9
$DIMALTTZ
 70
     0
  9
$DIMUPT
 70
     0
  9
$DIMDEC
 70
     4
  9
$DIMTDEC
 70
     4
  9
$DIMALTU
 70
     2
  9
$DIMALTTD
 70
     2
  9
$DIMTXSTY
  7
Standard
  9
$DIMAUNIT
 70
     0
  9
$DIMADEC
 70
     0
  9
$DIMALTRND
 40
0.0
  9
$DIMAZIN
 70
     0
  9
$DIMDSEP
 70
    46
  9
$DIMATFIT
 70
     3
  9
$DIMFRAC
 70
     0
  9
$DIMLDRBLK
  1

  9
$DIMLUNIT
 70
     2
  9
$DIMLWD
 70
    -2
  9
$DIMLWE
 70
    -2
  9
$DIMTMOVE
 70
     0
  9
$DIMFXL
 40
1.0
  9
$DIMFXLON
 70
     0
  9
$DIMJOGANG
 40
0.7853981633974483
  9
$DIMTFILL
 70
     0
  9
$DIMTFILLCLR
 70
     0
  9
$DIMARCSYM
 70
     0
  9
$DIMLTYPE
  6

  9
$DIMLTEX1
  6

  9
$DIMLTEX2
  6

  9
$DIMTXTDIRECTION
 70
     0
  9
$LUNITS
 70
     2
  9
$LUPREC
 70
     4
  9
$SKETCHINC
 40
0.1
  9
$FILLETRAD
 40
0.5
  9
$AUNITS
 70
     0
  9
$AUPREC
 70
     0
  9
$MENU
  1
.
  9
$ELEVATION
 40
0.0
  9
$PELEVATION
 40
0.0
  9
$THICKNESS
 40
0.0
  9
$LIMCHECK
 70
     0
  9
$CHAMFERA
 40
0.5
  9
$CHAMFERB
 40
0.5
  9
$CHAMFERC
 40
1.0
  9
$CHAMFERD
 40
0.0
  9
$SKPOLY
 70
     0
  9
$TDCREATE
 40
2457917.612499989
  9
$TDUCREATE
 40
2457917.2375
  9
$TDUPDATE
 40
2457917.612499989
  9
$TDUUPDATE
 40
2457917.2375
  9
$TDINDWG
 40
0.0000000116
  9
$TDUSRTIMER
 40
0.0000000116
  9
$USRTIMER
 70
     1
  9
$ANGBASE
 50
0.0
  9
$ANGDIR
 70
     0
  9
$PDMODE
 70
     0
  9
$PDSIZE
 40
0.0
  9
$PLINEWID
 40
0.0
  9
$SPLFRAME
 70
     0
  9
$SPLINETYPE
 70
     6
  9
$SPLINESEGS
 70
     8
  9
$HANDSEED
  5
EF
  9
$SURFTAB1
 70
     6
  9
$SURFTAB2
 70
     6
  9
$SURFTYPE
 70
     6
  9
$SURFU
 70
     6
  9
$SURFV
 70
     6
  9
$UCSBASE
  2

  9
$UCSNAME
  2

  9
$UCSORG
 10
0.0
 20
0.0
 30
0.0
  9
$UCSXDIR
 10
1.0
 20
0.0
 30
0.0
  9
$UCSYDIR
 10
0.0
 20
1.0
 30
0.0
  9
$UCSORTHOREF
  2

  9
$UCSORTHOVIEW
 70
     0
  9
$UCSORGTOP
 10
0.0
 20
0.0
 30
0.0
  9
$UCSORGBOTTOM
 10
0.0
 20
0.0
 30
0.0
  9
$UCSORGLEFT
 10
0.0
 20
0.0
 30
0.0
  9
$UCSORGRIGHT
 10
0.0
 20
0.0
 30
0.0
  9
$UCSORGFRONT
 10
0.0
 20
0.0
 30
0.0
  9
$UCSORGBACK
 10
0.0
 20
0.0
 30
0.0
  9
$PUCSBASE
  2

  9
$PUCSNAME
  2

  9
$PUCSORG
 10
0.0
 20
0.0
 30
0.0
  9
$PUCSXDIR
 10
1.0
 20
0.0
 30
0.0
  9
$PUCSYDIR
 10
0.0
 20
1.0
 30
0.0
  9
$PUCSORTHOREF
  2

  9
$PUCSORTHOVIEW
 70
     0
  9
$PUCSORGTOP
 10
0.0
 20
0.0
 30
0.0
  9
$PUCSORGBOTTOM
 10
0.0
 20
0.0
 30
0.0
  9
$PUCSORGLEFT
 10
0.0
 20
0.0
 30
0.0
  9
$PUCSORGRIGHT
 10
0.0
 20
0.0
 30
0.0
  9
$PUCSORGFRONT
 10
0.0
 20
0.0
 30
0.0
  9
$PUCSORGBACK
 10
0.0
 20
0.0
 30
0.0
  9
$USERI1
 70
     0
  9
$USERI2
 70
     0
  9
$USERI3
 70
     0
  9
$USERI4
 70
     0
  9
$USERI5
 70
     0
  9
$USERR1
 40
0.0
  9
$USERR2
 40
0.0
  9
$USERR3
 40
0.0
  9
$USERR4
 40
0.0
  9
$USERR5
 40
0.0
  9
$WORLDVIEW
 70
     1
  9
$SHADEDGE
 70
     3
  9
$SHADEDIF
 70
    70
  9
$TILEMODE
 70
     1
  9
$MAXACTVP
 70
    64
  9
$PINSBASE
 10
0.0
 20
0.0
 30
0.0
  9
$PLIMCHECK
 70
     0
  9
$PEXTMIN
 10
1.000000000000000E+20
 20
1.000000000000000E+20
 30
1.000000000000000E+20
  9
$PEXTMAX
 10
-1.000000000000000E+20
 20
-1.000000000000000E+20
 30
-1.000000000000000E+20
  9
$PLIMMIN
 10
0.0
 20
0.0
  9
$PLIMMAX
 10
12.0
 20
9.0
  9
$UNITMODE
 70
     0
  9
$VISRETAIN
 70
     1
  9
$PLINEGEN
 70
     0
  9
$PSLTSCALE
 70
     1
  9
$TREEDEPTH
 70
  3020
  9
$CMLSTYLE
  2
Standard
  9
$CMLJUST
 70
     0
  9
$CMLSCALE
 40
1.0
  9
$PROXYGRAPHICS
 70
     1
  9
$MEASUREMENT
 70
     0
  9
$CELWEIGHT
370
    -1
  9
$ENDCAPS
280
     0
  9
$JOINSTYLE
280
     0
  9
$LWDISPLAY
290
     1
  9
$INSUNITS
 70
     1
  9
$HYPERLINKBASE
  1

  9
$STYLESHEET
  1

  9
$XEDIT
290
     1
  9
$CEPSNTYPE
380
     0
  9
$PSTYLEMODE
290
     1
  9
$FINGERPRINTGUID
  2
{F04B2FB0-93A0-E8BF-99F1-62E431E7E032}
  9
$VERSIONGUID
  2
{FAEB1C32-E019-11D5-929B-00C0DF256EC4}
  9
$EXTNAMES
290
     1
  9
$PSVPSCALE
 40
0.0
  9
$OLESTARTUP
290
     0
  9
$SORTENTS
280
   127
  9
$INDEXCTL
280
     0
  9
$HIDETEXT
280
     1
  9
$XCLIPFRAME
280
     2
  9
$HALOGAP
280
     0
  9
$OBSCOLOR
 70
   257
  9
$OBSLTYPE
280
     0
  9
$INTERSECTIONDISPLAY
280
     0
  9
$INTERSECTIONCOLOR
 70
   257
  9
$DIMASSOC
280
     2
  9
$PROJECTNAME
  1

  9
$CAMERADISPLAY
290
     0
  9
$LENSLENGTH
 40
50.0
  9
$CAMERAHEIGHT
 40
0.0
  9
$STEPSPERSEC
 40
2.0
  9
$STEPSIZE
 40
6.0
  9
$3DDWFPREC
 40
2.0
  9
$PSOLWIDTH
 40
0.25
  9
$PSOLHEIGHT
 40
4.0
  9
$LOFTANG1
 40
1.570796326794897
  9
$LOFTANG2
 40
1.570796326794897
  9
$LOFTMAG1
 40
0.0
  9
$LOFTMAG2
 40
0.0
  9
$LOFTPARAM
 70
     7
  9
$LOFTNORMALS
280
     1
  9
$LATITUDE
 40
37.795
  9
$LONGITUDE
 40
-122.394
  9
$NORTHDIRECTION
 40
0.0
  9
$TIMEZONE
 70
 -8000
  9
$LIGHTGLYPHDISPLAY
280
     1
  9
$TILEMODELIGHTSYNCH
280
     1
  9
$CMATERIAL
347
3C
  9
$SOLIDHIST
280
     1
  9
$SHOWHIST
280
     1
  9
$DWFFRAME
280
     2
  9
$DGNFRAME
280
     2
  9
$REALWORLDSCALE
290
     1
  9
$INTERFERECOLOR
 62
   256
  9
$CSHADOW
280
     0
  9
$SHADOWPLANELOCATION
 40
0.0
  0
ENDSEC
  0
SECTION
  2
CLASSES
  0
CLASS
  1
ACDBDICTIONARYWDFLT
  2
AcDbDictionaryWithDefault
  3
ObjectDBX Classes
 90
        0
 91
        4
280
     0
281
     0
  0
CLASS
  1
VISUALSTYLE
  2
AcDbVisualStyle
  3
ObjectDBX Classes
 90
     4095
 91
        4
280
     0
281
     0
  0
CLASS
  1
MATERIAL
  2
AcDbMaterial
  3
ObjectDBX Classes
 90
     1153
 91
        4
280
     0
281
     0
  0
CLASS
  1
SUN
  2
AcDbSun
  3
SCENEOE
 90
     1024
 91
        4
280
     0
281
     0
  0
ENDSEC
  0
SECTION
  2
TABLES
  0
TABLE
  2
VPORT
  5
8
330
0
100
AcDbSymbolTable
 70
     1
  0
VPORT
  5
29
330
8
100
AcDbSymbolTableRecord
100
AcDbViewportTableRecord
  2
*Active
 70
     0
 10
0.0
 20
0.0
 11
1.0
 21
1.0
 12
0.0
 22
0.0
 13
0.0
 23
0.0
 14
0.5
 24
0.5
 15
0.5
 25
0.5
 16
0.0
 26
0.0
 36
1.0
 17
91.00082462281999
 27
-128.4993055234307
 37
0.0
 40
256.9986110468615
 41
0.7081814508812795
 42
50.0
 43
0.0
 44
0.0
 50
0.0
 51
0.0
 71
     0
 72
   100
 73
     1
 74
     3
 75
     0
 76
     0
 77
     0
 78
     0
281
     0
 65
     1
110
0.0
120
0.0
130
0.0
111
1.0
121
0.0
131
0.0
112
0.0
122
1.0
132
0.0
 79
     0
146
0.0
 60
     3
 61
     5
292
     1
282
     1
141
0.0
142
0.0
 63
   250
361
3F
  0
ENDTAB
  0
TABLE
  2
LTYPE
  5
5
330
0
100
AcDbSymbolTable
 70
     1
  0
LTYPE
  5
14
330
5
100
AcDbSymbolTableRecord
100
AcDbLinetypeTableRecord
  2
ByBlock
 70
     0
  3

 72
    65
 73
     0
 40
0.0
  0
LTYPE
  5
15
330
5
100
AcDbSymbolTableRecord
100
AcDbLinetypeTableRecord
  2
ByLayer
 70
     0
  3

 72
    65
 73
     0
 40
0.0
  0
LTYPE
  5
16
330
5
100
AcDbSymbolTableRecord
100
AcDbLinetypeTableRecord
  2
Continuous
 70
     0
  3
Solid line
 72
    65
 73
     0
 40
0.0
  0
ENDTAB
  0
TABLE
  2
LAYER
  5
2
330
0
100
AcDbSymbolTable
 70
     2
  0
LAYER
  5
10
330
2
100
AcDbSymbolTableRecord
100
AcDbLayerTableRecord
  2
0
 70
     0
 62
     7
  6
Continuous
370
    -3
390
F
347
3E
  0
LAYER
  5
40
330
2
100
AcDbSymbolTableRecord
100
AcDbLayerTableRecord
  2
_U+30EC_U+30A4_U+30E4_U+30FC 1
 70
     0
 62
     7
  6
Continuous
370
    -3
390
F
347
3E
  0
ENDTAB
  0
TABLE
  2
STYLE
  5
3
330
0
100
AcDbSymbolTable
 70
     1
  0
STYLE
  5
11
330
3
100
AcDbSymbolTableRecord
100
AcDbTextStyleTableRecord
  2
Standard
 70
     0
 40
0.0
 41
1.0
 50
0.0
 71
     0
 42
0.2
  3
txt
  4

  0
ENDTAB
  0
TABLE
  2
VIEW
  5
6
330
0
100
AcDbSymbolTable
 70
     0
  0
ENDTAB
  0
TABLE
  2
UCS
  5
7
330
0
100
AcDbSymbolTable
 70
     0
  0
ENDTAB
  0
TABLE
  2
APPID
  5
9
330
0
100
AcDbSymbolTable
 70
     1
  0
APPID
  5
12
330
9
100
AcDbSymbolTableRecord
100
AcDbRegAppTableRecord
  2
ACAD
 70
     0
  0
ENDTAB
  0
TABLE
  2
DIMSTYLE
  5
A
330
0
100
AcDbSymbolTable
 70
     1
100
AcDbDimStyleTable
  0
DIMSTYLE
105
27
330
A
100
AcDbSymbolTableRecord
100
AcDbDimStyleTableRecord
  2
Standard
 70
     0
178
     0
340
11
  0
ENDTAB
  0
TABLE
  2
BLOCK_RECORD
  5
1
330
0
100
AcDbSymbolTable
 70
     9
  0
BLOCK_RECORD
  5
1F
330
1
100
AcDbSymbolTableRecord
100
AcDbBlockTableRecord
  2
*Model_Space
340
22
 70
     0
280
     1
281
     0
  0
BLOCK_RECORD
  5
1B
330
1
100
AcDbSymbolTableRecord
100
AcDbBlockTableRecord
  2
*Paper_Space
340
1E
 70
     0
280
     1
281
     0
  0
BLOCK_RECORD
  5
23
330
1
100
AcDbSymbolTableRecord
100
AcDbBlockTableRecord
  2
*Paper_Space0
340
26
 70
     0
280
     1
281
     0
  0
BLOCK_RECORD
  5
41
330
1
100
AcDbSymbolTableRecord
100
AcDbBlockTableRecord
  2
block 2
340
0
102
{BLKREFS
331
42
102
}
 70
     0
280
     1
281
     0
  0
BLOCK_RECORD
  5
73
330
1
100
AcDbSymbolTableRecord
100
AcDbBlockTableRecord
  2
block 3
340
0
102
{BLKREFS
331
74
102
}
 70
     0
280
     1
281
     0
  0
BLOCK_RECORD
  5
83
330
1
100
AcDbSymbolTableRecord
100
AcDbBlockTableRecord
  2
block 4
340
0
102
{BLKREFS
331
84
102
}
 70
     0
280
     1
281
     0
  0
BLOCK_RECORD
  5
8B
330
1
100
AcDbSymbolTableRecord
100
AcDbBlockTableRecord
  2
block 5
340
0
102
{BLKREFS
331
8C
102
}
 70
     0
280
     1
281
     0
  0
BLOCK_RECORD
  5
9B
330
1
100
AcDbSymbolTableRecord
100
AcDbBlockTableRecord
  2
block 6
340
0
102
{BLKREFS
331
9C
102
}
 70
     0
280
     1
281
     0
  0
BLOCK_RECORD
  5
A3
330
1
100
AcDbSymbolTableRecord
100
AcDbBlockTableRecord
  2
block 7
340
0
102
{BLKREFS
331
A4
102
}
 70
     0
280
     1
281
     0
  0
BLOCK_RECORD
  5
B3
330
1
100
AcDbSymbolTableRecord
100
AcDbBlockTableRecord
  2
block 8
340
0
102
{BLKREFS
331
B4
102
}
 70
     0
280
     1
281
     0
  0
BLOCK_RECORD
  5
D6
330
1
100
AcDbSymbolTableRecord
100
AcDbBlockTableRecord
  2
block 9
340
0
102
{BLKREFS
331
D7
102
}
 70
     0
280
     1
281
     0
  0
ENDTAB
  0
ENDSEC
  0
SECTION
  2
BLOCKS
  0
BLOCK
  5
20
330
1F
100
AcDbEntity
  8
0
100
AcDbBlockBegin
  2
*Model_Space
 70
     0
 10
0.0
 20
0.0
 30
0.0
  3
*Model_Space
  1

  0
ENDBLK
  5
21
330
1F
100
AcDbEntity
  8
0
100
AcDbBlockEnd
  0
BLOCK
  5
1C
330
1B
100
AcDbEntity
 67
     1
  8
0
100
AcDbBlockBegin
  2
*Paper_Space
 70
     0
 10
0.0
 20
0.0
 30
0.0
  3
*Paper_Space
  1

  0
ENDBLK
  5
1D
330
1B
100
AcDbEntity
 67
     1
  8
0
100
AcDbBlockEnd
  0
BLOCK
  5
24
330
23
100
AcDbEntity
  8
0
100
AcDbBlockBegin
  2
*Paper_Space0
 70
     0
 10
0.0
 20
0.0
 30
0.0
  3
*Paper_Space0
  1

  0
ENDBLK
  5
25
330
23
100
AcDbEntity
  8
0
100
AcDbBlockEnd
  0
BLOCK
  5
43
330
41
100
AcDbEntity
  8
0
100
AcDbBlockBegin
  2
block 2
 70
     0
 10
0.0
 20
0.0
 30
0.0
  3
block 2
  1

  0
POLYLINE
  5
45
330
41
100
AcDbEntity
  8
_U+30EC_U+30A4_U+30E4_U+30FC 1
370
     0
100
AcDb2dPolyline
 66
     1
 10
0.0
 20
0.0
 30
0.0
  0
VERTEX
  5
46
330
45
100
AcDbEntity
  8
_U+30EC_U+30A4_U+30E4_U+30FC 1
370
     0
100
AcDbVertex
100
AcDb2dVertex
 10
108.4722847326415
 20
-117.0614033040679
 30
0.0
  0
VERTEX
  5
47
330
45
100
AcDbEntity
  8
_U+30EC_U+30A4_U+30E4_U+30FC 1
370
     0
100
AcDbVertex
100
AcDb2dVertex
 10
108.4722847326415
 20
-115.8611474710347
 30
0.0
  0
VERTEX
  5
48
330
45
100
AcDbEntity
  8
_U+30EC_U+30A4_U+30E4_U+30FC 1
370
     0
100
AcDbVertex
100
AcDb2dVertex
 10
63.47244643623854
 20
-115.8611474710347
 30
0.0
  0
VERTEX
  5
49
330
45
100
AcDbEntity
  8
_U+30EC_U+30A4_U+30E4_U+30FC 1
370
     0
100
AcDbVertex
100
AcDb2dVertex
 10
63.47244643623854
 20
-143.2615385752957
 30
0.0
  0
VERTEX
  5
4A
330
45
100
AcDbEntity
  8
_U+30EC_U+30A4_U+30E4_U+30FC 1
370
     0
100
AcDbVertex
100
AcDb2dVertex
 10
88.47246635399046
 20
-143.2615385752957
 30
0.0
  0
VERTEX
  5
4B
330
45
100
AcDbEntity
  8
_U+30EC_U+30A4_U+30E4_U+30FC 1
370
     0
100
AcDbVertex
100
AcDb2dVertex
 10
88.47246635399046
 20
-142.0612827422625
 30
0.0
  0
VERTEX
  5
4C
330
45
100
AcDbEntity
  8
_U+30EC_U+30A4_U+30E4_U+30FC 1
370
     0
100
AcDbVertex
100
AcDb2dVertex
 10
64.67234946118202
 20
-142.0612827422625
 30
0.0
  0
VERTEX
  5
4D
330
45
100
AcDbEntity
  8
_U+30EC_U+30A4_U+30E4_U+30FC 1
370
     0
100
AcDbVertex
100
AcDb2dVertex
 10
64.67234946118202
 20
-117.0614033040679
 30
0.0
  0
SEQEND
  5
4F
330
45
100
AcDbEntity
  8
_U+30EC_U+30A4_U+30E4_U+30FC 1
370
     0
  0
HATCH
  5
4E
330
41
100
AcDbEntity
  8
_U+30EC_U+30A4_U+30E4_U+30FC 1
 62
   253
420
 11711154
100
AcDbHatch
 10
0.0
 20
0.0
 30
0.0
210
0.0
220
0.0
230
1.0
  2
SOLID
 70
     1
 71
     0
 91
        1
 92
        1
 93
        8
 72
     1
 10
108.4722847326415
 20
-117.0614033040679
 11
108.4722847326415
 21
-115.8611474710347
 72
     1
 10
108.4722847326415
 20
-115.8611474710347
 11
63.47244643623854
 21
-115.8611474710347
 72
     1
 10
63.47244643623854
 20
-115.8611474710347
 11
63.47244643623854
 21
-143.2615385752957
 72
     1
 10
63.47244643623854
 20
-143.2615385752957
 11
88.47246635399046
 21
-143.2615385752957
 72
     1
 10
88.47246635399046
 20
-143.2615385752957
 11
88.47246635399046
 21
-142.0612827422625
 72
     1
 10
88.47246635399046
 20
-142.0612827422625
 11
64.67234946118202
 21
-142.0612827422625
 72
     1
 10
64.67234946118202
 20
-142.0612827422625
 11
64.67234946118202
 21
-117.0614033040679
 72
     1
 10
64.67234946118202
 20
-117.0614033040679
 11
108.4722847326415
 21
-117.0614033040679
 97
        0
 75
     2
 76
     1
 98
        0
  0
POLYLINE
  5
50
330
41
100
AcDbEntity
  8
_U+30EC_U+30A4_U+30E4_U+30FC 1
 62
   179
420
  2234388
370
    25
100
AcDb2dPolyline
 66
     1
 10
0.0
 20
0.0
 30
0.0
  0
VERTEX
  5
51
330
50
100
AcDbEntity
  8
_U+30EC_U+30A4_U+30E4_U+30FC 1
 62
   179
420
  2234388
370
    25
100
AcDbVertex
100
AcDb2dVertex
 10
63.47244643623854
 20
-115.8611474710347
 30
0.0
  0
VERTEX
  5
52
330
50
100
AcDbEntity
  8
_U+30EC_U+30A4_U+30E4_U+30FC 1
 62
   179
420
  2234388
370
    25
100
AcDbVertex
100
AcDb2dVertex
 10
108.4722847326415
 20
-115.8611474710347
 30
0.0
  0
SEQEND
  5
53
330
50
100
AcDbEntity
  8
_U+30EC_U+30A4_U+30E4_U+30FC 1
 62
   179
420
  2234388
370
    25
  0
POLYLINE
  5
54
330
41
100
AcDbEntity
  8
_U+30EC_U+30A4_U+30E4_U+30FC 1
 62
   179
420
  2234388
370
    25
100
AcDb2dPolyline
 66
     1
 10
0.0
 20
0.0
 30
0.0
  0
VERTEX
  5
55
330
54
100
AcDbEntity
  8
_U+30EC_U+30A4_U+30E4_U+30FC 1
 62
   179
420
  2234388
370
    25
100
AcDbVertex
100
AcDb2dVertex
 10
63.47244643623854
 20
-143.2615385752957
 30
0.0
  0
VERTEX
  5
56
330
54
100
AcDbEntity
  8
_U+30EC_U+30A4_U+30E4_U+30FC 1
 62
   179
420
  2234388
370
    25
100
AcDbVertex
100
AcDb2dVertex
 10
88.47246635399046
 20
-143.2615385752957
 30
0.0
  0
SEQEND
  5
57
330
54
100
AcDbEntity
  8
_U+30EC_U+30A4_U+30E4_U+30FC 1
 62
   179
420
  2234388
370
    25
  0
POLYLINE
  5
58
330
41
100
AcDbEntity
  8
_U+30EC_U+30A4_U+30E4_U+30FC 1
 62
   179
420
  2234388
370
    25
100
AcDb2dPolyline
 66
     1
 10
0.0
 20
0.0
 30
0.0
  0
VERTEX
  5
59
330
58
100
AcDbEntity
  8
_U+30EC_U+30A4_U+30E4_U+30FC 1
 62
   179
420
  2234388
370
    25
100
AcDbVertex
100
AcDb2dVertex
 10
63.47244643623854
 20
-143.2615385752957
 30
0.0
  0
VERTEX
  5
5A
330
58
100
AcDbEntity
  8
_U+30EC_U+30A4_U+30E4_U+30FC 1
 62
   179
420
  2234388
370
    25
100
AcDbVertex
100
AcDb2dVertex
 10
63.47244643623854
 20
-115.8611474710347
 30
0.0
  0
SEQEND
  5
5B
330
58
100
AcDbEntity
  8
_U+30EC_U+30A4_U+30E4_U+30FC 1
 62
   179
420
  2234388
370
    25
  0
POLYLINE
  5
5C
330
41
100
AcDbEntity
  8
_U+30EC_U+30A4_U+30E4_U+30FC 1
 62
   179
420
  2234388
370
    25
100
AcDb2dPolyline
 66
     1
 10
0.0
 20
0.0
 30
0.0
  0
VERTEX
  5
5D
330
5C
100
AcDbEntity
  8
_U+30EC_U+30A4_U+30E4_U+30FC 1
 62
   179
420
  2234388
370
    25
100
AcDbVertex
100
AcDb2dVertex
 10
108.4722847326415
 20
-117.0614033040679
 30
0.0
  0
VERTEX
  5
5E
330
5C
100
AcDbEntity
  8
_U+30EC_U+30A4_U+30E4_U+30FC 1
 62
   179
420
  2234388
370
    25
100
AcDbVertex
100
AcDb2dVertex
 10
108.4722847326415
 20
-115.8611474710347
 30
0.0
  0
SEQEND
  5
5F
330
5C
100
AcDbEntity
  8
_U+30EC_U+30A4_U+30E4_U+30FC 1
 62
   179
420
  2234388
370
    25
  0
POLYLINE
  5
60
330
41
100
AcDbEntity
  8
_U+30EC_U+30A4_U+30E4_U+30FC 1
 62
   179
420
  2234388
370
    25
100
AcDb2dPolyline
 66
     1
 10
0.0
 20
0.0
 30
0.0
  0
VERTEX
  5
61
330
60
100
AcDbEntity
  8
_U+30EC_U+30A4_U+30E4_U+30FC 1
 62
   179
420
  2234388
370
    25
100
AcDbVertex
100
AcDb2dVertex
 10
64.67234946118202
 20
-142.0612827422625
 30
0.0
  0
VERTEX
  5
62
330
60
100
AcDbEntity
  8
_U+30EC_U+30A4_U+30E4_U+30FC 1
 62
   179
420
  2234388
370
    25
100
AcDbVertex
100
AcDb2dVertex
 10
64.67234946118202
 20
-117.0614033040679
 30
0.0
  0
SEQEND
  5
63
330
60
100
AcDbEntity
  8
_U+30EC_U+30A4_U+30E4_U+30FC 1
 62
   179
420
  2234388
370
    25
  0
POLYLINE
  5
64
330
41
100
AcDbEntity
  8
_U+30EC_U+30A4_U+30E4_U+30FC 1
 62
   179
420
  2234388
370
    25
100
AcDb2dPolyline
 66
     1
 10
0.0
 20
0.0
 30
0.0
  0
VERTEX
  5
65
330
64
100
AcDbEntity
  8
_U+30EC_U+30A4_U+30E4_U+30FC 1
 62
   179
420
  2234388
370
    25
100
AcDbVertex
100
AcDb2dVertex
 10
88.47246635399046
 20
-143.2615385752957
 30
0.0
  0
VERTEX
  5
66
330
64
100
AcDbEntity
  8
_U+30EC_U+30A4_U+30E4_U+30FC 1
 62
   179
420
  2234388
370
    25
100
AcDbVertex
100
AcDb2dVertex
 10
88.47246635399046
 20
-142.0612827422625
 30
0.0
  0
SEQEND
  5
67
330
64
100
AcDbEntity
  8
_U+30EC_U+30A4_U+30E4_U+30FC 1
 62
   179
420
  2234388
370
    25
  0
POLYLINE
  5
68
330
41
100
AcDbEntity
  8
_U+30EC_U+30A4_U+30E4_U+30FC 1
 62
   179
420
  2234388
370
    25
100
AcDb2dPolyline
 66
     1
 10
0.0
 20
0.0
 30
0.0
  0
VERTEX
  5
69
330
68
100
AcDbEntity
  8
_U+30EC_U+30A4_U+30E4_U+30FC 1
 62
   179
420
  2234388
370
    25
100
AcDbVertex
100
AcDb2dVertex
 10
64.67234946118202
 20
-142.0612827422625
 30
0.0
  0
VERTEX
  5
6A
330
68
100
AcDbEntity
  8
_U+30EC_U+30A4_U+30E4_U+30FC 1
 62
   179
420
  2234388
370
    25
100
AcDbVertex
100
AcDb2dVertex
 10
88.47246635399046
 20
-142.0612827422625
 30
0.0
  0
SEQEND
  5
6B
330
68
100
AcDbEntity
  8
_U+30EC_U+30A4_U+30E4_U+30FC 1
 62
   179
420
  2234388
370
    25
  0
SPLINE
  5
6C
330
41
100
AcDbEntity
  8
_U+30EC_U+30A4_U+30E4_U+30FC 1
 62
   179
420
  2234388
370
     9
100
AcDbSpline
210
0.0
220
0.0
230
1.0
 70
    11
 71
     3
 72
    17
 73
    13
 74
     0
 42
0.0000000001
 43
0.0000000001
 12
1.0
 22
0.0
 32
0.0
 13
1.0
 23
0.0
 33
0.0
 40
0.0
 40
0.0
 40
0.0
 40
0.0
 40
1.0
 40
1.0
 40
1.0
 40
2.0
 40
2.0
 40
2.0
 40
3.0
 40
3.0
 40
3.0
 40
4.0
 40
4.0
 40
4.0
 40
4.0
 10
112.5719504613836
 20
-117.0614033040679
 30
0.0
 10
112.5719504613836
 20
-117.0062994151929
 30
0.0
 10
112.5271476847489
 20
-116.9614966374262
 30
0.0
 10
112.4720437972658
 20
-116.9614966374262
 30
0.0
 10
112.4169046320058
 20
-116.9614966374262
 30
0.0
 10
112.3721371331479
 20
-117.0062994151929
 30
0.0
 10
112.3721371331479
 20
-117.0614033040679
 30
0.0
 10
112.3721371331479
 20
-117.1165424707209
 30
0.0
 10
112.4169046320058
 20
-117.1613099707098
 30
0.0
 10
112.4720437972658
 20
-117.1613099707098
 30
0.0
 10
112.5271476847489
 20
-117.1613099707098
 30
0.0
 10
112.5719504613836
 20
-117.1165424707209
 30
0.0
 10
112.5719504613836
 20
-117.0614033040679
 30
0.0
  0
SPLINE
  5
6D
330
41
100
AcDbEntity
  8
_U+30EC_U+30A4_U+30E4_U+30FC 1
 62
   179
420
  2234388
370
     9
100
AcDbSpline
210
0.0
220
0.0
230
1.0
 70
    11
 71
     3
 72
    17
 73
    13
 74
     0
 42
0.0000000001
 43
0.0000000001
 12
1.0
 22
0.0
 32
0.0
 13
1.0
 23
0.0
 33
0.0
 40
0.0
 40
0.0
 40
0.0
 40
0.0
 40
1.0
 40
1.0
 40
1.0
 40
2.0
 40
2.0
 40
2.0
 40
3.0
 40
3.0
 40
3.0
 40
4.0
 40
4.0
 40
4.0
 40
4.0
 10
112.5719504613836
 20
-142.0612827422625
 30
0.0
 10
112.5719504613836
 20
-142.0061435756094
 30
0.0
 10
112.5271476847489
 20
-141.9613760756209
 30
0.0
 10
112.4720437972658
 20
-141.9613760756209
 30
0.0
 10
112.4169046320058
 20
-141.9613760756209
 30
0.0
 10
112.3721371331479
 20
-142.0061435756094
 30
0.0
 10
112.3721371331479
 20
-142.0612827422625
 30
0.0
 10
112.3721371331479
 20
-142.1170921866929
 30
0.0
 10
112.4169046320058
 20
-142.1618596866815
 30
0.0
 10
112.4720437972658
 20
-142.1618596866815
 30
0.0
 10
112.5271476847489
 20
-142.1618596866815
 30
0.0
 10
112.5719504613836
 20
-142.1170921866929
 30
0.0
 10
112.5719504613836
 20
-142.0612827422625
 30
0.0
  0
SPLINE
  5
6E
330
41
100
AcDbEntity
  8
_U+30EC_U+30A4_U+30E4_U+30FC 1
 62
   179
420
  2234388
370
     9
100
AcDbSpline
210
0.0
220
0.0
230
1.0
 70
    11
 71
     3
 72
    17
 73
    13
 74
     0
 42
0.0000000001
 43
0.0000000001
 12
1.0
 22
0.0
 32
0.0
 13
1.0
 23
0.0
 33
0.0
 40
0.0
 40
0.0
 40
0.0
 40
0.0
 40
1.0
 40
1.0
 40
1.0
 40
2.0
 40
2.0
 40
2.0
 40
3.0
 40
3.0
 40
3.0
 40
4.0
 40
4.0
 40
4.0
 40
4.0
 10
88.5721966292239
 20
-147.2612977409626
 30
0.0
 10
88.5721966292239
 20
-147.2061585743095
 30
0.0
 10
88.52739385258913
 20
-147.1613910743209
 30
0.0
 10
88.47246635399046
 20
-147.1613910743209
 30
0.0
 10
88.4170096887386
 20
-147.1613910743209
 30
0.0
 10
88.37255968987262
 20
-147.2061585743095
 30
0.0
 10
88.37255968987262
 20
-147.2612977409626
 30
0.0
 10
88.37255968987262
 20
-147.317107185393
 30
0.0
 10
88.4170096887386
 20
-147.3619099631597
 30
0.0
 10
88.47246635399046
 20
-147.3619099631597
 30
0.0
 10
88.52739385258913
 20
-147.3619099631597
 30
0.0
 10
88.5721966292239
 20
-147.317107185393
 30
0.0
 10
88.5721966292239
 20
-147.2612977409626
 30
0.0
  0
SPLINE
  5
6F
330
41
100
AcDbEntity
  8
_U+30EC_U+30A4_U+30E4_U+30FC 1
 62
   179
420
  2234388
370
     9
100
AcDbSpline
210
0.0
220
0.0
230
1.0
 70
    11
 71
     3
 72
    17
 73
    13
 74
     0
 42
0.0000000001
 43
0.0000000001
 12
1.0
 22
0.0
 32
0.0
 13
1.0
 23
0.0
 33
0.0
 40
0.0
 40
0.0
 40
0.0
 40
0.0
 40
1.0
 40
1.0
 40
1.0
 40
2.0
 40
2.0
 40
2.0
 40
3.0
 40
3.0
 40
3.0
 40
4.0
 40
4.0
 40
4.0
 40
4.0
 10
63.57235310035637
 20
-147.2612977409626
 30
0.0
 10
63.57235310035637
 20
-147.2061585743095
 30
0.0
 10
63.52755032372161
 20
-147.1613910743209
 30
0.0
 10
63.47244643623854
 20
-147.1613910743209
 30
0.0
 10
63.4171308820942
 20
-147.1613910743209
 30
0.0
 10
63.37236338323632
 20
-147.2061585743095
 30
0.0
 10
63.37236338323632
 20
-147.2612977409626
 30
0.0
 10
63.37236338323632
 20
-147.317107185393
 30
0.0
 10
63.4171308820942
 20
-147.3619099631597
 30
0.0
 10
63.47244643623854
 20
-147.3619099631597
 30
0.0
 10
63.52755032372161
 20
-147.3619099631597
 30
0.0
 10
63.57235310035637
 20
-147.317107185393
 30
0.0
 10
63.57235310035637
 20
-147.2612977409626
 30
0.0
  0
SPLINE
  5
70
330
41
100
AcDbEntity
  8
_U+30EC_U+30A4_U+30E4_U+30FC 1
 62
   179
420
  2234388
370
     9
100
AcDbSpline
210
0.0
220
0.0
230
1.0
 70
    11
 71
     3
 72
    17
 73
    13
 74
     0
 42
0.0000000001
 43
0.0000000001
 12
1.0
 22
0.0
 32
0.0
 13
1.0
 23
0.0
 33
0.0
 40
0.0
 40
0.0
 40
0.0
 40
0.0
 40
1.0
 40
1.0
 40
1.0
 40
2.0
 40
2.0
 40
2.0
 40
3.0
 40
3.0
 40
3.0
 40
4.0
 40
4.0
 40
4.0
 40
4.0
 10
63.57235310035637
 20
-111.8613883053681
 30
0.0
 10
63.57235310035637
 20
-111.8062844164929
 30
0.0
 10
63.52755032372161
 20
-111.7614816387265
 30
0.0
 10
63.47244643623854
 20
-111.7614816387265
 30
0.0
 10
63.4171308820942
 20
-111.7614816387265
 30
0.0
 10
63.37236338323632
 20
-111.8062844164929
 30
0.0
 10
63.37236338323632
 20
-111.8613883053681
 30
0.0
 10
63.37236338323632
 20
-111.9165274720209
 30
0.0
 10
63.4171308820942
 20
-111.9612949720098
 30
0.0
 10
63.47244643623854
 20
-111.9612949720098
 30
0.0
 10
63.52755032372161
 20
-111.9612949720098
 30
0.0
 10
63.57235310035637
 20
-111.9165274720209
 30
0.0
 10
63.57235310035637
 20
-111.8613883053681
 30
0.0
  0
SPLINE
  5
71
330
41
100
AcDbEntity
  8
_U+30EC_U+30A4_U+30E4_U+30FC 1
 62
   179
420
  2234388
370
     9
100
AcDbSpline
210
0.0
220
0.0
230
1.0
 70
    11
 71
     3
 72
    17
 73
    13
 74
     0
 42
0.0000000001
 43
0.0000000001
 12
1.0
 22
0.0
 32
0.0
 13
1.0
 23
0.0
 33
0.0
 40
0.0
 40
0.0
 40
0.0
 40
0.0
 40
1.0
 40
1.0
 40
1.0
 40
2.0
 40
2.0
 40
2.0
 40
3.0
 40
3.0
 40
3.0
 40
4.0
 40
4.0
 40
4.0
 40
4.0
 10
108.5721913967593
 20
-111.8613883053681
 30
0.0
 10
108.5721913967593
 20
-111.8062844164929
 30
0.0
 10
108.5273886201245
 20
-111.7614816387265
 30
0.0
 10
108.4722847326415
 20
-111.7614816387265
 30
0.0
 10
108.4171455673815
 20
-111.7614816387265
 30
0.0
 10
108.3723780685236
 20
-111.8062844164929
 30
0.0
 10
108.3723780685236
 20
-111.8613883053681
 30
0.0
 10
108.3723780685236
 20
-111.9165274720209
 30
0.0
 10
108.4171455673815
 20
-111.9612949720098
 30
0.0
 10
108.4722847326415
 20
-111.9612949720098
 30
0.0
 10
108.5273886201245
 20
-111.9612949720098
 30
0.0
 10
108.5721913967593
 20
-111.9165274720209
 30
0.0
 10
108.5721913967593
 20
-111.8613883053681
 30
0.0
  0
SPLINE
  5
72
330
41
100
AcDbEntity
  8
_U+30EC_U+30A4_U+30E4_U+30FC 1
 62
   179
420
  2234388
370
     9
100
AcDbSpline
210
0.0
220
0.0
230
1.0
 70
    11
 71
     3
 72
    17
 73
    13
 74
     0
 42
0.0000000001
 43
0.0000000001
 12
1.0
 22
0.0
 32
0.0
 13
1.0
 23
0.0
 33
0.0
 40
0.0
 40
0.0
 40
0.0
 40
0.0
 40
1.0
 40
1.0
 40
1.0
 40
2.0
 40
2.0
 40
2.0
 40
3.0
 40
3.0
 40
3.0
 40
4.0
 40
4.0
 40
4.0
 40
4.0
 10
112.5719504613836
 20
-143.2615385752957
 30
0.0
 10
112.5719504613836
 20
-143.2064346864208
 30
0.0
 10
112.5271476847489
 20
-143.161631908654
 30
0.0
 10
112.4720437972658
 20
-143.161631908654
 30
0.0
 10
112.4169046320058
 20
-143.161631908654
 30
0.0
 10
112.3721371331479
 20
-143.2064346864208
 30
0.0
 10
112.3721371331479
 20
-143.2615385752957
 30
0.0
 10
112.3721371331479
 20
-143.3166777419488
 30
0.0
 10
112.4169046320058
 20
-143.3614452419373
 30
0.0
 10
112.4720437972658
 20
-143.3614452419373
 30
0.0
 10
112.5271476847489
 20
-143.3614452419373
 30
0.0
 10
112.5719504613836
 20
-143.3166777419488
 30
0.0
 10
112.5719504613836
 20
-143.2615385752957
 30
0.0
  0
INSERT
  5
74
330
41
100
AcDbEntity
  8
_U+30EC_U+30A4_U+30E4_U+30FC 1
100
AcDbBlockReference
  2
block 3
 10
0.0
 20
0.0
 30
0.0
  0
INSERT
  5
8C
330
41
100
AcDbEntity
  8
_U+30EC_U+30A4_U+30E4_U+30FC 1
100
AcDbBlockReference
  2
block 5
 10
0.0
 20
0.0
 30
0.0
  0
INSERT
  5
A4
330
41
100
AcDbEntity
  8
_U+30EC_U+30A4_U+30E4_U+30FC 1
100
AcDbBlockReference
  2
block 7
 10
0.0
 20
0.0
 30
0.0
  0
POLYLINE
  5
CE
330
41
100
AcDbEntity
  8
_U+30EC_U+30A4_U+30E4_U+30FC 1
 62
   179
420
  2234388
370
     9
100
AcDb2dPolyline
 66
     1
 10
0.0
 20
0.0
 30
0.0
  0
VERTEX
  5
CF
330
CE
100
AcDbEntity
  8
_U+30EC_U+30A4_U+30E4_U+30FC 1
 62
   179
420
  2234388
370
     9
100
AcDbVertex
100
AcDb2dVertex
 10
112.4720437972658
 20
-142.0612827422625
 30
0.0
  0
VERTEX
  5
D0
330
CE
100
AcDbEntity
  8
_U+30EC_U+30A4_U+30E4_U+30FC 1
 62
   179
420
  2234388
370
     9
100
AcDbVertex
100
AcDb2dVertex
 10
112.4720437972658
 20
-143.2615385752957
 30
0.0
  0
SEQEND
  5
D1
330
CE
100
AcDbEntity
  8
_U+30EC_U+30A4_U+30E4_U+30FC 1
 62
   179
420
  2234388
370
     9
  0
POLYLINE
  5
D2
330
41
100
AcDbEntity
  8
_U+30EC_U+30A4_U+30E4_U+30FC 1
 62
   179
420
  2234388
370
     9
100
AcDb2dPolyline
 66
     1
 10
0.0
 20
0.0
 30
0.0
  0
VERTEX
  5
D3
330
D2
100
AcDbEntity
  8
_U+30EC_U+30A4_U+30E4_U+30FC 1
 62
   179
420
  2234388
370
     9
100
AcDbVertex
100
AcDb2dVertex
 10
91.01271323362779
 20
-143.2615385752957
 30
0.0
  0
VERTEX
  5
D4
330
D2
100
AcDbEntity
  8
_U+30EC_U+30A4_U+30E4_U+30FC 1
 62
   179
420
  2234388
370
     9
100
AcDbVertex
100
AcDb2dVertex
 10
113.4724862717424
 20
-143.2615385752957
 30
0.0
  0
SEQEND
  5
D5
330
D2
100
AcDbEntity
  8
_U+30EC_U+30A4_U+30E4_U+30FC 1
 62
   179
420
  2234388
370
     9
  0
INSERT
  5
D7
330
41
100
AcDbEntity
  8
_U+30EC_U+30A4_U+30E4_U+30FC 1
100
AcDbBlockReference
  2
block 9
 10
0.0
 20
0.0
 30
0.0
  0
POLYLINE
  5
E6
330
41
100
AcDbEntity
  8
_U+30EC_U+30A4_U+30E4_U+30FC 1
 62
   179
420
  2234388
370
    25
100
AcDb2dPolyline
 66
     1
 10
0.0
 20
0.0
 30
0.0
  0
VERTEX
  5
E7
330
E6
100
AcDbEntity
  8
_U+30EC_U+30A4_U+30E4_U+30FC 1
 62
   179
420
  2234388
370
    25
100
AcDbVertex
100
AcDb2dVertex
 10
64.68113362762459
 20
-117.0569230262914
 30
0.0
  0
VERTEX
  5
E8
330
E6
100
AcDbEntity
  8
_U+30EC_U+30A4_U+30E4_U+30FC 1
 62
   179
420
  2234388
370
    25
100
AcDbVertex
100
AcDb2dVertex
 10
98.26928138183065
 20
-117.0566055262915
 30
0.0
  0
VERTEX
  5
E9
330
E6
100
AcDbEntity
  8
_U+30EC_U+30A4_U+30E4_U+30FC 1
 62
   179
420
  2234388
370
    25
100
AcDbVertex
100
AcDb2dVertex
 10
98.4718463766628
 20
-116.8567921930079
 30
0.0
  0
VERTEX
  5
EA
330
E6
100
AcDbEntity
  8
_U+30EC_U+30A4_U+30E4_U+30FC 1
 62
   179
420
  2234388
370
    25
100
AcDbVertex
100
AcDb2dVertex
 10
98.66407498286975
 20
-117.0566055262915
 30
0.0
  0
VERTEX
  5
EB
330
E6
100
AcDbEntity
  8
_U+30EC_U+30A4_U+30E4_U+30FC 1
 62
   179
420
  2234388
370
    25
100
AcDbVertex
100
AcDb2dVertex
 10
108.4722847326415
 20
-117.0569230262914
 30
0.0
  0
SEQEND
  5
EC
330
E6
100
AcDbEntity
  8
_U+30EC_U+30A4_U+30E4_U+30FC 1
 62
   179
420
  2234388
370
    25
  0
ENDBLK
  5
44
330
41
100
AcDbEntity
  8
0
100
AcDbBlockEnd
  0
BLOCK
  5
75
330
73
100
AcDbEntity
  8
0
100
AcDbBlockBegin
  2
block 3
 70
     0
 10
0.0
 20
0.0
 30
0.0
  3
block 3
  1

  0
POLYLINE
  5
77
330
73
100
AcDbEntity
  8
_U+30EC_U+30A4_U+30E4_U+30FC 1
 62
   179
420
  2234388
370
     9
100
AcDb2dPolyline
 66
     1
 10
0.0
 20
0.0
 30
0.0
  0
VERTEX
  5
78
330
77
100
AcDbEntity
  8
_U+30EC_U+30A4_U+30E4_U+30FC 1
 62
   179
420
  2234388
370
     9
100
AcDbVertex
100
AcDb2dVertex
 10
112.4720437972658
 20
-142.0612827422625
 30
0.0
  0
VERTEX
  5
79
330
77
100
AcDbEntity
  8
_U+30EC_U+30A4_U+30E4_U+30FC 1
 62
   179
420
  2234388
370
     9
100
AcDbVertex
100
AcDb2dVertex
 10
112.4720437972658
 20
-117.0614033040679
 30
0.0
  0
SEQEND
  5
7A
330
77
100
AcDbEntity
  8
_U+30EC_U+30A4_U+30E4_U+30FC 1
 62
   179
420
  2234388
370
     9
  0
POLYLINE
  5
7B
330
73
100
AcDbEntity
  8
_U+30EC_U+30A4_U+30E4_U+30FC 1
 62
   179
420
  2234388
370
     9
100
AcDb2dPolyline
 66
     1
 10
0.0
 20
0.0
 30
0.0
  0
VERTEX
  5
7C
330
7B
100
AcDbEntity
  8
_U+30EC_U+30A4_U+30E4_U+30FC 1
 62
   179
420
  2234388
370
     9
100
AcDbVertex
100
AcDb2dVertex
 10
91.01271323362779
 20
-142.0612827422625
 30
0.0
  0
VERTEX
  5
7D
330
7B
100
AcDbEntity
  8
_U+30EC_U+30A4_U+30E4_U+30FC 1
 62
   179
420
  2234388
370
     9
100
AcDbVertex
100
AcDb2dVertex
 10
113.4724862717424
 20
-142.0612827422625
 30
0.0
  0
SEQEND
  5
7E
330
7B
100
AcDbEntity
  8
_U+30EC_U+30A4_U+30E4_U+30FC 1
 62
   179
420
  2234388
370
     9
  0
POLYLINE
  5
7F
330
73
100
AcDbEntity
  8
_U+30EC_U+30A4_U+30E4_U+30FC 1
 62
   179
420
  2234388
370
     9
100
AcDb2dPolyline
 66
     1
 10
0.0
 20
0.0
 30
0.0
  0
VERTEX
  5
80
330
7F
100
AcDbEntity
  8
_U+30EC_U+30A4_U+30E4_U+30FC 1
 62
   179
420
  2234388
370
     9
100
AcDbVertex
100
AcDb2dVertex
 10
111.0120024456256
 20
-117.0614033040679
 30
0.0
  0
VERTEX
  5
81
330
7F
100
AcDbEntity
  8
_U+30EC_U+30A4_U+30E4_U+30FC 1
 62
   179
420
  2234388
370
     9
100
AcDbVertex
100
AcDb2dVertex
 10
113.4724862717424
 20
-117.0614033040679
 30
0.0
  0
SEQEND
  5
82
330
7F
100
AcDbEntity
  8
_U+30EC_U+30A4_U+30E4_U+30FC 1
 62
   179
420
  2234388
370
     9
  0
INSERT
  5
84
330
73
100
AcDbEntity
  8
_U+30EC_U+30A4_U+30E4_U+30FC 1
100
AcDbBlockReference
  2
block 4
 10
0.0
 20
0.0
 30
0.0
  0
ENDBLK
  5
76
330
73
100
AcDbEntity
  8
0
100
AcDbBlockEnd
  0
BLOCK
  5
85
330
83
100
AcDbEntity
  8
0
100
AcDbBlockBegin
  2
block 4
 70
     0
 10
0.0
 20
0.0
 30
0.0
  3
block 4
  1

  0
SPLINE
  5
87
330
83
100
AcDbEntity
  8
_U+30EC_U+30A4_U+30E4_U+30FC 1
370
     0
100
AcDbSpline
210
0.0
220
0.0
230
1.0
 70
    11
 71
     3
 72
    44
 73
    40
 74
     0
 42
0.0000000001
 43
0.0000000001
 12
1.0
 22
0.0
 32
0.0
 13
1.0
 23
0.0
 33
0.0
 40
0.0
 40
0.0
 40
0.0
 40
0.0
 40
1.0
 40
1.0
 40
1.0
 40
2.0
 40
2.0
 40
2.0
 40
3.0
 40
3.0
 40
3.0
 40
4.0
 40
4.0
 40
4.0
 40
5.0
 40
5.0
 40
5.0
 40
6.0
 40
6.0
 40
6.0
 40
7.0
 40
7.0
 40
7.0
 40
8.0
 40
8.0
 40
8.0
 40
9.0
 40
9.0
 40
9.0
 40
10.0
 40
10.0
 40
10.0
 40
11.0
 40
11.0
 40
11.0
 40
12.0
 40
12.0
 40
12.0
 40
13.0
 40
13.0
 40
13.0
 40
13.0
 10
111.3465196119203
 20
-130.0971408094896
 30
0.0
 10
111.5177408575372
 20
-130.3320963215836
 30
0.0
 10
111.597667072795
 20
-130.4326931097529
 30
0.0
 10
111.7526963696313
 20
-130.4850585611287
 30
0.0
 10
111.7526963696313
 20
-130.4850585611287
 30
0.0
 10
111.7526963696313
 20
-129.6451442818248
 30
0.0
 10
111.7526963696313
 20
-129.6451442818248
 30
0.0
 10
111.7526963696313
 20
-129.6451442818248
 30
0.0
 10
111.9742160093328
 20
-129.6451442818248
 30
0.0
 10
111.9742160093328
 20
-129.6451442818248
 30
0.0
 10
111.9742160093328
 20
-129.6451442818248
 30
0.0
 10
111.9742160093328
 20
-130.7544650280753
 30
0.0
 10
111.9742160093328
 20
-130.7544650280753
 30
0.0
 10
111.5883653149849
 20
-130.7200140732228
 30
0.0
 10
111.5039604755962
 20
-130.6493896157752
 30
0.0
 10
111.1821885572739
 20
-130.233911100254
 30
0.0
 10
110.9675591085428
 20
-129.9579589518855
 30
0.0
 10
110.8945230842555
 20
-129.8869899848894
 30
0.0
 10
110.7463839783898
 20
-129.8869899848894
 30
0.0
 10
110.618570935887
 20
-129.8869899848894
 30
0.0
 10
110.4769775114433
 20
-129.964849142856
 30
0.0
 10
110.4769775114433
 20
-130.1770670247474
 30
0.0
 10
110.4769775114433
 20
-130.4574977972467
 30
0.0
 10
110.7257134054783
 20
-130.4667995550569
 30
0.0
 10
110.8514593906899
 20
-130.4712781791877
 30
0.0
 10
110.8514593906899
 20
-130.4712781791877
 30
0.0
 10
110.8514593906899
 20
-130.7131238822523
 30
0.0
 10
110.8514593906899
 20
-130.7131238822523
 30
0.0
 10
110.714344590377
 20
-130.7041666339906
 30
0.0
 10
110.5934217388447
 20
-130.6927978188893
 30
0.0
 10
110.4656086963419
 20
-130.605981412661
 30
0.0
 10
110.2919758838853
 20
-130.4874701279684
 30
0.0
 10
110.2554578717417
 20
-130.2866210611784
 30
0.0
 10
110.2554578717417
 20
-130.1608750759667
 30
0.0
 10
110.2554578717417
 20
-129.8618407878471
 30
0.0
 10
110.4542398812406
 20
-129.6382540908543
 30
0.0
 10
110.7484510356809
 20
-129.6382540908543
 30
0.0
 10
110.9951198724248
 20
-129.6382540908543
 30
0.0
 10
111.1022623420161
 20
-129.7636555665174
 30
0.0
 10
111.3465196119203
 20
-130.0971408094896
 30
0.0
  0
HATCH
  5
88
330
83
100
AcDbEntity
  8
_U+30EC_U+30A4_U+30E4_U+30FC 1
 62
   179
420
  2234388
100
AcDbHatch
 10
0.0
 20
0.0
 30
0.0
210
0.0
220
0.0
230
1.0
  2
SOLID
 70
     1
 71
     0
 91
        1
 92
        1
 93
        1
 72
     4
 94
        3
 73
     0
 74
     1
 95
       44
 96
       40
 40
0.0
 40
0.0
 40
0.0
 40
0.0
 40
1.0
 40
1.0
 40
1.0
 40
2.0
 40
2.0
 40
2.0
 40
3.0
 40
3.0
 40
3.0
 40
4.0
 40
4.0
 40
4.0
 40
5.0
 40
5.0
 40
5.0
 40
6.0
 40
6.0
 40
6.0
 40
7.0
 40
7.0
 40
7.0
 40
8.0
 40
8.0
 40
8.0
 40
9.0
 40
9.0
 40
9.0
 40
10.0
 40
10.0
 40
10.0
 40
11.0
 40
11.0
 40
11.0
 40
12.0
 40
12.0
 40
12.0
 40
13.0
 40
13.0
 40
13.0
 40
13.0
 10
111.3465196119203
 20
-130.0971408094896
 10
111.5177408575372
 20
-130.3320963215836
 10
111.597667072795
 20
-130.4326931097529
 10
111.7526963696313
 20
-130.4850585611287
 10
111.7526963696313
 20
-130.4850585611287
 10
111.7526963696313
 20
-129.6451442818248
 10
111.7526963696313
 20
-129.6451442818248
 10
111.7526963696313
 20
-129.6451442818248
 10
111.9742160093328
 20
-129.6451442818248
 10
111.9742160093328
 20
-129.6451442818248
 10
111.9742160093328
 20
-129.6451442818248
 10
111.9742160093328
 20
-130.7544650280753
 10
111.9742160093328
 20
-130.7544650280753
 10
111.5883653149849
 20
-130.7200140732228
 10
111.5039604755962
 20
-130.6493896157752
 10
111.1821885572739
 20
-130.233911100254
 10
110.9675591085428
 20
-129.9579589518855
 10
110.8945230842555
 20
-129.8869899848894
 10
110.7463839783898
 20
-129.8869899848894
 10
110.618570935887
 20
-129.8869899848894
 10
110.4769775114433
 20
-129.964849142856
 10
110.4769775114433
 20
-130.1770670247474
 10
110.4769775114433
 20
-130.4574977972467
 10
110.7257134054783
 20
-130.4667995550569
 10
110.8514593906899
 20
-130.4712781791877
 10
110.8514593906899
 20
-130.4712781791877
 10
110.8514593906899
 20
-130.7131238822523
 10
110.8514593906899
 20
-130.7131238822523
 10
110.714344590377
 20
-130.7041666339906
 10
110.5934217388447
 20
-130.6927978188893
 10
110.4656086963419
 20
-130.605981412661
 10
110.2919758838853
 20
-130.4874701279684
 10
110.2554578717417
 20
-130.2866210611784
 10
110.2554578717417
 20
-130.1608750759667
 10
110.2554578717417
 20
-129.8618407878471
 10
110.4542398812406
 20
-129.6382540908543
 10
110.7484510356809
 20
-129.6382540908543
 10
110.9951198724248
 20
-129.6382540908543
 10
111.1022623420161
 20
-129.7636555665174
 10
111.3465196119203
 20
-130.0971408094896
 97
        0
 97
        0
 75
     2
 76
     1
 98
        0
  0
SPLINE
  5
89
330
83
100
AcDbEntity
  8
_U+30EC_U+30A4_U+30E4_U+30FC 1
370
     0
100
AcDbSpline
210
0.0
220
0.0
230
1.0
 70
    11
 71
     3
 72
    53
 73
    49
 74
     0
 42
0.0000000001
 43
0.0000000001
 12
1.0
 22
0.0
 32
0.0
 13
1.0
 23
0.0
 33
0.0
 40
0.0
 40
0.0
 40
0.0
 40
0.0
 40
1.0
 40
1.0
 40
1.0
 40
2.0
 40
2.0
 40
2.0
 40
3.0
 40
3.0
 40
3.0
 40
4.0
 40
4.0
 40
4.0
 40
5.0
 40
5.0
 40
5.0
 40
6.0
 40
6.0
 40
6.0
 40
7.0
 40
7.0
 40
7.0
 40
8.0
 40
8.0
 40
8.0
 40
9.0
 40
9.0
 40
9.0
 40
10.0
 40
10.0
 40
10.0
 40
11.0
 40
11.0
 40
11.0
 40
12.0
 40
12.0
 40
12.0
 40
13.0
 40
13.0
 40
13.0
 40
14.0
 40
14.0
 40
14.0
 40
15.0
 40
15.0
 40
15.0
 40
16.0
 40
16.0
 40
16.0
 40
16.0
 10
112.0289930275483
 20
-128.9478569556103
 30
0.0
 10
112.0289930275483
 20
-129.0322617949989
 30
0.0
 10
112.0107340214765
 20
-129.1418158314298
 30
0.0
 10
111.94217662132
 20
-129.2513698678608
 30
0.0
 10
111.8236653366274
 20
-129.4384385527098
 30
0.0
 10
111.6820719121837
 20
-129.4611761829125
 30
0.0
 10
111.5656276847822
 20
-129.481846755824
 30
0.0
 10
111.5656276847822
 20
-129.481846755824
 30
0.0
 10
111.5656276847822
 20
-129.2420681100506
 30
0.0
 10
111.5656276847822
 20
-129.2420681100506
 30
0.0
 10
111.7802571335133
 20
-129.1828124677043
 30
0.0
 10
111.8122965215261
 20
-129.0460421769399
 30
0.0
 10
111.8122965215261
 20
-128.9454453887706
 30
0.0
 10
111.8122965215261
 20
-128.7948947160652
 30
0.0
 10
111.7048095423863
 20
-128.6305636614188
 30
0.0
 10
111.4536620815116
 20
-128.6305636614188
 30
0.0
 10
111.1777099331431
 20
-128.6305636614188
 30
0.0
 10
111.1022623420161
 20
-128.8245225372383
 30
0.0
 10
111.1022623420161
 20
-128.9547471465808
 30
0.0
 10
111.1022623420161
 20
-128.9888535918847
 30
0.0
 10
111.1022623420161
 20
-129.1418158314298
 30
0.0
 10
111.2414441996202
 20
-129.2375894859198
 30
0.0
 10
111.2414441996202
 20
-129.2375894859198
 30
0.0
 10
111.2211181362572
 20
-129.4270697376085
 30
0.0
 10
111.2211181362572
 20
-129.4270697376085
 30
0.0
 10
111.2211181362572
 20
-129.4270697376085
 30
0.0
 10
110.308167832666
 20
-129.2971896378146
 30
0.0
 10
110.308167832666
 20
-129.2971896378146
 30
0.0
 10
110.308167832666
 20
-129.2971896378146
 30
0.0
 10
110.308167832666
 20
-128.4572753585107
 30
0.0
 10
110.308167832666
 20
-128.4572753585107
 30
0.0
 10
110.308167832666
 20
-128.4572753585107
 30
0.0
 10
110.5179741477177
 20
-128.4572753585107
 30
0.0
 10
110.5179741477177
 20
-128.4572753585107
 30
0.0
 10
110.5179741477177
 20
-128.4572753585107
 30
0.0
 10
110.5179741477177
 20
-129.1211452585183
 30
0.0
 10
110.5179741477177
 20
-129.1211452585183
 30
0.0
 10
110.5179741477177
 20
-129.1211452585183
 30
0.0
 10
110.9744492995133
 20
-129.1921142255145
 30
0.0
 10
110.9744492995133
 20
-129.1921142255145
 30
0.0
 10
110.9379312873697
 20
-129.1259683921977
 30
0.0
 10
110.8945230842555
 20
-129.0367404191297
 30
0.0
 10
110.8945230842555
 20
-128.9089273766269
 30
0.0
 10
110.8945230842555
 20
-128.6350422855496
 30
0.0
 10
111.0953721510456
 20
-128.379416200544
 30
0.0
 10
111.4333360181486
 20
-128.379416200544
 30
0.0
 10
111.7757785093824
 20
-128.379416200544
 30
0.0
 10
112.0289930275483
 20
-128.6212619036086
 30
0.0
 10
112.0289930275483
 20
-128.9478569556103
 30
0.0
  0
HATCH
  5
8A
330
83
100
AcDbEntity
  8
_U+30EC_U+30A4_U+30E4_U+30FC 1
 62
   179
420
  2234388
100
AcDbHatch
 10
0.0
 20
0.0
 30
0.0
210
0.0
220
0.0
230
1.0
  2
SOLID
 70
     1
 71
     0
 91
        1
 92
        1
 93
        1
 72
     4
 94
        3
 73
     0
 74
     1
 95
       53
 96
       49
 40
0.0
 40
0.0
 40
0.0
 40
0.0
 40
1.0
 40
1.0
 40
1.0
 40
2.0
 40
2.0
 40
2.0
 40
3.0
 40
3.0
 40
3.0
 40
4.0
 40
4.0
 40
4.0
 40
5.0
 40
5.0
 40
5.0
 40
6.0
 40
6.0
 40
6.0
 40
7.0
 40
7.0
 40
7.0
 40
8.0
 40
8.0
 40
8.0
 40
9.0
 40
9.0
 40
9.0
 40
10.0
 40
10.0
 40
10.0
 40
11.0
 40
11.0
 40
11.0
 40
12.0
 40
12.0
 40
12.0
 40
13.0
 40
13.0
 40
13.0
 40
14.0
 40
14.0
 40
14.0
 40
15.0
 40
15.0
 40
15.0
 40
16.0
 40
16.0
 40
16.0
 40
16.0
 10
112.0289930275483
 20
-128.9478569556103
 10
112.0289930275483
 20
-129.0322617949989
 10
112.0107340214765
 20
-129.1418158314298
 10
111.94217662132
 20
-129.2513698678608
 10
111.8236653366274
 20
-129.4384385527098
 10
111.6820719121837
 20
-129.4611761829125
 10
111.5656276847822
 20
-129.481846755824
 10
111.5656276847822
 20
-129.481846755824
 10
111.5656276847822
 20
-129.2420681100506
 10
111.5656276847822
 20
-129.2420681100506
 10
111.7802571335133
 20
-129.1828124677043
 10
111.8122965215261
 20
-129.0460421769399
 10
111.8122965215261
 20
-128.9454453887706
 10
111.8122965215261
 20
-128.7948947160652
 10
111.7048095423863
 20
-128.6305636614188
 10
111.4536620815116
 20
-128.6305636614188
 10
111.1777099331431
 20
-128.6305636614188
 10
111.1022623420161
 20
-128.8245225372383
 10
111.1022623420161
 20
-128.9547471465808
 10
111.1022623420161
 20
-128.9888535918847
 10
111.1022623420161
 20
-129.1418158314298
 10
111.2414441996202
 20
-129.2375894859198
 10
111.2414441996202
 20
-129.2375894859198
 10
111.2211181362572
 20
-129.4270697376085
 10
111.2211181362572
 20
-129.4270697376085
 10
111.2211181362572
 20
-129.4270697376085
 10
110.308167832666
 20
-129.2971896378146
 10
110.308167832666
 20
-129.2971896378146
 10
110.308167832666
 20
-129.2971896378146
 10
110.308167832666
 20
-128.4572753585107
 10
110.308167832666
 20
-128.4572753585107
 10
110.308167832666
 20
-128.4572753585107
 10
110.5179741477177
 20
-128.4572753585107
 10
110.5179741477177
 20
-128.4572753585107
 10
110.5179741477177
 20
-128.4572753585107
 10
110.5179741477177
 20
-129.1211452585183
 10
110.5179741477177
 20
-129.1211452585183
 10
110.5179741477177
 20
-129.1211452585183
 10
110.9744492995133
 20
-129.1921142255145
 10
110.9744492995133
 20
-129.1921142255145
 10
110.9379312873697
 20
-129.1259683921977
 10
110.8945230842555
 20
-129.0367404191297
 10
110.8945230842555
 20
-128.9089273766269
 10
110.8945230842555
 20
-128.6350422855496
 10
111.0953721510456
 20
-128.379416200544
 10
111.4333360181486
 20
-128.379416200544
 10
111.7757785093824
 20
-128.379416200544
 10
112.0289930275483
 20
-128.6212619036086
 10
112.0289930275483
 20
-128.9478569556103
 97
        0
 97
        0
 75
     2
 76
     1
 98
        0
  0
ENDBLK
  5
86
330
83
100
AcDbEntity
  8
0
100
AcDbBlockEnd
  0
BLOCK
  5
8D
330
8B
100
AcDbEntity
  8
0
100
AcDbBlockBegin
  2
block 5
 70
     0
 10
0.0
 20
0.0
 30
0.0
  3
block 5
  1

  0
POLYLINE
  5
8F
330
8B
100
AcDbEntity
  8
_U+30EC_U+30A4_U+30E4_U+30FC 1
 62
   179
420
  2234388
370
     9
100
AcDb2dPolyline
 66
     1
 10
0.0
 20
0.0
 30
0.0
  0
VERTEX
  5
90
330
8F
100
AcDbEntity
  8
_U+30EC_U+30A4_U+30E4_U+30FC 1
 62
   179
420
  2234388
370
     9
100
AcDbVertex
100
AcDb2dVertex
 10
63.47244643623854
 20
-147.2612977409626
 30
0.0
  0
VERTEX
  5
91
330
8F
100
AcDbEntity
  8
_U+30EC_U+30A4_U+30E4_U+30FC 1
 62
   179
420
  2234388
370
     9
100
AcDbVertex
100
AcDb2dVertex
 10
88.47246635399046
 20
-147.2612977409626
 30
0.0
  0
SEQEND
  5
92
330
8F
100
AcDbEntity
  8
_U+30EC_U+30A4_U+30E4_U+30FC 1
 62
   179
420
  2234388
370
     9
  0
POLYLINE
  5
93
330
8B
100
AcDbEntity
  8
_U+30EC_U+30A4_U+30E4_U+30FC 1
 62
   179
420
  2234388
370
     9
100
AcDb2dPolyline
 66
     1
 10
0.0
 20
0.0
 30
0.0
  0
VERTEX
  5
94
330
93
100
AcDbEntity
  8
_U+30EC_U+30A4_U+30E4_U+30FC 1
 62
   179
420
  2234388
370
     9
100
AcDbVertex
100
AcDb2dVertex
 10
63.47244643623854
 20
-145.8012563524389
 30
0.0
  0
VERTEX
  5
95
330
93
100
AcDbEntity
  8
_U+30EC_U+30A4_U+30E4_U+30FC 1
 62
   179
420
  2234388
370
     9
100
AcDbVertex
100
AcDb2dVertex
 10
63.47244643623854
 20
-148.2617402407125
 30
0.0
  0
SEQEND
  5
96
330
93
100
AcDbEntity
  8
_U+30EC_U+30A4_U+30E4_U+30FC 1
 62
   179
420
  2234388
370
     9
  0
POLYLINE
  5
97
330
8B
100
AcDbEntity
  8
_U+30EC_U+30A4_U+30E4_U+30FC 1
 62
   179
420
  2234388
370
     9
100
AcDb2dPolyline
 66
     1
 10
0.0
 20
0.0
 30
0.0
  0
VERTEX
  5
98
330
97
100
AcDbEntity
  8
_U+30EC_U+30A4_U+30E4_U+30FC 1
 62
   179
420
  2234388
370
     9
100
AcDbVertex
100
AcDb2dVertex
 10
88.47246635399046
 20
-145.8012563524389
 30
0.0
  0
VERTEX
  5
99
330
97
100
AcDbEntity
  8
_U+30EC_U+30A4_U+30E4_U+30FC 1
 62
   179
420
  2234388
370
     9
100
AcDbVertex
100
AcDb2dVertex
 10
88.47246635399046
 20
-148.2617402407125
 30
0.0
  0
SEQEND
  5
9A
330
97
100
AcDbEntity
  8
_U+30EC_U+30A4_U+30E4_U+30FC 1
 62
   179
420
  2234388
370
     9
  0
INSERT
  5
9C
330
8B
100
AcDbEntity
  8
_U+30EC_U+30A4_U+30E4_U+30FC 1
100
AcDbBlockReference
  2
block 6
 10
0.0
 20
0.0
 30
0.0
  0
ENDBLK
  5
8E
330
8B
100
AcDbEntity
  8
0
100
AcDbBlockEnd
  0
BLOCK
  5
9D
330
9B
100
AcDbEntity
  8
0
100
AcDbBlockBegin
  2
block 6
 70
     0
 10
0.0
 20
0.0
 30
0.0
  3
block 6
  1

  0
SPLINE
  5
9F
330
9B
100
AcDbEntity
  8
_U+30EC_U+30A4_U+30E4_U+30FC 1
370
     0
100
AcDbSpline
210
0.0
220
0.0
230
1.0
 70
    11
 71
     3
 72
    44
 73
    40
 74
     0
 42
0.0000000001
 43
0.0000000001
 12
1.0
 22
0.0
 32
0.0
 13
1.0
 23
0.0
 33
0.0
 40
0.0
 40
0.0
 40
0.0
 40
0.0
 40
1.0
 40
1.0
 40
1.0
 40
2.0
 40
2.0
 40
2.0
 40
3.0
 40
3.0
 40
3.0
 40
4.0
 40
4.0
 40
4.0
 40
5.0
 40
5.0
 40
5.0
 40
6.0
 40
6.0
 40
6.0
 40
7.0
 40
7.0
 40
7.0
 40
8.0
 40
8.0
 40
8.0
 40
9.0
 40
9.0
 40
9.0
 40
10.0
 40
10.0
 40
10.0
 40
11.0
 40
11.0
 40
11.0
 40
12.0
 40
12.0
 40
12.0
 40
13.0
 40
13.0
 40
13.0
 40
13.0
 10
75.43691133096716
 20
-146.1361273506188
 30
0.0
 10
75.20195581887313
 20
-146.3073485962357
 30
0.0
 10
75.10153128547809
 20
-146.3872748114935
 30
0.0
 10
75.04899357932803
 20
-146.5423041083297
 30
0.0
 10
75.04899357932803
 20
-146.5423041083297
 30
0.0
 10
75.88890785863194
 20
-146.5423041083297
 30
0.0
 10
75.88890785863194
 20
-146.5423041083297
 30
0.0
 10
75.88890785863194
 20
-146.5423041083297
 30
0.0
 10
75.88890785863194
 20
-146.7638237480313
 30
0.0
 10
75.88890785863194
 20
-146.7638237480313
 30
0.0
 10
75.88890785863194
 20
-146.7638237480313
 30
0.0
 10
74.77958711238149
 20
-146.7638237480313
 30
0.0
 10
74.77958711238149
 20
-146.7638237480313
 30
0.0
 10
74.81386581245974
 20
-146.3779730536833
 30
0.0
 10
74.88466252468162
 20
-146.2935682142947
 30
0.0
 10
75.30014104020275
 20
-145.9717962959723
 30
0.0
 10
75.57626544334552
 20
-145.7571668472413
 30
0.0
 10
75.64706215556741
 20
-145.684130822954
 30
0.0
 10
75.64706215556741
 20
-145.5359917170882
 30
0.0
 10
75.64706215556741
 20
-145.4081786745855
 30
0.0
 10
75.56937525237502
 20
-145.2665852501417
 30
0.0
 10
75.35715737048363
 20
-145.2665852501417
 30
0.0
 10
75.07638208843576
 20
-145.2665852501417
 30
0.0
 10
75.06725258539986
 20
-145.5153211441767
 30
0.0
 10
75.06277396126903
 20
-145.6410671293883
 30
0.0
 10
75.06277396126903
 20
-145.6410671293883
 30
0.0
 10
74.82075600343023
 20
-145.6410671293883
 30
0.0
 10
74.82075600343023
 20
-145.6410671293883
 30
0.0
 10
74.82988550646614
 20
-145.5039523290754
 30
0.0
 10
74.84125432156746
 20
-145.3830294775431
 30
0.0
 10
74.92807072779577
 20
-145.2552164350404
 30
0.0
 10
75.04675426726261
 20
-145.0815836225838
 30
0.0
 10
75.24760333405268
 20
-145.0450656104401
 30
0.0
 10
75.37317706449004
 20
-145.0450656104401
 30
0.0
 10
75.67203909783547
 20
-145.0450656104401
 30
0.0
 10
75.89579804960245
 20
-145.243847619939
 30
0.0
 10
75.89579804960245
 20
-145.5380587743794
 30
0.0
 10
75.89579804960245
 20
-145.7847276111233
 30
0.0
 10
75.77022431916508
 20
-145.8918700807145
 30
0.0
 10
75.43691133096716
 20
-146.1361273506188
 30
0.0
  0
HATCH
  5
A0
330
9B
100
AcDbEntity
  8
_U+30EC_U+30A4_U+30E4_U+30FC 1
 62
   179
420
  2234388
100
AcDbHatch
 10
0.0
 20
0.0
 30
0.0
210
0.0
220
0.0
230
1.0
  2
SOLID
 70
     1
 71
     0
 91
        1
 92
        1
 93
        1
 72
     4
 94
        3
 73
     0
 74
     1
 95
       44
 96
       40
 40
0.0
 40
0.0
 40
0.0
 40
0.0
 40
1.0
 40
1.0
 40
1.0
 40
2.0
 40
2.0
 40
2.0
 40
3.0
 40
3.0
 40
3.0
 40
4.0
 40
4.0
 40
4.0
 40
5.0
 40
5.0
 40
5.0
 40
6.0
 40
6.0
 40
6.0
 40
7.0
 40
7.0
 40
7.0
 40
8.0
 40
8.0
 40
8.0
 40
9.0
 40
9.0
 40
9.0
 40
10.0
 40
10.0
 40
10.0
 40
11.0
 40
11.0
 40
11.0
 40
12.0
 40
12.0
 40
12.0
 40
13.0
 40
13.0
 40
13.0
 40
13.0
 10
75.43691133096716
 20
-146.1361273506188
 10
75.20195581887313
 20
-146.3073485962357
 10
75.10153128547809
 20
-146.3872748114935
 10
75.04899357932803
 20
-146.5423041083297
 10
75.04899357932803
 20
-146.5423041083297
 10
75.88890785863194
 20
-146.5423041083297
 10
75.88890785863194
 20
-146.5423041083297
 10
75.88890785863194
 20
-146.5423041083297
 10
75.88890785863194
 20
-146.7638237480313
 10
75.88890785863194
 20
-146.7638237480313
 10
75.88890785863194
 20
-146.7638237480313
 10
74.77958711238149
 20
-146.7638237480313
 10
74.77958711238149
 20
-146.7638237480313
 10
74.81386581245974
 20
-146.3779730536833
 10
74.88466252468162
 20
-146.2935682142947
 10
75.30014104020275
 20
-145.9717962959723
 10
75.57626544334552
 20
-145.7571668472413
 10
75.64706215556741
 20
-145.684130822954
 10
75.64706215556741
 20
-145.5359917170882
 10
75.64706215556741
 20
-145.4081786745855
 10
75.56937525237502
 20
-145.2665852501417
 10
75.35715737048363
 20
-145.2665852501417
 10
75.07638208843576
 20
-145.2665852501417
 10
75.06725258539986
 20
-145.5153211441767
 10
75.06277396126903
 20
-145.6410671293883
 10
75.06277396126903
 20
-145.6410671293883
 10
74.82075600343023
 20
-145.6410671293883
 10
74.82075600343023
 20
-145.6410671293883
 10
74.82988550646614
 20
-145.5039523290754
 10
74.84125432156746
 20
-145.3830294775431
 10
74.92807072779577
 20
-145.2552164350404
 10
75.04675426726261
 20
-145.0815836225838
 10
75.24760333405268
 20
-145.0450656104401
 10
75.37317706449004
 20
-145.0450656104401
 10
75.67203909783547
 20
-145.0450656104401
 10
75.89579804960245
 20
-145.243847619939
 10
75.89579804960245
 20
-145.5380587743794
 10
75.89579804960245
 20
-145.7847276111233
 10
75.77022431916508
 20
-145.8918700807145
 10
75.43691133096716
 20
-146.1361273506188
 97
        0
 97
        0
 75
     2
 76
     1
 98
        0
  0
SPLINE
  5
A1
330
9B
100
AcDbEntity
  8
_U+30EC_U+30A4_U+30E4_U+30FC 1
370
     0
100
AcDbSpline
210
0.0
220
0.0
230
1.0
 70
    11
 71
     3
 72
    53
 73
    49
 74
     0
 42
0.0000000001
 43
0.0000000001
 12
1.0
 22
0.0
 32
0.0
 13
1.0
 23
0.0
 33
0.0
 40
0.0
 40
0.0
 40
0.0
 40
0.0
 40
1.0
 40
1.0
 40
1.0
 40
2.0
 40
2.0
 40
2.0
 40
3.0
 40
3.0
 40
3.0
 40
4.0
 40
4.0
 40
4.0
 40
5.0
 40
5.0
 40
5.0
 40
6.0
 40
6.0
 40
6.0
 40
7.0
 40
7.0
 40
7.0
 40
8.0
 40
8.0
 40
8.0
 40
9.0
 40
9.0
 40
9.0
 40
10.0
 40
10.0
 40
10.0
 40
11.0
 40
11.0
 40
11.0
 40
12.0
 40
12.0
 40
12.0
 40
13.0
 40
13.0
 40
13.0
 40
14.0
 40
14.0
 40
14.0
 40
15.0
 40
15.0
 40
15.0
 40
16.0
 40
16.0
 40
16.0
 40
16.0
 10
76.58636743962077
 20
-146.8186007662467
 30
0.0
 10
76.50196260023215
 20
-146.8186007662467
 30
0.0
 10
76.39240856380121
 20
-146.8003417601749
 30
0.0
 10
76.28285452737026
 20
-146.7317843600185
 30
0.0
 10
76.09561358774694
 20
-146.6132730753258
 30
0.0
 10
76.07287595754428
 20
-146.4716796508821
 30
0.0
 10
76.05237763940704
 20
-146.3552354234807
 30
0.0
 10
76.05237763940704
 20
-146.3552354234807
 30
0.0
 10
76.29198403040617
 20
-146.3552354234807
 30
0.0
 10
76.29198403040617
 20
-146.3552354234807
 30
0.0
 10
76.35123967275247
 20
-146.5698648722117
 30
0.0
 10
76.48835447306541
 20
-146.6019042602245
 30
0.0
 10
76.58860675168619
 20
-146.6019042602245
 30
0.0
 10
76.73932967916586
 20
-146.6019042602245
 30
0.0
 10
76.90366073381229
 20
-146.4944172810847
 30
0.0
 10
76.90366073381229
 20
-146.24326982021
 30
0.0
 10
76.90366073381229
 20
-145.9673176718415
 30
0.0
 10
76.70970185799271
 20
-145.8918700807145
 30
0.0
 10
76.57964950342453
 20
-145.8918700807145
 30
0.0
 10
76.5453708033463
 20
-145.8918700807145
 30
0.0
 10
76.39240856380121
 20
-145.8918700807145
 30
0.0
 10
76.296462654537
 20
-146.0310519383186
 30
0.0
 10
76.296462654537
 20
-146.0310519383186
 30
0.0
 10
76.10715465762252
 20
-146.0107258749557
 30
0.0
 10
76.10715465762252
 20
-146.0107258749557
 30
0.0
 10
76.10715465762252
 20
-146.0107258749557
 30
0.0
 10
76.23720701219071
 20
-145.0977755713645
 30
0.0
 10
76.23720701219071
 20
-145.0977755713645
 30
0.0
 10
76.23720701219071
 20
-145.0977755713645
 30
0.0
 10
77.0771212914946
 20
-145.0977755713645
 30
0.0
 10
77.0771212914946
 20
-145.0977755713645
 30
0.0
 10
77.0771212914946
 20
-145.0977755713645
 30
0.0
 10
77.0771212914946
 20
-145.3075818864162
 30
0.0
 10
77.0771212914946
 20
-145.3075818864162
 30
0.0
 10
77.0771212914946
 20
-145.3075818864162
 30
0.0
 10
76.41290688193844
 20
-145.3075818864162
 30
0.0
 10
76.41290688193844
 20
-145.3075818864162
 30
0.0
 10
76.41290688193844
 20
-145.3075818864162
 30
0.0
 10
76.34228242449082
 20
-145.7640570382118
 30
0.0
 10
76.34228242449082
 20
-145.7640570382118
 30
0.0
 10
76.40842825780761
 20
-145.7275390260681
 30
0.0
 10
76.49731172132707
 20
-145.684130822954
 30
0.0
 10
76.62512476382983
 20
-145.684130822954
 30
0.0
 10
76.89900985490719
 20
-145.684130822954
 30
0.0
 10
77.15463593991274
 20
-145.884979889744
 30
0.0
 10
77.15463593991274
 20
-146.2229437568471
 30
0.0
 10
77.15463593991274
 20
-146.5653862480809
 30
0.0
 10
76.9127902368482
 20
-146.8186007662467
 30
0.0
 10
76.58636743962077
 20
-146.8186007662467
 30
0.0
  0
HATCH
  5
A2
330
9B
100
AcDbEntity
  8
_U+30EC_U+30A4_U+30E4_U+30FC 1
 62
   179
420
  2234388
100
AcDbHatch
 10
0.0
 20
0.0
 30
0.0
210
0.0
220
0.0
230
1.0
  2
SOLID
 70
     1
 71
     0
 91
        1
 92
        1
 93
        1
 72
     4
 94
        3
 73
     0
 74
     1
 95
       53
 96
       49
 40
0.0
 40
0.0
 40
0.0
 40
0.0
 40
1.0
 40
1.0
 40
1.0
 40
2.0
 40
2.0
 40
2.0
 40
3.0
 40
3.0
 40
3.0
 40
4.0
 40
4.0
 40
4.0
 40
5.0
 40
5.0
 40
5.0
 40
6.0
 40
6.0
 40
6.0
 40
7.0
 40
7.0
 40
7.0
 40
8.0
 40
8.0
 40
8.0
 40
9.0
 40
9.0
 40
9.0
 40
10.0
 40
10.0
 40
10.0
 40
11.0
 40
11.0
 40
11.0
 40
12.0
 40
12.0
 40
12.0
 40
13.0
 40
13.0
 40
13.0
 40
14.0
 40
14.0
 40
14.0
 40
15.0
 40
15.0
 40
15.0
 40
16.0
 40
16.0
 40
16.0
 40
16.0
 10
76.58636743962077
 20
-146.8186007662467
 10
76.50196260023215
 20
-146.8186007662467
 10
76.39240856380121
 20
-146.8003417601749
 10
76.28285452737026
 20
-146.7317843600185
 10
76.09561358774694
 20
-146.6132730753258
 10
76.07287595754428
 20
-146.4716796508821
 10
76.05237763940704
 20
-146.3552354234807
 10
76.05237763940704
 20
-146.3552354234807
 10
76.29198403040617
 20
-146.3552354234807
 10
76.29198403040617
 20
-146.3552354234807
 10
76.35123967275247
 20
-146.5698648722117
 10
76.48835447306541
 20
-146.6019042602245
 10
76.58860675168619
 20
-146.6019042602245
 10
76.73932967916586
 20
-146.6019042602245
 10
76.90366073381229
 20
-146.4944172810847
 10
76.90366073381229
 20
-146.24326982021
 10
76.90366073381229
 20
-145.9673176718415
 10
76.70970185799271
 20
-145.8918700807145
 10
76.57964950342453
 20
-145.8918700807145
 10
76.5453708033463
 20
-145.8918700807145
 10
76.39240856380121
 20
-145.8918700807145
 10
76.296462654537
 20
-146.0310519383186
 10
76.296462654537
 20
-146.0310519383186
 10
76.10715465762252
 20
-146.0107258749557
 10
76.10715465762252
 20
-146.0107258749557
 10
76.10715465762252
 20
-146.0107258749557
 10
76.23720701219071
 20
-145.0977755713645
 10
76.23720701219071
 20
-145.0977755713645
 10
76.23720701219071
 20
-145.0977755713645
 10
77.0771212914946
 20
-145.0977755713645
 10
77.0771212914946
 20
-145.0977755713645
 10
77.0771212914946
 20
-145.0977755713645
 10
77.0771212914946
 20
-145.3075818864162
 10
77.0771212914946
 20
-145.3075818864162
 10
77.0771212914946
 20
-145.3075818864162
 10
76.41290688193844
 20
-145.3075818864162
 10
76.41290688193844
 20
-145.3075818864162
 10
76.41290688193844
 20
-145.3075818864162
 10
76.34228242449082
 20
-145.7640570382118
 10
76.34228242449082
 20
-145.7640570382118
 10
76.40842825780761
 20
-145.7275390260681
 10
76.49731172132707
 20
-145.684130822954
 10
76.62512476382983
 20
-145.684130822954
 10
76.89900985490719
 20
-145.684130822954
 10
77.15463593991274
 20
-145.884979889744
 10
77.15463593991274
 20
-146.2229437568471
 10
77.15463593991274
 20
-146.5653862480809
 10
76.9127902368482
 20
-146.8186007662467
 10
76.58636743962077
 20
-146.8186007662467
 97
        0
 97
        0
 75
     2
 76
     1
 98
        0
  0
ENDBLK
  5
9E
330
9B
100
AcDbEntity
  8
0
100
AcDbBlockEnd
  0
BLOCK
  5
A5
330
A3
100
AcDbEntity
  8
0
100
AcDbBlockBegin
  2
block 7
 70
     0
 10
0.0
 20
0.0
 30
0.0
  3
block 7
  1

  0
POLYLINE
  5
A7
330
A3
100
AcDbEntity
  8
_U+30EC_U+30A4_U+30E4_U+30FC 1
 62
   179
420
  2234388
370
     9
100
AcDb2dPolyline
 66
     1
 10
0.0
 20
0.0
 30
0.0
  0
VERTEX
  5
A8
330
A7
100
AcDbEntity
  8
_U+30EC_U+30A4_U+30E4_U+30FC 1
 62
   179
420
  2234388
370
     9
100
AcDbVertex
100
AcDb2dVertex
 10
63.47244643623854
 20
-111.8613883053681
 30
0.0
  0
VERTEX
  5
A9
330
A7
100
AcDbEntity
  8
_U+30EC_U+30A4_U+30E4_U+30FC 1
 62
   179
420
  2234388
370
     9
100
AcDbVertex
100
AcDb2dVertex
 10
108.4722847326415
 20
-111.8613883053681
 30
0.0
  0
SEQEND
  5
AA
330
A7
100
AcDbEntity
  8
_U+30EC_U+30A4_U+30E4_U+30FC 1
 62
   179
420
  2234388
370
     9
  0
POLYLINE
  5
AB
330
A3
100
AcDbEntity
  8
_U+30EC_U+30A4_U+30E4_U+30FC 1
 62
   179
420
  2234388
370
     9
100
AcDb2dPolyline
 66
     1
 10
0.0
 20
0.0
 30
0.0
  0
VERTEX
  5
AC
330
AB
100
AcDbEntity
  8
_U+30EC_U+30A4_U+30E4_U+30FC 1
 62
   179
420
  2234388
370
     9
100
AcDbVertex
100
AcDb2dVertex
 10
63.47244643623854
 20
-113.3214296938918
 30
0.0
  0
VERTEX
  5
AD
330
AB
100
AcDbEntity
  8
_U+30EC_U+30A4_U+30E4_U+30FC 1
 62
   179
420
  2234388
370
     9
100
AcDbVertex
100
AcDb2dVertex
 10
63.47244643623854
 20
-110.8616160833956
 30
0.0
  0
SEQEND
  5
AE
330
AB
100
AcDbEntity
  8
_U+30EC_U+30A4_U+30E4_U+30FC 1
 62
   179
420
  2234388
370
     9
  0
POLYLINE
  5
AF
330
A3
100
AcDbEntity
  8
_U+30EC_U+30A4_U+30E4_U+30FC 1
 62
   179
420
  2234388
370
     9
100
AcDb2dPolyline
 66
     1
 10
0.0
 20
0.0
 30
0.0
  0
VERTEX
  5
B0
330
AF
100
AcDbEntity
  8
_U+30EC_U+30A4_U+30E4_U+30FC 1
 62
   179
420
  2234388
370
     9
100
AcDbVertex
100
AcDb2dVertex
 10
108.4722847326415
 20
-113.3214296938918
 30
0.0
  0
VERTEX
  5
B1
330
AF
100
AcDbEntity
  8
_U+30EC_U+30A4_U+30E4_U+30FC 1
 62
   179
420
  2234388
370
     9
100
AcDbVertex
100
AcDb2dVertex
 10
108.4722847326415
 20
-110.8616160833956
 30
0.0
  0
SEQEND
  5
B2
330
AF
100
AcDbEntity
  8
_U+30EC_U+30A4_U+30E4_U+30FC 1
 62
   179
420
  2234388
370
     9
  0
INSERT
  5
B4
330
A3
100
AcDbEntity
  8
_U+30EC_U+30A4_U+30E4_U+30FC 1
100
AcDbBlockReference
  2
block 8
 10
0.0
 20
0.0
 30
0.0
  0
ENDBLK
  5
A6
330
A3
100
AcDbEntity
  8
0
100
AcDbBlockEnd
  0
BLOCK
  5
B5
330
B3
100
AcDbEntity
  8
0
100
AcDbBlockBegin
  2
block 8
 70
     0
 10
0.0
 20
0.0
 30
0.0
  3
block 8
  1

  0
POLYLINE
  5
B7
330
B3
100
AcDbEntity
  8
_U+30EC_U+30A4_U+30E4_U+30FC 1
370
     0
100
AcDb2dPolyline
 66
     1
 10
0.0
 20
0.0
 30
0.0
  0
VERTEX
  5
B8
330
B7
100
AcDbEntity
  8
_U+30EC_U+30A4_U+30E4_U+30FC 1
370
     0
100
AcDbVertex
100
AcDb2dVertex
 10
85.69485539307281
 20
-110.9896077196484
 30
0.0
  0
VERTEX
  5
B9
330
B7
100
AcDbEntity
  8
_U+30EC_U+30A4_U+30E4_U+30FC 1
370
     0
100
AcDbVertex
100
AcDb2dVertex
 10
85.69485539307281
 20
-111.3639173441208
 30
0.0
  0
VERTEX
  5
BA
330
B7
100
AcDbEntity
  8
_U+30EC_U+30A4_U+30E4_U+30FC 1
370
     0
100
AcDbVertex
100
AcDb2dVertex
 10
85.45972762620451
 20
-111.3639173441208
 30
0.0
  0
VERTEX
  5
BB
330
B7
100
AcDbEntity
  8
_U+30EC_U+30A4_U+30E4_U+30FC 1
370
     0
100
AcDbVertex
100
AcDb2dVertex
 10
85.45972762620451
 20
-110.9896077196484
 30
0.0
  0
VERTEX
  5
BC
330
B7
100
AcDbEntity
  8
_U+30EC_U+30A4_U+30E4_U+30FC 1
370
     0
100
AcDbVertex
100
AcDb2dVertex
 10
84.7521050135342
 20
-110.9896077196484
 30
0.0
  0
VERTEX
  5
BD
330
B7
100
AcDbEntity
  8
_U+30EC_U+30A4_U+30E4_U+30FC 1
370
     0
100
AcDbVertex
100
AcDb2dVertex
 10
84.7521050135342
 20
-110.7477620165839
 30
0.0
  0
VERTEX
  5
BE
330
B7
100
AcDbEntity
  8
_U+30EC_U+30A4_U+30E4_U+30FC 1
370
     0
100
AcDbVertex
100
AcDb2dVertex
 10
85.48487682324684
 20
-109.6976969126797
 30
0.0
  0
VERTEX
  5
BF
330
B7
100
AcDbEntity
  8
_U+30EC_U+30A4_U+30E4_U+30FC 1
370
     0
100
AcDbVertex
100
AcDb2dVertex
 10
85.69485539307281
 20
-109.6976969126797
 30
0.0
  0
VERTEX
  5
C0
330
B7
100
AcDbEntity
  8
_U+30EC_U+30A4_U+30E4_U+30FC 1
370
     0
100
AcDbVertex
100
AcDb2dVertex
 10
85.69485539307281
 20
-110.7749782709174
 30
0.0
  0
VERTEX
  5
C1
330
B7
100
AcDbEntity
  8
_U+30EC_U+30A4_U+30E4_U+30FC 1
370
     0
100
AcDbVertex
100
AcDb2dVertex
 10
85.91844209006553
 20
-110.7749782709174
 30
0.0
  0
VERTEX
  5
C2
330
B7
100
AcDbEntity
  8
_U+30EC_U+30A4_U+30E4_U+30FC 1
370
     0
100
AcDbVertex
100
AcDb2dVertex
 10
85.91844209006553
 20
-110.9896077196484
 30
0.0
  0
VERTEX
  5
C3
330
B7
100
AcDbEntity
  8
_U+30EC_U+30A4_U+30E4_U+30FC 1
370
     0
100
AcDbVertex
100
AcDb2dVertex
 10
85.69485539307281
 20
-110.9896077196484
 30
0.0
  0
SEQEND
  5
C4
330
B7
100
AcDbEntity
  8
_U+30EC_U+30A4_U+30E4_U+30FC 1
370
     0
  0
POLYLINE
  5
C5
330
B3
100
AcDbEntity
  8
_U+30EC_U+30A4_U+30E4_U+30FC 1
370
     0
100
AcDb2dPolyline
 66
     1
 10
0.0
 20
0.0
 30
0.0
  0
VERTEX
  5
C6
330
C5
100
AcDbEntity
  8
_U+30EC_U+30A4_U+30E4_U+30FC 1
370
     0
100
AcDbVertex
100
AcDb2dVertex
 10
85.45972762620451
 20
-110.0675279130213
 30
0.0
  0
VERTEX
  5
C7
330
C5
100
AcDbEntity
  8
_U+30EC_U+30A4_U+30E4_U+30FC 1
370
     0
100
AcDbVertex
100
AcDb2dVertex
 10
84.96673446226526
 20
-110.7749782709174
 30
0.0
  0
VERTEX
  5
C8
330
C5
100
AcDbEntity
  8
_U+30EC_U+30A4_U+30E4_U+30FC 1
370
     0
100
AcDbVertex
100
AcDb2dVertex
 10
85.45972762620451
 20
-110.7749782709174
 30
0.0
  0
VERTEX
  5
C9
330
C5
100
AcDbEntity
  8
_U+30EC_U+30A4_U+30E4_U+30FC 1
370
     0
100
AcDbVertex
100
AcDb2dVertex
 10
85.45972762620451
 20
-110.0675279130213
 30
0.0
  0
SEQEND
  5
CA
330
C5
100
AcDbEntity
  8
_U+30EC_U+30A4_U+30E4_U+30FC 1
370
     0
  0
HATCH
  5
CB
330
B3
100
AcDbEntity
  8
_U+30EC_U+30A4_U+30E4_U+30FC 1
 62
   179
420
  2234388
100
AcDbHatch
 10
0.0
 20
0.0
 30
0.0
210
0.0
220
0.0
230
1.0
  2
SOLID
 70
     1
 71
     0
 91
        2
 92
        1
 93
       11
 72
     1
 10
85.69485539307281
 20
-110.9896077196484
 11
85.69485539307281
 21
-111.3639173441208
 72
     1
 10
85.69485539307281
 20
-111.3639173441208
 11
85.45972762620451
 21
-111.3639173441208
 72
     1
 10
85.45972762620451
 20
-111.3639173441208
 11
85.45972762620451
 21
-110.9896077196484
 72
     1
 10
85.45972762620451
 20
-110.9896077196484
 11
84.7521050135342
 21
-110.9896077196484
 72
     1
 10
84.7521050135342
 20
-110.9896077196484
 11
84.7521050135342
 21
-110.7477620165839
 72
     1
 10
84.7521050135342
 20
-110.7477620165839
 11
85.48487682324684
 21
-109.6976969126797
 72
     1
 10
85.48487682324684
 20
-109.6976969126797
 11
85.69485539307281
 21
-109.6976969126797
 72
     1
 10
85.69485539307281
 20
-109.6976969126797
 11
85.69485539307281
 21
-110.7749782709174
 72
     1
 10
85.69485539307281
 20
-110.7749782709174
 11
85.91844209006553
 21
-110.7749782709174
 72
     1
 10
85.91844209006553
 20
-110.7749782709174
 11
85.91844209006553
 21
-110.9896077196484
 72
     1
 10
85.91844209006553
 20
-110.9896077196484
 11
85.69485539307281
 21
-110.9896077196484
 97
        0
 92
        1
 93
        3
 72
     1
 10
85.45972762620451
 20
-110.0675279130213
 11
84.96673446226526
 21
-110.7749782709174
 72
     1
 10
84.96673446226526
 20
-110.7749782709174
 11
85.45972762620451
 21
-110.7749782709174
 72
     1
 10
85.45972762620451
 20
-110.7749782709174
 11
85.45972762620451
 21
-110.0675279130213
 97
        0
 75
     2
 76
     1
 98
        0
  0
SPLINE
  5
CC
330
B3
100
AcDbEntity
  8
_U+30EC_U+30A4_U+30E4_U+30FC 1
370
     0
100
AcDbSpline
210
0.0
220
0.0
230
1.0
 70
    11
 71
     3
 72
    53
 73
    49
 74
     0
 42
0.0000000001
 43
0.0000000001
 12
1.0
 22
0.0
 32
0.0
 13
1.0
 23
0.0
 33
0.0
 40
0.0
 40
0.0
 40
0.0
 40
0.0
 40
1.0
 40
1.0
 40
1.0
 40
2.0
 40
2.0
 40
2.0
 40
3.0
 40
3.0
 40
3.0
 40
4.0
 40
4.0
 40
4.0
 40
5.0
 40
5.0
 40
5.0
 40
6.0
 40
6.0
 40
6.0
 40
7.0
 40
7.0
 40
7.0
 40
8.0
 40
8.0
 40
8.0
 40
9.0
 40
9.0
 40
9.0
 40
10.0
 40
10.0
 40
10.0
 40
11.0
 40
11.0
 40
11.0
 40
12.0
 40
12.0
 40
12.0
 40
13.0
 40
13.0
 40
13.0
 40
14.0
 40
14.0
 40
14.0
 40
15.0
 40
15.0
 40
15.0
 40
16.0
 40
16.0
 40
16.0
 40
16.0
 10
86.58627384988121
 20
-111.4186943623363
 30
0.0
 10
86.5018690104926
 20
-111.4186943623363
 30
0.0
 10
86.39231497406165
 20
-111.4004353562645
 30
0.0
 10
86.2827609376307
 20
-111.3320502108823
 30
0.0
 10
86.09569225278163
 20
-111.2131944166411
 30
0.0
 10
86.07278236780472
 20
-111.0717732469716
 30
0.0
 10
86.05228404966749
 20
-110.9553290195702
 30
0.0
 10
86.05228404966749
 20
-110.9553290195702
 30
0.0
 10
86.29171818589235
 20
-110.9553290195702
 30
0.0
 10
86.29171818589235
 20
-110.9553290195702
 30
0.0
 10
86.35131833778718
 20
-111.1699584683013
 30
0.0
 10
86.4880886285516
 20
-111.2018256015398
 30
0.0
 10
86.58868541672089
 20
-111.2018256015398
 30
0.0
 10
86.7392360894263
 20
-111.2018256015398
 30
0.0
 10
86.90356714407272
 20
-111.0946831319486
 30
0.0
 10
86.90356714407272
 20
-110.8435356710738
 30
0.0
 10
86.90356714407272
 20
-110.5674112679311
 30
0.0
 10
86.70960826825316
 20
-110.4921359315784
 30
0.0
 10
86.57938365891071
 20
-110.4921359315784
 30
0.0
 10
86.54527721360674
 20
-110.4921359315784
 30
0.0
 10
86.39231497406165
 20
-110.4921359315784
 30
0.0
 10
86.2965413195717
 20
-110.6313177891824
 30
0.0
 10
86.2965413195717
 20
-110.6313177891824
 30
0.0
 10
86.10706106788297
 20
-110.6106472162709
 30
0.0
 10
86.10706106788297
 20
-110.6106472162709
 30
0.0
 10
86.10706106788297
 20
-110.6106472162709
 30
0.0
 10
86.2372856772254
 20
-109.6976969126797
 30
0.0
 10
86.2372856772254
 20
-109.6976969126797
 30
0.0
 10
86.2372856772254
 20
-109.6976969126797
 30
0.0
 10
87.07719995652931
 20
-109.6976969126797
 30
0.0
 10
87.07719995652931
 20
-109.6976969126797
 30
0.0
 10
87.07719995652931
 20
-109.6976969126797
 30
0.0
 10
87.07719995652931
 20
-109.90784773728
 30
0.0
 10
87.07719995652931
 20
-109.90784773728
 30
0.0
 10
87.07719995652931
 20
-109.90784773728
 30
0.0
 10
86.41298554697315
 20
-109.90784773728
 30
0.0
 10
86.41298554697315
 20
-109.90784773728
 30
0.0
 10
86.41298554697315
 20
-109.90784773728
 30
0.0
 10
86.342016579977
 20
-110.3643228890756
 30
0.0
 10
86.342016579977
 20
-110.3643228890756
 30
0.0
 10
86.4081624132938
 20
-110.3278048769319
 30
0.0
 10
86.49739038636177
 20
-110.2843966738178
 30
0.0
 10
86.62520342886454
 20
-110.2843966738178
 30
0.0
 10
86.8990885199419
 20
-110.2843966738178
 30
0.0
 10
87.15471460494744
 20
-110.4852457406079
 30
0.0
 10
87.15471460494744
 20
-110.8230373529366
 30
0.0
 10
87.15471460494744
 20
-111.1653075893962
 30
0.0
 10
86.91252439233438
 20
-111.4186943623363
 30
0.0
 10
86.58627384988121
 20
-111.4186943623363
 30
0.0
  0
HATCH
  5
CD
330
B3
100
AcDbEntity
  8
_U+30EC_U+30A4_U+30E4_U+30FC 1
 62
   179
420
  2234388
100
AcDbHatch
 10
0.0
 20
0.0
 30
0.0
210
0.0
220
0.0
230
1.0
  2
SOLID
 70
     1
 71
     0
 91
        1
 92
        1
 93
        1
 72
     4
 94
        3
 73
     0
 74
     1
 95
       53
 96
       49
 40
0.0
 40
0.0
 40
0.0
 40
0.0
 40
1.0
 40
1.0
 40
1.0
 40
2.0
 40
2.0
 40
2.0
 40
3.0
 40
3.0
 40
3.0
 40
4.0
 40
4.0
 40
4.0
 40
5.0
 40
5.0
 40
5.0
 40
6.0
 40
6.0
 40
6.0
 40
7.0
 40
7.0
 40
7.0
 40
8.0
 40
8.0
 40
8.0
 40
9.0
 40
9.0
 40
9.0
 40
10.0
 40
10.0
 40
10.0
 40
11.0
 40
11.0
 40
11.0
 40
12.0
 40
12.0
 40
12.0
 40
13.0
 40
13.0
 40
13.0
 40
14.0
 40
14.0
 40
14.0
 40
15.0
 40
15.0
 40
15.0
 40
16.0
 40
16.0
 40
16.0
 40
16.0
 10
86.58627384988121
 20
-111.4186943623363
 10
86.5018690104926
 20
-111.4186943623363
 10
86.39231497406165
 20
-111.4004353562645
 10
86.2827609376307
 20
-111.3320502108823
 10
86.09569225278163
 20
-111.2131944166411
 10
86.07278236780472
 20
-111.0717732469716
 10
86.05228404966749
 20
-110.9553290195702
 10
86.05228404966749
 20
-110.9553290195702
 10
86.29171818589235
 20
-110.9553290195702
 10
86.29171818589235
 20
-110.9553290195702
 10
86.35131833778718
 20
-111.1699584683013
 10
86.4880886285516
 20
-111.2018256015398
 10
86.58868541672089
 20
-111.2018256015398
 10
86.7392360894263
 20
-111.2018256015398
 10
86.90356714407272
 20
-111.0946831319486
 10
86.90356714407272
 20
-110.8435356710738
 10
86.90356714407272
 20
-110.5674112679311
 10
86.70960826825316
 20
-110.4921359315784
 10
86.57938365891071
 20
-110.4921359315784
 10
86.54527721360674
 20
-110.4921359315784
 10
86.39231497406165
 20
-110.4921359315784
 10
86.2965413195717
 20
-110.6313177891824
 10
86.2965413195717
 20
-110.6313177891824
 10
86.10706106788297
 20
-110.6106472162709
 10
86.10706106788297
 20
-110.6106472162709
 10
86.10706106788297
 20
-110.6106472162709
 10
86.2372856772254
 20
-109.6976969126797
 10
86.2372856772254
 20
-109.6976969126797
 10
86.2372856772254
 20
-109.6976969126797
 10
87.07719995652931
 20
-109.6976969126797
 10
87.07719995652931
 20
-109.6976969126797
 10
87.07719995652931
 20
-109.6976969126797
 10
87.07719995652931
 20
-109.90784773728
 10
87.07719995652931
 20
-109.90784773728
 10
87.07719995652931
 20
-109.90784773728
 10
86.41298554697315
 20
-109.90784773728
 10
86.41298554697315
 20
-109.90784773728
 10
86.41298554697315
 20
-109.90784773728
 10
86.342016579977
 20
-110.3643228890756
 10
86.342016579977
 20
-110.3643228890756
 10
86.4081624132938
 20
-110.3278048769319
 10
86.49739038636177
 20
-110.2843966738178
 10
86.62520342886454
 20
-110.2843966738178
 10
86.8990885199419
 20
-110.2843966738178
 10
87.15471460494744
 20
-110.4852457406079
 10
87.15471460494744
 20
-110.8230373529366
 10
87.15471460494744
 20
-111.1653075893962
 10
86.91252439233438
 20
-111.4186943623363
 10
86.58627384988121
 20
-111.4186943623363
 97
        0
 97
        0
 75
     2
 76
     1
 98
        0
  0
ENDBLK
  5
B6
330
B3
100
AcDbEntity
  8
0
100
AcDbBlockEnd
  0
BLOCK
  5
D8
330
D6
100
AcDbEntity
  8
0
100
AcDbBlockBegin
  2
block 9
 70
     0
 10
0.0
 20
0.0
 30
0.0
  3
block 9
  1

  0
SPLINE
  5
DA
330
D6
100
AcDbEntity
  8
_U+30EC_U+30A4_U+30E4_U+30FC 1
370
     0
100
AcDbSpline
210
0.0
220
0.0
230
1.0
 70
    11
 71
     3
 72
    26
 73
    22
 74
     0
 42
0.0000000001
 43
0.0000000001
 12
1.0
 22
0.0
 32
0.0
 13
1.0
 23
0.0
 33
0.0
 40
0.0
 40
0.0
 40
0.0
 40
0.0
 40
1.0
 40
1.0
 40
1.0
 40
2.0
 40
2.0
 40
2.0
 40
3.0
 40
3.0
 40
3.0
 40
4.0
 40
4.0
 40
4.0
 40
5.0
 40
5.0
 40
5.0
 40
6.0
 40
6.0
 40
6.0
 40
7.0
 40
7.0
 40
7.0
 40
7.0
 10
116.0132459562397
 20
-144.07113711676
 30
0.0
 10
116.0132459562397
 20
-144.07113711676
 30
0.0
 10
114.8219319374404
 20
-144.07113711676
 30
0.0
 10
114.8219319374404
 20
-144.07113711676
 30
0.0
 10
114.8219319374404
 20
-144.07113711676
 30
0.0
 10
114.8219319374404
 20
-144.4270154803863
 30
0.0
 10
114.8219319374404
 20
-144.4270154803863
 30
0.0
 10
114.8219319374404
 20
-144.4270154803863
 30
0.0
 10
114.6620795069248
 20
-144.4270154803863
 30
0.0
 10
114.6620795069248
 20
-144.4270154803863
 30
0.0
 10
114.6462320676926
 20
-144.0687255499203
 30
0.0
 10
114.4701876883964
 20
-144.0184271558357
 30
0.0
 10
114.3471977795729
 20
-143.9863877678229
 30
0.0
 10
114.3471977795729
 20
-143.9863877678229
 30
0.0
 10
114.3471977795729
 20
-143.8289469041469
 30
0.0
 10
114.3471977795729
 20
-143.8289469041469
 30
0.0
 10
114.3471977795729
 20
-143.8289469041469
 30
0.0
 10
116.0132459562397
 20
-143.8289469041469
 30
0.0
 10
116.0132459562397
 20
-143.8289469041469
 30
0.0
 10
116.0132459562397
 20
-143.8289469041469
 30
0.0
 10
116.0132459562397
 20
-144.07113711676
 30
0.0
 10
116.0132459562397
 20
-144.07113711676
 30
0.0
  0
HATCH
  5
DB
330
D6
100
AcDbEntity
  8
_U+30EC_U+30A4_U+30E4_U+30FC 1
 62
   179
420
  2234388
100
AcDbHatch
 10
0.0
 20
0.0
 30
0.0
210
0.0
220
0.0
230
1.0
  2
SOLID
 70
     1
 71
     0
 91
        1
 92
        1
 93
        1
 72
     4
 94
        3
 73
     0
 74
     1
 95
       26
 96
       22
 40
0.0
 40
0.0
 40
0.0
 40
0.0
 40
1.0
 40
1.0
 40
1.0
 40
2.0
 40
2.0
 40
2.0
 40
3.0
 40
3.0
 40
3.0
 40
4.0
 40
4.0
 40
4.0
 40
5.0
 40
5.0
 40
5.0
 40
6.0
 40
6.0
 40
6.0
 40
7.0
 40
7.0
 40
7.0
 40
7.0
 10
116.0132459562397
 20
-144.07113711676
 10
116.0132459562397
 20
-144.07113711676
 10
114.8219319374404
 20
-144.07113711676
 10
114.8219319374404
 20
-144.07113711676
 10
114.8219319374404
 20
-144.07113711676
 10
114.8219319374404
 20
-144.4270154803863
 10
114.8219319374404
 20
-144.4270154803863
 10
114.8219319374404
 20
-144.4270154803863
 10
114.6620795069248
 20
-144.4270154803863
 10
114.6620795069248
 20
-144.4270154803863
 10
114.6462320676926
 20
-144.0687255499203
 10
114.4701876883964
 20
-144.0184271558357
 10
114.3471977795729
 20
-143.9863877678229
 10
114.3471977795729
 20
-143.9863877678229
 10
114.3471977795729
 20
-143.8289469041469
 10
114.3471977795729
 20
-143.8289469041469
 10
114.3471977795729
 20
-143.8289469041469
 10
116.0132459562397
 20
-143.8289469041469
 10
116.0132459562397
 20
-143.8289469041469
 10
116.0132459562397
 20
-143.8289469041469
 10
116.0132459562397
 20
-144.07113711676
 10
116.0132459562397
 20
-144.07113711676
 97
        0
 97
        0
 75
     2
 76
     1
 98
        0
  0
POLYLINE
  5
DC
330
D6
100
AcDbEntity
  8
_U+30EC_U+30A4_U+30E4_U+30FC 1
370
     0
100
AcDb2dPolyline
 66
     1
 10
0.0
 20
0.0
 30
0.0
  0
VERTEX
  5
DD
330
DC
100
AcDbEntity
  8
_U+30EC_U+30A4_U+30E4_U+30FC 1
370
     0
100
AcDbVertex
100
AcDb2dVertex
 10
116.0132459562397
 20
-143.2229546082915
 30
0.0
  0
VERTEX
  5
DE
330
DC
100
AcDbEntity
  8
_U+30EC_U+30A4_U+30E4_U+30FC 1
370
     0
100
AcDbVertex
100
AcDb2dVertex
 10
115.7417724320021
 20
-143.2229546082915
 30
0.0
  0
VERTEX
  5
DF
330
DC
100
AcDbEntity
  8
_U+30EC_U+30A4_U+30E4_U+30FC 1
370
     0
100
AcDbVertex
100
AcDb2dVertex
 10
115.7417724320021
 20
-142.9514810840538
 30
0.0
  0
VERTEX
  5
E0
330
DC
100
AcDbEntity
  8
_U+30EC_U+30A4_U+30E4_U+30FC 1
370
     0
100
AcDbVertex
100
AcDb2dVertex
 10
116.0132459562397
 20
-142.9514810840538
 30
0.0
  0
VERTEX
  5
E1
330
DC
100
AcDbEntity
  8
_U+30EC_U+30A4_U+30E4_U+30FC 1
370
     0
100
AcDbVertex
100
AcDb2dVertex
 10
116.0132459562397
 20
-143.2229546082915
 30
0.0
  0
SEQEND
  5
E2
330
DC
100
AcDbEntity
  8
_U+30EC_U+30A4_U+30E4_U+30FC 1
370
     0
  0
HATCH
  5
E3
330
D6
100
AcDbEntity
  8
_U+30EC_U+30A4_U+30E4_U+30FC 1
 62
   179
420
  2234388
100
AcDbHatch
 10
0.0
 20
0.0
 30
0.0
210
0.0
220
0.0
230
1.0
  2
SOLID
 70
     1
 71
     0
 91
        1
 92
        1
 93
        4
 72
     1
 10
116.0132459562397
 20
-143.2229546082915
 11
115.7417724320021
 21
-143.2229546082915
 72
     1
 10
115.7417724320021
 20
-143.2229546082915
 11
115.7417724320021
 21
-142.9514810840538
 72
     1
 10
115.7417724320021
 20
-142.9514810840538
 11
116.0132459562397
 21
-142.9514810840538
 72
     1
 10
116.0132459562397
 20
-142.9514810840538
 11
116.0132459562397
 21
-143.2229546082915
 97
        0
 75
     2
 76
     1
 98
        0
  0
SPLINE
  5
E4
330
D6
100
AcDbEntity
  8
_U+30EC_U+30A4_U+30E4_U+30FC 1
370
     0
100
AcDbSpline
210
0.0
220
0.0
230
1.0
 70
    11
 71
     3
 72
    44
 73
    40
 74
     0
 42
0.0000000001
 43
0.0000000001
 12
1.0
 22
0.0
 32
0.0
 13
1.0
 23
0.0
 33
0.0
 40
0.0
 40
0.0
 40
0.0
 40
0.0
 40
1.0
 40
1.0
 40
1.0
 40
2.0
 40
2.0
 40
2.0
 40
3.0
 40
3.0
 40
3.0
 40
4.0
 40
4.0
 40
4.0
 40
5.0
 40
5.0
 40
5.0
 40
6.0
 40
6.0
 40
6.0
 40
7.0
 40
7.0
 40
7.0
 40
8.0
 40
8.0
 40
8.0
 40
9.0
 40
9.0
 40
9.0
 40
10.0
 40
10.0
 40
10.0
 40
11.0
 40
11.0
 40
11.0
 40
12.0
 40
12.0
 40
12.0
 40
13.0
 40
13.0
 40
13.0
 40
13.0
 10
115.3855495588272
 20
-142.0561007674374
 30
0.0
 10
115.5567708044441
 20
-142.2910562795314
 30
0.0
 10
115.6366970197019
 20
-142.3916530677007
 30
0.0
 10
115.7917263165382
 20
-142.4440185190765
 30
0.0
 10
115.7917263165382
 20
-142.4440185190765
 30
0.0
 10
115.7917263165382
 20
-141.6041042397726
 30
0.0
 10
115.7917263165382
 20
-141.6041042397726
 30
0.0
 10
115.7917263165382
 20
-141.6041042397726
 30
0.0
 10
116.0132459562397
 20
-141.6041042397726
 30
0.0
 10
116.0132459562397
 20
-141.6041042397726
 30
0.0
 10
116.0132459562397
 20
-141.6041042397726
 30
0.0
 10
116.0132459562397
 20
-142.713424986023
 30
0.0
 10
116.0132459562397
 20
-142.713424986023
 30
0.0
 10
115.6273952618918
 20
-142.6789740311706
 30
0.0
 10
115.5429904225032
 20
-142.6083495737229
 30
0.0
 10
115.2212185041808
 20
-142.1928710582018
 30
0.0
 10
115.0065890554498
 20
-141.9169189098333
 30
0.0
 10
114.9335530311624
 20
-141.8459499428371
 30
0.0
 10
114.7854139252967
 20
-141.8459499428371
 30
0.0
 10
114.6576008827939
 20
-141.8459499428371
 30
0.0
 10
114.5160074583502
 20
-141.9234645912553
 30
0.0
 10
114.5160074583502
 20
-142.1360269826952
 30
0.0
 10
114.5160074583502
 20
-142.416802264743
 30
0.0
 10
114.7647433523852
 20
-142.4257595130047
 30
0.0
 10
114.8904893375968
 20
-142.4302381371355
 30
0.0
 10
114.8904893375968
 20
-142.4302381371355
 30
0.0
 10
114.8904893375968
 20
-142.6724283497486
 30
0.0
 10
114.8904893375968
 20
-142.6724283497486
 30
0.0
 10
114.7533745372839
 20
-142.6631265919384
 30
0.0
 10
114.6324516857516
 20
-142.6517577768371
 30
0.0
 10
114.5046386432488
 20
-142.5649413706088
 30
0.0
 10
114.3310058307923
 20
-142.4464300859162
 30
0.0
 10
114.2944878186486
 20
-142.2455810191261
 30
0.0
 10
114.2944878186486
 20
-142.1198350339145
 30
0.0
 10
114.2944878186486
 20
-141.8208007457948
 30
0.0
 10
114.4932698281475
 20
-141.5972140488021
 30
0.0
 10
114.7874809825879
 20
-141.5972140488021
 30
0.0
 10
115.0341498193317
 20
-141.5972140488021
 30
0.0
 10
115.141292288923
 20
-141.7229600340137
 30
0.0
 10
115.3855495588272
 20
-142.0561007674374
 30
0.0
  0
HATCH
  5
E5
330
D6
100
AcDbEntity
  8
_U+30EC_U+30A4_U+30E4_U+30FC 1
 62
   179
420
  2234388
100
AcDbHatch
 10
0.0
 20
0.0
 30
0.0
210
0.0
220
0.0
230
1.0
  2
SOLID
 70
     1
 71
     0
 91
        1
 92
        1
 93
        1
 72
     4
 94
        3
 73
     0
 74
     1
 95
       44
 96
       40
 40
0.0
 40
0.0
 40
0.0
 40
0.0
 40
1.0
 40
1.0
 40
1.0
 40
2.0
 40
2.0
 40
2.0
 40
3.0
 40
3.0
 40
3.0
 40
4.0
 40
4.0
 40
4.0
 40
5.0
 40
5.0
 40
5.0
 40
6.0
 40
6.0
 40
6.0
 40
7.0
 40
7.0
 40
7.0
 40
8.0
 40
8.0
 40
8.0
 40
9.0
 40
9.0
 40
9.0
 40
10.0
 40
10.0
 40
10.0
 40
11.0
 40
11.0
 40
11.0
 40
12.0
 40
12.0
 40
12.0
 40
13.0
 40
13.0
 40
13.0
 40
13.0
 10
115.3855495588272
 20
-142.0561007674374
 10
115.5567708044441
 20
-142.2910562795314
 10
115.6366970197019
 20
-142.3916530677007
 10
115.7917263165382
 20
-142.4440185190765
 10
115.7917263165382
 20
-142.4440185190765
 10
115.7917263165382
 20
-141.6041042397726
 10
115.7917263165382
 20
-141.6041042397726
 10
115.7917263165382
 20
-141.6041042397726
 10
116.0132459562397
 20
-141.6041042397726
 10
116.0132459562397
 20
-141.6041042397726
 10
116.0132459562397
 20
-141.6041042397726
 10
116.0132459562397
 20
-142.713424986023
 10
116.0132459562397
 20
-142.713424986023
 10
115.6273952618918
 20
-142.6789740311706
 10
115.5429904225032
 20
-142.6083495737229
 10
115.2212185041808
 20
-142.1928710582018
 10
115.0065890554498
 20
-141.9169189098333
 10
114.9335530311624
 20
-141.8459499428371
 10
114.7854139252967
 20
-141.8459499428371
 10
114.6576008827939
 20
-141.8459499428371
 10
114.5160074583502
 20
-141.9234645912553
 10
114.5160074583502
 20
-142.1360269826952
 10
114.5160074583502
 20
-142.416802264743
 10
114.7647433523852
 20
-142.4257595130047
 10
114.8904893375968
 20
-142.4302381371355
 10
114.8904893375968
 20
-142.4302381371355
 10
114.8904893375968
 20
-142.6724283497486
 10
114.8904893375968
 20
-142.6724283497486
 10
114.7533745372839
 20
-142.6631265919384
 10
114.6324516857516
 20
-142.6517577768371
 10
114.5046386432488
 20
-142.5649413706088
 10
114.3310058307923
 20
-142.4464300859162
 10
114.2944878186486
 20
-142.2455810191261
 10
114.2944878186486
 20
-142.1198350339145
 10
114.2944878186486
 20
-141.8208007457948
 10
114.4932698281475
 20
-141.5972140488021
 10
114.7874809825879
 20
-141.5972140488021
 10
115.0341498193317
 20
-141.5972140488021
 10
115.141292288923
 20
-141.7229600340137
 10
115.3855495588272
 20
-142.0561007674374
 97
        0
 97
        0
 75
     2
 76
     1
 98
        0
  0
ENDBLK
  5
D9
330
D6
100
AcDbEntity
  8
0
100
AcDbBlockEnd
  0
ENDSEC
  0
SECTION
  2
ENTITIES
  0
INSERT
  5
42
330
1F
100
AcDbEntity
  8
_U+30EC_U+30A4_U+30E4_U+30FC 1
100
AcDbBlockReference
  2
block 2
 10
0.0
 20
0.0
 30
0.0
  0
ENDSEC
  0
SECTION
  2
OBJECTS
  0
DICTIONARY
  5
C
330
0
100
AcDbDictionary
281
     1
  3
ACAD_GROUP
350
D
  3
ACAD_LAYOUT
350
1A
  3
ACAD_MATERIAL
350
3B
  3
ACAD_MLEADERSTYLE
350
EE
  3
ACAD_MLINESTYLE
350
17
  3
ACAD_PLOTSETTINGS
350
19
  3
ACAD_PLOTSTYLENAME
350
E
  3
ACAD_TABLESTYLE
350
ED
  3
ACAD_VISUALSTYLE
350
2A
  0
SUN
  5
3F
330
29
100
AcDbSun
 90
        1
290
     0
 63
     7
421
 16777215
 40
1.0
291
     1
 91
  2455826
 92
 54000000
292
     0
 70
     2
 71
   256
280
     1
  0
DICTIONARY
  5
D
102
{ACAD_REACTORS
330
C
102
}
330
C
100
AcDbDictionary
281
     1
  0
DICTIONARY
  5
1A
102
{ACAD_REACTORS
330
C
102
}
330
C
100
AcDbDictionary
281
     1
  3
Layout1
350
1E
  3
Layout2
350
26
  3
Model
350
22
  0
DICTIONARY
  5
3B
102
{ACAD_REACTORS
330
C
102
}
330
C
100
AcDbDictionary
281
     1
  3
ByBlock
350
3D
  3
ByLayer
350
3C
  3
Global
350
3E
  0
DICTIONARY
  5
EE
102
{ACAD_REACTORS
330
C
102
}
330
C
100
AcDbDictionary
281
     1
  0
DICTIONARY
  5
17
102
{ACAD_REACTORS
330
C
102
}
330
C
100
AcDbDictionary
281
     1
  3
Standard
350
18
  0
DICTIONARY
  5
19
102
{ACAD_REACTORS
330
C
102
}
330
C
100
AcDbDictionary
281
     1
  0
ACDBDICTIONARYWDFLT
  5
E
102
{ACAD_REACTORS
330
C
102
}
330
C
100
AcDbDictionary
281
     1
  3
Normal
350
F
100
AcDbDictionaryWithDefault
340
F
  0
DICTIONARY
  5
ED
102
{ACAD_REACTORS
330
C
102
}
330
C
100
AcDbDictionary
281
     1
  0
DICTIONARY
  5
2A
102
{ACAD_REACTORS
330
C
102
}
330
C
100
AcDbDictionary
281
     1
  3
2dWireframe
350
2F
  3
3D Hidden
350
31
  3
3dWireframe
350
30
  3
Basic
350
32
  3
Brighten
350
36
  3
ColorChange
350
3A
  3
Conceptual
350
34
  3
Dim
350
35
  3
Facepattern
350
39
  3
Flat
350
2B
  3
FlatWithEdges
350
2C
  3
Gouraud
350
2D
  3
GouraudWithEdges
350
2E
  3
Linepattern
350
38
  3
Realistic
350
33
  3
Thicken
350
37
  0
LAYOUT
  5
1E
102
{ACAD_REACTORS
330
1A
102
}
330
1A
100
AcDbPlotSettings
  1

  2
none_device
  4

  6

 40
0.0
 41
0.0
 42
0.0
 43
0.0
 44
0.0
 45
0.0
 46
0.0
 47
0.0
 48
0.0
 49
0.0
140
0.0
141
0.0
142
1.0
143
1.0
 70
   688
 72
     0
 73
     0
 74
     5
  7

 75
    16
 76
     0
 77
     2
 78
   300
147
1.0
148
0.0
149
0.0
100
AcDbLayout
  1
Layout1
 70
     1
 71
     1
 10
0.0
 20
0.0
 11
12.0
 21
9.0
 12
0.0
 22
0.0
 32
0.0
 14
1.000000000000000E+20
 24
1.000000000000000E+20
 34
1.000000000000000E+20
 15
-1.000000000000000E+20
 25
-1.000000000000000E+20
 35
-1.000000000000000E+20
146
0.0
 13
0.0
 23
0.0
 33
0.0
 16
1.0
 26
0.0
 36
0.0
 17
0.0
 27
1.0
 37
0.0
 76
     0
330
1B
  0
LAYOUT
  5
26
102
{ACAD_REACTORS
330
1A
102
}
330
1A
100
AcDbPlotSettings
  1

  2
none_device
  4

  6

 40
0.0
 41
0.0
 42
0.0
 43
0.0
 44
0.0
 45
0.0
 46
0.0
 47
0.0
 48
0.0
 49
0.0
140
0.0
141
0.0
142
1.0
143
1.0
 70
   688
 72
     0
 73
     0
 74
     5
  7

 75
    16
 76
     0
 77
     2
 78
   300
147
1.0
148
0.0
149
0.0
100
AcDbLayout
  1
Layout2
 70
     1
 71
     2
 10
0.0
 20
0.0
 11
0.0
 21
0.0
 12
0.0
 22
0.0
 32
0.0
 14
0.0
 24
0.0
 34
0.0
 15
0.0
 25
0.0
 35
0.0
146
0.0
 13
0.0
 23
0.0
 33
0.0
 16
1.0
 26
0.0
 36
0.0
 17
0.0
 27
1.0
 37
0.0
 76
     0
330
23
  0
LAYOUT
  5
22
102
{ACAD_REACTORS
330
1A
102
}
330
1A
100
AcDbPlotSettings
  1

  2
none_device
  4

  6

 40
0.0
 41
0.0
 42
0.0
 43
0.0
 44
0.0
 45
0.0
 46
0.0
 47
0.0
 48
0.0
 49
0.0
140
0.0
141
0.0
142
1.0
143
1.0
 70
  1712
 72
     0
 73
     0
 74
     0
  7

 75
     0
 76
     0
 77
     2
 78
   300
147
1.0
148
0.0
149
0.0
100
AcDbLayout
  1
Model
 70
     1
 71
     0
 10
0.0
 20
0.0
 11
12.0
 21
9.0
 12
0.0
 22
0.0
 32
0.0
 14
1.000000000000000E+20
 24
1.000000000000000E+20
 34
1.000000000000000E+20
 15
-1.000000000000000E+20
 25
-1.000000000000000E+20
 35
-1.000000000000000E+20
146
0.0
 13
0.0
 23
0.0
 33
0.0
 16
1.0
 26
0.0
 36
0.0
 17
0.0
 27
1.0
 37
0.0
 76
     0
330
1F
331
29
  0
MATERIAL
  5
3D
102
{ACAD_REACTORS
330
3B
102
}
330
3B
100
AcDbMaterial
  1
ByBlock
 72
     1
 94
      127
  0
MATERIAL
  5
3C
102
{ACAD_REACTORS
330
3B
102
}
330
3B
100
AcDbMaterial
  1
ByLayer
 72
     1
 94
      127
  0
MATERIAL
  5
3E
102
{ACAD_REACTORS
330
3B
102
}
330
3B
100
AcDbMaterial
  1
Global
 72
     1
 94
      127
  0
MLINESTYLE
  5
18
102
{ACAD_REACTORS
330
17
102
}
330
17
100
AcDbMlineStyle
  2
Standard
 70
     0
  3

 62
   256
 51
90.0
 52
90.0
 71
     2
 49
0.5
 62
   256
  6
BYLAYER
 49
-0.5
 62
   256
  6
BYLAYER
  0
ACDBPLACEHOLDER
  5
F
102
{ACAD_REACTORS
330
E
102
}
330
E
  0
VISUALSTYLE
  5
2F
102
{ACAD_REACTORS
330
2A
102
}
330
2A
100
AcDbVisualStyle
  2
2dWireframe
 70
     4
177
     2
291
     0
 71
     0
176
     1
 72
     2
176
     1
 73
     0
176
     1
 90
        0
176
     1
 40
-0.6
176
     1
 41
-30.0
176
     1
 62
     5
 63
     7
421
 16777215
176
     1
 74
     1
176
     1
 91
        4
176
     1
 64
     7
176
     1
 65
   257
176
     1
 75
     1
176
     1
175
     1
176
     1
 42
1.0
176
     1
 92
        0
176
     1
 66
   257
176
     1
 43
1.0
176
     1
 76
     1
176
     1
 77
     6
176
     1
 78
     2
176
     1
 67
     7
176
     1
 79
     5
176
     1
170
     0
176
     1
171
     0
176
     1
290
     0
176
     1
 93
        1
176
     1
 44
0.0
176
     1
173
     0
176
     1
  0
VISUALSTYLE
  5
31
102
{ACAD_REACTORS
330
2A
102
}
330
2A
100
AcDbVisualStyle
  2
3D Hidden
 70
     6
177
     2
291
     0
 71
     1
176
     1
 72
     2
176
     1
 73
     2
176
     1
 90
        0
176
     1
 40
-0.6
176
     1
 41
-30.0
176
     1
 62
     5
 63
     7
421
 16777215
176
     1
 74
     2
176
     1
 91
        2
176
     1
 64
     7
176
     1
 65
   257
176
     1
 75
     2
176
     1
175
     1
176
     1
 42
40.0
176
     1
 92
        0
176
     1
 66
   257
176
     1
 43
1.0
176
     1
 76
     1
176
     1
 77
     6
176
     1
 78
     2
176
     1
 67
     7
176
     1
 79
     3
176
     1
170
     0
176
     1
171
     0
176
     1
290
     0
176
     1
 93
        1
176
     1
 44
0.0
176
     1
173
     0
176
     1
  0
VISUALSTYLE
  5
30
102
{ACAD_REACTORS
330
2A
102
}
330
2A
100
AcDbVisualStyle
  2
3dWireframe
 70
     5
177
     2
291
     0
 71
     0
176
     1
 72
     2
176
     1
 73
     0
176
     1
 90
        0
176
     1
 40
-0.6
176
     1
 41
-30.0
176
     1
 62
     5
 63
     7
421
 16777215
176
     1
 74
     1
176
     1
 91
        4
176
     1
 64
     7
176
     1
 65
   257
176
     1
 75
     1
176
     1
175
     1
176
     1
 42
1.0
176
     1
 92
        0
176
     1
 66
   257
176
     1
 43
1.0
176
     1
 76
     1
176
     1
 77
     6
176
     1
 78
     2
176
     1
 67
     7
176
     1
 79
     5
176
     1
170
     0
176
     1
171
     0
176
     1
290
     0
176
     1
 93
        1
176
     1
 44
0.0
176
     1
173
     0
176
     1
  0
VISUALSTYLE
  5
32
102
{ACAD_REACTORS
330
2A
102
}
330
2A
100
AcDbVisualStyle
  2
Basic
 70
     7
177
     2
291
     1
 71
     1
176
     1
 72
     0
176
     1
 73
     1
176
     1
 90
        0
176
     1
 40
-0.6
176
     1
 41
-30.0
176
     1
 62
     5
 63
     7
421
 16777215
176
     1
 74
     0
176
     1
 91
        4
176
     1
 64
     7
176
     1
 65
   257
176
     1
 75
     1
176
     1
175
     1
176
     1
 42
1.0
176
     1
 92
        8
176
     1
 66
     7
176
     1
 43
1.0
176
     1
 76
     1
176
     1
 77
     6
176
     1
 78
     2
176
     1
 67
     7
176
     1
 79
     5
176
     1
170
     0
176
     1
171
     0
176
     1
290
     0
176
     1
 93
        1
176
     1
 44
0.0
176
     1
173
     0
176
     1
  0
VISUALSTYLE
  5
36
102
{ACAD_REACTORS
330
2A
102
}
330
2A
100
AcDbVisualStyle
  2
Brighten
 70
    12
177
     2
291
     1
 71
     2
176
     1
 72
     2
176
     1
 73
     0
176
     1
 90
        0
176
     1
 40
-0.6
176
     1
 41
-30.0
176
     1
 62
     5
 63
     7
421
 16777215
176
     1
 74
     1
176
     1
 91
        4
176
     1
 64
     7
176
     1
 65
   257
176
     1
 75
     1
176
     1
175
     1
176
     1
 42
1.0
176
     1
 92
        8
176
     1
 66
     7
176
     1
 43
1.0
176
     1
 76
     1
176
     1
 77
     6
176
     1
 78
     2
176
     1
 67
     7
176
     1
 79
     5
176
     1
170
     0
176
     1
171
     0
176
     1
290
     0
176
     1
 93
        1
176
     1
 44
50.0
176
     1
173
     0
176
     1
  0
VISUALSTYLE
  5
3A
102
{ACAD_REACTORS
330
2A
102
}
330
2A
100
AcDbVisualStyle
  2
ColorChange
 70
    16
177
     2
291
     1
 71
     2
176
     1
 72
     2
176
     1
 73
     3
176
     1
 90
        0
176
     1
 40
-0.6
176
     1
 41
-30.0
176
     1
 62
     5
 63
     8
421
  8421504
176
     1
 74
     1
176
     1
 91
        4
176
     1
 64
     7
176
     1
 65
   257
176
     1
 75
     1
176
     1
175
     1
176
     1
 42
1.0
176
     1
 92
        8
176
     1
 66
     8
424
  8421504
176
     1
 43
1.0
176
     1
 76
     1
176
     1
 77
     6
176
     1
 78
     2
176
     1
 67
     7
176
     1
 79
     5
176
     1
170
     0
176
     1
171
     0
176
     1
290
     0
176
     1
 93
        1
176
     1
 44
0.0
176
     1
173
     0
176
     1
  0
VISUALSTYLE
  5
34
102
{ACAD_REACTORS
330
2A
102
}
330
2A
100
AcDbVisualStyle
  2
Conceptual
 70
     9
177
     2
291
     0
 71
     3
176
     1
 72
     2
176
     1
 73
     0
176
     1
 90
        0
176
     1
 40
-0.6
176
     1
 41
-30.0
176
     1
 62
     5
 63
     7
421
 16777215
176
     1
 74
     2
176
     1
 91
        2
176
     1
 64
     7
176
     1
 65
   257
176
     1
 75
     1
176
     1
175
     1
176
     1
 42
40.0
176
     1
 92
        8
176
     1
 66
     7
176
     1
 43
1.0
176
     1
 76
     1
176
     1
 77
     6
176
     1
 78
     2
176
     1
 67
     7
176
     1
 79
     3
176
     1
170
     0
176
     1
171
     0
176
     1
290
     0
176
     1
 93
        1
176
     1
 44
0.0
176
     1
173
     0
176
     1
  0
VISUALSTYLE
  5
35
102
{ACAD_REACTORS
330
2A
102
}
330
2A
100
AcDbVisualStyle
  2
Dim
 70
    11
177
     2
291
     1
 71
     2
176
     1
 72
     2
176
     1
 73
     0
176
     1
 90
        0
176
     1
 40
-0.6
176
     1
 41
-30.0
176
     1
 62
     5
 63
     7
421
 16777215
176
     1
 74
     1
176
     1
 91
        4
176
     1
 64
     7
176
     1
 65
   257
176
     1
 75
     1
176
     1
175
     1
176
     1
 42
1.0
176
     1
 92
        8
176
     1
 66
     7
176
     1
 43
1.0
176
     1
 76
     1
176
     1
 77
     6
176
     1
 78
     2
176
     1
 67
     7
176
     1
 79
     5
176
     1
170
     0
176
     1
171
     0
176
     1
290
     0
176
     1
 93
        1
176
     1
 44
-50.0
176
     1
173
     0
176
     1
  0
VISUALSTYLE
  5
39
102
{ACAD_REACTORS
330
2A
102
}
330
2A
100
AcDbVisualStyle
  2
Facepattern
 70
    15
177
     2
291
     1
 71
     2
176
     1
 72
     2
176
     1
 73
     0
176
     1
 90
        0
176
     1
 40
-0.6
176
     1
 41
-30.0
176
     1
 62
     5
 63
     7
421
 16777215
176
     1
 74
     1
176
     1
 91
        4
176
     1
 64
     7
176
     1
 65
   257
176
     1
 75
     1
176
     1
175
     1
176
     1
 42
1.0
176
     1
 92
        8
176
     1
 66
     7
176
     1
 43
1.0
176
     1
 76
     1
176
     1
 77
     6
176
     1
 78
     2
176
     1
 67
     7
176
     1
 79
     5
176
     1
170
     0
176
     1
171
     0
176
     1
290
     0
176
     1
 93
        1
176
     1
 44
0.0
176
     1
173
     0
176
     1
  0
VISUALSTYLE
  5
2B
102
{ACAD_REACTORS
330
2A
102
}
330
2A
100
AcDbVisualStyle
  2
Flat
 70
     0
177
     2
291
     1
 71
     2
176
     1
 72
     1
176
     1
 73
     1
176
     1
 90
        2
176
     1
 40
-0.6
176
     1
 41
30.0
176
     1
 62
     5
 63
     7
421
 16777215
176
     1
 74
     0
176
     1
 91
        4
176
     1
 64
     7
176
     1
 65
   257
176
     1
 75
     1
176
     1
175
     1
176
     1
 42
1.0
176
     1
 92
        8
176
     1
 66
     7
176
     1
 43
1.0
176
     1
 76
     1
176
     1
 77
     6
176
     1
 78
     2
176
     1
 67
     7
176
     1
 79
     5
176
     1
170
     0
176
     1
171
     0
176
     1
290
     0
176
     1
 93
       13
176
     1
 44
0.0
176
     1
173
     0
176
     1
  0
VISUALSTYLE
  5
2C
102
{ACAD_REACTORS
330
2A
102
}
330
2A
100
AcDbVisualStyle
  2
FlatWithEdges
 70
     1
177
     2
291
     1
 71
     2
176
     1
 72
     1
176
     1
 73
     1
176
     1
 90
        2
176
     1
 40
-0.6
176
     1
 41
30.0
176
     1
 62
     5
 63
     7
421
 16777215
176
     1
 74
     1
176
     1
 91
        4
176
     1
 64
     7
176
     1
 65
   257
176
     1
 75
     1
176
     1
175
     1
176
     1
 42
1.0
176
     1
 92
        0
176
     1
 66
   257
176
     1
 43
1.0
176
     1
 76
     1
176
     1
 77
     6
176
     1
 78
     2
176
     1
 67
     7
176
     1
 79
     5
176
     1
170
     0
176
     1
171
     0
176
     1
290
     0
176
     1
 93
       13
176
     1
 44
0.0
176
     1
173
     0
176
     1
  0
VISUALSTYLE
  5
2D
102
{ACAD_REACTORS
330
2A
102
}
330
2A
100
AcDbVisualStyle
  2
Gouraud
 70
     2
177
     2
291
     1
 71
     2
176
     1
 72
     2
176
     1
 73
     1
176
     1
 90
        2
176
     1
 40
-0.6
176
     1
 41
30.0
176
     1
 62
     5
 63
     7
421
 16777215
176
     1
 74
     0
176
     1
 91
        4
176
     1
 64
     7
176
     1
 65
   257
176
     1
 75
     1
176
     1
175
     1
176
     1
 42
1.0
176
     1
 92
        0
176
     1
 66
     7
176
     1
 43
1.0
176
     1
 76
     1
176
     1
 77
     6
176
     1
 78
     2
176
     1
 67
     7
176
     1
 79
     5
176
     1
170
     0
176
     1
171
     0
176
     1
290
     0
176
     1
 93
       13
176
     1
 44
0.0
176
     1
173
     0
176
     1
  0
VISUALSTYLE
  5
2E
102
{ACAD_REACTORS
330
2A
102
}
330
2A
100
AcDbVisualStyle
  2
GouraudWithEdges
 70
     3
177
     2
291
     1
 71
     2
176
     1
 72
     2
176
     1
 73
     1
176
     1
 90
        2
176
     1
 40
-0.6
176
     1
 41
30.0
176
     1
 62
     5
 63
     7
421
 16777215
176
     1
 74
     1
176
     1
 91
        4
176
     1
 64
     7
176
     1
 65
   257
176
     1
 75
     1
176
     1
175
     1
176
     1
 42
1.0
176
     1
 92
        0
176
     1
 66
   257
176
     1
 43
1.0
176
     1
 76
     1
176
     1
 77
     6
176
     1
 78
     2
176
     1
 67
     7
176
     1
 79
     5
176
     1
170
     0
176
     1
171
     0
176
     1
290
     0
176
     1
 93
       13
176
     1
 44
0.0
176
     1
173
     0
176
     1
  0
VISUALSTYLE
  5
38
102
{ACAD_REACTORS
330
2A
102
}
330
2A
100
AcDbVisualStyle
  2
Linepattern
 70
    14
177
     2
291
     1
 71
     2
176
     1
 72
     2
176
     1
 73
     0
176
     1
 90
        0
176
     1
 40
-0.6
176
     1
 41
-30.0
176
     1
 62
     5
 63
     7
421
 16777215
176
     1
 74
     1
176
     1
 91
        4
176
     1
 64
     7
176
     1
 65
   257
176
     1
 75
     7
176
     1
175
     7
176
     1
 42
1.0
176
     1
 92
        8
176
     1
 66
     7
176
     1
 43
1.0
176
     1
 76
     1
176
     1
 77
     6
176
     1
 78
     2
176
     1
 67
     7
176
     1
 79
     5
176
     1
170
     0
176
     1
171
     0
176
     1
290
     0
176
     1
 93
        1
176
     1
 44
0.0
176
     1
173
     0
176
     1
  0
VISUALSTYLE
  5
33
102
{ACAD_REACTORS
330
2A
102
}
330
2A
100
AcDbVisualStyle
  2
Realistic
 70
     8
177
     2
291
     0
 71
     2
176
     1
 72
     2
176
     1
 73
     0
176
     1
 90
        0
176
     1
 40
-0.6
176
     1
 41
-30.0
176
     1
 62
     5
 63
     7
421
 16777215
176
     1
 74
     1
176
     1
 91
        0
176
     1
 64
     7
176
     1
 65
   257
176
     1
 75
     1
176
     1
175
     1
176
     1
 42
1.0
176
     1
 92
        8
176
     1
 66
     8
424
  7895160
176
     1
 43
1.0
176
     1
 76
     1
176
     1
 77
     6
176
     1
 78
     2
176
     1
 67
     7
176
     1
 79
     5
176
     1
170
     0
176
     1
171
     0
176
     1
290
     0
176
     1
 93
       13
176
     1
 44
0.0
176
     1
173
     0
176
     1
  0
VISUALSTYLE
  5
37
102
{ACAD_REACTORS
330
2A
102
}
330
2A
100
AcDbVisualStyle
  2
Thicken
 70
    13
177
     2
291
     1
 71
     2
176
     1
 72
     2
176
     1
 73
     0
176
     1
 90
        0
176
     1
 40
-0.6
176
     1
 41
-30.0
176
     1
 62
     5
 63
     7
421
 16777215
176
     1
 74
     1
176
     1
 91
        4
176
     1
 64
     7
176
     1
 65
   257
176
     1
 75
     1
176
     1
175
     1
176
     1
 42
1.0
176
     1
 92
       12
176
     1
 66
     7
176
     1
 43
1.0
176
     1
 76
     1
176
     1
 77
     6
176
     1
 78
     2
176
     1
 67
     7
176
     1
 79
     5
176
     1
170
     0
176
     1
171
     0
176
     1
290
     0
176
     1
 93
        1
176
     1
 44
0.0
176
     1
173
     0
176
     1
  0
ENDSEC
  0
EOF
