  0
SECTION
  2
HEADER
  9
$ACADVER
  1
AC1024
  9
$ACADMAINTVER
 70
     6
  9
$DWGCODEPAGE
  3
UNDEFINED
  9
$INSBASE
 10
0.0
 20
0.0
 30
0.0
  9
$EXTMIN
 10
1.000000000000000E+20
 20
1.000000000000000E+20
 30
1.000000000000000E+20
  9
$EXTMAX
 10
-1.000000000000000E+20
 20
-1.000000000000000E+20
 30
-1.000000000000000E+20
  9
$LIMMIN
 10
0.0
 20
0.0
  9
$LIMMAX
 10
12.0
 20
9.0
  9
$ORTHOMODE
 70
     0
  9
$REGENMODE
 70
     1
  9
$FILLMODE
 70
     1
  9
$QTEXTMODE
 70
     0
  9
$MIRRTEXT
 70
     1
  9
$LTSCALE
 40
1.0
  9
$ATTMODE
 70
     1
  9
$TEXTSIZE
 40
0.2
  9
$TRACEWID
 40
0.05
  9
$TEXTSTYLE
  7
Standard
  9
$CLAYER
  8
0
  9
$CELTYPE
  6
ByLayer
  9
$CECOLOR
 62
   256
  9
$CELTSCALE
 40
1.0
  9
$DISPSILH
 70
     0
  9
$DIMSCALE
 40
1.0
  9
$DIMASZ
 40
0.18
  9
$DIMEXO
 40
0.0625
  9
$DIMDLI
 40
0.38
  9
$DIMRND
 40
0.0
  9
$DIMDLE
 40
0.0
  9
$DIMEXE
 40
0.18
  9
$DIMTP
 40
0.0
  9
$DIMTM
 40
0.0
  9
$DIMTXT
 40
0.18
  9
$DIMCEN
 40
0.09
  9
$DIMTSZ
 40
0.0
  9
$DIMTOL
 70
     0
  9
$DIMLIM
 70
     0
  9
$DIMTIH
 70
     1
  9
$DIMTOH
 70
     1
  9
$DIMSE1
 70
     0
  9
$DIMSE2
 70
     0
  9
$DIMTAD
 70
     0
  9
$DIMZIN
 70
     0
  9
$DIMBLK
  1

  9
$DIMASO
 70
     1
  9
$DIMSHO
 70
     1
  9
$DIMPOST
  1

  9
$DIMAPOST
  1

  9
$DIMALT
 70
     0
  9
$DIMALTD
 70
     2
  9
$DIMALTF
 40
25.4
  9
$DIMLFAC
 40
1.0
  9
$DIMTOFL
 70
     0
  9
$DIMTVP
 40
0.0
  9
$DIMTIX
 70
     0
  9
$DIMSOXD
 70
     0
  9
$DIMSAH
 70
     0
  9
$DIMBLK1
  1

  9
$DIMBLK2
  1

  9
$DIMSTYLE
  2
Standard
  9
$DIMCLRD
 70
     0
  9
$DIMCLRE
 70
     0
  9
$DIMCLRT
 70
     0
  9
$DIMTFAC
 40
1.0
  9
$DIMGAP
 40
0.09
  9
$DIMJUST
 70
     0
  9
$DIMSD1
 70
     0
  9
$DIMSD2
 70
     0
  9
$DIMTOLJ
 70
     1
  9
$DIMTZIN
 70
     0
  9
$DIMALTZ
 70
     0
  9
$DIMALTTZ
 70
     0
  9
$DIMUPT
 70
     0
  9
$DIMDEC
 70
     4
  9
$DIMTDEC
 70
     4
  9
$DIMALTU
 70
     2
  9
$DIMALTTD
 70
     2
  9
$DIMTXSTY
  7
Standard
  9
$DIMAUNIT
 70
     0
  9
$DIMADEC
 70
     0
  9
$DIMALTRND
 40
0.0
  9
$DIMAZIN
 70
     0
  9
$DIMDSEP
 70
    46
  9
$DIMATFIT
 70
     3
  9
$DIMFRAC
 70
     0
  9
$DIMLDRBLK
  1

  9
$DIMLUNIT
 70
     2
  9
$DIMLWD
 70
    -2
  9
$DIMLWE
 70
    -2
  9
$DIMTMOVE
 70
     0
  9
$DIMFXL
 40
1.0
  9
$DIMFXLON
 70
     0
  9
$DIMJOGANG
 40
0.7853981633974483
  9
$DIMTFILL
 70
     0
  9
$DIMTFILLCLR
 70
     0
  9
$DIMARCSYM
 70
     0
  9
$DIMLTYPE
  6

  9
$DIMLTEX1
  6

  9
$DIMLTEX2
  6

  9
$DIMTXTDIRECTION
 70
     0
  9
$LUNITS
 70
     2
  9
$LUPREC
 70
     4
  9
$SKETCHINC
 40
0.1
  9
$FILLETRAD
 40
0.5
  9
$AUNITS
 70
     0
  9
$AUPREC
 70
     0
  9
$MENU
  1
.
  9
$ELEVATION
 40
0.0
  9
$PELEVATION
 40
0.0
  9
$THICKNESS
 40
0.0
  9
$LIMCHECK
 70
     0
  9
$CHAMFERA
 40
0.5
  9
$CHAMFERB
 40
0.5
  9
$CHAMFERC
 40
1.0
  9
$CHAMFERD
 40
0.0
  9
$SKPOLY
 70
     0
  9
$TDCREATE
 40
2457917.612465278
  9
$TDUCREATE
 40
2457917.237465278
  9
$TDUPDATE
 40
2457917.612465278
  9
$TDUUPDATE
 40
2457917.237465278
  9
$TDINDWG
 40
0.0000000116
  9
$TDUSRTIMER
 40
0.0000000116
  9
$USRTIMER
 70
     1
  9
$ANGBASE
 50
0.0
  9
$ANGDIR
 70
     0
  9
$PDMODE
 70
     0
  9
$PDSIZE
 40
0.0
  9
$PLINEWID
 40
0.0
  9
$SPLFRAME
 70
     0
  9
$SPLINETYPE
 70
     6
  9
$SPLINESEGS
 70
     8
  9
$HANDSEED
  5
FA
  9
$SURFTAB1
 70
     6
  9
$SURFTAB2
 70
     6
  9
$SURFTYPE
 70
     6
  9
$SURFU
 70
     6
  9
$SURFV
 70
     6
  9
$UCSBASE
  2

  9
$UCSNAME
  2

  9
$UCSORG
 10
0.0
 20
0.0
 30
0.0
  9
$UCSXDIR
 10
1.0
 20
0.0
 30
0.0
  9
$UCSYDIR
 10
0.0
 20
1.0
 30
0.0
  9
$UCSORTHOREF
  2

  9
$UCSORTHOVIEW
 70
     0
  9
$UCSORGTOP
 10
0.0
 20
0.0
 30
0.0
  9
$UCSORGBOTTOM
 10
0.0
 20
0.0
 30
0.0
  9
$UCSORGLEFT
 10
0.0
 20
0.0
 30
0.0
  9
$UCSORGRIGHT
 10
0.0
 20
0.0
 30
0.0
  9
$UCSORGFRONT
 10
0.0
 20
0.0
 30
0.0
  9
$UCSORGBACK
 10
0.0
 20
0.0
 30
0.0
  9
$PUCSBASE
  2

  9
$PUCSNAME
  2

  9
$PUCSORG
 10
0.0
 20
0.0
 30
0.0
  9
$PUCSXDIR
 10
1.0
 20
0.0
 30
0.0
  9
$PUCSYDIR
 10
0.0
 20
1.0
 30
0.0
  9
$PUCSORTHOREF
  2

  9
$PUCSORTHOVIEW
 70
     0
  9
$PUCSORGTOP
 10
0.0
 20
0.0
 30
0.0
  9
$PUCSORGBOTTOM
 10
0.0
 20
0.0
 30
0.0
  9
$PUCSORGLEFT
 10
0.0
 20
0.0
 30
0.0
  9
$PUCSORGRIGHT
 10
0.0
 20
0.0
 30
0.0
  9
$PUCSORGFRONT
 10
0.0
 20
0.0
 30
0.0
  9
$PUCSORGBACK
 10
0.0
 20
0.0
 30
0.0
  9
$USERI1
 70
     0
  9
$USERI2
 70
     0
  9
$USERI3
 70
     0
  9
$USERI4
 70
     0
  9
$USERI5
 70
     0
  9
$USERR1
 40
0.0
  9
$USERR2
 40
0.0
  9
$USERR3
 40
0.0
  9
$USERR4
 40
0.0
  9
$USERR5
 40
0.0
  9
$WORLDVIEW
 70
     1
  9
$SHADEDGE
 70
     3
  9
$SHADEDIF
 70
    70
  9
$TILEMODE
 70
     1
  9
$MAXACTVP
 70
    64
  9
$PINSBASE
 10
0.0
 20
0.0
 30
0.0
  9
$PLIMCHECK
 70
     0
  9
$PEXTMIN
 10
1.000000000000000E+20
 20
1.000000000000000E+20
 30
1.000000000000000E+20
  9
$PEXTMAX
 10
-1.000000000000000E+20
 20
-1.000000000000000E+20
 30
-1.000000000000000E+20
  9
$PLIMMIN
 10
0.0
 20
0.0
  9
$PLIMMAX
 10
12.0
 20
9.0
  9
$UNITMODE
 70
     0
  9
$VISRETAIN
 70
     1
  9
$PLINEGEN
 70
     0
  9
$PSLTSCALE
 70
     1
  9
$TREEDEPTH
 70
  3020
  9
$CMLSTYLE
  2
Standard
  9
$CMLJUST
 70
     0
  9
$CMLSCALE
 40
1.0
  9
$PROXYGRAPHICS
 70
     1
  9
$MEASUREMENT
 70
     0
  9
$CELWEIGHT
370
    -1
  9
$ENDCAPS
280
     0
  9
$JOINSTYLE
280
     0
  9
$LWDISPLAY
290
     1
  9
$INSUNITS
 70
     1
  9
$HYPERLINKBASE
  1

  9
$STYLESHEET
  1

  9
$XEDIT
290
     1
  9
$CEPSNTYPE
380
     0
  9
$PSTYLEMODE
290
     1
  9
$FINGERPRINTGUID
  2
{063BBBA7-FA01-BFCB-29E5-20913146BF20}
  9
$VERSIONGUID
  2
{FAEB1C32-E019-11D5-929B-00C0DF256EC4}
  9
$EXTNAMES
290
     1
  9
$PSVPSCALE
 40
0.0
  9
$OLESTARTUP
290
     0
  9
$SORTENTS
280
   127
  9
$INDEXCTL
280
     0
  9
$HIDETEXT
280
     1
  9
$XCLIPFRAME
280
     2
  9
$HALOGAP
280
     0
  9
$OBSCOLOR
 70
   257
  9
$OBSLTYPE
280
     0
  9
$INTERSECTIONDISPLAY
280
     0
  9
$INTERSECTIONCOLOR
 70
   257
  9
$DIMASSOC
280
     2
  9
$PROJECTNAME
  1

  9
$CAMERADISPLAY
290
     0
  9
$LENSLENGTH
 40
50.0
  9
$CAMERAHEIGHT
 40
0.0
  9
$STEPSPERSEC
 40
2.0
  9
$STEPSIZE
 40
6.0
  9
$3DDWFPREC
 40
2.0
  9
$PSOLWIDTH
 40
0.25
  9
$PSOLHEIGHT
 40
4.0
  9
$LOFTANG1
 40
1.570796326794897
  9
$LOFTANG2
 40
1.570796326794897
  9
$LOFTMAG1
 40
0.0
  9
$LOFTMAG2
 40
0.0
  9
$LOFTPARAM
 70
     7
  9
$LOFTNORMALS
280
     1
  9
$LATITUDE
 40
37.795
  9
$LONGITUDE
 40
-122.394
  9
$NORTHDIRECTION
 40
0.0
  9
$TIMEZONE
 70
 -8000
  9
$LIGHTGLYPHDISPLAY
280
     1
  9
$TILEMODELIGHTSYNCH
280
     1
  9
$CMATERIAL
347
3C
  9
$SOLIDHIST
280
     1
  9
$SHOWHIST
280
     1
  9
$DWFFRAME
280
     2
  9
$DGNFRAME
280
     2
  9
$REALWORLDSCALE
290
     1
  9
$INTERFERECOLOR
 62
   256
  9
$CSHADOW
280
     0
  9
$SHADOWPLANELOCATION
 40
0.0
  0
ENDSEC
  0
SECTION
  2
CLASSES
  0
CLASS
  1
ACDBDICTIONARYWDFLT
  2
AcDbDictionaryWithDefault
  3
ObjectDBX Classes
 90
        0
 91
        4
280
     0
281
     0
  0
CLASS
  1
VISUALSTYLE
  2
AcDbVisualStyle
  3
ObjectDBX Classes
 90
     4095
 91
        4
280
     0
281
     0
  0
CLASS
  1
MATERIAL
  2
AcDbMaterial
  3
ObjectDBX Classes
 90
     1153
 91
        4
280
     0
281
     0
  0
CLASS
  1
SUN
  2
AcDbSun
  3
SCENEOE
 90
     1024
 91
        4
280
     0
281
     0
  0
ENDSEC
  0
SECTION
  2
TABLES
  0
TABLE
  2
VPORT
  5
8
330
0
100
AcDbSymbolTable
 70
     1
  0
VPORT
  5
29
330
8
100
AcDbSymbolTableRecord
100
AcDbViewportTableRecord
  2
*Active
 70
     0
 10
0.0
 20
0.0
 11
1.0
 21
1.0
 12
0.0
 22
0.0
 13
0.0
 23
0.0
 14
0.5
 24
0.5
 15
0.5
 25
0.5
 16
0.0
 26
0.0
 36
1.0
 17
91.00082462281999
 27
-128.4993055234307
 37
0.0
 40
256.9986110468615
 41
0.7081814508812795
 42
50.0
 43
0.0
 44
0.0
 50
0.0
 51
0.0
 71
     0
 72
   100
 73
     1
 74
     3
 75
     0
 76
     0
 77
     0
 78
     0
281
     0
 65
     1
110
0.0
120
0.0
130
0.0
111
1.0
121
0.0
131
0.0
112
0.0
122
1.0
132
0.0
 79
     0
146
0.0
 60
     3
 61
     5
292
     1
282
     1
141
0.0
142
0.0
 63
   250
361
3F
  0
ENDTAB
  0
TABLE
  2
LTYPE
  5
5
330
0
100
AcDbSymbolTable
 70
     1
  0
LTYPE
  5
14
330
5
100
AcDbSymbolTableRecord
100
AcDbLinetypeTableRecord
  2
ByBlock
 70
     0
  3

 72
    65
 73
     0
 40
0.0
  0
LTYPE
  5
15
330
5
100
AcDbSymbolTableRecord
100
AcDbLinetypeTableRecord
  2
ByLayer
 70
     0
  3

 72
    65
 73
     0
 40
0.0
  0
LTYPE
  5
16
330
5
100
AcDbSymbolTableRecord
100
AcDbLinetypeTableRecord
  2
Continuous
 70
     0
  3
Solid line
 72
    65
 73
     0
 40
0.0
  0
ENDTAB
  0
TABLE
  2
LAYER
  5
2
330
0
100
AcDbSymbolTable
 70
     2
  0
LAYER
  5
10
330
2
100
AcDbSymbolTableRecord
100
AcDbLayerTableRecord
  2
0
 70
     0
 62
     7
  6
Continuous
370
    -3
390
F
347
3E
  0
LAYER
  5
40
330
2
100
AcDbSymbolTableRecord
100
AcDbLayerTableRecord
  2
_U+30EC_U+30A4_U+30E4_U+30FC 1
 70
     0
 62
     7
  6
Continuous
370
    -3
390
F
347
3E
  0
ENDTAB
  0
TABLE
  2
STYLE
  5
3
330
0
100
AcDbSymbolTable
 70
     1
  0
STYLE
  5
11
330
3
100
AcDbSymbolTableRecord
100
AcDbTextStyleTableRecord
  2
Standard
 70
     0
 40
0.0
 41
1.0
 50
0.0
 71
     0
 42
0.2
  3
txt
  4

  0
ENDTAB
  0
TABLE
  2
VIEW
  5
6
330
0
100
AcDbSymbolTable
 70
     0
  0
ENDTAB
  0
TABLE
  2
UCS
  5
7
330
0
100
AcDbSymbolTable
 70
     0
  0
ENDTAB
  0
TABLE
  2
APPID
  5
9
330
0
100
AcDbSymbolTable
 70
     1
  0
APPID
  5
12
330
9
100
AcDbSymbolTableRecord
100
AcDbRegAppTableRecord
  2
ACAD
 70
     0
  0
ENDTAB
  0
TABLE
  2
DIMSTYLE
  5
A
330
0
100
AcDbSymbolTable
 70
     1
100
AcDbDimStyleTable
  0
DIMSTYLE
105
27
330
A
100
AcDbSymbolTableRecord
100
AcDbDimStyleTableRecord
  2
Standard
 70
     0
178
     0
340
11
  0
ENDTAB
  0
TABLE
  2
BLOCK_RECORD
  5
1
330
0
100
AcDbSymbolTable
 70
    13
  0
BLOCK_RECORD
  5
1F
330
1
100
AcDbSymbolTableRecord
100
AcDbBlockTableRecord
  2
*Model_Space
340
22
 70
     0
280
     1
281
     0
  0
BLOCK_RECORD
  5
1B
330
1
100
AcDbSymbolTableRecord
100
AcDbBlockTableRecord
  2
*Paper_Space
340
1E
 70
     0
280
     1
281
     0
  0
BLOCK_RECORD
  5
23
330
1
100
AcDbSymbolTableRecord
100
AcDbBlockTableRecord
  2
*Paper_Space0
340
26
 70
     0
280
     1
281
     0
  0
BLOCK_RECORD
  5
41
330
1
100
AcDbSymbolTableRecord
100
AcDbBlockTableRecord
  2
block 2
340
0
102
{BLKREFS
331
42
102
}
 70
     0
280
     1
281
     0
  0
BLOCK_RECORD
  5
47
330
1
100
AcDbSymbolTableRecord
100
AcDbBlockTableRecord
  2
block 3
340
0
102
{BLKREFS
331
48
102
}
 70
     0
280
     1
281
     0
  0
BLOCK_RECORD
  5
7D
330
1
100
AcDbSymbolTableRecord
100
AcDbBlockTableRecord
  2
block 4
340
0
102
{BLKREFS
331
7E
102
}
 70
     0
280
     1
281
     0
  0
BLOCK_RECORD
  5
91
330
1
100
AcDbSymbolTableRecord
100
AcDbBlockTableRecord
  2
block 5
340
0
102
{BLKREFS
331
92
102
}
 70
     0
280
     1
281
     0
  0
BLOCK_RECORD
  5
97
330
1
100
AcDbSymbolTableRecord
100
AcDbBlockTableRecord
  2
block 6
340
0
102
{BLKREFS
331
98
102
}
 70
     0
280
     1
281
     0
  0
BLOCK_RECORD
  5
A3
330
1
100
AcDbSymbolTableRecord
100
AcDbBlockTableRecord
  2
block 7
340
0
102
{BLKREFS
331
A4
102
}
 70
     0
280
     1
281
     0
  0
BLOCK_RECORD
  5
A9
330
1
100
AcDbSymbolTableRecord
100
AcDbBlockTableRecord
  2
block 8
340
0
102
{BLKREFS
331
AA
102
}
 70
     0
280
     1
281
     0
  0
BLOCK_RECORD
  5
B9
330
1
100
AcDbSymbolTableRecord
100
AcDbBlockTableRecord
  2
block 9
340
0
102
{BLKREFS
331
BA
102
}
 70
     0
280
     1
281
     0
  0
BLOCK_RECORD
  5
C1
330
1
100
AcDbSymbolTableRecord
100
AcDbBlockTableRecord
  2
block 10
340
0
102
{BLKREFS
331
C2
102
}
 70
     0
280
     1
281
     0
  0
BLOCK_RECORD
  5
D1
330
1
100
AcDbSymbolTableRecord
100
AcDbBlockTableRecord
  2
block 11
340
0
102
{BLKREFS
331
D2
102
}
 70
     0
280
     1
281
     0
  0
BLOCK_RECORD
  5
DA
330
1
100
AcDbSymbolTableRecord
100
AcDbBlockTableRecord
  2
block 12
340
0
102
{BLKREFS
331
DB
102
}
 70
     0
280
     1
281
     0
  0
BLOCK_RECORD
  5
E6
330
1
100
AcDbSymbolTableRecord
100
AcDbBlockTableRecord
  2
block 13
340
0
102
{BLKREFS
331
E7
102
}
 70
     0
280
     1
281
     0
  0
ENDTAB
  0
ENDSEC
  0
SECTION
  2
BLOCKS
  0
BLOCK
  5
20
330
1F
100
AcDbEntity
  8
0
100
AcDbBlockBegin
  2
*Model_Space
 70
     0
 10
0.0
 20
0.0
 30
0.0
  3
*Model_Space
  1

  0
ENDBLK
  5
21
330
1F
100
AcDbEntity
  8
0
100
AcDbBlockEnd
  0
BLOCK
  5
1C
330
1B
100
AcDbEntity
 67
     1
  8
0
100
AcDbBlockBegin
  2
*Paper_Space
 70
     0
 10
0.0
 20
0.0
 30
0.0
  3
*Paper_Space
  1

  0
ENDBLK
  5
1D
330
1B
100
AcDbEntity
 67
     1
  8
0
100
AcDbBlockEnd
  0
BLOCK
  5
24
330
23
100
AcDbEntity
  8
0
100
AcDbBlockBegin
  2
*Paper_Space0
 70
     0
 10
0.0
 20
0.0
 30
0.0
  3
*Paper_Space0
  1

  0
ENDBLK
  5
25
330
23
100
AcDbEntity
  8
0
100
AcDbBlockEnd
  0
BLOCK
  5
43
330
41
100
AcDbEntity
  8
0
100
AcDbBlockBegin
  2
block 2
 70
     0
 10
0.0
 20
0.0
 30
0.0
  3
block 2
  1

  0
SPLINE
  5
45
330
41
100
AcDbEntity
  8
_U+30EC_U+30A4_U+30E4_U+30FC 1
370
     0
100
AcDbSpline
210
0.0
220
0.0
230
1.0
 70
    11
 71
     3
 72
    41
 73
    37
 74
     0
 42
0.0000000001
 43
0.0000000001
 12
1.0
 22
0.0
 32
0.0
 13
1.0
 23
0.0
 33
0.0
 40
0.0
 40
0.0
 40
0.0
 40
0.0
 40
1.0
 40
1.0
 40
1.0
 40
2.0
 40
2.0
 40
2.0
 40
3.0
 40
3.0
 40
3.0
 40
4.0
 40
4.0
 40
4.0
 40
5.0
 40
5.0
 40
5.0
 40
6.0
 40
6.0
 40
6.0
 40
7.0
 40
7.0
 40
7.0
 40
8.0
 40
8.0
 40
8.0
 40
9.0
 40
9.0
 40
9.0
 40
10.0
 40
10.0
 40
10.0
 40
11.0
 40
11.0
 40
11.0
 40
12.0
 40
12.0
 40
12.0
 40
12.0
 10
73.5278122908159
 20
-139.4891446873499
 30
0.0
 10
73.5278122908159
 20
-139.4891446873499
 30
0.0
 10
88.52845218589547
 20
-139.4891446873499
 30
0.0
 10
88.52845218589547
 20
-139.4891446873499
 30
0.0
 10
88.52845218589547
 20
-139.4891446873499
 30
0.0
 10
88.52845218589547
 20
-136.4891577436555
 30
0.0
 10
88.52845218589547
 20
-136.4891577436555
 30
0.0
 10
88.52845218589547
 20
-136.4891577436555
 30
0.0
 10
87.527974433642
 20
-136.4891577436555
 30
0.0
 10
87.527974433642
 20
-136.4891577436555
 30
0.0
 10
87.527974433642
 20
-136.4891577436555
 30
0.0
 10
87.527974433642
 20
-138.4887021876
 30
0.0
 10
87.527974433642
 20
-138.4887021876
 30
0.0
 10
87.527974433642
 20
-138.4887021876
 30
0.0
 10
75.22830696965488
 20
-138.4887021876
 30
0.0
 10
75.22830696965488
 20
-138.4887021876
 30
0.0
 10
74.8417683684052
 20
-138.4887021876
 30
0.0
 10
74.52825476529249
 20
-138.1758941321229
 30
0.0
 10
74.52825476529249
 20
-137.788649965553
 30
0.0
 10
74.52825476529249
 20
-137.788649965553
 30
0.0
 10
74.52825476529249
 20
-121.6892127473556
 30
0.0
 10
74.52825476529249
 20
-121.6892127473556
 30
0.0
 10
74.52825476529249
 20
-121.3026741363409
 30
0.0
 10
74.8417683684052
 20
-120.9891605253083
 30
0.0
 10
75.22830696965488
 20
-120.9891605253083
 30
0.0
 10
75.22830696965488
 20
-120.9891605253083
 30
0.0
 10
103.5285629143219
 20
-120.9891605253083
 30
0.0
 10
103.5285629143219
 20
-120.9891605253083
 30
0.0
 10
103.5285629143219
 20
-120.9891605253083
 30
0.0
 10
103.5285629143219
 20
-119.9887180255584
 30
0.0
 10
103.5285629143219
 20
-119.9887180255584
 30
0.0
 10
103.5285629143219
 20
-119.9887180255584
 30
0.0
 10
73.5278122908159
 20
-119.9887180255584
 30
0.0
 10
73.5278122908159
 20
-119.9887180255584
 30
0.0
 10
73.5278122908159
 20
-119.9887180255584
 30
0.0
 10
73.5278122908159
 20
-139.4891446873499
 30
0.0
 10
73.5278122908159
 20
-139.4891446873499
 30
0.0
  0
HATCH
  5
46
330
41
100
AcDbEntity
  8
_U+30EC_U+30A4_U+30E4_U+30FC 1
 62
   253
420
 11711154
100
AcDbHatch
 10
0.0
 20
0.0
 30
0.0
210
0.0
220
0.0
230
1.0
  2
SOLID
 70
     1
 71
     0
 91
        1
 92
        1
 93
        1
 72
     4
 94
        3
 73
     0
 74
     1
 95
       41
 96
       37
 40
0.0
 40
0.0
 40
0.0
 40
0.0
 40
1.0
 40
1.0
 40
1.0
 40
2.0
 40
2.0
 40
2.0
 40
3.0
 40
3.0
 40
3.0
 40
4.0
 40
4.0
 40
4.0
 40
5.0
 40
5.0
 40
5.0
 40
6.0
 40
6.0
 40
6.0
 40
7.0
 40
7.0
 40
7.0
 40
8.0
 40
8.0
 40
8.0
 40
9.0
 40
9.0
 40
9.0
 40
10.0
 40
10.0
 40
10.0
 40
11.0
 40
11.0
 40
11.0
 40
12.0
 40
12.0
 40
12.0
 40
12.0
 10
73.5278122908159
 20
-139.4891446873499
 10
73.5278122908159
 20
-139.4891446873499
 10
88.52845218589547
 20
-139.4891446873499
 10
88.52845218589547
 20
-139.4891446873499
 10
88.52845218589547
 20
-139.4891446873499
 10
88.52845218589547
 20
-136.4891577436555
 10
88.52845218589547
 20
-136.4891577436555
 10
88.52845218589547
 20
-136.4891577436555
 10
87.527974433642
 20
-136.4891577436555
 10
87.527974433642
 20
-136.4891577436555
 10
87.527974433642
 20
-136.4891577436555
 10
87.527974433642
 20
-138.4887021876
 10
87.527974433642
 20
-138.4887021876
 10
87.527974433642
 20
-138.4887021876
 10
75.22830696965488
 20
-138.4887021876
 10
75.22830696965488
 20
-138.4887021876
 10
74.8417683684052
 20
-138.4887021876
 10
74.52825476529249
 20
-138.1758941321229
 10
74.52825476529249
 20
-137.788649965553
 10
74.52825476529249
 20
-137.788649965553
 10
74.52825476529249
 20
-121.6892127473556
 10
74.52825476529249
 20
-121.6892127473556
 10
74.52825476529249
 20
-121.3026741363409
 10
74.8417683684052
 20
-120.9891605253083
 10
75.22830696965488
 20
-120.9891605253083
 10
75.22830696965488
 20
-120.9891605253083
 10
103.5285629143219
 20
-120.9891605253083
 10
103.5285629143219
 20
-120.9891605253083
 10
103.5285629143219
 20
-120.9891605253083
 10
103.5285629143219
 20
-119.9887180255584
 10
103.5285629143219
 20
-119.9887180255584
 10
103.5285629143219
 20
-119.9887180255584
 10
73.5278122908159
 20
-119.9887180255584
 10
73.5278122908159
 20
-119.9887180255584
 10
73.5278122908159
 20
-119.9887180255584
 10
73.5278122908159
 20
-139.4891446873499
 10
73.5278122908159
 20
-139.4891446873499
 97
        0
 97
        0
 75
     2
 76
     1
 98
        0
  0
INSERT
  5
48
330
41
100
AcDbEntity
  8
_U+30EC_U+30A4_U+30E4_U+30FC 1
100
AcDbBlockReference
  2
block 3
 10
0.0
 20
0.0
 30
0.0
  0
ENDBLK
  5
44
330
41
100
AcDbEntity
  8
0
100
AcDbBlockEnd
  0
BLOCK
  5
49
330
47
100
AcDbEntity
  8
0
100
AcDbBlockBegin
  2
block 3
 70
     0
 10
0.0
 20
0.0
 30
0.0
  3
block 3
  1

  0
POLYLINE
  5
4B
330
47
100
AcDbEntity
  8
_U+30EC_U+30A4_U+30E4_U+30FC 1
 62
   179
420
  2234388
370
    25
100
AcDb2dPolyline
 66
     1
 10
0.0
 20
0.0
 30
0.0
  0
VERTEX
  5
4C
330
4B
100
AcDbEntity
  8
_U+30EC_U+30A4_U+30E4_U+30FC 1
 62
   179
420
  2234388
370
    25
100
AcDbVertex
100
AcDb2dVertex
 10
73.62771895493373
 20
-119.9887180255584
 30
0.0
  0
VERTEX
  5
4D
330
4B
100
AcDbEntity
  8
_U+30EC_U+30A4_U+30E4_U+30FC 1
 62
   179
420
  2234388
370
    25
100
AcDbVertex
100
AcDb2dVertex
 10
103.6277666407596
 20
-119.9887180255584
 30
0.0
  0
SEQEND
  5
4E
330
4B
100
AcDbEntity
  8
_U+30EC_U+30A4_U+30E4_U+30FC 1
 62
   179
420
  2234388
370
    25
  0
POLYLINE
  5
4F
330
47
100
AcDbEntity
  8
_U+30EC_U+30A4_U+30E4_U+30FC 1
 62
   179
420
  2234388
370
    25
100
AcDb2dPolyline
 66
     1
 10
0.0
 20
0.0
 30
0.0
  0
VERTEX
  5
50
330
4F
100
AcDbEntity
  8
_U+30EC_U+30A4_U+30E4_U+30FC 1
 62
   179
420
  2234388
370
    25
100
AcDbVertex
100
AcDb2dVertex
 10
73.62771895493373
 20
-119.9887180255584
 30
0.0
  0
VERTEX
  5
51
330
4F
100
AcDbEntity
  8
_U+30EC_U+30A4_U+30E4_U+30FC 1
 62
   179
420
  2234388
370
    25
100
AcDbVertex
100
AcDb2dVertex
 10
73.62771895493373
 20
-139.4891446873499
 30
0.0
  0
SEQEND
  5
52
330
4F
100
AcDbEntity
  8
_U+30EC_U+30A4_U+30E4_U+30FC 1
 62
   179
420
  2234388
370
    25
  0
POLYLINE
  5
53
330
47
100
AcDbEntity
  8
_U+30EC_U+30A4_U+30E4_U+30FC 1
 62
   179
420
  2234388
370
    25
100
AcDb2dPolyline
 66
     1
 10
0.0
 20
0.0
 30
0.0
  0
VERTEX
  5
54
330
53
100
AcDbEntity
  8
_U+30EC_U+30A4_U+30E4_U+30FC 1
 62
   179
420
  2234388
370
    25
100
AcDbVertex
100
AcDb2dVertex
 10
103.6277666407596
 20
-119.9887180255584
 30
0.0
  0
VERTEX
  5
55
330
53
100
AcDbEntity
  8
_U+30EC_U+30A4_U+30E4_U+30FC 1
 62
   179
420
  2234388
370
    25
100
AcDbVertex
100
AcDb2dVertex
 10
103.6277666407596
 20
-120.9891605253083
 30
0.0
  0
SEQEND
  5
56
330
53
100
AcDbEntity
  8
_U+30EC_U+30A4_U+30E4_U+30FC 1
 62
   179
420
  2234388
370
    25
  0
POLYLINE
  5
57
330
47
100
AcDbEntity
  8
_U+30EC_U+30A4_U+30E4_U+30FC 1
 62
   179
420
  2234388
370
    25
100
AcDb2dPolyline
 66
     1
 10
0.0
 20
0.0
 30
0.0
  0
VERTEX
  5
58
330
57
100
AcDbEntity
  8
_U+30EC_U+30A4_U+30E4_U+30FC 1
 62
   179
420
  2234388
370
    25
100
AcDbVertex
100
AcDb2dVertex
 10
75.32786085600394
 20
-120.9891605253083
 30
0.0
  0
VERTEX
  5
59
330
57
100
AcDbEntity
  8
_U+30EC_U+30A4_U+30E4_U+30FC 1
 62
   179
420
  2234388
370
    25
100
AcDbVertex
100
AcDb2dVertex
 10
103.6277666407596
 20
-120.9891605253083
 30
0.0
  0
SEQEND
  5
5A
330
57
100
AcDbEntity
  8
_U+30EC_U+30A4_U+30E4_U+30FC 1
 62
   179
420
  2234388
370
    25
  0
POLYLINE
  5
5B
330
47
100
AcDbEntity
  8
_U+30EC_U+30A4_U+30E4_U+30FC 1
 62
   179
420
  2234388
370
    25
100
AcDb2dPolyline
 66
     1
 10
0.0
 20
0.0
 30
0.0
  0
VERTEX
  5
5C
330
5B
100
AcDbEntity
  8
_U+30EC_U+30A4_U+30E4_U+30FC 1
 62
   179
420
  2234388
370
    25
100
AcDbVertex
100
AcDb2dVertex
 10
88.62800831117643
 20
-136.4891577436555
 30
0.0
  0
VERTEX
  5
5D
330
5B
100
AcDbEntity
  8
_U+30EC_U+30A4_U+30E4_U+30FC 1
 62
   179
420
  2234388
370
    25
100
AcDbVertex
100
AcDb2dVertex
 10
88.62800831117643
 20
-139.4891446873499
 30
0.0
  0
SEQEND
  5
5E
330
5B
100
AcDbEntity
  8
_U+30EC_U+30A4_U+30E4_U+30FC 1
 62
   179
420
  2234388
370
    25
  0
POLYLINE
  5
5F
330
47
100
AcDbEntity
  8
_U+30EC_U+30A4_U+30E4_U+30FC 1
 62
   179
420
  2234388
370
    25
100
AcDb2dPolyline
 66
     1
 10
0.0
 20
0.0
 30
0.0
  0
VERTEX
  5
60
330
5F
100
AcDbEntity
  8
_U+30EC_U+30A4_U+30E4_U+30FC 1
 62
   179
420
  2234388
370
    25
100
AcDbVertex
100
AcDb2dVertex
 10
87.62788331142644
 20
-136.4891577436555
 30
0.0
  0
VERTEX
  5
61
330
5F
100
AcDbEntity
  8
_U+30EC_U+30A4_U+30E4_U+30FC 1
 62
   179
420
  2234388
370
    25
100
AcDbVertex
100
AcDb2dVertex
 10
87.62788331142644
 20
-138.4887021876
 30
0.0
  0
SEQEND
  5
62
330
5F
100
AcDbEntity
  8
_U+30EC_U+30A4_U+30E4_U+30FC 1
 62
   179
420
  2234388
370
    25
  0
POLYLINE
  5
63
330
47
100
AcDbEntity
  8
_U+30EC_U+30A4_U+30E4_U+30FC 1
 62
   179
420
  2234388
370
    25
100
AcDb2dPolyline
 66
     1
 10
0.0
 20
0.0
 30
0.0
  0
VERTEX
  5
64
330
63
100
AcDbEntity
  8
_U+30EC_U+30A4_U+30E4_U+30FC 1
 62
   179
420
  2234388
370
    25
100
AcDbVertex
100
AcDb2dVertex
 10
74.62816142941031
 20
-121.6892127473556
 30
0.0
  0
VERTEX
  5
65
330
63
100
AcDbEntity
  8
_U+30EC_U+30A4_U+30E4_U+30FC 1
 62
   179
420
  2234388
370
    25
100
AcDbVertex
100
AcDb2dVertex
 10
74.62816142941031
 20
-137.788649965553
 30
0.0
  0
SEQEND
  5
66
330
63
100
AcDbEntity
  8
_U+30EC_U+30A4_U+30E4_U+30FC 1
 62
   179
420
  2234388
370
    25
  0
POLYLINE
  5
67
330
47
100
AcDbEntity
  8
_U+30EC_U+30A4_U+30E4_U+30FC 1
 62
   179
420
  2234388
370
    25
100
AcDb2dPolyline
 66
     1
 10
0.0
 20
0.0
 30
0.0
  0
VERTEX
  5
68
330
67
100
AcDbEntity
  8
_U+30EC_U+30A4_U+30E4_U+30FC 1
 62
   179
420
  2234388
370
    25
100
AcDbVertex
100
AcDb2dVertex
 10
87.62788331142644
 20
-136.4891577436555
 30
0.0
  0
VERTEX
  5
69
330
67
100
AcDbEntity
  8
_U+30EC_U+30A4_U+30E4_U+30FC 1
 62
   179
420
  2234388
370
    25
100
AcDbVertex
100
AcDb2dVertex
 10
88.62800831117643
 20
-136.4891577436555
 30
0.0
  0
SEQEND
  5
6A
330
67
100
AcDbEntity
  8
_U+30EC_U+30A4_U+30E4_U+30FC 1
 62
   179
420
  2234388
370
    25
  0
POLYLINE
  5
6B
330
47
100
AcDbEntity
  8
_U+30EC_U+30A4_U+30E4_U+30FC 1
 62
   179
420
  2234388
370
    25
100
AcDb2dPolyline
 66
     1
 10
0.0
 20
0.0
 30
0.0
  0
VERTEX
  5
6C
330
6B
100
AcDbEntity
  8
_U+30EC_U+30A4_U+30E4_U+30FC 1
 62
   179
420
  2234388
370
    25
100
AcDbVertex
100
AcDb2dVertex
 10
73.62771895493373
 20
-139.4891446873499
 30
0.0
  0
VERTEX
  5
6D
330
6B
100
AcDbEntity
  8
_U+30EC_U+30A4_U+30E4_U+30FC 1
 62
   179
420
  2234388
370
    25
100
AcDbVertex
100
AcDb2dVertex
 10
88.62800831117643
 20
-139.4891446873499
 30
0.0
  0
SEQEND
  5
6E
330
6B
100
AcDbEntity
  8
_U+30EC_U+30A4_U+30E4_U+30FC 1
 62
   179
420
  2234388
370
    25
  0
POLYLINE
  5
6F
330
47
100
AcDbEntity
  8
_U+30EC_U+30A4_U+30E4_U+30FC 1
 62
   179
420
  2234388
370
    25
100
AcDb2dPolyline
 66
     1
 10
0.0
 20
0.0
 30
0.0
  0
VERTEX
  5
70
330
6F
100
AcDbEntity
  8
_U+30EC_U+30A4_U+30E4_U+30FC 1
 62
   179
420
  2234388
370
    25
100
AcDbVertex
100
AcDb2dVertex
 10
75.32786085600394
 20
-138.4887021876
 30
0.0
  0
VERTEX
  5
71
330
6F
100
AcDbEntity
  8
_U+30EC_U+30A4_U+30E4_U+30FC 1
 62
   179
420
  2234388
370
    25
100
AcDbVertex
100
AcDb2dVertex
 10
87.62788331142644
 20
-138.4887021876
 30
0.0
  0
SEQEND
  5
72
330
6F
100
AcDbEntity
  8
_U+30EC_U+30A4_U+30E4_U+30FC 1
 62
   179
420
  2234388
370
    25
  0
SPLINE
  5
73
330
47
100
AcDbEntity
  8
_U+30EC_U+30A4_U+30E4_U+30FC 1
 62
   179
420
  2234388
370
     9
100
AcDbSpline
210
0.0
220
0.0
230
1.0
 70
    11
 71
     3
 72
    17
 73
    13
 74
     0
 42
0.0000000001
 43
0.0000000001
 12
1.0
 22
0.0
 32
0.0
 13
1.0
 23
0.0
 33
0.0
 40
0.0
 40
0.0
 40
0.0
 40
0.0
 40
1.0
 40
1.0
 40
1.0
 40
2.0
 40
2.0
 40
2.0
 40
3.0
 40
3.0
 40
3.0
 40
4.0
 40
4.0
 40
4.0
 40
4.0
 10
73.72797839682035
 20
-115.9889588598915
 30
0.0
 10
73.72797839682035
 20
-115.9338196932388
 30
0.0
 10
73.68317562018558
 20
-115.8890521932499
 30
0.0
 10
73.62771895493373
 20
-115.8890521932499
 30
0.0
 10
73.57257978967378
 20
-115.8890521932499
 30
0.0
 10
73.5278122908159
 20
-115.9338196932388
 30
0.0
 10
73.5278122908159
 20
-115.9889588598915
 30
0.0
 10
73.5278122908159
 20
-116.0444155265445
 30
0.0
 10
73.57257978967378
 20
-116.0888655265335
 30
0.0
 10
73.62771895493373
 20
-116.0888655265335
 30
0.0
 10
73.68317562018558
 20
-116.0888655265335
 30
0.0
 10
73.72797839682035
 20
-116.0444155265445
 30
0.0
 10
73.72797839682035
 20
-115.9889588598915
 30
0.0
  0
SPLINE
  5
74
330
47
100
AcDbEntity
  8
_U+30EC_U+30A4_U+30E4_U+30FC 1
 62
   179
420
  2234388
370
     9
100
AcDbSpline
210
0.0
220
0.0
230
1.0
 70
    11
 71
     3
 72
    17
 73
    13
 74
     0
 42
0.0000000001
 43
0.0000000001
 12
1.0
 22
0.0
 32
0.0
 13
1.0
 23
0.0
 33
0.0
 40
0.0
 40
0.0
 40
0.0
 40
0.0
 40
1.0
 40
1.0
 40
1.0
 40
2.0
 40
2.0
 40
2.0
 40
3.0
 40
3.0
 40
3.0
 40
4.0
 40
4.0
 40
4.0
 40
4.0
 10
103.7277059647969
 20
-115.9889588598915
 30
0.0
 10
103.7277059647969
 20
-115.9338196932388
 30
0.0
 10
103.6829031881621
 20
-115.8890521932499
 30
0.0
 10
103.6277666407596
 20
-115.8890521932499
 30
0.0
 10
103.5726601354191
 20
-115.8890521932499
 30
0.0
 10
103.5278573587843
 20
-115.9338196932388
 30
0.0
 10
103.5278573587843
 20
-115.9889588598915
 30
0.0
 10
103.5278573587843
 20
-116.0444155265445
 30
0.0
 10
103.5726601354191
 20
-116.0888655265335
 30
0.0
 10
103.6277666407596
 20
-116.0888655265335
 30
0.0
 10
103.6829031881621
 20
-116.0888655265335
 30
0.0
 10
103.7277059647969
 20
-116.0444155265445
 30
0.0
 10
103.7277059647969
 20
-115.9889588598915
 30
0.0
  0
SPLINE
  5
75
330
47
100
AcDbEntity
  8
_U+30EC_U+30A4_U+30E4_U+30FC 1
 62
   179
420
  2234388
370
     9
100
AcDbSpline
210
0.0
220
0.0
230
1.0
 70
    11
 71
     3
 72
    17
 73
    13
 74
     0
 42
0.0000000001
 43
0.0000000001
 12
1.0
 22
0.0
 32
0.0
 13
1.0
 23
0.0
 33
0.0
 40
0.0
 40
0.0
 40
0.0
 40
0.0
 40
1.0
 40
1.0
 40
1.0
 40
2.0
 40
2.0
 40
2.0
 40
3.0
 40
3.0
 40
3.0
 40
4.0
 40
4.0
 40
4.0
 40
4.0
 10
107.7281353071819
 20
-119.9887180255584
 30
0.0
 10
107.7281353071819
 20
-119.9335788589053
 30
0.0
 10
107.6833325305471
 20
-119.8888113589168
 30
0.0
 10
107.628228643064
 20
-119.8888113589168
 30
0.0
 10
107.5724192000434
 20
-119.8888113589168
 30
0.0
 10
107.5276164234086
 20
-119.9335788589053
 30
0.0
 10
107.5276164234086
 20
-119.9887180255584
 30
0.0
 10
107.5276164234086
 20
-120.0445274699889
 30
0.0
 10
107.5724192000434
 20
-120.0892949699777
 30
0.0
 10
107.628228643064
 20
-120.0892949699777
 30
0.0
 10
107.6833325305471
 20
-120.0892949699777
 30
0.0
 10
107.7281353071819
 20
-120.0445274699889
 30
0.0
 10
107.7281353071819
 20
-119.9887180255584
 30
0.0
  0
SPLINE
  5
76
330
47
100
AcDbEntity
  8
_U+30EC_U+30A4_U+30E4_U+30FC 1
 62
   179
420
  2234388
370
     9
100
AcDbSpline
210
0.0
220
0.0
230
1.0
 70
    11
 71
     3
 72
    17
 73
    13
 74
     0
 42
0.0000000001
 43
0.0000000001
 12
1.0
 22
0.0
 32
0.0
 13
1.0
 23
0.0
 33
0.0
 40
0.0
 40
0.0
 40
0.0
 40
0.0
 40
1.0
 40
1.0
 40
1.0
 40
2.0
 40
2.0
 40
2.0
 40
3.0
 40
3.0
 40
3.0
 40
4.0
 40
4.0
 40
4.0
 40
4.0
 10
107.7281353071819
 20
-120.9891605253083
 30
0.0
 10
107.7281353071819
 20
-120.9340566364331
 30
0.0
 10
107.6833325305471
 20
-120.8892538586667
 30
0.0
 10
107.628228643064
 20
-120.8892538586667
 30
0.0
 10
107.5724192000434
 20
-120.8892538586667
 30
0.0
 10
107.5276164234086
 20
-120.9340566364331
 30
0.0
 10
107.5276164234086
 20
-120.9891605253083
 30
0.0
 10
107.5276164234086
 20
-121.0442996919611
 30
0.0
 10
107.5724192000434
 20
-121.08906719195
 30
0.0
 10
107.628228643064
 20
-121.08906719195
 30
0.0
 10
107.6833325305471
 20
-121.08906719195
 30
0.0
 10
107.7281353071819
 20
-121.0442996919611
 30
0.0
 10
107.7281353071819
 20
-120.9891605253083
 30
0.0
  0
SPLINE
  5
77
330
47
100
AcDbEntity
  8
_U+30EC_U+30A4_U+30E4_U+30FC 1
 62
   179
420
  2234388
370
     9
100
AcDbSpline
210
0.0
220
0.0
230
1.0
 70
    11
 71
     3
 72
    17
 73
    13
 74
     0
 42
0.0000000001
 43
0.0000000001
 12
1.0
 22
0.0
 32
0.0
 13
1.0
 23
0.0
 33
0.0
 40
0.0
 40
0.0
 40
0.0
 40
0.0
 40
1.0
 40
1.0
 40
1.0
 40
2.0
 40
2.0
 40
2.0
 40
3.0
 40
3.0
 40
3.0
 40
4.0
 40
4.0
 40
4.0
 40
4.0
 10
107.7281353071819
 20
-136.4891577436555
 30
0.0
 10
107.7281353071819
 20
-136.4340538547806
 30
0.0
 10
107.6833325305471
 20
-136.3892510770139
 30
0.0
 10
107.628228643064
 20
-136.3892510770139
 30
0.0
 10
107.5724192000434
 20
-136.3892510770139
 30
0.0
 10
107.5276164234086
 20
-136.4340538547806
 30
0.0
 10
107.5276164234086
 20
-136.4891577436555
 30
0.0
 10
107.5276164234086
 20
-136.5442969103086
 30
0.0
 10
107.5724192000434
 20
-136.5890644102971
 30
0.0
 10
107.628228643064
 20
-136.5890644102971
 30
0.0
 10
107.6833325305471
 20
-136.5890644102971
 30
0.0
 10
107.7281353071819
 20
-136.5442969103086
 30
0.0
 10
107.7281353071819
 20
-136.4891577436555
 30
0.0
  0
SPLINE
  5
78
330
47
100
AcDbEntity
  8
_U+30EC_U+30A4_U+30E4_U+30FC 1
 62
   179
420
  2234388
370
     9
100
AcDbSpline
210
0.0
220
0.0
230
1.0
 70
    11
 71
     3
 72
    17
 73
    13
 74
     0
 42
0.0000000001
 43
0.0000000001
 12
1.0
 22
0.0
 32
0.0
 13
1.0
 23
0.0
 33
0.0
 40
0.0
 40
0.0
 40
0.0
 40
0.0
 40
1.0
 40
1.0
 40
1.0
 40
2.0
 40
2.0
 40
2.0
 40
3.0
 40
3.0
 40
3.0
 40
4.0
 40
4.0
 40
4.0
 40
4.0
 10
107.7281353071819
 20
-139.4891446873499
 30
0.0
 10
107.7281353071819
 20
-139.4340407984749
 30
0.0
 10
107.6833325305471
 20
-139.3892380207082
 30
0.0
 10
107.628228643064
 20
-139.3892380207082
 30
0.0
 10
107.5724192000434
 20
-139.3892380207082
 30
0.0
 10
107.5276164234086
 20
-139.4340407984749
 30
0.0
 10
107.5276164234086
 20
-139.4891446873499
 30
0.0
 10
107.5276164234086
 20
-139.5442838540029
 30
0.0
 10
107.5724192000434
 20
-139.5890513539915
 30
0.0
 10
107.628228643064
 20
-139.5890513539915
 30
0.0
 10
107.6833325305471
 20
-139.5890513539915
 30
0.0
 10
107.7281353071819
 20
-139.5442838540029
 30
0.0
 10
107.7281353071819
 20
-139.4891446873499
 30
0.0
  0
SPLINE
  5
79
330
47
100
AcDbEntity
  8
_U+30EC_U+30A4_U+30E4_U+30FC 1
 62
   179
420
  2234388
370
     9
100
AcDbSpline
210
0.0
220
0.0
230
1.0
 70
    11
 71
     3
 72
    17
 73
    13
 74
     0
 42
0.0000000001
 43
0.0000000001
 12
1.0
 22
0.0
 32
0.0
 13
1.0
 23
0.0
 33
0.0
 40
0.0
 40
0.0
 40
0.0
 40
0.0
 40
1.0
 40
1.0
 40
1.0
 40
2.0
 40
2.0
 40
2.0
 40
3.0
 40
3.0
 40
3.0
 40
4.0
 40
4.0
 40
4.0
 40
4.0
 10
88.72791273636236
 20
-143.4889038530167
 30
0.0
 10
88.72791273636236
 20
-143.4337999641418
 30
0.0
 10
88.68314523750448
 20
-143.3889971863751
 30
0.0
 10
88.62800831117643
 20
-143.3889971863751
 30
0.0
 10
88.57254940699268
 20
-143.3889971863751
 30
0.0
 10
88.52809940812669
 20
-143.4337999641418
 30
0.0
 10
88.52809940812669
 20
-143.4889038530167
 30
0.0
 10
88.52809940812669
 20
-143.5440430196698
 30
0.0
 10
88.57254940699268
 20
-143.5888105196584
 30
0.0
 10
88.62800831117643
 20
-143.5888105196584
 30
0.0
 10
88.68314523750448
 20
-143.5888105196584
 30
0.0
 10
88.72791273636236
 20
-143.5440430196698
 30
0.0
 10
88.72791273636236
 20
-143.4889038530167
 30
0.0
  0
SPLINE
  5
7A
330
47
100
AcDbEntity
  8
_U+30EC_U+30A4_U+30E4_U+30FC 1
 62
   179
420
  2234388
370
     9
100
AcDbSpline
210
0.0
220
0.0
230
1.0
 70
    11
 71
     3
 72
    17
 73
    13
 74
     0
 42
0.0000000001
 43
0.0000000001
 12
1.0
 22
0.0
 32
0.0
 13
1.0
 23
0.0
 33
0.0
 40
0.0
 40
0.0
 40
0.0
 40
0.0
 40
1.0
 40
1.0
 40
1.0
 40
2.0
 40
2.0
 40
2.0
 40
3.0
 40
3.0
 40
3.0
 40
4.0
 40
4.0
 40
4.0
 40
4.0
 10
73.72797839682035
 20
-143.4889038530167
 30
0.0
 10
73.72797839682035
 20
-143.4337999641418
 30
0.0
 10
73.68317562018558
 20
-143.3889971863751
 30
0.0
 10
73.62771895493373
 20
-143.3889971863751
 30
0.0
 10
73.57257978967378
 20
-143.3889971863751
 30
0.0
 10
73.5278122908159
 20
-143.4337999641418
 30
0.0
 10
73.5278122908159
 20
-143.4889038530167
 30
0.0
 10
73.5278122908159
 20
-143.5440430196698
 30
0.0
 10
73.57257978967378
 20
-143.5888105196584
 30
0.0
 10
73.62771895493373
 20
-143.5888105196584
 30
0.0
 10
73.68317562018558
 20
-143.5888105196584
 30
0.0
 10
73.72797839682035
 20
-143.5440430196698
 30
0.0
 10
73.72797839682035
 20
-143.4889038530167
 30
0.0
  0
SPLINE
  5
7B
330
47
100
AcDbEntity
  8
_U+30EC_U+30A4_U+30E4_U+30FC 1
 62
   179
420
  2234388
370
    25
100
AcDbSpline
210
0.0
220
0.0
230
1.0
 70
     8
 71
     3
 72
     8
 73
     4
 74
     0
 42
0.0000000001
 43
0.0000000001
 12
1.0
 22
0.0
 32
0.0
 13
1.0
 23
0.0
 33
0.0
 40
0.0
 40
0.0
 40
0.0
 40
0.0
 40
1.0
 40
1.0
 40
1.0
 40
1.0
 10
74.62816142941031
 20
-137.788649965553
 30
0.0
 10
74.62816142941031
 20
-138.1758941321229
 30
0.0
 10
74.94132225475425
 20
-138.4887021876
 30
0.0
 10
75.32786085600394
 20
-138.4887021876
 30
0.0
  0
SPLINE
  5
7C
330
47
100
AcDbEntity
  8
_U+30EC_U+30A4_U+30E4_U+30FC 1
 62
   179
420
  2234388
370
    25
100
AcDbSpline
210
0.0
220
0.0
230
1.0
 70
     8
 71
     3
 72
     8
 73
     4
 74
     0
 42
0.0000000001
 43
0.0000000001
 12
1.0
 22
0.0
 32
0.0
 13
1.0
 23
0.0
 33
0.0
 40
0.0
 40
0.0
 40
0.0
 40
0.0
 40
1.0
 40
1.0
 40
1.0
 40
1.0
 10
75.32786085600394
 20
-120.9891605253083
 30
0.0
 10
74.94132225475425
 20
-120.9891605253083
 30
0.0
 10
74.62816142941031
 20
-121.3026741363409
 30
0.0
 10
74.62816142941031
 20
-121.6892127473556
 30
0.0
  0
INSERT
  5
7E
330
47
100
AcDbEntity
  8
_U+30EC_U+30A4_U+30E4_U+30FC 1
100
AcDbBlockReference
  2
block 4
 10
0.0
 20
0.0
 30
0.0
  0
INSERT
  5
98
330
47
100
AcDbEntity
  8
_U+30EC_U+30A4_U+30E4_U+30FC 1
100
AcDbBlockReference
  2
block 6
 10
0.0
 20
0.0
 30
0.0
  0
INSERT
  5
AA
330
47
100
AcDbEntity
  8
_U+30EC_U+30A4_U+30E4_U+30FC 1
100
AcDbBlockReference
  2
block 8
 10
0.0
 20
0.0
 30
0.0
  0
INSERT
  5
C2
330
47
100
AcDbEntity
  8
_U+30EC_U+30A4_U+30E4_U+30FC 1
100
AcDbBlockReference
  2
block 10
 10
0.0
 20
0.0
 30
0.0
  0
INSERT
  5
DB
330
47
100
AcDbEntity
  8
_U+30EC_U+30A4_U+30E4_U+30FC 1
100
AcDbBlockReference
  2
block 12
 10
0.0
 20
0.0
 30
0.0
  0
ENDBLK
  5
4A
330
47
100
AcDbEntity
  8
0
100
AcDbBlockEnd
  0
BLOCK
  5
7F
330
7D
100
AcDbEntity
  8
0
100
AcDbBlockBegin
  2
block 4
 70
     0
 10
0.0
 20
0.0
 30
0.0
  3
block 4
  1

  0
POLYLINE
  5
81
330
7D
100
AcDbEntity
  8
_U+30EC_U+30A4_U+30E4_U+30FC 1
 62
   179
420
  2234388
370
     9
100
AcDb2dPolyline
 66
     1
 10
0.0
 20
0.0
 30
0.0
  0
VERTEX
  5
82
330
81
100
AcDbEntity
  8
_U+30EC_U+30A4_U+30E4_U+30FC 1
 62
   179
420
  2234388
370
     9
100
AcDbVertex
100
AcDb2dVertex
 10
107.628228643064
 20
-119.9887180255584
 30
0.0
  0
VERTEX
  5
83
330
81
100
AcDbEntity
  8
_U+30EC_U+30A4_U+30E4_U+30FC 1
 62
   179
420
  2234388
370
     9
100
AcDbVertex
100
AcDb2dVertex
 10
107.628228643064
 20
-116.2187583042788
 30
0.0
  0
SEQEND
  5
84
330
81
100
AcDbEntity
  8
_U+30EC_U+30A4_U+30E4_U+30FC 1
 62
   179
420
  2234388
370
     9
  0
POLYLINE
  5
85
330
7D
100
AcDbEntity
  8
_U+30EC_U+30A4_U+30E4_U+30FC 1
 62
   179
420
  2234388
370
     9
100
AcDb2dPolyline
 66
     1
 10
0.0
 20
0.0
 30
0.0
  0
VERTEX
  5
86
330
85
100
AcDbEntity
  8
_U+30EC_U+30A4_U+30E4_U+30FC 1
 62
   179
420
  2234388
370
     9
100
AcDbVertex
100
AcDb2dVertex
 10
107.628228643064
 20
-119.9887180255584
 30
0.0
  0
VERTEX
  5
87
330
85
100
AcDbEntity
  8
_U+30EC_U+30A4_U+30E4_U+30FC 1
 62
   179
420
  2234388
370
     9
100
AcDbVertex
100
AcDb2dVertex
 10
107.628228643064
 20
-120.9891605253083
 30
0.0
  0
SEQEND
  5
88
330
85
100
AcDbEntity
  8
_U+30EC_U+30A4_U+30E4_U+30FC 1
 62
   179
420
  2234388
370
     9
  0
POLYLINE
  5
89
330
7D
100
AcDbEntity
  8
_U+30EC_U+30A4_U+30E4_U+30FC 1
 62
   179
420
  2234388
370
     9
100
AcDb2dPolyline
 66
     1
 10
0.0
 20
0.0
 30
0.0
  0
VERTEX
  5
8A
330
89
100
AcDbEntity
  8
_U+30EC_U+30A4_U+30E4_U+30FC 1
 62
   179
420
  2234388
370
     9
100
AcDbVertex
100
AcDb2dVertex
 10
106.1681872914239
 20
-119.9887180255584
 30
0.0
  0
VERTEX
  5
8B
330
89
100
AcDbEntity
  8
_U+30EC_U+30A4_U+30E4_U+30FC 1
 62
   179
420
  2234388
370
     9
100
AcDbVertex
100
AcDb2dVertex
 10
108.6272952842424
 20
-119.9887180255584
 30
0.0
  0
SEQEND
  5
8C
330
89
100
AcDbEntity
  8
_U+30EC_U+30A4_U+30E4_U+30FC 1
 62
   179
420
  2234388
370
     9
  0
POLYLINE
  5
8D
330
7D
100
AcDbEntity
  8
_U+30EC_U+30A4_U+30E4_U+30FC 1
 62
   179
420
  2234388
370
     9
100
AcDb2dPolyline
 66
     1
 10
0.0
 20
0.0
 30
0.0
  0
VERTEX
  5
8E
330
8D
100
AcDbEntity
  8
_U+30EC_U+30A4_U+30E4_U+30FC 1
 62
   179
420
  2234388
370
     9
100
AcDbVertex
100
AcDb2dVertex
 10
106.1681872914239
 20
-120.9891605253083
 30
0.0
  0
VERTEX
  5
8F
330
8D
100
AcDbEntity
  8
_U+30EC_U+30A4_U+30E4_U+30FC 1
 62
   179
420
  2234388
370
     9
100
AcDbVertex
100
AcDb2dVertex
 10
108.6272952842424
 20
-120.9891605253083
 30
0.0
  0
SEQEND
  5
90
330
8D
100
AcDbEntity
  8
_U+30EC_U+30A4_U+30E4_U+30FC 1
 62
   179
420
  2234388
370
     9
  0
INSERT
  5
92
330
7D
100
AcDbEntity
  8
_U+30EC_U+30A4_U+30E4_U+30FC 1
100
AcDbBlockReference
  2
block 5
 10
0.0
 20
0.0
 30
0.0
  0
ENDBLK
  5
80
330
7D
100
AcDbEntity
  8
0
100
AcDbBlockEnd
  0
BLOCK
  5
93
330
91
100
AcDbEntity
  8
0
100
AcDbBlockBegin
  2
block 5
 70
     0
 10
0.0
 20
0.0
 30
0.0
  3
block 5
  1

  0
SPLINE
  5
95
330
91
100
AcDbEntity
  8
_U+30EC_U+30A4_U+30E4_U+30FC 1
370
     0
100
AcDbSpline
210
0.0
220
0.0
230
1.0
 70
    11
 71
     3
 72
    26
 73
    22
 74
     0
 42
0.0000000001
 43
0.0000000001
 12
1.0
 22
0.0
 32
0.0
 13
1.0
 23
0.0
 33
0.0
 40
0.0
 40
0.0
 40
0.0
 40
0.0
 40
1.0
 40
1.0
 40
1.0
 40
2.0
 40
2.0
 40
2.0
 40
3.0
 40
3.0
 40
3.0
 40
4.0
 40
4.0
 40
4.0
 40
5.0
 40
5.0
 40
5.0
 40
6.0
 40
6.0
 40
6.0
 40
7.0
 40
7.0
 40
7.0
 40
7.0
 10
106.1003282069819
 20
-120.4460503171107
 30
0.0
 10
106.1003282069819
 20
-120.4460503171107
 30
0.0
 10
104.9961751039593
 20
-120.4460503171107
 30
0.0
 10
104.9961751039593
 20
-120.4460503171107
 30
0.0
 10
104.9961751039593
 20
-120.4460503171107
 30
0.0
 10
104.9961751039593
 20
-120.7643771399478
 30
0.0
 10
104.9961751039593
 20
-120.7643771399478
 30
0.0
 10
104.9961751039593
 20
-120.7643771399478
 30
0.0
 10
104.8480359980936
 20
-120.7643771399478
 30
0.0
 10
104.8480359980936
 20
-120.7643771399478
 30
0.0
 10
104.833222087507
 20
-120.4439832598196
 30
0.0
 10
104.6702690710547
 20
-120.3991970185113
 30
0.0
 10
104.5558919009444
 20
-120.3706027259837
 30
0.0
 10
104.5558919009444
 20
-120.3706027259837
 30
0.0
 10
104.5558919009444
 20
-120.229698320637
 30
0.0
 10
104.5558919009444
 20
-120.229698320637
 30
0.0
 10
104.5558919009444
 20
-120.229698320637
 30
0.0
 10
106.1003282069819
 20
-120.229698320637
 30
0.0
 10
106.1003282069819
 20
-120.229698320637
 30
0.0
 10
106.1003282069819
 20
-120.229698320637
 30
0.0
 10
106.1003282069819
 20
-120.4460503171107
 30
0.0
 10
106.1003282069819
 20
-120.4460503171107
 30
0.0
  0
HATCH
  5
96
330
91
100
AcDbEntity
  8
_U+30EC_U+30A4_U+30E4_U+30FC 1
 62
   179
420
  2234388
100
AcDbHatch
 10
0.0
 20
0.0
 30
0.0
210
0.0
220
0.0
230
1.0
  2
SOLID
 70
     1
 71
     0
 91
        1
 92
        1
 93
        1
 72
     4
 94
        3
 73
     0
 74
     1
 95
       26
 96
       22
 40
0.0
 40
0.0
 40
0.0
 40
0.0
 40
1.0
 40
1.0
 40
1.0
 40
2.0
 40
2.0
 40
2.0
 40
3.0
 40
3.0
 40
3.0
 40
4.0
 40
4.0
 40
4.0
 40
5.0
 40
5.0
 40
5.0
 40
6.0
 40
6.0
 40
6.0
 40
7.0
 40
7.0
 40
7.0
 40
7.0
 10
106.1003282069819
 20
-120.4460503171107
 10
106.1003282069819
 20
-120.4460503171107
 10
104.9961751039593
 20
-120.4460503171107
 10
104.9961751039593
 20
-120.4460503171107
 10
104.9961751039593
 20
-120.4460503171107
 10
104.9961751039593
 20
-120.7643771399478
 10
104.9961751039593
 20
-120.7643771399478
 10
104.9961751039593
 20
-120.7643771399478
 10
104.8480359980936
 20
-120.7643771399478
 10
104.8480359980936
 20
-120.7643771399478
 10
104.833222087507
 20
-120.4439832598196
 10
104.6702690710547
 20
-120.3991970185113
 10
104.5558919009444
 20
-120.3706027259837
 10
104.5558919009444
 20
-120.3706027259837
 10
104.5558919009444
 20
-120.229698320637
 10
104.5558919009444
 20
-120.229698320637
 10
104.5558919009444
 20
-120.229698320637
 10
106.1003282069819
 20
-120.229698320637
 10
106.1003282069819
 20
-120.229698320637
 10
106.1003282069819
 20
-120.229698320637
 10
106.1003282069819
 20
-120.4460503171107
 10
106.1003282069819
 20
-120.4460503171107
 97
        0
 97
        0
 75
     2
 76
     1
 98
        0
  0
ENDBLK
  5
94
330
91
100
AcDbEntity
  8
0
100
AcDbBlockEnd
  0
BLOCK
  5
99
330
97
100
AcDbEntity
  8
0
100
AcDbBlockBegin
  2
block 6
 70
     0
 10
0.0
 20
0.0
 30
0.0
  3
block 6
  1

  0
POLYLINE
  5
9B
330
97
100
AcDbEntity
  8
_U+30EC_U+30A4_U+30E4_U+30FC 1
 62
   179
420
  2234388
370
     9
100
AcDb2dPolyline
 66
     1
 10
0.0
 20
0.0
 30
0.0
  0
VERTEX
  5
9C
330
9B
100
AcDbEntity
  8
_U+30EC_U+30A4_U+30E4_U+30FC 1
 62
   179
420
  2234388
370
     9
100
AcDbVertex
100
AcDb2dVertex
 10
107.628228643064
 20
-136.4891577436555
 30
0.0
  0
VERTEX
  5
9D
330
9B
100
AcDbEntity
  8
_U+30EC_U+30A4_U+30E4_U+30FC 1
 62
   179
420
  2234388
370
     9
100
AcDbVertex
100
AcDb2dVertex
 10
107.628228643064
 20
-139.4891446873499
 30
0.0
  0
SEQEND
  5
9E
330
9B
100
AcDbEntity
  8
_U+30EC_U+30A4_U+30E4_U+30FC 1
 62
   179
420
  2234388
370
     9
  0
POLYLINE
  5
9F
330
97
100
AcDbEntity
  8
_U+30EC_U+30A4_U+30E4_U+30FC 1
 62
   179
420
  2234388
370
     9
100
AcDb2dPolyline
 66
     1
 10
0.0
 20
0.0
 30
0.0
  0
VERTEX
  5
A0
330
9F
100
AcDbEntity
  8
_U+30EC_U+30A4_U+30E4_U+30FC 1
 62
   179
420
  2234388
370
     9
100
AcDbVertex
100
AcDb2dVertex
 10
91.16807656299748
 20
-139.4891446873499
 30
0.0
  0
VERTEX
  5
A1
330
9F
100
AcDbEntity
  8
_U+30EC_U+30A4_U+30E4_U+30FC 1
 62
   179
420
  2234388
370
     9
100
AcDbVertex
100
AcDb2dVertex
 10
108.6272952842424
 20
-139.4891446873499
 30
0.0
  0
SEQEND
  5
A2
330
9F
100
AcDbEntity
  8
_U+30EC_U+30A4_U+30E4_U+30FC 1
 62
   179
420
  2234388
370
     9
  0
INSERT
  5
A4
330
97
100
AcDbEntity
  8
_U+30EC_U+30A4_U+30E4_U+30FC 1
100
AcDbBlockReference
  2
block 7
 10
0.0
 20
0.0
 30
0.0
  0
ENDBLK
  5
9A
330
97
100
AcDbEntity
  8
0
100
AcDbBlockEnd
  0
BLOCK
  5
A5
330
A3
100
AcDbEntity
  8
0
100
AcDbBlockBegin
  2
block 7
 70
     0
 10
0.0
 20
0.0
 30
0.0
  3
block 7
  1

  0
SPLINE
  5
A7
330
A3
100
AcDbEntity
  8
_U+30EC_U+30A4_U+30E4_U+30FC 1
370
     0
100
AcDbSpline
210
0.0
220
0.0
230
1.0
 70
    11
 71
     3
 72
    62
 73
    58
 74
     0
 42
0.0000000001
 43
0.0000000001
 12
1.0
 22
0.0
 32
0.0
 13
1.0
 23
0.0
 33
0.0
 40
0.0
 40
0.0
 40
0.0
 40
0.0
 40
1.0
 40
1.0
 40
1.0
 40
2.0
 40
2.0
 40
2.0
 40
3.0
 40
3.0
 40
3.0
 40
4.0
 40
4.0
 40
4.0
 40
5.0
 40
5.0
 40
5.0
 40
6.0
 40
6.0
 40
6.0
 40
7.0
 40
7.0
 40
7.0
 40
8.0
 40
8.0
 40
8.0
 40
9.0
 40
9.0
 40
9.0
 40
10.0
 40
10.0
 40
10.0
 40
11.0
 40
11.0
 40
11.0
 40
12.0
 40
12.0
 40
12.0
 40
13.0
 40
13.0
 40
13.0
 40
14.0
 40
14.0
 40
14.0
 40
15.0
 40
15.0
 40
15.0
 40
16.0
 40
16.0
 40
16.0
 40
17.0
 40
17.0
 40
17.0
 40
18.0
 40
18.0
 40
18.0
 40
19.0
 40
19.0
 40
19.0
 40
19.0
 10
106.150971110615
 20
-137.997089266716
 30
0.0
 10
106.150971110615
 20
-138.0890733161722
 30
0.0
 10
106.129956028155
 20
-138.2992241407724
 30
0.0
 10
105.9439208719515
 20
-138.4194579732076
 30
0.0
 10
105.8316107591324
 20
-138.4907714497523
 30
0.0
 10
105.7323920091572
 20
-138.4949055643346
 30
0.0
 10
105.64764266022
 20
-138.4990396789169
 30
0.0
 10
105.64764266022
 20
-138.4990396789169
 30
0.0
 10
105.64764266022
 20
-138.2868217970255
 30
0.0
 10
105.64764266022
 20
-138.2868217970255
 30
0.0
 10
105.7217122131529
 20
-138.2847547397344
 30
0.0
 10
105.9563232156984
 20
-138.2747639628271
 30
0.0
 10
105.9563232156984
 20
-138.0012233812983
 30
0.0
 10
105.9563232156984
 20
-137.8685872051162
 30
0.0
 10
105.8867322868964
 20
-137.7218261374445
 30
0.0
 10
105.6583224562243
 20
-137.7218261374445
 30
0.0
 10
105.5418782288229
 20
-137.7218261374445
 30
0.0
 10
105.4933023824808
 20
-137.7586886591367
 30
0.0
 10
105.4616075040165
 20
-137.7890054994069
 30
0.0
 10
105.3875379510837
 20
-137.8606634855001
 30
0.0
 10
105.3747910977882
 20
-137.9726290887707
 30
0.0
 10
105.3747910977882
 20
-138.0256835592436
 30
0.0
 10
105.3747910977882
 20
-138.0442870748639
 30
0.0
 10
105.3768581550794
 20
-138.0787380297164
 30
0.0
 10
105.3809922696617
 20
-138.1052652649529
 30
0.0
 10
105.3809922696617
 20
-138.1052652649529
 30
0.0
 10
105.1863443747451
 20
-138.1052652649529
 30
0.0
 10
105.1863443747451
 20
-138.1052652649529
 30
0.0
 10
105.1928900561671
 20
-138.0687472528092
 30
0.0
 10
105.1949571134582
 20
-138.0277506165347
 30
0.0
 10
105.1949571134582
 20
-138.0215494446613
 30
0.0
 10
105.1949571134582
 20
-137.9585041972812
 30
0.0
 10
105.1735975214497
 20
-137.7666123787528
 30
0.0
 10
104.936919461613
 20
-137.7666123787528
 30
0.0
 10
104.7591525345741
 20
-137.7666123787528
 30
0.0
 10
104.7040310068101
 20
-137.8930473830615
 30
0.0
 10
104.7040310068101
 20
-137.9991563240072
 30
0.0
 10
104.7040310068101
 20
-138.2544378994642
 30
0.0
 10
104.936919461613
 20
-138.2623616190803
 30
0.0
 10
105.0085774477062
 20
-138.2664957336625
 30
0.0
 10
105.0085774477062
 20
-138.2664957336625
 30
0.0
 10
105.0085774477062
 20
-138.4625216667733
 30
0.0
 10
105.0085774477062
 20
-138.4625216667733
 30
0.0
 10
104.8838649911401
 20
-138.4542534376087
 30
0.0
 10
104.5073160546023
 20
-138.4277262023722
 30
0.0
 10
104.5073160546023
 20
-137.9870984898088
 30
0.0
 10
104.5073160546023
 20
-137.7707464933351
 30
0.0
 10
104.6344400780081
 20
-137.5382025480807
 30
0.0
 10
104.930373780191
 20
-137.5382025480807
 30
0.0
 10
105.116753445943
 20
-137.5382025480807
 30
0.0
 10
105.1990912280405
 20
-137.6298420879884
 30
0.0
 10
105.260413927678
 20
-137.7259602520269
 30
0.0
 10
105.28797469156
 20
-137.6667046096806
 30
0.0
 10
105.3682454163663
 20
-137.4913492494813
 30
0.0
 10
105.6455756029289
 20
-137.4913492494813
 30
0.0
 10
105.9838839795804
 20
-137.4913492494813
 30
0.0
 10
106.150971110615
 20
-137.7300943666091
 30
0.0
 10
106.150971110615
 20
-137.997089266716
 30
0.0
  0
HATCH
  5
A8
330
A3
100
AcDbEntity
  8
_U+30EC_U+30A4_U+30E4_U+30FC 1
 62
   179
420
  2234388
100
AcDbHatch
 10
0.0
 20
0.0
 30
0.0
210
0.0
220
0.0
230
1.0
  2
SOLID
 70
     1
 71
     0
 91
        1
 92
        1
 93
        1
 72
     4
 94
        3
 73
     0
 74
     1
 95
       62
 96
       58
 40
0.0
 40
0.0
 40
0.0
 40
0.0
 40
1.0
 40
1.0
 40
1.0
 40
2.0
 40
2.0
 40
2.0
 40
3.0
 40
3.0
 40
3.0
 40
4.0
 40
4.0
 40
4.0
 40
5.0
 40
5.0
 40
5.0
 40
6.0
 40
6.0
 40
6.0
 40
7.0
 40
7.0
 40
7.0
 40
8.0
 40
8.0
 40
8.0
 40
9.0
 40
9.0
 40
9.0
 40
10.0
 40
10.0
 40
10.0
 40
11.0
 40
11.0
 40
11.0
 40
12.0
 40
12.0
 40
12.0
 40
13.0
 40
13.0
 40
13.0
 40
14.0
 40
14.0
 40
14.0
 40
15.0
 40
15.0
 40
15.0
 40
16.0
 40
16.0
 40
16.0
 40
17.0
 40
17.0
 40
17.0
 40
18.0
 40
18.0
 40
18.0
 40
19.0
 40
19.0
 40
19.0
 40
19.0
 10
106.150971110615
 20
-137.997089266716
 10
106.150971110615
 20
-138.0890733161722
 10
106.129956028155
 20
-138.2992241407724
 10
105.9439208719515
 20
-138.4194579732076
 10
105.8316107591324
 20
-138.4907714497523
 10
105.7323920091572
 20
-138.4949055643346
 10
105.64764266022
 20
-138.4990396789169
 10
105.64764266022
 20
-138.4990396789169
 10
105.64764266022
 20
-138.2868217970255
 10
105.64764266022
 20
-138.2868217970255
 10
105.7217122131529
 20
-138.2847547397344
 10
105.9563232156984
 20
-138.2747639628271
 10
105.9563232156984
 20
-138.0012233812983
 10
105.9563232156984
 20
-137.8685872051162
 10
105.8867322868964
 20
-137.7218261374445
 10
105.6583224562243
 20
-137.7218261374445
 10
105.5418782288229
 20
-137.7218261374445
 10
105.4933023824808
 20
-137.7586886591367
 10
105.4616075040165
 20
-137.7890054994069
 10
105.3875379510837
 20
-137.8606634855001
 10
105.3747910977882
 20
-137.9726290887707
 10
105.3747910977882
 20
-138.0256835592436
 10
105.3747910977882
 20
-138.0442870748639
 10
105.3768581550794
 20
-138.0787380297164
 10
105.3809922696617
 20
-138.1052652649529
 10
105.3809922696617
 20
-138.1052652649529
 10
105.1863443747451
 20
-138.1052652649529
 10
105.1863443747451
 20
-138.1052652649529
 10
105.1928900561671
 20
-138.0687472528092
 10
105.1949571134582
 20
-138.0277506165347
 10
105.1949571134582
 20
-138.0215494446613
 10
105.1949571134582
 20
-137.9585041972812
 10
105.1735975214497
 20
-137.7666123787528
 10
104.936919461613
 20
-137.7666123787528
 10
104.7591525345741
 20
-137.7666123787528
 10
104.7040310068101
 20
-137.8930473830615
 10
104.7040310068101
 20
-137.9991563240072
 10
104.7040310068101
 20
-138.2544378994642
 10
104.936919461613
 20
-138.2623616190803
 10
105.0085774477062
 20
-138.2664957336625
 10
105.0085774477062
 20
-138.2664957336625
 10
105.0085774477062
 20
-138.4625216667733
 10
105.0085774477062
 20
-138.4625216667733
 10
104.8838649911401
 20
-138.4542534376087
 10
104.5073160546023
 20
-138.4277262023722
 10
104.5073160546023
 20
-137.9870984898088
 10
104.5073160546023
 20
-137.7707464933351
 10
104.6344400780081
 20
-137.5382025480807
 10
104.930373780191
 20
-137.5382025480807
 10
105.116753445943
 20
-137.5382025480807
 10
105.1990912280405
 20
-137.6298420879884
 10
105.260413927678
 20
-137.7259602520269
 10
105.28797469156
 20
-137.6667046096806
 10
105.3682454163663
 20
-137.4913492494813
 10
105.6455756029289
 20
-137.4913492494813
 10
105.9838839795804
 20
-137.4913492494813
 10
106.150971110615
 20
-137.7300943666091
 10
106.150971110615
 20
-137.997089266716
 97
        0
 97
        0
 75
     2
 76
     1
 98
        0
  0
ENDBLK
  5
A6
330
A3
100
AcDbEntity
  8
0
100
AcDbBlockEnd
  0
BLOCK
  5
AB
330
A9
100
AcDbEntity
  8
0
100
AcDbBlockBegin
  2
block 8
 70
     0
 10
0.0
 20
0.0
 30
0.0
  3
block 8
  1

  0
POLYLINE
  5
AD
330
A9
100
AcDbEntity
  8
_U+30EC_U+30A4_U+30E4_U+30FC 1
 62
   179
420
  2234388
370
     9
100
AcDb2dPolyline
 66
     1
 10
0.0
 20
0.0
 30
0.0
  0
VERTEX
  5
AE
330
AD
100
AcDbEntity
  8
_U+30EC_U+30A4_U+30E4_U+30FC 1
 62
   179
420
  2234388
370
     9
100
AcDbVertex
100
AcDb2dVertex
 10
73.62771895493373
 20
-143.4889038530167
 30
0.0
  0
VERTEX
  5
AF
330
AD
100
AcDbEntity
  8
_U+30EC_U+30A4_U+30E4_U+30FC 1
 62
   179
420
  2234388
370
     9
100
AcDbVertex
100
AcDb2dVertex
 10
88.62800831117643
 20
-143.4889038530167
 30
0.0
  0
SEQEND
  5
B0
330
AD
100
AcDbEntity
  8
_U+30EC_U+30A4_U+30E4_U+30FC 1
 62
   179
420
  2234388
370
     9
  0
POLYLINE
  5
B1
330
A9
100
AcDbEntity
  8
_U+30EC_U+30A4_U+30E4_U+30FC 1
 62
   179
420
  2234388
370
     9
100
AcDb2dPolyline
 66
     1
 10
0.0
 20
0.0
 30
0.0
  0
VERTEX
  5
B2
330
B1
100
AcDbEntity
  8
_U+30EC_U+30A4_U+30E4_U+30FC 1
 62
   179
420
  2234388
370
     9
100
AcDbVertex
100
AcDb2dVertex
 10
73.62771895493373
 20
-142.0288977422705
 30
0.0
  0
VERTEX
  5
B3
330
B1
100
AcDbEntity
  8
_U+30EC_U+30A4_U+30E4_U+30FC 1
 62
   179
420
  2234388
370
     9
100
AcDbVertex
100
AcDb2dVertex
 10
73.62771895493373
 20
-144.4886760749886
 30
0.0
  0
SEQEND
  5
B4
330
B1
100
AcDbEntity
  8
_U+30EC_U+30A4_U+30E4_U+30FC 1
 62
   179
420
  2234388
370
     9
  0
POLYLINE
  5
B5
330
A9
100
AcDbEntity
  8
_U+30EC_U+30A4_U+30E4_U+30FC 1
 62
   179
420
  2234388
370
     9
100
AcDb2dPolyline
 66
     1
 10
0.0
 20
0.0
 30
0.0
  0
VERTEX
  5
B6
330
B5
100
AcDbEntity
  8
_U+30EC_U+30A4_U+30E4_U+30FC 1
 62
   179
420
  2234388
370
     9
100
AcDbVertex
100
AcDb2dVertex
 10
88.62800831117643
 20
-142.0288977422705
 30
0.0
  0
VERTEX
  5
B7
330
B5
100
AcDbEntity
  8
_U+30EC_U+30A4_U+30E4_U+30FC 1
 62
   179
420
  2234388
370
     9
100
AcDbVertex
100
AcDb2dVertex
 10
88.62800831117643
 20
-144.4886760749886
 30
0.0
  0
SEQEND
  5
B8
330
B5
100
AcDbEntity
  8
_U+30EC_U+30A4_U+30E4_U+30FC 1
 62
   179
420
  2234388
370
     9
  0
INSERT
  5
BA
330
A9
100
AcDbEntity
  8
_U+30EC_U+30A4_U+30E4_U+30FC 1
100
AcDbBlockReference
  2
block 9
 10
0.0
 20
0.0
 30
0.0
  0
ENDBLK
  5
AC
330
A9
100
AcDbEntity
  8
0
100
AcDbBlockEnd
  0
BLOCK
  5
BB
330
B9
100
AcDbEntity
  8
0
100
AcDbBlockBegin
  2
block 9
 70
     0
 10
0.0
 20
0.0
 30
0.0
  3
block 9
  1

  0
SPLINE
  5
BD
330
B9
100
AcDbEntity
  8
_U+30EC_U+30A4_U+30E4_U+30FC 1
370
     0
100
AcDbSpline
210
0.0
220
0.0
230
1.0
 70
    11
 71
     3
 72
    26
 73
    22
 74
     0
 42
0.0000000001
 43
0.0000000001
 12
1.0
 22
0.0
 32
0.0
 13
1.0
 23
0.0
 33
0.0
 40
0.0
 40
0.0
 40
0.0
 40
0.0
 40
1.0
 40
1.0
 40
1.0
 40
2.0
 40
2.0
 40
2.0
 40
3.0
 40
3.0
 40
3.0
 40
4.0
 40
4.0
 40
4.0
 40
5.0
 40
5.0
 40
5.0
 40
6.0
 40
6.0
 40
6.0
 40
7.0
 40
7.0
 40
7.0
 40
7.0
 10
80.51480982145117
 20
-142.8429605762684
 30
0.0
 10
80.51480982145117
 20
-142.8429605762684
 30
0.0
 10
80.51480982145117
 20
-141.7388074732459
 30
0.0
 10
80.51480982145117
 20
-141.7388074732459
 30
0.0
 10
80.51480982145117
 20
-141.7388074732459
 30
0.0
 10
80.19665525338834
 20
-141.7388074732459
 30
0.0
 10
80.19665525338834
 20
-141.7388074732459
 30
0.0
 10
80.19665525338834
 20
-141.7388074732459
 30
0.0
 10
80.19665525338834
 20
-141.5906683673801
 30
0.0
 10
80.19665525338834
 20
-141.5906683673801
 30
0.0
 10
80.51687687874231
 20
-141.5758544567935
 30
0.0
 10
80.56183537482482
 20
-141.4129014403412
 30
0.0
 10
80.59025741257814
 20
-141.2985242702309
 30
0.0
 10
80.59025741257814
 20
-141.2985242702309
 30
0.0
 10
80.73116181792486
 20
-141.2985242702309
 30
0.0
 10
80.73116181792486
 20
-141.2985242702309
 30
0.0
 10
80.73116181792486
 20
-141.2985242702309
 30
0.0
 10
80.73116181792486
 20
-142.8429605762684
 30
0.0
 10
80.73116181792486
 20
-142.8429605762684
 30
0.0
 10
80.73116181792486
 20
-142.8429605762684
 30
0.0
 10
80.51480982145117
 20
-142.8429605762684
 30
0.0
 10
80.51480982145117
 20
-142.8429605762684
 30
0.0
  0
HATCH
  5
BE
330
B9
100
AcDbEntity
  8
_U+30EC_U+30A4_U+30E4_U+30FC 1
 62
   179
420
  2234388
100
AcDbHatch
 10
0.0
 20
0.0
 30
0.0
210
0.0
220
0.0
230
1.0
  2
SOLID
 70
     1
 71
     0
 91
        1
 92
        1
 93
        1
 72
     4
 94
        3
 73
     0
 74
     1
 95
       26
 96
       22
 40
0.0
 40
0.0
 40
0.0
 40
0.0
 40
1.0
 40
1.0
 40
1.0
 40
2.0
 40
2.0
 40
2.0
 40
3.0
 40
3.0
 40
3.0
 40
4.0
 40
4.0
 40
4.0
 40
5.0
 40
5.0
 40
5.0
 40
6.0
 40
6.0
 40
6.0
 40
7.0
 40
7.0
 40
7.0
 40
7.0
 10
80.51480982145117
 20
-142.8429605762684
 10
80.51480982145117
 20
-142.8429605762684
 10
80.51480982145117
 20
-141.7388074732459
 10
80.51480982145117
 20
-141.7388074732459
 10
80.51480982145117
 20
-141.7388074732459
 10
80.19665525338834
 20
-141.7388074732459
 10
80.19665525338834
 20
-141.7388074732459
 10
80.19665525338834
 20
-141.7388074732459
 10
80.19665525338834
 20
-141.5906683673801
 10
80.19665525338834
 20
-141.5906683673801
 10
80.51687687874231
 20
-141.5758544567935
 10
80.56183537482482
 20
-141.4129014403412
 10
80.59025741257814
 20
-141.2985242702309
 10
80.59025741257814
 20
-141.2985242702309
 10
80.73116181792486
 20
-141.2985242702309
 10
80.73116181792486
 20
-141.2985242702309
 10
80.73116181792486
 20
-141.2985242702309
 10
80.73116181792486
 20
-142.8429605762684
 10
80.73116181792486
 20
-142.8429605762684
 10
80.73116181792486
 20
-142.8429605762684
 10
80.51480982145117
 20
-142.8429605762684
 10
80.51480982145117
 20
-142.8429605762684
 97
        0
 97
        0
 75
     2
 76
     1
 98
        0
  0
SPLINE
  5
BF
330
B9
100
AcDbEntity
  8
_U+30EC_U+30A4_U+30E4_U+30FC 1
370
     0
100
AcDbSpline
210
0.0
220
0.0
230
1.0
 70
    11
 71
     3
 72
    53
 73
    49
 74
     0
 42
0.0000000001
 43
0.0000000001
 12
1.0
 22
0.0
 32
0.0
 13
1.0
 23
0.0
 33
0.0
 40
0.0
 40
0.0
 40
0.0
 40
0.0
 40
1.0
 40
1.0
 40
1.0
 40
2.0
 40
2.0
 40
2.0
 40
3.0
 40
3.0
 40
3.0
 40
4.0
 40
4.0
 40
4.0
 40
5.0
 40
5.0
 40
5.0
 40
6.0
 40
6.0
 40
6.0
 40
7.0
 40
7.0
 40
7.0
 40
8.0
 40
8.0
 40
8.0
 40
9.0
 40
9.0
 40
9.0
 40
10.0
 40
10.0
 40
10.0
 40
11.0
 40
11.0
 40
11.0
 40
12.0
 40
12.0
 40
12.0
 40
13.0
 40
13.0
 40
13.0
 40
14.0
 40
14.0
 40
14.0
 40
15.0
 40
15.0
 40
15.0
 40
16.0
 40
16.0
 40
16.0
 40
16.0
 10
81.67684052862593
 20
-142.8936034799016
 30
0.0
 10
81.60139293749896
 20
-142.8936034799016
 30
0.0
 10
81.5033799709436
 20
-142.8767225120239
 30
0.0
 10
81.40553925916251
 20
-142.8133327550953
 30
0.0
 10
81.23827987335363
 20
-142.7034342091158
 30
0.0
 10
81.21778155521639
 20
-142.5721760711278
 30
0.0
 10
81.19952254914456
 20
-142.4643445824395
 30
0.0
 10
81.19952254914456
 20
-142.4643445824395
 30
0.0
 10
81.41363523355284
 20
-142.4643445824395
 30
0.0
 10
81.41363523355284
 20
-142.4643445824395
 30
0.0
 10
81.4666897040257
 20
-142.6631265919384
 30
0.0
 10
81.58916284852633
 20
-142.6927544131115
 30
0.0
 10
81.67890758591709
 20
-142.6927544131115
 30
0.0
 10
81.81343856461609
 20
-142.6927544131115
 30
0.0
 10
81.960371887062
 20
-142.5931911535878
 30
0.0
 10
81.960371887062
 20
-142.3606472083335
 30
0.0
 10
81.960371887062
 20
-142.1046766137794
 30
0.0
 10
81.78708358415393
 20
-142.0347411754288
 30
0.0
 10
81.67063935675249
 20
-142.0347411754288
 30
0.0
 10
81.64015026170802
 20
-142.0347411754288
 30
0.0
 10
81.5033799709436
 20
-142.0347411754288
 30
0.0
 10
81.41776934813514
 20
-142.1639322561257
 30
0.0
 10
81.41776934813514
 20
-142.1639322561257
 30
0.0
 10
81.24844290503512
 20
-142.1449842309568
 30
0.0
 10
81.24844290503512
 20
-142.1449842309568
 30
0.0
 10
81.24844290503512
 20
-142.1449842309568
 30
0.0
 10
81.3647148776623
 20
-141.2985242702309
 30
0.0
 10
81.3647148776623
 20
-141.2985242702309
 30
0.0
 10
81.3647148776623
 20
-141.2985242702309
 30
0.0
 10
82.11540118389824
 20
-141.2985242702309
 30
0.0
 10
82.11540118389824
 20
-141.2985242702309
 30
0.0
 10
82.11540118389824
 20
-141.2985242702309
 30
0.0
 10
82.11540118389824
 20
-141.4931721651475
 30
0.0
 10
82.11540118389824
 20
-141.4931721651475
 30
0.0
 10
82.11540118389824
 20
-141.4931721651475
 30
0.0
 10
81.52181123178968
 20
-141.4931721651475
 30
0.0
 10
81.52181123178968
 20
-141.4931721651475
 30
0.0
 10
81.52181123178968
 20
-141.4931721651475
 30
0.0
 10
81.45859372963535
 20
-141.9162298907362
 30
0.0
 10
81.45859372963535
 20
-141.9162298907362
 30
0.0
 10
81.51767711720738
 20
-141.8824679549808
 30
0.0
 10
81.59725882291666
 20
-141.8421603378034
 30
0.0
 10
81.71146373825269
 20
-141.8421603378034
 30
0.0
 10
81.95641002725395
 20
-141.8421603378034
 30
0.0
 10
82.18481985792602
 20
-142.0285400035554
 30
0.0
 10
82.18481985792602
 20
-142.3416991831646
 30
0.0
 10
82.18481985792602
 20
-142.6589924773561
 30
0.0
 10
81.9686401162266
 20
-142.8936034799016
 30
0.0
 10
81.67684052862593
 20
-142.8936034799016
 30
0.0
  0
HATCH
  5
C0
330
B9
100
AcDbEntity
  8
_U+30EC_U+30A4_U+30E4_U+30FC 1
 62
   179
420
  2234388
100
AcDbHatch
 10
0.0
 20
0.0
 30
0.0
210
0.0
220
0.0
230
1.0
  2
SOLID
 70
     1
 71
     0
 91
        1
 92
        1
 93
        1
 72
     4
 94
        3
 73
     0
 74
     1
 95
       53
 96
       49
 40
0.0
 40
0.0
 40
0.0
 40
0.0
 40
1.0
 40
1.0
 40
1.0
 40
2.0
 40
2.0
 40
2.0
 40
3.0
 40
3.0
 40
3.0
 40
4.0
 40
4.0
 40
4.0
 40
5.0
 40
5.0
 40
5.0
 40
6.0
 40
6.0
 40
6.0
 40
7.0
 40
7.0
 40
7.0
 40
8.0
 40
8.0
 40
8.0
 40
9.0
 40
9.0
 40
9.0
 40
10.0
 40
10.0
 40
10.0
 40
11.0
 40
11.0
 40
11.0
 40
12.0
 40
12.0
 40
12.0
 40
13.0
 40
13.0
 40
13.0
 40
14.0
 40
14.0
 40
14.0
 40
15.0
 40
15.0
 40
15.0
 40
16.0
 40
16.0
 40
16.0
 40
16.0
 10
81.67684052862593
 20
-142.8936034799016
 10
81.60139293749896
 20
-142.8936034799016
 10
81.5033799709436
 20
-142.8767225120239
 10
81.40553925916251
 20
-142.8133327550953
 10
81.23827987335363
 20
-142.7034342091158
 10
81.21778155521639
 20
-142.5721760711278
 10
81.19952254914456
 20
-142.4643445824395
 10
81.19952254914456
 20
-142.4643445824395
 10
81.41363523355284
 20
-142.4643445824395
 10
81.41363523355284
 20
-142.4643445824395
 10
81.4666897040257
 20
-142.6631265919384
 10
81.58916284852633
 20
-142.6927544131115
 10
81.67890758591709
 20
-142.6927544131115
 10
81.81343856461609
 20
-142.6927544131115
 10
81.960371887062
 20
-142.5931911535878
 10
81.960371887062
 20
-142.3606472083335
 10
81.960371887062
 20
-142.1046766137794
 10
81.78708358415393
 20
-142.0347411754288
 10
81.67063935675249
 20
-142.0347411754288
 10
81.64015026170802
 20
-142.0347411754288
 10
81.5033799709436
 20
-142.0347411754288
 10
81.41776934813514
 20
-142.1639322561257
 10
81.41776934813514
 20
-142.1639322561257
 10
81.24844290503512
 20
-142.1449842309568
 10
81.24844290503512
 20
-142.1449842309568
 10
81.24844290503512
 20
-142.1449842309568
 10
81.3647148776623
 20
-141.2985242702309
 10
81.3647148776623
 20
-141.2985242702309
 10
81.3647148776623
 20
-141.2985242702309
 10
82.11540118389824
 20
-141.2985242702309
 10
82.11540118389824
 20
-141.2985242702309
 10
82.11540118389824
 20
-141.2985242702309
 10
82.11540118389824
 20
-141.4931721651475
 10
82.11540118389824
 20
-141.4931721651475
 10
82.11540118389824
 20
-141.4931721651475
 10
81.52181123178968
 20
-141.4931721651475
 10
81.52181123178968
 20
-141.4931721651475
 10
81.52181123178968
 20
-141.4931721651475
 10
81.45859372963535
 20
-141.9162298907362
 10
81.45859372963535
 20
-141.9162298907362
 10
81.51767711720738
 20
-141.8824679549808
 10
81.59725882291666
 20
-141.8421603378034
 10
81.71146373825269
 20
-141.8421603378034
 10
81.95641002725395
 20
-141.8421603378034
 10
82.18481985792602
 20
-142.0285400035554
 10
82.18481985792602
 20
-142.3416991831646
 10
82.18481985792602
 20
-142.6589924773561
 10
81.9686401162266
 20
-142.8936034799016
 10
81.67684052862593
 20
-142.8936034799016
 97
        0
 97
        0
 75
     2
 76
     1
 98
        0
  0
ENDBLK
  5
BC
330
B9
100
AcDbEntity
  8
0
100
AcDbBlockEnd
  0
BLOCK
  5
C3
330
C1
100
AcDbEntity
  8
0
100
AcDbBlockBegin
  2
block 10
 70
     0
 10
0.0
 20
0.0
 30
0.0
  3
block 10
  1

  0
POLYLINE
  5
C5
330
C1
100
AcDbEntity
  8
_U+30EC_U+30A4_U+30E4_U+30FC 1
 62
   179
420
  2234388
370
     9
100
AcDb2dPolyline
 66
     1
 10
0.0
 20
0.0
 30
0.0
  0
VERTEX
  5
C6
330
C5
100
AcDbEntity
  8
_U+30EC_U+30A4_U+30E4_U+30FC 1
 62
   179
420
  2234388
370
     9
100
AcDbVertex
100
AcDb2dVertex
 10
73.62771895493373
 20
-115.9889588598915
 30
0.0
  0
VERTEX
  5
C7
330
C5
100
AcDbEntity
  8
_U+30EC_U+30A4_U+30E4_U+30FC 1
 62
   179
420
  2234388
370
     9
100
AcDbVertex
100
AcDb2dVertex
 10
103.6277666407596
 20
-115.9889588598915
 30
0.0
  0
SEQEND
  5
C8
330
C5
100
AcDbEntity
  8
_U+30EC_U+30A4_U+30E4_U+30FC 1
 62
   179
420
  2234388
370
     9
  0
POLYLINE
  5
C9
330
C1
100
AcDbEntity
  8
_U+30EC_U+30A4_U+30E4_U+30FC 1
 62
   179
420
  2234388
370
     9
100
AcDb2dPolyline
 66
     1
 10
0.0
 20
0.0
 30
0.0
  0
VERTEX
  5
CA
330
C9
100
AcDbEntity
  8
_U+30EC_U+30A4_U+30E4_U+30FC 1
 62
   179
420
  2234388
370
     9
100
AcDbVertex
100
AcDb2dVertex
 10
73.62771895493373
 20
-117.4490002484156
 30
0.0
  0
VERTEX
  5
CB
330
C9
100
AcDbEntity
  8
_U+30EC_U+30A4_U+30E4_U+30FC 1
 62
   179
420
  2234388
370
     9
100
AcDbVertex
100
AcDb2dVertex
 10
73.62771895493373
 20
-114.9891866379193
 30
0.0
  0
SEQEND
  5
CC
330
C9
100
AcDbEntity
  8
_U+30EC_U+30A4_U+30E4_U+30FC 1
 62
   179
420
  2234388
370
     9
  0
POLYLINE
  5
CD
330
C1
100
AcDbEntity
  8
_U+30EC_U+30A4_U+30E4_U+30FC 1
 62
   179
420
  2234388
370
     9
100
AcDb2dPolyline
 66
     1
 10
0.0
 20
0.0
 30
0.0
  0
VERTEX
  5
CE
330
CD
100
AcDbEntity
  8
_U+30EC_U+30A4_U+30E4_U+30FC 1
 62
   179
420
  2234388
370
     9
100
AcDbVertex
100
AcDb2dVertex
 10
103.6277666407596
 20
-117.4490002484156
 30
0.0
  0
VERTEX
  5
CF
330
CD
100
AcDbEntity
  8
_U+30EC_U+30A4_U+30E4_U+30FC 1
 62
   179
420
  2234388
370
     9
100
AcDbVertex
100
AcDb2dVertex
 10
103.6277666407596
 20
-114.9891866379193
 30
0.0
  0
SEQEND
  5
D0
330
CD
100
AcDbEntity
  8
_U+30EC_U+30A4_U+30E4_U+30FC 1
 62
   179
420
  2234388
370
     9
  0
INSERT
  5
D2
330
C1
100
AcDbEntity
  8
_U+30EC_U+30A4_U+30E4_U+30FC 1
100
AcDbBlockReference
  2
block 11
 10
0.0
 20
0.0
 30
0.0
  0
ENDBLK
  5
C4
330
C1
100
AcDbEntity
  8
0
100
AcDbBlockEnd
  0
BLOCK
  5
D3
330
D1
100
AcDbEntity
  8
0
100
AcDbBlockBegin
  2
block 11
 70
     0
 10
0.0
 20
0.0
 30
0.0
  3
block 11
  1

  0
SPLINE
  5
D5
330
D1
100
AcDbEntity
  8
_U+30EC_U+30A4_U+30E4_U+30FC 1
370
     0
100
AcDbSpline
210
0.0
220
0.0
230
1.0
 70
    11
 71
     3
 72
    62
 73
    58
 74
     0
 42
0.0000000001
 43
0.0000000001
 12
1.0
 22
0.0
 32
0.0
 13
1.0
 23
0.0
 33
0.0
 40
0.0
 40
0.0
 40
0.0
 40
0.0
 40
1.0
 40
1.0
 40
1.0
 40
2.0
 40
2.0
 40
2.0
 40
3.0
 40
3.0
 40
3.0
 40
4.0
 40
4.0
 40
4.0
 40
5.0
 40
5.0
 40
5.0
 40
6.0
 40
6.0
 40
6.0
 40
7.0
 40
7.0
 40
7.0
 40
8.0
 40
8.0
 40
8.0
 40
9.0
 40
9.0
 40
9.0
 40
10.0
 40
10.0
 40
10.0
 40
11.0
 40
11.0
 40
11.0
 40
12.0
 40
12.0
 40
12.0
 40
13.0
 40
13.0
 40
13.0
 40
14.0
 40
14.0
 40
14.0
 40
15.0
 40
15.0
 40
15.0
 40
16.0
 40
16.0
 40
16.0
 40
17.0
 40
17.0
 40
17.0
 40
18.0
 40
18.0
 40
18.0
 40
19.0
 40
19.0
 40
19.0
 40
19.0
 10
88.05354001704912
 20
-115.3936455332176
 30
0.0
 10
87.96155596759294
 20
-115.3936455332176
 30
0.0
 10
87.75140514299271
 20
-115.3724581959833
 30
0.0
 10
87.63117131055749
 20
-115.1862507850055
 30
0.0
 10
87.55951332446429
 20
-115.0741129269606
 30
0.0
 10
87.55572371943052
 20
-114.9747219222112
 30
0.0
 10
87.55158960484822
 20
-114.8901448280483
 30
0.0
 10
87.55158960484822
 20
-114.8901448280483
 30
0.0
 10
87.76380748673961
 20
-114.8901448280483
 30
0.0
 10
87.76380748673961
 20
-114.8901448280483
 30
0.0
 10
87.76587454403075
 20
-114.9642143809812
 30
0.0
 10
87.77586532093798
 20
-115.198997638301
 30
0.0
 10
88.04940590246682
 20
-115.198997638301
 30
0.0
 10
88.18204207864893
 20
-115.198997638301
 30
0.0
 10
88.32880314632058
 20
-115.1292344547246
 30
0.0
 10
88.32880314632058
 20
-114.9006523692783
 30
0.0
 10
88.32880314632058
 20
-114.7843803966511
 30
0.0
 10
88.29194062462841
 20
-114.7356322955348
 30
0.0
 10
88.2616237843582
 20
-114.7039374170705
 30
0.0
 10
88.189965798265
 20
-114.6298678641377
 30
0.0
 10
88.07800019499439
 20
-114.6172932656165
 30
0.0
 10
88.02494572452154
 20
-114.6172932656165
 30
0.0
 10
88.0063422089012
 20
-114.6172932656165
 30
0.0
 10
87.9718912540487
 20
-114.6193603229077
 30
0.0
 10
87.94536401881227
 20
-114.62349443749
 30
0.0
 10
87.94536401881227
 20
-114.62349443749
 30
0.0
 10
87.94536401881227
 20
-114.4288465425734
 30
0.0
 10
87.94536401881227
 20
-114.4288465425734
 30
0.0
 10
87.98188203095592
 20
-114.4352199692211
 30
0.0
 10
88.0228786672304
 20
-114.4374592812865
 30
0.0
 10
88.02907983910384
 20
-114.4374592812865
 30
0.0
 10
88.09212508648392
 20
-114.4374592812865
 30
0.0
 10
88.28401690501234
 20
-114.4162719440522
 30
0.0
 10
88.28401690501234
 20
-114.179249374667
 30
0.0
 10
88.28401690501234
 20
-114.0016547024024
 30
0.0
 10
88.15758190070366
 20
-113.9465331746384
 30
0.0
 10
88.05147295975797
 20
-113.9465331746384
 30
0.0
 10
87.79619138430095
 20
-113.9465331746384
 30
0.0
 10
87.78826766468488
 20
-114.179249374667
 30
0.0
 10
87.78413355010258
 20
-114.2512518703087
 30
0.0
 10
87.78413355010258
 20
-114.2512518703087
 30
0.0
 10
87.58810761699186
 20
-114.2512518703087
 30
0.0
 10
87.58810761699186
 20
-114.2512518703087
 30
0.0
 10
87.59637584615646
 20
-114.1263671589684
 30
0.0
 10
87.62290308139289
 20
-113.7498182224306
 30
0.0
 10
88.06353079395635
 20
-113.7498182224306
 30
0.0
 10
88.27988279043004
 20
-113.7498182224306
 30
0.0
 10
88.5124267356844
 20
-113.8767699910621
 30
0.0
 10
88.5124267356844
 20
-114.1728759480193
 30
0.0
 10
88.5124267356844
 20
-114.359083358997
 30
0.0
 10
88.42078719577675
 20
-114.4415933958688
 30
0.0
 10
88.32466903173828
 20
-114.5029160955062
 30
0.0
 10
88.38392467408458
 20
-114.5304768593882
 30
0.0
 10
88.5592800342838
 20
-114.6109198389688
 30
0.0
 10
88.5592800342838
 20
-114.8880777707571
 30
0.0
 10
88.5592800342838
 20
-115.2265584021829
 30
0.0
 10
88.32053491715598
 20
-115.3936455332176
 30
0.0
 10
88.05354001704912
 20
-115.3936455332176
 30
0.0
  0
HATCH
  5
D6
330
D1
100
AcDbEntity
  8
_U+30EC_U+30A4_U+30E4_U+30FC 1
 62
   179
420
  2234388
100
AcDbHatch
 10
0.0
 20
0.0
 30
0.0
210
0.0
220
0.0
230
1.0
  2
SOLID
 70
     1
 71
     0
 91
        1
 92
        1
 93
        1
 72
     4
 94
        3
 73
     0
 74
     1
 95
       62
 96
       58
 40
0.0
 40
0.0
 40
0.0
 40
0.0
 40
1.0
 40
1.0
 40
1.0
 40
2.0
 40
2.0
 40
2.0
 40
3.0
 40
3.0
 40
3.0
 40
4.0
 40
4.0
 40
4.0
 40
5.0
 40
5.0
 40
5.0
 40
6.0
 40
6.0
 40
6.0
 40
7.0
 40
7.0
 40
7.0
 40
8.0
 40
8.0
 40
8.0
 40
9.0
 40
9.0
 40
9.0
 40
10.0
 40
10.0
 40
10.0
 40
11.0
 40
11.0
 40
11.0
 40
12.0
 40
12.0
 40
12.0
 40
13.0
 40
13.0
 40
13.0
 40
14.0
 40
14.0
 40
14.0
 40
15.0
 40
15.0
 40
15.0
 40
16.0
 40
16.0
 40
16.0
 40
17.0
 40
17.0
 40
17.0
 40
18.0
 40
18.0
 40
18.0
 40
19.0
 40
19.0
 40
19.0
 40
19.0
 10
88.05354001704912
 20
-115.3936455332176
 10
87.96155596759294
 20
-115.3936455332176
 10
87.75140514299271
 20
-115.3724581959833
 10
87.63117131055749
 20
-115.1862507850055
 10
87.55951332446429
 20
-115.0741129269606
 10
87.55572371943052
 20
-114.9747219222112
 10
87.55158960484822
 20
-114.8901448280483
 10
87.55158960484822
 20
-114.8901448280483
 10
87.76380748673961
 20
-114.8901448280483
 10
87.76380748673961
 20
-114.8901448280483
 10
87.76587454403075
 20
-114.9642143809812
 10
87.77586532093798
 20
-115.198997638301
 10
88.04940590246682
 20
-115.198997638301
 10
88.18204207864893
 20
-115.198997638301
 10
88.32880314632058
 20
-115.1292344547246
 10
88.32880314632058
 20
-114.9006523692783
 10
88.32880314632058
 20
-114.7843803966511
 10
88.29194062462841
 20
-114.7356322955348
 10
88.2616237843582
 20
-114.7039374170705
 10
88.189965798265
 20
-114.6298678641377
 10
88.07800019499439
 20
-114.6172932656165
 10
88.02494572452154
 20
-114.6172932656165
 10
88.0063422089012
 20
-114.6172932656165
 10
87.9718912540487
 20
-114.6193603229077
 10
87.94536401881227
 20
-114.62349443749
 10
87.94536401881227
 20
-114.62349443749
 10
87.94536401881227
 20
-114.4288465425734
 10
87.94536401881227
 20
-114.4288465425734
 10
87.98188203095592
 20
-114.4352199692211
 10
88.0228786672304
 20
-114.4374592812865
 10
88.02907983910384
 20
-114.4374592812865
 10
88.09212508648392
 20
-114.4374592812865
 10
88.28401690501234
 20
-114.4162719440522
 10
88.28401690501234
 20
-114.179249374667
 10
88.28401690501234
 20
-114.0016547024024
 10
88.15758190070366
 20
-113.9465331746384
 10
88.05147295975797
 20
-113.9465331746384
 10
87.79619138430095
 20
-113.9465331746384
 10
87.78826766468488
 20
-114.179249374667
 10
87.78413355010258
 20
-114.2512518703087
 10
87.78413355010258
 20
-114.2512518703087
 10
87.58810761699186
 20
-114.2512518703087
 10
87.58810761699186
 20
-114.2512518703087
 10
87.59637584615646
 20
-114.1263671589684
 10
87.62290308139289
 20
-113.7498182224306
 10
88.06353079395635
 20
-113.7498182224306
 10
88.27988279043004
 20
-113.7498182224306
 10
88.5124267356844
 20
-113.8767699910621
 10
88.5124267356844
 20
-114.1728759480193
 10
88.5124267356844
 20
-114.359083358997
 10
88.42078719577675
 20
-114.4415933958688
 10
88.32466903173828
 20
-114.5029160955062
 10
88.38392467408458
 20
-114.5304768593882
 10
88.5592800342838
 20
-114.6109198389688
 10
88.5592800342838
 20
-114.8880777707571
 10
88.5592800342838
 20
-115.2265584021829
 10
88.32053491715598
 20
-115.3936455332176
 10
88.05354001704912
 20
-115.3936455332176
 97
        0
 97
        0
 75
     2
 76
     1
 98
        0
  0
SPLINE
  5
D7
330
D1
100
AcDbEntity
  8
_U+30EC_U+30A4_U+30E4_U+30FC 1
370
     0
100
AcDbSpline
210
0.0
220
0.0
230
1.0
 70
    11
 71
     3
 72
    29
 73
    25
 74
     0
 42
0.0000000001
 43
0.0000000001
 12
1.0
 22
0.0
 32
0.0
 13
1.0
 23
0.0
 33
0.0
 40
0.0
 40
0.0
 40
0.0
 40
0.0
 40
1.0
 40
1.0
 40
1.0
 40
2.0
 40
2.0
 40
2.0
 40
3.0
 40
3.0
 40
3.0
 40
4.0
 40
4.0
 40
4.0
 40
5.0
 40
5.0
 40
5.0
 40
6.0
 40
6.0
 40
6.0
 40
7.0
 40
7.0
 40
7.0
 40
8.0
 40
8.0
 40
8.0
 40
8.0
 10
89.57868378836922
 20
-115.1650634477712
 30
0.0
 10
89.47464190471467
 20
-115.3745252532744
 30
0.0
 10
89.30721026413154
 20
-115.3936455332176
 30
0.0
 10
89.1949001513124
 20
-115.3936455332176
 30
0.0
 10
89.03987085447615
 20
-115.3936455332176
 30
0.0
 10
88.90310056371173
 20
-115.3471367441667
 30
0.0
 10
88.81146102380409
 20
-115.1650634477712
 30
0.0
 10
88.71155325473184
 20
-114.9704155528546
 30
0.0
 10
88.69294973911148
 20
-114.7335652382437
 30
0.0
 10
88.69294973911148
 20
-114.5706122217914
 30
0.0
 10
88.69294973911148
 20
-114.4267794852822
 30
0.0
 10
88.70948619744068
 20
-114.1751152600847
 30
0.0
 10
88.81146102380409
 20
-113.9761609958115
 30
0.0
 10
88.91550290745863
 20
-113.773072616956
 30
0.0
 10
89.07053220429488
 20
-113.7498182224306
 30
0.0
 10
89.1949001513124
 20
-113.7498182224306
 30
0.0
 10
89.34786239085749
 20
-113.7498182224306
 30
0.0
 10
89.48669973891305
 20
-113.7942599541903
 30
0.0
 10
89.57868378836922
 20
-113.9761609958115
 30
0.0
 10
89.67445744285916
 20
-114.168741833437
 30
0.0
 10
89.6968505635133
 20
-114.397151664109
 30
0.0
 10
89.6968505635133
 20
-114.5706122217914
 30
0.0
 10
89.6968505635133
 20
-114.7420057221826
 30
0.0
 10
89.67652450015032
 20
-114.97265486492
 30
0.0
 10
89.57868378836922
 20
-115.1650634477712
 30
0.0
  0
SPLINE
  5
D8
330
D1
100
AcDbEntity
  8
_U+30EC_U+30A4_U+30E4_U+30FC 1
370
     0
100
AcDbSpline
210
0.0
220
0.0
230
1.0
 70
    11
 71
     3
 72
    17
 73
    13
 74
     0
 42
0.0000000001
 43
0.0000000001
 12
1.0
 22
0.0
 32
0.0
 13
1.0
 23
0.0
 33
0.0
 40
0.0
 40
0.0
 40
0.0
 40
0.0
 40
1.0
 40
1.0
 40
1.0
 40
2.0
 40
2.0
 40
2.0
 40
3.0
 40
3.0
 40
3.0
 40
4.0
 40
4.0
 40
4.0
 40
4.0
 10
89.1949001513124
 20
-113.9423990600561
 30
0.0
 10
88.95408797689343
 20
-113.9423990600561
 30
0.0
 10
88.90930173558517
 20
-114.2259304184921
 30
0.0
 10
88.90930173558517
 20
-114.5706122217914
 30
0.0
 10
88.90930173558517
 20
-114.8901448280483
 30
0.0
 10
88.9440971999862
 20
-115.198997638301
 30
0.0
 10
89.1949001513124
 20
-115.198997638301
 30
0.0
 10
89.4336452684402
 20
-115.198997638301
 30
0.0
 10
89.4804985670396
 20
-114.917533337156
 30
0.0
 10
89.4804985670396
 20
-114.5706122217914
 30
0.0
 10
89.4804985670396
 20
-114.2512518703087
 30
0.0
 10
89.44398055489596
 20
-113.9423990600561
 30
0.0
 10
89.1949001513124
 20
-113.9423990600561
 30
0.0
  0
HATCH
  5
D9
330
D1
100
AcDbEntity
  8
_U+30EC_U+30A4_U+30E4_U+30FC 1
 62
   179
420
  2234388
100
AcDbHatch
 10
0.0
 20
0.0
 30
0.0
210
0.0
220
0.0
230
1.0
  2
SOLID
 70
     1
 71
     0
 91
        2
 92
        1
 93
        1
 72
     4
 94
        3
 73
     0
 74
     1
 95
       29
 96
       25
 40
0.0
 40
0.0
 40
0.0
 40
0.0
 40
1.0
 40
1.0
 40
1.0
 40
2.0
 40
2.0
 40
2.0
 40
3.0
 40
3.0
 40
3.0
 40
4.0
 40
4.0
 40
4.0
 40
5.0
 40
5.0
 40
5.0
 40
6.0
 40
6.0
 40
6.0
 40
7.0
 40
7.0
 40
7.0
 40
8.0
 40
8.0
 40
8.0
 40
8.0
 10
89.57868378836922
 20
-115.1650634477712
 10
89.47464190471467
 20
-115.3745252532744
 10
89.30721026413154
 20
-115.3936455332176
 10
89.1949001513124
 20
-115.3936455332176
 10
89.03987085447615
 20
-115.3936455332176
 10
88.90310056371173
 20
-115.3471367441667
 10
88.81146102380409
 20
-115.1650634477712
 10
88.71155325473184
 20
-114.9704155528546
 10
88.69294973911148
 20
-114.7335652382437
 10
88.69294973911148
 20
-114.5706122217914
 10
88.69294973911148
 20
-114.4267794852822
 10
88.70948619744068
 20
-114.1751152600847
 10
88.81146102380409
 20
-113.9761609958115
 10
88.91550290745863
 20
-113.773072616956
 10
89.07053220429488
 20
-113.7498182224306
 10
89.1949001513124
 20
-113.7498182224306
 10
89.34786239085749
 20
-113.7498182224306
 10
89.48669973891305
 20
-113.7942599541903
 10
89.57868378836922
 20
-113.9761609958115
 10
89.67445744285916
 20
-114.168741833437
 10
89.6968505635133
 20
-114.397151664109
 10
89.6968505635133
 20
-114.5706122217914
 10
89.6968505635133
 20
-114.7420057221826
 10
89.67652450015032
 20
-114.97265486492
 10
89.57868378836922
 20
-115.1650634477712
 97
        0
 97
        0
 92
        1
 93
        1
 72
     4
 94
        3
 73
     0
 74
     1
 95
       17
 96
       13
 40
0.0
 40
0.0
 40
0.0
 40
0.0
 40
1.0
 40
1.0
 40
1.0
 40
2.0
 40
2.0
 40
2.0
 40
3.0
 40
3.0
 40
3.0
 40
4.0
 40
4.0
 40
4.0
 40
4.0
 10
89.1949001513124
 20
-113.9423990600561
 10
88.95408797689343
 20
-113.9423990600561
 10
88.90930173558517
 20
-114.2259304184921
 10
88.90930173558517
 20
-114.5706122217914
 10
88.90930173558517
 20
-114.8901448280483
 10
88.9440971999862
 20
-115.198997638301
 10
89.1949001513124
 20
-115.198997638301
 10
89.4336452684402
 20
-115.198997638301
 10
89.4804985670396
 20
-114.917533337156
 10
89.4804985670396
 20
-114.5706122217914
 10
89.4804985670396
 20
-114.2512518703087
 10
89.44398055489596
 20
-113.9423990600561
 10
89.1949001513124
 20
-113.9423990600561
 97
        0
 97
        0
 75
     2
 76
     1
 98
        0
  0
ENDBLK
  5
D4
330
D1
100
AcDbEntity
  8
0
100
AcDbBlockEnd
  0
BLOCK
  5
DC
330
DA
100
AcDbEntity
  8
0
100
AcDbBlockBegin
  2
block 12
 70
     0
 10
0.0
 20
0.0
 30
0.0
  3
block 12
  1

  0
POLYLINE
  5
DE
330
DA
100
AcDbEntity
  8
_U+30EC_U+30A4_U+30E4_U+30FC 1
 62
   179
420
  2234388
370
     9
100
AcDb2dPolyline
 66
     1
 10
0.0
 20
0.0
 30
0.0
  0
VERTEX
  5
DF
330
DE
100
AcDbEntity
  8
_U+30EC_U+30A4_U+30E4_U+30FC 1
 62
   179
420
  2234388
370
     9
100
AcDbVertex
100
AcDb2dVertex
 10
107.628228643064
 20
-136.4891577436555
 30
0.0
  0
VERTEX
  5
E0
330
DE
100
AcDbEntity
  8
_U+30EC_U+30A4_U+30E4_U+30FC 1
 62
   179
420
  2234388
370
     9
100
AcDbVertex
100
AcDb2dVertex
 10
107.628228643064
 20
-120.9891605253083
 30
0.0
  0
SEQEND
  5
E1
330
DE
100
AcDbEntity
  8
_U+30EC_U+30A4_U+30E4_U+30FC 1
 62
   179
420
  2234388
370
     9
  0
POLYLINE
  5
E2
330
DA
100
AcDbEntity
  8
_U+30EC_U+30A4_U+30E4_U+30FC 1
 62
   179
420
  2234388
370
     9
100
AcDb2dPolyline
 66
     1
 10
0.0
 20
0.0
 30
0.0
  0
VERTEX
  5
E3
330
E2
100
AcDbEntity
  8
_U+30EC_U+30A4_U+30E4_U+30FC 1
 62
   179
420
  2234388
370
     9
100
AcDbVertex
100
AcDb2dVertex
 10
91.16807656299748
 20
-136.4891577436555
 30
0.0
  0
VERTEX
  5
E4
330
E2
100
AcDbEntity
  8
_U+30EC_U+30A4_U+30E4_U+30FC 1
 62
   179
420
  2234388
370
     9
100
AcDbVertex
100
AcDb2dVertex
 10
108.6272952842424
 20
-136.4891577436555
 30
0.0
  0
SEQEND
  5
E5
330
E2
100
AcDbEntity
  8
_U+30EC_U+30A4_U+30E4_U+30FC 1
 62
   179
420
  2234388
370
     9
  0
INSERT
  5
E7
330
DA
100
AcDbEntity
  8
_U+30EC_U+30A4_U+30E4_U+30FC 1
100
AcDbBlockReference
  2
block 13
 10
0.0
 20
0.0
 30
0.0
  0
ENDBLK
  5
DD
330
DA
100
AcDbEntity
  8
0
100
AcDbBlockEnd
  0
BLOCK
  5
E8
330
E6
100
AcDbEntity
  8
0
100
AcDbBlockBegin
  2
block 13
 70
     0
 10
0.0
 20
0.0
 30
0.0
  3
block 13
  1

  0
SPLINE
  5
EA
330
E6
100
AcDbEntity
  8
_U+30EC_U+30A4_U+30E4_U+30FC 1
370
     0
100
AcDbSpline
210
0.0
220
0.0
230
1.0
 70
    11
 71
     3
 72
    26
 73
    22
 74
     0
 42
0.0000000001
 43
0.0000000001
 12
1.0
 22
0.0
 32
0.0
 13
1.0
 23
0.0
 33
0.0
 40
0.0
 40
0.0
 40
0.0
 40
0.0
 40
1.0
 40
1.0
 40
1.0
 40
2.0
 40
2.0
 40
2.0
 40
3.0
 40
3.0
 40
3.0
 40
4.0
 40
4.0
 40
4.0
 40
5.0
 40
5.0
 40
5.0
 40
6.0
 40
6.0
 40
6.0
 40
7.0
 40
7.0
 40
7.0
 40
7.0
 10
106.1003282069819
 20
-130.1832681966208
 30
0.0
 10
106.1003282069819
 20
-130.1832681966208
 30
0.0
 10
104.9961751039593
 20
-130.1832681966208
 30
0.0
 10
104.9961751039593
 20
-130.1832681966208
 30
0.0
 10
104.9961751039593
 20
-130.1832681966208
 30
0.0
 10
104.9961751039593
 20
-130.5015950194579
 30
0.0
 10
104.9961751039593
 20
-130.5015950194579
 30
0.0
 10
104.9961751039593
 20
-130.5015950194579
 30
0.0
 10
104.8480359980936
 20
-130.5015950194579
 30
0.0
 10
104.8480359980936
 20
-130.5015950194579
 30
0.0
 10
104.833222087507
 20
-130.1812011393297
 30
0.0
 10
104.6702690710547
 20
-130.1364148980215
 30
0.0
 10
104.5558919009444
 20
-130.1078206054939
 30
0.0
 10
104.5558919009444
 20
-130.1078206054939
 30
0.0
 10
104.5558919009444
 20
-129.9669162001472
 30
0.0
 10
104.5558919009444
 20
-129.9669162001472
 30
0.0
 10
104.5558919009444
 20
-129.9669162001472
 30
0.0
 10
106.1003282069819
 20
-129.9669162001472
 30
0.0
 10
106.1003282069819
 20
-129.9669162001472
 30
0.0
 10
106.1003282069819
 20
-129.9669162001472
 30
0.0
 10
106.1003282069819
 20
-130.1832681966208
 30
0.0
 10
106.1003282069819
 20
-130.1832681966208
 30
0.0
  0
HATCH
  5
EB
330
E6
100
AcDbEntity
  8
_U+30EC_U+30A4_U+30E4_U+30FC 1
 62
   179
420
  2234388
100
AcDbHatch
 10
0.0
 20
0.0
 30
0.0
210
0.0
220
0.0
230
1.0
  2
SOLID
 70
     1
 71
     0
 91
        1
 92
        1
 93
        1
 72
     4
 94
        3
 73
     0
 74
     1
 95
       26
 96
       22
 40
0.0
 40
0.0
 40
0.0
 40
0.0
 40
1.0
 40
1.0
 40
1.0
 40
2.0
 40
2.0
 40
2.0
 40
3.0
 40
3.0
 40
3.0
 40
4.0
 40
4.0
 40
4.0
 40
5.0
 40
5.0
 40
5.0
 40
6.0
 40
6.0
 40
6.0
 40
7.0
 40
7.0
 40
7.0
 40
7.0
 10
106.1003282069819
 20
-130.1832681966208
 10
106.1003282069819
 20
-130.1832681966208
 10
104.9961751039593
 20
-130.1832681966208
 10
104.9961751039593
 20
-130.1832681966208
 10
104.9961751039593
 20
-130.1832681966208
 10
104.9961751039593
 20
-130.5015950194579
 10
104.9961751039593
 20
-130.5015950194579
 10
104.9961751039593
 20
-130.5015950194579
 10
104.8480359980936
 20
-130.5015950194579
 10
104.8480359980936
 20
-130.5015950194579
 10
104.833222087507
 20
-130.1812011393297
 10
104.6702690710547
 20
-130.1364148980215
 10
104.5558919009444
 20
-130.1078206054939
 10
104.5558919009444
 20
-130.1078206054939
 10
104.5558919009444
 20
-129.9669162001472
 10
104.5558919009444
 20
-129.9669162001472
 10
104.5558919009444
 20
-129.9669162001472
 10
106.1003282069819
 20
-129.9669162001472
 10
106.1003282069819
 20
-129.9669162001472
 10
106.1003282069819
 20
-129.9669162001472
 10
106.1003282069819
 20
-130.1832681966208
 10
106.1003282069819
 20
-130.1832681966208
 97
        0
 97
        0
 75
     2
 76
     1
 98
        0
  0
SPLINE
  5
EC
330
E6
100
AcDbEntity
  8
_U+30EC_U+30A4_U+30E4_U+30FC 1
370
     0
100
AcDbSpline
210
0.0
220
0.0
230
1.0
 70
    11
 71
     3
 72
    53
 73
    49
 74
     0
 42
0.0000000001
 43
0.0000000001
 12
1.0
 22
0.0
 32
0.0
 13
1.0
 23
0.0
 33
0.0
 40
0.0
 40
0.0
 40
0.0
 40
0.0
 40
1.0
 40
1.0
 40
1.0
 40
2.0
 40
2.0
 40
2.0
 40
3.0
 40
3.0
 40
3.0
 40
4.0
 40
4.0
 40
4.0
 40
5.0
 40
5.0
 40
5.0
 40
6.0
 40
6.0
 40
6.0
 40
7.0
 40
7.0
 40
7.0
 40
8.0
 40
8.0
 40
8.0
 40
9.0
 40
9.0
 40
9.0
 40
10.0
 40
10.0
 40
10.0
 40
11.0
 40
11.0
 40
11.0
 40
12.0
 40
12.0
 40
12.0
 40
13.0
 40
13.0
 40
13.0
 40
14.0
 40
14.0
 40
14.0
 40
15.0
 40
15.0
 40
15.0
 40
16.0
 40
16.0
 40
16.0
 40
16.0
 10
106.150971110615
 20
-129.0212374894461
 30
0.0
 10
106.150971110615
 20
-129.0966850805731
 30
0.0
 10
106.1340901427373
 20
-129.1945257923541
 30
0.0
 10
106.0707003858087
 20
-129.2927110136838
 30
0.0
 10
105.9608018398292
 20
-129.4597981447184
 30
0.0
 10
105.8295437018412
 20
-129.4801242080814
 30
0.0
 10
105.7217122131529
 20
-129.4987277237017
 30
0.0
 10
105.7217122131529
 20
-129.4987277237017
 30
0.0
 10
105.7217122131529
 20
-129.2844427845192
 30
0.0
 10
105.7217122131529
 20
-129.2844427845192
 30
0.0
 10
105.9204942226518
 20
-129.2313883140463
 30
0.0
 10
105.950122043825
 20
-129.10908742432
 30
0.0
 10
105.950122043825
 20
-129.0191704321549
 30
0.0
 10
105.950122043825
 20
-128.8844671986817
 30
0.0
 10
105.8505587843013
 20
-128.73770613101
 30
0.0
 10
105.6180148390469
 20
-128.73770613101
 30
0.0
 10
105.3620442444928
 20
-128.73770613101
 30
0.0
 10
105.2921088061423
 20
-128.9109944339181
 30
0.0
 10
105.2921088061423
 20
-129.0274386613195
 30
0.0
 10
105.2921088061423
 20
-129.0581000111383
 30
0.0
 10
105.2921088061423
 20
-129.1945257923541
 30
0.0
 10
105.4212998868391
 20
-129.2803086699369
 30
0.0
 10
105.4212998868391
 20
-129.2803086699369
 30
0.0
 10
105.4023518616703
 20
-129.4498073678112
 30
0.0
 10
105.4023518616703
 20
-129.4498073678112
 30
0.0
 10
105.4023518616703
 20
-129.4498073678112
 30
0.0
 10
104.5558919009444
 20
-129.3333631404097
 30
0.0
 10
104.5558919009444
 20
-129.3333631404097
 30
0.0
 10
104.5558919009444
 20
-129.3333631404097
 30
0.0
 10
104.5558919009444
 20
-128.5826768341738
 30
0.0
 10
104.5558919009444
 20
-128.5826768341738
 30
0.0
 10
104.5558919009444
 20
-128.5826768341738
 30
0.0
 10
104.750539795861
 20
-128.5826768341738
 30
0.0
 10
104.750539795861
 20
-128.5826768341738
 30
0.0
 10
104.750539795861
 20
-128.5826768341738
 30
0.0
 10
104.750539795861
 20
-129.1762667862823
 30
0.0
 10
104.750539795861
 20
-129.1762667862823
 30
0.0
 10
104.750539795861
 20
-129.1762667862823
 30
0.0
 10
105.1735975214497
 20
-129.2396565432109
 30
0.0
 10
105.1735975214497
 20
-129.2396565432109
 30
0.0
 10
105.1398355856942
 20
-129.1804009008646
 30
0.0
 10
105.0995279685168
 20
-129.1008191951554
 30
0.0
 10
105.0995279685168
 20
-128.9864420250451
 30
0.0
 10
105.0995279685168
 20
-128.7418402455923
 30
0.0
 10
105.2859076342688
 20
-128.5130859053717
 30
0.0
 10
105.599066813878
 20
-128.5130859053717
 30
0.0
 10
105.9163601080695
 20
-128.5130859053717
 30
0.0
 10
106.150971110615
 20
-128.7294379018454
 30
0.0
 10
106.150971110615
 20
-129.0212374894461
 30
0.0
  0
HATCH
  5
ED
330
E6
100
AcDbEntity
  8
_U+30EC_U+30A4_U+30E4_U+30FC 1
 62
   179
420
  2234388
100
AcDbHatch
 10
0.0
 20
0.0
 30
0.0
210
0.0
220
0.0
230
1.0
  2
SOLID
 70
     1
 71
     0
 91
        1
 92
        1
 93
        1
 72
     4
 94
        3
 73
     0
 74
     1
 95
       53
 96
       49
 40
0.0
 40
0.0
 40
0.0
 40
0.0
 40
1.0
 40
1.0
 40
1.0
 40
2.0
 40
2.0
 40
2.0
 40
3.0
 40
3.0
 40
3.0
 40
4.0
 40
4.0
 40
4.0
 40
5.0
 40
5.0
 40
5.0
 40
6.0
 40
6.0
 40
6.0
 40
7.0
 40
7.0
 40
7.0
 40
8.0
 40
8.0
 40
8.0
 40
9.0
 40
9.0
 40
9.0
 40
10.0
 40
10.0
 40
10.0
 40
11.0
 40
11.0
 40
11.0
 40
12.0
 40
12.0
 40
12.0
 40
13.0
 40
13.0
 40
13.0
 40
14.0
 40
14.0
 40
14.0
 40
15.0
 40
15.0
 40
15.0
 40
16.0
 40
16.0
 40
16.0
 40
16.0
 10
106.150971110615
 20
-129.0212374894461
 10
106.150971110615
 20
-129.0966850805731
 10
106.1340901427373
 20
-129.1945257923541
 10
106.0707003858087
 20
-129.2927110136838
 10
105.9608018398292
 20
-129.4597981447184
 10
105.8295437018412
 20
-129.4801242080814
 10
105.7217122131529
 20
-129.4987277237017
 10
105.7217122131529
 20
-129.4987277237017
 10
105.7217122131529
 20
-129.2844427845192
 10
105.7217122131529
 20
-129.2844427845192
 10
105.9204942226518
 20
-129.2313883140463
 10
105.950122043825
 20
-129.10908742432
 10
105.950122043825
 20
-129.0191704321549
 10
105.950122043825
 20
-128.8844671986817
 10
105.8505587843013
 20
-128.73770613101
 10
105.6180148390469
 20
-128.73770613101
 10
105.3620442444928
 20
-128.73770613101
 10
105.2921088061423
 20
-128.9109944339181
 10
105.2921088061423
 20
-129.0274386613195
 10
105.2921088061423
 20
-129.0581000111383
 10
105.2921088061423
 20
-129.1945257923541
 10
105.4212998868391
 20
-129.2803086699369
 10
105.4212998868391
 20
-129.2803086699369
 10
105.4023518616703
 20
-129.4498073678112
 10
105.4023518616703
 20
-129.4498073678112
 10
105.4023518616703
 20
-129.4498073678112
 10
104.5558919009444
 20
-129.3333631404097
 10
104.5558919009444
 20
-129.3333631404097
 10
104.5558919009444
 20
-129.3333631404097
 10
104.5558919009444
 20
-128.5826768341738
 10
104.5558919009444
 20
-128.5826768341738
 10
104.5558919009444
 20
-128.5826768341738
 10
104.750539795861
 20
-128.5826768341738
 10
104.750539795861
 20
-128.5826768341738
 10
104.750539795861
 20
-128.5826768341738
 10
104.750539795861
 20
-129.1762667862823
 10
104.750539795861
 20
-129.1762667862823
 10
104.750539795861
 20
-129.1762667862823
 10
105.1735975214497
 20
-129.2396565432109
 10
105.1735975214497
 20
-129.2396565432109
 10
105.1398355856942
 20
-129.1804009008646
 10
105.0995279685168
 20
-129.1008191951554
 10
105.0995279685168
 20
-128.9864420250451
 10
105.0995279685168
 20
-128.7418402455923
 10
105.2859076342688
 20
-128.5130859053717
 10
105.599066813878
 20
-128.5130859053717
 10
105.9163601080695
 20
-128.5130859053717
 10
106.150971110615
 20
-128.7294379018454
 10
106.150971110615
 20
-129.0212374894461
 97
        0
 97
        0
 75
     2
 76
     1
 98
        0
  0
POLYLINE
  5
EE
330
E6
100
AcDbEntity
  8
_U+30EC_U+30A4_U+30E4_U+30FC 1
370
     0
100
AcDb2dPolyline
 66
     1
 10
0.0
 20
0.0
 30
0.0
  0
VERTEX
  5
EF
330
EE
100
AcDbEntity
  8
_U+30EC_U+30A4_U+30E4_U+30FC 1
370
     0
100
AcDbVertex
100
AcDb2dVertex
 10
106.1003282069819
 20
-128.2936333229613
 30
0.0
  0
VERTEX
  5
F0
330
EE
100
AcDbEntity
  8
_U+30EC_U+30A4_U+30E4_U+30FC 1
370
     0
100
AcDbVertex
100
AcDb2dVertex
 10
105.8484917270101
 20
-128.2936333229613
 30
0.0
  0
VERTEX
  5
F1
330
EE
100
AcDbEntity
  8
_U+30EC_U+30A4_U+30E4_U+30FC 1
370
     0
100
AcDbVertex
100
AcDb2dVertex
 10
105.8484917270101
 20
-128.0510986007997
 30
0.0
  0
VERTEX
  5
F2
330
EE
100
AcDbEntity
  8
_U+30EC_U+30A4_U+30E4_U+30FC 1
370
     0
100
AcDbVertex
100
AcDb2dVertex
 10
106.1003282069819
 20
-128.0510986007997
 30
0.0
  0
VERTEX
  5
F3
330
EE
100
AcDbEntity
  8
_U+30EC_U+30A4_U+30E4_U+30FC 1
370
     0
100
AcDbVertex
100
AcDb2dVertex
 10
106.1003282069819
 20
-128.2936333229613
 30
0.0
  0
SEQEND
  5
F4
330
EE
100
AcDbEntity
  8
_U+30EC_U+30A4_U+30E4_U+30FC 1
370
     0
  0
HATCH
  5
F5
330
E6
100
AcDbEntity
  8
_U+30EC_U+30A4_U+30E4_U+30FC 1
 62
   179
420
  2234388
100
AcDbHatch
 10
0.0
 20
0.0
 30
0.0
210
0.0
220
0.0
230
1.0
  2
SOLID
 70
     1
 71
     0
 91
        1
 92
        1
 93
        4
 72
     1
 10
106.1003282069819
 20
-128.2936333229613
 11
105.8484917270101
 21
-128.2936333229613
 72
     1
 10
105.8484917270101
 20
-128.2936333229613
 11
105.8484917270101
 21
-128.0510986007997
 72
     1
 10
105.8484917270101
 20
-128.0510986007997
 11
106.1003282069819
 21
-128.0510986007997
 72
     1
 10
106.1003282069819
 20
-128.0510986007997
 11
106.1003282069819
 21
-128.2936333229613
 97
        0
 75
     2
 76
     1
 98
        0
  0
SPLINE
  5
F6
330
E6
100
AcDbEntity
  8
_U+30EC_U+30A4_U+30E4_U+30FC 1
370
     0
100
AcDbSpline
210
0.0
220
0.0
230
1.0
 70
    11
 71
     3
 72
    53
 73
    49
 74
     0
 42
0.0000000001
 43
0.0000000001
 12
1.0
 22
0.0
 32
0.0
 13
1.0
 23
0.0
 33
0.0
 40
0.0
 40
0.0
 40
0.0
 40
0.0
 40
1.0
 40
1.0
 40
1.0
 40
2.0
 40
2.0
 40
2.0
 40
3.0
 40
3.0
 40
3.0
 40
4.0
 40
4.0
 40
4.0
 40
5.0
 40
5.0
 40
5.0
 40
6.0
 40
6.0
 40
6.0
 40
7.0
 40
7.0
 40
7.0
 40
8.0
 40
8.0
 40
8.0
 40
9.0
 40
9.0
 40
9.0
 40
10.0
 40
10.0
 40
10.0
 40
11.0
 40
11.0
 40
11.0
 40
12.0
 40
12.0
 40
12.0
 40
13.0
 40
13.0
 40
13.0
 40
14.0
 40
14.0
 40
14.0
 40
15.0
 40
15.0
 40
15.0
 40
16.0
 40
16.0
 40
16.0
 40
16.0
 10
106.150971110615
 20
-127.3600124464586
 30
0.0
 10
106.150971110615
 20
-127.4354600375856
 30
0.0
 10
106.1340901427373
 20
-127.5333007493667
 30
0.0
 10
106.0707003858087
 20
-127.6314859706963
 30
0.0
 10
105.9608018398292
 20
-127.7985731017309
 30
0.0
 10
105.8295437018412
 20
-127.8188991650939
 30
0.0
 10
105.7217122131529
 20
-127.8375026807142
 30
0.0
 10
105.7217122131529
 20
-127.8375026807142
 30
0.0
 10
105.7217122131529
 20
-127.6232177415317
 30
0.0
 10
105.7217122131529
 20
-127.6232177415317
 30
0.0
 10
105.9204942226518
 20
-127.5701632710589
 30
0.0
 10
105.950122043825
 20
-127.4478623813325
 30
0.0
 10
105.950122043825
 20
-127.3579453891675
 30
0.0
 10
105.950122043825
 20
-127.2232421556942
 30
0.0
 10
105.8505587843013
 20
-127.0764810880225
 30
0.0
 10
105.6180148390469
 20
-127.0764810880225
 30
0.0
 10
105.3620442444928
 20
-127.0764810880225
 30
0.0
 10
105.2921088061423
 20
-127.2497693909306
 30
0.0
 10
105.2921088061423
 20
-127.3662136183321
 30
0.0
 10
105.2921088061423
 20
-127.3968749681508
 30
0.0
 10
105.2921088061423
 20
-127.5333007493667
 30
0.0
 10
105.4212998868391
 20
-127.6190836269494
 30
0.0
 10
105.4212998868391
 20
-127.6190836269494
 30
0.0
 10
105.4023518616703
 20
-127.7885823248237
 30
0.0
 10
105.4023518616703
 20
-127.7885823248237
 30
0.0
 10
105.4023518616703
 20
-127.7885823248237
 30
0.0
 10
104.5558919009444
 20
-127.6721380974222
 30
0.0
 10
104.5558919009444
 20
-127.6721380974222
 30
0.0
 10
104.5558919009444
 20
-127.6721380974222
 30
0.0
 10
104.5558919009444
 20
-126.9214517911863
 30
0.0
 10
104.5558919009444
 20
-126.9214517911863
 30
0.0
 10
104.5558919009444
 20
-126.9214517911863
 30
0.0
 10
104.750539795861
 20
-126.9214517911863
 30
0.0
 10
104.750539795861
 20
-126.9214517911863
 30
0.0
 10
104.750539795861
 20
-126.9214517911863
 30
0.0
 10
104.750539795861
 20
-127.5150417432949
 30
0.0
 10
104.750539795861
 20
-127.5150417432949
 30
0.0
 10
104.750539795861
 20
-127.5150417432949
 30
0.0
 10
105.1735975214497
 20
-127.5784315002235
 30
0.0
 10
105.1735975214497
 20
-127.5784315002235
 30
0.0
 10
105.1398355856942
 20
-127.5191758578772
 30
0.0
 10
105.0995279685168
 20
-127.4395941521679
 30
0.0
 10
105.0995279685168
 20
-127.3252169820576
 30
0.0
 10
105.0995279685168
 20
-127.0806152026048
 30
0.0
 10
105.2859076342688
 20
-126.8518608623843
 30
0.0
 10
105.599066813878
 20
-126.8518608623843
 30
0.0
 10
105.9163601080695
 20
-126.8518608623843
 30
0.0
 10
106.150971110615
 20
-127.0682128588579
 30
0.0
 10
106.150971110615
 20
-127.3600124464586
 30
0.0
  0
HATCH
  5
F7
330
E6
100
AcDbEntity
  8
_U+30EC_U+30A4_U+30E4_U+30FC 1
 62
   179
420
  2234388
100
AcDbHatch
 10
0.0
 20
0.0
 30
0.0
210
0.0
220
0.0
230
1.0
  2
SOLID
 70
     1
 71
     0
 91
        1
 92
        1
 93
        1
 72
     4
 94
        3
 73
     0
 74
     1
 95
       53
 96
       49
 40
0.0
 40
0.0
 40
0.0
 40
0.0
 40
1.0
 40
1.0
 40
1.0
 40
2.0
 40
2.0
 40
2.0
 40
3.0
 40
3.0
 40
3.0
 40
4.0
 40
4.0
 40
4.0
 40
5.0
 40
5.0
 40
5.0
 40
6.0
 40
6.0
 40
6.0
 40
7.0
 40
7.0
 40
7.0
 40
8.0
 40
8.0
 40
8.0
 40
9.0
 40
9.0
 40
9.0
 40
10.0
 40
10.0
 40
10.0
 40
11.0
 40
11.0
 40
11.0
 40
12.0
 40
12.0
 40
12.0
 40
13.0
 40
13.0
 40
13.0
 40
14.0
 40
14.0
 40
14.0
 40
15.0
 40
15.0
 40
15.0
 40
16.0
 40
16.0
 40
16.0
 40
16.0
 10
106.150971110615
 20
-127.3600124464586
 10
106.150971110615
 20
-127.4354600375856
 10
106.1340901427373
 20
-127.5333007493667
 10
106.0707003858087
 20
-127.6314859706963
 10
105.9608018398292
 20
-127.7985731017309
 10
105.8295437018412
 20
-127.8188991650939
 10
105.7217122131529
 20
-127.8375026807142
 10
105.7217122131529
 20
-127.8375026807142
 10
105.7217122131529
 20
-127.6232177415317
 10
105.7217122131529
 20
-127.6232177415317
 10
105.9204942226518
 20
-127.5701632710589
 10
105.950122043825
 20
-127.4478623813325
 10
105.950122043825
 20
-127.3579453891675
 10
105.950122043825
 20
-127.2232421556942
 10
105.8505587843013
 20
-127.0764810880225
 10
105.6180148390469
 20
-127.0764810880225
 10
105.3620442444928
 20
-127.0764810880225
 10
105.2921088061423
 20
-127.2497693909306
 10
105.2921088061423
 20
-127.3662136183321
 10
105.2921088061423
 20
-127.3968749681508
 10
105.2921088061423
 20
-127.5333007493667
 10
105.4212998868391
 20
-127.6190836269494
 10
105.4212998868391
 20
-127.6190836269494
 10
105.4023518616703
 20
-127.7885823248237
 10
105.4023518616703
 20
-127.7885823248237
 10
105.4023518616703
 20
-127.7885823248237
 10
104.5558919009444
 20
-127.6721380974222
 10
104.5558919009444
 20
-127.6721380974222
 10
104.5558919009444
 20
-127.6721380974222
 10
104.5558919009444
 20
-126.9214517911863
 10
104.5558919009444
 20
-126.9214517911863
 10
104.5558919009444
 20
-126.9214517911863
 10
104.750539795861
 20
-126.9214517911863
 10
104.750539795861
 20
-126.9214517911863
 10
104.750539795861
 20
-126.9214517911863
 10
104.750539795861
 20
-127.5150417432949
 10
104.750539795861
 20
-127.5150417432949
 10
104.750539795861
 20
-127.5150417432949
 10
105.1735975214497
 20
-127.5784315002235
 10
105.1735975214497
 20
-127.5784315002235
 10
105.1398355856942
 20
-127.5191758578772
 10
105.0995279685168
 20
-127.4395941521679
 10
105.0995279685168
 20
-127.3252169820576
 10
105.0995279685168
 20
-127.0806152026048
 10
105.2859076342688
 20
-126.8518608623843
 10
105.599066813878
 20
-126.8518608623843
 10
105.9163601080695
 20
-126.8518608623843
 10
106.150971110615
 20
-127.0682128588579
 10
106.150971110615
 20
-127.3600124464586
 97
        0
 97
        0
 75
     2
 76
     1
 98
        0
  0
ENDBLK
  5
E9
330
E6
100
AcDbEntity
  8
0
100
AcDbBlockEnd
  0
ENDSEC
  0
SECTION
  2
ENTITIES
  0
INSERT
  5
42
330
1F
100
AcDbEntity
  8
_U+30EC_U+30A4_U+30E4_U+30FC 1
100
AcDbBlockReference
  2
block 2
 10
0.0
 20
0.0
 30
0.0
  0
ENDSEC
  0
SECTION
  2
OBJECTS
  0
DICTIONARY
  5
C
330
0
100
AcDbDictionary
281
     1
  3
ACAD_GROUP
350
D
  3
ACAD_LAYOUT
350
1A
  3
ACAD_MATERIAL
350
3B
  3
ACAD_MLEADERSTYLE
350
F9
  3
ACAD_MLINESTYLE
350
17
  3
ACAD_PLOTSETTINGS
350
19
  3
ACAD_PLOTSTYLENAME
350
E
  3
ACAD_TABLESTYLE
350
F8
  3
ACAD_VISUALSTYLE
350
2A
  0
SUN
  5
3F
330
29
100
AcDbSun
 90
        1
290
     0
 63
     7
421
 16777215
 40
1.0
291
     1
 91
  2455826
 92
 54000000
292
     0
 70
     2
 71
   256
280
     1
  0
DICTIONARY
  5
D
102
{ACAD_REACTORS
330
C
102
}
330
C
100
AcDbDictionary
281
     1
  0
DICTIONARY
  5
1A
102
{ACAD_REACTORS
330
C
102
}
330
C
100
AcDbDictionary
281
     1
  3
Layout1
350
1E
  3
Layout2
350
26
  3
Model
350
22
  0
DICTIONARY
  5
3B
102
{ACAD_REACTORS
330
C
102
}
330
C
100
AcDbDictionary
281
     1
  3
ByBlock
350
3D
  3
ByLayer
350
3C
  3
Global
350
3E
  0
DICTIONARY
  5
F9
102
{ACAD_REACTORS
330
C
102
}
330
C
100
AcDbDictionary
281
     1
  0
DICTIONARY
  5
17
102
{ACAD_REACTORS
330
C
102
}
330
C
100
AcDbDictionary
281
     1
  3
Standard
350
18
  0
DICTIONARY
  5
19
102
{ACAD_REACTORS
330
C
102
}
330
C
100
AcDbDictionary
281
     1
  0
ACDBDICTIONARYWDFLT
  5
E
102
{ACAD_REACTORS
330
C
102
}
330
C
100
AcDbDictionary
281
     1
  3
Normal
350
F
100
AcDbDictionaryWithDefault
340
F
  0
DICTIONARY
  5
F8
102
{ACAD_REACTORS
330
C
102
}
330
C
100
AcDbDictionary
281
     1
  0
DICTIONARY
  5
2A
102
{ACAD_REACTORS
330
C
102
}
330
C
100
AcDbDictionary
281
     1
  3
2dWireframe
350
2F
  3
3D Hidden
350
31
  3
3dWireframe
350
30
  3
Basic
350
32
  3
Brighten
350
36
  3
ColorChange
350
3A
  3
Conceptual
350
34
  3
Dim
350
35
  3
Facepattern
350
39
  3
Flat
350
2B
  3
FlatWithEdges
350
2C
  3
Gouraud
350
2D
  3
GouraudWithEdges
350
2E
  3
Linepattern
350
38
  3
Realistic
350
33
  3
Thicken
350
37
  0
LAYOUT
  5
1E
102
{ACAD_REACTORS
330
1A
102
}
330
1A
100
AcDbPlotSettings
  1

  2
none_device
  4

  6

 40
0.0
 41
0.0
 42
0.0
 43
0.0
 44
0.0
 45
0.0
 46
0.0
 47
0.0
 48
0.0
 49
0.0
140
0.0
141
0.0
142
1.0
143
1.0
 70
   688
 72
     0
 73
     0
 74
     5
  7

 75
    16
 76
     0
 77
     2
 78
   300
147
1.0
148
0.0
149
0.0
100
AcDbLayout
  1
Layout1
 70
     1
 71
     1
 10
0.0
 20
0.0
 11
12.0
 21
9.0
 12
0.0
 22
0.0
 32
0.0
 14
1.000000000000000E+20
 24
1.000000000000000E+20
 34
1.000000000000000E+20
 15
-1.000000000000000E+20
 25
-1.000000000000000E+20
 35
-1.000000000000000E+20
146
0.0
 13
0.0
 23
0.0
 33
0.0
 16
1.0
 26
0.0
 36
0.0
 17
0.0
 27
1.0
 37
0.0
 76
     0
330
1B
  0
LAYOUT
  5
26
102
{ACAD_REACTORS
330
1A
102
}
330
1A
100
AcDbPlotSettings
  1

  2
none_device
  4

  6

 40
0.0
 41
0.0
 42
0.0
 43
0.0
 44
0.0
 45
0.0
 46
0.0
 47
0.0
 48
0.0
 49
0.0
140
0.0
141
0.0
142
1.0
143
1.0
 70
   688
 72
     0
 73
     0
 74
     5
  7

 75
    16
 76
     0
 77
     2
 78
   300
147
1.0
148
0.0
149
0.0
100
AcDbLayout
  1
Layout2
 70
     1
 71
     2
 10
0.0
 20
0.0
 11
0.0
 21
0.0
 12
0.0
 22
0.0
 32
0.0
 14
0.0
 24
0.0
 34
0.0
 15
0.0
 25
0.0
 35
0.0
146
0.0
 13
0.0
 23
0.0
 33
0.0
 16
1.0
 26
0.0
 36
0.0
 17
0.0
 27
1.0
 37
0.0
 76
     0
330
23
  0
LAYOUT
  5
22
102
{ACAD_REACTORS
330
1A
102
}
330
1A
100
AcDbPlotSettings
  1

  2
none_device
  4

  6

 40
0.0
 41
0.0
 42
0.0
 43
0.0
 44
0.0
 45
0.0
 46
0.0
 47
0.0
 48
0.0
 49
0.0
140
0.0
141
0.0
142
1.0
143
1.0
 70
  1712
 72
     0
 73
     0
 74
     0
  7

 75
     0
 76
     0
 77
     2
 78
   300
147
1.0
148
0.0
149
0.0
100
AcDbLayout
  1
Model
 70
     1
 71
     0
 10
0.0
 20
0.0
 11
12.0
 21
9.0
 12
0.0
 22
0.0
 32
0.0
 14
1.000000000000000E+20
 24
1.000000000000000E+20
 34
1.000000000000000E+20
 15
-1.000000000000000E+20
 25
-1.000000000000000E+20
 35
-1.000000000000000E+20
146
0.0
 13
0.0
 23
0.0
 33
0.0
 16
1.0
 26
0.0
 36
0.0
 17
0.0
 27
1.0
 37
0.0
 76
     0
330
1F
331
29
  0
MATERIAL
  5
3D
102
{ACAD_REACTORS
330
3B
102
}
330
3B
100
AcDbMaterial
  1
ByBlock
 72
     1
 94
      127
  0
MATERIAL
  5
3C
102
{ACAD_REACTORS
330
3B
102
}
330
3B
100
AcDbMaterial
  1
ByLayer
 72
     1
 94
      127
  0
MATERIAL
  5
3E
102
{ACAD_REACTORS
330
3B
102
}
330
3B
100
AcDbMaterial
  1
Global
 72
     1
 94
      127
  0
MLINESTYLE
  5
18
102
{ACAD_REACTORS
330
17
102
}
330
17
100
AcDbMlineStyle
  2
Standard
 70
     0
  3

 62
   256
 51
90.0
 52
90.0
 71
     2
 49
0.5
 62
   256
  6
BYLAYER
 49
-0.5
 62
   256
  6
BYLAYER
  0
ACDBPLACEHOLDER
  5
F
102
{ACAD_REACTORS
330
E
102
}
330
E
  0
VISUALSTYLE
  5
2F
102
{ACAD_REACTORS
330
2A
102
}
330
2A
100
AcDbVisualStyle
  2
2dWireframe
 70
     4
177
     2
291
     0
 71
     0
176
     1
 72
     2
176
     1
 73
     0
176
     1
 90
        0
176
     1
 40
-0.6
176
     1
 41
-30.0
176
     1
 62
     5
 63
     7
421
 16777215
176
     1
 74
     1
176
     1
 91
        4
176
     1
 64
     7
176
     1
 65
   257
176
     1
 75
     1
176
     1
175
     1
176
     1
 42
1.0
176
     1
 92
        0
176
     1
 66
   257
176
     1
 43
1.0
176
     1
 76
     1
176
     1
 77
     6
176
     1
 78
     2
176
     1
 67
     7
176
     1
 79
     5
176
     1
170
     0
176
     1
171
     0
176
     1
290
     0
176
     1
 93
        1
176
     1
 44
0.0
176
     1
173
     0
176
     1
  0
VISUALSTYLE
  5
31
102
{ACAD_REACTORS
330
2A
102
}
330
2A
100
AcDbVisualStyle
  2
3D Hidden
 70
     6
177
     2
291
     0
 71
     1
176
     1
 72
     2
176
     1
 73
     2
176
     1
 90
        0
176
     1
 40
-0.6
176
     1
 41
-30.0
176
     1
 62
     5
 63
     7
421
 16777215
176
     1
 74
     2
176
     1
 91
        2
176
     1
 64
     7
176
     1
 65
   257
176
     1
 75
     2
176
     1
175
     1
176
     1
 42
40.0
176
     1
 92
        0
176
     1
 66
   257
176
     1
 43
1.0
176
     1
 76
     1
176
     1
 77
     6
176
     1
 78
     2
176
     1
 67
     7
176
     1
 79
     3
176
     1
170
     0
176
     1
171
     0
176
     1
290
     0
176
     1
 93
        1
176
     1
 44
0.0
176
     1
173
     0
176
     1
  0
VISUALSTYLE
  5
30
102
{ACAD_REACTORS
330
2A
102
}
330
2A
100
AcDbVisualStyle
  2
3dWireframe
 70
     5
177
     2
291
     0
 71
     0
176
     1
 72
     2
176
     1
 73
     0
176
     1
 90
        0
176
     1
 40
-0.6
176
     1
 41
-30.0
176
     1
 62
     5
 63
     7
421
 16777215
176
     1
 74
     1
176
     1
 91
        4
176
     1
 64
     7
176
     1
 65
   257
176
     1
 75
     1
176
     1
175
     1
176
     1
 42
1.0
176
     1
 92
        0
176
     1
 66
   257
176
     1
 43
1.0
176
     1
 76
     1
176
     1
 77
     6
176
     1
 78
     2
176
     1
 67
     7
176
     1
 79
     5
176
     1
170
     0
176
     1
171
     0
176
     1
290
     0
176
     1
 93
        1
176
     1
 44
0.0
176
     1
173
     0
176
     1
  0
VISUALSTYLE
  5
32
102
{ACAD_REACTORS
330
2A
102
}
330
2A
100
AcDbVisualStyle
  2
Basic
 70
     7
177
     2
291
     1
 71
     1
176
     1
 72
     0
176
     1
 73
     1
176
     1
 90
        0
176
     1
 40
-0.6
176
     1
 41
-30.0
176
     1
 62
     5
 63
     7
421
 16777215
176
     1
 74
     0
176
     1
 91
        4
176
     1
 64
     7
176
     1
 65
   257
176
     1
 75
     1
176
     1
175
     1
176
     1
 42
1.0
176
     1
 92
        8
176
     1
 66
     7
176
     1
 43
1.0
176
     1
 76
     1
176
     1
 77
     6
176
     1
 78
     2
176
     1
 67
     7
176
     1
 79
     5
176
     1
170
     0
176
     1
171
     0
176
     1
290
     0
176
     1
 93
        1
176
     1
 44
0.0
176
     1
173
     0
176
     1
  0
VISUALSTYLE
  5
36
102
{ACAD_REACTORS
330
2A
102
}
330
2A
100
AcDbVisualStyle
  2
Brighten
 70
    12
177
     2
291
     1
 71
     2
176
     1
 72
     2
176
     1
 73
     0
176
     1
 90
        0
176
     1
 40
-0.6
176
     1
 41
-30.0
176
     1
 62
     5
 63
     7
421
 16777215
176
     1
 74
     1
176
     1
 91
        4
176
     1
 64
     7
176
     1
 65
   257
176
     1
 75
     1
176
     1
175
     1
176
     1
 42
1.0
176
     1
 92
        8
176
     1
 66
     7
176
     1
 43
1.0
176
     1
 76
     1
176
     1
 77
     6
176
     1
 78
     2
176
     1
 67
     7
176
     1
 79
     5
176
     1
170
     0
176
     1
171
     0
176
     1
290
     0
176
     1
 93
        1
176
     1
 44
50.0
176
     1
173
     0
176
     1
  0
VISUALSTYLE
  5
3A
102
{ACAD_REACTORS
330
2A
102
}
330
2A
100
AcDbVisualStyle
  2
ColorChange
 70
    16
177
     2
291
     1
 71
     2
176
     1
 72
     2
176
     1
 73
     3
176
     1
 90
        0
176
     1
 40
-0.6
176
     1
 41
-30.0
176
     1
 62
     5
 63
     8
421
  8421504
176
     1
 74
     1
176
     1
 91
        4
176
     1
 64
     7
176
     1
 65
   257
176
     1
 75
     1
176
     1
175
     1
176
     1
 42
1.0
176
     1
 92
        8
176
     1
 66
     8
424
  8421504
176
     1
 43
1.0
176
     1
 76
     1
176
     1
 77
     6
176
     1
 78
     2
176
     1
 67
     7
176
     1
 79
     5
176
     1
170
     0
176
     1
171
     0
176
     1
290
     0
176
     1
 93
        1
176
     1
 44
0.0
176
     1
173
     0
176
     1
  0
VISUALSTYLE
  5
34
102
{ACAD_REACTORS
330
2A
102
}
330
2A
100
AcDbVisualStyle
  2
Conceptual
 70
     9
177
     2
291
     0
 71
     3
176
     1
 72
     2
176
     1
 73
     0
176
     1
 90
        0
176
     1
 40
-0.6
176
     1
 41
-30.0
176
     1
 62
     5
 63
     7
421
 16777215
176
     1
 74
     2
176
     1
 91
        2
176
     1
 64
     7
176
     1
 65
   257
176
     1
 75
     1
176
     1
175
     1
176
     1
 42
40.0
176
     1
 92
        8
176
     1
 66
     7
176
     1
 43
1.0
176
     1
 76
     1
176
     1
 77
     6
176
     1
 78
     2
176
     1
 67
     7
176
     1
 79
     3
176
     1
170
     0
176
     1
171
     0
176
     1
290
     0
176
     1
 93
        1
176
     1
 44
0.0
176
     1
173
     0
176
     1
  0
VISUALSTYLE
  5
35
102
{ACAD_REACTORS
330
2A
102
}
330
2A
100
AcDbVisualStyle
  2
Dim
 70
    11
177
     2
291
     1
 71
     2
176
     1
 72
     2
176
     1
 73
     0
176
     1
 90
        0
176
     1
 40
-0.6
176
     1
 41
-30.0
176
     1
 62
     5
 63
     7
421
 16777215
176
     1
 74
     1
176
     1
 91
        4
176
     1
 64
     7
176
     1
 65
   257
176
     1
 75
     1
176
     1
175
     1
176
     1
 42
1.0
176
     1
 92
        8
176
     1
 66
     7
176
     1
 43
1.0
176
     1
 76
     1
176
     1
 77
     6
176
     1
 78
     2
176
     1
 67
     7
176
     1
 79
     5
176
     1
170
     0
176
     1
171
     0
176
     1
290
     0
176
     1
 93
        1
176
     1
 44
-50.0
176
     1
173
     0
176
     1
  0
VISUALSTYLE
  5
39
102
{ACAD_REACTORS
330
2A
102
}
330
2A
100
AcDbVisualStyle
  2
Facepattern
 70
    15
177
     2
291
     1
 71
     2
176
     1
 72
     2
176
     1
 73
     0
176
     1
 90
        0
176
     1
 40
-0.6
176
     1
 41
-30.0
176
     1
 62
     5
 63
     7
421
 16777215
176
     1
 74
     1
176
     1
 91
        4
176
     1
 64
     7
176
     1
 65
   257
176
     1
 75
     1
176
     1
175
     1
176
     1
 42
1.0
176
     1
 92
        8
176
     1
 66
     7
176
     1
 43
1.0
176
     1
 76
     1
176
     1
 77
     6
176
     1
 78
     2
176
     1
 67
     7
176
     1
 79
     5
176
     1
170
     0
176
     1
171
     0
176
     1
290
     0
176
     1
 93
        1
176
     1
 44
0.0
176
     1
173
     0
176
     1
  0
VISUALSTYLE
  5
2B
102
{ACAD_REACTORS
330
2A
102
}
330
2A
100
AcDbVisualStyle
  2
Flat
 70
     0
177
     2
291
     1
 71
     2
176
     1
 72
     1
176
     1
 73
     1
176
     1
 90
        2
176
     1
 40
-0.6
176
     1
 41
30.0
176
     1
 62
     5
 63
     7
421
 16777215
176
     1
 74
     0
176
     1
 91
        4
176
     1
 64
     7
176
     1
 65
   257
176
     1
 75
     1
176
     1
175
     1
176
     1
 42
1.0
176
     1
 92
        8
176
     1
 66
     7
176
     1
 43
1.0
176
     1
 76
     1
176
     1
 77
     6
176
     1
 78
     2
176
     1
 67
     7
176
     1
 79
     5
176
     1
170
     0
176
     1
171
     0
176
     1
290
     0
176
     1
 93
       13
176
     1
 44
0.0
176
     1
173
     0
176
     1
  0
VISUALSTYLE
  5
2C
102
{ACAD_REACTORS
330
2A
102
}
330
2A
100
AcDbVisualStyle
  2
FlatWithEdges
 70
     1
177
     2
291
     1
 71
     2
176
     1
 72
     1
176
     1
 73
     1
176
     1
 90
        2
176
     1
 40
-0.6
176
     1
 41
30.0
176
     1
 62
     5
 63
     7
421
 16777215
176
     1
 74
     1
176
     1
 91
        4
176
     1
 64
     7
176
     1
 65
   257
176
     1
 75
     1
176
     1
175
     1
176
     1
 42
1.0
176
     1
 92
        0
176
     1
 66
   257
176
     1
 43
1.0
176
     1
 76
     1
176
     1
 77
     6
176
     1
 78
     2
176
     1
 67
     7
176
     1
 79
     5
176
     1
170
     0
176
     1
171
     0
176
     1
290
     0
176
     1
 93
       13
176
     1
 44
0.0
176
     1
173
     0
176
     1
  0
VISUALSTYLE
  5
2D
102
{ACAD_REACTORS
330
2A
102
}
330
2A
100
AcDbVisualStyle
  2
Gouraud
 70
     2
177
     2
291
     1
 71
     2
176
     1
 72
     2
176
     1
 73
     1
176
     1
 90
        2
176
     1
 40
-0.6
176
     1
 41
30.0
176
     1
 62
     5
 63
     7
421
 16777215
176
     1
 74
     0
176
     1
 91
        4
176
     1
 64
     7
176
     1
 65
   257
176
     1
 75
     1
176
     1
175
     1
176
     1
 42
1.0
176
     1
 92
        0
176
     1
 66
     7
176
     1
 43
1.0
176
     1
 76
     1
176
     1
 77
     6
176
     1
 78
     2
176
     1
 67
     7
176
     1
 79
     5
176
     1
170
     0
176
     1
171
     0
176
     1
290
     0
176
     1
 93
       13
176
     1
 44
0.0
176
     1
173
     0
176
     1
  0
VISUALSTYLE
  5
2E
102
{ACAD_REACTORS
330
2A
102
}
330
2A
100
AcDbVisualStyle
  2
GouraudWithEdges
 70
     3
177
     2
291
     1
 71
     2
176
     1
 72
     2
176
     1
 73
     1
176
     1
 90
        2
176
     1
 40
-0.6
176
     1
 41
30.0
176
     1
 62
     5
 63
     7
421
 16777215
176
     1
 74
     1
176
     1
 91
        4
176
     1
 64
     7
176
     1
 65
   257
176
     1
 75
     1
176
     1
175
     1
176
     1
 42
1.0
176
     1
 92
        0
176
     1
 66
   257
176
     1
 43
1.0
176
     1
 76
     1
176
     1
 77
     6
176
     1
 78
     2
176
     1
 67
     7
176
     1
 79
     5
176
     1
170
     0
176
     1
171
     0
176
     1
290
     0
176
     1
 93
       13
176
     1
 44
0.0
176
     1
173
     0
176
     1
  0
VISUALSTYLE
  5
38
102
{ACAD_REACTORS
330
2A
102
}
330
2A
100
AcDbVisualStyle
  2
Linepattern
 70
    14
177
     2
291
     1
 71
     2
176
     1
 72
     2
176
     1
 73
     0
176
     1
 90
        0
176
     1
 40
-0.6
176
     1
 41
-30.0
176
     1
 62
     5
 63
     7
421
 16777215
176
     1
 74
     1
176
     1
 91
        4
176
     1
 64
     7
176
     1
 65
   257
176
     1
 75
     7
176
     1
175
     7
176
     1
 42
1.0
176
     1
 92
        8
176
     1
 66
     7
176
     1
 43
1.0
176
     1
 76
     1
176
     1
 77
     6
176
     1
 78
     2
176
     1
 67
     7
176
     1
 79
     5
176
     1
170
     0
176
     1
171
     0
176
     1
290
     0
176
     1
 93
        1
176
     1
 44
0.0
176
     1
173
     0
176
     1
  0
VISUALSTYLE
  5
33
102
{ACAD_REACTORS
330
2A
102
}
330
2A
100
AcDbVisualStyle
  2
Realistic
 70
     8
177
     2
291
     0
 71
     2
176
     1
 72
     2
176
     1
 73
     0
176
     1
 90
        0
176
     1
 40
-0.6
176
     1
 41
-30.0
176
     1
 62
     5
 63
     7
421
 16777215
176
     1
 74
     1
176
     1
 91
        0
176
     1
 64
     7
176
     1
 65
   257
176
     1
 75
     1
176
     1
175
     1
176
     1
 42
1.0
176
     1
 92
        8
176
     1
 66
     8
424
  7895160
176
     1
 43
1.0
176
     1
 76
     1
176
     1
 77
     6
176
     1
 78
     2
176
     1
 67
     7
176
     1
 79
     5
176
     1
170
     0
176
     1
171
     0
176
     1
290
     0
176
     1
 93
       13
176
     1
 44
0.0
176
     1
173
     0
176
     1
  0
VISUALSTYLE
  5
37
102
{ACAD_REACTORS
330
2A
102
}
330
2A
100
AcDbVisualStyle
  2
Thicken
 70
    13
177
     2
291
     1
 71
     2
176
     1
 72
     2
176
     1
 73
     0
176
     1
 90
        0
176
     1
 40
-0.6
176
     1
 41
-30.0
176
     1
 62
     5
 63
     7
421
 16777215
176
     1
 74
     1
176
     1
 91
        4
176
     1
 64
     7
176
     1
 65
   257
176
     1
 75
     1
176
     1
175
     1
176
     1
 42
1.0
176
     1
 92
       12
176
     1
 66
     7
176
     1
 43
1.0
176
     1
 76
     1
176
     1
 77
     6
176
     1
 78
     2
176
     1
 67
     7
176
     1
 79
     5
176
     1
170
     0
176
     1
171
     0
176
     1
290
     0
176
     1
 93
        1
176
     1
 44
0.0
176
     1
173
     0
176
     1
  0
ENDSEC
  0
EOF
