  0
SECTION
  2
HEADER
  9
$ACADVER
  1
AC1024
  9
$ACADMAINTVER
 70
     6
  9
$DWGCODEPAGE
  3
UNDEFINED
  9
$INSBASE
 10
0.0
 20
0.0
 30
0.0
  9
$EXTMIN
 10
1.000000000000000E+20
 20
1.000000000000000E+20
 30
1.000000000000000E+20
  9
$EXTMAX
 10
-1.000000000000000E+20
 20
-1.000000000000000E+20
 30
-1.000000000000000E+20
  9
$LIMMIN
 10
0.0
 20
0.0
  9
$LIMMAX
 10
12.0
 20
9.0
  9
$ORTHOMODE
 70
     0
  9
$REGENMODE
 70
     1
  9
$FILLMODE
 70
     1
  9
$QTEXTMODE
 70
     0
  9
$MIRRTEXT
 70
     1
  9
$LTSCALE
 40
1.0
  9
$ATTMODE
 70
     1
  9
$TEXTSIZE
 40
0.2
  9
$TRACEWID
 40
0.05
  9
$TEXTSTYLE
  7
Standard
  9
$CLAYER
  8
0
  9
$CELTYPE
  6
ByLayer
  9
$CECOLOR
 62
   256
  9
$CELTSCALE
 40
1.0
  9
$DISPSILH
 70
     0
  9
$DIMSCALE
 40
1.0
  9
$DIMASZ
 40
0.18
  9
$DIMEXO
 40
0.0625
  9
$DIMDLI
 40
0.38
  9
$DIMRND
 40
0.0
  9
$DIMDLE
 40
0.0
  9
$DIMEXE
 40
0.18
  9
$DIMTP
 40
0.0
  9
$DIMTM
 40
0.0
  9
$DIMTXT
 40
0.18
  9
$DIMCEN
 40
0.09
  9
$DIMTSZ
 40
0.0
  9
$DIMTOL
 70
     0
  9
$DIMLIM
 70
     0
  9
$DIMTIH
 70
     1
  9
$DIMTOH
 70
     1
  9
$DIMSE1
 70
     0
  9
$DIMSE2
 70
     0
  9
$DIMTAD
 70
     0
  9
$DIMZIN
 70
     0
  9
$DIMBLK
  1

  9
$DIMASO
 70
     1
  9
$DIMSHO
 70
     1
  9
$DIMPOST
  1

  9
$DIMAPOST
  1

  9
$DIMALT
 70
     0
  9
$DIMALTD
 70
     2
  9
$DIMALTF
 40
25.4
  9
$DIMLFAC
 40
1.0
  9
$DIMTOFL
 70
     0
  9
$DIMTVP
 40
0.0
  9
$DIMTIX
 70
     0
  9
$DIMSOXD
 70
     0
  9
$DIMSAH
 70
     0
  9
$DIMBLK1
  1

  9
$DIMBLK2
  1

  9
$DIMSTYLE
  2
Standard
  9
$DIMCLRD
 70
     0
  9
$DIMCLRE
 70
     0
  9
$DIMCLRT
 70
     0
  9
$DIMTFAC
 40
1.0
  9
$DIMGAP
 40
0.09
  9
$DIMJUST
 70
     0
  9
$DIMSD1
 70
     0
  9
$DIMSD2
 70
     0
  9
$DIMTOLJ
 70
     1
  9
$DIMTZIN
 70
     0
  9
$DIMALTZ
 70
     0
  9
$DIMALTTZ
 70
     0
  9
$DIMUPT
 70
     0
  9
$DIMDEC
 70
     4
  9
$DIMTDEC
 70
     4
  9
$DIMALTU
 70
     2
  9
$DIMALTTD
 70
     2
  9
$DIMTXSTY
  7
Standard
  9
$DIMAUNIT
 70
     0
  9
$DIMADEC
 70
     0
  9
$DIMALTRND
 40
0.0
  9
$DIMAZIN
 70
     0
  9
$DIMDSEP
 70
    46
  9
$DIMATFIT
 70
     3
  9
$DIMFRAC
 70
     0
  9
$DIMLDRBLK
  1

  9
$DIMLUNIT
 70
     2
  9
$DIMLWD
 70
    -2
  9
$DIMLWE
 70
    -2
  9
$DIMTMOVE
 70
     0
  9
$DIMFXL
 40
1.0
  9
$DIMFXLON
 70
     0
  9
$DIMJOGANG
 40
0.7853981633974483
  9
$DIMTFILL
 70
     0
  9
$DIMTFILLCLR
 70
     0
  9
$DIMARCSYM
 70
     0
  9
$DIMLTYPE
  6

  9
$DIMLTEX1
  6

  9
$DIMLTEX2
  6

  9
$DIMTXTDIRECTION
 70
     0
  9
$LUNITS
 70
     2
  9
$LUPREC
 70
     4
  9
$SKETCHINC
 40
0.1
  9
$FILLETRAD
 40
0.5
  9
$AUNITS
 70
     0
  9
$AUPREC
 70
     0
  9
$MENU
  1
.
  9
$ELEVATION
 40
0.0
  9
$PELEVATION
 40
0.0
  9
$THICKNESS
 40
0.0
  9
$LIMCHECK
 70
     0
  9
$CHAMFERA
 40
0.5
  9
$CHAMFERB
 40
0.5
  9
$CHAMFERC
 40
1.0
  9
$CHAMFERD
 40
0.0
  9
$SKPOLY
 70
     0
  9
$TDCREATE
 40
2457917.61244213
  9
$TDUCREATE
 40
2457917.23744213
  9
$TDUPDATE
 40
2457917.61244213
  9
$TDUUPDATE
 40
2457917.23744213
  9
$TDINDWG
 40
0.0000000116
  9
$TDUSRTIMER
 40
0.0000000116
  9
$USRTIMER
 70
     1
  9
$ANGBASE
 50
0.0
  9
$ANGDIR
 70
     0
  9
$PDMODE
 70
     0
  9
$PDSIZE
 40
0.0
  9
$PLINEWID
 40
0.0
  9
$SPLFRAME
 70
     0
  9
$SPLINETYPE
 70
     6
  9
$SPLINESEGS
 70
     8
  9
$HANDSEED
  5
FB
  9
$SURFTAB1
 70
     6
  9
$SURFTAB2
 70
     6
  9
$SURFTYPE
 70
     6
  9
$SURFU
 70
     6
  9
$SURFV
 70
     6
  9
$UCSBASE
  2

  9
$UCSNAME
  2

  9
$UCSORG
 10
0.0
 20
0.0
 30
0.0
  9
$UCSXDIR
 10
1.0
 20
0.0
 30
0.0
  9
$UCSYDIR
 10
0.0
 20
1.0
 30
0.0
  9
$UCSORTHOREF
  2

  9
$UCSORTHOVIEW
 70
     0
  9
$UCSORGTOP
 10
0.0
 20
0.0
 30
0.0
  9
$UCSORGBOTTOM
 10
0.0
 20
0.0
 30
0.0
  9
$UCSORGLEFT
 10
0.0
 20
0.0
 30
0.0
  9
$UCSORGRIGHT
 10
0.0
 20
0.0
 30
0.0
  9
$UCSORGFRONT
 10
0.0
 20
0.0
 30
0.0
  9
$UCSORGBACK
 10
0.0
 20
0.0
 30
0.0
  9
$PUCSBASE
  2

  9
$PUCSNAME
  2

  9
$PUCSORG
 10
0.0
 20
0.0
 30
0.0
  9
$PUCSXDIR
 10
1.0
 20
0.0
 30
0.0
  9
$PUCSYDIR
 10
0.0
 20
1.0
 30
0.0
  9
$PUCSORTHOREF
  2

  9
$PUCSORTHOVIEW
 70
     0
  9
$PUCSORGTOP
 10
0.0
 20
0.0
 30
0.0
  9
$PUCSORGBOTTOM
 10
0.0
 20
0.0
 30
0.0
  9
$PUCSORGLEFT
 10
0.0
 20
0.0
 30
0.0
  9
$PUCSORGRIGHT
 10
0.0
 20
0.0
 30
0.0
  9
$PUCSORGFRONT
 10
0.0
 20
0.0
 30
0.0
  9
$PUCSORGBACK
 10
0.0
 20
0.0
 30
0.0
  9
$USERI1
 70
     0
  9
$USERI2
 70
     0
  9
$USERI3
 70
     0
  9
$USERI4
 70
     0
  9
$USERI5
 70
     0
  9
$USERR1
 40
0.0
  9
$USERR2
 40
0.0
  9
$USERR3
 40
0.0
  9
$USERR4
 40
0.0
  9
$USERR5
 40
0.0
  9
$WORLDVIEW
 70
     1
  9
$SHADEDGE
 70
     3
  9
$SHADEDIF
 70
    70
  9
$TILEMODE
 70
     1
  9
$MAXACTVP
 70
    64
  9
$PINSBASE
 10
0.0
 20
0.0
 30
0.0
  9
$PLIMCHECK
 70
     0
  9
$PEXTMIN
 10
1.000000000000000E+20
 20
1.000000000000000E+20
 30
1.000000000000000E+20
  9
$PEXTMAX
 10
-1.000000000000000E+20
 20
-1.000000000000000E+20
 30
-1.000000000000000E+20
  9
$PLIMMIN
 10
0.0
 20
0.0
  9
$PLIMMAX
 10
12.0
 20
9.0
  9
$UNITMODE
 70
     0
  9
$VISRETAIN
 70
     1
  9
$PLINEGEN
 70
     0
  9
$PSLTSCALE
 70
     1
  9
$TREEDEPTH
 70
  3020
  9
$CMLSTYLE
  2
Standard
  9
$CMLJUST
 70
     0
  9
$CMLSCALE
 40
1.0
  9
$PROXYGRAPHICS
 70
     1
  9
$MEASUREMENT
 70
     0
  9
$CELWEIGHT
370
    -1
  9
$ENDCAPS
280
     0
  9
$JOINSTYLE
280
     0
  9
$LWDISPLAY
290
     1
  9
$INSUNITS
 70
     1
  9
$HYPERLINKBASE
  1

  9
$STYLESHEET
  1

  9
$XEDIT
290
     1
  9
$CEPSNTYPE
380
     0
  9
$PSTYLEMODE
290
     1
  9
$FINGERPRINTGUID
  2
{1CC7E9C6-D055-AF28-48C5-577EDFC10ACC}
  9
$VERSIONGUID
  2
{FAEB1C32-E019-11D5-929B-00C0DF256EC4}
  9
$EXTNAMES
290
     1
  9
$PSVPSCALE
 40
0.0
  9
$OLESTARTUP
290
     0
  9
$SORTENTS
280
   127
  9
$INDEXCTL
280
     0
  9
$HIDETEXT
280
     1
  9
$XCLIPFRAME
280
     2
  9
$HALOGAP
280
     0
  9
$OBSCOLOR
 70
   257
  9
$OBSLTYPE
280
     0
  9
$INTERSECTIONDISPLAY
280
     0
  9
$INTERSECTIONCOLOR
 70
   257
  9
$DIMASSOC
280
     2
  9
$PROJECTNAME
  1

  9
$CAMERADISPLAY
290
     0
  9
$LENSLENGTH
 40
50.0
  9
$CAMERAHEIGHT
 40
0.0
  9
$STEPSPERSEC
 40
2.0
  9
$STEPSIZE
 40
6.0
  9
$3DDWFPREC
 40
2.0
  9
$PSOLWIDTH
 40
0.25
  9
$PSOLHEIGHT
 40
4.0
  9
$LOFTANG1
 40
1.570796326794897
  9
$LOFTANG2
 40
1.570796326794897
  9
$LOFTMAG1
 40
0.0
  9
$LOFTMAG2
 40
0.0
  9
$LOFTPARAM
 70
     7
  9
$LOFTNORMALS
280
     1
  9
$LATITUDE
 40
37.795
  9
$LONGITUDE
 40
-122.394
  9
$NORTHDIRECTION
 40
0.0
  9
$TIMEZONE
 70
 -8000
  9
$LIGHTGLYPHDISPLAY
280
     1
  9
$TILEMODELIGHTSYNCH
280
     1
  9
$CMATERIAL
347
3C
  9
$SOLIDHIST
280
     1
  9
$SHOWHIST
280
     1
  9
$DWFFRAME
280
     2
  9
$DGNFRAME
280
     2
  9
$REALWORLDSCALE
290
     1
  9
$INTERFERECOLOR
 62
   256
  9
$CSHADOW
280
     0
  9
$SHADOWPLANELOCATION
 40
0.0
  0
ENDSEC
  0
SECTION
  2
CLASSES
  0
CLASS
  1
ACDBDICTIONARYWDFLT
  2
AcDbDictionaryWithDefault
  3
ObjectDBX Classes
 90
        0
 91
        4
280
     0
281
     0
  0
CLASS
  1
VISUALSTYLE
  2
AcDbVisualStyle
  3
ObjectDBX Classes
 90
     4095
 91
        4
280
     0
281
     0
  0
CLASS
  1
MATERIAL
  2
AcDbMaterial
  3
ObjectDBX Classes
 90
     1153
 91
        4
280
     0
281
     0
  0
CLASS
  1
SUN
  2
AcDbSun
  3
SCENEOE
 90
     1024
 91
        4
280
     0
281
     0
  0
ENDSEC
  0
SECTION
  2
TABLES
  0
TABLE
  2
VPORT
  5
8
330
0
100
AcDbSymbolTable
 70
     1
  0
VPORT
  5
29
330
8
100
AcDbSymbolTableRecord
100
AcDbViewportTableRecord
  2
*Active
 70
     0
 10
0.0
 20
0.0
 11
1.0
 21
1.0
 12
0.0
 22
0.0
 13
0.0
 23
0.0
 14
0.5
 24
0.5
 15
0.5
 25
0.5
 16
0.0
 26
0.0
 36
1.0
 17
91.00082462281999
 27
-128.4993055234307
 37
0.0
 40
256.9986110468615
 41
0.7081814508812795
 42
50.0
 43
0.0
 44
0.0
 50
0.0
 51
0.0
 71
     0
 72
   100
 73
     1
 74
     3
 75
     0
 76
     0
 77
     0
 78
     0
281
     0
 65
     1
110
0.0
120
0.0
130
0.0
111
1.0
121
0.0
131
0.0
112
0.0
122
1.0
132
0.0
 79
     0
146
0.0
 60
     3
 61
     5
292
     1
282
     1
141
0.0
142
0.0
 63
   250
361
3F
  0
ENDTAB
  0
TABLE
  2
LTYPE
  5
5
330
0
100
AcDbSymbolTable
 70
     1
  0
LTYPE
  5
14
330
5
100
AcDbSymbolTableRecord
100
AcDbLinetypeTableRecord
  2
ByBlock
 70
     0
  3

 72
    65
 73
     0
 40
0.0
  0
LTYPE
  5
15
330
5
100
AcDbSymbolTableRecord
100
AcDbLinetypeTableRecord
  2
ByLayer
 70
     0
  3

 72
    65
 73
     0
 40
0.0
  0
LTYPE
  5
16
330
5
100
AcDbSymbolTableRecord
100
AcDbLinetypeTableRecord
  2
Continuous
 70
     0
  3
Solid line
 72
    65
 73
     0
 40
0.0
  0
ENDTAB
  0
TABLE
  2
LAYER
  5
2
330
0
100
AcDbSymbolTable
 70
     2
  0
LAYER
  5
10
330
2
100
AcDbSymbolTableRecord
100
AcDbLayerTableRecord
  2
0
 70
     0
 62
     7
  6
Continuous
370
    -3
390
F
347
3E
  0
LAYER
  5
40
330
2
100
AcDbSymbolTableRecord
100
AcDbLayerTableRecord
  2
_U+30EC_U+30A4_U+30E4_U+30FC 1
 70
     0
 62
     7
  6
Continuous
370
    -3
390
F
347
3E
  0
ENDTAB
  0
TABLE
  2
STYLE
  5
3
330
0
100
AcDbSymbolTable
 70
     1
  0
STYLE
  5
11
330
3
100
AcDbSymbolTableRecord
100
AcDbTextStyleTableRecord
  2
Standard
 70
     0
 40
0.0
 41
1.0
 50
0.0
 71
     0
 42
0.2
  3
txt
  4

  0
ENDTAB
  0
TABLE
  2
VIEW
  5
6
330
0
100
AcDbSymbolTable
 70
     0
  0
ENDTAB
  0
TABLE
  2
UCS
  5
7
330
0
100
AcDbSymbolTable
 70
     0
  0
ENDTAB
  0
TABLE
  2
APPID
  5
9
330
0
100
AcDbSymbolTable
 70
     1
  0
APPID
  5
12
330
9
100
AcDbSymbolTableRecord
100
AcDbRegAppTableRecord
  2
ACAD
 70
     0
  0
ENDTAB
  0
TABLE
  2
DIMSTYLE
  5
A
330
0
100
AcDbSymbolTable
 70
     1
100
AcDbDimStyleTable
  0
DIMSTYLE
105
27
330
A
100
AcDbSymbolTableRecord
100
AcDbDimStyleTableRecord
  2
Standard
 70
     0
178
     0
340
11
  0
ENDTAB
  0
TABLE
  2
BLOCK_RECORD
  5
1
330
0
100
AcDbSymbolTable
 70
    13
  0
BLOCK_RECORD
  5
1F
330
1
100
AcDbSymbolTableRecord
100
AcDbBlockTableRecord
  2
*Model_Space
340
22
 70
     0
280
     1
281
     0
  0
BLOCK_RECORD
  5
1B
330
1
100
AcDbSymbolTableRecord
100
AcDbBlockTableRecord
  2
*Paper_Space
340
1E
 70
     0
280
     1
281
     0
  0
BLOCK_RECORD
  5
23
330
1
100
AcDbSymbolTableRecord
100
AcDbBlockTableRecord
  2
*Paper_Space0
340
26
 70
     0
280
     1
281
     0
  0
BLOCK_RECORD
  5
41
330
1
100
AcDbSymbolTableRecord
100
AcDbBlockTableRecord
  2
block 2
340
0
102
{BLKREFS
331
42
102
}
 70
     0
280
     1
281
     0
  0
BLOCK_RECORD
  5
53
330
1
100
AcDbSymbolTableRecord
100
AcDbBlockTableRecord
  2
block 3
340
0
102
{BLKREFS
331
54
102
}
 70
     0
280
     1
281
     0
  0
BLOCK_RECORD
  5
87
330
1
100
AcDbSymbolTableRecord
100
AcDbBlockTableRecord
  2
block 4
340
0
102
{BLKREFS
331
88
102
}
 70
     0
280
     1
281
     0
  0
BLOCK_RECORD
  5
9B
330
1
100
AcDbSymbolTableRecord
100
AcDbBlockTableRecord
  2
block 5
340
0
102
{BLKREFS
331
9C
102
}
 70
     0
280
     1
281
     0
  0
BLOCK_RECORD
  5
A1
330
1
100
AcDbSymbolTableRecord
100
AcDbBlockTableRecord
  2
block 6
340
0
102
{BLKREFS
331
A2
102
}
 70
     0
280
     1
281
     0
  0
BLOCK_RECORD
  5
AD
330
1
100
AcDbSymbolTableRecord
100
AcDbBlockTableRecord
  2
block 7
340
0
102
{BLKREFS
331
AE
102
}
 70
     0
280
     1
281
     0
  0
BLOCK_RECORD
  5
B3
330
1
100
AcDbSymbolTableRecord
100
AcDbBlockTableRecord
  2
block 8
340
0
102
{BLKREFS
331
B4
102
}
 70
     0
280
     1
281
     0
  0
BLOCK_RECORD
  5
C3
330
1
100
AcDbSymbolTableRecord
100
AcDbBlockTableRecord
  2
block 9
340
0
102
{BLKREFS
331
C4
102
}
 70
     0
280
     1
281
     0
  0
BLOCK_RECORD
  5
CB
330
1
100
AcDbSymbolTableRecord
100
AcDbBlockTableRecord
  2
block 10
340
0
102
{BLKREFS
331
CC
102
}
 70
     0
280
     1
281
     0
  0
BLOCK_RECORD
  5
DB
330
1
100
AcDbSymbolTableRecord
100
AcDbBlockTableRecord
  2
block 11
340
0
102
{BLKREFS
331
DC
102
}
 70
     0
280
     1
281
     0
  0
BLOCK_RECORD
  5
E4
330
1
100
AcDbSymbolTableRecord
100
AcDbBlockTableRecord
  2
block 12
340
0
102
{BLKREFS
331
E5
102
}
 70
     0
280
     1
281
     0
  0
BLOCK_RECORD
  5
F0
330
1
100
AcDbSymbolTableRecord
100
AcDbBlockTableRecord
  2
block 13
340
0
102
{BLKREFS
331
F1
102
}
 70
     0
280
     1
281
     0
  0
ENDTAB
  0
ENDSEC
  0
SECTION
  2
BLOCKS
  0
BLOCK
  5
20
330
1F
100
AcDbEntity
  8
0
100
AcDbBlockBegin
  2
*Model_Space
 70
     0
 10
0.0
 20
0.0
 30
0.0
  3
*Model_Space
  1

  0
ENDBLK
  5
21
330
1F
100
AcDbEntity
  8
0
100
AcDbBlockEnd
  0
BLOCK
  5
1C
330
1B
100
AcDbEntity
 67
     1
  8
0
100
AcDbBlockBegin
  2
*Paper_Space
 70
     0
 10
0.0
 20
0.0
 30
0.0
  3
*Paper_Space
  1

  0
ENDBLK
  5
1D
330
1B
100
AcDbEntity
 67
     1
  8
0
100
AcDbBlockEnd
  0
BLOCK
  5
24
330
23
100
AcDbEntity
  8
0
100
AcDbBlockBegin
  2
*Paper_Space0
 70
     0
 10
0.0
 20
0.0
 30
0.0
  3
*Paper_Space0
  1

  0
ENDBLK
  5
25
330
23
100
AcDbEntity
  8
0
100
AcDbBlockEnd
  0
BLOCK
  5
43
330
41
100
AcDbEntity
  8
0
100
AcDbBlockBegin
  2
block 2
 70
     0
 10
0.0
 20
0.0
 30
0.0
  3
block 2
  1

  0
POLYLINE
  5
45
330
41
100
AcDbEntity
  8
_U+30EC_U+30A4_U+30E4_U+30FC 1
370
     0
100
AcDb2dPolyline
 66
     1
 10
0.0
 20
0.0
 30
0.0
  0
VERTEX
  5
46
330
45
100
AcDbEntity
  8
_U+30EC_U+30A4_U+30E4_U+30FC 1
370
     0
100
AcDbVertex
100
AcDb2dVertex
 10
73.70779950844626
 20
-138.4308113542811
 30
0.0
  0
VERTEX
  5
47
330
45
100
AcDbEntity
  8
_U+30EC_U+30A4_U+30E4_U+30FC 1
370
     0
100
AcDbVertex
100
AcDb2dVertex
 10
88.70776912576515
 20
-138.4308113542811
 30
0.0
  0
VERTEX
  5
48
330
45
100
AcDbEntity
  8
_U+30EC_U+30A4_U+30E4_U+30FC 1
370
     0
100
AcDbVertex
100
AcDb2dVertex
 10
88.70776912576515
 20
-135.4308244105868
 30
0.0
  0
VERTEX
  5
49
330
45
100
AcDbEntity
  8
_U+30EC_U+30A4_U+30E4_U+30FC 1
370
     0
100
AcDbVertex
100
AcDb2dVertex
 10
87.70799692904924
 20
-135.4308244105868
 30
0.0
  0
VERTEX
  5
4A
330
45
100
AcDbEntity
  8
_U+30EC_U+30A4_U+30E4_U+30FC 1
370
     0
100
AcDbVertex
100
AcDb2dVertex
 10
87.70799692904924
 20
-137.4303688545312
 30
0.0
  0
VERTEX
  5
4B
330
45
100
AcDbEntity
  8
_U+30EC_U+30A4_U+30E4_U+30FC 1
370
     0
100
AcDbVertex
100
AcDb2dVertex
 10
74.70757170516217
 20
-137.4303688545312
 30
0.0
  0
VERTEX
  5
4C
330
45
100
AcDbEntity
  8
_U+30EC_U+30A4_U+30E4_U+30FC 1
370
     0
100
AcDbVertex
100
AcDb2dVertex
 10
74.70757170516217
 20
-122.430610524948
 30
0.0
  0
VERTEX
  5
4D
330
45
100
AcDbEntity
  8
_U+30EC_U+30A4_U+30E4_U+30FC 1
370
     0
100
AcDbVertex
100
AcDb2dVertex
 10
103.7077034653072
 20
-122.430610524948
 30
0.0
  0
VERTEX
  5
4E
330
45
100
AcDbEntity
  8
_U+30EC_U+30A4_U+30E4_U+30FC 1
370
     0
100
AcDbVertex
100
AcDb2dVertex
 10
103.7077034653072
 20
-121.4308383029755
 30
0.0
  0
VERTEX
  5
4F
330
45
100
AcDbEntity
  8
_U+30EC_U+30A4_U+30E4_U+30FC 1
370
     0
100
AcDbVertex
100
AcDb2dVertex
 10
73.70779950844626
 20
-121.4308383029755
 30
0.0
  0
VERTEX
  5
50
330
45
100
AcDbEntity
  8
_U+30EC_U+30A4_U+30E4_U+30FC 1
370
     0
100
AcDbVertex
100
AcDb2dVertex
 10
73.70779950844626
 20
-138.4308113542811
 30
0.0
  0
SEQEND
  5
52
330
45
100
AcDbEntity
  8
_U+30EC_U+30A4_U+30E4_U+30FC 1
370
     0
  0
HATCH
  5
51
330
41
100
AcDbEntity
  8
_U+30EC_U+30A4_U+30E4_U+30FC 1
 62
   253
420
 11711154
100
AcDbHatch
 10
0.0
 20
0.0
 30
0.0
210
0.0
220
0.0
230
1.0
  2
SOLID
 70
     1
 71
     0
 91
        1
 92
        1
 93
       10
 72
     1
 10
73.70779950844626
 20
-138.4308113542811
 11
88.70776912576515
 21
-138.4308113542811
 72
     1
 10
88.70776912576515
 20
-138.4308113542811
 11
88.70776912576515
 21
-135.4308244105868
 72
     1
 10
88.70776912576515
 20
-135.4308244105868
 11
87.70799692904924
 21
-135.4308244105868
 72
     1
 10
87.70799692904924
 20
-135.4308244105868
 11
87.70799692904924
 21
-137.4303688545312
 72
     1
 10
87.70799692904924
 20
-137.4303688545312
 11
74.70757170516217
 21
-137.4303688545312
 72
     1
 10
74.70757170516217
 20
-137.4303688545312
 11
74.70757170516217
 21
-122.430610524948
 72
     1
 10
74.70757170516217
 20
-122.430610524948
 11
103.7077034653072
 21
-122.430610524948
 72
     1
 10
103.7077034653072
 20
-122.430610524948
 11
103.7077034653072
 21
-121.4308383029755
 72
     1
 10
103.7077034653072
 20
-121.4308383029755
 11
73.70779950844626
 21
-121.4308383029755
 72
     1
 10
73.70779950844626
 20
-121.4308383029755
 11
73.70779950844626
 21
-138.4308113542811
 97
        0
 75
     2
 76
     1
 98
        0
  0
INSERT
  5
54
330
41
100
AcDbEntity
  8
_U+30EC_U+30A4_U+30E4_U+30FC 1
100
AcDbBlockReference
  2
block 3
 10
0.0
 20
0.0
 30
0.0
  0
SPLINE
  5
F8
330
41
100
AcDbEntity
  8
_U+30EC_U+30A4_U+30E4_U+30FC 1
 62
   179
420
  2234388
370
     9
100
AcDbSpline
210
0.0
220
0.0
230
1.0
 70
    11
 71
     3
 72
    17
 73
    13
 74
     0
 42
0.0000000001
 43
0.0000000001
 12
1.0
 22
0.0
 32
0.0
 13
1.0
 23
0.0
 33
0.0
 40
0.0
 40
0.0
 40
0.0
 40
0.0
 40
1.0
 40
1.0
 40
1.0
 40
2.0
 40
2.0
 40
2.0
 40
3.0
 40
3.0
 40
3.0
 40
4.0
 40
4.0
 40
4.0
 40
4.0
 10
73.88835117050667
 20
-131.7866299670534
 30
0.0
 10
73.88835117050667
 20
-131.7308205226229
 30
0.0
 10
73.84354839387191
 20
-131.6860177448562
 30
0.0
 10
73.78826811750444
 20
-131.6860177448562
 30
0.0
 10
73.7331289522445
 20
-131.6860177448562
 30
0.0
 10
73.68836145338662
 20
-131.7308205226229
 30
0.0
 10
73.68836145338662
 20
-131.7866299670534
 30
0.0
 10
73.68836145338662
 20
-131.8417338559283
 30
0.0
 10
73.7331289522445
 20
-131.886536633695
 30
0.0
 10
73.78826811750444
 20
-131.886536633695
 30
0.0
 10
73.84354839387191
 20
-131.886536633695
 30
0.0
 10
73.88835117050667
 20
-131.8417338559283
 30
0.0
 10
73.88835117050667
 20
-131.7866299670534
 30
0.0
  0
ENDBLK
  5
44
330
41
100
AcDbEntity
  8
0
100
AcDbBlockEnd
  0
BLOCK
  5
55
330
53
100
AcDbEntity
  8
0
100
AcDbBlockBegin
  2
block 3
 70
     0
 10
0.0
 20
0.0
 30
0.0
  3
block 3
  1

  0
POLYLINE
  5
57
330
53
100
AcDbEntity
  8
_U+30EC_U+30A4_U+30E4_U+30FC 1
 62
   179
420
  2234388
370
    25
100
AcDb2dPolyline
 66
     1
 10
0.0
 20
0.0
 30
0.0
  0
VERTEX
  5
58
330
57
100
AcDbEntity
  8
_U+30EC_U+30A4_U+30E4_U+30FC 1
 62
   179
420
  2234388
370
    25
100
AcDbVertex
100
AcDb2dVertex
 10
73.70748200845436
 20
-121.4308383029755
 30
0.0
  0
VERTEX
  5
59
330
57
100
AcDbEntity
  8
_U+30EC_U+30A4_U+30E4_U+30FC 1
 62
   179
420
  2234388
370
    25
100
AcDbVertex
100
AcDb2dVertex
 10
103.7077034653072
 20
-121.4308383029755
 30
0.0
  0
SEQEND
  5
5A
330
57
100
AcDbEntity
  8
_U+30EC_U+30A4_U+30E4_U+30FC 1
 62
   179
420
  2234388
370
    25
  0
POLYLINE
  5
5B
330
53
100
AcDbEntity
  8
_U+30EC_U+30A4_U+30E4_U+30FC 1
 62
   179
420
  2234388
370
    25
100
AcDb2dPolyline
 66
     1
 10
0.0
 20
0.0
 30
0.0
  0
VERTEX
  5
5C
330
5B
100
AcDbEntity
  8
_U+30EC_U+30A4_U+30E4_U+30FC 1
 62
   179
420
  2234388
370
    25
100
AcDbVertex
100
AcDb2dVertex
 10
73.70748200845436
 20
-121.4308383029755
 30
0.0
  0
VERTEX
  5
5D
330
5B
100
AcDbEntity
  8
_U+30EC_U+30A4_U+30E4_U+30FC 1
 62
   179
420
  2234388
370
    25
100
AcDbVertex
100
AcDb2dVertex
 10
73.70748200845436
 20
-138.4308113542811
 30
0.0
  0
SEQEND
  5
5E
330
5B
100
AcDbEntity
  8
_U+30EC_U+30A4_U+30E4_U+30FC 1
 62
   179
420
  2234388
370
    25
  0
POLYLINE
  5
5F
330
53
100
AcDbEntity
  8
_U+30EC_U+30A4_U+30E4_U+30FC 1
 62
   179
420
  2234388
370
    25
100
AcDb2dPolyline
 66
     1
 10
0.0
 20
0.0
 30
0.0
  0
VERTEX
  5
60
330
5F
100
AcDbEntity
  8
_U+30EC_U+30A4_U+30E4_U+30FC 1
 62
   179
420
  2234388
370
    25
100
AcDbVertex
100
AcDb2dVertex
 10
103.7077034653072
 20
-121.4308383029755
 30
0.0
  0
VERTEX
  5
61
330
5F
100
AcDbEntity
  8
_U+30EC_U+30A4_U+30E4_U+30FC 1
 62
   179
420
  2234388
370
    25
100
AcDbVertex
100
AcDb2dVertex
 10
103.7077034653072
 20
-122.430610524948
 30
0.0
  0
SEQEND
  5
62
330
5F
100
AcDbEntity
  8
_U+30EC_U+30A4_U+30E4_U+30FC 1
 62
   179
420
  2234388
370
    25
  0
POLYLINE
  5
63
330
53
100
AcDbEntity
  8
_U+30EC_U+30A4_U+30E4_U+30FC 1
 62
   179
420
  2234388
370
    25
100
AcDb2dPolyline
 66
     1
 10
0.0
 20
0.0
 30
0.0
  0
VERTEX
  5
64
330
63
100
AcDbEntity
  8
_U+30EC_U+30A4_U+30E4_U+30FC 1
 62
   179
420
  2234388
370
    25
100
AcDbVertex
100
AcDb2dVertex
 10
74.70757170516217
 20
-122.430610524948
 30
0.0
  0
VERTEX
  5
65
330
63
100
AcDbEntity
  8
_U+30EC_U+30A4_U+30E4_U+30FC 1
 62
   179
420
  2234388
370
    25
100
AcDbVertex
100
AcDb2dVertex
 10
103.7077034653072
 20
-122.430610524948
 30
0.0
  0
SEQEND
  5
66
330
63
100
AcDbEntity
  8
_U+30EC_U+30A4_U+30E4_U+30FC 1
 62
   179
420
  2234388
370
    25
  0
POLYLINE
  5
67
330
53
100
AcDbEntity
  8
_U+30EC_U+30A4_U+30E4_U+30FC 1
 62
   179
420
  2234388
370
    25
100
AcDb2dPolyline
 66
     1
 10
0.0
 20
0.0
 30
0.0
  0
VERTEX
  5
68
330
67
100
AcDbEntity
  8
_U+30EC_U+30A4_U+30E4_U+30FC 1
 62
   179
420
  2234388
370
    25
100
AcDbVertex
100
AcDb2dVertex
 10
88.70776912576515
 20
-135.4308244105868
 30
0.0
  0
VERTEX
  5
69
330
67
100
AcDbEntity
  8
_U+30EC_U+30A4_U+30E4_U+30FC 1
 62
   179
420
  2234388
370
    25
100
AcDbVertex
100
AcDb2dVertex
 10
88.70776912576515
 20
-138.4308113542811
 30
0.0
  0
SEQEND
  5
6A
330
67
100
AcDbEntity
  8
_U+30EC_U+30A4_U+30E4_U+30FC 1
 62
   179
420
  2234388
370
    25
  0
POLYLINE
  5
6B
330
53
100
AcDbEntity
  8
_U+30EC_U+30A4_U+30E4_U+30FC 1
 62
   179
420
  2234388
370
    25
100
AcDb2dPolyline
 66
     1
 10
0.0
 20
0.0
 30
0.0
  0
VERTEX
  5
6C
330
6B
100
AcDbEntity
  8
_U+30EC_U+30A4_U+30E4_U+30FC 1
 62
   179
420
  2234388
370
    25
100
AcDbVertex
100
AcDb2dVertex
 10
87.7072913735117
 20
-135.4308244105868
 30
0.0
  0
VERTEX
  5
6D
330
6B
100
AcDbEntity
  8
_U+30EC_U+30A4_U+30E4_U+30FC 1
 62
   179
420
  2234388
370
    25
100
AcDbVertex
100
AcDb2dVertex
 10
87.7072913735117
 20
-137.4303688545312
 30
0.0
  0
SEQEND
  5
6E
330
6B
100
AcDbEntity
  8
_U+30EC_U+30A4_U+30E4_U+30FC 1
 62
   179
420
  2234388
370
    25
  0
POLYLINE
  5
6F
330
53
100
AcDbEntity
  8
_U+30EC_U+30A4_U+30E4_U+30FC 1
 62
   179
420
  2234388
370
    25
100
AcDb2dPolyline
 66
     1
 10
0.0
 20
0.0
 30
0.0
  0
VERTEX
  5
70
330
6F
100
AcDbEntity
  8
_U+30EC_U+30A4_U+30E4_U+30FC 1
 62
   179
420
  2234388
370
    25
100
AcDbVertex
100
AcDb2dVertex
 10
74.70757170516217
 20
-122.430610524948
 30
0.0
  0
VERTEX
  5
71
330
6F
100
AcDbEntity
  8
_U+30EC_U+30A4_U+30E4_U+30FC 1
 62
   179
420
  2234388
370
    25
100
AcDbVertex
100
AcDb2dVertex
 10
74.70757170516217
 20
-137.4303688545312
 30
0.0
  0
SEQEND
  5
72
330
6F
100
AcDbEntity
  8
_U+30EC_U+30A4_U+30E4_U+30FC 1
 62
   179
420
  2234388
370
    25
  0
POLYLINE
  5
73
330
53
100
AcDbEntity
  8
_U+30EC_U+30A4_U+30E4_U+30FC 1
 62
   179
420
  2234388
370
    25
100
AcDb2dPolyline
 66
     1
 10
0.0
 20
0.0
 30
0.0
  0
VERTEX
  5
74
330
73
100
AcDbEntity
  8
_U+30EC_U+30A4_U+30E4_U+30FC 1
 62
   179
420
  2234388
370
    25
100
AcDbVertex
100
AcDb2dVertex
 10
87.7072913735117
 20
-135.4308244105868
 30
0.0
  0
VERTEX
  5
75
330
73
100
AcDbEntity
  8
_U+30EC_U+30A4_U+30E4_U+30FC 1
 62
   179
420
  2234388
370
    25
100
AcDbVertex
100
AcDb2dVertex
 10
88.70776912576515
 20
-135.4308244105868
 30
0.0
  0
SEQEND
  5
76
330
73
100
AcDbEntity
  8
_U+30EC_U+30A4_U+30E4_U+30FC 1
 62
   179
420
  2234388
370
    25
  0
POLYLINE
  5
77
330
53
100
AcDbEntity
  8
_U+30EC_U+30A4_U+30E4_U+30FC 1
 62
   179
420
  2234388
370
    25
100
AcDb2dPolyline
 66
     1
 10
0.0
 20
0.0
 30
0.0
  0
VERTEX
  5
78
330
77
100
AcDbEntity
  8
_U+30EC_U+30A4_U+30E4_U+30FC 1
 62
   179
420
  2234388
370
    25
100
AcDbVertex
100
AcDb2dVertex
 10
73.70748200845436
 20
-138.4308113542811
 30
0.0
  0
VERTEX
  5
79
330
77
100
AcDbEntity
  8
_U+30EC_U+30A4_U+30E4_U+30FC 1
 62
   179
420
  2234388
370
    25
100
AcDbVertex
100
AcDb2dVertex
 10
88.70776912576515
 20
-138.4308113542811
 30
0.0
  0
SEQEND
  5
7A
330
77
100
AcDbEntity
  8
_U+30EC_U+30A4_U+30E4_U+30FC 1
 62
   179
420
  2234388
370
    25
  0
POLYLINE
  5
7B
330
53
100
AcDbEntity
  8
_U+30EC_U+30A4_U+30E4_U+30FC 1
 62
   179
420
  2234388
370
    25
100
AcDb2dPolyline
 66
     1
 10
0.0
 20
0.0
 30
0.0
  0
VERTEX
  5
7C
330
7B
100
AcDbEntity
  8
_U+30EC_U+30A4_U+30E4_U+30FC 1
 62
   179
420
  2234388
370
    25
100
AcDbVertex
100
AcDb2dVertex
 10
74.70757170516217
 20
-137.4303688545312
 30
0.0
  0
VERTEX
  5
7D
330
7B
100
AcDbEntity
  8
_U+30EC_U+30A4_U+30E4_U+30FC 1
 62
   179
420
  2234388
370
    25
100
AcDbVertex
100
AcDb2dVertex
 10
87.7072913735117
 20
-137.4303688545312
 30
0.0
  0
SEQEND
  5
7E
330
7B
100
AcDbEntity
  8
_U+30EC_U+30A4_U+30E4_U+30FC 1
 62
   179
420
  2234388
370
    25
  0
SPLINE
  5
7F
330
53
100
AcDbEntity
  8
_U+30EC_U+30A4_U+30E4_U+30FC 1
 62
   179
420
  2234388
370
     9
100
AcDbSpline
210
0.0
220
0.0
230
1.0
 70
    11
 71
     3
 72
    17
 73
    13
 74
     0
 42
0.0000000001
 43
0.0000000001
 12
1.0
 22
0.0
 32
0.0
 13
1.0
 23
0.0
 33
0.0
 40
0.0
 40
0.0
 40
0.0
 40
0.0
 40
1.0
 40
1.0
 40
1.0
 40
2.0
 40
2.0
 40
2.0
 40
3.0
 40
3.0
 40
3.0
 40
4.0
 40
4.0
 40
4.0
 40
4.0
 10
73.80774145034097
 20
-117.4307263595312
 30
0.0
 10
73.80774145034097
 20
-117.3756224706563
 30
0.0
 10
73.76293867370622
 20
-117.3308196928895
 30
0.0
 10
73.70748200845436
 20
-117.3308196928895
 30
0.0
 10
73.65234284319442
 20
-117.3308196928895
 30
0.0
 10
73.60757534433652
 20
-117.3756224706563
 30
0.0
 10
73.60757534433652
 20
-117.4307263595312
 30
0.0
 10
73.60757534433652
 20
-117.4861830261839
 30
0.0
 10
73.65234284319442
 20
-117.5309858039506
 30
0.0
 10
73.70748200845436
 20
-117.5309858039506
 30
0.0
 10
73.76293867370622
 20
-117.5309858039506
 30
0.0
 10
73.80774145034097
 20
-117.4861830261839
 30
0.0
 10
73.80774145034097
 20
-117.4307263595312
 30
0.0
  0
SPLINE
  5
80
330
53
100
AcDbEntity
  8
_U+30EC_U+30A4_U+30E4_U+30FC 1
 62
   179
420
  2234388
370
     9
100
AcDbSpline
210
0.0
220
0.0
230
1.0
 70
    11
 71
     3
 72
    17
 73
    13
 74
     0
 42
0.0000000001
 43
0.0000000001
 12
1.0
 22
0.0
 32
0.0
 13
1.0
 23
0.0
 33
0.0
 40
0.0
 40
0.0
 40
0.0
 40
0.0
 40
1.0
 40
1.0
 40
1.0
 40
2.0
 40
2.0
 40
2.0
 40
3.0
 40
3.0
 40
3.0
 40
4.0
 40
4.0
 40
4.0
 40
4.0
 10
103.807610129425
 20
-117.4307263595312
 30
0.0
 10
103.807610129425
 20
-117.3756224706563
 30
0.0
 10
103.7628426305671
 20
-117.3308196928895
 30
0.0
 10
103.7077034653072
 20
-117.3308196928895
 30
0.0
 10
103.6525995778241
 20
-117.3308196928895
 30
0.0
 10
103.6077968011893
 20
-117.3756224706563
 30
0.0
 10
103.6077968011893
 20
-117.4307263595312
 30
0.0
 10
103.6077968011893
 20
-117.4861830261839
 30
0.0
 10
103.6525995778241
 20
-117.5309858039506
 30
0.0
 10
103.7077034653072
 20
-117.5309858039506
 30
0.0
 10
103.7628426305671
 20
-117.5309858039506
 30
0.0
 10
103.807610129425
 20
-117.4861830261839
 30
0.0
 10
103.807610129425
 20
-117.4307263595312
 30
0.0
  0
SPLINE
  5
81
330
53
100
AcDbEntity
  8
_U+30EC_U+30A4_U+30E4_U+30FC 1
 62
   179
420
  2234388
370
     9
100
AcDbSpline
210
0.0
220
0.0
230
1.0
 70
    11
 71
     3
 72
    17
 73
    13
 74
     0
 42
0.0000000001
 43
0.0000000001
 12
1.0
 22
0.0
 32
0.0
 13
1.0
 23
0.0
 33
0.0
 40
0.0
 40
0.0
 40
0.0
 40
0.0
 40
1.0
 40
1.0
 40
1.0
 40
2.0
 40
2.0
 40
2.0
 40
3.0
 40
3.0
 40
3.0
 40
4.0
 40
4.0
 40
4.0
 40
4.0
 10
107.8073691940493
 20
-121.4308383029755
 30
0.0
 10
107.8073691940493
 20
-121.3756991363228
 30
0.0
 10
107.7626016951914
 20
-121.3309316363339
 30
0.0
 10
107.7074625299315
 20
-121.3309316363339
 30
0.0
 10
107.6523586424484
 20
-121.3309316363339
 30
0.0
 10
107.6075558658137
 20
-121.3756991363228
 30
0.0
 10
107.6075558658137
 20
-121.4308383029755
 30
0.0
 10
107.6075558658137
 20
-121.4859421918507
 30
0.0
 10
107.6523586424484
 20
-121.5307449696175
 30
0.0
 10
107.7074625299315
 20
-121.5307449696175
 30
0.0
 10
107.7626016951914
 20
-121.5307449696175
 30
0.0
 10
107.8073691940493
 20
-121.4859421918507
 30
0.0
 10
107.8073691940493
 20
-121.4308383029755
 30
0.0
  0
SPLINE
  5
82
330
53
100
AcDbEntity
  8
_U+30EC_U+30A4_U+30E4_U+30FC 1
 62
   179
420
  2234388
370
     9
100
AcDbSpline
210
0.0
220
0.0
230
1.0
 70
    11
 71
     3
 72
    17
 73
    13
 74
     0
 42
0.0000000001
 43
0.0000000001
 12
1.0
 22
0.0
 32
0.0
 13
1.0
 23
0.0
 33
0.0
 40
0.0
 40
0.0
 40
0.0
 40
0.0
 40
1.0
 40
1.0
 40
1.0
 40
2.0
 40
2.0
 40
2.0
 40
3.0
 40
3.0
 40
3.0
 40
4.0
 40
4.0
 40
4.0
 40
4.0
 10
107.8073691940493
 20
-122.430610524948
 30
0.0
 10
107.8073691940493
 20
-122.375471358295
 30
0.0
 10
107.7626016951914
 20
-122.3307038583061
 30
0.0
 10
107.7074625299315
 20
-122.3307038583061
 30
0.0
 10
107.6523586424484
 20
-122.3307038583061
 30
0.0
 10
107.6075558658137
 20
-122.375471358295
 30
0.0
 10
107.6075558658137
 20
-122.430610524948
 30
0.0
 10
107.6075558658137
 20
-122.485714413823
 30
0.0
 10
107.6523586424484
 20
-122.5305171915897
 30
0.0
 10
107.7074625299315
 20
-122.5305171915897
 30
0.0
 10
107.7626016951914
 20
-122.5305171915897
 30
0.0
 10
107.8073691940493
 20
-122.485714413823
 30
0.0
 10
107.8073691940493
 20
-122.430610524948
 30
0.0
  0
SPLINE
  5
83
330
53
100
AcDbEntity
  8
_U+30EC_U+30A4_U+30E4_U+30FC 1
 62
   179
420
  2234388
370
     9
100
AcDbSpline
210
0.0
220
0.0
230
1.0
 70
    11
 71
     3
 72
    17
 73
    13
 74
     0
 42
0.0000000001
 43
0.0000000001
 12
1.0
 22
0.0
 32
0.0
 13
1.0
 23
0.0
 33
0.0
 40
0.0
 40
0.0
 40
0.0
 40
0.0
 40
1.0
 40
1.0
 40
1.0
 40
2.0
 40
2.0
 40
2.0
 40
3.0
 40
3.0
 40
3.0
 40
4.0
 40
4.0
 40
4.0
 40
4.0
 10
107.8073691940493
 20
-135.4308244105868
 30
0.0
 10
107.8073691940493
 20
-135.3757205217118
 30
0.0
 10
107.7626016951914
 20
-135.3309177439451
 30
0.0
 10
107.7074625299315
 20
-135.3309177439451
 30
0.0
 10
107.6523586424484
 20
-135.3309177439451
 30
0.0
 10
107.6075558658137
 20
-135.3757205217118
 30
0.0
 10
107.6075558658137
 20
-135.4308244105868
 30
0.0
 10
107.6075558658137
 20
-135.4859635772398
 30
0.0
 10
107.6523586424484
 20
-135.5307310772284
 30
0.0
 10
107.7074625299315
 20
-135.5307310772284
 30
0.0
 10
107.7626016951914
 20
-135.5307310772284
 30
0.0
 10
107.8073691940493
 20
-135.4859635772398
 30
0.0
 10
107.8073691940493
 20
-135.4308244105868
 30
0.0
  0
SPLINE
  5
84
330
53
100
AcDbEntity
  8
_U+30EC_U+30A4_U+30E4_U+30FC 1
 62
   179
420
  2234388
370
     9
100
AcDbSpline
210
0.0
220
0.0
230
1.0
 70
    11
 71
     3
 72
    17
 73
    13
 74
     0
 42
0.0000000001
 43
0.0000000001
 12
1.0
 22
0.0
 32
0.0
 13
1.0
 23
0.0
 33
0.0
 40
0.0
 40
0.0
 40
0.0
 40
0.0
 40
1.0
 40
1.0
 40
1.0
 40
2.0
 40
2.0
 40
2.0
 40
3.0
 40
3.0
 40
3.0
 40
4.0
 40
4.0
 40
4.0
 40
4.0
 10
107.8073691940493
 20
-138.4308113542811
 30
0.0
 10
107.8073691940493
 20
-138.3757074654062
 30
0.0
 10
107.7626016951914
 20
-138.3309046876395
 30
0.0
 10
107.7074625299315
 20
-138.3309046876395
 30
0.0
 10
107.6523586424484
 20
-138.3309046876395
 30
0.0
 10
107.6075558658137
 20
-138.3757074654062
 30
0.0
 10
107.6075558658137
 20
-138.4308113542811
 30
0.0
 10
107.6075558658137
 20
-138.4859505209342
 30
0.0
 10
107.6523586424484
 20
-138.5307180209227
 30
0.0
 10
107.7074625299315
 20
-138.5307180209227
 30
0.0
 10
107.7626016951914
 20
-138.5307180209227
 30
0.0
 10
107.8073691940493
 20
-138.4859505209342
 30
0.0
 10
107.8073691940493
 20
-138.4308113542811
 30
0.0
  0
SPLINE
  5
85
330
53
100
AcDbEntity
  8
_U+30EC_U+30A4_U+30E4_U+30FC 1
 62
   179
420
  2234388
370
     9
100
AcDbSpline
210
0.0
220
0.0
230
1.0
 70
    11
 71
     3
 72
    17
 73
    13
 74
     0
 42
0.0000000001
 43
0.0000000001
 12
1.0
 22
0.0
 32
0.0
 13
1.0
 23
0.0
 33
0.0
 40
0.0
 40
0.0
 40
0.0
 40
0.0
 40
1.0
 40
1.0
 40
1.0
 40
2.0
 40
2.0
 40
2.0
 40
3.0
 40
3.0
 40
3.0
 40
4.0
 40
4.0
 40
4.0
 40
4.0
 10
88.80767578988299
 20
-142.430570519948
 30
0.0
 10
88.80767578988299
 20
-142.3754666310731
 30
0.0
 10
88.76287301324822
 20
-142.3306638533063
 30
0.0
 10
88.70776912576515
 20
-142.3306638533063
 30
0.0
 10
88.65195968274453
 20
-142.3306638533063
 30
0.0
 10
88.60786246164731
 20
-142.3754666310731
 30
0.0
 10
88.60786246164731
 20
-142.430570519948
 30
0.0
 10
88.60786246164731
 20
-142.4857096866011
 30
0.0
 10
88.65195968274453
 20
-142.5304771865896
 30
0.0
 10
88.70776912576515
 20
-142.5304771865896
 30
0.0
 10
88.76287301324822
 20
-142.5304771865896
 30
0.0
 10
88.80767578988299
 20
-142.4857096866011
 30
0.0
 10
88.80767578988299
 20
-142.430570519948
 30
0.0
  0
SPLINE
  5
86
330
53
100
AcDbEntity
  8
_U+30EC_U+30A4_U+30E4_U+30FC 1
 62
   179
420
  2234388
370
     9
100
AcDbSpline
210
0.0
220
0.0
230
1.0
 70
    11
 71
     3
 72
    17
 73
    13
 74
     0
 42
0.0000000001
 43
0.0000000001
 12
1.0
 22
0.0
 32
0.0
 13
1.0
 23
0.0
 33
0.0
 40
0.0
 40
0.0
 40
0.0
 40
0.0
 40
1.0
 40
1.0
 40
1.0
 40
2.0
 40
2.0
 40
2.0
 40
3.0
 40
3.0
 40
3.0
 40
4.0
 40
4.0
 40
4.0
 40
4.0
 10
73.80774145034097
 20
-142.430570519948
 30
0.0
 10
73.80774145034097
 20
-142.3754666310731
 30
0.0
 10
73.76293867370622
 20
-142.3306638533063
 30
0.0
 10
73.70748200845436
 20
-142.3306638533063
 30
0.0
 10
73.65234284319442
 20
-142.3306638533063
 30
0.0
 10
73.60757534433652
 20
-142.3754666310731
 30
0.0
 10
73.60757534433652
 20
-142.430570519948
 30
0.0
 10
73.60757534433652
 20
-142.4857096866011
 30
0.0
 10
73.65234284319442
 20
-142.5304771865896
 30
0.0
 10
73.70748200845436
 20
-142.5304771865896
 30
0.0
 10
73.76293867370622
 20
-142.5304771865896
 30
0.0
 10
73.80774145034097
 20
-142.4857096866011
 30
0.0
 10
73.80774145034097
 20
-142.430570519948
 30
0.0
  0
INSERT
  5
88
330
53
100
AcDbEntity
  8
_U+30EC_U+30A4_U+30E4_U+30FC 1
100
AcDbBlockReference
  2
block 4
 10
0.0
 20
0.0
 30
0.0
  0
INSERT
  5
A2
330
53
100
AcDbEntity
  8
_U+30EC_U+30A4_U+30E4_U+30FC 1
100
AcDbBlockReference
  2
block 6
 10
0.0
 20
0.0
 30
0.0
  0
INSERT
  5
B4
330
53
100
AcDbEntity
  8
_U+30EC_U+30A4_U+30E4_U+30FC 1
100
AcDbBlockReference
  2
block 8
 10
0.0
 20
0.0
 30
0.0
  0
INSERT
  5
CC
330
53
100
AcDbEntity
  8
_U+30EC_U+30A4_U+30E4_U+30FC 1
100
AcDbBlockReference
  2
block 10
 10
0.0
 20
0.0
 30
0.0
  0
INSERT
  5
E5
330
53
100
AcDbEntity
  8
_U+30EC_U+30A4_U+30E4_U+30FC 1
100
AcDbBlockReference
  2
block 12
 10
0.0
 20
0.0
 30
0.0
  0
ENDBLK
  5
56
330
53
100
AcDbEntity
  8
0
100
AcDbBlockEnd
  0
BLOCK
  5
89
330
87
100
AcDbEntity
  8
0
100
AcDbBlockBegin
  2
block 4
 70
     0
 10
0.0
 20
0.0
 30
0.0
  3
block 4
  1

  0
POLYLINE
  5
8B
330
87
100
AcDbEntity
  8
_U+30EC_U+30A4_U+30E4_U+30FC 1
 62
   179
420
  2234388
370
     9
100
AcDb2dPolyline
 66
     1
 10
0.0
 20
0.0
 30
0.0
  0
VERTEX
  5
8C
330
8B
100
AcDbEntity
  8
_U+30EC_U+30A4_U+30E4_U+30FC 1
 62
   179
420
  2234388
370
     9
100
AcDbVertex
100
AcDb2dVertex
 10
107.7074625299315
 20
-121.4308383029755
 30
0.0
  0
VERTEX
  5
8D
330
8B
100
AcDbEntity
  8
_U+30EC_U+30A4_U+30E4_U+30FC 1
 62
   179
420
  2234388
370
     9
100
AcDbVertex
100
AcDb2dVertex
 10
107.7074625299315
 20
-117.6605258039181
 30
0.0
  0
SEQEND
  5
8E
330
8B
100
AcDbEntity
  8
_U+30EC_U+30A4_U+30E4_U+30FC 1
 62
   179
420
  2234388
370
     9
  0
POLYLINE
  5
8F
330
87
100
AcDbEntity
  8
_U+30EC_U+30A4_U+30E4_U+30FC 1
 62
   179
420
  2234388
370
     9
100
AcDb2dPolyline
 66
     1
 10
0.0
 20
0.0
 30
0.0
  0
VERTEX
  5
90
330
8F
100
AcDbEntity
  8
_U+30EC_U+30A4_U+30E4_U+30FC 1
 62
   179
420
  2234388
370
     9
100
AcDbVertex
100
AcDb2dVertex
 10
107.7074625299315
 20
-121.4308383029755
 30
0.0
  0
VERTEX
  5
91
330
8F
100
AcDbEntity
  8
_U+30EC_U+30A4_U+30E4_U+30FC 1
 62
   179
420
  2234388
370
     9
100
AcDbVertex
100
AcDb2dVertex
 10
107.7074625299315
 20
-122.430610524948
 30
0.0
  0
SEQEND
  5
92
330
8F
100
AcDbEntity
  8
_U+30EC_U+30A4_U+30E4_U+30FC 1
 62
   179
420
  2234388
370
     9
  0
POLYLINE
  5
93
330
87
100
AcDbEntity
  8
_U+30EC_U+30A4_U+30E4_U+30FC 1
 62
   179
420
  2234388
370
     9
100
AcDb2dPolyline
 66
     1
 10
0.0
 20
0.0
 30
0.0
  0
VERTEX
  5
94
330
93
100
AcDbEntity
  8
_U+30EC_U+30A4_U+30E4_U+30FC 1
 62
   179
420
  2234388
370
     9
100
AcDbVertex
100
AcDb2dVertex
 10
106.2474211782913
 20
-121.4308383029755
 30
0.0
  0
VERTEX
  5
95
330
93
100
AcDbEntity
  8
_U+30EC_U+30A4_U+30E4_U+30FC 1
 62
   179
420
  2234388
370
     9
100
AcDbVertex
100
AcDb2dVertex
 10
108.7072347266474
 20
-121.4308383029755
 30
0.0
  0
SEQEND
  5
96
330
93
100
AcDbEntity
  8
_U+30EC_U+30A4_U+30E4_U+30FC 1
 62
   179
420
  2234388
370
     9
  0
POLYLINE
  5
97
330
87
100
AcDbEntity
  8
_U+30EC_U+30A4_U+30E4_U+30FC 1
 62
   179
420
  2234388
370
     9
100
AcDb2dPolyline
 66
     1
 10
0.0
 20
0.0
 30
0.0
  0
VERTEX
  5
98
330
97
100
AcDbEntity
  8
_U+30EC_U+30A4_U+30E4_U+30FC 1
 62
   179
420
  2234388
370
     9
100
AcDbVertex
100
AcDb2dVertex
 10
106.2474211782913
 20
-122.430610524948
 30
0.0
  0
VERTEX
  5
99
330
97
100
AcDbEntity
  8
_U+30EC_U+30A4_U+30E4_U+30FC 1
 62
   179
420
  2234388
370
     9
100
AcDbVertex
100
AcDb2dVertex
 10
108.7072347266474
 20
-122.430610524948
 30
0.0
  0
SEQEND
  5
9A
330
97
100
AcDbEntity
  8
_U+30EC_U+30A4_U+30E4_U+30FC 1
 62
   179
420
  2234388
370
     9
  0
INSERT
  5
9C
330
87
100
AcDbEntity
  8
_U+30EC_U+30A4_U+30E4_U+30FC 1
100
AcDbBlockReference
  2
block 5
 10
0.0
 20
0.0
 30
0.0
  0
ENDBLK
  5
8A
330
87
100
AcDbEntity
  8
0
100
AcDbBlockEnd
  0
BLOCK
  5
9D
330
9B
100
AcDbEntity
  8
0
100
AcDbBlockBegin
  2
block 5
 70
     0
 10
0.0
 20
0.0
 30
0.0
  3
block 5
  1

  0
SPLINE
  5
9F
330
9B
100
AcDbEntity
  8
_U+30EC_U+30A4_U+30E4_U+30FC 1
370
     0
100
AcDbSpline
210
0.0
220
0.0
230
1.0
 70
    11
 71
     3
 72
    26
 73
    22
 74
     0
 42
0.0000000001
 43
0.0000000001
 12
1.0
 22
0.0
 32
0.0
 13
1.0
 23
0.0
 33
0.0
 40
0.0
 40
0.0
 40
0.0
 40
0.0
 40
1.0
 40
1.0
 40
1.0
 40
2.0
 40
2.0
 40
2.0
 40
3.0
 40
3.0
 40
3.0
 40
4.0
 40
4.0
 40
4.0
 40
5.0
 40
5.0
 40
5.0
 40
6.0
 40
6.0
 40
6.0
 40
7.0
 40
7.0
 40
7.0
 40
7.0
 10
106.1499375819695
 20
-121.8874782681392
 30
0.0
 10
106.1499375819695
 20
-121.8874782681392
 30
0.0
 10
105.0457844789469
 20
-121.8874782681392
 30
0.0
 10
105.0457844789469
 20
-121.8874782681392
 30
0.0
 10
105.0457844789469
 20
-121.8874782681392
 30
0.0
 10
105.0457844789469
 20
-122.2058050909763
 30
0.0
 10
105.0457844789469
 20
-122.2058050909763
 30
0.0
 10
105.0457844789469
 20
-122.2058050909763
 30
0.0
 10
104.8976453730811
 20
-122.2058050909763
 30
0.0
 10
104.8976453730811
 20
-122.2058050909763
 30
0.0
 10
104.8828314624946
 20
-121.8854112108481
 30
0.0
 10
104.7198784460423
 20
-121.8406249695398
 30
0.0
 10
104.605501275932
 20
-121.8120306770123
 30
0.0
 10
104.605501275932
 20
-121.8120306770123
 30
0.0
 10
104.605501275932
 20
-121.6711262716656
 30
0.0
 10
104.605501275932
 20
-121.6711262716656
 30
0.0
 10
104.605501275932
 20
-121.6711262716656
 30
0.0
 10
106.1499375819695
 20
-121.6711262716656
 30
0.0
 10
106.1499375819695
 20
-121.6711262716656
 30
0.0
 10
106.1499375819695
 20
-121.6711262716656
 30
0.0
 10
106.1499375819695
 20
-121.8874782681392
 30
0.0
 10
106.1499375819695
 20
-121.8874782681392
 30
0.0
  0
HATCH
  5
A0
330
9B
100
AcDbEntity
  8
_U+30EC_U+30A4_U+30E4_U+30FC 1
 62
   179
420
  2234388
100
AcDbHatch
 10
0.0
 20
0.0
 30
0.0
210
0.0
220
0.0
230
1.0
  2
SOLID
 70
     1
 71
     0
 91
        1
 92
        1
 93
        1
 72
     4
 94
        3
 73
     0
 74
     1
 95
       26
 96
       22
 40
0.0
 40
0.0
 40
0.0
 40
0.0
 40
1.0
 40
1.0
 40
1.0
 40
2.0
 40
2.0
 40
2.0
 40
3.0
 40
3.0
 40
3.0
 40
4.0
 40
4.0
 40
4.0
 40
5.0
 40
5.0
 40
5.0
 40
6.0
 40
6.0
 40
6.0
 40
7.0
 40
7.0
 40
7.0
 40
7.0
 10
106.1499375819695
 20
-121.8874782681392
 10
106.1499375819695
 20
-121.8874782681392
 10
105.0457844789469
 20
-121.8874782681392
 10
105.0457844789469
 20
-121.8874782681392
 10
105.0457844789469
 20
-121.8874782681392
 10
105.0457844789469
 20
-122.2058050909763
 10
105.0457844789469
 20
-122.2058050909763
 10
105.0457844789469
 20
-122.2058050909763
 10
104.8976453730811
 20
-122.2058050909763
 10
104.8976453730811
 20
-122.2058050909763
 10
104.8828314624946
 20
-121.8854112108481
 10
104.7198784460423
 20
-121.8406249695398
 10
104.605501275932
 20
-121.8120306770123
 10
104.605501275932
 20
-121.8120306770123
 10
104.605501275932
 20
-121.6711262716656
 10
104.605501275932
 20
-121.6711262716656
 10
104.605501275932
 20
-121.6711262716656
 10
106.1499375819695
 20
-121.6711262716656
 10
106.1499375819695
 20
-121.6711262716656
 10
106.1499375819695
 20
-121.6711262716656
 10
106.1499375819695
 20
-121.8874782681392
 10
106.1499375819695
 20
-121.8874782681392
 97
        0
 97
        0
 75
     2
 76
     1
 98
        0
  0
ENDBLK
  5
9E
330
9B
100
AcDbEntity
  8
0
100
AcDbBlockEnd
  0
BLOCK
  5
A3
330
A1
100
AcDbEntity
  8
0
100
AcDbBlockBegin
  2
block 6
 70
     0
 10
0.0
 20
0.0
 30
0.0
  3
block 6
  1

  0
POLYLINE
  5
A5
330
A1
100
AcDbEntity
  8
_U+30EC_U+30A4_U+30E4_U+30FC 1
 62
   179
420
  2234388
370
     9
100
AcDb2dPolyline
 66
     1
 10
0.0
 20
0.0
 30
0.0
  0
VERTEX
  5
A6
330
A5
100
AcDbEntity
  8
_U+30EC_U+30A4_U+30E4_U+30FC 1
 62
   179
420
  2234388
370
     9
100
AcDbVertex
100
AcDb2dVertex
 10
107.7074625299315
 20
-135.4308244105868
 30
0.0
  0
VERTEX
  5
A7
330
A5
100
AcDbEntity
  8
_U+30EC_U+30A4_U+30E4_U+30FC 1
 62
   179
420
  2234388
370
     9
100
AcDbVertex
100
AcDb2dVertex
 10
107.7074625299315
 20
-138.4308113542811
 30
0.0
  0
SEQEND
  5
A8
330
A5
100
AcDbEntity
  8
_U+30EC_U+30A4_U+30E4_U+30FC 1
 62
   179
420
  2234388
370
     9
  0
POLYLINE
  5
A9
330
A1
100
AcDbEntity
  8
_U+30EC_U+30A4_U+30E4_U+30FC 1
 62
   179
420
  2234388
370
     9
100
AcDb2dPolyline
 66
     1
 10
0.0
 20
0.0
 30
0.0
  0
VERTEX
  5
AA
330
A9
100
AcDbEntity
  8
_U+30EC_U+30A4_U+30E4_U+30FC 1
 62
   179
420
  2234388
370
     9
100
AcDbVertex
100
AcDb2dVertex
 10
91.24748683874934
 20
-138.4308113542811
 30
0.0
  0
VERTEX
  5
AB
330
A9
100
AcDbEntity
  8
_U+30EC_U+30A4_U+30E4_U+30FC 1
 62
   179
420
  2234388
370
     9
100
AcDbVertex
100
AcDb2dVertex
 10
108.7072347266474
 20
-138.4308113542811
 30
0.0
  0
SEQEND
  5
AC
330
A9
100
AcDbEntity
  8
_U+30EC_U+30A4_U+30E4_U+30FC 1
 62
   179
420
  2234388
370
     9
  0
INSERT
  5
AE
330
A1
100
AcDbEntity
  8
_U+30EC_U+30A4_U+30E4_U+30FC 1
100
AcDbBlockReference
  2
block 7
 10
0.0
 20
0.0
 30
0.0
  0
ENDBLK
  5
A4
330
A1
100
AcDbEntity
  8
0
100
AcDbBlockEnd
  0
BLOCK
  5
AF
330
AD
100
AcDbEntity
  8
0
100
AcDbBlockBegin
  2
block 7
 70
     0
 10
0.0
 20
0.0
 30
0.0
  3
block 7
  1

  0
SPLINE
  5
B1
330
AD
100
AcDbEntity
  8
_U+30EC_U+30A4_U+30E4_U+30FC 1
370
     0
100
AcDbSpline
210
0.0
220
0.0
230
1.0
 70
    11
 71
     3
 72
    62
 73
    58
 74
     0
 42
0.0000000001
 43
0.0000000001
 12
1.0
 22
0.0
 32
0.0
 13
1.0
 23
0.0
 33
0.0
 40
0.0
 40
0.0
 40
0.0
 40
0.0
 40
1.0
 40
1.0
 40
1.0
 40
2.0
 40
2.0
 40
2.0
 40
3.0
 40
3.0
 40
3.0
 40
4.0
 40
4.0
 40
4.0
 40
5.0
 40
5.0
 40
5.0
 40
6.0
 40
6.0
 40
6.0
 40
7.0
 40
7.0
 40
7.0
 40
8.0
 40
8.0
 40
8.0
 40
9.0
 40
9.0
 40
9.0
 40
10.0
 40
10.0
 40
10.0
 40
11.0
 40
11.0
 40
11.0
 40
12.0
 40
12.0
 40
12.0
 40
13.0
 40
13.0
 40
13.0
 40
14.0
 40
14.0
 40
14.0
 40
15.0
 40
15.0
 40
15.0
 40
16.0
 40
16.0
 40
16.0
 40
17.0
 40
17.0
 40
17.0
 40
18.0
 40
18.0
 40
18.0
 40
19.0
 40
19.0
 40
19.0
 40
19.0
 10
106.2005804856026
 20
-136.9387559336473
 30
0.0
 10
106.2005804856026
 20
-137.0307399831034
 30
0.0
 10
106.1795654031426
 20
-137.2408908077037
 30
0.0
 10
105.9935302469391
 20
-137.3611246401389
 30
0.0
 10
105.88122013412
 20
-137.4324381166836
 30
0.0
 10
105.7820013841448
 20
-137.4365722312659
 30
0.0
 10
105.6972520352076
 20
-137.4407063458482
 30
0.0
 10
105.6972520352076
 20
-137.4407063458482
 30
0.0
 10
105.6972520352076
 20
-137.2284884639568
 30
0.0
 10
105.6972520352076
 20
-137.2284884639568
 30
0.0
 10
105.7713215881405
 20
-137.2264214066656
 30
0.0
 10
106.005932590686
 20
-137.2164306297584
 30
0.0
 10
106.005932590686
 20
-136.9428900482296
 30
0.0
 10
106.005932590686
 20
-136.8102538720474
 30
0.0
 10
105.936341661884
 20
-136.6634928043758
 30
0.0
 10
105.7079318312119
 20
-136.6634928043758
 30
0.0
 10
105.5914876038105
 20
-136.6634928043758
 30
0.0
 10
105.5429117574684
 20
-136.700355326068
 30
0.0
 10
105.5112168790041
 20
-136.7306721663382
 30
0.0
 10
105.4371473260713
 20
-136.8023301524314
 30
0.0
 10
105.4244004727758
 20
-136.914295755702
 30
0.0
 10
105.4244004727758
 20
-136.9673502261748
 30
0.0
 10
105.4244004727758
 20
-136.9859537417952
 30
0.0
 10
105.426467530067
 20
-137.0204046966477
 30
0.0
 10
105.4306016446493
 20
-137.0469319318841
 30
0.0
 10
105.4306016446493
 20
-137.0469319318841
 30
0.0
 10
105.2359537497327
 20
-137.0469319318841
 30
0.0
 10
105.2359537497327
 20
-137.0469319318841
 30
0.0
 10
105.2424994311547
 20
-137.0104139197405
 30
0.0
 10
105.2445664884458
 20
-136.969417283466
 30
0.0
 10
105.2445664884458
 20
-136.9632161115925
 30
0.0
 10
105.2445664884458
 20
-136.9001708642125
 30
0.0
 10
105.2232068964373
 20
-136.708279045684
 30
0.0
 10
104.9865288366006
 20
-136.708279045684
 30
0.0
 10
104.8087619095617
 20
-136.708279045684
 30
0.0
 10
104.7536403817977
 20
-136.8347140499927
 30
0.0
 10
104.7536403817977
 20
-136.9408229909384
 30
0.0
 10
104.7536403817977
 20
-137.1961045663954
 30
0.0
 10
104.9865288366006
 20
-137.2040282860115
 30
0.0
 10
105.0581868226938
 20
-137.2081624005938
 30
0.0
 10
105.0581868226938
 20
-137.2081624005938
 30
0.0
 10
105.0581868226938
 20
-137.4041883337045
 30
0.0
 10
105.0581868226938
 20
-137.4041883337045
 30
0.0
 10
104.9334743661278
 20
-137.3959201045399
 30
0.0
 10
104.5569254295899
 20
-137.3693928693035
 30
0.0
 10
104.5569254295899
 20
-136.92876515674
 30
0.0
 10
104.5569254295899
 20
-136.7124131602664
 30
0.0
 10
104.6840494529957
 20
-136.479869215012
 30
0.0
 10
104.9799831551786
 20
-136.479869215012
 30
0.0
 10
105.1663628209306
 20
-136.479869215012
 30
0.0
 10
105.2487006030281
 20
-136.5715087549196
 30
0.0
 10
105.3100233026656
 20
-136.6676269189581
 30
0.0
 10
105.3375840665475
 20
-136.6083712766118
 30
0.0
 10
105.4178547913539
 20
-136.4330159164126
 30
0.0
 10
105.6951849779165
 20
-136.4330159164126
 30
0.0
 10
106.033493354568
 20
-136.4330159164126
 30
0.0
 10
106.2005804856026
 20
-136.6717610335404
 30
0.0
 10
106.2005804856026
 20
-136.9387559336473
 30
0.0
  0
HATCH
  5
B2
330
AD
100
AcDbEntity
  8
_U+30EC_U+30A4_U+30E4_U+30FC 1
 62
   179
420
  2234388
100
AcDbHatch
 10
0.0
 20
0.0
 30
0.0
210
0.0
220
0.0
230
1.0
  2
SOLID
 70
     1
 71
     0
 91
        1
 92
        1
 93
        1
 72
     4
 94
        3
 73
     0
 74
     1
 95
       62
 96
       58
 40
0.0
 40
0.0
 40
0.0
 40
0.0
 40
1.0
 40
1.0
 40
1.0
 40
2.0
 40
2.0
 40
2.0
 40
3.0
 40
3.0
 40
3.0
 40
4.0
 40
4.0
 40
4.0
 40
5.0
 40
5.0
 40
5.0
 40
6.0
 40
6.0
 40
6.0
 40
7.0
 40
7.0
 40
7.0
 40
8.0
 40
8.0
 40
8.0
 40
9.0
 40
9.0
 40
9.0
 40
10.0
 40
10.0
 40
10.0
 40
11.0
 40
11.0
 40
11.0
 40
12.0
 40
12.0
 40
12.0
 40
13.0
 40
13.0
 40
13.0
 40
14.0
 40
14.0
 40
14.0
 40
15.0
 40
15.0
 40
15.0
 40
16.0
 40
16.0
 40
16.0
 40
17.0
 40
17.0
 40
17.0
 40
18.0
 40
18.0
 40
18.0
 40
19.0
 40
19.0
 40
19.0
 40
19.0
 10
106.2005804856026
 20
-136.9387559336473
 10
106.2005804856026
 20
-137.0307399831034
 10
106.1795654031426
 20
-137.2408908077037
 10
105.9935302469391
 20
-137.3611246401389
 10
105.88122013412
 20
-137.4324381166836
 10
105.7820013841448
 20
-137.4365722312659
 10
105.6972520352076
 20
-137.4407063458482
 10
105.6972520352076
 20
-137.4407063458482
 10
105.6972520352076
 20
-137.2284884639568
 10
105.6972520352076
 20
-137.2284884639568
 10
105.7713215881405
 20
-137.2264214066656
 10
106.005932590686
 20
-137.2164306297584
 10
106.005932590686
 20
-136.9428900482296
 10
106.005932590686
 20
-136.8102538720474
 10
105.936341661884
 20
-136.6634928043758
 10
105.7079318312119
 20
-136.6634928043758
 10
105.5914876038105
 20
-136.6634928043758
 10
105.5429117574684
 20
-136.700355326068
 10
105.5112168790041
 20
-136.7306721663382
 10
105.4371473260713
 20
-136.8023301524314
 10
105.4244004727758
 20
-136.914295755702
 10
105.4244004727758
 20
-136.9673502261748
 10
105.4244004727758
 20
-136.9859537417952
 10
105.426467530067
 20
-137.0204046966477
 10
105.4306016446493
 20
-137.0469319318841
 10
105.4306016446493
 20
-137.0469319318841
 10
105.2359537497327
 20
-137.0469319318841
 10
105.2359537497327
 20
-137.0469319318841
 10
105.2424994311547
 20
-137.0104139197405
 10
105.2445664884458
 20
-136.969417283466
 10
105.2445664884458
 20
-136.9632161115925
 10
105.2445664884458
 20
-136.9001708642125
 10
105.2232068964373
 20
-136.708279045684
 10
104.9865288366006
 20
-136.708279045684
 10
104.8087619095617
 20
-136.708279045684
 10
104.7536403817977
 20
-136.8347140499927
 10
104.7536403817977
 20
-136.9408229909384
 10
104.7536403817977
 20
-137.1961045663954
 10
104.9865288366006
 20
-137.2040282860115
 10
105.0581868226938
 20
-137.2081624005938
 10
105.0581868226938
 20
-137.2081624005938
 10
105.0581868226938
 20
-137.4041883337045
 10
105.0581868226938
 20
-137.4041883337045
 10
104.9334743661278
 20
-137.3959201045399
 10
104.5569254295899
 20
-137.3693928693035
 10
104.5569254295899
 20
-136.92876515674
 10
104.5569254295899
 20
-136.7124131602664
 10
104.6840494529957
 20
-136.479869215012
 10
104.9799831551786
 20
-136.479869215012
 10
105.1663628209306
 20
-136.479869215012
 10
105.2487006030281
 20
-136.5715087549196
 10
105.3100233026656
 20
-136.6676269189581
 10
105.3375840665475
 20
-136.6083712766118
 10
105.4178547913539
 20
-136.4330159164126
 10
105.6951849779165
 20
-136.4330159164126
 10
106.033493354568
 20
-136.4330159164126
 10
106.2005804856026
 20
-136.6717610335404
 10
106.2005804856026
 20
-136.9387559336473
 97
        0
 97
        0
 75
     2
 76
     1
 98
        0
  0
ENDBLK
  5
B0
330
AD
100
AcDbEntity
  8
0
100
AcDbBlockEnd
  0
BLOCK
  5
B5
330
B3
100
AcDbEntity
  8
0
100
AcDbBlockBegin
  2
block 8
 70
     0
 10
0.0
 20
0.0
 30
0.0
  3
block 8
  1

  0
POLYLINE
  5
B7
330
B3
100
AcDbEntity
  8
_U+30EC_U+30A4_U+30E4_U+30FC 1
 62
   179
420
  2234388
370
     9
100
AcDb2dPolyline
 66
     1
 10
0.0
 20
0.0
 30
0.0
  0
VERTEX
  5
B8
330
B7
100
AcDbEntity
  8
_U+30EC_U+30A4_U+30E4_U+30FC 1
 62
   179
420
  2234388
370
     9
100
AcDbVertex
100
AcDb2dVertex
 10
73.70748200845436
 20
-142.430570519948
 30
0.0
  0
VERTEX
  5
B9
330
B7
100
AcDbEntity
  8
_U+30EC_U+30A4_U+30E4_U+30FC 1
 62
   179
420
  2234388
370
     9
100
AcDbVertex
100
AcDb2dVertex
 10
88.70776912576515
 20
-142.430570519948
 30
0.0
  0
SEQEND
  5
BA
330
B7
100
AcDbEntity
  8
_U+30EC_U+30A4_U+30E4_U+30FC 1
 62
   179
420
  2234388
370
     9
  0
POLYLINE
  5
BB
330
B3
100
AcDbEntity
  8
_U+30EC_U+30A4_U+30E4_U+30FC 1
 62
   179
420
  2234388
370
     9
100
AcDb2dPolyline
 66
     1
 10
0.0
 20
0.0
 30
0.0
  0
VERTEX
  5
BC
330
BB
100
AcDbEntity
  8
_U+30EC_U+30A4_U+30E4_U+30FC 1
 62
   179
420
  2234388
370
     9
100
AcDbVertex
100
AcDb2dVertex
 10
73.70748200845436
 20
-140.9705644092018
 30
0.0
  0
VERTEX
  5
BD
330
BB
100
AcDbEntity
  8
_U+30EC_U+30A4_U+30E4_U+30FC 1
 62
   179
420
  2234388
370
     9
100
AcDbVertex
100
AcDb2dVertex
 10
73.70748200845436
 20
-143.4303427419199
 30
0.0
  0
SEQEND
  5
BE
330
BB
100
AcDbEntity
  8
_U+30EC_U+30A4_U+30E4_U+30FC 1
 62
   179
420
  2234388
370
     9
  0
POLYLINE
  5
BF
330
B3
100
AcDbEntity
  8
_U+30EC_U+30A4_U+30E4_U+30FC 1
 62
   179
420
  2234388
370
     9
100
AcDb2dPolyline
 66
     1
 10
0.0
 20
0.0
 30
0.0
  0
VERTEX
  5
C0
330
BF
100
AcDbEntity
  8
_U+30EC_U+30A4_U+30E4_U+30FC 1
 62
   179
420
  2234388
370
     9
100
AcDbVertex
100
AcDb2dVertex
 10
88.70776912576515
 20
-140.9705644092018
 30
0.0
  0
VERTEX
  5
C1
330
BF
100
AcDbEntity
  8
_U+30EC_U+30A4_U+30E4_U+30FC 1
 62
   179
420
  2234388
370
     9
100
AcDbVertex
100
AcDb2dVertex
 10
88.70776912576515
 20
-143.4303427419199
 30
0.0
  0
SEQEND
  5
C2
330
BF
100
AcDbEntity
  8
_U+30EC_U+30A4_U+30E4_U+30FC 1
 62
   179
420
  2234388
370
     9
  0
INSERT
  5
C4
330
B3
100
AcDbEntity
  8
_U+30EC_U+30A4_U+30E4_U+30FC 1
100
AcDbBlockReference
  2
block 9
 10
0.0
 20
0.0
 30
0.0
  0
ENDBLK
  5
B6
330
B3
100
AcDbEntity
  8
0
100
AcDbBlockEnd
  0
BLOCK
  5
C5
330
C3
100
AcDbEntity
  8
0
100
AcDbBlockBegin
  2
block 9
 70
     0
 10
0.0
 20
0.0
 30
0.0
  3
block 9
  1

  0
SPLINE
  5
C7
330
C3
100
AcDbEntity
  8
_U+30EC_U+30A4_U+30E4_U+30FC 1
370
     0
100
AcDbSpline
210
0.0
220
0.0
230
1.0
 70
    11
 71
     3
 72
    26
 73
    22
 74
     0
 42
0.0000000001
 43
0.0000000001
 12
1.0
 22
0.0
 32
0.0
 13
1.0
 23
0.0
 33
0.0
 40
0.0
 40
0.0
 40
0.0
 40
0.0
 40
1.0
 40
1.0
 40
1.0
 40
2.0
 40
2.0
 40
2.0
 40
3.0
 40
3.0
 40
3.0
 40
4.0
 40
4.0
 40
4.0
 40
5.0
 40
5.0
 40
5.0
 40
6.0
 40
6.0
 40
6.0
 40
7.0
 40
7.0
 40
7.0
 40
7.0
 10
80.59421927238617
 20
-141.7846272431997
 30
0.0
 10
80.59421927238617
 20
-141.7846272431997
 30
0.0
 10
80.59421927238617
 20
-140.6804741401771
 30
0.0
 10
80.59421927238617
 20
-140.6804741401771
 30
0.0
 10
80.59421927238617
 20
-140.6804741401771
 30
0.0
 10
80.27606470432335
 20
-140.6804741401771
 30
0.0
 10
80.27606470432335
 20
-140.6804741401771
 30
0.0
 10
80.27606470432335
 20
-140.6804741401771
 30
0.0
 10
80.27606470432335
 20
-140.5323350343114
 30
0.0
 10
80.27606470432335
 20
-140.5323350343114
 30
0.0
 10
80.59628632967733
 20
-140.5175211237248
 30
0.0
 10
80.64124482575983
 20
-140.3545681072725
 30
0.0
 10
80.66966686351314
 20
-140.2401909371622
 30
0.0
 10
80.66966686351314
 20
-140.2401909371622
 30
0.0
 10
80.81057126885986
 20
-140.2401909371622
 30
0.0
 10
80.81057126885986
 20
-140.2401909371622
 30
0.0
 10
80.81057126885986
 20
-140.2401909371622
 30
0.0
 10
80.81057126885986
 20
-141.7846272431997
 30
0.0
 10
80.81057126885986
 20
-141.7846272431997
 30
0.0
 10
80.81057126885986
 20
-141.7846272431997
 30
0.0
 10
80.59421927238617
 20
-141.7846272431997
 30
0.0
 10
80.59421927238617
 20
-141.7846272431997
 30
0.0
  0
HATCH
  5
C8
330
C3
100
AcDbEntity
  8
_U+30EC_U+30A4_U+30E4_U+30FC 1
 62
   179
420
  2234388
100
AcDbHatch
 10
0.0
 20
0.0
 30
0.0
210
0.0
220
0.0
230
1.0
  2
SOLID
 70
     1
 71
     0
 91
        1
 92
        1
 93
        1
 72
     4
 94
        3
 73
     0
 74
     1
 95
       26
 96
       22
 40
0.0
 40
0.0
 40
0.0
 40
0.0
 40
1.0
 40
1.0
 40
1.0
 40
2.0
 40
2.0
 40
2.0
 40
3.0
 40
3.0
 40
3.0
 40
4.0
 40
4.0
 40
4.0
 40
5.0
 40
5.0
 40
5.0
 40
6.0
 40
6.0
 40
6.0
 40
7.0
 40
7.0
 40
7.0
 40
7.0
 10
80.59421927238617
 20
-141.7846272431997
 10
80.59421927238617
 20
-141.7846272431997
 10
80.59421927238617
 20
-140.6804741401771
 10
80.59421927238617
 20
-140.6804741401771
 10
80.59421927238617
 20
-140.6804741401771
 10
80.27606470432335
 20
-140.6804741401771
 10
80.27606470432335
 20
-140.6804741401771
 10
80.27606470432335
 20
-140.6804741401771
 10
80.27606470432335
 20
-140.5323350343114
 10
80.27606470432335
 20
-140.5323350343114
 10
80.59628632967733
 20
-140.5175211237248
 10
80.64124482575983
 20
-140.3545681072725
 10
80.66966686351314
 20
-140.2401909371622
 10
80.66966686351314
 20
-140.2401909371622
 10
80.81057126885986
 20
-140.2401909371622
 10
80.81057126885986
 20
-140.2401909371622
 10
80.81057126885986
 20
-140.2401909371622
 10
80.81057126885986
 20
-141.7846272431997
 10
80.81057126885986
 20
-141.7846272431997
 10
80.81057126885986
 20
-141.7846272431997
 10
80.59421927238617
 20
-141.7846272431997
 10
80.59421927238617
 20
-141.7846272431997
 97
        0
 97
        0
 75
     2
 76
     1
 98
        0
  0
SPLINE
  5
C9
330
C3
100
AcDbEntity
  8
_U+30EC_U+30A4_U+30E4_U+30FC 1
370
     0
100
AcDbSpline
210
0.0
220
0.0
230
1.0
 70
    11
 71
     3
 72
    53
 73
    49
 74
     0
 42
0.0000000001
 43
0.0000000001
 12
1.0
 22
0.0
 32
0.0
 13
1.0
 23
0.0
 33
0.0
 40
0.0
 40
0.0
 40
0.0
 40
0.0
 40
1.0
 40
1.0
 40
1.0
 40
2.0
 40
2.0
 40
2.0
 40
3.0
 40
3.0
 40
3.0
 40
4.0
 40
4.0
 40
4.0
 40
5.0
 40
5.0
 40
5.0
 40
6.0
 40
6.0
 40
6.0
 40
7.0
 40
7.0
 40
7.0
 40
8.0
 40
8.0
 40
8.0
 40
9.0
 40
9.0
 40
9.0
 40
10.0
 40
10.0
 40
10.0
 40
11.0
 40
11.0
 40
11.0
 40
12.0
 40
12.0
 40
12.0
 40
13.0
 40
13.0
 40
13.0
 40
14.0
 40
14.0
 40
14.0
 40
15.0
 40
15.0
 40
15.0
 40
16.0
 40
16.0
 40
16.0
 40
16.0
 10
81.75624997956095
 20
-141.8352701468329
 30
0.0
 10
81.68080238843397
 20
-141.8352701468329
 30
0.0
 10
81.58278942187862
 20
-141.8183891789551
 30
0.0
 10
81.48494871009751
 20
-141.7549994220265
 30
0.0
 10
81.31768932428864
 20
-141.6451008760471
 30
0.0
 10
81.2971910061514
 20
-141.5138427380591
 30
0.0
 10
81.27893200007958
 20
-141.4060112493707
 30
0.0
 10
81.27893200007958
 20
-141.4060112493707
 30
0.0
 10
81.49304468448786
 20
-141.4060112493707
 30
0.0
 10
81.49304468448786
 20
-141.4060112493707
 30
0.0
 10
81.5460991549607
 20
-141.6047932588696
 30
0.0
 10
81.66857229946133
 20
-141.6344210800428
 30
0.0
 10
81.75831703685209
 20
-141.6344210800428
 30
0.0
 10
81.8928480155511
 20
-141.6344210800428
 30
0.0
 10
82.039781337997
 20
-141.5348578205191
 30
0.0
 10
82.039781337997
 20
-141.3023138752647
 30
0.0
 10
82.039781337997
 20
-141.0463432807106
 30
0.0
 10
81.86649303508894
 20
-140.9764078423601
 30
0.0
 10
81.75004880768749
 20
-140.9764078423601
 30
0.0
 10
81.71955971264303
 20
-140.9764078423601
 30
0.0
 10
81.58278942187862
 20
-140.9764078423601
 30
0.0
 10
81.49717879907016
 20
-141.1055989230569
 30
0.0
 10
81.49717879907016
 20
-141.1055989230569
 30
0.0
 10
81.32785235597012
 20
-141.0866508978881
 30
0.0
 10
81.32785235597012
 20
-141.0866508978881
 30
0.0
 10
81.32785235597012
 20
-141.0866508978881
 30
0.0
 10
81.44412432859731
 20
-140.2401909371622
 30
0.0
 10
81.44412432859731
 20
-140.2401909371622
 30
0.0
 10
81.44412432859731
 20
-140.2401909371622
 30
0.0
 10
82.19481063483325
 20
-140.2401909371622
 30
0.0
 10
82.19481063483325
 20
-140.2401909371622
 30
0.0
 10
82.19481063483325
 20
-140.2401909371622
 30
0.0
 10
82.19481063483325
 20
-140.4348388320788
 30
0.0
 10
82.19481063483325
 20
-140.4348388320788
 30
0.0
 10
82.19481063483325
 20
-140.4348388320788
 30
0.0
 10
81.6012206827247
 20
-140.4348388320788
 30
0.0
 10
81.6012206827247
 20
-140.4348388320788
 30
0.0
 10
81.6012206827247
 20
-140.4348388320788
 30
0.0
 10
81.53800318057037
 20
-140.8578965576675
 30
0.0
 10
81.53800318057037
 20
-140.8578965576675
 30
0.0
 10
81.5970865681424
 20
-140.824134621912
 30
0.0
 10
81.67666827385167
 20
-140.7838270047346
 30
0.0
 10
81.7908731891877
 20
-140.7838270047346
 30
0.0
 10
82.03581947818897
 20
-140.7838270047346
 30
0.0
 10
82.26422930886103
 20
-140.9702066704866
 30
0.0
 10
82.26422930886103
 20
-141.2833658500958
 30
0.0
 10
82.26422930886103
 20
-141.6006591442873
 30
0.0
 10
82.0480495671616
 20
-141.8352701468329
 30
0.0
 10
81.75624997956095
 20
-141.8352701468329
 30
0.0
  0
HATCH
  5
CA
330
C3
100
AcDbEntity
  8
_U+30EC_U+30A4_U+30E4_U+30FC 1
 62
   179
420
  2234388
100
AcDbHatch
 10
0.0
 20
0.0
 30
0.0
210
0.0
220
0.0
230
1.0
  2
SOLID
 70
     1
 71
     0
 91
        1
 92
        1
 93
        1
 72
     4
 94
        3
 73
     0
 74
     1
 95
       53
 96
       49
 40
0.0
 40
0.0
 40
0.0
 40
0.0
 40
1.0
 40
1.0
 40
1.0
 40
2.0
 40
2.0
 40
2.0
 40
3.0
 40
3.0
 40
3.0
 40
4.0
 40
4.0
 40
4.0
 40
5.0
 40
5.0
 40
5.0
 40
6.0
 40
6.0
 40
6.0
 40
7.0
 40
7.0
 40
7.0
 40
8.0
 40
8.0
 40
8.0
 40
9.0
 40
9.0
 40
9.0
 40
10.0
 40
10.0
 40
10.0
 40
11.0
 40
11.0
 40
11.0
 40
12.0
 40
12.0
 40
12.0
 40
13.0
 40
13.0
 40
13.0
 40
14.0
 40
14.0
 40
14.0
 40
15.0
 40
15.0
 40
15.0
 40
16.0
 40
16.0
 40
16.0
 40
16.0
 10
81.75624997956095
 20
-141.8352701468329
 10
81.68080238843397
 20
-141.8352701468329
 10
81.58278942187862
 20
-141.8183891789551
 10
81.48494871009751
 20
-141.7549994220265
 10
81.31768932428864
 20
-141.6451008760471
 10
81.2971910061514
 20
-141.5138427380591
 10
81.27893200007958
 20
-141.4060112493707
 10
81.27893200007958
 20
-141.4060112493707
 10
81.49304468448786
 20
-141.4060112493707
 10
81.49304468448786
 20
-141.4060112493707
 10
81.5460991549607
 20
-141.6047932588696
 10
81.66857229946133
 20
-141.6344210800428
 10
81.75831703685209
 20
-141.6344210800428
 10
81.8928480155511
 20
-141.6344210800428
 10
82.039781337997
 20
-141.5348578205191
 10
82.039781337997
 20
-141.3023138752647
 10
82.039781337997
 20
-141.0463432807106
 10
81.86649303508894
 20
-140.9764078423601
 10
81.75004880768749
 20
-140.9764078423601
 10
81.71955971264303
 20
-140.9764078423601
 10
81.58278942187862
 20
-140.9764078423601
 10
81.49717879907016
 20
-141.1055989230569
 10
81.49717879907016
 20
-141.1055989230569
 10
81.32785235597012
 20
-141.0866508978881
 10
81.32785235597012
 20
-141.0866508978881
 10
81.32785235597012
 20
-141.0866508978881
 10
81.44412432859731
 20
-140.2401909371622
 10
81.44412432859731
 20
-140.2401909371622
 10
81.44412432859731
 20
-140.2401909371622
 10
82.19481063483325
 20
-140.2401909371622
 10
82.19481063483325
 20
-140.2401909371622
 10
82.19481063483325
 20
-140.2401909371622
 10
82.19481063483325
 20
-140.4348388320788
 10
82.19481063483325
 20
-140.4348388320788
 10
82.19481063483325
 20
-140.4348388320788
 10
81.6012206827247
 20
-140.4348388320788
 10
81.6012206827247
 20
-140.4348388320788
 10
81.6012206827247
 20
-140.4348388320788
 10
81.53800318057037
 20
-140.8578965576675
 10
81.53800318057037
 20
-140.8578965576675
 10
81.5970865681424
 20
-140.824134621912
 10
81.67666827385167
 20
-140.7838270047346
 10
81.7908731891877
 20
-140.7838270047346
 10
82.03581947818897
 20
-140.7838270047346
 10
82.26422930886103
 20
-140.9702066704866
 10
82.26422930886103
 20
-141.2833658500958
 10
82.26422930886103
 20
-141.6006591442873
 10
82.0480495671616
 20
-141.8352701468329
 10
81.75624997956095
 20
-141.8352701468329
 97
        0
 97
        0
 75
     2
 76
     1
 98
        0
  0
ENDBLK
  5
C6
330
C3
100
AcDbEntity
  8
0
100
AcDbBlockEnd
  0
BLOCK
  5
CD
330
CB
100
AcDbEntity
  8
0
100
AcDbBlockBegin
  2
block 10
 70
     0
 10
0.0
 20
0.0
 30
0.0
  3
block 10
  1

  0
POLYLINE
  5
CF
330
CB
100
AcDbEntity
  8
_U+30EC_U+30A4_U+30E4_U+30FC 1
 62
   179
420
  2234388
370
     9
100
AcDb2dPolyline
 66
     1
 10
0.0
 20
0.0
 30
0.0
  0
VERTEX
  5
D0
330
CF
100
AcDbEntity
  8
_U+30EC_U+30A4_U+30E4_U+30FC 1
 62
   179
420
  2234388
370
     9
100
AcDbVertex
100
AcDb2dVertex
 10
73.70748200845436
 20
-117.4307263595312
 30
0.0
  0
VERTEX
  5
D1
330
CF
100
AcDbEntity
  8
_U+30EC_U+30A4_U+30E4_U+30FC 1
 62
   179
420
  2234388
370
     9
100
AcDbVertex
100
AcDb2dVertex
 10
103.7077034653072
 20
-117.4307263595312
 30
0.0
  0
SEQEND
  5
D2
330
CF
100
AcDbEntity
  8
_U+30EC_U+30A4_U+30E4_U+30FC 1
 62
   179
420
  2234388
370
     9
  0
POLYLINE
  5
D3
330
CB
100
AcDbEntity
  8
_U+30EC_U+30A4_U+30E4_U+30FC 1
 62
   179
420
  2234388
370
     9
100
AcDb2dPolyline
 66
     1
 10
0.0
 20
0.0
 30
0.0
  0
VERTEX
  5
D4
330
D3
100
AcDbEntity
  8
_U+30EC_U+30A4_U+30E4_U+30FC 1
 62
   179
420
  2234388
370
     9
100
AcDbVertex
100
AcDb2dVertex
 10
73.70748200845436
 20
-118.8904149702774
 30
0.0
  0
VERTEX
  5
D5
330
D3
100
AcDbEntity
  8
_U+30EC_U+30A4_U+30E4_U+30FC 1
 62
   179
420
  2234388
370
     9
100
AcDbVertex
100
AcDb2dVertex
 10
73.70748200845436
 20
-116.430636637559
 30
0.0
  0
SEQEND
  5
D6
330
D3
100
AcDbEntity
  8
_U+30EC_U+30A4_U+30E4_U+30FC 1
 62
   179
420
  2234388
370
     9
  0
POLYLINE
  5
D7
330
CB
100
AcDbEntity
  8
_U+30EC_U+30A4_U+30E4_U+30FC 1
 62
   179
420
  2234388
370
     9
100
AcDb2dPolyline
 66
     1
 10
0.0
 20
0.0
 30
0.0
  0
VERTEX
  5
D8
330
D7
100
AcDbEntity
  8
_U+30EC_U+30A4_U+30E4_U+30FC 1
 62
   179
420
  2234388
370
     9
100
AcDbVertex
100
AcDb2dVertex
 10
103.7077034653072
 20
-118.8904149702774
 30
0.0
  0
VERTEX
  5
D9
330
D7
100
AcDbEntity
  8
_U+30EC_U+30A4_U+30E4_U+30FC 1
 62
   179
420
  2234388
370
     9
100
AcDbVertex
100
AcDb2dVertex
 10
103.7077034653072
 20
-116.430636637559
 30
0.0
  0
SEQEND
  5
DA
330
D7
100
AcDbEntity
  8
_U+30EC_U+30A4_U+30E4_U+30FC 1
 62
   179
420
  2234388
370
     9
  0
INSERT
  5
DC
330
CB
100
AcDbEntity
  8
_U+30EC_U+30A4_U+30E4_U+30FC 1
100
AcDbBlockReference
  2
block 11
 10
0.0
 20
0.0
 30
0.0
  0
ENDBLK
  5
CE
330
CB
100
AcDbEntity
  8
0
100
AcDbBlockEnd
  0
BLOCK
  5
DD
330
DB
100
AcDbEntity
  8
0
100
AcDbBlockBegin
  2
block 11
 70
     0
 10
0.0
 20
0.0
 30
0.0
  3
block 11
  1

  0
SPLINE
  5
DF
330
DB
100
AcDbEntity
  8
_U+30EC_U+30A4_U+30E4_U+30FC 1
370
     0
100
AcDbSpline
210
0.0
220
0.0
230
1.0
 70
    11
 71
     3
 72
    62
 73
    58
 74
     0
 42
0.0000000001
 43
0.0000000001
 12
1.0
 22
0.0
 32
0.0
 13
1.0
 23
0.0
 33
0.0
 40
0.0
 40
0.0
 40
0.0
 40
0.0
 40
1.0
 40
1.0
 40
1.0
 40
2.0
 40
2.0
 40
2.0
 40
3.0
 40
3.0
 40
3.0
 40
4.0
 40
4.0
 40
4.0
 40
5.0
 40
5.0
 40
5.0
 40
6.0
 40
6.0
 40
6.0
 40
7.0
 40
7.0
 40
7.0
 40
8.0
 40
8.0
 40
8.0
 40
9.0
 40
9.0
 40
9.0
 40
10.0
 40
10.0
 40
10.0
 40
11.0
 40
11.0
 40
11.0
 40
12.0
 40
12.0
 40
12.0
 40
13.0
 40
13.0
 40
13.0
 40
14.0
 40
14.0
 40
14.0
 40
15.0
 40
15.0
 40
15.0
 40
16.0
 40
16.0
 40
16.0
 40
17.0
 40
17.0
 40
17.0
 40
18.0
 40
18.0
 40
18.0
 40
19.0
 40
19.0
 40
19.0
 40
19.0
 10
88.13294946798413
 20
-116.8357625033431
 30
0.0
 10
88.04096541852796
 20
-116.8357625033431
 30
0.0
 10
87.83081459392771
 20
-116.8145751661089
 30
0.0
 10
87.7105807614925
 20
-116.6283677551311
 30
0.0
 10
87.6389227753993
 20
-116.5162298970862
 30
0.0
 10
87.63513317036552
 20
-116.4168388923368
 30
0.0
 10
87.63099905578322
 20
-116.3322617981739
 30
0.0
 10
87.63099905578322
 20
-116.3322617981739
 30
0.0
 10
87.84321693767461
 20
-116.3322617981739
 30
0.0
 10
87.84321693767461
 20
-116.3322617981739
 30
0.0
 10
87.84528399496577
 20
-116.4063313511068
 30
0.0
 10
87.85527477187298
 20
-116.6411146084265
 30
0.0
 10
88.12881535340183
 20
-116.6411146084265
 30
0.0
 10
88.26145152958395
 20
-116.6411146084265
 30
0.0
 10
88.40821259725558
 20
-116.5713514248502
 30
0.0
 10
88.40821259725558
 20
-116.3427693394039
 30
0.0
 10
88.40821259725558
 20
-116.2264973667767
 30
0.0
 10
88.37135007556341
 20
-116.1777492656604
 30
0.0
 10
88.34103323529322
 20
-116.1460543871961
 30
0.0
 10
88.26937524920002
 20
-116.0719848342633
 30
0.0
 10
88.1574096459294
 20
-116.0594102357421
 30
0.0
 10
88.10435517545655
 20
-116.0594102357421
 30
0.0
 10
88.0857516598362
 20
-116.0594102357421
 30
0.0
 10
88.0513007049837
 20
-116.0614772930332
 30
0.0
 10
88.02477346974729
 20
-116.0656114076155
 30
0.0
 10
88.02477346974729
 20
-116.0656114076155
 30
0.0
 10
88.02477346974729
 20
-115.8709635126989
 30
0.0
 10
88.02477346974729
 20
-115.8709635126989
 30
0.0
 10
88.06129148189093
 20
-115.8773369393466
 30
0.0
 10
88.1022881181654
 20
-115.8795762514121
 30
0.0
 10
88.10848929003886
 20
-115.8795762514121
 30
0.0
 10
88.17153453741892
 20
-115.8795762514121
 30
0.0
 10
88.36342635594734
 20
-115.8583889141778
 30
0.0
 10
88.36342635594734
 20
-115.6213663447926
 30
0.0
 10
88.36342635594734
 20
-115.4437716725279
 30
0.0
 10
88.23699135163868
 20
-115.388650144764
 30
0.0
 10
88.13088241069298
 20
-115.388650144764
 30
0.0
 10
87.87560083523597
 20
-115.388650144764
 30
0.0
 10
87.86767711561988
 20
-115.6213663447926
 30
0.0
 10
87.86354300103758
 20
-115.6933688404343
 30
0.0
 10
87.86354300103758
 20
-115.6933688404343
 30
0.0
 10
87.66751706792688
 20
-115.6933688404343
 30
0.0
 10
87.66751706792688
 20
-115.6933688404343
 30
0.0
 10
87.67578529709148
 20
-115.568484129094
 30
0.0
 10
87.7023125323279
 20
-115.1919351925562
 30
0.0
 10
88.14294024489135
 20
-115.1919351925562
 30
0.0
 10
88.35929224136504
 20
-115.1919351925562
 30
0.0
 10
88.5918361866194
 20
-115.3188869611876
 30
0.0
 10
88.5918361866194
 20
-115.6149929181449
 30
0.0
 10
88.5918361866194
 20
-115.8012003291226
 30
0.0
 10
88.50019664671176
 20
-115.8837103659944
 30
0.0
 10
88.40407848267328
 20
-115.9450330656318
 30
0.0
 10
88.46333412501959
 20
-115.9725938295138
 30
0.0
 10
88.6386894852188
 20
-116.0530368090944
 30
0.0
 10
88.6386894852188
 20
-116.3301947408827
 30
0.0
 10
88.6386894852188
 20
-116.6686753723085
 30
0.0
 10
88.39994436809098
 20
-116.8357625033431
 30
0.0
 10
88.13294946798413
 20
-116.8357625033431
 30
0.0
  0
HATCH
  5
E0
330
DB
100
AcDbEntity
  8
_U+30EC_U+30A4_U+30E4_U+30FC 1
 62
   179
420
  2234388
100
AcDbHatch
 10
0.0
 20
0.0
 30
0.0
210
0.0
220
0.0
230
1.0
  2
SOLID
 70
     1
 71
     0
 91
        1
 92
        1
 93
        1
 72
     4
 94
        3
 73
     0
 74
     1
 95
       62
 96
       58
 40
0.0
 40
0.0
 40
0.0
 40
0.0
 40
1.0
 40
1.0
 40
1.0
 40
2.0
 40
2.0
 40
2.0
 40
3.0
 40
3.0
 40
3.0
 40
4.0
 40
4.0
 40
4.0
 40
5.0
 40
5.0
 40
5.0
 40
6.0
 40
6.0
 40
6.0
 40
7.0
 40
7.0
 40
7.0
 40
8.0
 40
8.0
 40
8.0
 40
9.0
 40
9.0
 40
9.0
 40
10.0
 40
10.0
 40
10.0
 40
11.0
 40
11.0
 40
11.0
 40
12.0
 40
12.0
 40
12.0
 40
13.0
 40
13.0
 40
13.0
 40
14.0
 40
14.0
 40
14.0
 40
15.0
 40
15.0
 40
15.0
 40
16.0
 40
16.0
 40
16.0
 40
17.0
 40
17.0
 40
17.0
 40
18.0
 40
18.0
 40
18.0
 40
19.0
 40
19.0
 40
19.0
 40
19.0
 10
88.13294946798413
 20
-116.8357625033431
 10
88.04096541852796
 20
-116.8357625033431
 10
87.83081459392771
 20
-116.8145751661089
 10
87.7105807614925
 20
-116.6283677551311
 10
87.6389227753993
 20
-116.5162298970862
 10
87.63513317036552
 20
-116.4168388923368
 10
87.63099905578322
 20
-116.3322617981739
 10
87.63099905578322
 20
-116.3322617981739
 10
87.84321693767461
 20
-116.3322617981739
 10
87.84321693767461
 20
-116.3322617981739
 10
87.84528399496577
 20
-116.4063313511068
 10
87.85527477187298
 20
-116.6411146084265
 10
88.12881535340183
 20
-116.6411146084265
 10
88.26145152958395
 20
-116.6411146084265
 10
88.40821259725558
 20
-116.5713514248502
 10
88.40821259725558
 20
-116.3427693394039
 10
88.40821259725558
 20
-116.2264973667767
 10
88.37135007556341
 20
-116.1777492656604
 10
88.34103323529322
 20
-116.1460543871961
 10
88.26937524920002
 20
-116.0719848342633
 10
88.1574096459294
 20
-116.0594102357421
 10
88.10435517545655
 20
-116.0594102357421
 10
88.0857516598362
 20
-116.0594102357421
 10
88.0513007049837
 20
-116.0614772930332
 10
88.02477346974729
 20
-116.0656114076155
 10
88.02477346974729
 20
-116.0656114076155
 10
88.02477346974729
 20
-115.8709635126989
 10
88.02477346974729
 20
-115.8709635126989
 10
88.06129148189093
 20
-115.8773369393466
 10
88.1022881181654
 20
-115.8795762514121
 10
88.10848929003886
 20
-115.8795762514121
 10
88.17153453741892
 20
-115.8795762514121
 10
88.36342635594734
 20
-115.8583889141778
 10
88.36342635594734
 20
-115.6213663447926
 10
88.36342635594734
 20
-115.4437716725279
 10
88.23699135163868
 20
-115.388650144764
 10
88.13088241069298
 20
-115.388650144764
 10
87.87560083523597
 20
-115.388650144764
 10
87.86767711561988
 20
-115.6213663447926
 10
87.86354300103758
 20
-115.6933688404343
 10
87.86354300103758
 20
-115.6933688404343
 10
87.66751706792688
 20
-115.6933688404343
 10
87.66751706792688
 20
-115.6933688404343
 10
87.67578529709148
 20
-115.568484129094
 10
87.7023125323279
 20
-115.1919351925562
 10
88.14294024489135
 20
-115.1919351925562
 10
88.35929224136504
 20
-115.1919351925562
 10
88.5918361866194
 20
-115.3188869611876
 10
88.5918361866194
 20
-115.6149929181449
 10
88.5918361866194
 20
-115.8012003291226
 10
88.50019664671176
 20
-115.8837103659944
 10
88.40407848267328
 20
-115.9450330656318
 10
88.46333412501959
 20
-115.9725938295138
 10
88.6386894852188
 20
-116.0530368090944
 10
88.6386894852188
 20
-116.3301947408827
 10
88.6386894852188
 20
-116.6686753723085
 10
88.39994436809098
 20
-116.8357625033431
 10
88.13294946798413
 20
-116.8357625033431
 97
        0
 97
        0
 75
     2
 76
     1
 98
        0
  0
SPLINE
  5
E1
330
DB
100
AcDbEntity
  8
_U+30EC_U+30A4_U+30E4_U+30FC 1
370
     0
100
AcDbSpline
210
0.0
220
0.0
230
1.0
 70
    11
 71
     3
 72
    29
 73
    25
 74
     0
 42
0.0000000001
 43
0.0000000001
 12
1.0
 22
0.0
 32
0.0
 13
1.0
 23
0.0
 33
0.0
 40
0.0
 40
0.0
 40
0.0
 40
0.0
 40
1.0
 40
1.0
 40
1.0
 40
2.0
 40
2.0
 40
2.0
 40
3.0
 40
3.0
 40
3.0
 40
4.0
 40
4.0
 40
4.0
 40
5.0
 40
5.0
 40
5.0
 40
6.0
 40
6.0
 40
6.0
 40
7.0
 40
7.0
 40
7.0
 40
8.0
 40
8.0
 40
8.0
 40
8.0
 10
89.65809323930424
 20
-116.6071804178968
 30
0.0
 10
89.55405135564969
 20
-116.8166422234
 30
0.0
 10
89.38661971506654
 20
-116.8357625033431
 30
0.0
 10
89.2743096022474
 20
-116.8357625033431
 30
0.0
 10
89.11928030541115
 20
-116.8357625033431
 30
0.0
 10
88.98251001464673
 20
-116.7892537142923
 30
0.0
 10
88.89087047473909
 20
-116.6071804178968
 30
0.0
 10
88.79096270566684
 20
-116.4125325229802
 30
0.0
 10
88.7723591900465
 20
-116.1756822083693
 30
0.0
 10
88.7723591900465
 20
-116.012729191917
 30
0.0
 10
88.7723591900465
 20
-115.8688964554078
 30
0.0
 10
88.7888956483757
 20
-115.6172322302103
 30
0.0
 10
88.89087047473909
 20
-115.4182779659371
 30
0.0
 10
88.99491235839363
 20
-115.2151895870816
 30
0.0
 10
89.14994165522988
 20
-115.1919351925562
 30
0.0
 10
89.2743096022474
 20
-115.1919351925562
 30
0.0
 10
89.42727184179249
 20
-115.1919351925562
 30
0.0
 10
89.56610918984806
 20
-115.2363769243159
 30
0.0
 10
89.65809323930424
 20
-115.4182779659371
 30
0.0
 10
89.75386689379418
 20
-115.6108588035626
 30
0.0
 10
89.7762600144483
 20
-115.8392686342346
 30
0.0
 10
89.7762600144483
 20
-116.012729191917
 30
0.0
 10
89.7762600144483
 20
-116.1841226923081
 30
0.0
 10
89.75593395108532
 20
-116.4147718350456
 30
0.0
 10
89.65809323930424
 20
-116.6071804178968
 30
0.0
  0
SPLINE
  5
E2
330
DB
100
AcDbEntity
  8
_U+30EC_U+30A4_U+30E4_U+30FC 1
370
     0
100
AcDbSpline
210
0.0
220
0.0
230
1.0
 70
    11
 71
     3
 72
    17
 73
    13
 74
     0
 42
0.0000000001
 43
0.0000000001
 12
1.0
 22
0.0
 32
0.0
 13
1.0
 23
0.0
 33
0.0
 40
0.0
 40
0.0
 40
0.0
 40
0.0
 40
1.0
 40
1.0
 40
1.0
 40
2.0
 40
2.0
 40
2.0
 40
3.0
 40
3.0
 40
3.0
 40
4.0
 40
4.0
 40
4.0
 40
4.0
 10
89.2743096022474
 20
-115.3845160301817
 30
0.0
 10
89.03349742782844
 20
-115.3845160301817
 30
0.0
 10
88.98871118652019
 20
-115.6680473886177
 30
0.0
 10
88.98871118652019
 20
-116.012729191917
 30
0.0
 10
88.98871118652019
 20
-116.3322617981739
 30
0.0
 10
89.0235066509212
 20
-116.6411146084265
 30
0.0
 10
89.2743096022474
 20
-116.6411146084265
 30
0.0
 10
89.51305471937522
 20
-116.6411146084265
 30
0.0
 10
89.5599080179746
 20
-116.3596503072816
 30
0.0
 10
89.5599080179746
 20
-116.012729191917
 30
0.0
 10
89.5599080179746
 20
-115.6933688404343
 30
0.0
 10
89.52339000583096
 20
-115.3845160301817
 30
0.0
 10
89.2743096022474
 20
-115.3845160301817
 30
0.0
  0
HATCH
  5
E3
330
DB
100
AcDbEntity
  8
_U+30EC_U+30A4_U+30E4_U+30FC 1
 62
   179
420
  2234388
100
AcDbHatch
 10
0.0
 20
0.0
 30
0.0
210
0.0
220
0.0
230
1.0
  2
SOLID
 70
     1
 71
     0
 91
        2
 92
        1
 93
        1
 72
     4
 94
        3
 73
     0
 74
     1
 95
       29
 96
       25
 40
0.0
 40
0.0
 40
0.0
 40
0.0
 40
1.0
 40
1.0
 40
1.0
 40
2.0
 40
2.0
 40
2.0
 40
3.0
 40
3.0
 40
3.0
 40
4.0
 40
4.0
 40
4.0
 40
5.0
 40
5.0
 40
5.0
 40
6.0
 40
6.0
 40
6.0
 40
7.0
 40
7.0
 40
7.0
 40
8.0
 40
8.0
 40
8.0
 40
8.0
 10
89.65809323930424
 20
-116.6071804178968
 10
89.55405135564969
 20
-116.8166422234
 10
89.38661971506654
 20
-116.8357625033431
 10
89.2743096022474
 20
-116.8357625033431
 10
89.11928030541115
 20
-116.8357625033431
 10
88.98251001464673
 20
-116.7892537142923
 10
88.89087047473909
 20
-116.6071804178968
 10
88.79096270566684
 20
-116.4125325229802
 10
88.7723591900465
 20
-116.1756822083693
 10
88.7723591900465
 20
-116.012729191917
 10
88.7723591900465
 20
-115.8688964554078
 10
88.7888956483757
 20
-115.6172322302103
 10
88.89087047473909
 20
-115.4182779659371
 10
88.99491235839363
 20
-115.2151895870816
 10
89.14994165522988
 20
-115.1919351925562
 10
89.2743096022474
 20
-115.1919351925562
 10
89.42727184179249
 20
-115.1919351925562
 10
89.56610918984806
 20
-115.2363769243159
 10
89.65809323930424
 20
-115.4182779659371
 10
89.75386689379418
 20
-115.6108588035626
 10
89.7762600144483
 20
-115.8392686342346
 10
89.7762600144483
 20
-116.012729191917
 10
89.7762600144483
 20
-116.1841226923081
 10
89.75593395108532
 20
-116.4147718350456
 10
89.65809323930424
 20
-116.6071804178968
 97
        0
 97
        0
 92
        1
 93
        1
 72
     4
 94
        3
 73
     0
 74
     1
 95
       17
 96
       13
 40
0.0
 40
0.0
 40
0.0
 40
0.0
 40
1.0
 40
1.0
 40
1.0
 40
2.0
 40
2.0
 40
2.0
 40
3.0
 40
3.0
 40
3.0
 40
4.0
 40
4.0
 40
4.0
 40
4.0
 10
89.2743096022474
 20
-115.3845160301817
 10
89.03349742782844
 20
-115.3845160301817
 10
88.98871118652019
 20
-115.6680473886177
 10
88.98871118652019
 20
-116.012729191917
 10
88.98871118652019
 20
-116.3322617981739
 10
89.0235066509212
 20
-116.6411146084265
 10
89.2743096022474
 20
-116.6411146084265
 10
89.51305471937522
 20
-116.6411146084265
 10
89.5599080179746
 20
-116.3596503072816
 10
89.5599080179746
 20
-116.012729191917
 10
89.5599080179746
 20
-115.6933688404343
 10
89.52339000583096
 20
-115.3845160301817
 10
89.2743096022474
 20
-115.3845160301817
 97
        0
 97
        0
 75
     2
 76
     1
 98
        0
  0
ENDBLK
  5
DE
330
DB
100
AcDbEntity
  8
0
100
AcDbBlockEnd
  0
BLOCK
  5
E6
330
E4
100
AcDbEntity
  8
0
100
AcDbBlockBegin
  2
block 12
 70
     0
 10
0.0
 20
0.0
 30
0.0
  3
block 12
  1

  0
POLYLINE
  5
E8
330
E4
100
AcDbEntity
  8
_U+30EC_U+30A4_U+30E4_U+30FC 1
 62
   179
420
  2234388
370
     9
100
AcDb2dPolyline
 66
     1
 10
0.0
 20
0.0
 30
0.0
  0
VERTEX
  5
E9
330
E8
100
AcDbEntity
  8
_U+30EC_U+30A4_U+30E4_U+30FC 1
 62
   179
420
  2234388
370
     9
100
AcDbVertex
100
AcDb2dVertex
 10
107.7074625299315
 20
-135.4308244105868
 30
0.0
  0
VERTEX
  5
EA
330
E8
100
AcDbEntity
  8
_U+30EC_U+30A4_U+30E4_U+30FC 1
 62
   179
420
  2234388
370
     9
100
AcDbVertex
100
AcDb2dVertex
 10
107.7074625299315
 20
-122.430610524948
 30
0.0
  0
SEQEND
  5
EB
330
E8
100
AcDbEntity
  8
_U+30EC_U+30A4_U+30E4_U+30FC 1
 62
   179
420
  2234388
370
     9
  0
POLYLINE
  5
EC
330
E4
100
AcDbEntity
  8
_U+30EC_U+30A4_U+30E4_U+30FC 1
 62
   179
420
  2234388
370
     9
100
AcDb2dPolyline
 66
     1
 10
0.0
 20
0.0
 30
0.0
  0
VERTEX
  5
ED
330
EC
100
AcDbEntity
  8
_U+30EC_U+30A4_U+30E4_U+30FC 1
 62
   179
420
  2234388
370
     9
100
AcDbVertex
100
AcDb2dVertex
 10
91.24748683874934
 20
-135.4308244105868
 30
0.0
  0
VERTEX
  5
EE
330
EC
100
AcDbEntity
  8
_U+30EC_U+30A4_U+30E4_U+30FC 1
 62
   179
420
  2234388
370
     9
100
AcDbVertex
100
AcDb2dVertex
 10
108.7072347266474
 20
-135.4308244105868
 30
0.0
  0
SEQEND
  5
EF
330
EC
100
AcDbEntity
  8
_U+30EC_U+30A4_U+30E4_U+30FC 1
 62
   179
420
  2234388
370
     9
  0
INSERT
  5
F1
330
E4
100
AcDbEntity
  8
_U+30EC_U+30A4_U+30E4_U+30FC 1
100
AcDbBlockReference
  2
block 13
 10
0.0
 20
0.0
 30
0.0
  0
ENDBLK
  5
E7
330
E4
100
AcDbEntity
  8
0
100
AcDbBlockEnd
  0
BLOCK
  5
F2
330
F0
100
AcDbEntity
  8
0
100
AcDbBlockBegin
  2
block 13
 70
     0
 10
0.0
 20
0.0
 30
0.0
  3
block 13
  1

  0
SPLINE
  5
F4
330
F0
100
AcDbEntity
  8
_U+30EC_U+30A4_U+30E4_U+30FC 1
370
     0
100
AcDbSpline
210
0.0
220
0.0
230
1.0
 70
    11
 71
     3
 72
    26
 73
    22
 74
     0
 42
0.0000000001
 43
0.0000000001
 12
1.0
 22
0.0
 32
0.0
 13
1.0
 23
0.0
 33
0.0
 40
0.0
 40
0.0
 40
0.0
 40
0.0
 40
1.0
 40
1.0
 40
1.0
 40
2.0
 40
2.0
 40
2.0
 40
3.0
 40
3.0
 40
3.0
 40
4.0
 40
4.0
 40
4.0
 40
5.0
 40
5.0
 40
5.0
 40
6.0
 40
6.0
 40
6.0
 40
7.0
 40
7.0
 40
7.0
 40
7.0
 10
106.1499375819695
 20
-129.5438584745585
 30
0.0
 10
106.1499375819695
 20
-129.5438584745585
 30
0.0
 10
105.0457844789469
 20
-129.5438584745585
 30
0.0
 10
105.0457844789469
 20
-129.5438584745585
 30
0.0
 10
105.0457844789469
 20
-129.5438584745585
 30
0.0
 10
105.0457844789469
 20
-129.8621852973956
 30
0.0
 10
105.0457844789469
 20
-129.8621852973956
 30
0.0
 10
105.0457844789469
 20
-129.8621852973956
 30
0.0
 10
104.8976453730811
 20
-129.8621852973956
 30
0.0
 10
104.8976453730811
 20
-129.8621852973956
 30
0.0
 10
104.8828314624946
 20
-129.5417914172673
 30
0.0
 10
104.7198784460423
 20
-129.4970051759591
 30
0.0
 10
104.605501275932
 20
-129.4684108834315
 30
0.0
 10
104.605501275932
 20
-129.4684108834315
 30
0.0
 10
104.605501275932
 20
-129.3275064780848
 30
0.0
 10
104.605501275932
 20
-129.3275064780848
 30
0.0
 10
104.605501275932
 20
-129.3275064780848
 30
0.0
 10
106.1499375819695
 20
-129.3275064780848
 30
0.0
 10
106.1499375819695
 20
-129.3275064780848
 30
0.0
 10
106.1499375819695
 20
-129.3275064780848
 30
0.0
 10
106.1499375819695
 20
-129.5438584745585
 30
0.0
 10
106.1499375819695
 20
-129.5438584745585
 30
0.0
  0
HATCH
  5
F5
330
F0
100
AcDbEntity
  8
_U+30EC_U+30A4_U+30E4_U+30FC 1
 62
   179
420
  2234388
100
AcDbHatch
 10
0.0
 20
0.0
 30
0.0
210
0.0
220
0.0
230
1.0
  2
SOLID
 70
     1
 71
     0
 91
        1
 92
        1
 93
        1
 72
     4
 94
        3
 73
     0
 74
     1
 95
       26
 96
       22
 40
0.0
 40
0.0
 40
0.0
 40
0.0
 40
1.0
 40
1.0
 40
1.0
 40
2.0
 40
2.0
 40
2.0
 40
3.0
 40
3.0
 40
3.0
 40
4.0
 40
4.0
 40
4.0
 40
5.0
 40
5.0
 40
5.0
 40
6.0
 40
6.0
 40
6.0
 40
7.0
 40
7.0
 40
7.0
 40
7.0
 10
106.1499375819695
 20
-129.5438584745585
 10
106.1499375819695
 20
-129.5438584745585
 10
105.0457844789469
 20
-129.5438584745585
 10
105.0457844789469
 20
-129.5438584745585
 10
105.0457844789469
 20
-129.5438584745585
 10
105.0457844789469
 20
-129.8621852973956
 10
105.0457844789469
 20
-129.8621852973956
 10
105.0457844789469
 20
-129.8621852973956
 10
104.8976453730811
 20
-129.8621852973956
 10
104.8976453730811
 20
-129.8621852973956
 10
104.8828314624946
 20
-129.5417914172673
 10
104.7198784460423
 20
-129.4970051759591
 10
104.605501275932
 20
-129.4684108834315
 10
104.605501275932
 20
-129.4684108834315
 10
104.605501275932
 20
-129.3275064780848
 10
104.605501275932
 20
-129.3275064780848
 10
104.605501275932
 20
-129.3275064780848
 10
106.1499375819695
 20
-129.3275064780848
 10
106.1499375819695
 20
-129.3275064780848
 10
106.1499375819695
 20
-129.3275064780848
 10
106.1499375819695
 20
-129.5438584745585
 10
106.1499375819695
 20
-129.5438584745585
 97
        0
 97
        0
 75
     2
 76
     1
 98
        0
  0
SPLINE
  5
F6
330
F0
100
AcDbEntity
  8
_U+30EC_U+30A4_U+30E4_U+30FC 1
370
     0
100
AcDbSpline
210
0.0
220
0.0
230
1.0
 70
    11
 71
     3
 72
    62
 73
    58
 74
     0
 42
0.0000000001
 43
0.0000000001
 12
1.0
 22
0.0
 32
0.0
 13
1.0
 23
0.0
 33
0.0
 40
0.0
 40
0.0
 40
0.0
 40
0.0
 40
1.0
 40
1.0
 40
1.0
 40
2.0
 40
2.0
 40
2.0
 40
3.0
 40
3.0
 40
3.0
 40
4.0
 40
4.0
 40
4.0
 40
5.0
 40
5.0
 40
5.0
 40
6.0
 40
6.0
 40
6.0
 40
7.0
 40
7.0
 40
7.0
 40
8.0
 40
8.0
 40
8.0
 40
9.0
 40
9.0
 40
9.0
 40
10.0
 40
10.0
 40
10.0
 40
11.0
 40
11.0
 40
11.0
 40
12.0
 40
12.0
 40
12.0
 40
13.0
 40
13.0
 40
13.0
 40
14.0
 40
14.0
 40
14.0
 40
15.0
 40
15.0
 40
15.0
 40
16.0
 40
16.0
 40
16.0
 40
17.0
 40
17.0
 40
17.0
 40
18.0
 40
18.0
 40
18.0
 40
19.0
 40
19.0
 40
19.0
 40
19.0
 10
106.2005804856026
 20
-128.371492480928
 30
0.0
 10
106.2005804856026
 20
-128.4634765303841
 30
0.0
 10
106.1795654031426
 20
-128.6736273549844
 30
0.0
 10
105.9935302469391
 20
-128.7938611874196
 30
0.0
 10
105.88122013412
 20
-128.8651746639643
 30
0.0
 10
105.7820013841448
 20
-128.8693087785466
 30
0.0
 10
105.6972520352076
 20
-128.8734428931289
 30
0.0
 10
105.6972520352076
 20
-128.8734428931289
 30
0.0
 10
105.6972520352076
 20
-128.6612250112375
 30
0.0
 10
105.6972520352076
 20
-128.6612250112375
 30
0.0
 10
105.7713215881405
 20
-128.6591579539463
 30
0.0
 10
106.005932590686
 20
-128.6491671770391
 30
0.0
 10
106.005932590686
 20
-128.3756265955103
 30
0.0
 10
106.005932590686
 20
-128.2429904193282
 30
0.0
 10
105.936341661884
 20
-128.0962293516565
 30
0.0
 10
105.7079318312119
 20
-128.0962293516565
 30
0.0
 10
105.5914876038105
 20
-128.0962293516565
 30
0.0
 10
105.5429117574684
 20
-128.1330918733487
 30
0.0
 10
105.5112168790041
 20
-128.1634087136189
 30
0.0
 10
105.4371473260713
 20
-128.2350666997121
 30
0.0
 10
105.4244004727758
 20
-128.3470323029827
 30
0.0
 10
105.4244004727758
 20
-128.4000867734555
 30
0.0
 10
105.4244004727758
 20
-128.4186902890759
 30
0.0
 10
105.426467530067
 20
-128.4531412439284
 30
0.0
 10
105.4306016446493
 20
-128.4796684791648
 30
0.0
 10
105.4306016446493
 20
-128.4796684791648
 30
0.0
 10
105.2359537497327
 20
-128.4796684791648
 30
0.0
 10
105.2359537497327
 20
-128.4796684791648
 30
0.0
 10
105.2424994311547
 20
-128.4431504670212
 30
0.0
 10
105.2445664884458
 20
-128.4021538307467
 30
0.0
 10
105.2445664884458
 20
-128.3959526588732
 30
0.0
 10
105.2445664884458
 20
-128.3329074114932
 30
0.0
 10
105.2232068964373
 20
-128.1410155929647
 30
0.0
 10
104.9865288366006
 20
-128.1410155929647
 30
0.0
 10
104.8087619095617
 20
-128.1410155929647
 30
0.0
 10
104.7536403817977
 20
-128.2674505972734
 30
0.0
 10
104.7536403817977
 20
-128.3735595382191
 30
0.0
 10
104.7536403817977
 20
-128.6288411136761
 30
0.0
 10
104.9865288366006
 20
-128.6367648332922
 30
0.0
 10
105.0581868226938
 20
-128.6408989478745
 30
0.0
 10
105.0581868226938
 20
-128.6408989478745
 30
0.0
 10
105.0581868226938
 20
-128.8369248809852
 30
0.0
 10
105.0581868226938
 20
-128.8369248809852
 30
0.0
 10
104.9334743661278
 20
-128.8286566518206
 30
0.0
 10
104.5569254295899
 20
-128.8021294165842
 30
0.0
 10
104.5569254295899
 20
-128.3615017040208
 30
0.0
 10
104.5569254295899
 20
-128.1451497075471
 30
0.0
 10
104.6840494529957
 20
-127.9126057622927
 30
0.0
 10
104.9799831551786
 20
-127.9126057622927
 30
0.0
 10
105.1663628209306
 20
-127.9126057622927
 30
0.0
 10
105.2487006030281
 20
-128.0042453022003
 30
0.0
 10
105.3100233026656
 20
-128.1003634662388
 30
0.0
 10
105.3375840665475
 20
-128.0411078238925
 30
0.0
 10
105.4178547913539
 20
-127.8657524636933
 30
0.0
 10
105.6951849779165
 20
-127.8657524636933
 30
0.0
 10
106.033493354568
 20
-127.8657524636933
 30
0.0
 10
106.2005804856026
 20
-128.1044975808211
 30
0.0
 10
106.2005804856026
 20
-128.371492480928
 30
0.0
  0
HATCH
  5
F7
330
F0
100
AcDbEntity
  8
_U+30EC_U+30A4_U+30E4_U+30FC 1
 62
   179
420
  2234388
100
AcDbHatch
 10
0.0
 20
0.0
 30
0.0
210
0.0
220
0.0
230
1.0
  2
SOLID
 70
     1
 71
     0
 91
        1
 92
        1
 93
        1
 72
     4
 94
        3
 73
     0
 74
     1
 95
       62
 96
       58
 40
0.0
 40
0.0
 40
0.0
 40
0.0
 40
1.0
 40
1.0
 40
1.0
 40
2.0
 40
2.0
 40
2.0
 40
3.0
 40
3.0
 40
3.0
 40
4.0
 40
4.0
 40
4.0
 40
5.0
 40
5.0
 40
5.0
 40
6.0
 40
6.0
 40
6.0
 40
7.0
 40
7.0
 40
7.0
 40
8.0
 40
8.0
 40
8.0
 40
9.0
 40
9.0
 40
9.0
 40
10.0
 40
10.0
 40
10.0
 40
11.0
 40
11.0
 40
11.0
 40
12.0
 40
12.0
 40
12.0
 40
13.0
 40
13.0
 40
13.0
 40
14.0
 40
14.0
 40
14.0
 40
15.0
 40
15.0
 40
15.0
 40
16.0
 40
16.0
 40
16.0
 40
17.0
 40
17.0
 40
17.0
 40
18.0
 40
18.0
 40
18.0
 40
19.0
 40
19.0
 40
19.0
 40
19.0
 10
106.2005804856026
 20
-128.371492480928
 10
106.2005804856026
 20
-128.4634765303841
 10
106.1795654031426
 20
-128.6736273549844
 10
105.9935302469391
 20
-128.7938611874196
 10
105.88122013412
 20
-128.8651746639643
 10
105.7820013841448
 20
-128.8693087785466
 10
105.6972520352076
 20
-128.8734428931289
 10
105.6972520352076
 20
-128.8734428931289
 10
105.6972520352076
 20
-128.6612250112375
 10
105.6972520352076
 20
-128.6612250112375
 10
105.7713215881405
 20
-128.6591579539463
 10
106.005932590686
 20
-128.6491671770391
 10
106.005932590686
 20
-128.3756265955103
 10
106.005932590686
 20
-128.2429904193282
 10
105.936341661884
 20
-128.0962293516565
 10
105.7079318312119
 20
-128.0962293516565
 10
105.5914876038105
 20
-128.0962293516565
 10
105.5429117574684
 20
-128.1330918733487
 10
105.5112168790041
 20
-128.1634087136189
 10
105.4371473260713
 20
-128.2350666997121
 10
105.4244004727758
 20
-128.3470323029827
 10
105.4244004727758
 20
-128.4000867734555
 10
105.4244004727758
 20
-128.4186902890759
 10
105.426467530067
 20
-128.4531412439284
 10
105.4306016446493
 20
-128.4796684791648
 10
105.4306016446493
 20
-128.4796684791648
 10
105.2359537497327
 20
-128.4796684791648
 10
105.2359537497327
 20
-128.4796684791648
 10
105.2424994311547
 20
-128.4431504670212
 10
105.2445664884458
 20
-128.4021538307467
 10
105.2445664884458
 20
-128.3959526588732
 10
105.2445664884458
 20
-128.3329074114932
 10
105.2232068964373
 20
-128.1410155929647
 10
104.9865288366006
 20
-128.1410155929647
 10
104.8087619095617
 20
-128.1410155929647
 10
104.7536403817977
 20
-128.2674505972734
 10
104.7536403817977
 20
-128.3735595382191
 10
104.7536403817977
 20
-128.6288411136761
 10
104.9865288366006
 20
-128.6367648332922
 10
105.0581868226938
 20
-128.6408989478745
 10
105.0581868226938
 20
-128.6408989478745
 10
105.0581868226938
 20
-128.8369248809852
 10
105.0581868226938
 20
-128.8369248809852
 10
104.9334743661278
 20
-128.8286566518206
 10
104.5569254295899
 20
-128.8021294165842
 10
104.5569254295899
 20
-128.3615017040208
 10
104.5569254295899
 20
-128.1451497075471
 10
104.6840494529957
 20
-127.9126057622927
 10
104.9799831551786
 20
-127.9126057622927
 10
105.1663628209306
 20
-127.9126057622927
 10
105.2487006030281
 20
-128.0042453022003
 10
105.3100233026656
 20
-128.1003634662388
 10
105.3375840665475
 20
-128.0411078238925
 10
105.4178547913539
 20
-127.8657524636933
 10
105.6951849779165
 20
-127.8657524636933
 10
106.033493354568
 20
-127.8657524636933
 10
106.2005804856026
 20
-128.1044975808211
 10
106.2005804856026
 20
-128.371492480928
 97
        0
 97
        0
 75
     2
 76
     1
 98
        0
  0
ENDBLK
  5
F3
330
F0
100
AcDbEntity
  8
0
100
AcDbBlockEnd
  0
ENDSEC
  0
SECTION
  2
ENTITIES
  0
INSERT
  5
42
330
1F
100
AcDbEntity
  8
_U+30EC_U+30A4_U+30E4_U+30FC 1
100
AcDbBlockReference
  2
block 2
 10
0.0
 20
0.0
 30
0.0
  0
ENDSEC
  0
SECTION
  2
OBJECTS
  0
DICTIONARY
  5
C
330
0
100
AcDbDictionary
281
     1
  3
ACAD_GROUP
350
D
  3
ACAD_LAYOUT
350
1A
  3
ACAD_MATERIAL
350
3B
  3
ACAD_MLEADERSTYLE
350
FA
  3
ACAD_MLINESTYLE
350
17
  3
ACAD_PLOTSETTINGS
350
19
  3
ACAD_PLOTSTYLENAME
350
E
  3
ACAD_TABLESTYLE
350
F9
  3
ACAD_VISUALSTYLE
350
2A
  0
SUN
  5
3F
330
29
100
AcDbSun
 90
        1
290
     0
 63
     7
421
 16777215
 40
1.0
291
     1
 91
  2455826
 92
 54000000
292
     0
 70
     2
 71
   256
280
     1
  0
DICTIONARY
  5
D
102
{ACAD_REACTORS
330
C
102
}
330
C
100
AcDbDictionary
281
     1
  0
DICTIONARY
  5
1A
102
{ACAD_REACTORS
330
C
102
}
330
C
100
AcDbDictionary
281
     1
  3
Layout1
350
1E
  3
Layout2
350
26
  3
Model
350
22
  0
DICTIONARY
  5
3B
102
{ACAD_REACTORS
330
C
102
}
330
C
100
AcDbDictionary
281
     1
  3
ByBlock
350
3D
  3
ByLayer
350
3C
  3
Global
350
3E
  0
DICTIONARY
  5
FA
102
{ACAD_REACTORS
330
C
102
}
330
C
100
AcDbDictionary
281
     1
  0
DICTIONARY
  5
17
102
{ACAD_REACTORS
330
C
102
}
330
C
100
AcDbDictionary
281
     1
  3
Standard
350
18
  0
DICTIONARY
  5
19
102
{ACAD_REACTORS
330
C
102
}
330
C
100
AcDbDictionary
281
     1
  0
ACDBDICTIONARYWDFLT
  5
E
102
{ACAD_REACTORS
330
C
102
}
330
C
100
AcDbDictionary
281
     1
  3
Normal
350
F
100
AcDbDictionaryWithDefault
340
F
  0
DICTIONARY
  5
F9
102
{ACAD_REACTORS
330
C
102
}
330
C
100
AcDbDictionary
281
     1
  0
DICTIONARY
  5
2A
102
{ACAD_REACTORS
330
C
102
}
330
C
100
AcDbDictionary
281
     1
  3
2dWireframe
350
2F
  3
3D Hidden
350
31
  3
3dWireframe
350
30
  3
Basic
350
32
  3
Brighten
350
36
  3
ColorChange
350
3A
  3
Conceptual
350
34
  3
Dim
350
35
  3
Facepattern
350
39
  3
Flat
350
2B
  3
FlatWithEdges
350
2C
  3
Gouraud
350
2D
  3
GouraudWithEdges
350
2E
  3
Linepattern
350
38
  3
Realistic
350
33
  3
Thicken
350
37
  0
LAYOUT
  5
1E
102
{ACAD_REACTORS
330
1A
102
}
330
1A
100
AcDbPlotSettings
  1

  2
none_device
  4

  6

 40
0.0
 41
0.0
 42
0.0
 43
0.0
 44
0.0
 45
0.0
 46
0.0
 47
0.0
 48
0.0
 49
0.0
140
0.0
141
0.0
142
1.0
143
1.0
 70
   688
 72
     0
 73
     0
 74
     5
  7

 75
    16
 76
     0
 77
     2
 78
   300
147
1.0
148
0.0
149
0.0
100
AcDbLayout
  1
Layout1
 70
     1
 71
     1
 10
0.0
 20
0.0
 11
12.0
 21
9.0
 12
0.0
 22
0.0
 32
0.0
 14
1.000000000000000E+20
 24
1.000000000000000E+20
 34
1.000000000000000E+20
 15
-1.000000000000000E+20
 25
-1.000000000000000E+20
 35
-1.000000000000000E+20
146
0.0
 13
0.0
 23
0.0
 33
0.0
 16
1.0
 26
0.0
 36
0.0
 17
0.0
 27
1.0
 37
0.0
 76
     0
330
1B
  0
LAYOUT
  5
26
102
{ACAD_REACTORS
330
1A
102
}
330
1A
100
AcDbPlotSettings
  1

  2
none_device
  4

  6

 40
0.0
 41
0.0
 42
0.0
 43
0.0
 44
0.0
 45
0.0
 46
0.0
 47
0.0
 48
0.0
 49
0.0
140
0.0
141
0.0
142
1.0
143
1.0
 70
   688
 72
     0
 73
     0
 74
     5
  7

 75
    16
 76
     0
 77
     2
 78
   300
147
1.0
148
0.0
149
0.0
100
AcDbLayout
  1
Layout2
 70
     1
 71
     2
 10
0.0
 20
0.0
 11
0.0
 21
0.0
 12
0.0
 22
0.0
 32
0.0
 14
0.0
 24
0.0
 34
0.0
 15
0.0
 25
0.0
 35
0.0
146
0.0
 13
0.0
 23
0.0
 33
0.0
 16
1.0
 26
0.0
 36
0.0
 17
0.0
 27
1.0
 37
0.0
 76
     0
330
23
  0
LAYOUT
  5
22
102
{ACAD_REACTORS
330
1A
102
}
330
1A
100
AcDbPlotSettings
  1

  2
none_device
  4

  6

 40
0.0
 41
0.0
 42
0.0
 43
0.0
 44
0.0
 45
0.0
 46
0.0
 47
0.0
 48
0.0
 49
0.0
140
0.0
141
0.0
142
1.0
143
1.0
 70
  1712
 72
     0
 73
     0
 74
     0
  7

 75
     0
 76
     0
 77
     2
 78
   300
147
1.0
148
0.0
149
0.0
100
AcDbLayout
  1
Model
 70
     1
 71
     0
 10
0.0
 20
0.0
 11
12.0
 21
9.0
 12
0.0
 22
0.0
 32
0.0
 14
1.000000000000000E+20
 24
1.000000000000000E+20
 34
1.000000000000000E+20
 15
-1.000000000000000E+20
 25
-1.000000000000000E+20
 35
-1.000000000000000E+20
146
0.0
 13
0.0
 23
0.0
 33
0.0
 16
1.0
 26
0.0
 36
0.0
 17
0.0
 27
1.0
 37
0.0
 76
     0
330
1F
331
29
  0
MATERIAL
  5
3D
102
{ACAD_REACTORS
330
3B
102
}
330
3B
100
AcDbMaterial
  1
ByBlock
 72
     1
 94
      127
  0
MATERIAL
  5
3C
102
{ACAD_REACTORS
330
3B
102
}
330
3B
100
AcDbMaterial
  1
ByLayer
 72
     1
 94
      127
  0
MATERIAL
  5
3E
102
{ACAD_REACTORS
330
3B
102
}
330
3B
100
AcDbMaterial
  1
Global
 72
     1
 94
      127
  0
MLINESTYLE
  5
18
102
{ACAD_REACTORS
330
17
102
}
330
17
100
AcDbMlineStyle
  2
Standard
 70
     0
  3

 62
   256
 51
90.0
 52
90.0
 71
     2
 49
0.5
 62
   256
  6
BYLAYER
 49
-0.5
 62
   256
  6
BYLAYER
  0
ACDBPLACEHOLDER
  5
F
102
{ACAD_REACTORS
330
E
102
}
330
E
  0
VISUALSTYLE
  5
2F
102
{ACAD_REACTORS
330
2A
102
}
330
2A
100
AcDbVisualStyle
  2
2dWireframe
 70
     4
177
     2
291
     0
 71
     0
176
     1
 72
     2
176
     1
 73
     0
176
     1
 90
        0
176
     1
 40
-0.6
176
     1
 41
-30.0
176
     1
 62
     5
 63
     7
421
 16777215
176
     1
 74
     1
176
     1
 91
        4
176
     1
 64
     7
176
     1
 65
   257
176
     1
 75
     1
176
     1
175
     1
176
     1
 42
1.0
176
     1
 92
        0
176
     1
 66
   257
176
     1
 43
1.0
176
     1
 76
     1
176
     1
 77
     6
176
     1
 78
     2
176
     1
 67
     7
176
     1
 79
     5
176
     1
170
     0
176
     1
171
     0
176
     1
290
     0
176
     1
 93
        1
176
     1
 44
0.0
176
     1
173
     0
176
     1
  0
VISUALSTYLE
  5
31
102
{ACAD_REACTORS
330
2A
102
}
330
2A
100
AcDbVisualStyle
  2
3D Hidden
 70
     6
177
     2
291
     0
 71
     1
176
     1
 72
     2
176
     1
 73
     2
176
     1
 90
        0
176
     1
 40
-0.6
176
     1
 41
-30.0
176
     1
 62
     5
 63
     7
421
 16777215
176
     1
 74
     2
176
     1
 91
        2
176
     1
 64
     7
176
     1
 65
   257
176
     1
 75
     2
176
     1
175
     1
176
     1
 42
40.0
176
     1
 92
        0
176
     1
 66
   257
176
     1
 43
1.0
176
     1
 76
     1
176
     1
 77
     6
176
     1
 78
     2
176
     1
 67
     7
176
     1
 79
     3
176
     1
170
     0
176
     1
171
     0
176
     1
290
     0
176
     1
 93
        1
176
     1
 44
0.0
176
     1
173
     0
176
     1
  0
VISUALSTYLE
  5
30
102
{ACAD_REACTORS
330
2A
102
}
330
2A
100
AcDbVisualStyle
  2
3dWireframe
 70
     5
177
     2
291
     0
 71
     0
176
     1
 72
     2
176
     1
 73
     0
176
     1
 90
        0
176
     1
 40
-0.6
176
     1
 41
-30.0
176
     1
 62
     5
 63
     7
421
 16777215
176
     1
 74
     1
176
     1
 91
        4
176
     1
 64
     7
176
     1
 65
   257
176
     1
 75
     1
176
     1
175
     1
176
     1
 42
1.0
176
     1
 92
        0
176
     1
 66
   257
176
     1
 43
1.0
176
     1
 76
     1
176
     1
 77
     6
176
     1
 78
     2
176
     1
 67
     7
176
     1
 79
     5
176
     1
170
     0
176
     1
171
     0
176
     1
290
     0
176
     1
 93
        1
176
     1
 44
0.0
176
     1
173
     0
176
     1
  0
VISUALSTYLE
  5
32
102
{ACAD_REACTORS
330
2A
102
}
330
2A
100
AcDbVisualStyle
  2
Basic
 70
     7
177
     2
291
     1
 71
     1
176
     1
 72
     0
176
     1
 73
     1
176
     1
 90
        0
176
     1
 40
-0.6
176
     1
 41
-30.0
176
     1
 62
     5
 63
     7
421
 16777215
176
     1
 74
     0
176
     1
 91
        4
176
     1
 64
     7
176
     1
 65
   257
176
     1
 75
     1
176
     1
175
     1
176
     1
 42
1.0
176
     1
 92
        8
176
     1
 66
     7
176
     1
 43
1.0
176
     1
 76
     1
176
     1
 77
     6
176
     1
 78
     2
176
     1
 67
     7
176
     1
 79
     5
176
     1
170
     0
176
     1
171
     0
176
     1
290
     0
176
     1
 93
        1
176
     1
 44
0.0
176
     1
173
     0
176
     1
  0
VISUALSTYLE
  5
36
102
{ACAD_REACTORS
330
2A
102
}
330
2A
100
AcDbVisualStyle
  2
Brighten
 70
    12
177
     2
291
     1
 71
     2
176
     1
 72
     2
176
     1
 73
     0
176
     1
 90
        0
176
     1
 40
-0.6
176
     1
 41
-30.0
176
     1
 62
     5
 63
     7
421
 16777215
176
     1
 74
     1
176
     1
 91
        4
176
     1
 64
     7
176
     1
 65
   257
176
     1
 75
     1
176
     1
175
     1
176
     1
 42
1.0
176
     1
 92
        8
176
     1
 66
     7
176
     1
 43
1.0
176
     1
 76
     1
176
     1
 77
     6
176
     1
 78
     2
176
     1
 67
     7
176
     1
 79
     5
176
     1
170
     0
176
     1
171
     0
176
     1
290
     0
176
     1
 93
        1
176
     1
 44
50.0
176
     1
173
     0
176
     1
  0
VISUALSTYLE
  5
3A
102
{ACAD_REACTORS
330
2A
102
}
330
2A
100
AcDbVisualStyle
  2
ColorChange
 70
    16
177
     2
291
     1
 71
     2
176
     1
 72
     2
176
     1
 73
     3
176
     1
 90
        0
176
     1
 40
-0.6
176
     1
 41
-30.0
176
     1
 62
     5
 63
     8
421
  8421504
176
     1
 74
     1
176
     1
 91
        4
176
     1
 64
     7
176
     1
 65
   257
176
     1
 75
     1
176
     1
175
     1
176
     1
 42
1.0
176
     1
 92
        8
176
     1
 66
     8
424
  8421504
176
     1
 43
1.0
176
     1
 76
     1
176
     1
 77
     6
176
     1
 78
     2
176
     1
 67
     7
176
     1
 79
     5
176
     1
170
     0
176
     1
171
     0
176
     1
290
     0
176
     1
 93
        1
176
     1
 44
0.0
176
     1
173
     0
176
     1
  0
VISUALSTYLE
  5
34
102
{ACAD_REACTORS
330
2A
102
}
330
2A
100
AcDbVisualStyle
  2
Conceptual
 70
     9
177
     2
291
     0
 71
     3
176
     1
 72
     2
176
     1
 73
     0
176
     1
 90
        0
176
     1
 40
-0.6
176
     1
 41
-30.0
176
     1
 62
     5
 63
     7
421
 16777215
176
     1
 74
     2
176
     1
 91
        2
176
     1
 64
     7
176
     1
 65
   257
176
     1
 75
     1
176
     1
175
     1
176
     1
 42
40.0
176
     1
 92
        8
176
     1
 66
     7
176
     1
 43
1.0
176
     1
 76
     1
176
     1
 77
     6
176
     1
 78
     2
176
     1
 67
     7
176
     1
 79
     3
176
     1
170
     0
176
     1
171
     0
176
     1
290
     0
176
     1
 93
        1
176
     1
 44
0.0
176
     1
173
     0
176
     1
  0
VISUALSTYLE
  5
35
102
{ACAD_REACTORS
330
2A
102
}
330
2A
100
AcDbVisualStyle
  2
Dim
 70
    11
177
     2
291
     1
 71
     2
176
     1
 72
     2
176
     1
 73
     0
176
     1
 90
        0
176
     1
 40
-0.6
176
     1
 41
-30.0
176
     1
 62
     5
 63
     7
421
 16777215
176
     1
 74
     1
176
     1
 91
        4
176
     1
 64
     7
176
     1
 65
   257
176
     1
 75
     1
176
     1
175
     1
176
     1
 42
1.0
176
     1
 92
        8
176
     1
 66
     7
176
     1
 43
1.0
176
     1
 76
     1
176
     1
 77
     6
176
     1
 78
     2
176
     1
 67
     7
176
     1
 79
     5
176
     1
170
     0
176
     1
171
     0
176
     1
290
     0
176
     1
 93
        1
176
     1
 44
-50.0
176
     1
173
     0
176
     1
  0
VISUALSTYLE
  5
39
102
{ACAD_REACTORS
330
2A
102
}
330
2A
100
AcDbVisualStyle
  2
Facepattern
 70
    15
177
     2
291
     1
 71
     2
176
     1
 72
     2
176
     1
 73
     0
176
     1
 90
        0
176
     1
 40
-0.6
176
     1
 41
-30.0
176
     1
 62
     5
 63
     7
421
 16777215
176
     1
 74
     1
176
     1
 91
        4
176
     1
 64
     7
176
     1
 65
   257
176
     1
 75
     1
176
     1
175
     1
176
     1
 42
1.0
176
     1
 92
        8
176
     1
 66
     7
176
     1
 43
1.0
176
     1
 76
     1
176
     1
 77
     6
176
     1
 78
     2
176
     1
 67
     7
176
     1
 79
     5
176
     1
170
     0
176
     1
171
     0
176
     1
290
     0
176
     1
 93
        1
176
     1
 44
0.0
176
     1
173
     0
176
     1
  0
VISUALSTYLE
  5
2B
102
{ACAD_REACTORS
330
2A
102
}
330
2A
100
AcDbVisualStyle
  2
Flat
 70
     0
177
     2
291
     1
 71
     2
176
     1
 72
     1
176
     1
 73
     1
176
     1
 90
        2
176
     1
 40
-0.6
176
     1
 41
30.0
176
     1
 62
     5
 63
     7
421
 16777215
176
     1
 74
     0
176
     1
 91
        4
176
     1
 64
     7
176
     1
 65
   257
176
     1
 75
     1
176
     1
175
     1
176
     1
 42
1.0
176
     1
 92
        8
176
     1
 66
     7
176
     1
 43
1.0
176
     1
 76
     1
176
     1
 77
     6
176
     1
 78
     2
176
     1
 67
     7
176
     1
 79
     5
176
     1
170
     0
176
     1
171
     0
176
     1
290
     0
176
     1
 93
       13
176
     1
 44
0.0
176
     1
173
     0
176
     1
  0
VISUALSTYLE
  5
2C
102
{ACAD_REACTORS
330
2A
102
}
330
2A
100
AcDbVisualStyle
  2
FlatWithEdges
 70
     1
177
     2
291
     1
 71
     2
176
     1
 72
     1
176
     1
 73
     1
176
     1
 90
        2
176
     1
 40
-0.6
176
     1
 41
30.0
176
     1
 62
     5
 63
     7
421
 16777215
176
     1
 74
     1
176
     1
 91
        4
176
     1
 64
     7
176
     1
 65
   257
176
     1
 75
     1
176
     1
175
     1
176
     1
 42
1.0
176
     1
 92
        0
176
     1
 66
   257
176
     1
 43
1.0
176
     1
 76
     1
176
     1
 77
     6
176
     1
 78
     2
176
     1
 67
     7
176
     1
 79
     5
176
     1
170
     0
176
     1
171
     0
176
     1
290
     0
176
     1
 93
       13
176
     1
 44
0.0
176
     1
173
     0
176
     1
  0
VISUALSTYLE
  5
2D
102
{ACAD_REACTORS
330
2A
102
}
330
2A
100
AcDbVisualStyle
  2
Gouraud
 70
     2
177
     2
291
     1
 71
     2
176
     1
 72
     2
176
     1
 73
     1
176
     1
 90
        2
176
     1
 40
-0.6
176
     1
 41
30.0
176
     1
 62
     5
 63
     7
421
 16777215
176
     1
 74
     0
176
     1
 91
        4
176
     1
 64
     7
176
     1
 65
   257
176
     1
 75
     1
176
     1
175
     1
176
     1
 42
1.0
176
     1
 92
        0
176
     1
 66
     7
176
     1
 43
1.0
176
     1
 76
     1
176
     1
 77
     6
176
     1
 78
     2
176
     1
 67
     7
176
     1
 79
     5
176
     1
170
     0
176
     1
171
     0
176
     1
290
     0
176
     1
 93
       13
176
     1
 44
0.0
176
     1
173
     0
176
     1
  0
VISUALSTYLE
  5
2E
102
{ACAD_REACTORS
330
2A
102
}
330
2A
100
AcDbVisualStyle
  2
GouraudWithEdges
 70
     3
177
     2
291
     1
 71
     2
176
     1
 72
     2
176
     1
 73
     1
176
     1
 90
        2
176
     1
 40
-0.6
176
     1
 41
30.0
176
     1
 62
     5
 63
     7
421
 16777215
176
     1
 74
     1
176
     1
 91
        4
176
     1
 64
     7
176
     1
 65
   257
176
     1
 75
     1
176
     1
175
     1
176
     1
 42
1.0
176
     1
 92
        0
176
     1
 66
   257
176
     1
 43
1.0
176
     1
 76
     1
176
     1
 77
     6
176
     1
 78
     2
176
     1
 67
     7
176
     1
 79
     5
176
     1
170
     0
176
     1
171
     0
176
     1
290
     0
176
     1
 93
       13
176
     1
 44
0.0
176
     1
173
     0
176
     1
  0
VISUALSTYLE
  5
38
102
{ACAD_REACTORS
330
2A
102
}
330
2A
100
AcDbVisualStyle
  2
Linepattern
 70
    14
177
     2
291
     1
 71
     2
176
     1
 72
     2
176
     1
 73
     0
176
     1
 90
        0
176
     1
 40
-0.6
176
     1
 41
-30.0
176
     1
 62
     5
 63
     7
421
 16777215
176
     1
 74
     1
176
     1
 91
        4
176
     1
 64
     7
176
     1
 65
   257
176
     1
 75
     7
176
     1
175
     7
176
     1
 42
1.0
176
     1
 92
        8
176
     1
 66
     7
176
     1
 43
1.0
176
     1
 76
     1
176
     1
 77
     6
176
     1
 78
     2
176
     1
 67
     7
176
     1
 79
     5
176
     1
170
     0
176
     1
171
     0
176
     1
290
     0
176
     1
 93
        1
176
     1
 44
0.0
176
     1
173
     0
176
     1
  0
VISUALSTYLE
  5
33
102
{ACAD_REACTORS
330
2A
102
}
330
2A
100
AcDbVisualStyle
  2
Realistic
 70
     8
177
     2
291
     0
 71
     2
176
     1
 72
     2
176
     1
 73
     0
176
     1
 90
        0
176
     1
 40
-0.6
176
     1
 41
-30.0
176
     1
 62
     5
 63
     7
421
 16777215
176
     1
 74
     1
176
     1
 91
        0
176
     1
 64
     7
176
     1
 65
   257
176
     1
 75
     1
176
     1
175
     1
176
     1
 42
1.0
176
     1
 92
        8
176
     1
 66
     8
424
  7895160
176
     1
 43
1.0
176
     1
 76
     1
176
     1
 77
     6
176
     1
 78
     2
176
     1
 67
     7
176
     1
 79
     5
176
     1
170
     0
176
     1
171
     0
176
     1
290
     0
176
     1
 93
       13
176
     1
 44
0.0
176
     1
173
     0
176
     1
  0
VISUALSTYLE
  5
37
102
{ACAD_REACTORS
330
2A
102
}
330
2A
100
AcDbVisualStyle
  2
Thicken
 70
    13
177
     2
291
     1
 71
     2
176
     1
 72
     2
176
     1
 73
     0
176
     1
 90
        0
176
     1
 40
-0.6
176
     1
 41
-30.0
176
     1
 62
     5
 63
     7
421
 16777215
176
     1
 74
     1
176
     1
 91
        4
176
     1
 64
     7
176
     1
 65
   257
176
     1
 75
     1
176
     1
175
     1
176
     1
 42
1.0
176
     1
 92
       12
176
     1
 66
     7
176
     1
 43
1.0
176
     1
 76
     1
176
     1
 77
     6
176
     1
 78
     2
176
     1
 67
     7
176
     1
 79
     5
176
     1
170
     0
176
     1
171
     0
176
     1
290
     0
176
     1
 93
        1
176
     1
 44
0.0
176
     1
173
     0
176
     1
  0
ENDSEC
  0
EOF
