  0
SECTION
  2
HEADER
  9
$ACADVER
  1
AC1024
  9
$ACADMAINTVER
 70
     6
  9
$DWGCODEPAGE
  3
UNDEFINED
  9
$INSBASE
 10
0.0
 20
0.0
 30
0.0
  9
$EXTMIN
 10
1.000000000000000E+20
 20
1.000000000000000E+20
 30
1.000000000000000E+20
  9
$EXTMAX
 10
-1.000000000000000E+20
 20
-1.000000000000000E+20
 30
-1.000000000000000E+20
  9
$LIMMIN
 10
0.0
 20
0.0
  9
$LIMMAX
 10
12.0
 20
9.0
  9
$ORTHOMODE
 70
     0
  9
$REGENMODE
 70
     1
  9
$FILLMODE
 70
     1
  9
$QTEXTMODE
 70
     0
  9
$MIRRTEXT
 70
     1
  9
$LTSCALE
 40
1.0
  9
$ATTMODE
 70
     1
  9
$TEXTSIZE
 40
0.2
  9
$TRACEWID
 40
0.05
  9
$TEXTSTYLE
  7
Standard
  9
$CLAYER
  8
0
  9
$CELTYPE
  6
ByLayer
  9
$CECOLOR
 62
   256
  9
$CELTSCALE
 40
1.0
  9
$DISPSILH
 70
     0
  9
$DIMSCALE
 40
1.0
  9
$DIMASZ
 40
0.18
  9
$DIMEXO
 40
0.0625
  9
$DIMDLI
 40
0.38
  9
$DIMRND
 40
0.0
  9
$DIMDLE
 40
0.0
  9
$DIMEXE
 40
0.18
  9
$DIMTP
 40
0.0
  9
$DIMTM
 40
0.0
  9
$DIMTXT
 40
0.18
  9
$DIMCEN
 40
0.09
  9
$DIMTSZ
 40
0.0
  9
$DIMTOL
 70
     0
  9
$DIMLIM
 70
     0
  9
$DIMTIH
 70
     1
  9
$DIMTOH
 70
     1
  9
$DIMSE1
 70
     0
  9
$DIMSE2
 70
     0
  9
$DIMTAD
 70
     0
  9
$DIMZIN
 70
     0
  9
$DIMBLK
  1

  9
$DIMASO
 70
     1
  9
$DIMSHO
 70
     1
  9
$DIMPOST
  1

  9
$DIMAPOST
  1

  9
$DIMALT
 70
     0
  9
$DIMALTD
 70
     2
  9
$DIMALTF
 40
25.4
  9
$DIMLFAC
 40
1.0
  9
$DIMTOFL
 70
     0
  9
$DIMTVP
 40
0.0
  9
$DIMTIX
 70
     0
  9
$DIMSOXD
 70
     0
  9
$DIMSAH
 70
     0
  9
$DIMBLK1
  1

  9
$DIMBLK2
  1

  9
$DIMSTYLE
  2
Standard
  9
$DIMCLRD
 70
     0
  9
$DIMCLRE
 70
     0
  9
$DIMCLRT
 70
     0
  9
$DIMTFAC
 40
1.0
  9
$DIMGAP
 40
0.09
  9
$DIMJUST
 70
     0
  9
$DIMSD1
 70
     0
  9
$DIMSD2
 70
     0
  9
$DIMTOLJ
 70
     1
  9
$DIMTZIN
 70
     0
  9
$DIMALTZ
 70
     0
  9
$DIMALTTZ
 70
     0
  9
$DIMUPT
 70
     0
  9
$DIMDEC
 70
     4
  9
$DIMTDEC
 70
     4
  9
$DIMALTU
 70
     2
  9
$DIMALTTD
 70
     2
  9
$DIMTXSTY
  7
Standard
  9
$DIMAUNIT
 70
     0
  9
$DIMADEC
 70
     0
  9
$DIMALTRND
 40
0.0
  9
$DIMAZIN
 70
     0
  9
$DIMDSEP
 70
    46
  9
$DIMATFIT
 70
     3
  9
$DIMFRAC
 70
     0
  9
$DIMLDRBLK
  1

  9
$DIMLUNIT
 70
     2
  9
$DIMLWD
 70
    -2
  9
$DIMLWE
 70
    -2
  9
$DIMTMOVE
 70
     0
  9
$DIMFXL
 40
1.0
  9
$DIMFXLON
 70
     0
  9
$DIMJOGANG
 40
0.7853981633974483
  9
$DIMTFILL
 70
     0
  9
$DIMTFILLCLR
 70
     0
  9
$DIMARCSYM
 70
     0
  9
$DIMLTYPE
  6

  9
$DIMLTEX1
  6

  9
$DIMLTEX2
  6

  9
$DIMTXTDIRECTION
 70
     0
  9
$LUNITS
 70
     2
  9
$LUPREC
 70
     4
  9
$SKETCHINC
 40
0.1
  9
$FILLETRAD
 40
0.5
  9
$AUNITS
 70
     0
  9
$AUPREC
 70
     0
  9
$MENU
  1
.
  9
$ELEVATION
 40
0.0
  9
$PELEVATION
 40
0.0
  9
$THICKNESS
 40
0.0
  9
$LIMCHECK
 70
     0
  9
$CHAMFERA
 40
0.5
  9
$CHAMFERB
 40
0.5
  9
$CHAMFERC
 40
1.0
  9
$CHAMFERD
 40
0.0
  9
$SKPOLY
 70
     0
  9
$TDCREATE
 40
2457917.612430556
  9
$TDUCREATE
 40
2457917.237430556
  9
$TDUPDATE
 40
2457917.612430556
  9
$TDUUPDATE
 40
2457917.237430556
  9
$TDINDWG
 40
0.0000000116
  9
$TDUSRTIMER
 40
0.0000000116
  9
$USRTIMER
 70
     1
  9
$ANGBASE
 50
0.0
  9
$ANGDIR
 70
     0
  9
$PDMODE
 70
     0
  9
$PDSIZE
 40
0.0
  9
$PLINEWID
 40
0.0
  9
$SPLFRAME
 70
     0
  9
$SPLINETYPE
 70
     6
  9
$SPLINESEGS
 70
     8
  9
$HANDSEED
  5
FB
  9
$SURFTAB1
 70
     6
  9
$SURFTAB2
 70
     6
  9
$SURFTYPE
 70
     6
  9
$SURFU
 70
     6
  9
$SURFV
 70
     6
  9
$UCSBASE
  2

  9
$UCSNAME
  2

  9
$UCSORG
 10
0.0
 20
0.0
 30
0.0
  9
$UCSXDIR
 10
1.0
 20
0.0
 30
0.0
  9
$UCSYDIR
 10
0.0
 20
1.0
 30
0.0
  9
$UCSORTHOREF
  2

  9
$UCSORTHOVIEW
 70
     0
  9
$UCSORGTOP
 10
0.0
 20
0.0
 30
0.0
  9
$UCSORGBOTTOM
 10
0.0
 20
0.0
 30
0.0
  9
$UCSORGLEFT
 10
0.0
 20
0.0
 30
0.0
  9
$UCSORGRIGHT
 10
0.0
 20
0.0
 30
0.0
  9
$UCSORGFRONT
 10
0.0
 20
0.0
 30
0.0
  9
$UCSORGBACK
 10
0.0
 20
0.0
 30
0.0
  9
$PUCSBASE
  2

  9
$PUCSNAME
  2

  9
$PUCSORG
 10
0.0
 20
0.0
 30
0.0
  9
$PUCSXDIR
 10
1.0
 20
0.0
 30
0.0
  9
$PUCSYDIR
 10
0.0
 20
1.0
 30
0.0
  9
$PUCSORTHOREF
  2

  9
$PUCSORTHOVIEW
 70
     0
  9
$PUCSORGTOP
 10
0.0
 20
0.0
 30
0.0
  9
$PUCSORGBOTTOM
 10
0.0
 20
0.0
 30
0.0
  9
$PUCSORGLEFT
 10
0.0
 20
0.0
 30
0.0
  9
$PUCSORGRIGHT
 10
0.0
 20
0.0
 30
0.0
  9
$PUCSORGFRONT
 10
0.0
 20
0.0
 30
0.0
  9
$PUCSORGBACK
 10
0.0
 20
0.0
 30
0.0
  9
$USERI1
 70
     0
  9
$USERI2
 70
     0
  9
$USERI3
 70
     0
  9
$USERI4
 70
     0
  9
$USERI5
 70
     0
  9
$USERR1
 40
0.0
  9
$USERR2
 40
0.0
  9
$USERR3
 40
0.0
  9
$USERR4
 40
0.0
  9
$USERR5
 40
0.0
  9
$WORLDVIEW
 70
     1
  9
$SHADEDGE
 70
     3
  9
$SHADEDIF
 70
    70
  9
$TILEMODE
 70
     1
  9
$MAXACTVP
 70
    64
  9
$PINSBASE
 10
0.0
 20
0.0
 30
0.0
  9
$PLIMCHECK
 70
     0
  9
$PEXTMIN
 10
1.000000000000000E+20
 20
1.000000000000000E+20
 30
1.000000000000000E+20
  9
$PEXTMAX
 10
-1.000000000000000E+20
 20
-1.000000000000000E+20
 30
-1.000000000000000E+20
  9
$PLIMMIN
 10
0.0
 20
0.0
  9
$PLIMMAX
 10
12.0
 20
9.0
  9
$UNITMODE
 70
     0
  9
$VISRETAIN
 70
     1
  9
$PLINEGEN
 70
     0
  9
$PSLTSCALE
 70
     1
  9
$TREEDEPTH
 70
  3020
  9
$CMLSTYLE
  2
Standard
  9
$CMLJUST
 70
     0
  9
$CMLSCALE
 40
1.0
  9
$PROXYGRAPHICS
 70
     1
  9
$MEASUREMENT
 70
     0
  9
$CELWEIGHT
370
    -1
  9
$ENDCAPS
280
     0
  9
$JOINSTYLE
280
     0
  9
$LWDISPLAY
290
     1
  9
$INSUNITS
 70
     1
  9
$HYPERLINKBASE
  1

  9
$STYLESHEET
  1

  9
$XEDIT
290
     1
  9
$CEPSNTYPE
380
     0
  9
$PSTYLEMODE
290
     1
  9
$FINGERPRINTGUID
  2
{5D5F2518-E708-7840-530C-71672FBEE854}
  9
$VERSIONGUID
  2
{FAEB1C32-E019-11D5-929B-00C0DF256EC4}
  9
$EXTNAMES
290
     1
  9
$PSVPSCALE
 40
0.0
  9
$OLESTARTUP
290
     0
  9
$SORTENTS
280
   127
  9
$INDEXCTL
280
     0
  9
$HIDETEXT
280
     1
  9
$XCLIPFRAME
280
     2
  9
$HALOGAP
280
     0
  9
$OBSCOLOR
 70
   257
  9
$OBSLTYPE
280
     0
  9
$INTERSECTIONDISPLAY
280
     0
  9
$INTERSECTIONCOLOR
 70
   257
  9
$DIMASSOC
280
     2
  9
$PROJECTNAME
  1

  9
$CAMERADISPLAY
290
     0
  9
$LENSLENGTH
 40
50.0
  9
$CAMERAHEIGHT
 40
0.0
  9
$STEPSPERSEC
 40
2.0
  9
$STEPSIZE
 40
6.0
  9
$3DDWFPREC
 40
2.0
  9
$PSOLWIDTH
 40
0.25
  9
$PSOLHEIGHT
 40
4.0
  9
$LOFTANG1
 40
1.570796326794897
  9
$LOFTANG2
 40
1.570796326794897
  9
$LOFTMAG1
 40
0.0
  9
$LOFTMAG2
 40
0.0
  9
$LOFTPARAM
 70
     7
  9
$LOFTNORMALS
280
     1
  9
$LATITUDE
 40
37.795
  9
$LONGITUDE
 40
-122.394
  9
$NORTHDIRECTION
 40
0.0
  9
$TIMEZONE
 70
 -8000
  9
$LIGHTGLYPHDISPLAY
280
     1
  9
$TILEMODELIGHTSYNCH
280
     1
  9
$CMATERIAL
347
3C
  9
$SOLIDHIST
280
     1
  9
$SHOWHIST
280
     1
  9
$DWFFRAME
280
     2
  9
$DGNFRAME
280
     2
  9
$REALWORLDSCALE
290
     1
  9
$INTERFERECOLOR
 62
   256
  9
$CSHADOW
280
     0
  9
$SHADOWPLANELOCATION
 40
0.0
  0
ENDSEC
  0
SECTION
  2
CLASSES
  0
CLASS
  1
ACDBDICTIONARYWDFLT
  2
AcDbDictionaryWithDefault
  3
ObjectDBX Classes
 90
        0
 91
        4
280
     0
281
     0
  0
CLASS
  1
VISUALSTYLE
  2
AcDbVisualStyle
  3
ObjectDBX Classes
 90
     4095
 91
        4
280
     0
281
     0
  0
CLASS
  1
MATERIAL
  2
AcDbMaterial
  3
ObjectDBX Classes
 90
     1153
 91
        4
280
     0
281
     0
  0
CLASS
  1
SUN
  2
AcDbSun
  3
SCENEOE
 90
     1024
 91
        4
280
     0
281
     0
  0
ENDSEC
  0
SECTION
  2
TABLES
  0
TABLE
  2
VPORT
  5
8
330
0
100
AcDbSymbolTable
 70
     1
  0
VPORT
  5
29
330
8
100
AcDbSymbolTableRecord
100
AcDbViewportTableRecord
  2
*Active
 70
     0
 10
0.0
 20
0.0
 11
1.0
 21
1.0
 12
0.0
 22
0.0
 13
0.0
 23
0.0
 14
0.5
 24
0.5
 15
0.5
 25
0.5
 16
0.0
 26
0.0
 36
1.0
 17
91.00082462281999
 27
-128.4993055234307
 37
0.0
 40
256.9986110468615
 41
0.7081814508812795
 42
50.0
 43
0.0
 44
0.0
 50
0.0
 51
0.0
 71
     0
 72
   100
 73
     1
 74
     3
 75
     0
 76
     0
 77
     0
 78
     0
281
     0
 65
     1
110
0.0
120
0.0
130
0.0
111
1.0
121
0.0
131
0.0
112
0.0
122
1.0
132
0.0
 79
     0
146
0.0
 60
     3
 61
     5
292
     1
282
     1
141
0.0
142
0.0
 63
   250
361
3F
  0
ENDTAB
  0
TABLE
  2
LTYPE
  5
5
330
0
100
AcDbSymbolTable
 70
     1
  0
LTYPE
  5
14
330
5
100
AcDbSymbolTableRecord
100
AcDbLinetypeTableRecord
  2
ByBlock
 70
     0
  3

 72
    65
 73
     0
 40
0.0
  0
LTYPE
  5
15
330
5
100
AcDbSymbolTableRecord
100
AcDbLinetypeTableRecord
  2
ByLayer
 70
     0
  3

 72
    65
 73
     0
 40
0.0
  0
LTYPE
  5
16
330
5
100
AcDbSymbolTableRecord
100
AcDbLinetypeTableRecord
  2
Continuous
 70
     0
  3
Solid line
 72
    65
 73
     0
 40
0.0
  0
ENDTAB
  0
TABLE
  2
LAYER
  5
2
330
0
100
AcDbSymbolTable
 70
     2
  0
LAYER
  5
10
330
2
100
AcDbSymbolTableRecord
100
AcDbLayerTableRecord
  2
0
 70
     0
 62
     7
  6
Continuous
370
    -3
390
F
347
3E
  0
LAYER
  5
40
330
2
100
AcDbSymbolTableRecord
100
AcDbLayerTableRecord
  2
_U+30EC_U+30A4_U+30E4_U+30FC 1
 70
     0
 62
     7
  6
Continuous
370
    -3
390
F
347
3E
  0
ENDTAB
  0
TABLE
  2
STYLE
  5
3
330
0
100
AcDbSymbolTable
 70
     1
  0
STYLE
  5
11
330
3
100
AcDbSymbolTableRecord
100
AcDbTextStyleTableRecord
  2
Standard
 70
     0
 40
0.0
 41
1.0
 50
0.0
 71
     0
 42
0.2
  3
txt
  4

  0
ENDTAB
  0
TABLE
  2
VIEW
  5
6
330
0
100
AcDbSymbolTable
 70
     0
  0
ENDTAB
  0
TABLE
  2
UCS
  5
7
330
0
100
AcDbSymbolTable
 70
     0
  0
ENDTAB
  0
TABLE
  2
APPID
  5
9
330
0
100
AcDbSymbolTable
 70
     1
  0
APPID
  5
12
330
9
100
AcDbSymbolTableRecord
100
AcDbRegAppTableRecord
  2
ACAD
 70
     0
  0
ENDTAB
  0
TABLE
  2
DIMSTYLE
  5
A
330
0
100
AcDbSymbolTable
 70
     1
100
AcDbDimStyleTable
  0
DIMSTYLE
105
27
330
A
100
AcDbSymbolTableRecord
100
AcDbDimStyleTableRecord
  2
Standard
 70
     0
178
     0
340
11
  0
ENDTAB
  0
TABLE
  2
BLOCK_RECORD
  5
1
330
0
100
AcDbSymbolTable
 70
    13
  0
BLOCK_RECORD
  5
1F
330
1
100
AcDbSymbolTableRecord
100
AcDbBlockTableRecord
  2
*Model_Space
340
22
 70
     0
280
     1
281
     0
  0
BLOCK_RECORD
  5
1B
330
1
100
AcDbSymbolTableRecord
100
AcDbBlockTableRecord
  2
*Paper_Space
340
1E
 70
     0
280
     1
281
     0
  0
BLOCK_RECORD
  5
23
330
1
100
AcDbSymbolTableRecord
100
AcDbBlockTableRecord
  2
*Paper_Space0
340
26
 70
     0
280
     1
281
     0
  0
BLOCK_RECORD
  5
41
330
1
100
AcDbSymbolTableRecord
100
AcDbBlockTableRecord
  2
block 2
340
0
102
{BLKREFS
331
42
102
}
 70
     0
280
     1
281
     0
  0
BLOCK_RECORD
  5
53
330
1
100
AcDbSymbolTableRecord
100
AcDbBlockTableRecord
  2
block 3
340
0
102
{BLKREFS
331
54
102
}
 70
     0
280
     1
281
     0
  0
BLOCK_RECORD
  5
87
330
1
100
AcDbSymbolTableRecord
100
AcDbBlockTableRecord
  2
block 4
340
0
102
{BLKREFS
331
88
102
}
 70
     0
280
     1
281
     0
  0
BLOCK_RECORD
  5
9B
330
1
100
AcDbSymbolTableRecord
100
AcDbBlockTableRecord
  2
block 5
340
0
102
{BLKREFS
331
9C
102
}
 70
     0
280
     1
281
     0
  0
BLOCK_RECORD
  5
A1
330
1
100
AcDbSymbolTableRecord
100
AcDbBlockTableRecord
  2
block 6
340
0
102
{BLKREFS
331
A2
102
}
 70
     0
280
     1
281
     0
  0
BLOCK_RECORD
  5
AD
330
1
100
AcDbSymbolTableRecord
100
AcDbBlockTableRecord
  2
block 7
340
0
102
{BLKREFS
331
AE
102
}
 70
     0
280
     1
281
     0
  0
BLOCK_RECORD
  5
B3
330
1
100
AcDbSymbolTableRecord
100
AcDbBlockTableRecord
  2
block 8
340
0
102
{BLKREFS
331
B4
102
}
 70
     0
280
     1
281
     0
  0
BLOCK_RECORD
  5
BF
330
1
100
AcDbSymbolTableRecord
100
AcDbBlockTableRecord
  2
block 9
340
0
102
{BLKREFS
331
C0
102
}
 70
     0
280
     1
281
     0
  0
BLOCK_RECORD
  5
C8
330
1
100
AcDbSymbolTableRecord
100
AcDbBlockTableRecord
  2
block 10
340
0
102
{BLKREFS
331
C9
102
}
 70
     0
280
     1
281
     0
  0
BLOCK_RECORD
  5
D8
330
1
100
AcDbSymbolTableRecord
100
AcDbBlockTableRecord
  2
block 11
340
0
102
{BLKREFS
331
D9
102
}
 70
     0
280
     1
281
     0
  0
BLOCK_RECORD
  5
E0
330
1
100
AcDbSymbolTableRecord
100
AcDbBlockTableRecord
  2
block 12
340
0
102
{BLKREFS
331
E1
102
}
 70
     0
280
     1
281
     0
  0
BLOCK_RECORD
  5
F0
330
1
100
AcDbSymbolTableRecord
100
AcDbBlockTableRecord
  2
block 13
340
0
102
{BLKREFS
331
F1
102
}
 70
     0
280
     1
281
     0
  0
ENDTAB
  0
ENDSEC
  0
SECTION
  2
BLOCKS
  0
BLOCK
  5
20
330
1F
100
AcDbEntity
  8
0
100
AcDbBlockBegin
  2
*Model_Space
 70
     0
 10
0.0
 20
0.0
 30
0.0
  3
*Model_Space
  1

  0
ENDBLK
  5
21
330
1F
100
AcDbEntity
  8
0
100
AcDbBlockEnd
  0
BLOCK
  5
1C
330
1B
100
AcDbEntity
 67
     1
  8
0
100
AcDbBlockBegin
  2
*Paper_Space
 70
     0
 10
0.0
 20
0.0
 30
0.0
  3
*Paper_Space
  1

  0
ENDBLK
  5
1D
330
1B
100
AcDbEntity
 67
     1
  8
0
100
AcDbBlockEnd
  0
BLOCK
  5
24
330
23
100
AcDbEntity
  8
0
100
AcDbBlockBegin
  2
*Paper_Space0
 70
     0
 10
0.0
 20
0.0
 30
0.0
  3
*Paper_Space0
  1

  0
ENDBLK
  5
25
330
23
100
AcDbEntity
  8
0
100
AcDbBlockEnd
  0
BLOCK
  5
43
330
41
100
AcDbEntity
  8
0
100
AcDbBlockBegin
  2
block 2
 70
     0
 10
0.0
 20
0.0
 30
0.0
  3
block 2
  1

  0
POLYLINE
  5
45
330
41
100
AcDbEntity
  8
_U+30EC_U+30A4_U+30E4_U+30FC 1
370
     0
100
AcDb2dPolyline
 66
     1
 10
0.0
 20
0.0
 30
0.0
  0
VERTEX
  5
46
330
45
100
AcDbEntity
  8
_U+30EC_U+30A4_U+30E4_U+30FC 1
370
     0
100
AcDbVertex
100
AcDb2dVertex
 10
73.55278895684536
 20
-136.9645963546479
 30
0.0
  0
VERTEX
  5
47
330
45
100
AcDbEntity
  8
_U+30EC_U+30A4_U+30E4_U+30FC 1
370
     0
100
AcDbVertex
100
AcDb2dVertex
 10
88.55272329638737
 20
-136.9645963546479
 30
0.0
  0
VERTEX
  5
48
330
45
100
AcDbEntity
  8
_U+30EC_U+30A4_U+30E4_U+30FC 1
370
     0
100
AcDbVertex
100
AcDb2dVertex
 10
88.55272329638737
 20
-133.9646094109535
 30
0.0
  0
VERTEX
  5
49
330
45
100
AcDbEntity
  8
_U+30EC_U+30A4_U+30E4_U+30FC 1
370
     0
100
AcDbVertex
100
AcDb2dVertex
 10
87.55295109967146
 20
-133.9646094109535
 30
0.0
  0
VERTEX
  5
4A
330
45
100
AcDbEntity
  8
_U+30EC_U+30A4_U+30E4_U+30FC 1
370
     0
100
AcDbVertex
100
AcDb2dVertex
 10
87.55295109967146
 20
-135.9641538548979
 30
0.0
  0
VERTEX
  5
4B
330
45
100
AcDbEntity
  8
_U+30EC_U+30A4_U+30E4_U+30FC 1
370
     0
100
AcDbVertex
100
AcDb2dVertex
 10
74.55291393133004
 20
-135.9641538548979
 30
0.0
  0
VERTEX
  5
4C
330
45
100
AcDbEntity
  8
_U+30EC_U+30A4_U+30E4_U+30FC 1
370
     0
100
AcDbVertex
100
AcDb2dVertex
 10
74.55291393133004
 20
-123.9639944134535
 30
0.0
  0
VERTEX
  5
4D
330
45
100
AcDbEntity
  8
_U+30EC_U+30A4_U+30E4_U+30FC 1
370
     0
100
AcDbVertex
100
AcDb2dVertex
 10
103.5526929137063
 20
-123.9639944134535
 30
0.0
  0
VERTEX
  5
4E
330
45
100
AcDbEntity
  8
_U+30EC_U+30A4_U+30E4_U+30FC 1
370
     0
100
AcDbVertex
100
AcDb2dVertex
 10
103.5526929137063
 20
-122.9642574692588
 30
0.0
  0
VERTEX
  5
4F
330
45
100
AcDbEntity
  8
_U+30EC_U+30A4_U+30E4_U+30FC 1
370
     0
100
AcDbVertex
100
AcDb2dVertex
 10
73.55278895684536
 20
-122.9642574692588
 30
0.0
  0
VERTEX
  5
50
330
45
100
AcDbEntity
  8
_U+30EC_U+30A4_U+30E4_U+30FC 1
370
     0
100
AcDbVertex
100
AcDb2dVertex
 10
73.55278895684536
 20
-136.9645963546479
 30
0.0
  0
SEQEND
  5
52
330
45
100
AcDbEntity
  8
_U+30EC_U+30A4_U+30E4_U+30FC 1
370
     0
  0
HATCH
  5
51
330
41
100
AcDbEntity
  8
_U+30EC_U+30A4_U+30E4_U+30FC 1
 62
   253
420
 11711154
100
AcDbHatch
 10
0.0
 20
0.0
 30
0.0
210
0.0
220
0.0
230
1.0
  2
SOLID
 70
     1
 71
     0
 91
        1
 92
        1
 93
       10
 72
     1
 10
73.55278895684536
 20
-136.9645963546479
 11
88.55272329638737
 21
-136.9645963546479
 72
     1
 10
88.55272329638737
 20
-136.9645963546479
 11
88.55272329638737
 21
-133.9646094109535
 72
     1
 10
88.55272329638737
 20
-133.9646094109535
 11
87.55295109967146
 21
-133.9646094109535
 72
     1
 10
87.55295109967146
 20
-133.9646094109535
 11
87.55295109967146
 21
-135.9641538548979
 72
     1
 10
87.55295109967146
 20
-135.9641538548979
 11
74.55291393133004
 21
-135.9641538548979
 72
     1
 10
74.55291393133004
 20
-135.9641538548979
 11
74.55291393133004
 21
-123.9639944134535
 72
     1
 10
74.55291393133004
 20
-123.9639944134535
 11
103.5526929137063
 21
-123.9639944134535
 72
     1
 10
103.5526929137063
 20
-123.9639944134535
 11
103.5526929137063
 21
-122.9642574692588
 72
     1
 10
103.5526929137063
 20
-122.9642574692588
 11
73.55278895684536
 21
-122.9642574692588
 72
     1
 10
73.55278895684536
 20
-122.9642574692588
 11
73.55278895684536
 21
-136.9645963546479
 97
        0
 75
     2
 76
     1
 98
        0
  0
INSERT
  5
54
330
41
100
AcDbEntity
  8
_U+30EC_U+30A4_U+30E4_U+30FC 1
100
AcDbBlockReference
  2
block 3
 10
0.0
 20
0.0
 30
0.0
  0
ENDBLK
  5
44
330
41
100
AcDbEntity
  8
0
100
AcDbBlockEnd
  0
BLOCK
  5
55
330
53
100
AcDbEntity
  8
0
100
AcDbBlockBegin
  2
block 3
 70
     0
 10
0.0
 20
0.0
 30
0.0
  3
block 3
  1

  0
POLYLINE
  5
57
330
53
100
AcDbEntity
  8
_U+30EC_U+30A4_U+30E4_U+30FC 1
 62
   179
420
  2234388
370
    25
100
AcDb2dPolyline
 66
     1
 10
0.0
 20
0.0
 30
0.0
  0
VERTEX
  5
58
330
57
100
AcDbEntity
  8
_U+30EC_U+30A4_U+30E4_U+30FC 1
 62
   179
420
  2234388
370
    25
100
AcDbVertex
100
AcDb2dVertex
 10
73.65269562096319
 20
-122.9642574692588
 30
0.0
  0
VERTEX
  5
59
330
57
100
AcDbEntity
  8
_U+30EC_U+30A4_U+30E4_U+30FC 1
 62
   179
420
  2234388
370
    25
100
AcDbVertex
100
AcDb2dVertex
 10
103.6525995778241
 20
-122.9642574692588
 30
0.0
  0
SEQEND
  5
5A
330
57
100
AcDbEntity
  8
_U+30EC_U+30A4_U+30E4_U+30FC 1
 62
   179
420
  2234388
370
    25
  0
POLYLINE
  5
5B
330
53
100
AcDbEntity
  8
_U+30EC_U+30A4_U+30E4_U+30FC 1
 62
   179
420
  2234388
370
    25
100
AcDb2dPolyline
 66
     1
 10
0.0
 20
0.0
 30
0.0
  0
VERTEX
  5
5C
330
5B
100
AcDbEntity
  8
_U+30EC_U+30A4_U+30E4_U+30FC 1
 62
   179
420
  2234388
370
    25
100
AcDbVertex
100
AcDb2dVertex
 10
73.65269562096319
 20
-122.9642574692588
 30
0.0
  0
VERTEX
  5
5D
330
5B
100
AcDbEntity
  8
_U+30EC_U+30A4_U+30E4_U+30FC 1
 62
   179
420
  2234388
370
    25
100
AcDbVertex
100
AcDb2dVertex
 10
73.65269562096319
 20
-136.9645963546479
 30
0.0
  0
SEQEND
  5
5E
330
5B
100
AcDbEntity
  8
_U+30EC_U+30A4_U+30E4_U+30FC 1
 62
   179
420
  2234388
370
    25
  0
POLYLINE
  5
5F
330
53
100
AcDbEntity
  8
_U+30EC_U+30A4_U+30E4_U+30FC 1
 62
   179
420
  2234388
370
    25
100
AcDb2dPolyline
 66
     1
 10
0.0
 20
0.0
 30
0.0
  0
VERTEX
  5
60
330
5F
100
AcDbEntity
  8
_U+30EC_U+30A4_U+30E4_U+30FC 1
 62
   179
420
  2234388
370
    25
100
AcDbVertex
100
AcDb2dVertex
 10
103.6525995778241
 20
-122.9642574692588
 30
0.0
  0
VERTEX
  5
61
330
5F
100
AcDbEntity
  8
_U+30EC_U+30A4_U+30E4_U+30FC 1
 62
   179
420
  2234388
370
    25
100
AcDbVertex
100
AcDb2dVertex
 10
103.6525995778241
 20
-123.9639944134535
 30
0.0
  0
SEQEND
  5
62
330
5F
100
AcDbEntity
  8
_U+30EC_U+30A4_U+30E4_U+30FC 1
 62
   179
420
  2234388
370
    25
  0
POLYLINE
  5
63
330
53
100
AcDbEntity
  8
_U+30EC_U+30A4_U+30E4_U+30FC 1
 62
   179
420
  2234388
370
    25
100
AcDb2dPolyline
 66
     1
 10
0.0
 20
0.0
 30
0.0
  0
VERTEX
  5
64
330
63
100
AcDbEntity
  8
_U+30EC_U+30A4_U+30E4_U+30FC 1
 62
   179
420
  2234388
370
    25
100
AcDbVertex
100
AcDb2dVertex
 10
74.65282059544788
 20
-123.9639944134535
 30
0.0
  0
VERTEX
  5
65
330
63
100
AcDbEntity
  8
_U+30EC_U+30A4_U+30E4_U+30FC 1
 62
   179
420
  2234388
370
    25
100
AcDbVertex
100
AcDb2dVertex
 10
103.6525995778241
 20
-123.9639944134535
 30
0.0
  0
SEQEND
  5
66
330
63
100
AcDbEntity
  8
_U+30EC_U+30A4_U+30E4_U+30FC 1
 62
   179
420
  2234388
370
    25
  0
POLYLINE
  5
67
330
53
100
AcDbEntity
  8
_U+30EC_U+30A4_U+30E4_U+30FC 1
 62
   179
420
  2234388
370
    25
100
AcDb2dPolyline
 66
     1
 10
0.0
 20
0.0
 30
0.0
  0
VERTEX
  5
68
330
67
100
AcDbEntity
  8
_U+30EC_U+30A4_U+30E4_U+30FC 1
 62
   179
420
  2234388
370
    25
100
AcDbVertex
100
AcDb2dVertex
 10
88.65262996050521
 20
-133.9646094109535
 30
0.0
  0
VERTEX
  5
69
330
67
100
AcDbEntity
  8
_U+30EC_U+30A4_U+30E4_U+30FC 1
 62
   179
420
  2234388
370
    25
100
AcDbVertex
100
AcDb2dVertex
 10
88.65262996050521
 20
-136.9645963546479
 30
0.0
  0
SEQEND
  5
6A
330
67
100
AcDbEntity
  8
_U+30EC_U+30A4_U+30E4_U+30FC 1
 62
   179
420
  2234388
370
    25
  0
POLYLINE
  5
6B
330
53
100
AcDbEntity
  8
_U+30EC_U+30A4_U+30E4_U+30FC 1
 62
   179
420
  2234388
370
    25
100
AcDb2dPolyline
 66
     1
 10
0.0
 20
0.0
 30
0.0
  0
VERTEX
  5
6C
330
6B
100
AcDbEntity
  8
_U+30EC_U+30A4_U+30E4_U+30FC 1
 62
   179
420
  2234388
370
    25
100
AcDbVertex
100
AcDb2dVertex
 10
87.6528577637893
 20
-133.9646094109535
 30
0.0
  0
VERTEX
  5
6D
330
6B
100
AcDbEntity
  8
_U+30EC_U+30A4_U+30E4_U+30FC 1
 62
   179
420
  2234388
370
    25
100
AcDbVertex
100
AcDb2dVertex
 10
87.6528577637893
 20
-135.9641538548979
 30
0.0
  0
SEQEND
  5
6E
330
6B
100
AcDbEntity
  8
_U+30EC_U+30A4_U+30E4_U+30FC 1
 62
   179
420
  2234388
370
    25
  0
POLYLINE
  5
6F
330
53
100
AcDbEntity
  8
_U+30EC_U+30A4_U+30E4_U+30FC 1
 62
   179
420
  2234388
370
    25
100
AcDb2dPolyline
 66
     1
 10
0.0
 20
0.0
 30
0.0
  0
VERTEX
  5
70
330
6F
100
AcDbEntity
  8
_U+30EC_U+30A4_U+30E4_U+30FC 1
 62
   179
420
  2234388
370
    25
100
AcDbVertex
100
AcDb2dVertex
 10
74.65282059544788
 20
-123.9639944134535
 30
0.0
  0
VERTEX
  5
71
330
6F
100
AcDbEntity
  8
_U+30EC_U+30A4_U+30E4_U+30FC 1
 62
   179
420
  2234388
370
    25
100
AcDbVertex
100
AcDb2dVertex
 10
74.65282059544788
 20
-135.9641538548979
 30
0.0
  0
SEQEND
  5
72
330
6F
100
AcDbEntity
  8
_U+30EC_U+30A4_U+30E4_U+30FC 1
 62
   179
420
  2234388
370
    25
  0
POLYLINE
  5
73
330
53
100
AcDbEntity
  8
_U+30EC_U+30A4_U+30E4_U+30FC 1
 62
   179
420
  2234388
370
    25
100
AcDb2dPolyline
 66
     1
 10
0.0
 20
0.0
 30
0.0
  0
VERTEX
  5
74
330
73
100
AcDbEntity
  8
_U+30EC_U+30A4_U+30E4_U+30FC 1
 62
   179
420
  2234388
370
    25
100
AcDbVertex
100
AcDb2dVertex
 10
87.6528577637893
 20
-133.9646094109535
 30
0.0
  0
VERTEX
  5
75
330
73
100
AcDbEntity
  8
_U+30EC_U+30A4_U+30E4_U+30FC 1
 62
   179
420
  2234388
370
    25
100
AcDbVertex
100
AcDb2dVertex
 10
88.65262996050521
 20
-133.9646094109535
 30
0.0
  0
SEQEND
  5
76
330
73
100
AcDbEntity
  8
_U+30EC_U+30A4_U+30E4_U+30FC 1
 62
   179
420
  2234388
370
    25
  0
POLYLINE
  5
77
330
53
100
AcDbEntity
  8
_U+30EC_U+30A4_U+30E4_U+30FC 1
 62
   179
420
  2234388
370
    25
100
AcDb2dPolyline
 66
     1
 10
0.0
 20
0.0
 30
0.0
  0
VERTEX
  5
78
330
77
100
AcDbEntity
  8
_U+30EC_U+30A4_U+30E4_U+30FC 1
 62
   179
420
  2234388
370
    25
100
AcDbVertex
100
AcDb2dVertex
 10
73.65269562096319
 20
-136.9645963546479
 30
0.0
  0
VERTEX
  5
79
330
77
100
AcDbEntity
  8
_U+30EC_U+30A4_U+30E4_U+30FC 1
 62
   179
420
  2234388
370
    25
100
AcDbVertex
100
AcDb2dVertex
 10
88.65262996050521
 20
-136.9645963546479
 30
0.0
  0
SEQEND
  5
7A
330
77
100
AcDbEntity
  8
_U+30EC_U+30A4_U+30E4_U+30FC 1
 62
   179
420
  2234388
370
    25
  0
POLYLINE
  5
7B
330
53
100
AcDbEntity
  8
_U+30EC_U+30A4_U+30E4_U+30FC 1
 62
   179
420
  2234388
370
    25
100
AcDb2dPolyline
 66
     1
 10
0.0
 20
0.0
 30
0.0
  0
VERTEX
  5
7C
330
7B
100
AcDbEntity
  8
_U+30EC_U+30A4_U+30E4_U+30FC 1
 62
   179
420
  2234388
370
    25
100
AcDbVertex
100
AcDb2dVertex
 10
74.65282059544788
 20
-135.9641538548979
 30
0.0
  0
VERTEX
  5
7D
330
7B
100
AcDbEntity
  8
_U+30EC_U+30A4_U+30E4_U+30FC 1
 62
   179
420
  2234388
370
    25
100
AcDbVertex
100
AcDb2dVertex
 10
87.6528577637893
 20
-135.9641538548979
 30
0.0
  0
SEQEND
  5
7E
330
7B
100
AcDbEntity
  8
_U+30EC_U+30A4_U+30E4_U+30FC 1
 62
   179
420
  2234388
370
    25
  0
SPLINE
  5
7F
330
53
100
AcDbEntity
  8
_U+30EC_U+30A4_U+30E4_U+30FC 1
 62
   179
420
  2234388
370
     9
100
AcDbSpline
210
0.0
220
0.0
230
1.0
 70
    11
 71
     3
 72
    17
 73
    13
 74
     0
 42
0.0000000001
 43
0.0000000001
 12
1.0
 22
0.0
 32
0.0
 13
1.0
 23
0.0
 33
0.0
 40
0.0
 40
0.0
 40
0.0
 40
0.0
 40
1.0
 40
1.0
 40
1.0
 40
2.0
 40
2.0
 40
2.0
 40
3.0
 40
3.0
 40
3.0
 40
4.0
 40
4.0
 40
4.0
 40
4.0
 10
73.75260228508103
 20
-118.9637927480368
 30
0.0
 10
73.75260228508103
 20
-118.9086888591618
 30
0.0
 10
73.70779950844626
 20
-118.8638860813951
 30
0.0
 10
73.65269562096319
 20
-118.8638860813951
 30
0.0
 10
73.5975583149338
 20
-118.8638860813951
 30
0.0
 10
73.55278895684536
 20
-118.9086888591618
 30
0.0
 10
73.55278895684536
 20
-118.9637927480368
 30
0.0
 10
73.55278895684536
 20
-119.0196021924672
 30
0.0
 10
73.5975583149338
 20
-119.0644049702339
 30
0.0
 10
73.65269562096319
 20
-119.0644049702339
 30
0.0
 10
73.70779950844626
 20
-119.0644049702339
 30
0.0
 10
73.75260228508103
 20
-119.0196021924672
 30
0.0
 10
73.75260228508103
 20
-118.9637927480368
 30
0.0
  0
SPLINE
  5
80
330
53
100
AcDbEntity
  8
_U+30EC_U+30A4_U+30E4_U+30FC 1
 62
   179
420
  2234388
370
     9
100
AcDbSpline
210
0.0
220
0.0
230
1.0
 70
    11
 71
     3
 72
    17
 73
    13
 74
     0
 42
0.0000000001
 43
0.0000000001
 12
1.0
 22
0.0
 32
0.0
 13
1.0
 23
0.0
 33
0.0
 40
0.0
 40
0.0
 40
0.0
 40
0.0
 40
1.0
 40
1.0
 40
1.0
 40
2.0
 40
2.0
 40
2.0
 40
3.0
 40
3.0
 40
3.0
 40
4.0
 40
4.0
 40
4.0
 40
4.0
 10
103.7525062419419
 20
-118.9637927480368
 30
0.0
 10
103.7525062419419
 20
-118.9086888591618
 30
0.0
 10
103.7077034653072
 20
-118.8638860813951
 30
0.0
 10
103.6525995778241
 20
-118.8638860813951
 30
0.0
 10
103.5974604125641
 20
-118.8638860813951
 30
0.0
 10
103.5526929137063
 20
-118.9086888591618
 30
0.0
 10
103.5526929137063
 20
-118.9637927480368
 30
0.0
 10
103.5526929137063
 20
-119.0196021924672
 30
0.0
 10
103.5974604125641
 20
-119.0644049702339
 30
0.0
 10
103.6525995778241
 20
-119.0644049702339
 30
0.0
 10
103.7077034653072
 20
-119.0644049702339
 30
0.0
 10
103.7525062419419
 20
-119.0196021924672
 30
0.0
 10
103.7525062419419
 20
-118.9637927480368
 30
0.0
  0
SPLINE
  5
81
330
53
100
AcDbEntity
  8
_U+30EC_U+30A4_U+30E4_U+30FC 1
 62
   179
420
  2234388
370
     9
100
AcDbSpline
210
0.0
220
0.0
230
1.0
 70
    11
 71
     3
 72
    17
 73
    13
 74
     0
 42
0.0000000001
 43
0.0000000001
 12
1.0
 22
0.0
 32
0.0
 13
1.0
 23
0.0
 33
0.0
 40
0.0
 40
0.0
 40
0.0
 40
0.0
 40
1.0
 40
1.0
 40
1.0
 40
2.0
 40
2.0
 40
2.0
 40
3.0
 40
3.0
 40
3.0
 40
4.0
 40
4.0
 40
4.0
 40
4.0
 10
107.7529355843269
 20
-122.9642574692588
 30
0.0
 10
107.7529355843269
 20
-122.9091183026061
 30
0.0
 10
107.708168085469
 20
-122.8643508026172
 30
0.0
 10
107.6530289202091
 20
-122.8643508026172
 30
0.0
 10
107.5972221953229
 20
-122.8643508026172
 30
0.0
 10
107.5524194175562
 20
-122.9091183026061
 30
0.0
 10
107.5524194175562
 20
-122.9642574692588
 30
0.0
 10
107.5524194175562
 20
-123.0193613581341
 30
0.0
 10
107.5972221953229
 20
-123.0641641359008
 30
0.0
 10
107.6530289202091
 20
-123.0641641359008
 30
0.0
 10
107.708168085469
 20
-123.0641641359008
 30
0.0
 10
107.7529355843269
 20
-123.0193613581341
 30
0.0
 10
107.7529355843269
 20
-122.9642574692588
 30
0.0
  0
SPLINE
  5
82
330
53
100
AcDbEntity
  8
_U+30EC_U+30A4_U+30E4_U+30FC 1
 62
   179
420
  2234388
370
     9
100
AcDbSpline
210
0.0
220
0.0
230
1.0
 70
    11
 71
     3
 72
    17
 73
    13
 74
     0
 42
0.0000000001
 43
0.0000000001
 12
1.0
 22
0.0
 32
0.0
 13
1.0
 23
0.0
 33
0.0
 40
0.0
 40
0.0
 40
0.0
 40
0.0
 40
1.0
 40
1.0
 40
1.0
 40
2.0
 40
2.0
 40
2.0
 40
3.0
 40
3.0
 40
3.0
 40
4.0
 40
4.0
 40
4.0
 40
4.0
 10
107.7529355843269
 20
-123.9639944134535
 30
0.0
 10
107.7529355843269
 20
-123.9088905245783
 30
0.0
 10
107.708168085469
 20
-123.8640877468119
 30
0.0
 10
107.6530289202091
 20
-123.8640877468119
 30
0.0
 10
107.5972221953229
 20
-123.8640877468119
 30
0.0
 10
107.5524194175562
 20
-123.9088905245783
 30
0.0
 10
107.5524194175562
 20
-123.9639944134535
 30
0.0
 10
107.5524194175562
 20
-124.0191335801063
 30
0.0
 10
107.5972221953229
 20
-124.0639010800952
 30
0.0
 10
107.6530289202091
 20
-124.0639010800952
 30
0.0
 10
107.708168085469
 20
-124.0639010800952
 30
0.0
 10
107.7529355843269
 20
-124.0191335801063
 30
0.0
 10
107.7529355843269
 20
-123.9639944134535
 30
0.0
  0
SPLINE
  5
83
330
53
100
AcDbEntity
  8
_U+30EC_U+30A4_U+30E4_U+30FC 1
 62
   179
420
  2234388
370
     9
100
AcDbSpline
210
0.0
220
0.0
230
1.0
 70
    11
 71
     3
 72
    17
 73
    13
 74
     0
 42
0.0000000001
 43
0.0000000001
 12
1.0
 22
0.0
 32
0.0
 13
1.0
 23
0.0
 33
0.0
 40
0.0
 40
0.0
 40
0.0
 40
0.0
 40
1.0
 40
1.0
 40
1.0
 40
2.0
 40
2.0
 40
2.0
 40
3.0
 40
3.0
 40
3.0
 40
4.0
 40
4.0
 40
4.0
 40
4.0
 10
107.7529355843269
 20
-133.9646094109535
 30
0.0
 10
107.7529355843269
 20
-133.9094702443004
 30
0.0
 10
107.708168085469
 20
-133.8647027443119
 30
0.0
 10
107.6530289202091
 20
-133.8647027443119
 30
0.0
 10
107.5972221953229
 20
-133.8647027443119
 30
0.0
 10
107.5524194175562
 20
-133.9094702443004
 30
0.0
 10
107.5524194175562
 20
-133.9646094109535
 30
0.0
 10
107.5524194175562
 20
-134.0197132998284
 30
0.0
 10
107.5972221953229
 20
-134.0645160775952
 30
0.0
 10
107.6530289202091
 20
-134.0645160775952
 30
0.0
 10
107.708168085469
 20
-134.0645160775952
 30
0.0
 10
107.7529355843269
 20
-134.0197132998284
 30
0.0
 10
107.7529355843269
 20
-133.9646094109535
 30
0.0
  0
SPLINE
  5
84
330
53
100
AcDbEntity
  8
_U+30EC_U+30A4_U+30E4_U+30FC 1
 62
   179
420
  2234388
370
     9
100
AcDbSpline
210
0.0
220
0.0
230
1.0
 70
    11
 71
     3
 72
    17
 73
    13
 74
     0
 42
0.0000000001
 43
0.0000000001
 12
1.0
 22
0.0
 32
0.0
 13
1.0
 23
0.0
 33
0.0
 40
0.0
 40
0.0
 40
0.0
 40
0.0
 40
1.0
 40
1.0
 40
1.0
 40
2.0
 40
2.0
 40
2.0
 40
3.0
 40
3.0
 40
3.0
 40
4.0
 40
4.0
 40
4.0
 40
4.0
 10
107.7529355843269
 20
-136.9645963546479
 30
0.0
 10
107.7529355843269
 20
-136.9094571879948
 30
0.0
 10
107.708168085469
 20
-136.8646896880062
 30
0.0
 10
107.6530289202091
 20
-136.8646896880062
 30
0.0
 10
107.5972221953229
 20
-136.8646896880062
 30
0.0
 10
107.5524194175562
 20
-136.9094571879948
 30
0.0
 10
107.5524194175562
 20
-136.9645963546479
 30
0.0
 10
107.5524194175562
 20
-137.0197002435228
 30
0.0
 10
107.5972221953229
 20
-137.0645030212895
 30
0.0
 10
107.6530289202091
 20
-137.0645030212895
 30
0.0
 10
107.708168085469
 20
-137.0645030212895
 30
0.0
 10
107.7529355843269
 20
-137.0197002435228
 30
0.0
 10
107.7529355843269
 20
-136.9645963546479
 30
0.0
  0
SPLINE
  5
85
330
53
100
AcDbEntity
  8
_U+30EC_U+30A4_U+30E4_U+30FC 1
 62
   179
420
  2234388
370
     9
100
AcDbSpline
210
0.0
220
0.0
230
1.0
 70
    11
 71
     3
 72
    17
 73
    13
 74
     0
 42
0.0000000001
 43
0.0000000001
 12
1.0
 22
0.0
 32
0.0
 13
1.0
 23
0.0
 33
0.0
 40
0.0
 40
0.0
 40
0.0
 40
0.0
 40
1.0
 40
1.0
 40
1.0
 40
2.0
 40
2.0
 40
2.0
 40
3.0
 40
3.0
 40
3.0
 40
4.0
 40
4.0
 40
4.0
 40
4.0
 10
88.75253886670087
 20
-140.9643555203147
 30
0.0
 10
88.75253886670087
 20
-140.9092163536617
 30
0.0
 10
88.70776912576515
 20
-140.8644488536731
 30
0.0
 10
88.65262996050521
 20
-140.8644488536731
 30
0.0
 10
88.59752607302214
 20
-140.8644488536731
 30
0.0
 10
88.55272329638737
 20
-140.9092163536617
 30
0.0
 10
88.55272329638737
 20
-140.9643555203147
 30
0.0
 10
88.55272329638737
 20
-141.0194594091897
 30
0.0
 10
88.59752607302214
 20
-141.0642621869564
 30
0.0
 10
88.65262996050521
 20
-141.0642621869564
 30
0.0
 10
88.70776912576515
 20
-141.0642621869564
 30
0.0
 10
88.75253886670087
 20
-141.0194594091897
 30
0.0
 10
88.75253886670087
 20
-140.9643555203147
 30
0.0
  0
SPLINE
  5
86
330
53
100
AcDbEntity
  8
_U+30EC_U+30A4_U+30E4_U+30FC 1
 62
   179
420
  2234388
370
     9
100
AcDbSpline
210
0.0
220
0.0
230
1.0
 70
    11
 71
     3
 72
    17
 73
    13
 74
     0
 42
0.0000000001
 43
0.0000000001
 12
1.0
 22
0.0
 32
0.0
 13
1.0
 23
0.0
 33
0.0
 40
0.0
 40
0.0
 40
0.0
 40
0.0
 40
1.0
 40
1.0
 40
1.0
 40
2.0
 40
2.0
 40
2.0
 40
3.0
 40
3.0
 40
3.0
 40
4.0
 40
4.0
 40
4.0
 40
4.0
 10
73.75260228508103
 20
-140.9643555203147
 30
0.0
 10
73.75260228508103
 20
-140.9092163536617
 30
0.0
 10
73.70779950844626
 20
-140.8644488536731
 30
0.0
 10
73.65269562096319
 20
-140.8644488536731
 30
0.0
 10
73.5975583149338
 20
-140.8644488536731
 30
0.0
 10
73.55278895684536
 20
-140.9092163536617
 30
0.0
 10
73.55278895684536
 20
-140.9643555203147
 30
0.0
 10
73.55278895684536
 20
-141.0194594091897
 30
0.0
 10
73.5975583149338
 20
-141.0642621869564
 30
0.0
 10
73.65269562096319
 20
-141.0642621869564
 30
0.0
 10
73.70779950844626
 20
-141.0642621869564
 30
0.0
 10
73.75260228508103
 20
-141.0194594091897
 30
0.0
 10
73.75260228508103
 20
-140.9643555203147
 30
0.0
  0
INSERT
  5
88
330
53
100
AcDbEntity
  8
_U+30EC_U+30A4_U+30E4_U+30FC 1
100
AcDbBlockReference
  2
block 4
 10
0.0
 20
0.0
 30
0.0
  0
INSERT
  5
A2
330
53
100
AcDbEntity
  8
_U+30EC_U+30A4_U+30E4_U+30FC 1
100
AcDbBlockReference
  2
block 6
 10
0.0
 20
0.0
 30
0.0
  0
INSERT
  5
B4
330
53
100
AcDbEntity
  8
_U+30EC_U+30A4_U+30E4_U+30FC 1
100
AcDbBlockReference
  2
block 8
 10
0.0
 20
0.0
 30
0.0
  0
INSERT
  5
C9
330
53
100
AcDbEntity
  8
_U+30EC_U+30A4_U+30E4_U+30FC 1
100
AcDbBlockReference
  2
block 10
 10
0.0
 20
0.0
 30
0.0
  0
INSERT
  5
E1
330
53
100
AcDbEntity
  8
_U+30EC_U+30A4_U+30E4_U+30FC 1
100
AcDbBlockReference
  2
block 12
 10
0.0
 20
0.0
 30
0.0
  0
ENDBLK
  5
56
330
53
100
AcDbEntity
  8
0
100
AcDbBlockEnd
  0
BLOCK
  5
89
330
87
100
AcDbEntity
  8
0
100
AcDbBlockBegin
  2
block 4
 70
     0
 10
0.0
 20
0.0
 30
0.0
  3
block 4
  1

  0
POLYLINE
  5
8B
330
87
100
AcDbEntity
  8
_U+30EC_U+30A4_U+30E4_U+30FC 1
 62
   179
420
  2234388
370
     9
100
AcDb2dPolyline
 66
     1
 10
0.0
 20
0.0
 30
0.0
  0
VERTEX
  5
8C
330
8B
100
AcDbEntity
  8
_U+30EC_U+30A4_U+30E4_U+30FC 1
 62
   179
420
  2234388
370
     9
100
AcDbVertex
100
AcDb2dVertex
 10
107.6530289202091
 20
-122.9642574692588
 30
0.0
  0
VERTEX
  5
8D
330
8B
100
AcDbEntity
  8
_U+30EC_U+30A4_U+30E4_U+30FC 1
 62
   179
420
  2234388
370
     9
100
AcDbVertex
100
AcDb2dVertex
 10
107.6530289202091
 20
-119.1939449702014
 30
0.0
  0
SEQEND
  5
8E
330
8B
100
AcDbEntity
  8
_U+30EC_U+30A4_U+30E4_U+30FC 1
 62
   179
420
  2234388
370
     9
  0
POLYLINE
  5
8F
330
87
100
AcDbEntity
  8
_U+30EC_U+30A4_U+30E4_U+30FC 1
 62
   179
420
  2234388
370
     9
100
AcDb2dPolyline
 66
     1
 10
0.0
 20
0.0
 30
0.0
  0
VERTEX
  5
90
330
8F
100
AcDbEntity
  8
_U+30EC_U+30A4_U+30E4_U+30FC 1
 62
   179
420
  2234388
370
     9
100
AcDbVertex
100
AcDb2dVertex
 10
107.6530289202091
 20
-122.9642574692588
 30
0.0
  0
VERTEX
  5
91
330
8F
100
AcDbEntity
  8
_U+30EC_U+30A4_U+30E4_U+30FC 1
 62
   179
420
  2234388
370
     9
100
AcDbVertex
100
AcDb2dVertex
 10
107.6530289202091
 20
-123.9639944134535
 30
0.0
  0
SEQEND
  5
92
330
8F
100
AcDbEntity
  8
_U+30EC_U+30A4_U+30E4_U+30FC 1
 62
   179
420
  2234388
370
     9
  0
POLYLINE
  5
93
330
87
100
AcDbEntity
  8
_U+30EC_U+30A4_U+30E4_U+30FC 1
 62
   179
420
  2234388
370
     9
100
AcDb2dPolyline
 66
     1
 10
0.0
 20
0.0
 30
0.0
  0
VERTEX
  5
94
330
93
100
AcDbEntity
  8
_U+30EC_U+30A4_U+30E4_U+30FC 1
 62
   179
420
  2234388
370
     9
100
AcDbVertex
100
AcDb2dVertex
 10
106.192987568569
 20
-122.9642574692588
 30
0.0
  0
VERTEX
  5
95
330
93
100
AcDbEntity
  8
_U+30EC_U+30A4_U+30E4_U+30FC 1
 62
   179
420
  2234388
370
     9
100
AcDbVertex
100
AcDb2dVertex
 10
108.652801116925
 20
-122.9642574692588
 30
0.0
  0
SEQEND
  5
96
330
93
100
AcDbEntity
  8
_U+30EC_U+30A4_U+30E4_U+30FC 1
 62
   179
420
  2234388
370
     9
  0
POLYLINE
  5
97
330
87
100
AcDbEntity
  8
_U+30EC_U+30A4_U+30E4_U+30FC 1
 62
   179
420
  2234388
370
     9
100
AcDb2dPolyline
 66
     1
 10
0.0
 20
0.0
 30
0.0
  0
VERTEX
  5
98
330
97
100
AcDbEntity
  8
_U+30EC_U+30A4_U+30E4_U+30FC 1
 62
   179
420
  2234388
370
     9
100
AcDbVertex
100
AcDb2dVertex
 10
106.192987568569
 20
-123.9639944134535
 30
0.0
  0
VERTEX
  5
99
330
97
100
AcDbEntity
  8
_U+30EC_U+30A4_U+30E4_U+30FC 1
 62
   179
420
  2234388
370
     9
100
AcDbVertex
100
AcDb2dVertex
 10
108.652801116925
 20
-123.9639944134535
 30
0.0
  0
SEQEND
  5
9A
330
97
100
AcDbEntity
  8
_U+30EC_U+30A4_U+30E4_U+30FC 1
 62
   179
420
  2234388
370
     9
  0
INSERT
  5
9C
330
87
100
AcDbEntity
  8
_U+30EC_U+30A4_U+30E4_U+30FC 1
100
AcDbBlockReference
  2
block 5
 10
0.0
 20
0.0
 30
0.0
  0
ENDBLK
  5
8A
330
87
100
AcDbEntity
  8
0
100
AcDbBlockEnd
  0
BLOCK
  5
9D
330
9B
100
AcDbEntity
  8
0
100
AcDbBlockBegin
  2
block 5
 70
     0
 10
0.0
 20
0.0
 30
0.0
  3
block 5
  1

  0
SPLINE
  5
9F
330
9B
100
AcDbEntity
  8
_U+30EC_U+30A4_U+30E4_U+30FC 1
370
     0
100
AcDbSpline
210
0.0
220
0.0
230
1.0
 70
    11
 71
     3
 72
    26
 73
    22
 74
     0
 42
0.0000000001
 43
0.0000000001
 12
1.0
 22
0.0
 32
0.0
 13
1.0
 23
0.0
 33
0.0
 40
0.0
 40
0.0
 40
0.0
 40
0.0
 40
1.0
 40
1.0
 40
1.0
 40
2.0
 40
2.0
 40
2.0
 40
3.0
 40
3.0
 40
3.0
 40
4.0
 40
4.0
 40
4.0
 40
5.0
 40
5.0
 40
5.0
 40
6.0
 40
6.0
 40
6.0
 40
7.0
 40
7.0
 40
7.0
 40
7.0
 10
106.1244438753786
 20
-123.6555012711695
 30
0.0
 10
106.1244438753786
 20
-123.6555012711695
 30
0.0
 10
105.020290772356
 20
-123.6555012711695
 30
0.0
 10
105.020290772356
 20
-123.6555012711695
 30
0.0
 10
105.020290772356
 20
-123.6555012711695
 30
0.0
 10
105.020290772356
 20
-123.9738280940065
 30
0.0
 10
105.020290772356
 20
-123.9738280940065
 30
0.0
 10
105.020290772356
 20
-123.9738280940065
 30
0.0
 10
104.8721516664903
 20
-123.9738280940065
 30
0.0
 10
104.8721516664903
 20
-123.9738280940065
 30
0.0
 10
104.8573377559037
 20
-123.6534342138783
 30
0.0
 10
104.6943847394514
 20
-123.6086479725701
 30
0.0
 10
104.5800075693411
 20
-123.5800536800425
 30
0.0
 10
104.5800075693411
 20
-123.5800536800425
 30
0.0
 10
104.5800075693411
 20
-123.4391492746958
 30
0.0
 10
104.5800075693411
 20
-123.4391492746958
 30
0.0
 10
104.5800075693411
 20
-123.4391492746958
 30
0.0
 10
106.1244438753786
 20
-123.4391492746958
 30
0.0
 10
106.1244438753786
 20
-123.4391492746958
 30
0.0
 10
106.1244438753786
 20
-123.4391492746958
 30
0.0
 10
106.1244438753786
 20
-123.6555012711695
 30
0.0
 10
106.1244438753786
 20
-123.6555012711695
 30
0.0
  0
HATCH
  5
A0
330
9B
100
AcDbEntity
  8
_U+30EC_U+30A4_U+30E4_U+30FC 1
 62
   179
420
  2234388
100
AcDbHatch
 10
0.0
 20
0.0
 30
0.0
210
0.0
220
0.0
230
1.0
  2
SOLID
 70
     1
 71
     0
 91
        1
 92
        1
 93
        1
 72
     4
 94
        3
 73
     0
 74
     1
 95
       26
 96
       22
 40
0.0
 40
0.0
 40
0.0
 40
0.0
 40
1.0
 40
1.0
 40
1.0
 40
2.0
 40
2.0
 40
2.0
 40
3.0
 40
3.0
 40
3.0
 40
4.0
 40
4.0
 40
4.0
 40
5.0
 40
5.0
 40
5.0
 40
6.0
 40
6.0
 40
6.0
 40
7.0
 40
7.0
 40
7.0
 40
7.0
 10
106.1244438753786
 20
-123.6555012711695
 10
106.1244438753786
 20
-123.6555012711695
 10
105.020290772356
 20
-123.6555012711695
 10
105.020290772356
 20
-123.6555012711695
 10
105.020290772356
 20
-123.6555012711695
 10
105.020290772356
 20
-123.9738280940065
 10
105.020290772356
 20
-123.9738280940065
 10
105.020290772356
 20
-123.9738280940065
 10
104.8721516664903
 20
-123.9738280940065
 10
104.8721516664903
 20
-123.9738280940065
 10
104.8573377559037
 20
-123.6534342138783
 10
104.6943847394514
 20
-123.6086479725701
 10
104.5800075693411
 20
-123.5800536800425
 10
104.5800075693411
 20
-123.5800536800425
 10
104.5800075693411
 20
-123.4391492746958
 10
104.5800075693411
 20
-123.4391492746958
 10
104.5800075693411
 20
-123.4391492746958
 10
106.1244438753786
 20
-123.4391492746958
 10
106.1244438753786
 20
-123.4391492746958
 10
106.1244438753786
 20
-123.4391492746958
 10
106.1244438753786
 20
-123.6555012711695
 10
106.1244438753786
 20
-123.6555012711695
 97
        0
 97
        0
 75
     2
 76
     1
 98
        0
  0
ENDBLK
  5
9E
330
9B
100
AcDbEntity
  8
0
100
AcDbBlockEnd
  0
BLOCK
  5
A3
330
A1
100
AcDbEntity
  8
0
100
AcDbBlockBegin
  2
block 6
 70
     0
 10
0.0
 20
0.0
 30
0.0
  3
block 6
  1

  0
POLYLINE
  5
A5
330
A1
100
AcDbEntity
  8
_U+30EC_U+30A4_U+30E4_U+30FC 1
 62
   179
420
  2234388
370
     9
100
AcDb2dPolyline
 66
     1
 10
0.0
 20
0.0
 30
0.0
  0
VERTEX
  5
A6
330
A5
100
AcDbEntity
  8
_U+30EC_U+30A4_U+30E4_U+30FC 1
 62
   179
420
  2234388
370
     9
100
AcDbVertex
100
AcDb2dVertex
 10
107.6530289202091
 20
-133.9646094109535
 30
0.0
  0
VERTEX
  5
A7
330
A5
100
AcDbEntity
  8
_U+30EC_U+30A4_U+30E4_U+30FC 1
 62
   179
420
  2234388
370
     9
100
AcDbVertex
100
AcDb2dVertex
 10
107.6530289202091
 20
-136.9645963546479
 30
0.0
  0
SEQEND
  5
A8
330
A5
100
AcDbEntity
  8
_U+30EC_U+30A4_U+30E4_U+30FC 1
 62
   179
420
  2234388
370
     9
  0
POLYLINE
  5
A9
330
A1
100
AcDbEntity
  8
_U+30EC_U+30A4_U+30E4_U+30FC 1
 62
   179
420
  2234388
370
     9
100
AcDb2dPolyline
 66
     1
 10
0.0
 20
0.0
 30
0.0
  0
VERTEX
  5
AA
330
A9
100
AcDbEntity
  8
_U+30EC_U+30A4_U+30E4_U+30FC 1
 62
   179
420
  2234388
370
     9
100
AcDbVertex
100
AcDb2dVertex
 10
91.1930555327573
 20
-136.9645963546479
 30
0.0
  0
VERTEX
  5
AB
330
A9
100
AcDbEntity
  8
_U+30EC_U+30A4_U+30E4_U+30FC 1
 62
   179
420
  2234388
370
     9
100
AcDbVertex
100
AcDb2dVertex
 10
108.652801116925
 20
-136.9645963546479
 30
0.0
  0
SEQEND
  5
AC
330
A9
100
AcDbEntity
  8
_U+30EC_U+30A4_U+30E4_U+30FC 1
 62
   179
420
  2234388
370
     9
  0
INSERT
  5
AE
330
A1
100
AcDbEntity
  8
_U+30EC_U+30A4_U+30E4_U+30FC 1
100
AcDbBlockReference
  2
block 7
 10
0.0
 20
0.0
 30
0.0
  0
ENDBLK
  5
A4
330
A1
100
AcDbEntity
  8
0
100
AcDbBlockEnd
  0
BLOCK
  5
AF
330
AD
100
AcDbEntity
  8
0
100
AcDbBlockBegin
  2
block 7
 70
     0
 10
0.0
 20
0.0
 30
0.0
  3
block 7
  1

  0
SPLINE
  5
B1
330
AD
100
AcDbEntity
  8
_U+30EC_U+30A4_U+30E4_U+30FC 1
370
     0
100
AcDbSpline
210
0.0
220
0.0
230
1.0
 70
    11
 71
     3
 72
    62
 73
    58
 74
     0
 42
0.0000000001
 43
0.0000000001
 12
1.0
 22
0.0
 32
0.0
 13
1.0
 23
0.0
 33
0.0
 40
0.0
 40
0.0
 40
0.0
 40
0.0
 40
1.0
 40
1.0
 40
1.0
 40
2.0
 40
2.0
 40
2.0
 40
3.0
 40
3.0
 40
3.0
 40
4.0
 40
4.0
 40
4.0
 40
5.0
 40
5.0
 40
5.0
 40
6.0
 40
6.0
 40
6.0
 40
7.0
 40
7.0
 40
7.0
 40
8.0
 40
8.0
 40
8.0
 40
9.0
 40
9.0
 40
9.0
 40
10.0
 40
10.0
 40
10.0
 40
11.0
 40
11.0
 40
11.0
 40
12.0
 40
12.0
 40
12.0
 40
13.0
 40
13.0
 40
13.0
 40
14.0
 40
14.0
 40
14.0
 40
15.0
 40
15.0
 40
15.0
 40
16.0
 40
16.0
 40
16.0
 40
17.0
 40
17.0
 40
17.0
 40
18.0
 40
18.0
 40
18.0
 40
19.0
 40
19.0
 40
19.0
 40
19.0
 10
106.1750867790118
 20
-135.4714897664794
 30
0.0
 10
106.1750867790118
 20
-135.5634738159355
 30
0.0
 10
106.1540716965518
 20
-135.7736246405358
 30
0.0
 10
105.9680365403483
 20
-135.893858472971
 30
0.0
 10
105.8557264275291
 20
-135.9655164590642
 30
0.0
 10
105.7565076775539
 20
-135.969306064098
 30
0.0
 10
105.6717583286168
 20
-135.9734401786802
 30
0.0
 10
105.6717583286168
 20
-135.9734401786802
 30
0.0
 10
105.6717583286168
 20
-135.7612222967889
 30
0.0
 10
105.6717583286168
 20
-135.7612222967889
 30
0.0
 10
105.7458278815497
 20
-135.7591552394977
 30
0.0
 10
105.9804388840952
 20
-135.7491644625905
 30
0.0
 10
105.9804388840952
 20
-135.4756238810617
 30
0.0
 10
105.9804388840952
 20
-135.3429877048795
 30
0.0
 10
105.9108479552931
 20
-135.1962266372079
 30
0.0
 10
105.6824381246211
 20
-135.1962266372079
 30
0.0
 10
105.5659938972196
 20
-135.1962266372079
 30
0.0
 10
105.5174180508776
 20
-135.2330891589001
 30
0.0
 10
105.4857231724133
 20
-135.2634059991703
 30
0.0
 10
105.4116536194804
 20
-135.3350639852635
 30
0.0
 10
105.398906766185
 20
-135.4470295885341
 30
0.0
 10
105.398906766185
 20
-135.5000840590069
 30
0.0
 10
105.398906766185
 20
-135.5186875746273
 30
0.0
 10
105.4009738234761
 20
-135.5531385294798
 30
0.0
 10
105.4051079380584
 20
-135.5796657647162
 30
0.0
 10
105.4051079380584
 20
-135.5796657647162
 30
0.0
 10
105.2104600431418
 20
-135.5796657647162
 30
0.0
 10
105.2104600431418
 20
-135.5796657647162
 30
0.0
 10
105.2170057245638
 20
-135.5431477525726
 30
0.0
 10
105.219072781855
 20
-135.5021511162981
 30
0.0
 10
105.219072781855
 20
-135.4959499444246
 30
0.0
 10
105.219072781855
 20
-135.4329046970446
 30
0.0
 10
105.1977131898464
 20
-135.2410128785161
 30
0.0
 10
104.9610351300097
 20
-135.2410128785161
 30
0.0
 10
104.7832682029709
 20
-135.2410128785161
 30
0.0
 10
104.7281466752069
 20
-135.3674478828248
 30
0.0
 10
104.7281466752069
 20
-135.4735568237705
 30
0.0
 10
104.7281466752069
 20
-135.7288383992275
 30
0.0
 10
104.9610351300097
 20
-135.7367621188436
 30
0.0
 10
105.0326931161029
 20
-135.7408962334259
 30
0.0
 10
105.0326931161029
 20
-135.7408962334259
 30
0.0
 10
105.0326931161029
 20
-135.9369221665366
 30
0.0
 10
105.0326931161029
 20
-135.9369221665366
 30
0.0
 10
104.9079806595369
 20
-135.928653937372
 30
0.0
 10
104.5314317229991
 20
-135.9021267021356
 30
0.0
 10
104.5314317229991
 20
-135.4614989895721
 30
0.0
 10
104.5314317229991
 20
-135.2451469930984
 30
0.0
 10
104.6585557464048
 20
-135.0126030478441
 30
0.0
 10
104.9544894485878
 20
-135.0126030478441
 30
0.0
 10
105.1408691143398
 20
-135.0126030478441
 30
0.0
 10
105.2232068964373
 20
-135.1042425877517
 30
0.0
 10
105.2845295960747
 20
-135.2003607517902
 30
0.0
 10
105.3120903599567
 20
-135.1411051094439
 30
0.0
 10
105.392361084763
 20
-134.9657497492447
 30
0.0
 10
105.6696912713256
 20
-134.9657497492447
 30
0.0
 10
106.0079996479772
 20
-134.9657497492447
 30
0.0
 10
106.1750867790118
 20
-135.2044948663725
 30
0.0
 10
106.1750867790118
 20
-135.4714897664794
 30
0.0
  0
HATCH
  5
B2
330
AD
100
AcDbEntity
  8
_U+30EC_U+30A4_U+30E4_U+30FC 1
 62
   179
420
  2234388
100
AcDbHatch
 10
0.0
 20
0.0
 30
0.0
210
0.0
220
0.0
230
1.0
  2
SOLID
 70
     1
 71
     0
 91
        1
 92
        1
 93
        1
 72
     4
 94
        3
 73
     0
 74
     1
 95
       62
 96
       58
 40
0.0
 40
0.0
 40
0.0
 40
0.0
 40
1.0
 40
1.0
 40
1.0
 40
2.0
 40
2.0
 40
2.0
 40
3.0
 40
3.0
 40
3.0
 40
4.0
 40
4.0
 40
4.0
 40
5.0
 40
5.0
 40
5.0
 40
6.0
 40
6.0
 40
6.0
 40
7.0
 40
7.0
 40
7.0
 40
8.0
 40
8.0
 40
8.0
 40
9.0
 40
9.0
 40
9.0
 40
10.0
 40
10.0
 40
10.0
 40
11.0
 40
11.0
 40
11.0
 40
12.0
 40
12.0
 40
12.0
 40
13.0
 40
13.0
 40
13.0
 40
14.0
 40
14.0
 40
14.0
 40
15.0
 40
15.0
 40
15.0
 40
16.0
 40
16.0
 40
16.0
 40
17.0
 40
17.0
 40
17.0
 40
18.0
 40
18.0
 40
18.0
 40
19.0
 40
19.0
 40
19.0
 40
19.0
 10
106.1750867790118
 20
-135.4714897664794
 10
106.1750867790118
 20
-135.5634738159355
 10
106.1540716965518
 20
-135.7736246405358
 10
105.9680365403483
 20
-135.893858472971
 10
105.8557264275291
 20
-135.9655164590642
 10
105.7565076775539
 20
-135.969306064098
 10
105.6717583286168
 20
-135.9734401786802
 10
105.6717583286168
 20
-135.9734401786802
 10
105.6717583286168
 20
-135.7612222967889
 10
105.6717583286168
 20
-135.7612222967889
 10
105.7458278815497
 20
-135.7591552394977
 10
105.9804388840952
 20
-135.7491644625905
 10
105.9804388840952
 20
-135.4756238810617
 10
105.9804388840952
 20
-135.3429877048795
 10
105.9108479552931
 20
-135.1962266372079
 10
105.6824381246211
 20
-135.1962266372079
 10
105.5659938972196
 20
-135.1962266372079
 10
105.5174180508776
 20
-135.2330891589001
 10
105.4857231724133
 20
-135.2634059991703
 10
105.4116536194804
 20
-135.3350639852635
 10
105.398906766185
 20
-135.4470295885341
 10
105.398906766185
 20
-135.5000840590069
 10
105.398906766185
 20
-135.5186875746273
 10
105.4009738234761
 20
-135.5531385294798
 10
105.4051079380584
 20
-135.5796657647162
 10
105.4051079380584
 20
-135.5796657647162
 10
105.2104600431418
 20
-135.5796657647162
 10
105.2104600431418
 20
-135.5796657647162
 10
105.2170057245638
 20
-135.5431477525726
 10
105.219072781855
 20
-135.5021511162981
 10
105.219072781855
 20
-135.4959499444246
 10
105.219072781855
 20
-135.4329046970446
 10
105.1977131898464
 20
-135.2410128785161
 10
104.9610351300097
 20
-135.2410128785161
 10
104.7832682029709
 20
-135.2410128785161
 10
104.7281466752069
 20
-135.3674478828248
 10
104.7281466752069
 20
-135.4735568237705
 10
104.7281466752069
 20
-135.7288383992275
 10
104.9610351300097
 20
-135.7367621188436
 10
105.0326931161029
 20
-135.7408962334259
 10
105.0326931161029
 20
-135.7408962334259
 10
105.0326931161029
 20
-135.9369221665366
 10
105.0326931161029
 20
-135.9369221665366
 10
104.9079806595369
 20
-135.928653937372
 10
104.5314317229991
 20
-135.9021267021356
 10
104.5314317229991
 20
-135.4614989895721
 10
104.5314317229991
 20
-135.2451469930984
 10
104.6585557464048
 20
-135.0126030478441
 10
104.9544894485878
 20
-135.0126030478441
 10
105.1408691143398
 20
-135.0126030478441
 10
105.2232068964373
 20
-135.1042425877517
 10
105.2845295960747
 20
-135.2003607517902
 10
105.3120903599567
 20
-135.1411051094439
 10
105.392361084763
 20
-134.9657497492447
 10
105.6696912713256
 20
-134.9657497492447
 10
106.0079996479772
 20
-134.9657497492447
 10
106.1750867790118
 20
-135.2044948663725
 10
106.1750867790118
 20
-135.4714897664794
 97
        0
 97
        0
 75
     2
 76
     1
 98
        0
  0
ENDBLK
  5
B0
330
AD
100
AcDbEntity
  8
0
100
AcDbBlockEnd
  0
BLOCK
  5
B5
330
B3
100
AcDbEntity
  8
0
100
AcDbBlockBegin
  2
block 8
 70
     0
 10
0.0
 20
0.0
 30
0.0
  3
block 8
  1

  0
POLYLINE
  5
B7
330
B3
100
AcDbEntity
  8
_U+30EC_U+30A4_U+30E4_U+30FC 1
 62
   179
420
  2234388
370
     9
100
AcDb2dPolyline
 66
     1
 10
0.0
 20
0.0
 30
0.0
  0
VERTEX
  5
B8
330
B7
100
AcDbEntity
  8
_U+30EC_U+30A4_U+30E4_U+30FC 1
 62
   179
420
  2234388
370
     9
100
AcDbVertex
100
AcDb2dVertex
 10
107.6530289202091
 20
-133.9646094109535
 30
0.0
  0
VERTEX
  5
B9
330
B7
100
AcDbEntity
  8
_U+30EC_U+30A4_U+30E4_U+30FC 1
 62
   179
420
  2234388
370
     9
100
AcDbVertex
100
AcDb2dVertex
 10
107.6530289202091
 20
-123.9639944134535
 30
0.0
  0
SEQEND
  5
BA
330
B7
100
AcDbEntity
  8
_U+30EC_U+30A4_U+30E4_U+30FC 1
 62
   179
420
  2234388
370
     9
  0
POLYLINE
  5
BB
330
B3
100
AcDbEntity
  8
_U+30EC_U+30A4_U+30E4_U+30FC 1
 62
   179
420
  2234388
370
     9
100
AcDb2dPolyline
 66
     1
 10
0.0
 20
0.0
 30
0.0
  0
VERTEX
  5
BC
330
BB
100
AcDbEntity
  8
_U+30EC_U+30A4_U+30E4_U+30FC 1
 62
   179
420
  2234388
370
     9
100
AcDbVertex
100
AcDb2dVertex
 10
91.1930555327573
 20
-133.9646094109535
 30
0.0
  0
VERTEX
  5
BD
330
BB
100
AcDbEntity
  8
_U+30EC_U+30A4_U+30E4_U+30FC 1
 62
   179
420
  2234388
370
     9
100
AcDbVertex
100
AcDb2dVertex
 10
108.652801116925
 20
-133.9646094109535
 30
0.0
  0
SEQEND
  5
BE
330
BB
100
AcDbEntity
  8
_U+30EC_U+30A4_U+30E4_U+30FC 1
 62
   179
420
  2234388
370
     9
  0
INSERT
  5
C0
330
B3
100
AcDbEntity
  8
_U+30EC_U+30A4_U+30E4_U+30FC 1
100
AcDbBlockReference
  2
block 9
 10
0.0
 20
0.0
 30
0.0
  0
ENDBLK
  5
B6
330
B3
100
AcDbEntity
  8
0
100
AcDbBlockEnd
  0
BLOCK
  5
C1
330
BF
100
AcDbEntity
  8
0
100
AcDbBlockBegin
  2
block 9
 70
     0
 10
0.0
 20
0.0
 30
0.0
  3
block 9
  1

  0
SPLINE
  5
C3
330
BF
100
AcDbEntity
  8
_U+30EC_U+30A4_U+30E4_U+30FC 1
370
     0
100
AcDbSpline
210
0.0
220
0.0
230
1.0
 70
    11
 71
     3
 72
    26
 73
    22
 74
     0
 42
0.0000000001
 43
0.0000000001
 12
1.0
 22
0.0
 32
0.0
 13
1.0
 23
0.0
 33
0.0
 40
0.0
 40
0.0
 40
0.0
 40
0.0
 40
1.0
 40
1.0
 40
1.0
 40
2.0
 40
2.0
 40
2.0
 40
3.0
 40
3.0
 40
3.0
 40
4.0
 40
4.0
 40
4.0
 40
5.0
 40
5.0
 40
5.0
 40
6.0
 40
6.0
 40
6.0
 40
7.0
 40
7.0
 40
7.0
 40
7.0
 10
106.1244438753786
 20
-129.5765868816684
 30
0.0
 10
106.1244438753786
 20
-129.5765868816684
 30
0.0
 10
105.020290772356
 20
-129.5765868816684
 30
0.0
 10
105.020290772356
 20
-129.5765868816684
 30
0.0
 10
105.020290772356
 20
-129.5765868816684
 30
0.0
 10
105.020290772356
 20
-129.8949137045055
 30
0.0
 10
105.020290772356
 20
-129.8949137045055
 30
0.0
 10
105.020290772356
 20
-129.8949137045055
 30
0.0
 10
104.8721516664903
 20
-129.8949137045055
 30
0.0
 10
104.8721516664903
 20
-129.8949137045055
 30
0.0
 10
104.8573377559037
 20
-129.5745198243772
 30
0.0
 10
104.6943847394514
 20
-129.529733583069
 30
0.0
 10
104.5800075693411
 20
-129.5011392905414
 30
0.0
 10
104.5800075693411
 20
-129.5011392905414
 30
0.0
 10
104.5800075693411
 20
-129.3602348851947
 30
0.0
 10
104.5800075693411
 20
-129.3602348851947
 30
0.0
 10
104.5800075693411
 20
-129.3602348851947
 30
0.0
 10
106.1244438753786
 20
-129.3602348851947
 30
0.0
 10
106.1244438753786
 20
-129.3602348851947
 30
0.0
 10
106.1244438753786
 20
-129.3602348851947
 30
0.0
 10
106.1244438753786
 20
-129.5765868816684
 30
0.0
 10
106.1244438753786
 20
-129.5765868816684
 30
0.0
  0
HATCH
  5
C4
330
BF
100
AcDbEntity
  8
_U+30EC_U+30A4_U+30E4_U+30FC 1
 62
   179
420
  2234388
100
AcDbHatch
 10
0.0
 20
0.0
 30
0.0
210
0.0
220
0.0
230
1.0
  2
SOLID
 70
     1
 71
     0
 91
        1
 92
        1
 93
        1
 72
     4
 94
        3
 73
     0
 74
     1
 95
       26
 96
       22
 40
0.0
 40
0.0
 40
0.0
 40
0.0
 40
1.0
 40
1.0
 40
1.0
 40
2.0
 40
2.0
 40
2.0
 40
3.0
 40
3.0
 40
3.0
 40
4.0
 40
4.0
 40
4.0
 40
5.0
 40
5.0
 40
5.0
 40
6.0
 40
6.0
 40
6.0
 40
7.0
 40
7.0
 40
7.0
 40
7.0
 10
106.1244438753786
 20
-129.5765868816684
 10
106.1244438753786
 20
-129.5765868816684
 10
105.020290772356
 20
-129.5765868816684
 10
105.020290772356
 20
-129.5765868816684
 10
105.020290772356
 20
-129.5765868816684
 10
105.020290772356
 20
-129.8949137045055
 10
105.020290772356
 20
-129.8949137045055
 10
105.020290772356
 20
-129.8949137045055
 10
104.8721516664903
 20
-129.8949137045055
 10
104.8721516664903
 20
-129.8949137045055
 10
104.8573377559037
 20
-129.5745198243772
 10
104.6943847394514
 20
-129.529733583069
 10
104.5800075693411
 20
-129.5011392905414
 10
104.5800075693411
 20
-129.5011392905414
 10
104.5800075693411
 20
-129.3602348851947
 10
104.5800075693411
 20
-129.3602348851947
 10
104.5800075693411
 20
-129.3602348851947
 10
106.1244438753786
 20
-129.3602348851947
 10
106.1244438753786
 20
-129.3602348851947
 10
106.1244438753786
 20
-129.3602348851947
 10
106.1244438753786
 20
-129.5765868816684
 10
106.1244438753786
 20
-129.5765868816684
 97
        0
 97
        0
 75
     2
 76
     1
 98
        0
  0
SPLINE
  5
C5
330
BF
100
AcDbEntity
  8
_U+30EC_U+30A4_U+30E4_U+30FC 1
370
     0
100
AcDbSpline
210
0.0
220
0.0
230
1.0
 70
    11
 71
     3
 72
    29
 73
    25
 74
     0
 42
0.0000000001
 43
0.0000000001
 12
1.0
 22
0.0
 32
0.0
 13
1.0
 23
0.0
 33
0.0
 40
0.0
 40
0.0
 40
0.0
 40
0.0
 40
1.0
 40
1.0
 40
1.0
 40
2.0
 40
2.0
 40
2.0
 40
3.0
 40
3.0
 40
3.0
 40
4.0
 40
4.0
 40
4.0
 40
5.0
 40
5.0
 40
5.0
 40
6.0
 40
6.0
 40
6.0
 40
7.0
 40
7.0
 40
7.0
 40
8.0
 40
8.0
 40
8.0
 40
8.0
 10
105.9466769483397
 20
-128.0125135313649
 30
0.0
 10
106.1561387538429
 20
-128.1165554150195
 30
0.0
 10
106.1750867790118
 20
-128.2839870556026
 30
0.0
 10
106.1750867790118
 20
-128.3962971684218
 30
0.0
 10
106.1750867790118
 20
-128.551326465258
 30
0.0
 10
106.1285779899609
 20
-128.6880967560224
 30
0.0
 10
105.9466769483397
 20
-128.7797362959301
 30
0.0
 10
105.7520290534231
 20
-128.8796440650023
 30
0.0
 10
105.5150064840379
 20
-128.8982475806227
 30
0.0
 10
105.3523979771341
 20
-128.8982475806227
 30
0.0
 10
105.2083929858507
 20
-128.8982475806227
 30
0.0
 10
104.9565565058789
 20
-128.8817111222935
 30
0.0
 10
104.75777449638
 20
-128.7797362959301
 30
0.0
 10
104.5548583722988
 20
-128.6756944122755
 30
0.0
 10
104.5314317229991
 20
-128.5206651154393
 30
0.0
 10
104.5314317229991
 20
-128.3962971684218
 30
0.0
 10
104.5314317229991
 20
-128.2433349288767
 30
0.0
 10
104.5758734547588
 20
-128.1044975808211
 30
0.0
 10
104.75777449638
 20
-128.0125135313649
 30
0.0
 10
104.9503553340055
 20
-127.916739876875
 30
0.0
 10
105.1787651646775
 20
-127.8943467562209
 30
0.0
 10
105.3523979771341
 20
-127.8943467562209
 30
0.0
 10
105.5236192227511
 20
-127.8943467562209
 30
0.0
 10
105.7540961107143
 20
-127.9146728195838
 30
0.0
 10
105.9466769483397
 20
-128.0125135313649
 30
0.0
  0
SPLINE
  5
C6
330
BF
100
AcDbEntity
  8
_U+30EC_U+30A4_U+30E4_U+30FC 1
370
     0
100
AcDbSpline
210
0.0
220
0.0
230
1.0
 70
    11
 71
     3
 72
    17
 73
    13
 74
     0
 42
0.0000000001
 43
0.0000000001
 12
1.0
 22
0.0
 32
0.0
 13
1.0
 23
0.0
 33
0.0
 40
0.0
 40
0.0
 40
0.0
 40
0.0
 40
1.0
 40
1.0
 40
1.0
 40
2.0
 40
2.0
 40
2.0
 40
3.0
 40
3.0
 40
3.0
 40
4.0
 40
4.0
 40
4.0
 40
4.0
 10
104.7240125606246
 20
-128.3962971684218
 30
0.0
 10
104.7240125606246
 20
-128.6371093428407
 30
0.0
 10
105.0075439190606
 20
-128.681895584149
 30
0.0
 10
105.3523979771341
 20
-128.681895584149
 30
0.0
 10
105.6717583286168
 20
-128.681895584149
 30
0.0
 10
105.9804388840952
 20
-128.647100119748
 30
0.0
 10
105.9804388840952
 20
-128.3962971684218
 30
0.0
 10
105.9804388840952
 20
-128.1575520512939
 30
0.0
 10
105.6993190924988
 20
-128.1106987526946
 30
0.0
 10
105.3523979771341
 20
-128.1106987526946
 30
0.0
 10
105.0326931161029
 20
-128.1106987526946
 30
0.0
 10
104.7240125606246
 20
-128.1472167648382
 30
0.0
 10
104.7240125606246
 20
-128.3962971684218
 30
0.0
  0
HATCH
  5
C7
330
BF
100
AcDbEntity
  8
_U+30EC_U+30A4_U+30E4_U+30FC 1
 62
   179
420
  2234388
100
AcDbHatch
 10
0.0
 20
0.0
 30
0.0
210
0.0
220
0.0
230
1.0
  2
SOLID
 70
     1
 71
     0
 91
        2
 92
        1
 93
        1
 72
     4
 94
        3
 73
     0
 74
     1
 95
       29
 96
       25
 40
0.0
 40
0.0
 40
0.0
 40
0.0
 40
1.0
 40
1.0
 40
1.0
 40
2.0
 40
2.0
 40
2.0
 40
3.0
 40
3.0
 40
3.0
 40
4.0
 40
4.0
 40
4.0
 40
5.0
 40
5.0
 40
5.0
 40
6.0
 40
6.0
 40
6.0
 40
7.0
 40
7.0
 40
7.0
 40
8.0
 40
8.0
 40
8.0
 40
8.0
 10
105.9466769483397
 20
-128.0125135313649
 10
106.1561387538429
 20
-128.1165554150195
 10
106.1750867790118
 20
-128.2839870556026
 10
106.1750867790118
 20
-128.3962971684218
 10
106.1750867790118
 20
-128.551326465258
 10
106.1285779899609
 20
-128.6880967560224
 10
105.9466769483397
 20
-128.7797362959301
 10
105.7520290534231
 20
-128.8796440650023
 10
105.5150064840379
 20
-128.8982475806227
 10
105.3523979771341
 20
-128.8982475806227
 10
105.2083929858507
 20
-128.8982475806227
 10
104.9565565058789
 20
-128.8817111222935
 10
104.75777449638
 20
-128.7797362959301
 10
104.5548583722988
 20
-128.6756944122755
 10
104.5314317229991
 20
-128.5206651154393
 10
104.5314317229991
 20
-128.3962971684218
 10
104.5314317229991
 20
-128.2433349288767
 10
104.5758734547588
 20
-128.1044975808211
 10
104.75777449638
 20
-128.0125135313649
 10
104.9503553340055
 20
-127.916739876875
 10
105.1787651646775
 20
-127.8943467562209
 10
105.3523979771341
 20
-127.8943467562209
 10
105.5236192227511
 20
-127.8943467562209
 10
105.7540961107143
 20
-127.9146728195838
 10
105.9466769483397
 20
-128.0125135313649
 97
        0
 97
        0
 92
        1
 93
        1
 72
     4
 94
        3
 73
     0
 74
     1
 95
       17
 96
       13
 40
0.0
 40
0.0
 40
0.0
 40
0.0
 40
1.0
 40
1.0
 40
1.0
 40
2.0
 40
2.0
 40
2.0
 40
3.0
 40
3.0
 40
3.0
 40
4.0
 40
4.0
 40
4.0
 40
4.0
 10
104.7240125606246
 20
-128.3962971684218
 10
104.7240125606246
 20
-128.6371093428407
 10
105.0075439190606
 20
-128.681895584149
 10
105.3523979771341
 20
-128.681895584149
 10
105.6717583286168
 20
-128.681895584149
 10
105.9804388840952
 20
-128.647100119748
 10
105.9804388840952
 20
-128.3962971684218
 10
105.9804388840952
 20
-128.1575520512939
 10
105.6993190924988
 20
-128.1106987526946
 10
105.3523979771341
 20
-128.1106987526946
 10
105.0326931161029
 20
-128.1106987526946
 10
104.7240125606246
 20
-128.1472167648382
 10
104.7240125606246
 20
-128.3962971684218
 97
        0
 97
        0
 75
     2
 76
     1
 98
        0
  0
ENDBLK
  5
C2
330
BF
100
AcDbEntity
  8
0
100
AcDbBlockEnd
  0
BLOCK
  5
CA
330
C8
100
AcDbEntity
  8
0
100
AcDbBlockBegin
  2
block 10
 70
     0
 10
0.0
 20
0.0
 30
0.0
  3
block 10
  1

  0
POLYLINE
  5
CC
330
C8
100
AcDbEntity
  8
_U+30EC_U+30A4_U+30E4_U+30FC 1
 62
   179
420
  2234388
370
     9
100
AcDb2dPolyline
 66
     1
 10
0.0
 20
0.0
 30
0.0
  0
VERTEX
  5
CD
330
CC
100
AcDbEntity
  8
_U+30EC_U+30A4_U+30E4_U+30FC 1
 62
   179
420
  2234388
370
     9
100
AcDbVertex
100
AcDb2dVertex
 10
73.65269562096319
 20
-140.9643555203147
 30
0.0
  0
VERTEX
  5
CE
330
CC
100
AcDbEntity
  8
_U+30EC_U+30A4_U+30E4_U+30FC 1
 62
   179
420
  2234388
370
     9
100
AcDbVertex
100
AcDb2dVertex
 10
88.65262996050521
 20
-140.9643555203147
 30
0.0
  0
SEQEND
  5
CF
330
CC
100
AcDbEntity
  8
_U+30EC_U+30A4_U+30E4_U+30FC 1
 62
   179
420
  2234388
370
     9
  0
POLYLINE
  5
D0
330
C8
100
AcDbEntity
  8
_U+30EC_U+30A4_U+30E4_U+30FC 1
 62
   179
420
  2234388
370
     9
100
AcDb2dPolyline
 66
     1
 10
0.0
 20
0.0
 30
0.0
  0
VERTEX
  5
D1
330
D0
100
AcDbEntity
  8
_U+30EC_U+30A4_U+30E4_U+30FC 1
 62
   179
420
  2234388
370
     9
100
AcDbVertex
100
AcDb2dVertex
 10
73.65269562096319
 20
-139.5043141317904
 30
0.0
  0
VERTEX
  5
D2
330
D0
100
AcDbEntity
  8
_U+30EC_U+30A4_U+30E4_U+30FC 1
 62
   179
420
  2234388
370
     9
100
AcDbVertex
100
AcDb2dVertex
 10
73.65269562096319
 20
-141.9641277422866
 30
0.0
  0
SEQEND
  5
D3
330
D0
100
AcDbEntity
  8
_U+30EC_U+30A4_U+30E4_U+30FC 1
 62
   179
420
  2234388
370
     9
  0
POLYLINE
  5
D4
330
C8
100
AcDbEntity
  8
_U+30EC_U+30A4_U+30E4_U+30FC 1
 62
   179
420
  2234388
370
     9
100
AcDb2dPolyline
 66
     1
 10
0.0
 20
0.0
 30
0.0
  0
VERTEX
  5
D5
330
D4
100
AcDbEntity
  8
_U+30EC_U+30A4_U+30E4_U+30FC 1
 62
   179
420
  2234388
370
     9
100
AcDbVertex
100
AcDb2dVertex
 10
88.65262996050521
 20
-139.5043141317904
 30
0.0
  0
VERTEX
  5
D6
330
D4
100
AcDbEntity
  8
_U+30EC_U+30A4_U+30E4_U+30FC 1
 62
   179
420
  2234388
370
     9
100
AcDbVertex
100
AcDb2dVertex
 10
88.65262996050521
 20
-141.9641277422866
 30
0.0
  0
SEQEND
  5
D7
330
D4
100
AcDbEntity
  8
_U+30EC_U+30A4_U+30E4_U+30FC 1
 62
   179
420
  2234388
370
     9
  0
INSERT
  5
D9
330
C8
100
AcDbEntity
  8
_U+30EC_U+30A4_U+30E4_U+30FC 1
100
AcDbBlockReference
  2
block 11
 10
0.0
 20
0.0
 30
0.0
  0
ENDBLK
  5
CB
330
C8
100
AcDbEntity
  8
0
100
AcDbBlockEnd
  0
BLOCK
  5
DA
330
D8
100
AcDbEntity
  8
0
100
AcDbBlockBegin
  2
block 11
 70
     0
 10
0.0
 20
0.0
 30
0.0
  3
block 11
  1

  0
SPLINE
  5
DC
330
D8
100
AcDbEntity
  8
_U+30EC_U+30A4_U+30E4_U+30FC 1
370
     0
100
AcDbSpline
210
0.0
220
0.0
230
1.0
 70
    11
 71
     3
 72
    26
 73
    22
 74
     0
 42
0.0000000001
 43
0.0000000001
 12
1.0
 22
0.0
 32
0.0
 13
1.0
 23
0.0
 33
0.0
 40
0.0
 40
0.0
 40
0.0
 40
0.0
 40
1.0
 40
1.0
 40
1.0
 40
2.0
 40
2.0
 40
2.0
 40
3.0
 40
3.0
 40
3.0
 40
4.0
 40
4.0
 40
4.0
 40
5.0
 40
5.0
 40
5.0
 40
6.0
 40
6.0
 40
6.0
 40
7.0
 40
7.0
 40
7.0
 40
7.0
 10
80.5394422541707
 20
-140.3180500951288
 30
0.0
 10
80.5394422541707
 20
-140.3180500951288
 30
0.0
 10
80.5394422541707
 20
-139.2138969921062
 30
0.0
 10
80.5394422541707
 20
-139.2138969921062
 30
0.0
 10
80.5394422541707
 20
-139.2138969921062
 30
0.0
 10
80.22128768610787
 20
-139.2138969921062
 30
0.0
 10
80.22128768610787
 20
-139.2138969921062
 30
0.0
 10
80.22128768610787
 20
-139.2138969921062
 30
0.0
 10
80.22128768610787
 20
-139.0657578862405
 30
0.0
 10
80.22128768610787
 20
-139.0657578862405
 30
0.0
 10
80.54150931146185
 20
-139.050943975654
 30
0.0
 10
80.58646780754435
 20
-138.8879909592016
 30
0.0
 10
80.61488984529767
 20
-138.7736137890913
 30
0.0
 10
80.61488984529767
 20
-138.7736137890913
 30
0.0
 10
80.75579425064439
 20
-138.7736137890913
 30
0.0
 10
80.75579425064439
 20
-138.7736137890913
 30
0.0
 10
80.75579425064439
 20
-138.7736137890913
 30
0.0
 10
80.75579425064439
 20
-140.3180500951288
 30
0.0
 10
80.75579425064439
 20
-140.3180500951288
 30
0.0
 10
80.75579425064439
 20
-140.3180500951288
 30
0.0
 10
80.5394422541707
 20
-140.3180500951288
 30
0.0
 10
80.5394422541707
 20
-140.3180500951288
 30
0.0
  0
HATCH
  5
DD
330
D8
100
AcDbEntity
  8
_U+30EC_U+30A4_U+30E4_U+30FC 1
 62
   179
420
  2234388
100
AcDbHatch
 10
0.0
 20
0.0
 30
0.0
210
0.0
220
0.0
230
1.0
  2
SOLID
 70
     1
 71
     0
 91
        1
 92
        1
 93
        1
 72
     4
 94
        3
 73
     0
 74
     1
 95
       26
 96
       22
 40
0.0
 40
0.0
 40
0.0
 40
0.0
 40
1.0
 40
1.0
 40
1.0
 40
2.0
 40
2.0
 40
2.0
 40
3.0
 40
3.0
 40
3.0
 40
4.0
 40
4.0
 40
4.0
 40
5.0
 40
5.0
 40
5.0
 40
6.0
 40
6.0
 40
6.0
 40
7.0
 40
7.0
 40
7.0
 40
7.0
 10
80.5394422541707
 20
-140.3180500951288
 10
80.5394422541707
 20
-140.3180500951288
 10
80.5394422541707
 20
-139.2138969921062
 10
80.5394422541707
 20
-139.2138969921062
 10
80.5394422541707
 20
-139.2138969921062
 10
80.22128768610787
 20
-139.2138969921062
 10
80.22128768610787
 20
-139.2138969921062
 10
80.22128768610787
 20
-139.2138969921062
 10
80.22128768610787
 20
-139.0657578862405
 10
80.22128768610787
 20
-139.0657578862405
 10
80.54150931146185
 20
-139.050943975654
 10
80.58646780754435
 20
-138.8879909592016
 10
80.61488984529767
 20
-138.7736137890913
 10
80.61488984529767
 20
-138.7736137890913
 10
80.75579425064439
 20
-138.7736137890913
 10
80.75579425064439
 20
-138.7736137890913
 10
80.75579425064439
 20
-138.7736137890913
 10
80.75579425064439
 20
-140.3180500951288
 10
80.75579425064439
 20
-140.3180500951288
 10
80.75579425064439
 20
-140.3180500951288
 10
80.5394422541707
 20
-140.3180500951288
 10
80.5394422541707
 20
-140.3180500951288
 97
        0
 97
        0
 75
     2
 76
     1
 98
        0
  0
SPLINE
  5
DE
330
D8
100
AcDbEntity
  8
_U+30EC_U+30A4_U+30E4_U+30FC 1
370
     0
100
AcDbSpline
210
0.0
220
0.0
230
1.0
 70
    11
 71
     3
 72
    53
 73
    49
 74
     0
 42
0.0000000001
 43
0.0000000001
 12
1.0
 22
0.0
 32
0.0
 13
1.0
 23
0.0
 33
0.0
 40
0.0
 40
0.0
 40
0.0
 40
0.0
 40
1.0
 40
1.0
 40
1.0
 40
2.0
 40
2.0
 40
2.0
 40
3.0
 40
3.0
 40
3.0
 40
4.0
 40
4.0
 40
4.0
 40
5.0
 40
5.0
 40
5.0
 40
6.0
 40
6.0
 40
6.0
 40
7.0
 40
7.0
 40
7.0
 40
8.0
 40
8.0
 40
8.0
 40
9.0
 40
9.0
 40
9.0
 40
10.0
 40
10.0
 40
10.0
 40
11.0
 40
11.0
 40
11.0
 40
12.0
 40
12.0
 40
12.0
 40
13.0
 40
13.0
 40
13.0
 40
14.0
 40
14.0
 40
14.0
 40
15.0
 40
15.0
 40
15.0
 40
16.0
 40
16.0
 40
16.0
 40
16.0
 10
81.70147296134547
 20
-140.368692998762
 30
0.0
 10
81.6260253702185
 20
-140.368692998762
 30
0.0
 10
81.52801240366314
 20
-140.3518120308843
 30
0.0
 10
81.43017169188204
 20
-140.2884222739557
 30
0.0
 10
81.26291230607316
 20
-140.1785237279762
 30
0.0
 10
81.24241398793593
 20
-140.0472655899882
 30
0.0
 10
81.2241549818641
 20
-139.9394341012999
 30
0.0
 10
81.2241549818641
 20
-139.9394341012999
 30
0.0
 10
81.43826766627238
 20
-139.9394341012999
 30
0.0
 10
81.43826766627238
 20
-139.9394341012999
 30
0.0
 10
81.49132213674523
 20
-140.1382161107988
 30
0.0
 10
81.61379528124586
 20
-140.1678439319719
 30
0.0
 10
81.70354001863662
 20
-140.1678439319719
 30
0.0
 10
81.83807099733562
 20
-140.1678439319719
 30
0.0
 10
81.98500431978152
 20
-140.0682806724482
 30
0.0
 10
81.98500431978152
 20
-139.8357367271938
 30
0.0
 10
81.98500431978152
 20
-139.5797661326398
 30
0.0
 10
81.81171601687346
 20
-139.5098306942892
 30
0.0
 10
81.69527178947202
 20
-139.5098306942892
 30
0.0
 10
81.66478269442756
 20
-139.5098306942892
 30
0.0
 10
81.52801240366314
 20
-139.5098306942892
 30
0.0
 10
81.44240178085468
 20
-139.6390217749861
 30
0.0
 10
81.44240178085468
 20
-139.6390217749861
 30
0.0
 10
81.27307533775465
 20
-139.6200737498172
 30
0.0
 10
81.27307533775465
 20
-139.6200737498172
 30
0.0
 10
81.27307533775465
 20
-139.6200737498172
 30
0.0
 10
81.38934731038184
 20
-138.7736137890913
 30
0.0
 10
81.38934731038184
 20
-138.7736137890913
 30
0.0
 10
81.38934731038184
 20
-138.7736137890913
 30
0.0
 10
82.14003361661777
 20
-138.7736137890913
 30
0.0
 10
82.14003361661777
 20
-138.7736137890913
 30
0.0
 10
82.14003361661777
 20
-138.7736137890913
 30
0.0
 10
82.14003361661777
 20
-138.9682616840079
 30
0.0
 10
82.14003361661777
 20
-138.9682616840079
 30
0.0
 10
82.14003361661777
 20
-138.9682616840079
 30
0.0
 10
81.54644366450923
 20
-138.9682616840079
 30
0.0
 10
81.54644366450923
 20
-138.9682616840079
 30
0.0
 10
81.54644366450923
 20
-138.9682616840079
 30
0.0
 10
81.4832261623549
 20
-139.3913194095966
 30
0.0
 10
81.4832261623549
 20
-139.3913194095966
 30
0.0
 10
81.54230954992693
 20
-139.3575574738412
 30
0.0
 10
81.6218912556362
 20
-139.3172498566638
 30
0.0
 10
81.73609617097223
 20
-139.3172498566638
 30
0.0
 10
81.9810424599735
 20
-139.3172498566638
 30
0.0
 10
82.20945229064556
 20
-139.5036295224158
 30
0.0
 10
82.20945229064556
 20
-139.816788702025
 30
0.0
 10
82.20945229064556
 20
-140.1340819962165
 30
0.0
 10
81.99327254894612
 20
-140.368692998762
 30
0.0
 10
81.70147296134547
 20
-140.368692998762
 30
0.0
  0
HATCH
  5
DF
330
D8
100
AcDbEntity
  8
_U+30EC_U+30A4_U+30E4_U+30FC 1
 62
   179
420
  2234388
100
AcDbHatch
 10
0.0
 20
0.0
 30
0.0
210
0.0
220
0.0
230
1.0
  2
SOLID
 70
     1
 71
     0
 91
        1
 92
        1
 93
        1
 72
     4
 94
        3
 73
     0
 74
     1
 95
       53
 96
       49
 40
0.0
 40
0.0
 40
0.0
 40
0.0
 40
1.0
 40
1.0
 40
1.0
 40
2.0
 40
2.0
 40
2.0
 40
3.0
 40
3.0
 40
3.0
 40
4.0
 40
4.0
 40
4.0
 40
5.0
 40
5.0
 40
5.0
 40
6.0
 40
6.0
 40
6.0
 40
7.0
 40
7.0
 40
7.0
 40
8.0
 40
8.0
 40
8.0
 40
9.0
 40
9.0
 40
9.0
 40
10.0
 40
10.0
 40
10.0
 40
11.0
 40
11.0
 40
11.0
 40
12.0
 40
12.0
 40
12.0
 40
13.0
 40
13.0
 40
13.0
 40
14.0
 40
14.0
 40
14.0
 40
15.0
 40
15.0
 40
15.0
 40
16.0
 40
16.0
 40
16.0
 40
16.0
 10
81.70147296134547
 20
-140.368692998762
 10
81.6260253702185
 20
-140.368692998762
 10
81.52801240366314
 20
-140.3518120308843
 10
81.43017169188204
 20
-140.2884222739557
 10
81.26291230607316
 20
-140.1785237279762
 10
81.24241398793593
 20
-140.0472655899882
 10
81.2241549818641
 20
-139.9394341012999
 10
81.2241549818641
 20
-139.9394341012999
 10
81.43826766627238
 20
-139.9394341012999
 10
81.43826766627238
 20
-139.9394341012999
 10
81.49132213674523
 20
-140.1382161107988
 10
81.61379528124586
 20
-140.1678439319719
 10
81.70354001863662
 20
-140.1678439319719
 10
81.83807099733562
 20
-140.1678439319719
 10
81.98500431978152
 20
-140.0682806724482
 10
81.98500431978152
 20
-139.8357367271938
 10
81.98500431978152
 20
-139.5797661326398
 10
81.81171601687346
 20
-139.5098306942892
 10
81.69527178947202
 20
-139.5098306942892
 10
81.66478269442756
 20
-139.5098306942892
 10
81.52801240366314
 20
-139.5098306942892
 10
81.44240178085468
 20
-139.6390217749861
 10
81.44240178085468
 20
-139.6390217749861
 10
81.27307533775465
 20
-139.6200737498172
 10
81.27307533775465
 20
-139.6200737498172
 10
81.27307533775465
 20
-139.6200737498172
 10
81.38934731038184
 20
-138.7736137890913
 10
81.38934731038184
 20
-138.7736137890913
 10
81.38934731038184
 20
-138.7736137890913
 10
82.14003361661777
 20
-138.7736137890913
 10
82.14003361661777
 20
-138.7736137890913
 10
82.14003361661777
 20
-138.7736137890913
 10
82.14003361661777
 20
-138.9682616840079
 10
82.14003361661777
 20
-138.9682616840079
 10
82.14003361661777
 20
-138.9682616840079
 10
81.54644366450923
 20
-138.9682616840079
 10
81.54644366450923
 20
-138.9682616840079
 10
81.54644366450923
 20
-138.9682616840079
 10
81.4832261623549
 20
-139.3913194095966
 10
81.4832261623549
 20
-139.3913194095966
 10
81.54230954992693
 20
-139.3575574738412
 10
81.6218912556362
 20
-139.3172498566638
 10
81.73609617097223
 20
-139.3172498566638
 10
81.9810424599735
 20
-139.3172498566638
 10
82.20945229064556
 20
-139.5036295224158
 10
82.20945229064556
 20
-139.816788702025
 10
82.20945229064556
 20
-140.1340819962165
 10
81.99327254894612
 20
-140.368692998762
 10
81.70147296134547
 20
-140.368692998762
 97
        0
 97
        0
 75
     2
 76
     1
 98
        0
  0
ENDBLK
  5
DB
330
D8
100
AcDbEntity
  8
0
100
AcDbBlockEnd
  0
BLOCK
  5
E2
330
E0
100
AcDbEntity
  8
0
100
AcDbBlockBegin
  2
block 12
 70
     0
 10
0.0
 20
0.0
 30
0.0
  3
block 12
  1

  0
POLYLINE
  5
E4
330
E0
100
AcDbEntity
  8
_U+30EC_U+30A4_U+30E4_U+30FC 1
 62
   179
420
  2234388
370
     9
100
AcDb2dPolyline
 66
     1
 10
0.0
 20
0.0
 30
0.0
  0
VERTEX
  5
E5
330
E4
100
AcDbEntity
  8
_U+30EC_U+30A4_U+30E4_U+30FC 1
 62
   179
420
  2234388
370
     9
100
AcDbVertex
100
AcDb2dVertex
 10
73.65269562096319
 20
-118.9637927480368
 30
0.0
  0
VERTEX
  5
E6
330
E4
100
AcDbEntity
  8
_U+30EC_U+30A4_U+30E4_U+30FC 1
 62
   179
420
  2234388
370
     9
100
AcDbVertex
100
AcDb2dVertex
 10
103.6525995778241
 20
-118.9637927480368
 30
0.0
  0
SEQEND
  5
E7
330
E4
100
AcDbEntity
  8
_U+30EC_U+30A4_U+30E4_U+30FC 1
 62
   179
420
  2234388
370
     9
  0
POLYLINE
  5
E8
330
E0
100
AcDbEntity
  8
_U+30EC_U+30A4_U+30E4_U+30FC 1
 62
   179
420
  2234388
370
     9
100
AcDb2dPolyline
 66
     1
 10
0.0
 20
0.0
 30
0.0
  0
VERTEX
  5
E9
330
E8
100
AcDbEntity
  8
_U+30EC_U+30A4_U+30E4_U+30FC 1
 62
   179
420
  2234388
370
     9
100
AcDbVertex
100
AcDb2dVertex
 10
73.65269562096319
 20
-120.4238341365608
 30
0.0
  0
VERTEX
  5
EA
330
E8
100
AcDbEntity
  8
_U+30EC_U+30A4_U+30E4_U+30FC 1
 62
   179
420
  2234388
370
     9
100
AcDbVertex
100
AcDb2dVertex
 10
73.65269562096319
 20
-117.9640205260645
 30
0.0
  0
SEQEND
  5
EB
330
E8
100
AcDbEntity
  8
_U+30EC_U+30A4_U+30E4_U+30FC 1
 62
   179
420
  2234388
370
     9
  0
POLYLINE
  5
EC
330
E0
100
AcDbEntity
  8
_U+30EC_U+30A4_U+30E4_U+30FC 1
 62
   179
420
  2234388
370
     9
100
AcDb2dPolyline
 66
     1
 10
0.0
 20
0.0
 30
0.0
  0
VERTEX
  5
ED
330
EC
100
AcDbEntity
  8
_U+30EC_U+30A4_U+30E4_U+30FC 1
 62
   179
420
  2234388
370
     9
100
AcDbVertex
100
AcDb2dVertex
 10
103.6525995778241
 20
-120.4238341365608
 30
0.0
  0
VERTEX
  5
EE
330
EC
100
AcDbEntity
  8
_U+30EC_U+30A4_U+30E4_U+30FC 1
 62
   179
420
  2234388
370
     9
100
AcDbVertex
100
AcDb2dVertex
 10
103.6525995778241
 20
-117.9640205260645
 30
0.0
  0
SEQEND
  5
EF
330
EC
100
AcDbEntity
  8
_U+30EC_U+30A4_U+30E4_U+30FC 1
 62
   179
420
  2234388
370
     9
  0
INSERT
  5
F1
330
E0
100
AcDbEntity
  8
_U+30EC_U+30A4_U+30E4_U+30FC 1
100
AcDbBlockReference
  2
block 13
 10
0.0
 20
0.0
 30
0.0
  0
ENDBLK
  5
E3
330
E0
100
AcDbEntity
  8
0
100
AcDbBlockEnd
  0
BLOCK
  5
F2
330
F0
100
AcDbEntity
  8
0
100
AcDbBlockBegin
  2
block 13
 70
     0
 10
0.0
 20
0.0
 30
0.0
  3
block 13
  1

  0
SPLINE
  5
F4
330
F0
100
AcDbEntity
  8
_U+30EC_U+30A4_U+30E4_U+30FC 1
370
     0
100
AcDbSpline
210
0.0
220
0.0
230
1.0
 70
    11
 71
     3
 72
    62
 73
    58
 74
     0
 42
0.0000000001
 43
0.0000000001
 12
1.0
 22
0.0
 32
0.0
 13
1.0
 23
0.0
 33
0.0
 40
0.0
 40
0.0
 40
0.0
 40
0.0
 40
1.0
 40
1.0
 40
1.0
 40
2.0
 40
2.0
 40
2.0
 40
3.0
 40
3.0
 40
3.0
 40
4.0
 40
4.0
 40
4.0
 40
5.0
 40
5.0
 40
5.0
 40
6.0
 40
6.0
 40
6.0
 40
7.0
 40
7.0
 40
7.0
 40
8.0
 40
8.0
 40
8.0
 40
9.0
 40
9.0
 40
9.0
 40
10.0
 40
10.0
 40
10.0
 40
11.0
 40
11.0
 40
11.0
 40
12.0
 40
12.0
 40
12.0
 40
13.0
 40
13.0
 40
13.0
 40
14.0
 40
14.0
 40
14.0
 40
15.0
 40
15.0
 40
15.0
 40
16.0
 40
16.0
 40
16.0
 40
17.0
 40
17.0
 40
17.0
 40
18.0
 40
18.0
 40
18.0
 40
19.0
 40
19.0
 40
19.0
 40
19.0
 10
88.07886146886571
 20
-118.3693467586021
 30
0.0
 10
87.98687741940954
 20
-118.3693467586021
 30
0.0
 10
87.77672659480929
 20
-118.3481594213678
 30
0.0
 10
87.65649276237407
 20
-118.1619520103901
 30
0.0
 10
87.58483477628089
 20
-118.0498141523452
 30
0.0
 10
87.5810451712471
 20
-117.9504231475957
 30
0.0
 10
87.5769110566648
 20
-117.8658460534328
 30
0.0
 10
87.5769110566648
 20
-117.8658460534328
 30
0.0
 10
87.78912893855619
 20
-117.8658460534328
 30
0.0
 10
87.78912893855619
 20
-117.8658460534328
 30
0.0
 10
87.79119599584735
 20
-117.9399156063657
 30
0.0
 10
87.80118677275456
 20
-118.1746988636855
 30
0.0
 10
88.07472735428341
 20
-118.1746988636855
 30
0.0
 10
88.20736353046553
 20
-118.1746988636855
 30
0.0
 10
88.35412459813716
 20
-118.1049356801092
 30
0.0
 10
88.35412459813716
 20
-117.8763535946629
 30
0.0
 10
88.35412459813716
 20
-117.7600816220357
 30
0.0
 10
88.31726207644499
 20
-117.7113335209194
 30
0.0
 10
88.2869452361748
 20
-117.6796386424551
 30
0.0
 10
88.2152872500816
 20
-117.6055690895222
 30
0.0
 10
88.10332164681098
 20
-117.5929944910011
 30
0.0
 10
88.05026717633814
 20
-117.5929944910011
 30
0.0
 10
88.03166366071778
 20
-117.5929944910011
 30
0.0
 10
87.99721270586528
 20
-117.5950615482922
 30
0.0
 10
87.97068547062887
 20
-117.5991956628745
 30
0.0
 10
87.97068547062887
 20
-117.5991956628745
 30
0.0
 10
87.97068547062887
 20
-117.4045477679579
 30
0.0
 10
87.97068547062887
 20
-117.4045477679579
 30
0.0
 10
88.00720348277251
 20
-117.4109211946056
 30
0.0
 10
88.04820011904698
 20
-117.413160506671
 30
0.0
 10
88.05440129092044
 20
-117.413160506671
 30
0.0
 10
88.1174465383005
 20
-117.413160506671
 30
0.0
 10
88.30933835682892
 20
-117.3919731694367
 30
0.0
 10
88.30933835682892
 20
-117.1549506000515
 30
0.0
 10
88.30933835682892
 20
-116.9773559277869
 30
0.0
 10
88.18290335252026
 20
-116.9222344000229
 30
0.0
 10
88.07679441157455
 20
-116.9222344000229
 30
0.0
 10
87.82151283611755
 20
-116.9222344000229
 30
0.0
 10
87.81358911650146
 20
-117.1549506000515
 30
0.0
 10
87.80945500191916
 20
-117.2269530956933
 30
0.0
 10
87.80945500191916
 20
-117.2269530956933
 30
0.0
 10
87.61342906880846
 20
-117.2269530956933
 30
0.0
 10
87.61342906880846
 20
-117.2269530956933
 30
0.0
 10
87.62169729797306
 20
-117.102068384353
 30
0.0
 10
87.64822453320947
 20
-116.7255194478152
 30
0.0
 10
88.08885224577293
 20
-116.7255194478152
 30
0.0
 10
88.30520424224662
 20
-116.7255194478152
 30
0.0
 10
88.53774818750098
 20
-116.8524712164466
 30
0.0
 10
88.53774818750098
 20
-117.1485771734038
 30
0.0
 10
88.53774818750098
 20
-117.3347845843816
 30
0.0
 10
88.44610864759333
 20
-117.4172946212533
 30
0.0
 10
88.34999048355486
 20
-117.4786173208908
 30
0.0
 10
88.40924612590116
 20
-117.5061780847728
 30
0.0
 10
88.58460148610038
 20
-117.5866210643534
 30
0.0
 10
88.58460148610038
 20
-117.8637789961417
 30
0.0
 10
88.58460148610038
 20
-118.2022596275675
 30
0.0
 10
88.34585636897256
 20
-118.3693467586021
 30
0.0
 10
88.07886146886571
 20
-118.3693467586021
 30
0.0
  0
HATCH
  5
F5
330
F0
100
AcDbEntity
  8
_U+30EC_U+30A4_U+30E4_U+30FC 1
 62
   179
420
  2234388
100
AcDbHatch
 10
0.0
 20
0.0
 30
0.0
210
0.0
220
0.0
230
1.0
  2
SOLID
 70
     1
 71
     0
 91
        1
 92
        1
 93
        1
 72
     4
 94
        3
 73
     0
 74
     1
 95
       62
 96
       58
 40
0.0
 40
0.0
 40
0.0
 40
0.0
 40
1.0
 40
1.0
 40
1.0
 40
2.0
 40
2.0
 40
2.0
 40
3.0
 40
3.0
 40
3.0
 40
4.0
 40
4.0
 40
4.0
 40
5.0
 40
5.0
 40
5.0
 40
6.0
 40
6.0
 40
6.0
 40
7.0
 40
7.0
 40
7.0
 40
8.0
 40
8.0
 40
8.0
 40
9.0
 40
9.0
 40
9.0
 40
10.0
 40
10.0
 40
10.0
 40
11.0
 40
11.0
 40
11.0
 40
12.0
 40
12.0
 40
12.0
 40
13.0
 40
13.0
 40
13.0
 40
14.0
 40
14.0
 40
14.0
 40
15.0
 40
15.0
 40
15.0
 40
16.0
 40
16.0
 40
16.0
 40
17.0
 40
17.0
 40
17.0
 40
18.0
 40
18.0
 40
18.0
 40
19.0
 40
19.0
 40
19.0
 40
19.0
 10
88.07886146886571
 20
-118.3693467586021
 10
87.98687741940954
 20
-118.3693467586021
 10
87.77672659480929
 20
-118.3481594213678
 10
87.65649276237407
 20
-118.1619520103901
 10
87.58483477628089
 20
-118.0498141523452
 10
87.5810451712471
 20
-117.9504231475957
 10
87.5769110566648
 20
-117.8658460534328
 10
87.5769110566648
 20
-117.8658460534328
 10
87.78912893855619
 20
-117.8658460534328
 10
87.78912893855619
 20
-117.8658460534328
 10
87.79119599584735
 20
-117.9399156063657
 10
87.80118677275456
 20
-118.1746988636855
 10
88.07472735428341
 20
-118.1746988636855
 10
88.20736353046553
 20
-118.1746988636855
 10
88.35412459813716
 20
-118.1049356801092
 10
88.35412459813716
 20
-117.8763535946629
 10
88.35412459813716
 20
-117.7600816220357
 10
88.31726207644499
 20
-117.7113335209194
 10
88.2869452361748
 20
-117.6796386424551
 10
88.2152872500816
 20
-117.6055690895222
 10
88.10332164681098
 20
-117.5929944910011
 10
88.05026717633814
 20
-117.5929944910011
 10
88.03166366071778
 20
-117.5929944910011
 10
87.99721270586528
 20
-117.5950615482922
 10
87.97068547062887
 20
-117.5991956628745
 10
87.97068547062887
 20
-117.5991956628745
 10
87.97068547062887
 20
-117.4045477679579
 10
87.97068547062887
 20
-117.4045477679579
 10
88.00720348277251
 20
-117.4109211946056
 10
88.04820011904698
 20
-117.413160506671
 10
88.05440129092044
 20
-117.413160506671
 10
88.1174465383005
 20
-117.413160506671
 10
88.30933835682892
 20
-117.3919731694367
 10
88.30933835682892
 20
-117.1549506000515
 10
88.30933835682892
 20
-116.9773559277869
 10
88.18290335252026
 20
-116.9222344000229
 10
88.07679441157455
 20
-116.9222344000229
 10
87.82151283611755
 20
-116.9222344000229
 10
87.81358911650146
 20
-117.1549506000515
 10
87.80945500191916
 20
-117.2269530956933
 10
87.80945500191916
 20
-117.2269530956933
 10
87.61342906880846
 20
-117.2269530956933
 10
87.61342906880846
 20
-117.2269530956933
 10
87.62169729797306
 20
-117.102068384353
 10
87.64822453320947
 20
-116.7255194478152
 10
88.08885224577293
 20
-116.7255194478152
 10
88.30520424224662
 20
-116.7255194478152
 10
88.53774818750098
 20
-116.8524712164466
 10
88.53774818750098
 20
-117.1485771734038
 10
88.53774818750098
 20
-117.3347845843816
 10
88.44610864759333
 20
-117.4172946212533
 10
88.34999048355486
 20
-117.4786173208908
 10
88.40924612590116
 20
-117.5061780847728
 10
88.58460148610038
 20
-117.5866210643534
 10
88.58460148610038
 20
-117.8637789961417
 10
88.58460148610038
 20
-118.2022596275675
 10
88.34585636897256
 20
-118.3693467586021
 10
88.07886146886571
 20
-118.3693467586021
 97
        0
 97
        0
 75
     2
 76
     1
 98
        0
  0
SPLINE
  5
F6
330
F0
100
AcDbEntity
  8
_U+30EC_U+30A4_U+30E4_U+30FC 1
370
     0
100
AcDbSpline
210
0.0
220
0.0
230
1.0
 70
    11
 71
     3
 72
    29
 73
    25
 74
     0
 42
0.0000000001
 43
0.0000000001
 12
1.0
 22
0.0
 32
0.0
 13
1.0
 23
0.0
 33
0.0
 40
0.0
 40
0.0
 40
0.0
 40
0.0
 40
1.0
 40
1.0
 40
1.0
 40
2.0
 40
2.0
 40
2.0
 40
3.0
 40
3.0
 40
3.0
 40
4.0
 40
4.0
 40
4.0
 40
5.0
 40
5.0
 40
5.0
 40
6.0
 40
6.0
 40
6.0
 40
7.0
 40
7.0
 40
7.0
 40
8.0
 40
8.0
 40
8.0
 40
8.0
 10
89.60400524018581
 20
-118.1407646731558
 30
0.0
 10
89.49996335653127
 20
-118.350226478659
 30
0.0
 10
89.33253171594812
 20
-118.3693467586021
 30
0.0
 10
89.22022160312898
 20
-118.3693467586021
 30
0.0
 10
89.06519230629273
 20
-118.3693467586021
 30
0.0
 10
88.92842201552831
 20
-118.3228379695512
 30
0.0
 10
88.83678247562067
 20
-118.1407646731558
 30
0.0
 10
88.73687470654842
 20
-117.9461167782392
 30
0.0
 10
88.71827119092808
 20
-117.7092664636282
 30
0.0
 10
88.71827119092808
 20
-117.5463134471759
 30
0.0
 10
88.71827119092808
 20
-117.4024807106668
 30
0.0
 10
88.73480764925728
 20
-117.1508164854692
 30
0.0
 10
88.83678247562067
 20
-116.9518622211961
 30
0.0
 10
88.94082435927521
 20
-116.7487738423406
 30
0.0
 10
89.09585365611146
 20
-116.7255194478152
 30
0.0
 10
89.22022160312898
 20
-116.7255194478152
 30
0.0
 10
89.37318384267407
 20
-116.7255194478152
 30
0.0
 10
89.51202119072964
 20
-116.7699611795749
 30
0.0
 10
89.60400524018581
 20
-116.9518622211961
 30
0.0
 10
89.69977889467576
 20
-117.1444430588215
 30
0.0
 10
89.72217201532987
 20
-117.3728528894936
 30
0.0
 10
89.72217201532987
 20
-117.5463134471759
 30
0.0
 10
89.72217201532987
 20
-117.7177069475671
 30
0.0
 10
89.7018459519669
 20
-117.9483560903046
 30
0.0
 10
89.60400524018581
 20
-118.1407646731558
 30
0.0
  0
SPLINE
  5
F7
330
F0
100
AcDbEntity
  8
_U+30EC_U+30A4_U+30E4_U+30FC 1
370
     0
100
AcDbSpline
210
0.0
220
0.0
230
1.0
 70
    11
 71
     3
 72
    17
 73
    13
 74
     0
 42
0.0000000001
 43
0.0000000001
 12
1.0
 22
0.0
 32
0.0
 13
1.0
 23
0.0
 33
0.0
 40
0.0
 40
0.0
 40
0.0
 40
0.0
 40
1.0
 40
1.0
 40
1.0
 40
2.0
 40
2.0
 40
2.0
 40
3.0
 40
3.0
 40
3.0
 40
4.0
 40
4.0
 40
4.0
 40
4.0
 10
89.22022160312898
 20
-116.9181002854406
 30
0.0
 10
88.97940942871001
 20
-116.9181002854406
 30
0.0
 10
88.93462318740177
 20
-117.2016316438767
 30
0.0
 10
88.93462318740177
 20
-117.5463134471759
 30
0.0
 10
88.93462318740177
 20
-117.8658460534328
 30
0.0
 10
88.96941865180278
 20
-118.1746988636855
 30
0.0
 10
89.22022160312898
 20
-118.1746988636855
 30
0.0
 10
89.4589667202568
 20
-118.1746988636855
 30
0.0
 10
89.50582001885618
 20
-117.8932345625406
 30
0.0
 10
89.50582001885618
 20
-117.5463134471759
 30
0.0
 10
89.50582001885618
 20
-117.2269530956933
 30
0.0
 10
89.46930200671254
 20
-116.9181002854406
 30
0.0
 10
89.22022160312898
 20
-116.9181002854406
 30
0.0
  0
HATCH
  5
F8
330
F0
100
AcDbEntity
  8
_U+30EC_U+30A4_U+30E4_U+30FC 1
 62
   179
420
  2234388
100
AcDbHatch
 10
0.0
 20
0.0
 30
0.0
210
0.0
220
0.0
230
1.0
  2
SOLID
 70
     1
 71
     0
 91
        2
 92
        1
 93
        1
 72
     4
 94
        3
 73
     0
 74
     1
 95
       29
 96
       25
 40
0.0
 40
0.0
 40
0.0
 40
0.0
 40
1.0
 40
1.0
 40
1.0
 40
2.0
 40
2.0
 40
2.0
 40
3.0
 40
3.0
 40
3.0
 40
4.0
 40
4.0
 40
4.0
 40
5.0
 40
5.0
 40
5.0
 40
6.0
 40
6.0
 40
6.0
 40
7.0
 40
7.0
 40
7.0
 40
8.0
 40
8.0
 40
8.0
 40
8.0
 10
89.60400524018581
 20
-118.1407646731558
 10
89.49996335653127
 20
-118.350226478659
 10
89.33253171594812
 20
-118.3693467586021
 10
89.22022160312898
 20
-118.3693467586021
 10
89.06519230629273
 20
-118.3693467586021
 10
88.92842201552831
 20
-118.3228379695512
 10
88.83678247562067
 20
-118.1407646731558
 10
88.73687470654842
 20
-117.9461167782392
 10
88.71827119092808
 20
-117.7092664636282
 10
88.71827119092808
 20
-117.5463134471759
 10
88.71827119092808
 20
-117.4024807106668
 10
88.73480764925728
 20
-117.1508164854692
 10
88.83678247562067
 20
-116.9518622211961
 10
88.94082435927521
 20
-116.7487738423406
 10
89.09585365611146
 20
-116.7255194478152
 10
89.22022160312898
 20
-116.7255194478152
 10
89.37318384267407
 20
-116.7255194478152
 10
89.51202119072964
 20
-116.7699611795749
 10
89.60400524018581
 20
-116.9518622211961
 10
89.69977889467576
 20
-117.1444430588215
 10
89.72217201532987
 20
-117.3728528894936
 10
89.72217201532987
 20
-117.5463134471759
 10
89.72217201532987
 20
-117.7177069475671
 10
89.7018459519669
 20
-117.9483560903046
 10
89.60400524018581
 20
-118.1407646731558
 97
        0
 97
        0
 92
        1
 93
        1
 72
     4
 94
        3
 73
     0
 74
     1
 95
       17
 96
       13
 40
0.0
 40
0.0
 40
0.0
 40
0.0
 40
1.0
 40
1.0
 40
1.0
 40
2.0
 40
2.0
 40
2.0
 40
3.0
 40
3.0
 40
3.0
 40
4.0
 40
4.0
 40
4.0
 40
4.0
 10
89.22022160312898
 20
-116.9181002854406
 10
88.97940942871001
 20
-116.9181002854406
 10
88.93462318740177
 20
-117.2016316438767
 10
88.93462318740177
 20
-117.5463134471759
 10
88.93462318740177
 20
-117.8658460534328
 10
88.96941865180278
 20
-118.1746988636855
 10
89.22022160312898
 20
-118.1746988636855
 10
89.4589667202568
 20
-118.1746988636855
 10
89.50582001885618
 20
-117.8932345625406
 10
89.50582001885618
 20
-117.5463134471759
 10
89.50582001885618
 20
-117.2269530956933
 10
89.46930200671254
 20
-116.9181002854406
 10
89.22022160312898
 20
-116.9181002854406
 97
        0
 97
        0
 75
     2
 76
     1
 98
        0
  0
ENDBLK
  5
F3
330
F0
100
AcDbEntity
  8
0
100
AcDbBlockEnd
  0
ENDSEC
  0
SECTION
  2
ENTITIES
  0
INSERT
  5
42
330
1F
100
AcDbEntity
  8
_U+30EC_U+30A4_U+30E4_U+30FC 1
100
AcDbBlockReference
  2
block 2
 10
0.0
 20
0.0
 30
0.0
  0
ENDSEC
  0
SECTION
  2
OBJECTS
  0
DICTIONARY
  5
C
330
0
100
AcDbDictionary
281
     1
  3
ACAD_GROUP
350
D
  3
ACAD_LAYOUT
350
1A
  3
ACAD_MATERIAL
350
3B
  3
ACAD_MLEADERSTYLE
350
FA
  3
ACAD_MLINESTYLE
350
17
  3
ACAD_PLOTSETTINGS
350
19
  3
ACAD_PLOTSTYLENAME
350
E
  3
ACAD_TABLESTYLE
350
F9
  3
ACAD_VISUALSTYLE
350
2A
  0
SUN
  5
3F
330
29
100
AcDbSun
 90
        1
290
     0
 63
     7
421
 16777215
 40
1.0
291
     1
 91
  2455826
 92
 54000000
292
     0
 70
     2
 71
   256
280
     1
  0
DICTIONARY
  5
D
102
{ACAD_REACTORS
330
C
102
}
330
C
100
AcDbDictionary
281
     1
  0
DICTIONARY
  5
1A
102
{ACAD_REACTORS
330
C
102
}
330
C
100
AcDbDictionary
281
     1
  3
Layout1
350
1E
  3
Layout2
350
26
  3
Model
350
22
  0
DICTIONARY
  5
3B
102
{ACAD_REACTORS
330
C
102
}
330
C
100
AcDbDictionary
281
     1
  3
ByBlock
350
3D
  3
ByLayer
350
3C
  3
Global
350
3E
  0
DICTIONARY
  5
FA
102
{ACAD_REACTORS
330
C
102
}
330
C
100
AcDbDictionary
281
     1
  0
DICTIONARY
  5
17
102
{ACAD_REACTORS
330
C
102
}
330
C
100
AcDbDictionary
281
     1
  3
Standard
350
18
  0
DICTIONARY
  5
19
102
{ACAD_REACTORS
330
C
102
}
330
C
100
AcDbDictionary
281
     1
  0
ACDBDICTIONARYWDFLT
  5
E
102
{ACAD_REACTORS
330
C
102
}
330
C
100
AcDbDictionary
281
     1
  3
Normal
350
F
100
AcDbDictionaryWithDefault
340
F
  0
DICTIONARY
  5
F9
102
{ACAD_REACTORS
330
C
102
}
330
C
100
AcDbDictionary
281
     1
  0
DICTIONARY
  5
2A
102
{ACAD_REACTORS
330
C
102
}
330
C
100
AcDbDictionary
281
     1
  3
2dWireframe
350
2F
  3
3D Hidden
350
31
  3
3dWireframe
350
30
  3
Basic
350
32
  3
Brighten
350
36
  3
ColorChange
350
3A
  3
Conceptual
350
34
  3
Dim
350
35
  3
Facepattern
350
39
  3
Flat
350
2B
  3
FlatWithEdges
350
2C
  3
Gouraud
350
2D
  3
GouraudWithEdges
350
2E
  3
Linepattern
350
38
  3
Realistic
350
33
  3
Thicken
350
37
  0
LAYOUT
  5
1E
102
{ACAD_REACTORS
330
1A
102
}
330
1A
100
AcDbPlotSettings
  1

  2
none_device
  4

  6

 40
0.0
 41
0.0
 42
0.0
 43
0.0
 44
0.0
 45
0.0
 46
0.0
 47
0.0
 48
0.0
 49
0.0
140
0.0
141
0.0
142
1.0
143
1.0
 70
   688
 72
     0
 73
     0
 74
     5
  7

 75
    16
 76
     0
 77
     2
 78
   300
147
1.0
148
0.0
149
0.0
100
AcDbLayout
  1
Layout1
 70
     1
 71
     1
 10
0.0
 20
0.0
 11
12.0
 21
9.0
 12
0.0
 22
0.0
 32
0.0
 14
1.000000000000000E+20
 24
1.000000000000000E+20
 34
1.000000000000000E+20
 15
-1.000000000000000E+20
 25
-1.000000000000000E+20
 35
-1.000000000000000E+20
146
0.0
 13
0.0
 23
0.0
 33
0.0
 16
1.0
 26
0.0
 36
0.0
 17
0.0
 27
1.0
 37
0.0
 76
     0
330
1B
  0
LAYOUT
  5
26
102
{ACAD_REACTORS
330
1A
102
}
330
1A
100
AcDbPlotSettings
  1

  2
none_device
  4

  6

 40
0.0
 41
0.0
 42
0.0
 43
0.0
 44
0.0
 45
0.0
 46
0.0
 47
0.0
 48
0.0
 49
0.0
140
0.0
141
0.0
142
1.0
143
1.0
 70
   688
 72
     0
 73
     0
 74
     5
  7

 75
    16
 76
     0
 77
     2
 78
   300
147
1.0
148
0.0
149
0.0
100
AcDbLayout
  1
Layout2
 70
     1
 71
     2
 10
0.0
 20
0.0
 11
0.0
 21
0.0
 12
0.0
 22
0.0
 32
0.0
 14
0.0
 24
0.0
 34
0.0
 15
0.0
 25
0.0
 35
0.0
146
0.0
 13
0.0
 23
0.0
 33
0.0
 16
1.0
 26
0.0
 36
0.0
 17
0.0
 27
1.0
 37
0.0
 76
     0
330
23
  0
LAYOUT
  5
22
102
{ACAD_REACTORS
330
1A
102
}
330
1A
100
AcDbPlotSettings
  1

  2
none_device
  4

  6

 40
0.0
 41
0.0
 42
0.0
 43
0.0
 44
0.0
 45
0.0
 46
0.0
 47
0.0
 48
0.0
 49
0.0
140
0.0
141
0.0
142
1.0
143
1.0
 70
  1712
 72
     0
 73
     0
 74
     0
  7

 75
     0
 76
     0
 77
     2
 78
   300
147
1.0
148
0.0
149
0.0
100
AcDbLayout
  1
Model
 70
     1
 71
     0
 10
0.0
 20
0.0
 11
12.0
 21
9.0
 12
0.0
 22
0.0
 32
0.0
 14
1.000000000000000E+20
 24
1.000000000000000E+20
 34
1.000000000000000E+20
 15
-1.000000000000000E+20
 25
-1.000000000000000E+20
 35
-1.000000000000000E+20
146
0.0
 13
0.0
 23
0.0
 33
0.0
 16
1.0
 26
0.0
 36
0.0
 17
0.0
 27
1.0
 37
0.0
 76
     0
330
1F
331
29
  0
MATERIAL
  5
3D
102
{ACAD_REACTORS
330
3B
102
}
330
3B
100
AcDbMaterial
  1
ByBlock
 72
     1
 94
      127
  0
MATERIAL
  5
3C
102
{ACAD_REACTORS
330
3B
102
}
330
3B
100
AcDbMaterial
  1
ByLayer
 72
     1
 94
      127
  0
MATERIAL
  5
3E
102
{ACAD_REACTORS
330
3B
102
}
330
3B
100
AcDbMaterial
  1
Global
 72
     1
 94
      127
  0
MLINESTYLE
  5
18
102
{ACAD_REACTORS
330
17
102
}
330
17
100
AcDbMlineStyle
  2
Standard
 70
     0
  3

 62
   256
 51
90.0
 52
90.0
 71
     2
 49
0.5
 62
   256
  6
BYLAYER
 49
-0.5
 62
   256
  6
BYLAYER
  0
ACDBPLACEHOLDER
  5
F
102
{ACAD_REACTORS
330
E
102
}
330
E
  0
VISUALSTYLE
  5
2F
102
{ACAD_REACTORS
330
2A
102
}
330
2A
100
AcDbVisualStyle
  2
2dWireframe
 70
     4
177
     2
291
     0
 71
     0
176
     1
 72
     2
176
     1
 73
     0
176
     1
 90
        0
176
     1
 40
-0.6
176
     1
 41
-30.0
176
     1
 62
     5
 63
     7
421
 16777215
176
     1
 74
     1
176
     1
 91
        4
176
     1
 64
     7
176
     1
 65
   257
176
     1
 75
     1
176
     1
175
     1
176
     1
 42
1.0
176
     1
 92
        0
176
     1
 66
   257
176
     1
 43
1.0
176
     1
 76
     1
176
     1
 77
     6
176
     1
 78
     2
176
     1
 67
     7
176
     1
 79
     5
176
     1
170
     0
176
     1
171
     0
176
     1
290
     0
176
     1
 93
        1
176
     1
 44
0.0
176
     1
173
     0
176
     1
  0
VISUALSTYLE
  5
31
102
{ACAD_REACTORS
330
2A
102
}
330
2A
100
AcDbVisualStyle
  2
3D Hidden
 70
     6
177
     2
291
     0
 71
     1
176
     1
 72
     2
176
     1
 73
     2
176
     1
 90
        0
176
     1
 40
-0.6
176
     1
 41
-30.0
176
     1
 62
     5
 63
     7
421
 16777215
176
     1
 74
     2
176
     1
 91
        2
176
     1
 64
     7
176
     1
 65
   257
176
     1
 75
     2
176
     1
175
     1
176
     1
 42
40.0
176
     1
 92
        0
176
     1
 66
   257
176
     1
 43
1.0
176
     1
 76
     1
176
     1
 77
     6
176
     1
 78
     2
176
     1
 67
     7
176
     1
 79
     3
176
     1
170
     0
176
     1
171
     0
176
     1
290
     0
176
     1
 93
        1
176
     1
 44
0.0
176
     1
173
     0
176
     1
  0
VISUALSTYLE
  5
30
102
{ACAD_REACTORS
330
2A
102
}
330
2A
100
AcDbVisualStyle
  2
3dWireframe
 70
     5
177
     2
291
     0
 71
     0
176
     1
 72
     2
176
     1
 73
     0
176
     1
 90
        0
176
     1
 40
-0.6
176
     1
 41
-30.0
176
     1
 62
     5
 63
     7
421
 16777215
176
     1
 74
     1
176
     1
 91
        4
176
     1
 64
     7
176
     1
 65
   257
176
     1
 75
     1
176
     1
175
     1
176
     1
 42
1.0
176
     1
 92
        0
176
     1
 66
   257
176
     1
 43
1.0
176
     1
 76
     1
176
     1
 77
     6
176
     1
 78
     2
176
     1
 67
     7
176
     1
 79
     5
176
     1
170
     0
176
     1
171
     0
176
     1
290
     0
176
     1
 93
        1
176
     1
 44
0.0
176
     1
173
     0
176
     1
  0
VISUALSTYLE
  5
32
102
{ACAD_REACTORS
330
2A
102
}
330
2A
100
AcDbVisualStyle
  2
Basic
 70
     7
177
     2
291
     1
 71
     1
176
     1
 72
     0
176
     1
 73
     1
176
     1
 90
        0
176
     1
 40
-0.6
176
     1
 41
-30.0
176
     1
 62
     5
 63
     7
421
 16777215
176
     1
 74
     0
176
     1
 91
        4
176
     1
 64
     7
176
     1
 65
   257
176
     1
 75
     1
176
     1
175
     1
176
     1
 42
1.0
176
     1
 92
        8
176
     1
 66
     7
176
     1
 43
1.0
176
     1
 76
     1
176
     1
 77
     6
176
     1
 78
     2
176
     1
 67
     7
176
     1
 79
     5
176
     1
170
     0
176
     1
171
     0
176
     1
290
     0
176
     1
 93
        1
176
     1
 44
0.0
176
     1
173
     0
176
     1
  0
VISUALSTYLE
  5
36
102
{ACAD_REACTORS
330
2A
102
}
330
2A
100
AcDbVisualStyle
  2
Brighten
 70
    12
177
     2
291
     1
 71
     2
176
     1
 72
     2
176
     1
 73
     0
176
     1
 90
        0
176
     1
 40
-0.6
176
     1
 41
-30.0
176
     1
 62
     5
 63
     7
421
 16777215
176
     1
 74
     1
176
     1
 91
        4
176
     1
 64
     7
176
     1
 65
   257
176
     1
 75
     1
176
     1
175
     1
176
     1
 42
1.0
176
     1
 92
        8
176
     1
 66
     7
176
     1
 43
1.0
176
     1
 76
     1
176
     1
 77
     6
176
     1
 78
     2
176
     1
 67
     7
176
     1
 79
     5
176
     1
170
     0
176
     1
171
     0
176
     1
290
     0
176
     1
 93
        1
176
     1
 44
50.0
176
     1
173
     0
176
     1
  0
VISUALSTYLE
  5
3A
102
{ACAD_REACTORS
330
2A
102
}
330
2A
100
AcDbVisualStyle
  2
ColorChange
 70
    16
177
     2
291
     1
 71
     2
176
     1
 72
     2
176
     1
 73
     3
176
     1
 90
        0
176
     1
 40
-0.6
176
     1
 41
-30.0
176
     1
 62
     5
 63
     8
421
  8421504
176
     1
 74
     1
176
     1
 91
        4
176
     1
 64
     7
176
     1
 65
   257
176
     1
 75
     1
176
     1
175
     1
176
     1
 42
1.0
176
     1
 92
        8
176
     1
 66
     8
424
  8421504
176
     1
 43
1.0
176
     1
 76
     1
176
     1
 77
     6
176
     1
 78
     2
176
     1
 67
     7
176
     1
 79
     5
176
     1
170
     0
176
     1
171
     0
176
     1
290
     0
176
     1
 93
        1
176
     1
 44
0.0
176
     1
173
     0
176
     1
  0
VISUALSTYLE
  5
34
102
{ACAD_REACTORS
330
2A
102
}
330
2A
100
AcDbVisualStyle
  2
Conceptual
 70
     9
177
     2
291
     0
 71
     3
176
     1
 72
     2
176
     1
 73
     0
176
     1
 90
        0
176
     1
 40
-0.6
176
     1
 41
-30.0
176
     1
 62
     5
 63
     7
421
 16777215
176
     1
 74
     2
176
     1
 91
        2
176
     1
 64
     7
176
     1
 65
   257
176
     1
 75
     1
176
     1
175
     1
176
     1
 42
40.0
176
     1
 92
        8
176
     1
 66
     7
176
     1
 43
1.0
176
     1
 76
     1
176
     1
 77
     6
176
     1
 78
     2
176
     1
 67
     7
176
     1
 79
     3
176
     1
170
     0
176
     1
171
     0
176
     1
290
     0
176
     1
 93
        1
176
     1
 44
0.0
176
     1
173
     0
176
     1
  0
VISUALSTYLE
  5
35
102
{ACAD_REACTORS
330
2A
102
}
330
2A
100
AcDbVisualStyle
  2
Dim
 70
    11
177
     2
291
     1
 71
     2
176
     1
 72
     2
176
     1
 73
     0
176
     1
 90
        0
176
     1
 40
-0.6
176
     1
 41
-30.0
176
     1
 62
     5
 63
     7
421
 16777215
176
     1
 74
     1
176
     1
 91
        4
176
     1
 64
     7
176
     1
 65
   257
176
     1
 75
     1
176
     1
175
     1
176
     1
 42
1.0
176
     1
 92
        8
176
     1
 66
     7
176
     1
 43
1.0
176
     1
 76
     1
176
     1
 77
     6
176
     1
 78
     2
176
     1
 67
     7
176
     1
 79
     5
176
     1
170
     0
176
     1
171
     0
176
     1
290
     0
176
     1
 93
        1
176
     1
 44
-50.0
176
     1
173
     0
176
     1
  0
VISUALSTYLE
  5
39
102
{ACAD_REACTORS
330
2A
102
}
330
2A
100
AcDbVisualStyle
  2
Facepattern
 70
    15
177
     2
291
     1
 71
     2
176
     1
 72
     2
176
     1
 73
     0
176
     1
 90
        0
176
     1
 40
-0.6
176
     1
 41
-30.0
176
     1
 62
     5
 63
     7
421
 16777215
176
     1
 74
     1
176
     1
 91
        4
176
     1
 64
     7
176
     1
 65
   257
176
     1
 75
     1
176
     1
175
     1
176
     1
 42
1.0
176
     1
 92
        8
176
     1
 66
     7
176
     1
 43
1.0
176
     1
 76
     1
176
     1
 77
     6
176
     1
 78
     2
176
     1
 67
     7
176
     1
 79
     5
176
     1
170
     0
176
     1
171
     0
176
     1
290
     0
176
     1
 93
        1
176
     1
 44
0.0
176
     1
173
     0
176
     1
  0
VISUALSTYLE
  5
2B
102
{ACAD_REACTORS
330
2A
102
}
330
2A
100
AcDbVisualStyle
  2
Flat
 70
     0
177
     2
291
     1
 71
     2
176
     1
 72
     1
176
     1
 73
     1
176
     1
 90
        2
176
     1
 40
-0.6
176
     1
 41
30.0
176
     1
 62
     5
 63
     7
421
 16777215
176
     1
 74
     0
176
     1
 91
        4
176
     1
 64
     7
176
     1
 65
   257
176
     1
 75
     1
176
     1
175
     1
176
     1
 42
1.0
176
     1
 92
        8
176
     1
 66
     7
176
     1
 43
1.0
176
     1
 76
     1
176
     1
 77
     6
176
     1
 78
     2
176
     1
 67
     7
176
     1
 79
     5
176
     1
170
     0
176
     1
171
     0
176
     1
290
     0
176
     1
 93
       13
176
     1
 44
0.0
176
     1
173
     0
176
     1
  0
VISUALSTYLE
  5
2C
102
{ACAD_REACTORS
330
2A
102
}
330
2A
100
AcDbVisualStyle
  2
FlatWithEdges
 70
     1
177
     2
291
     1
 71
     2
176
     1
 72
     1
176
     1
 73
     1
176
     1
 90
        2
176
     1
 40
-0.6
176
     1
 41
30.0
176
     1
 62
     5
 63
     7
421
 16777215
176
     1
 74
     1
176
     1
 91
        4
176
     1
 64
     7
176
     1
 65
   257
176
     1
 75
     1
176
     1
175
     1
176
     1
 42
1.0
176
     1
 92
        0
176
     1
 66
   257
176
     1
 43
1.0
176
     1
 76
     1
176
     1
 77
     6
176
     1
 78
     2
176
     1
 67
     7
176
     1
 79
     5
176
     1
170
     0
176
     1
171
     0
176
     1
290
     0
176
     1
 93
       13
176
     1
 44
0.0
176
     1
173
     0
176
     1
  0
VISUALSTYLE
  5
2D
102
{ACAD_REACTORS
330
2A
102
}
330
2A
100
AcDbVisualStyle
  2
Gouraud
 70
     2
177
     2
291
     1
 71
     2
176
     1
 72
     2
176
     1
 73
     1
176
     1
 90
        2
176
     1
 40
-0.6
176
     1
 41
30.0
176
     1
 62
     5
 63
     7
421
 16777215
176
     1
 74
     0
176
     1
 91
        4
176
     1
 64
     7
176
     1
 65
   257
176
     1
 75
     1
176
     1
175
     1
176
     1
 42
1.0
176
     1
 92
        0
176
     1
 66
     7
176
     1
 43
1.0
176
     1
 76
     1
176
     1
 77
     6
176
     1
 78
     2
176
     1
 67
     7
176
     1
 79
     5
176
     1
170
     0
176
     1
171
     0
176
     1
290
     0
176
     1
 93
       13
176
     1
 44
0.0
176
     1
173
     0
176
     1
  0
VISUALSTYLE
  5
2E
102
{ACAD_REACTORS
330
2A
102
}
330
2A
100
AcDbVisualStyle
  2
GouraudWithEdges
 70
     3
177
     2
291
     1
 71
     2
176
     1
 72
     2
176
     1
 73
     1
176
     1
 90
        2
176
     1
 40
-0.6
176
     1
 41
30.0
176
     1
 62
     5
 63
     7
421
 16777215
176
     1
 74
     1
176
     1
 91
        4
176
     1
 64
     7
176
     1
 65
   257
176
     1
 75
     1
176
     1
175
     1
176
     1
 42
1.0
176
     1
 92
        0
176
     1
 66
   257
176
     1
 43
1.0
176
     1
 76
     1
176
     1
 77
     6
176
     1
 78
     2
176
     1
 67
     7
176
     1
 79
     5
176
     1
170
     0
176
     1
171
     0
176
     1
290
     0
176
     1
 93
       13
176
     1
 44
0.0
176
     1
173
     0
176
     1
  0
VISUALSTYLE
  5
38
102
{ACAD_REACTORS
330
2A
102
}
330
2A
100
AcDbVisualStyle
  2
Linepattern
 70
    14
177
     2
291
     1
 71
     2
176
     1
 72
     2
176
     1
 73
     0
176
     1
 90
        0
176
     1
 40
-0.6
176
     1
 41
-30.0
176
     1
 62
     5
 63
     7
421
 16777215
176
     1
 74
     1
176
     1
 91
        4
176
     1
 64
     7
176
     1
 65
   257
176
     1
 75
     7
176
     1
175
     7
176
     1
 42
1.0
176
     1
 92
        8
176
     1
 66
     7
176
     1
 43
1.0
176
     1
 76
     1
176
     1
 77
     6
176
     1
 78
     2
176
     1
 67
     7
176
     1
 79
     5
176
     1
170
     0
176
     1
171
     0
176
     1
290
     0
176
     1
 93
        1
176
     1
 44
0.0
176
     1
173
     0
176
     1
  0
VISUALSTYLE
  5
33
102
{ACAD_REACTORS
330
2A
102
}
330
2A
100
AcDbVisualStyle
  2
Realistic
 70
     8
177
     2
291
     0
 71
     2
176
     1
 72
     2
176
     1
 73
     0
176
     1
 90
        0
176
     1
 40
-0.6
176
     1
 41
-30.0
176
     1
 62
     5
 63
     7
421
 16777215
176
     1
 74
     1
176
     1
 91
        0
176
     1
 64
     7
176
     1
 65
   257
176
     1
 75
     1
176
     1
175
     1
176
     1
 42
1.0
176
     1
 92
        8
176
     1
 66
     8
424
  7895160
176
     1
 43
1.0
176
     1
 76
     1
176
     1
 77
     6
176
     1
 78
     2
176
     1
 67
     7
176
     1
 79
     5
176
     1
170
     0
176
     1
171
     0
176
     1
290
     0
176
     1
 93
       13
176
     1
 44
0.0
176
     1
173
     0
176
     1
  0
VISUALSTYLE
  5
37
102
{ACAD_REACTORS
330
2A
102
}
330
2A
100
AcDbVisualStyle
  2
Thicken
 70
    13
177
     2
291
     1
 71
     2
176
     1
 72
     2
176
     1
 73
     0
176
     1
 90
        0
176
     1
 40
-0.6
176
     1
 41
-30.0
176
     1
 62
     5
 63
     7
421
 16777215
176
     1
 74
     1
176
     1
 91
        4
176
     1
 64
     7
176
     1
 65
   257
176
     1
 75
     1
176
     1
175
     1
176
     1
 42
1.0
176
     1
 92
       12
176
     1
 66
     7
176
     1
 43
1.0
176
     1
 76
     1
176
     1
 77
     6
176
     1
 78
     2
176
     1
 67
     7
176
     1
 79
     5
176
     1
170
     0
176
     1
171
     0
176
     1
290
     0
176
     1
 93
        1
176
     1
 44
0.0
176
     1
173
     0
176
     1
  0
ENDSEC
  0
EOF
