  0
SECTION
  2
HEADER
  9
$ACADVER
  1
AC1024
  9
$ACADMAINTVER
 70
     6
  9
$DWGCODEPAGE
  3
UNDEFINED
  9
$INSBASE
 10
0.0
 20
0.0
 30
0.0
  9
$EXTMIN
 10
1.000000000000000E+20
 20
1.000000000000000E+20
 30
1.000000000000000E+20
  9
$EXTMAX
 10
-1.000000000000000E+20
 20
-1.000000000000000E+20
 30
-1.000000000000000E+20
  9
$LIMMIN
 10
0.0
 20
0.0
  9
$LIMMAX
 10
12.0
 20
9.0
  9
$ORTHOMODE
 70
     0
  9
$REGENMODE
 70
     1
  9
$FILLMODE
 70
     1
  9
$QTEXTMODE
 70
     0
  9
$MIRRTEXT
 70
     1
  9
$LTSCALE
 40
1.0
  9
$ATTMODE
 70
     1
  9
$TEXTSIZE
 40
0.2
  9
$TRACEWID
 40
0.05
  9
$TEXTSTYLE
  7
Standard
  9
$CLAYER
  8
0
  9
$CELTYPE
  6
ByLayer
  9
$CECOLOR
 62
   256
  9
$CELTSCALE
 40
1.0
  9
$DISPSILH
 70
     0
  9
$DIMSCALE
 40
1.0
  9
$DIMASZ
 40
0.18
  9
$DIMEXO
 40
0.0625
  9
$DIMDLI
 40
0.38
  9
$DIMRND
 40
0.0
  9
$DIMDLE
 40
0.0
  9
$DIMEXE
 40
0.18
  9
$DIMTP
 40
0.0
  9
$DIMTM
 40
0.0
  9
$DIMTXT
 40
0.18
  9
$DIMCEN
 40
0.09
  9
$DIMTSZ
 40
0.0
  9
$DIMTOL
 70
     0
  9
$DIMLIM
 70
     0
  9
$DIMTIH
 70
     1
  9
$DIMTOH
 70
     1
  9
$DIMSE1
 70
     0
  9
$DIMSE2
 70
     0
  9
$DIMTAD
 70
     0
  9
$DIMZIN
 70
     0
  9
$DIMBLK
  1

  9
$DIMASO
 70
     1
  9
$DIMSHO
 70
     1
  9
$DIMPOST
  1

  9
$DIMAPOST
  1

  9
$DIMALT
 70
     0
  9
$DIMALTD
 70
     2
  9
$DIMALTF
 40
25.4
  9
$DIMLFAC
 40
1.0
  9
$DIMTOFL
 70
     0
  9
$DIMTVP
 40
0.0
  9
$DIMTIX
 70
     0
  9
$DIMSOXD
 70
     0
  9
$DIMSAH
 70
     0
  9
$DIMBLK1
  1

  9
$DIMBLK2
  1

  9
$DIMSTYLE
  2
Standard
  9
$DIMCLRD
 70
     0
  9
$DIMCLRE
 70
     0
  9
$DIMCLRT
 70
     0
  9
$DIMTFAC
 40
1.0
  9
$DIMGAP
 40
0.09
  9
$DIMJUST
 70
     0
  9
$DIMSD1
 70
     0
  9
$DIMSD2
 70
     0
  9
$DIMTOLJ
 70
     1
  9
$DIMTZIN
 70
     0
  9
$DIMALTZ
 70
     0
  9
$DIMALTTZ
 70
     0
  9
$DIMUPT
 70
     0
  9
$DIMDEC
 70
     4
  9
$DIMTDEC
 70
     4
  9
$DIMALTU
 70
     2
  9
$DIMALTTD
 70
     2
  9
$DIMTXSTY
  7
Standard
  9
$DIMAUNIT
 70
     0
  9
$DIMADEC
 70
     0
  9
$DIMALTRND
 40
0.0
  9
$DIMAZIN
 70
     0
  9
$DIMDSEP
 70
    46
  9
$DIMATFIT
 70
     3
  9
$DIMFRAC
 70
     0
  9
$DIMLDRBLK
  1

  9
$DIMLUNIT
 70
     2
  9
$DIMLWD
 70
    -2
  9
$DIMLWE
 70
    -2
  9
$DIMTMOVE
 70
     0
  9
$DIMFXL
 40
1.0
  9
$DIMFXLON
 70
     0
  9
$DIMJOGANG
 40
0.7853981633974483
  9
$DIMTFILL
 70
     0
  9
$DIMTFILLCLR
 70
     0
  9
$DIMARCSYM
 70
     0
  9
$DIMLTYPE
  6

  9
$DIMLTEX1
  6

  9
$DIMLTEX2
  6

  9
$DIMTXTDIRECTION
 70
     0
  9
$LUNITS
 70
     2
  9
$LUPREC
 70
     4
  9
$SKETCHINC
 40
0.1
  9
$FILLETRAD
 40
0.5
  9
$AUNITS
 70
     0
  9
$AUPREC
 70
     0
  9
$MENU
  1
.
  9
$ELEVATION
 40
0.0
  9
$PELEVATION
 40
0.0
  9
$THICKNESS
 40
0.0
  9
$LIMCHECK
 70
     0
  9
$CHAMFERA
 40
0.5
  9
$CHAMFERB
 40
0.5
  9
$CHAMFERC
 40
1.0
  9
$CHAMFERD
 40
0.0
  9
$SKPOLY
 70
     0
  9
$TDCREATE
 40
2457917.612407396
  9
$TDUCREATE
 40
2457917.237407407
  9
$TDUPDATE
 40
2457917.612407396
  9
$TDUUPDATE
 40
2457917.237407407
  9
$TDINDWG
 40
0.0000000116
  9
$TDUSRTIMER
 40
0.0000000116
  9
$USRTIMER
 70
     1
  9
$ANGBASE
 50
0.0
  9
$ANGDIR
 70
     0
  9
$PDMODE
 70
     0
  9
$PDSIZE
 40
0.0
  9
$PLINEWID
 40
0.0
  9
$SPLFRAME
 70
     0
  9
$SPLINETYPE
 70
     6
  9
$SPLINESEGS
 70
     8
  9
$HANDSEED
  5
EC
  9
$SURFTAB1
 70
     6
  9
$SURFTAB2
 70
     6
  9
$SURFTYPE
 70
     6
  9
$SURFU
 70
     6
  9
$SURFV
 70
     6
  9
$UCSBASE
  2

  9
$UCSNAME
  2

  9
$UCSORG
 10
0.0
 20
0.0
 30
0.0
  9
$UCSXDIR
 10
1.0
 20
0.0
 30
0.0
  9
$UCSYDIR
 10
0.0
 20
1.0
 30
0.0
  9
$UCSORTHOREF
  2

  9
$UCSORTHOVIEW
 70
     0
  9
$UCSORGTOP
 10
0.0
 20
0.0
 30
0.0
  9
$UCSORGBOTTOM
 10
0.0
 20
0.0
 30
0.0
  9
$UCSORGLEFT
 10
0.0
 20
0.0
 30
0.0
  9
$UCSORGRIGHT
 10
0.0
 20
0.0
 30
0.0
  9
$UCSORGFRONT
 10
0.0
 20
0.0
 30
0.0
  9
$UCSORGBACK
 10
0.0
 20
0.0
 30
0.0
  9
$PUCSBASE
  2

  9
$PUCSNAME
  2

  9
$PUCSORG
 10
0.0
 20
0.0
 30
0.0
  9
$PUCSXDIR
 10
1.0
 20
0.0
 30
0.0
  9
$PUCSYDIR
 10
0.0
 20
1.0
 30
0.0
  9
$PUCSORTHOREF
  2

  9
$PUCSORTHOVIEW
 70
     0
  9
$PUCSORGTOP
 10
0.0
 20
0.0
 30
0.0
  9
$PUCSORGBOTTOM
 10
0.0
 20
0.0
 30
0.0
  9
$PUCSORGLEFT
 10
0.0
 20
0.0
 30
0.0
  9
$PUCSORGRIGHT
 10
0.0
 20
0.0
 30
0.0
  9
$PUCSORGFRONT
 10
0.0
 20
0.0
 30
0.0
  9
$PUCSORGBACK
 10
0.0
 20
0.0
 30
0.0
  9
$USERI1
 70
     0
  9
$USERI2
 70
     0
  9
$USERI3
 70
     0
  9
$USERI4
 70
     0
  9
$USERI5
 70
     0
  9
$USERR1
 40
0.0
  9
$USERR2
 40
0.0
  9
$USERR3
 40
0.0
  9
$USERR4
 40
0.0
  9
$USERR5
 40
0.0
  9
$WORLDVIEW
 70
     1
  9
$SHADEDGE
 70
     3
  9
$SHADEDIF
 70
    70
  9
$TILEMODE
 70
     1
  9
$MAXACTVP
 70
    64
  9
$PINSBASE
 10
0.0
 20
0.0
 30
0.0
  9
$PLIMCHECK
 70
     0
  9
$PEXTMIN
 10
1.000000000000000E+20
 20
1.000000000000000E+20
 30
1.000000000000000E+20
  9
$PEXTMAX
 10
-1.000000000000000E+20
 20
-1.000000000000000E+20
 30
-1.000000000000000E+20
  9
$PLIMMIN
 10
0.0
 20
0.0
  9
$PLIMMAX
 10
12.0
 20
9.0
  9
$UNITMODE
 70
     0
  9
$VISRETAIN
 70
     1
  9
$PLINEGEN
 70
     0
  9
$PSLTSCALE
 70
     1
  9
$TREEDEPTH
 70
  3020
  9
$CMLSTYLE
  2
Standard
  9
$CMLJUST
 70
     0
  9
$CMLSCALE
 40
1.0
  9
$PROXYGRAPHICS
 70
     1
  9
$MEASUREMENT
 70
     0
  9
$CELWEIGHT
370
    -1
  9
$ENDCAPS
280
     0
  9
$JOINSTYLE
280
     0
  9
$LWDISPLAY
290
     1
  9
$INSUNITS
 70
     1
  9
$HYPERLINKBASE
  1

  9
$STYLESHEET
  1

  9
$XEDIT
290
     1
  9
$CEPSNTYPE
380
     0
  9
$PSTYLEMODE
290
     1
  9
$FINGERPRINTGUID
  2
{66EF084A-CBEF-5713-2B7D-8DC714639405}
  9
$VERSIONGUID
  2
{FAEB1C32-E019-11D5-929B-00C0DF256EC4}
  9
$EXTNAMES
290
     1
  9
$PSVPSCALE
 40
0.0
  9
$OLESTARTUP
290
     0
  9
$SORTENTS
280
   127
  9
$INDEXCTL
280
     0
  9
$HIDETEXT
280
     1
  9
$XCLIPFRAME
280
     2
  9
$HALOGAP
280
     0
  9
$OBSCOLOR
 70
   257
  9
$OBSLTYPE
280
     0
  9
$INTERSECTIONDISPLAY
280
     0
  9
$INTERSECTIONCOLOR
 70
   257
  9
$DIMASSOC
280
     2
  9
$PROJECTNAME
  1

  9
$CAMERADISPLAY
290
     0
  9
$LENSLENGTH
 40
50.0
  9
$CAMERAHEIGHT
 40
0.0
  9
$STEPSPERSEC
 40
2.0
  9
$STEPSIZE
 40
6.0
  9
$3DDWFPREC
 40
2.0
  9
$PSOLWIDTH
 40
0.25
  9
$PSOLHEIGHT
 40
4.0
  9
$LOFTANG1
 40
1.570796326794897
  9
$LOFTANG2
 40
1.570796326794897
  9
$LOFTMAG1
 40
0.0
  9
$LOFTMAG2
 40
0.0
  9
$LOFTPARAM
 70
     7
  9
$LOFTNORMALS
280
     1
  9
$LATITUDE
 40
37.795
  9
$LONGITUDE
 40
-122.394
  9
$NORTHDIRECTION
 40
0.0
  9
$TIMEZONE
 70
 -8000
  9
$LIGHTGLYPHDISPLAY
280
     1
  9
$TILEMODELIGHTSYNCH
280
     1
  9
$CMATERIAL
347
3C
  9
$SOLIDHIST
280
     1
  9
$SHOWHIST
280
     1
  9
$DWFFRAME
280
     2
  9
$DGNFRAME
280
     2
  9
$REALWORLDSCALE
290
     1
  9
$INTERFERECOLOR
 62
   256
  9
$CSHADOW
280
     0
  9
$SHADOWPLANELOCATION
 40
0.0
  0
ENDSEC
  0
SECTION
  2
CLASSES
  0
CLASS
  1
ACDBDICTIONARYWDFLT
  2
AcDbDictionaryWithDefault
  3
ObjectDBX Classes
 90
        0
 91
        4
280
     0
281
     0
  0
CLASS
  1
VISUALSTYLE
  2
AcDbVisualStyle
  3
ObjectDBX Classes
 90
     4095
 91
        4
280
     0
281
     0
  0
CLASS
  1
MATERIAL
  2
AcDbMaterial
  3
ObjectDBX Classes
 90
     1153
 91
        4
280
     0
281
     0
  0
CLASS
  1
SUN
  2
AcDbSun
  3
SCENEOE
 90
     1024
 91
        4
280
     0
281
     0
  0
ENDSEC
  0
SECTION
  2
TABLES
  0
TABLE
  2
VPORT
  5
8
330
0
100
AcDbSymbolTable
 70
     1
  0
VPORT
  5
29
330
8
100
AcDbSymbolTableRecord
100
AcDbViewportTableRecord
  2
*Active
 70
     0
 10
0.0
 20
0.0
 11
1.0
 21
1.0
 12
0.0
 22
0.0
 13
0.0
 23
0.0
 14
0.5
 24
0.5
 15
0.5
 25
0.5
 16
0.0
 26
0.0
 36
1.0
 17
91.00082462281999
 27
-128.4993055234307
 37
0.0
 40
256.9986110468615
 41
0.7081814508812795
 42
50.0
 43
0.0
 44
0.0
 50
0.0
 51
0.0
 71
     0
 72
   100
 73
     1
 74
     3
 75
     0
 76
     0
 77
     0
 78
     0
281
     0
 65
     1
110
0.0
120
0.0
130
0.0
111
1.0
121
0.0
131
0.0
112
0.0
122
1.0
132
0.0
 79
     0
146
0.0
 60
     3
 61
     5
292
     1
282
     1
141
0.0
142
0.0
 63
   250
361
3F
  0
ENDTAB
  0
TABLE
  2
LTYPE
  5
5
330
0
100
AcDbSymbolTable
 70
     1
  0
LTYPE
  5
14
330
5
100
AcDbSymbolTableRecord
100
AcDbLinetypeTableRecord
  2
ByBlock
 70
     0
  3

 72
    65
 73
     0
 40
0.0
  0
LTYPE
  5
15
330
5
100
AcDbSymbolTableRecord
100
AcDbLinetypeTableRecord
  2
ByLayer
 70
     0
  3

 72
    65
 73
     0
 40
0.0
  0
LTYPE
  5
16
330
5
100
AcDbSymbolTableRecord
100
AcDbLinetypeTableRecord
  2
Continuous
 70
     0
  3
Solid line
 72
    65
 73
     0
 40
0.0
  0
ENDTAB
  0
TABLE
  2
LAYER
  5
2
330
0
100
AcDbSymbolTable
 70
     2
  0
LAYER
  5
10
330
2
100
AcDbSymbolTableRecord
100
AcDbLayerTableRecord
  2
0
 70
     0
 62
     7
  6
Continuous
370
    -3
390
F
347
3E
  0
LAYER
  5
40
330
2
100
AcDbSymbolTableRecord
100
AcDbLayerTableRecord
  2
_U+30EC_U+30A4_U+30E4_U+30FC 1
 70
     0
 62
     7
  6
Continuous
370
    -3
390
F
347
3E
  0
ENDTAB
  0
TABLE
  2
STYLE
  5
3
330
0
100
AcDbSymbolTable
 70
     1
  0
STYLE
  5
11
330
3
100
AcDbSymbolTableRecord
100
AcDbTextStyleTableRecord
  2
Standard
 70
     0
 40
0.0
 41
1.0
 50
0.0
 71
     0
 42
0.2
  3
txt
  4

  0
ENDTAB
  0
TABLE
  2
VIEW
  5
6
330
0
100
AcDbSymbolTable
 70
     0
  0
ENDTAB
  0
TABLE
  2
UCS
  5
7
330
0
100
AcDbSymbolTable
 70
     0
  0
ENDTAB
  0
TABLE
  2
APPID
  5
9
330
0
100
AcDbSymbolTable
 70
     1
  0
APPID
  5
12
330
9
100
AcDbSymbolTableRecord
100
AcDbRegAppTableRecord
  2
ACAD
 70
     0
  0
ENDTAB
  0
TABLE
  2
DIMSTYLE
  5
A
330
0
100
AcDbSymbolTable
 70
     1
100
AcDbDimStyleTable
  0
DIMSTYLE
105
27
330
A
100
AcDbSymbolTableRecord
100
AcDbDimStyleTableRecord
  2
Standard
 70
     0
178
     0
340
11
  0
ENDTAB
  0
TABLE
  2
BLOCK_RECORD
  5
1
330
0
100
AcDbSymbolTable
 70
     7
  0
BLOCK_RECORD
  5
1F
330
1
100
AcDbSymbolTableRecord
100
AcDbBlockTableRecord
  2
*Model_Space
340
22
 70
     0
280
     1
281
     0
  0
BLOCK_RECORD
  5
1B
330
1
100
AcDbSymbolTableRecord
100
AcDbBlockTableRecord
  2
*Paper_Space
340
1E
 70
     0
280
     1
281
     0
  0
BLOCK_RECORD
  5
23
330
1
100
AcDbSymbolTableRecord
100
AcDbBlockTableRecord
  2
*Paper_Space0
340
26
 70
     0
280
     1
281
     0
  0
BLOCK_RECORD
  5
41
330
1
100
AcDbSymbolTableRecord
100
AcDbBlockTableRecord
  2
block 2
340
0
102
{BLKREFS
331
42
102
}
 70
     0
280
     1
281
     0
  0
BLOCK_RECORD
  5
93
330
1
100
AcDbSymbolTableRecord
100
AcDbBlockTableRecord
  2
block 3
340
0
102
{BLKREFS
331
94
102
}
 70
     0
280
     1
281
     0
  0
BLOCK_RECORD
  5
A1
330
1
100
AcDbSymbolTableRecord
100
AcDbBlockTableRecord
  2
block 4
340
0
102
{BLKREFS
331
A2
102
}
 70
     0
280
     1
281
     0
  0
BLOCK_RECORD
  5
B3
330
1
100
AcDbSymbolTableRecord
100
AcDbBlockTableRecord
  2
block 5
340
0
102
{BLKREFS
331
B4
102
}
 70
     0
280
     1
281
     0
  0
BLOCK_RECORD
  5
C8
330
1
100
AcDbSymbolTableRecord
100
AcDbBlockTableRecord
  2
block 6
340
0
102
{BLKREFS
331
C9
102
}
 70
     0
280
     1
281
     0
  0
BLOCK_RECORD
  5
D8
330
1
100
AcDbSymbolTableRecord
100
AcDbBlockTableRecord
  2
block 7
340
0
102
{BLKREFS
331
D9
102
}
 70
     0
280
     1
281
     0
  0
ENDTAB
  0
ENDSEC
  0
SECTION
  2
BLOCKS
  0
BLOCK
  5
20
330
1F
100
AcDbEntity
  8
0
100
AcDbBlockBegin
  2
*Model_Space
 70
     0
 10
0.0
 20
0.0
 30
0.0
  3
*Model_Space
  1

  0
ENDBLK
  5
21
330
1F
100
AcDbEntity
  8
0
100
AcDbBlockEnd
  0
BLOCK
  5
1C
330
1B
100
AcDbEntity
 67
     1
  8
0
100
AcDbBlockBegin
  2
*Paper_Space
 70
     0
 10
0.0
 20
0.0
 30
0.0
  3
*Paper_Space
  1

  0
ENDBLK
  5
1D
330
1B
100
AcDbEntity
 67
     1
  8
0
100
AcDbBlockEnd
  0
BLOCK
  5
24
330
23
100
AcDbEntity
  8
0
100
AcDbBlockBegin
  2
*Paper_Space0
 70
     0
 10
0.0
 20
0.0
 30
0.0
  3
*Paper_Space0
  1

  0
ENDBLK
  5
25
330
23
100
AcDbEntity
  8
0
100
AcDbBlockEnd
  0
BLOCK
  5
43
330
41
100
AcDbEntity
  8
0
100
AcDbBlockBegin
  2
block 2
 70
     0
 10
0.0
 20
0.0
 30
0.0
  3
block 2
  1

  0
POLYLINE
  5
45
330
41
100
AcDbEntity
  8
_U+30EC_U+30A4_U+30E4_U+30FC 1
370
     0
100
AcDb2dPolyline
 66
     1
 10
0.0
 20
0.0
 30
0.0
  0
VERTEX
  5
46
330
45
100
AcDbEntity
  8
_U+30EC_U+30A4_U+30E4_U+30FC 1
370
     0
100
AcDbVertex
100
AcDb2dVertex
 10
73.29268590792559
 20
-119.4921127479049
 30
0.0
  0
VERTEX
  5
47
330
45
100
AcDbEntity
  8
_U+30EC_U+30A4_U+30E4_U+30FC 1
370
     0
100
AcDbVertex
100
AcDb2dVertex
 10
73.29268590792559
 20
-139.1312163541058
 30
0.0
  0
VERTEX
  5
48
330
45
100
AcDbEntity
  8
_U+30EC_U+30A4_U+30E4_U+30FC 1
370
     0
100
AcDbVertex
100
AcDb2dVertex
 10
83.45501398199633
 20
-139.1312163541058
 30
0.0
  0
VERTEX
  5
49
330
45
100
AcDbEntity
  8
_U+30EC_U+30A4_U+30E4_U+30FC 1
370
     0
100
AcDbVertex
100
AcDb2dVertex
 10
83.45501398199633
 20
-136.1801596881769
 30
0.0
  0
VERTEX
  5
4A
330
45
100
AcDbEntity
  8
_U+30EC_U+30A4_U+30E4_U+30FC 1
370
     0
100
AcDbVertex
100
AcDb2dVertex
 10
82.33744928828555
 20
-136.1801596881769
 30
0.0
  0
VERTEX
  5
4B
330
45
100
AcDbEntity
  8
_U+30EC_U+30A4_U+30E4_U+30FC 1
370
     0
100
AcDbVertex
100
AcDb2dVertex
 10
82.33744928828555
 20
-138.1204374654696
 30
0.0
  0
VERTEX
  5
4C
330
45
100
AcDbEntity
  8
_U+30EC_U+30A4_U+30E4_U+30FC 1
370
     0
100
AcDbVertex
100
AcDb2dVertex
 10
74.34135310339407
 20
-138.1204374654696
 30
0.0
  0
VERTEX
  5
4D
330
45
100
AcDbEntity
  8
_U+30EC_U+30A4_U+30E4_U+30FC 1
370
     0
100
AcDbVertex
100
AcDb2dVertex
 10
74.34135310339407
 20
-120.4815485809907
 30
0.0
  0
VERTEX
  5
4E
330
45
100
AcDbEntity
  8
_U+30EC_U+30A4_U+30E4_U+30FC 1
370
     0
100
AcDbVertex
100
AcDb2dVertex
 10
98.3888377676694
 20
-120.4815485809907
 30
0.0
  0
VERTEX
  5
4F
330
45
100
AcDbEntity
  8
_U+30EC_U+30A4_U+30E4_U+30FC 1
370
     0
100
AcDbVertex
100
AcDb2dVertex
 10
98.3888377676694
 20
-119.540337470115
 30
0.0
  0
VERTEX
  5
50
330
45
100
AcDbEntity
  8
_U+30EC_U+30A4_U+30E4_U+30FC 1
370
     0
100
AcDbVertex
100
AcDb2dVertex
 10
73.29268590792559
 20
-119.4921127479049
 30
0.0
  0
SEQEND
  5
52
330
45
100
AcDbEntity
  8
_U+30EC_U+30A4_U+30E4_U+30FC 1
370
     0
  0
HATCH
  5
51
330
41
100
AcDbEntity
  8
_U+30EC_U+30A4_U+30E4_U+30FC 1
 62
     9
420
 13224394
100
AcDbHatch
 10
0.0
 20
0.0
 30
0.0
210
0.0
220
0.0
230
1.0
  2
SOLID
 70
     1
 71
     0
 91
        1
 92
        1
 93
       10
 72
     1
 10
73.29268590792559
 20
-119.4921127479049
 11
73.29268590792559
 21
-139.1312163541058
 72
     1
 10
73.29268590792559
 20
-139.1312163541058
 11
83.45501398199633
 21
-139.1312163541058
 72
     1
 10
83.45501398199633
 20
-139.1312163541058
 11
83.45501398199633
 21
-136.1801596881769
 72
     1
 10
83.45501398199633
 20
-136.1801596881769
 11
82.33744928828555
 21
-136.1801596881769
 72
     1
 10
82.33744928828555
 20
-136.1801596881769
 11
82.33744928828555
 21
-138.1204374654696
 72
     1
 10
82.33744928828555
 20
-138.1204374654696
 11
74.34135310339407
 21
-138.1204374654696
 72
     1
 10
74.34135310339407
 20
-138.1204374654696
 11
74.34135310339407
 21
-120.4815485809907
 72
     1
 10
74.34135310339407
 20
-120.4815485809907
 11
98.3888377676694
 21
-120.4815485809907
 72
     1
 10
98.3888377676694
 20
-120.4815485809907
 11
98.3888377676694
 21
-119.540337470115
 72
     1
 10
98.3888377676694
 20
-119.540337470115
 11
73.29268590792559
 21
-119.4921127479049
 97
        0
 75
     2
 76
     1
 98
        0
  0
POLYLINE
  5
53
330
41
100
AcDbEntity
  8
_U+30EC_U+30A4_U+30E4_U+30FC 1
 62
   179
420
  2234388
370
    25
100
AcDb2dPolyline
 66
     1
 10
0.0
 20
0.0
 30
0.0
  0
VERTEX
  5
54
330
53
100
AcDbEntity
  8
_U+30EC_U+30A4_U+30E4_U+30FC 1
 62
   179
420
  2234388
370
    25
100
AcDbVertex
100
AcDb2dVertex
 10
73.34987118424444
 20
-119.5072469145676
 30
0.0
  0
VERTEX
  5
55
330
53
100
AcDbEntity
  8
_U+30EC_U+30A4_U+30E4_U+30FC 1
 62
   179
420
  2234388
370
    25
100
AcDbVertex
100
AcDb2dVertex
 10
98.34989110199635
 20
-119.5072469145676
 30
0.0
  0
SEQEND
  5
56
330
53
100
AcDbEntity
  8
_U+30EC_U+30A4_U+30E4_U+30FC 1
 62
   179
420
  2234388
370
    25
  0
POLYLINE
  5
57
330
41
100
AcDbEntity
  8
_U+30EC_U+30A4_U+30E4_U+30FC 1
 62
   179
420
  2234388
370
    25
100
AcDb2dPolyline
 66
     1
 10
0.0
 20
0.0
 30
0.0
  0
VERTEX
  5
58
330
57
100
AcDbEntity
  8
_U+30EC_U+30A4_U+30E4_U+30FC 1
 62
   179
420
  2234388
370
    25
100
AcDbVertex
100
AcDb2dVertex
 10
73.34987118424444
 20
-119.5072469145676
 30
0.0
  0
VERTEX
  5
59
330
57
100
AcDbEntity
  8
_U+30EC_U+30A4_U+30E4_U+30FC 1
 62
   179
420
  2234388
370
    25
100
AcDbVertex
100
AcDb2dVertex
 10
73.34987118424444
 20
-139.2414594096338
 30
0.0
  0
SEQEND
  5
5A
330
57
100
AcDbEntity
  8
_U+30EC_U+30A4_U+30E4_U+30FC 1
 62
   179
420
  2234388
370
    25
  0
POLYLINE
  5
5B
330
41
100
AcDbEntity
  8
_U+30EC_U+30A4_U+30E4_U+30FC 1
 62
   179
420
  2234388
370
    25
100
AcDb2dPolyline
 66
     1
 10
0.0
 20
0.0
 30
0.0
  0
VERTEX
  5
5C
330
5B
100
AcDbEntity
  8
_U+30EC_U+30A4_U+30E4_U+30FC 1
 62
   179
420
  2234388
370
    25
100
AcDbVertex
100
AcDb2dVertex
 10
98.34989110199635
 20
-119.5072469145676
 30
0.0
  0
VERTEX
  5
5D
330
5B
100
AcDbEntity
  8
_U+30EC_U+30A4_U+30E4_U+30FC 1
 62
   179
420
  2234388
370
    25
100
AcDbVertex
100
AcDb2dVertex
 10
98.34989110199635
 20
-120.5070191365398
 30
0.0
  0
SEQEND
  5
5E
330
5B
100
AcDbEntity
  8
_U+30EC_U+30A4_U+30E4_U+30FC 1
 62
   179
420
  2234388
370
    25
  0
POLYLINE
  5
5F
330
41
100
AcDbEntity
  8
_U+30EC_U+30A4_U+30E4_U+30FC 1
 62
   179
420
  2234388
370
    25
100
AcDb2dPolyline
 66
     1
 10
0.0
 20
0.0
 30
0.0
  0
VERTEX
  5
60
330
5F
100
AcDbEntity
  8
_U+30EC_U+30A4_U+30E4_U+30FC 1
 62
   179
420
  2234388
370
    25
100
AcDbVertex
100
AcDb2dVertex
 10
74.34964338096034
 20
-120.5070191365398
 30
0.0
  0
VERTEX
  5
61
330
5F
100
AcDbEntity
  8
_U+30EC_U+30A4_U+30E4_U+30FC 1
 62
   179
420
  2234388
370
    25
100
AcDbVertex
100
AcDb2dVertex
 10
98.34989110199635
 20
-120.5070191365398
 30
0.0
  0
SEQEND
  5
62
330
5F
100
AcDbEntity
  8
_U+30EC_U+30A4_U+30E4_U+30FC 1
 62
   179
420
  2234388
370
    25
  0
POLYLINE
  5
63
330
41
100
AcDbEntity
  8
_U+30EC_U+30A4_U+30E4_U+30FC 1
 62
   179
420
  2234388
370
    25
100
AcDb2dPolyline
 66
     1
 10
0.0
 20
0.0
 30
0.0
  0
VERTEX
  5
64
330
63
100
AcDbEntity
  8
_U+30EC_U+30A4_U+30E4_U+30FC 1
 62
   179
420
  2234388
370
    25
100
AcDbVertex
100
AcDb2dVertex
 10
83.34960398468556
 20
-136.1532780215171
 30
0.0
  0
VERTEX
  5
65
330
63
100
AcDbEntity
  8
_U+30EC_U+30A4_U+30E4_U+30FC 1
 62
   179
420
  2234388
370
    25
100
AcDbVertex
100
AcDb2dVertex
 10
83.34960398468556
 20
-139.1532649652114
 30
0.0
  0
SEQEND
  5
66
330
63
100
AcDbEntity
  8
_U+30EC_U+30A4_U+30E4_U+30FC 1
 62
   179
420
  2234388
370
    25
  0
POLYLINE
  5
67
330
41
100
AcDbEntity
  8
_U+30EC_U+30A4_U+30E4_U+30FC 1
 62
   179
420
  2234388
370
    25
100
AcDb2dPolyline
 66
     1
 10
0.0
 20
0.0
 30
0.0
  0
VERTEX
  5
68
330
67
100
AcDbEntity
  8
_U+30EC_U+30A4_U+30E4_U+30FC 1
 62
   179
420
  2234388
370
    25
100
AcDbVertex
100
AcDb2dVertex
 10
82.34983178796965
 20
-136.1532780215171
 30
0.0
  0
VERTEX
  5
69
330
67
100
AcDbEntity
  8
_U+30EC_U+30A4_U+30E4_U+30FC 1
 62
   179
420
  2234388
370
    25
100
AcDbVertex
100
AcDb2dVertex
 10
82.34983178796965
 20
-138.1528224654616
 30
0.0
  0
SEQEND
  5
6A
330
67
100
AcDbEntity
  8
_U+30EC_U+30A4_U+30E4_U+30FC 1
 62
   179
420
  2234388
370
    25
  0
POLYLINE
  5
6B
330
41
100
AcDbEntity
  8
_U+30EC_U+30A4_U+30E4_U+30FC 1
 62
   179
420
  2234388
370
    25
100
AcDb2dPolyline
 66
     1
 10
0.0
 20
0.0
 30
0.0
  0
VERTEX
  5
6C
330
6B
100
AcDbEntity
  8
_U+30EC_U+30A4_U+30E4_U+30FC 1
 62
   179
420
  2234388
370
    25
100
AcDbVertex
100
AcDb2dVertex
 10
74.34964338096034
 20
-120.5070191365398
 30
0.0
  0
VERTEX
  5
6D
330
6B
100
AcDbEntity
  8
_U+30EC_U+30A4_U+30E4_U+30FC 1
 62
   179
420
  2234388
370
    25
100
AcDbVertex
100
AcDb2dVertex
 10
74.34964338096034
 20
-138.1528224654616
 30
0.0
  0
SEQEND
  5
6E
330
6B
100
AcDbEntity
  8
_U+30EC_U+30A4_U+30E4_U+30FC 1
 62
   179
420
  2234388
370
    25
  0
POLYLINE
  5
6F
330
41
100
AcDbEntity
  8
_U+30EC_U+30A4_U+30E4_U+30FC 1
 62
   179
420
  2234388
370
    25
100
AcDb2dPolyline
 66
     1
 10
0.0
 20
0.0
 30
0.0
  0
VERTEX
  5
70
330
6F
100
AcDbEntity
  8
_U+30EC_U+30A4_U+30E4_U+30FC 1
 62
   179
420
  2234388
370
    25
100
AcDbVertex
100
AcDb2dVertex
 10
82.34983178796965
 20
-136.1532780215171
 30
0.0
  0
VERTEX
  5
71
330
6F
100
AcDbEntity
  8
_U+30EC_U+30A4_U+30E4_U+30FC 1
 62
   179
420
  2234388
370
    25
100
AcDbVertex
100
AcDb2dVertex
 10
83.34960398468556
 20
-136.1532780215171
 30
0.0
  0
SEQEND
  5
72
330
6F
100
AcDbEntity
  8
_U+30EC_U+30A4_U+30E4_U+30FC 1
 62
   179
420
  2234388
370
    25
  0
POLYLINE
  5
73
330
41
100
AcDbEntity
  8
_U+30EC_U+30A4_U+30E4_U+30FC 1
 62
   179
420
  2234388
370
    25
100
AcDb2dPolyline
 66
     1
 10
0.0
 20
0.0
 30
0.0
  0
VERTEX
  5
74
330
73
100
AcDbEntity
  8
_U+30EC_U+30A4_U+30E4_U+30FC 1
 62
   179
420
  2234388
370
    25
100
AcDbVertex
100
AcDb2dVertex
 10
73.34987118424444
 20
-139.2414594096338
 30
0.0
  0
VERTEX
  5
75
330
73
100
AcDbEntity
  8
_U+30EC_U+30A4_U+30E4_U+30FC 1
 62
   179
420
  2234388
370
    25
100
AcDbVertex
100
AcDb2dVertex
 10
83.34960398468556
 20
-139.2414594096338
 30
0.0
  0
SEQEND
  5
76
330
73
100
AcDbEntity
  8
_U+30EC_U+30A4_U+30E4_U+30FC 1
 62
   179
420
  2234388
370
    25
  0
POLYLINE
  5
77
330
41
100
AcDbEntity
  8
_U+30EC_U+30A4_U+30E4_U+30FC 1
 62
   179
420
  2234388
370
    25
100
AcDb2dPolyline
 66
     1
 10
0.0
 20
0.0
 30
0.0
  0
VERTEX
  5
78
330
77
100
AcDbEntity
  8
_U+30EC_U+30A4_U+30E4_U+30FC 1
 62
   179
420
  2234388
370
    25
100
AcDbVertex
100
AcDb2dVertex
 10
74.34964338096034
 20
-138.1528224654616
 30
0.0
  0
VERTEX
  5
79
330
77
100
AcDbEntity
  8
_U+30EC_U+30A4_U+30E4_U+30FC 1
 62
   179
420
  2234388
370
    25
100
AcDbVertex
100
AcDb2dVertex
 10
82.34983178796965
 20
-138.1528224654616
 30
0.0
  0
SEQEND
  5
7A
330
77
100
AcDbEntity
  8
_U+30EC_U+30A4_U+30E4_U+30FC 1
 62
   179
420
  2234388
370
    25
  0
SPLINE
  5
7B
330
41
100
AcDbEntity
  8
_U+30EC_U+30A4_U+30E4_U+30FC 1
 62
   179
420
  2234388
370
     9
100
AcDbSpline
210
0.0
220
0.0
230
1.0
 70
    11
 71
     3
 72
    17
 73
    13
 74
     0
 42
0.0000000001
 43
0.0000000001
 12
1.0
 22
0.0
 32
0.0
 13
1.0
 23
0.0
 33
0.0
 40
0.0
 40
0.0
 40
0.0
 40
0.0
 40
1.0
 40
1.0
 40
1.0
 40
2.0
 40
2.0
 40
2.0
 40
3.0
 40
3.0
 40
3.0
 40
4.0
 40
4.0
 40
4.0
 40
4.0
 10
73.44977784836227
 20
-115.5075230266785
 30
0.0
 10
73.44977784836227
 20
-115.4523838600258
 30
0.0
 10
73.4049750717275
 20
-115.4075810822594
 30
0.0
 10
73.34987118424444
 20
-115.4075810822594
 30
0.0
 10
73.29473201898449
 20
-115.4075810822594
 30
0.0
 10
73.24996452012661
 20
-115.4523838600258
 30
0.0
 10
73.24996452012661
 20
-115.5075230266785
 30
0.0
 10
73.24996452012661
 20
-115.5626269155538
 30
0.0
 10
73.29473201898449
 20
-115.6074296933205
 30
0.0
 10
73.34987118424444
 20
-115.6074296933205
 30
0.0
 10
73.4049750717275
 20
-115.6074296933205
 30
0.0
 10
73.44977784836227
 20
-115.5626269155538
 30
0.0
 10
73.44977784836227
 20
-115.5075230266785
 30
0.0
  0
SPLINE
  5
7C
330
41
100
AcDbEntity
  8
_U+30EC_U+30A4_U+30E4_U+30FC 1
 62
   179
420
  2234388
370
     9
100
AcDbSpline
210
0.0
220
0.0
230
1.0
 70
    11
 71
     3
 72
    17
 73
    13
 74
     0
 42
0.0000000001
 43
0.0000000001
 12
1.0
 22
0.0
 32
0.0
 13
1.0
 23
0.0
 33
0.0
 40
0.0
 40
0.0
 40
0.0
 40
0.0
 40
1.0
 40
1.0
 40
1.0
 40
2.0
 40
2.0
 40
2.0
 40
3.0
 40
3.0
 40
3.0
 40
4.0
 40
4.0
 40
4.0
 40
4.0
 10
98.44979776611419
 20
-115.5075230266785
 30
0.0
 10
98.44979776611419
 20
-115.4523838600258
 30
0.0
 10
98.40503026725631
 20
-115.4075810822594
 30
0.0
 10
98.34989110199635
 20
-115.4075810822594
 30
0.0
 10
98.29443443674451
 20
-115.4075810822594
 30
0.0
 10
98.24963166010974
 20
-115.4523838600258
 30
0.0
 10
98.24963166010974
 20
-115.5075230266785
 30
0.0
 10
98.24963166010974
 20
-115.5626269155538
 30
0.0
 10
98.29443443674451
 20
-115.6074296933205
 30
0.0
 10
98.34989110199635
 20
-115.6074296933205
 30
0.0
 10
98.40503026725631
 20
-115.6074296933205
 30
0.0
 10
98.44979776611419
 20
-115.5626269155538
 30
0.0
 10
98.44979776611419
 20
-115.5075230266785
 30
0.0
  0
SPLINE
  5
7D
330
41
100
AcDbEntity
  8
_U+30EC_U+30A4_U+30E4_U+30FC 1
 62
   179
420
  2234388
370
     9
100
AcDbSpline
210
0.0
220
0.0
230
1.0
 70
    11
 71
     3
 72
    17
 73
    13
 74
     0
 42
0.0000000001
 43
0.0000000001
 12
1.0
 22
0.0
 32
0.0
 13
1.0
 23
0.0
 33
0.0
 40
0.0
 40
0.0
 40
0.0
 40
0.0
 40
1.0
 40
1.0
 40
1.0
 40
2.0
 40
2.0
 40
2.0
 40
3.0
 40
3.0
 40
3.0
 40
4.0
 40
4.0
 40
4.0
 40
4.0
 10
102.4499096085073
 20
-119.5072469145676
 30
0.0
 10
102.4499096085073
 20
-119.4521430256926
 30
0.0
 10
102.4051068318725
 20
-119.4073402479259
 30
0.0
 10
102.3496527521904
 20
-119.4073402479259
 30
0.0
 10
102.2945462791376
 20
-119.4073402479259
 30
0.0
 10
102.2497435025028
 20
-119.4521430256926
 30
0.0
 10
102.2497435025028
 20
-119.5072469145676
 30
0.0
 10
102.2497435025028
 20
-119.5623860812207
 30
0.0
 10
102.2945462791376
 20
-119.6071535812092
 30
0.0
 10
102.3496527521904
 20
-119.6071535812092
 30
0.0
 10
102.4051068318725
 20
-119.6071535812092
 30
0.0
 10
102.4499096085073
 20
-119.5623860812207
 30
0.0
 10
102.4499096085073
 20
-119.5072469145676
 30
0.0
  0
SPLINE
  5
7E
330
41
100
AcDbEntity
  8
_U+30EC_U+30A4_U+30E4_U+30FC 1
 62
   179
420
  2234388
370
     9
100
AcDbSpline
210
0.0
220
0.0
230
1.0
 70
    11
 71
     3
 72
    17
 73
    13
 74
     0
 42
0.0000000001
 43
0.0000000001
 12
1.0
 22
0.0
 32
0.0
 13
1.0
 23
0.0
 33
0.0
 40
0.0
 40
0.0
 40
0.0
 40
0.0
 40
1.0
 40
1.0
 40
1.0
 40
2.0
 40
2.0
 40
2.0
 40
3.0
 40
3.0
 40
3.0
 40
4.0
 40
4.0
 40
4.0
 40
4.0
 10
102.4499096085073
 20
-120.5070191365398
 30
0.0
 10
102.4499096085073
 20
-120.4519152476649
 30
0.0
 10
102.4051068318725
 20
-120.4071124698982
 30
0.0
 10
102.3496527521904
 20
-120.4071124698982
 30
0.0
 10
102.2945462791376
 20
-120.4071124698982
 30
0.0
 10
102.2497435025028
 20
-120.4519152476649
 30
0.0
 10
102.2497435025028
 20
-120.5070191365398
 30
0.0
 10
102.2497435025028
 20
-120.5621583031929
 30
0.0
 10
102.2945462791376
 20
-120.6069258031818
 30
0.0
 10
102.3496527521904
 20
-120.6069258031818
 30
0.0
 10
102.4051068318725
 20
-120.6069258031818
 30
0.0
 10
102.4499096085073
 20
-120.5621583031929
 30
0.0
 10
102.4499096085073
 20
-120.5070191365398
 30
0.0
  0
SPLINE
  5
7F
330
41
100
AcDbEntity
  8
_U+30EC_U+30A4_U+30E4_U+30FC 1
 62
   179
420
  2234388
370
     9
100
AcDbSpline
210
0.0
220
0.0
230
1.0
 70
    11
 71
     3
 72
    17
 73
    13
 74
     0
 42
0.0000000001
 43
0.0000000001
 12
1.0
 22
0.0
 32
0.0
 13
1.0
 23
0.0
 33
0.0
 40
0.0
 40
0.0
 40
0.0
 40
0.0
 40
1.0
 40
1.0
 40
1.0
 40
2.0
 40
2.0
 40
2.0
 40
3.0
 40
3.0
 40
3.0
 40
4.0
 40
4.0
 40
4.0
 40
4.0
 10
102.4499096085073
 20
-136.0650835770947
 30
0.0
 10
102.4499096085073
 20
-136.0099444104423
 30
0.0
 10
102.4051068318725
 20
-135.9651769104531
 30
0.0
 10
102.3496527521904
 20
-135.9651769104531
 30
0.0
 10
102.2945462791376
 20
-135.9651769104531
 30
0.0
 10
102.2497435025028
 20
-136.0099444104423
 30
0.0
 10
102.2497435025028
 20
-136.0650835770947
 30
0.0
 10
102.2497435025028
 20
-136.1201874659703
 30
0.0
 10
102.2945462791376
 20
-136.1649902437364
 30
0.0
 10
102.3496527521904
 20
-136.1649902437364
 30
0.0
 10
102.4051068318725
 20
-136.1649902437364
 30
0.0
 10
102.4499096085073
 20
-136.1201874659703
 30
0.0
 10
102.4499096085073
 20
-136.0650835770947
 30
0.0
  0
SPLINE
  5
80
330
41
100
AcDbEntity
  8
_U+30EC_U+30A4_U+30E4_U+30FC 1
 62
   179
420
  2234388
370
     9
100
AcDbSpline
210
0.0
220
0.0
230
1.0
 70
    11
 71
     3
 72
    17
 73
    13
 74
     0
 42
0.0000000001
 43
0.0000000001
 12
1.0
 22
0.0
 32
0.0
 13
1.0
 23
0.0
 33
0.0
 40
0.0
 40
0.0
 40
0.0
 40
0.0
 40
1.0
 40
1.0
 40
1.0
 40
2.0
 40
2.0
 40
2.0
 40
3.0
 40
3.0
 40
3.0
 40
4.0
 40
4.0
 40
4.0
 40
4.0
 10
102.4499096085073
 20
-139.065070520789
 30
0.0
 10
102.4499096085073
 20
-139.0099313541366
 30
0.0
 10
102.4051068318725
 20
-138.9651638541474
 30
0.0
 10
102.3496527521904
 20
-138.9651638541474
 30
0.0
 10
102.2945462791376
 20
-138.9651638541474
 30
0.0
 10
102.2497435025028
 20
-139.0099313541366
 30
0.0
 10
102.2497435025028
 20
-139.065070520789
 30
0.0
 10
102.2497435025028
 20
-139.1201744096646
 30
0.0
 10
102.2945462791376
 20
-139.1649771874307
 30
0.0
 10
102.3496527521904
 20
-139.1649771874307
 30
0.0
 10
102.4051068318725
 20
-139.1649771874307
 30
0.0
 10
102.4499096085073
 20
-139.1201744096646
 30
0.0
 10
102.4499096085073
 20
-139.065070520789
 30
0.0
  0
SPLINE
  5
81
330
41
100
AcDbEntity
  8
_U+30EC_U+30A4_U+30E4_U+30FC 1
 62
   179
420
  2234388
370
     9
100
AcDbSpline
210
0.0
220
0.0
230
1.0
 70
    11
 71
     3
 72
    17
 73
    13
 74
     0
 42
0.0000000001
 43
0.0000000001
 12
1.0
 22
0.0
 32
0.0
 13
1.0
 23
0.0
 33
0.0
 40
0.0
 40
0.0
 40
0.0
 40
0.0
 40
1.0
 40
1.0
 40
1.0
 40
2.0
 40
2.0
 40
2.0
 40
3.0
 40
3.0
 40
3.0
 40
4.0
 40
4.0
 40
4.0
 40
4.0
 10
83.4495106488034
 20
-144.2117102417248
 30
0.0
 10
83.4495106488034
 20
-144.1559007972944
 30
0.0
 10
83.4047431499455
 20
-144.1110980195277
 30
0.0
 10
83.34960398468556
 20
-144.1110980195277
 30
0.0
 10
83.29450009720249
 20
-144.1110980195277
 30
0.0
 10
83.24969732056772
 20
-144.1559007972944
 30
0.0
 10
83.24969732056772
 20
-144.2117102417248
 30
0.0
 10
83.24969732056772
 20
-144.2668141305998
 30
0.0
 10
83.29450009720249
 20
-144.3116169083665
 30
0.0
 10
83.34960398468556
 20
-144.3116169083665
 30
0.0
 10
83.4047431499455
 20
-144.3116169083665
 30
0.0
 10
83.4495106488034
 20
-144.2668141305998
 30
0.0
 10
83.4495106488034
 20
-144.2117102417248
 30
0.0
  0
SPLINE
  5
82
330
41
100
AcDbEntity
  8
_U+30EC_U+30A4_U+30E4_U+30FC 1
 62
   179
420
  2234388
370
     9
100
AcDbSpline
210
0.0
220
0.0
230
1.0
 70
    11
 71
     3
 72
    17
 73
    13
 74
     0
 42
0.0000000001
 43
0.0000000001
 12
1.0
 22
0.0
 32
0.0
 13
1.0
 23
0.0
 33
0.0
 40
0.0
 40
0.0
 40
0.0
 40
0.0
 40
1.0
 40
1.0
 40
1.0
 40
2.0
 40
2.0
 40
2.0
 40
3.0
 40
3.0
 40
3.0
 40
4.0
 40
4.0
 40
4.0
 40
4.0
 10
73.44977784836227
 20
-144.2117102417248
 30
0.0
 10
73.44977784836227
 20
-144.1559007972944
 30
0.0
 10
73.4049750717275
 20
-144.1110980195277
 30
0.0
 10
73.34987118424444
 20
-144.1110980195277
 30
0.0
 10
73.29473201898449
 20
-144.1110980195277
 30
0.0
 10
73.24996452012661
 20
-144.1559007972944
 30
0.0
 10
73.24996452012661
 20
-144.2117102417248
 30
0.0
 10
73.24996452012661
 20
-144.2668141305998
 30
0.0
 10
73.29473201898449
 20
-144.3116169083665
 30
0.0
 10
73.34987118424444
 20
-144.3116169083665
 30
0.0
 10
73.4049750717275
 20
-144.3116169083665
 30
0.0
 10
73.44977784836227
 20
-144.2668141305998
 30
0.0
 10
73.44977784836227
 20
-144.2117102417248
 30
0.0
  0
POLYLINE
  5
83
330
41
100
AcDbEntity
  8
_U+30EC_U+30A4_U+30E4_U+30FC 1
 62
   179
420
  2234388
370
     9
100
AcDb2dPolyline
 66
     1
 10
0.0
 20
0.0
 30
0.0
  0
VERTEX
  5
84
330
83
100
AcDbEntity
  8
_U+30EC_U+30A4_U+30E4_U+30FC 1
 62
   179
420
  2234388
370
     9
100
AcDbVertex
100
AcDb2dVertex
 10
102.3496527521904
 20
-119.5072469145676
 30
0.0
  0
VERTEX
  5
85
330
83
100
AcDbEntity
  8
_U+30EC_U+30A4_U+30E4_U+30FC 1
 62
   179
420
  2234388
370
     9
100
AcDbVertex
100
AcDb2dVertex
 10
102.3496527521904
 20
-115.7369344155101
 30
0.0
  0
SEQEND
  5
86
330
83
100
AcDbEntity
  8
_U+30EC_U+30A4_U+30E4_U+30FC 1
 62
   179
420
  2234388
370
     9
  0
POLYLINE
  5
87
330
41
100
AcDbEntity
  8
_U+30EC_U+30A4_U+30E4_U+30FC 1
 62
   179
420
  2234388
370
     9
100
AcDb2dPolyline
 66
     1
 10
0.0
 20
0.0
 30
0.0
  0
VERTEX
  5
88
330
87
100
AcDbEntity
  8
_U+30EC_U+30A4_U+30E4_U+30FC 1
 62
   179
420
  2234388
370
     9
100
AcDbVertex
100
AcDb2dVertex
 10
102.3496527521904
 20
-119.5072469145676
 30
0.0
  0
VERTEX
  5
89
330
87
100
AcDbEntity
  8
_U+30EC_U+30A4_U+30E4_U+30FC 1
 62
   179
420
  2234388
370
     9
100
AcDbVertex
100
AcDb2dVertex
 10
102.3496527521904
 20
-120.5070191365398
 30
0.0
  0
SEQEND
  5
8A
330
87
100
AcDbEntity
  8
_U+30EC_U+30A4_U+30E4_U+30FC 1
 62
   179
420
  2234388
370
     9
  0
POLYLINE
  5
8B
330
41
100
AcDbEntity
  8
_U+30EC_U+30A4_U+30E4_U+30FC 1
 62
   179
420
  2234388
370
     9
100
AcDb2dPolyline
 66
     1
 10
0.0
 20
0.0
 30
0.0
  0
VERTEX
  5
8C
330
8B
100
AcDbEntity
  8
_U+30EC_U+30A4_U+30E4_U+30FC 1
 62
   179
420
  2234388
370
     9
100
AcDbVertex
100
AcDb2dVertex
 10
100.8896088149805
 20
-119.5072469145676
 30
0.0
  0
VERTEX
  5
8D
330
8B
100
AcDbEntity
  8
_U+30EC_U+30A4_U+30E4_U+30FC 1
 62
   179
420
  2234388
370
     9
100
AcDbVertex
100
AcDb2dVertex
 10
103.34977775194
 20
-119.5072469145676
 30
0.0
  0
SEQEND
  5
8E
330
8B
100
AcDbEntity
  8
_U+30EC_U+30A4_U+30E4_U+30FC 1
 62
   179
420
  2234388
370
     9
  0
POLYLINE
  5
8F
330
41
100
AcDbEntity
  8
_U+30EC_U+30A4_U+30E4_U+30FC 1
 62
   179
420
  2234388
370
     9
100
AcDb2dPolyline
 66
     1
 10
0.0
 20
0.0
 30
0.0
  0
VERTEX
  5
90
330
8F
100
AcDbEntity
  8
_U+30EC_U+30A4_U+30E4_U+30FC 1
 62
   179
420
  2234388
370
     9
100
AcDbVertex
100
AcDb2dVertex
 10
100.8896088149805
 20
-120.5070191365398
 30
0.0
  0
VERTEX
  5
91
330
8F
100
AcDbEntity
  8
_U+30EC_U+30A4_U+30E4_U+30FC 1
 62
   179
420
  2234388
370
     9
100
AcDbVertex
100
AcDb2dVertex
 10
103.34977775194
 20
-120.5070191365398
 30
0.0
  0
SEQEND
  5
92
330
8F
100
AcDbEntity
  8
_U+30EC_U+30A4_U+30E4_U+30FC 1
 62
   179
420
  2234388
370
     9
  0
INSERT
  5
94
330
41
100
AcDbEntity
  8
_U+30EC_U+30A4_U+30E4_U+30FC 1
100
AcDbBlockReference
  2
block 3
 10
0.0
 20
0.0
 30
0.0
  0
POLYLINE
  5
99
330
41
100
AcDbEntity
  8
_U+30EC_U+30A4_U+30E4_U+30FC 1
 62
   179
420
  2234388
370
     9
100
AcDb2dPolyline
 66
     1
 10
0.0
 20
0.0
 30
0.0
  0
VERTEX
  5
9A
330
99
100
AcDbEntity
  8
_U+30EC_U+30A4_U+30E4_U+30FC 1
 62
   179
420
  2234388
370
     9
100
AcDbVertex
100
AcDb2dVertex
 10
102.3496527521904
 20
-136.0650835770947
 30
0.0
  0
VERTEX
  5
9B
330
99
100
AcDbEntity
  8
_U+30EC_U+30A4_U+30E4_U+30FC 1
 62
   179
420
  2234388
370
     9
100
AcDbVertex
100
AcDb2dVertex
 10
102.3496527521904
 20
-139.065070520789
 30
0.0
  0
SEQEND
  5
9C
330
99
100
AcDbEntity
  8
_U+30EC_U+30A4_U+30E4_U+30FC 1
 62
   179
420
  2234388
370
     9
  0
POLYLINE
  5
9D
330
41
100
AcDbEntity
  8
_U+30EC_U+30A4_U+30E4_U+30FC 1
 62
   179
420
  2234388
370
     9
100
AcDb2dPolyline
 66
     1
 10
0.0
 20
0.0
 30
0.0
  0
VERTEX
  5
9E
330
9D
100
AcDbEntity
  8
_U+30EC_U+30A4_U+30E4_U+30FC 1
 62
   179
420
  2234388
370
     9
100
AcDbVertex
100
AcDb2dVertex
 10
85.88967447543851
 20
-139.065070520789
 30
0.0
  0
VERTEX
  5
9F
330
9D
100
AcDbEntity
  8
_U+30EC_U+30A4_U+30E4_U+30FC 1
 62
   179
420
  2234388
370
     9
100
AcDbVertex
100
AcDb2dVertex
 10
103.34977775194
 20
-139.065070520789
 30
0.0
  0
SEQEND
  5
A0
330
9D
100
AcDbEntity
  8
_U+30EC_U+30A4_U+30E4_U+30FC 1
 62
   179
420
  2234388
370
     9
  0
INSERT
  5
A2
330
41
100
AcDbEntity
  8
_U+30EC_U+30A4_U+30E4_U+30FC 1
100
AcDbBlockReference
  2
block 4
 10
0.0
 20
0.0
 30
0.0
  0
POLYLINE
  5
A7
330
41
100
AcDbEntity
  8
_U+30EC_U+30A4_U+30E4_U+30FC 1
 62
   179
420
  2234388
370
     9
100
AcDb2dPolyline
 66
     1
 10
0.0
 20
0.0
 30
0.0
  0
VERTEX
  5
A8
330
A7
100
AcDbEntity
  8
_U+30EC_U+30A4_U+30E4_U+30FC 1
 62
   179
420
  2234388
370
     9
100
AcDbVertex
100
AcDb2dVertex
 10
73.34987118424444
 20
-144.2117102417248
 30
0.0
  0
VERTEX
  5
A9
330
A7
100
AcDbEntity
  8
_U+30EC_U+30A4_U+30E4_U+30FC 1
 62
   179
420
  2234388
370
     9
100
AcDbVertex
100
AcDb2dVertex
 10
83.34960398468556
 20
-144.2117102417248
 30
0.0
  0
SEQEND
  5
AA
330
A7
100
AcDbEntity
  8
_U+30EC_U+30A4_U+30E4_U+30FC 1
 62
   179
420
  2234388
370
     9
  0
POLYLINE
  5
AB
330
41
100
AcDbEntity
  8
_U+30EC_U+30A4_U+30E4_U+30FC 1
 62
   179
420
  2234388
370
     9
100
AcDb2dPolyline
 66
     1
 10
0.0
 20
0.0
 30
0.0
  0
VERTEX
  5
AC
330
AB
100
AcDbEntity
  8
_U+30EC_U+30A4_U+30E4_U+30FC 1
 62
   179
420
  2234388
370
     9
100
AcDbVertex
100
AcDb2dVertex
 10
73.34987118424444
 20
-142.7516688532011
 30
0.0
  0
VERTEX
  5
AD
330
AB
100
AcDbEntity
  8
_U+30EC_U+30A4_U+30E4_U+30FC 1
 62
   179
420
  2234388
370
     9
100
AcDbVertex
100
AcDb2dVertex
 10
73.34987118424444
 20
-145.2114471859192
 30
0.0
  0
SEQEND
  5
AE
330
AB
100
AcDbEntity
  8
_U+30EC_U+30A4_U+30E4_U+30FC 1
 62
   179
420
  2234388
370
     9
  0
POLYLINE
  5
AF
330
41
100
AcDbEntity
  8
_U+30EC_U+30A4_U+30E4_U+30FC 1
 62
   179
420
  2234388
370
     9
100
AcDb2dPolyline
 66
     1
 10
0.0
 20
0.0
 30
0.0
  0
VERTEX
  5
B0
330
AF
100
AcDbEntity
  8
_U+30EC_U+30A4_U+30E4_U+30FC 1
 62
   179
420
  2234388
370
     9
100
AcDbVertex
100
AcDb2dVertex
 10
83.34960398468556
 20
-142.7516688532011
 30
0.0
  0
VERTEX
  5
B1
330
AF
100
AcDbEntity
  8
_U+30EC_U+30A4_U+30E4_U+30FC 1
 62
   179
420
  2234388
370
     9
100
AcDbVertex
100
AcDb2dVertex
 10
83.34960398468556
 20
-145.2114471859192
 30
0.0
  0
SEQEND
  5
B2
330
AF
100
AcDbEntity
  8
_U+30EC_U+30A4_U+30E4_U+30FC 1
 62
   179
420
  2234388
370
     9
  0
INSERT
  5
B4
330
41
100
AcDbEntity
  8
_U+30EC_U+30A4_U+30E4_U+30FC 1
100
AcDbBlockReference
  2
block 5
 10
0.0
 20
0.0
 30
0.0
  0
POLYLINE
  5
BC
330
41
100
AcDbEntity
  8
_U+30EC_U+30A4_U+30E4_U+30FC 1
 62
   179
420
  2234388
370
     9
100
AcDb2dPolyline
 66
     1
 10
0.0
 20
0.0
 30
0.0
  0
VERTEX
  5
BD
330
BC
100
AcDbEntity
  8
_U+30EC_U+30A4_U+30E4_U+30FC 1
 62
   179
420
  2234388
370
     9
100
AcDbVertex
100
AcDb2dVertex
 10
73.34987118424444
 20
-115.5075230266785
 30
0.0
  0
VERTEX
  5
BE
330
BC
100
AcDbEntity
  8
_U+30EC_U+30A4_U+30E4_U+30FC 1
 62
   179
420
  2234388
370
     9
100
AcDbVertex
100
AcDb2dVertex
 10
98.34989110199635
 20
-115.5075230266785
 30
0.0
  0
SEQEND
  5
BF
330
BC
100
AcDbEntity
  8
_U+30EC_U+30A4_U+30E4_U+30FC 1
 62
   179
420
  2234388
370
     9
  0
POLYLINE
  5
C0
330
41
100
AcDbEntity
  8
_U+30EC_U+30A4_U+30E4_U+30FC 1
 62
   179
420
  2234388
370
     9
100
AcDb2dPolyline
 66
     1
 10
0.0
 20
0.0
 30
0.0
  0
VERTEX
  5
C1
330
C0
100
AcDbEntity
  8
_U+30EC_U+30A4_U+30E4_U+30FC 1
 62
   179
420
  2234388
370
     9
100
AcDbVertex
100
AcDb2dVertex
 10
73.34987118424444
 20
-116.966858859647
 30
0.0
  0
VERTEX
  5
C2
330
C0
100
AcDbEntity
  8
_U+30EC_U+30A4_U+30E4_U+30FC 1
 62
   179
420
  2234388
370
     9
100
AcDbVertex
100
AcDb2dVertex
 10
73.34987118424444
 20
-114.5070452491511
 30
0.0
  0
SEQEND
  5
C3
330
C0
100
AcDbEntity
  8
_U+30EC_U+30A4_U+30E4_U+30FC 1
 62
   179
420
  2234388
370
     9
  0
POLYLINE
  5
C4
330
41
100
AcDbEntity
  8
_U+30EC_U+30A4_U+30E4_U+30FC 1
 62
   179
420
  2234388
370
     9
100
AcDb2dPolyline
 66
     1
 10
0.0
 20
0.0
 30
0.0
  0
VERTEX
  5
C5
330
C4
100
AcDbEntity
  8
_U+30EC_U+30A4_U+30E4_U+30FC 1
 62
   179
420
  2234388
370
     9
100
AcDbVertex
100
AcDb2dVertex
 10
98.34989110199635
 20
-116.966858859647
 30
0.0
  0
VERTEX
  5
C6
330
C4
100
AcDbEntity
  8
_U+30EC_U+30A4_U+30E4_U+30FC 1
 62
   179
420
  2234388
370
     9
100
AcDbVertex
100
AcDb2dVertex
 10
98.34989110199635
 20
-114.5070452491511
 30
0.0
  0
SEQEND
  5
C7
330
C4
100
AcDbEntity
  8
_U+30EC_U+30A4_U+30E4_U+30FC 1
 62
   179
420
  2234388
370
     9
  0
INSERT
  5
C9
330
41
100
AcDbEntity
  8
_U+30EC_U+30A4_U+30E4_U+30FC 1
100
AcDbBlockReference
  2
block 6
 10
0.0
 20
0.0
 30
0.0
  0
POLYLINE
  5
D0
330
41
100
AcDbEntity
  8
_U+30EC_U+30A4_U+30E4_U+30FC 1
 62
   179
420
  2234388
370
     9
100
AcDb2dPolyline
 66
     1
 10
0.0
 20
0.0
 30
0.0
  0
VERTEX
  5
D1
330
D0
100
AcDbEntity
  8
_U+30EC_U+30A4_U+30E4_U+30FC 1
 62
   179
420
  2234388
370
     9
100
AcDbVertex
100
AcDb2dVertex
 10
102.3496527521904
 20
-136.0071927437759
 30
0.0
  0
VERTEX
  5
D2
330
D0
100
AcDbEntity
  8
_U+30EC_U+30A4_U+30E4_U+30FC 1
 62
   179
420
  2234388
370
     9
100
AcDbVertex
100
AcDb2dVertex
 10
102.3496527521904
 20
-120.5070191365398
 30
0.0
  0
SEQEND
  5
D3
330
D0
100
AcDbEntity
  8
_U+30EC_U+30A4_U+30E4_U+30FC 1
 62
   179
420
  2234388
370
     9
  0
POLYLINE
  5
D4
330
41
100
AcDbEntity
  8
_U+30EC_U+30A4_U+30E4_U+30FC 1
 62
   179
420
  2234388
370
     9
100
AcDb2dPolyline
 66
     1
 10
0.0
 20
0.0
 30
0.0
  0
VERTEX
  5
D5
330
D4
100
AcDbEntity
  8
_U+30EC_U+30A4_U+30E4_U+30FC 1
 62
   179
420
  2234388
370
     9
100
AcDbVertex
100
AcDb2dVertex
 10
85.88967447543851
 20
-136.0650835770947
 30
0.0
  0
VERTEX
  5
D6
330
D4
100
AcDbEntity
  8
_U+30EC_U+30A4_U+30E4_U+30FC 1
 62
   179
420
  2234388
370
     9
100
AcDbVertex
100
AcDb2dVertex
 10
103.34977775194
 20
-136.0650835770947
 30
0.0
  0
SEQEND
  5
D7
330
D4
100
AcDbEntity
  8
_U+30EC_U+30A4_U+30E4_U+30FC 1
 62
   179
420
  2234388
370
     9
  0
INSERT
  5
D9
330
41
100
AcDbEntity
  8
_U+30EC_U+30A4_U+30E4_U+30FC 1
100
AcDbBlockReference
  2
block 7
 10
0.0
 20
0.0
 30
0.0
  0
ENDBLK
  5
44
330
41
100
AcDbEntity
  8
0
100
AcDbBlockEnd
  0
BLOCK
  5
95
330
93
100
AcDbEntity
  8
0
100
AcDbBlockBegin
  2
block 3
 70
     0
 10
0.0
 20
0.0
 30
0.0
  3
block 3
  1

  0
SPLINE
  5
97
330
93
100
AcDbEntity
  8
_U+30EC_U+30A4_U+30E4_U+30FC 1
370
     0
100
AcDbSpline
210
0.0
220
0.0
230
1.0
 70
    11
 71
     3
 72
    26
 73
    22
 74
     0
 42
0.0000000001
 43
0.0000000001
 12
1.0
 22
0.0
 32
0.0
 13
1.0
 23
0.0
 33
0.0
 40
0.0
 40
0.0
 40
0.0
 40
0.0
 40
1.0
 40
1.0
 40
1.0
 40
2.0
 40
2.0
 40
2.0
 40
3.0
 40
3.0
 40
3.0
 40
4.0
 40
4.0
 40
4.0
 40
5.0
 40
5.0
 40
5.0
 40
6.0
 40
6.0
 40
6.0
 40
7.0
 40
7.0
 40
7.0
 40
7.0
 10
106.6425862363602
 20
-120.0850043102565
 30
0.0
 10
106.6425862363602
 20
-120.0850043102565
 30
0.0
 10
105.5384331333376
 20
-120.0850043102565
 30
0.0
 10
105.5384331333376
 20
-120.0850043102565
 30
0.0
 10
105.5384331333376
 20
-120.0850043102565
 30
0.0
 10
105.5384331333376
 20
-120.4150444577435
 30
0.0
 10
105.5384331333376
 20
-120.4150444577435
 30
0.0
 10
105.5384331333376
 20
-120.4150444577435
 30
0.0
 10
105.3902940274719
 20
-120.4150444577435
 30
0.0
 10
105.3902940274719
 20
-120.4150444577435
 30
0.0
 10
105.3754801168853
 20
-120.0829372529654
 30
0.0
 10
105.212527100433
 20
-120.0364284639145
 30
0.0
 10
105.0981499303227
 20
-120.0068006427414
 30
0.0
 10
105.0981499303227
 20
-120.0068006427414
 30
0.0
 10
105.0981499303227
 20
-119.8607285941668
 30
0.0
 10
105.0981499303227
 20
-119.8607285941668
 30
0.0
 10
105.0981499303227
 20
-119.8607285941668
 30
0.0
 10
106.6425862363602
 20
-119.8607285941668
 30
0.0
 10
106.6425862363602
 20
-119.8607285941668
 30
0.0
 10
106.6425862363602
 20
-119.8607285941668
 30
0.0
 10
106.6425862363602
 20
-120.0850043102565
 30
0.0
 10
106.6425862363602
 20
-120.0850043102565
 30
0.0
  0
HATCH
  5
98
330
93
100
AcDbEntity
  8
_U+30EC_U+30A4_U+30E4_U+30FC 1
 62
   179
420
  2234388
100
AcDbHatch
 10
0.0
 20
0.0
 30
0.0
210
0.0
220
0.0
230
1.0
  2
SOLID
 70
     1
 71
     0
 91
        1
 92
        1
 93
        1
 72
     4
 94
        3
 73
     0
 74
     1
 95
       26
 96
       22
 40
0.0
 40
0.0
 40
0.0
 40
0.0
 40
1.0
 40
1.0
 40
1.0
 40
2.0
 40
2.0
 40
2.0
 40
3.0
 40
3.0
 40
3.0
 40
4.0
 40
4.0
 40
4.0
 40
5.0
 40
5.0
 40
5.0
 40
6.0
 40
6.0
 40
6.0
 40
7.0
 40
7.0
 40
7.0
 40
7.0
 10
106.6425862363602
 20
-120.0850043102565
 10
106.6425862363602
 20
-120.0850043102565
 10
105.5384331333376
 20
-120.0850043102565
 10
105.5384331333376
 20
-120.0850043102565
 10
105.5384331333376
 20
-120.0850043102565
 10
105.5384331333376
 20
-120.4150444577435
 10
105.5384331333376
 20
-120.4150444577435
 10
105.5384331333376
 20
-120.4150444577435
 10
105.3902940274719
 20
-120.4150444577435
 10
105.3902940274719
 20
-120.4150444577435
 10
105.3754801168853
 20
-120.0829372529654
 10
105.212527100433
 20
-120.0364284639145
 10
105.0981499303227
 20
-120.0068006427414
 10
105.0981499303227
 20
-120.0068006427414
 10
105.0981499303227
 20
-119.8607285941668
 10
105.0981499303227
 20
-119.8607285941668
 10
105.0981499303227
 20
-119.8607285941668
 10
106.6425862363602
 20
-119.8607285941668
 10
106.6425862363602
 20
-119.8607285941668
 10
106.6425862363602
 20
-119.8607285941668
 10
106.6425862363602
 20
-120.0850043102565
 10
106.6425862363602
 20
-120.0850043102565
 97
        0
 97
        0
 75
     2
 76
     1
 98
        0
  0
ENDBLK
  5
96
330
93
100
AcDbEntity
  8
0
100
AcDbBlockEnd
  0
BLOCK
  5
A3
330
A1
100
AcDbEntity
  8
0
100
AcDbBlockBegin
  2
block 4
 70
     0
 10
0.0
 20
0.0
 30
0.0
  3
block 4
  1

  0
SPLINE
  5
A5
330
A1
100
AcDbEntity
  8
_U+30EC_U+30A4_U+30E4_U+30FC 1
370
     0
100
AcDbSpline
210
0.0
220
0.0
230
1.0
 70
    11
 71
     3
 72
    62
 73
    58
 74
     0
 42
0.0000000001
 43
0.0000000001
 12
1.0
 22
0.0
 32
0.0
 13
1.0
 23
0.0
 33
0.0
 40
0.0
 40
0.0
 40
0.0
 40
0.0
 40
1.0
 40
1.0
 40
1.0
 40
2.0
 40
2.0
 40
2.0
 40
3.0
 40
3.0
 40
3.0
 40
4.0
 40
4.0
 40
4.0
 40
5.0
 40
5.0
 40
5.0
 40
6.0
 40
6.0
 40
6.0
 40
7.0
 40
7.0
 40
7.0
 40
8.0
 40
8.0
 40
8.0
 40
9.0
 40
9.0
 40
9.0
 40
10.0
 40
10.0
 40
10.0
 40
11.0
 40
11.0
 40
11.0
 40
12.0
 40
12.0
 40
12.0
 40
13.0
 40
13.0
 40
13.0
 40
14.0
 40
14.0
 40
14.0
 40
15.0
 40
15.0
 40
15.0
 40
16.0
 40
16.0
 40
16.0
 40
17.0
 40
17.0
 40
17.0
 40
18.0
 40
18.0
 40
18.0
 40
19.0
 40
19.0
 40
19.0
 40
19.0
 10
101.7543402523392
 20
-137.5747205602244
 30
0.0
 10
101.7543402523392
 20
-137.6701497051658
 30
0.0
 10
101.7333251698792
 20
-137.8878797398336
 30
0.0
 10
101.5472900136757
 20
-138.0129367059482
 30
0.0
 10
101.4349799008565
 20
-138.087006258881
 30
0.0
 10
101.3357611508813
 20
-138.0911403734633
 30
0.0
 10
101.2510118019442
 20
-138.0952744880456
 30
0.0
 10
101.2510118019442
 20
-138.0952744880456
 30
0.0
 10
101.2510118019442
 20
-137.8751328865382
 30
0.0
 10
101.2510118019442
 20
-137.8751328865382
 30
0.0
 10
101.3250813548771
 20
-137.873065829247
 30
0.0
 10
101.5596923574226
 20
-137.8627305427913
 30
0.0
 10
101.5596923574226
 20
-137.5791991843552
 30
0.0
 10
101.5596923574226
 20
-137.4417398744937
 30
0.0
 10
101.4901014286205
 20
-137.2891221444972
 30
0.0
 10
101.2616915979485
 20
-137.2891221444972
 30
0.0
 10
101.145247370547
 20
-137.2891221444972
 30
0.0
 10
101.096671524205
 20
-137.3273627043834
 30
0.0
 10
101.0649766457407
 20
-137.3590575828478
 30
0.0
 10
100.9909070928078
 20
-137.4331271357806
 30
0.0
 10
100.9781602395124
 20
-137.5495713631821
 30
0.0
 10
100.9781602395124
 20
-137.6043483813975
 30
0.0
 10
100.9781602395124
 20
-137.6236409161149
 30
0.0
 10
100.9802272968036
 20
-137.6594699091615
 30
0.0
 10
100.9843614113859
 20
-137.6870306730435
 30
0.0
 10
100.9843614113859
 20
-137.6870306730435
 30
0.0
 10
100.7897135164692
 20
-137.6870306730435
 30
0.0
 10
100.7897135164692
 20
-137.6870306730435
 30
0.0
 10
100.7962591978912
 20
-137.6487901131572
 30
0.0
 10
100.7983262551824
 20
-137.6067599482372
 30
0.0
 10
100.7983262551824
 20
-137.6002142668152
 30
0.0
 10
100.7983262551824
 20
-137.5347574525955
 30
0.0
 10
100.7769666631738
 20
-137.3359754430966
 30
0.0
 10
100.5402886033372
 20
-137.3359754430966
 30
0.0
 10
100.3625216762983
 20
-137.3359754430966
 30
0.0
 10
100.3074001485343
 20
-137.4668890715361
 30
0.0
 10
100.3074001485343
 20
-137.5771321270641
 30
0.0
 10
100.3074001485343
 20
-137.8413709507827
 30
0.0
 10
100.5402886033372
 20
-137.8499836894958
 30
0.0
 10
100.6119465894303
 20
-137.8541178040782
 30
0.0
 10
100.6119465894303
 20
-137.8541178040782
 30
0.0
 10
100.6119465894303
 20
-138.0573784377079
 30
0.0
 10
100.6119465894303
 20
-138.0573784377079
 30
0.0
 10
100.4872341328643
 20
-138.0487656989948
 30
0.0
 10
100.1106851963265
 20
-138.0212049351128
 30
0.0
 10
100.1106851963265
 20
-137.5643852737686
 30
0.0
 10
100.1106851963265
 20
-137.3401095576789
 30
0.0
 10
100.2378092197322
 20
-137.0989528737114
 30
0.0
 10
100.5337429219152
 20
-137.0989528737114
 30
0.0
 10
100.7201225876672
 20
-137.0989528737114
 30
0.0
 10
100.8024603697647
 20
-137.1940375091043
 30
0.0
 10
100.8637830694021
 20
-137.293600768628
 30
0.0
 10
100.8913438332841
 20
-137.2322780689906
 30
0.0
 10
100.9716145580904
 20
-137.0503770273694
 30
0.0
 10
101.248944744653
 20
-137.0503770273694
 30
0.0
 10
101.5872531213046
 20
-137.0503770273694
 30
0.0
 10
101.7543402523392
 20
-137.2977348832103
 30
0.0
 10
101.7543402523392
 20
-137.5747205602244
 30
0.0
  0
HATCH
  5
A6
330
A1
100
AcDbEntity
  8
_U+30EC_U+30A4_U+30E4_U+30FC 1
 62
   179
420
  2234388
100
AcDbHatch
 10
0.0
 20
0.0
 30
0.0
210
0.0
220
0.0
230
1.0
  2
SOLID
 70
     1
 71
     0
 91
        1
 92
        1
 93
        1
 72
     4
 94
        3
 73
     0
 74
     1
 95
       62
 96
       58
 40
0.0
 40
0.0
 40
0.0
 40
0.0
 40
1.0
 40
1.0
 40
1.0
 40
2.0
 40
2.0
 40
2.0
 40
3.0
 40
3.0
 40
3.0
 40
4.0
 40
4.0
 40
4.0
 40
5.0
 40
5.0
 40
5.0
 40
6.0
 40
6.0
 40
6.0
 40
7.0
 40
7.0
 40
7.0
 40
8.0
 40
8.0
 40
8.0
 40
9.0
 40
9.0
 40
9.0
 40
10.0
 40
10.0
 40
10.0
 40
11.0
 40
11.0
 40
11.0
 40
12.0
 40
12.0
 40
12.0
 40
13.0
 40
13.0
 40
13.0
 40
14.0
 40
14.0
 40
14.0
 40
15.0
 40
15.0
 40
15.0
 40
16.0
 40
16.0
 40
16.0
 40
17.0
 40
17.0
 40
17.0
 40
18.0
 40
18.0
 40
18.0
 40
19.0
 40
19.0
 40
19.0
 40
19.0
 10
101.7543402523392
 20
-137.5747205602244
 10
101.7543402523392
 20
-137.6701497051658
 10
101.7333251698792
 20
-137.8878797398336
 10
101.5472900136757
 20
-138.0129367059482
 10
101.4349799008565
 20
-138.087006258881
 10
101.3357611508813
 20
-138.0911403734633
 10
101.2510118019442
 20
-138.0952744880456
 10
101.2510118019442
 20
-138.0952744880456
 10
101.2510118019442
 20
-137.8751328865382
 10
101.2510118019442
 20
-137.8751328865382
 10
101.3250813548771
 20
-137.873065829247
 10
101.5596923574226
 20
-137.8627305427913
 10
101.5596923574226
 20
-137.5791991843552
 10
101.5596923574226
 20
-137.4417398744937
 10
101.4901014286205
 20
-137.2891221444972
 10
101.2616915979485
 20
-137.2891221444972
 10
101.145247370547
 20
-137.2891221444972
 10
101.096671524205
 20
-137.3273627043834
 10
101.0649766457407
 20
-137.3590575828478
 10
100.9909070928078
 20
-137.4331271357806
 10
100.9781602395124
 20
-137.5495713631821
 10
100.9781602395124
 20
-137.6043483813975
 10
100.9781602395124
 20
-137.6236409161149
 10
100.9802272968036
 20
-137.6594699091615
 10
100.9843614113859
 20
-137.6870306730435
 10
100.9843614113859
 20
-137.6870306730435
 10
100.7897135164692
 20
-137.6870306730435
 10
100.7897135164692
 20
-137.6870306730435
 10
100.7962591978912
 20
-137.6487901131572
 10
100.7983262551824
 20
-137.6067599482372
 10
100.7983262551824
 20
-137.6002142668152
 10
100.7983262551824
 20
-137.5347574525955
 10
100.7769666631738
 20
-137.3359754430966
 10
100.5402886033372
 20
-137.3359754430966
 10
100.3625216762983
 20
-137.3359754430966
 10
100.3074001485343
 20
-137.4668890715361
 10
100.3074001485343
 20
-137.5771321270641
 10
100.3074001485343
 20
-137.8413709507827
 10
100.5402886033372
 20
-137.8499836894958
 10
100.6119465894303
 20
-137.8541178040782
 10
100.6119465894303
 20
-137.8541178040782
 10
100.6119465894303
 20
-138.0573784377079
 10
100.6119465894303
 20
-138.0573784377079
 10
100.4872341328643
 20
-138.0487656989948
 10
100.1106851963265
 20
-138.0212049351128
 10
100.1106851963265
 20
-137.5643852737686
 10
100.1106851963265
 20
-137.3401095576789
 10
100.2378092197322
 20
-137.0989528737114
 10
100.5337429219152
 20
-137.0989528737114
 10
100.7201225876672
 20
-137.0989528737114
 10
100.8024603697647
 20
-137.1940375091043
 10
100.8637830694021
 20
-137.293600768628
 10
100.8913438332841
 20
-137.2322780689906
 10
100.9716145580904
 20
-137.0503770273694
 10
101.248944744653
 20
-137.0503770273694
 10
101.5872531213046
 20
-137.0503770273694
 10
101.7543402523392
 20
-137.2977348832103
 10
101.7543402523392
 20
-137.5747205602244
 97
        0
 97
        0
 75
     2
 76
     1
 98
        0
  0
ENDBLK
  5
A4
330
A1
100
AcDbEntity
  8
0
100
AcDbBlockEnd
  0
BLOCK
  5
B5
330
B3
100
AcDbEntity
  8
0
100
AcDbBlockBegin
  2
block 5
 70
     0
 10
0.0
 20
0.0
 30
0.0
  3
block 5
  1

  0
SPLINE
  5
B7
330
B3
100
AcDbEntity
  8
_U+30EC_U+30A4_U+30E4_U+30FC 1
370
     0
100
AcDbSpline
210
0.0
220
0.0
230
1.0
 70
    11
 71
     3
 72
    26
 73
    22
 74
     0
 42
0.0000000001
 43
0.0000000001
 12
1.0
 22
0.0
 32
0.0
 13
1.0
 23
0.0
 33
0.0
 40
0.0
 40
0.0
 40
0.0
 40
0.0
 40
1.0
 40
1.0
 40
1.0
 40
2.0
 40
2.0
 40
2.0
 40
3.0
 40
3.0
 40
3.0
 40
4.0
 40
4.0
 40
4.0
 40
5.0
 40
5.0
 40
5.0
 40
6.0
 40
6.0
 40
6.0
 40
7.0
 40
7.0
 40
7.0
 40
7.0
 10
77.71239689897469
 20
-143.5657416090739
 30
0.0
 10
77.71239689897469
 20
-143.5657416090739
 30
0.0
 10
77.71239689897469
 20
-142.4615885060513
 30
0.0
 10
77.71239689897469
 20
-142.4615885060513
 30
0.0
 10
77.71239689897469
 20
-142.4615885060513
 30
0.0
 10
77.38235675148775
 20
-142.4615885060513
 30
0.0
 10
77.38235675148775
 20
-142.4615885060513
 30
0.0
 10
77.38235675148775
 20
-142.4615885060513
 30
0.0
 10
77.38235675148775
 20
-142.3134494001855
 30
0.0
 10
77.38235675148775
 20
-142.3134494001855
 30
0.0
 10
77.71446395626583
 20
-142.298635489599
 30
0.0
 10
77.7609727453167
 20
-142.1356824731466
 30
0.0
 10
77.79060056648986
 20
-142.0213053030363
 30
0.0
 10
77.79060056648986
 20
-142.0213053030363
 30
0.0
 10
77.93667261506445
 20
-142.0213053030363
 30
0.0
 10
77.93667261506445
 20
-142.0213053030363
 30
0.0
 10
77.93667261506445
 20
-142.0213053030363
 30
0.0
 10
77.93667261506445
 20
-143.5657416090739
 30
0.0
 10
77.93667261506445
 20
-143.5657416090739
 30
0.0
 10
77.93667261506445
 20
-143.5657416090739
 30
0.0
 10
77.71239689897469
 20
-143.5657416090739
 30
0.0
 10
77.71239689897469
 20
-143.5657416090739
 30
0.0
  0
HATCH
  5
B8
330
B3
100
AcDbEntity
  8
_U+30EC_U+30A4_U+30E4_U+30FC 1
 62
   179
420
  2234388
100
AcDbHatch
 10
0.0
 20
0.0
 30
0.0
210
0.0
220
0.0
230
1.0
  2
SOLID
 70
     1
 71
     0
 91
        1
 92
        1
 93
        1
 72
     4
 94
        3
 73
     0
 74
     1
 95
       26
 96
       22
 40
0.0
 40
0.0
 40
0.0
 40
0.0
 40
1.0
 40
1.0
 40
1.0
 40
2.0
 40
2.0
 40
2.0
 40
3.0
 40
3.0
 40
3.0
 40
4.0
 40
4.0
 40
4.0
 40
5.0
 40
5.0
 40
5.0
 40
6.0
 40
6.0
 40
6.0
 40
7.0
 40
7.0
 40
7.0
 40
7.0
 10
77.71239689897469
 20
-143.5657416090739
 10
77.71239689897469
 20
-143.5657416090739
 10
77.71239689897469
 20
-142.4615885060513
 10
77.71239689897469
 20
-142.4615885060513
 10
77.71239689897469
 20
-142.4615885060513
 10
77.38235675148775
 20
-142.4615885060513
 10
77.38235675148775
 20
-142.4615885060513
 10
77.38235675148775
 20
-142.4615885060513
 10
77.38235675148775
 20
-142.3134494001855
 10
77.38235675148775
 20
-142.3134494001855
 10
77.71446395626583
 20
-142.298635489599
 10
77.7609727453167
 20
-142.1356824731466
 10
77.79060056648986
 20
-142.0213053030363
 10
77.79060056648986
 20
-142.0213053030363
 10
77.93667261506445
 20
-142.0213053030363
 10
77.93667261506445
 20
-142.0213053030363
 10
77.93667261506445
 20
-142.0213053030363
 10
77.93667261506445
 20
-143.5657416090739
 10
77.93667261506445
 20
-143.5657416090739
 10
77.93667261506445
 20
-143.5657416090739
 10
77.71239689897469
 20
-143.5657416090739
 10
77.71239689897469
 20
-143.5657416090739
 97
        0
 97
        0
 75
     2
 76
     1
 98
        0
  0
SPLINE
  5
B9
330
B3
100
AcDbEntity
  8
_U+30EC_U+30A4_U+30E4_U+30FC 1
370
     0
100
AcDbSpline
210
0.0
220
0.0
230
1.0
 70
    11
 71
     3
 72
    29
 73
    25
 74
     0
 42
0.0000000001
 43
0.0000000001
 12
1.0
 22
0.0
 32
0.0
 13
1.0
 23
0.0
 33
0.0
 40
0.0
 40
0.0
 40
0.0
 40
0.0
 40
1.0
 40
1.0
 40
1.0
 40
2.0
 40
2.0
 40
2.0
 40
3.0
 40
3.0
 40
3.0
 40
4.0
 40
4.0
 40
4.0
 40
5.0
 40
5.0
 40
5.0
 40
6.0
 40
6.0
 40
6.0
 40
7.0
 40
7.0
 40
7.0
 40
8.0
 40
8.0
 40
8.0
 40
8.0
 10
79.33555363685014
 20
-143.387974682035
 30
0.0
 10
79.22772214816182
 20
-143.5974364875381
 30
0.0
 10
79.0542615904795
 20
-143.616384512707
 30
0.0
 10
78.93781736307805
 20
-143.616384512707
 30
0.0
 10
78.77710365869115
 20
-143.616384512707
 30
0.0
 10
78.6353379794731
 20
-143.5698757236561
 30
0.0
 10
78.54008108930596
 20
-143.387974682035
 30
0.0
 10
78.4365559699742
 20
-143.1933267871183
 30
0.0
 10
78.41743569003106
 20
-142.9566487272817
 30
0.0
 10
78.41743569003106
 20
-142.7936957108294
 30
0.0
 10
78.41743569003106
 20
-142.6496907195459
 30
0.0
 10
78.43431665790878
 20
-142.3978542395741
 30
0.0
 10
78.54008108930596
 20
-142.1990722300752
 30
0.0
 10
78.64808483276853
 20
-141.996156105994
 30
0.0
 10
78.80879853715544
 20
-141.9727294566943
 30
0.0
 10
78.93781736307805
 20
-141.9727294566943
 30
0.0
 10
79.0964640101738
 20
-141.9727294566943
 30
0.0
 10
79.24029674668299
 20
-142.0171711884541
 30
0.0
 10
79.33555363685014
 20
-142.1990722300752
 30
0.0
 10
79.4349446415996
 20
-142.3916530677007
 30
0.0
 10
79.45819903612504
 20
-142.6200628983728
 30
0.0
 10
79.45819903612504
 20
-142.7936957108294
 30
0.0
 10
79.45819903612504
 20
-142.9649169564463
 30
0.0
 10
79.43718395366501
 20
-143.1953938444095
 30
0.0
 10
79.33555363685014
 20
-143.387974682035
 30
0.0
  0
SPLINE
  5
BA
330
B3
100
AcDbEntity
  8
_U+30EC_U+30A4_U+30E4_U+30FC 1
370
     0
100
AcDbSpline
210
0.0
220
0.0
230
1.0
 70
    11
 71
     3
 72
    17
 73
    13
 74
     0
 42
0.0000000001
 43
0.0000000001
 12
1.0
 22
0.0
 32
0.0
 13
1.0
 23
0.0
 33
0.0
 40
0.0
 40
0.0
 40
0.0
 40
0.0
 40
1.0
 40
1.0
 40
1.0
 40
2.0
 40
2.0
 40
2.0
 40
3.0
 40
3.0
 40
3.0
 40
4.0
 40
4.0
 40
4.0
 40
4.0
 10
78.93781736307805
 20
-142.1653102943198
 30
0.0
 10
78.6882201951717
 20
-142.1653102943198
 30
0.0
 10
78.64171140612082
 20
-142.4488416527558
 30
0.0
 10
78.64171140612082
 20
-142.7936957108294
 30
0.0
 10
78.64171140612082
 20
-143.113056062312
 30
0.0
 10
78.67771265394168
 20
-143.4217366177904
 30
0.0
 10
78.93781736307805
 20
-143.4217366177904
 30
0.0
 10
79.18534747369326
 20
-143.4217366177904
 30
0.0
 10
79.23409557480953
 20
-143.140616826194
 30
0.0
 10
79.23409557480953
 20
-142.7936957108294
 30
0.0
 10
79.23409557480953
 20
-142.4739908497982
 30
0.0
 10
79.19585501492327
 20
-142.1653102943198
 30
0.0
 10
78.93781736307805
 20
-142.1653102943198
 30
0.0
  0
HATCH
  5
BB
330
B3
100
AcDbEntity
  8
_U+30EC_U+30A4_U+30E4_U+30FC 1
 62
   179
420
  2234388
100
AcDbHatch
 10
0.0
 20
0.0
 30
0.0
210
0.0
220
0.0
230
1.0
  2
SOLID
 70
     1
 71
     0
 91
        2
 92
        1
 93
        1
 72
     4
 94
        3
 73
     0
 74
     1
 95
       29
 96
       25
 40
0.0
 40
0.0
 40
0.0
 40
0.0
 40
1.0
 40
1.0
 40
1.0
 40
2.0
 40
2.0
 40
2.0
 40
3.0
 40
3.0
 40
3.0
 40
4.0
 40
4.0
 40
4.0
 40
5.0
 40
5.0
 40
5.0
 40
6.0
 40
6.0
 40
6.0
 40
7.0
 40
7.0
 40
7.0
 40
8.0
 40
8.0
 40
8.0
 40
8.0
 10
79.33555363685014
 20
-143.387974682035
 10
79.22772214816182
 20
-143.5974364875381
 10
79.0542615904795
 20
-143.616384512707
 10
78.93781736307805
 20
-143.616384512707
 10
78.77710365869115
 20
-143.616384512707
 10
78.6353379794731
 20
-143.5698757236561
 10
78.54008108930596
 20
-143.387974682035
 10
78.4365559699742
 20
-143.1933267871183
 10
78.41743569003106
 20
-142.9566487272817
 10
78.41743569003106
 20
-142.7936957108294
 10
78.41743569003106
 20
-142.6496907195459
 10
78.43431665790878
 20
-142.3978542395741
 10
78.54008108930596
 20
-142.1990722300752
 10
78.64808483276853
 20
-141.996156105994
 10
78.80879853715544
 20
-141.9727294566943
 10
78.93781736307805
 20
-141.9727294566943
 10
79.0964640101738
 20
-141.9727294566943
 10
79.24029674668299
 20
-142.0171711884541
 10
79.33555363685014
 20
-142.1990722300752
 10
79.4349446415996
 20
-142.3916530677007
 10
79.45819903612504
 20
-142.6200628983728
 10
79.45819903612504
 20
-142.7936957108294
 10
79.45819903612504
 20
-142.9649169564463
 10
79.43718395366501
 20
-143.1953938444095
 10
79.33555363685014
 20
-143.387974682035
 97
        0
 97
        0
 92
        1
 93
        1
 72
     4
 94
        3
 73
     0
 74
     1
 95
       17
 96
       13
 40
0.0
 40
0.0
 40
0.0
 40
0.0
 40
1.0
 40
1.0
 40
1.0
 40
2.0
 40
2.0
 40
2.0
 40
3.0
 40
3.0
 40
3.0
 40
4.0
 40
4.0
 40
4.0
 40
4.0
 10
78.93781736307805
 20
-142.1653102943198
 10
78.6882201951717
 20
-142.1653102943198
 10
78.64171140612082
 20
-142.4488416527558
 10
78.64171140612082
 20
-142.7936957108294
 10
78.64171140612082
 20
-143.113056062312
 10
78.67771265394168
 20
-143.4217366177904
 10
78.93781736307805
 20
-143.4217366177904
 10
79.18534747369326
 20
-143.4217366177904
 10
79.23409557480953
 20
-143.140616826194
 10
79.23409557480953
 20
-142.7936957108294
 10
79.23409557480953
 20
-142.4739908497982
 10
79.19585501492327
 20
-142.1653102943198
 10
78.93781736307805
 20
-142.1653102943198
 97
        0
 97
        0
 75
     2
 76
     1
 98
        0
  0
ENDBLK
  5
B6
330
B3
100
AcDbEntity
  8
0
100
AcDbBlockEnd
  0
BLOCK
  5
CA
330
C8
100
AcDbEntity
  8
0
100
AcDbBlockBegin
  2
block 6
 70
     0
 10
0.0
 20
0.0
 30
0.0
  3
block 6
  1

  0
SPLINE
  5
CC
330
C8
100
AcDbEntity
  8
_U+30EC_U+30A4_U+30E4_U+30FC 1
370
     0
100
AcDbSpline
210
0.0
220
0.0
230
1.0
 70
    11
 71
     3
 72
    44
 73
    40
 74
     0
 42
0.0000000001
 43
0.0000000001
 12
1.0
 22
0.0
 32
0.0
 13
1.0
 23
0.0
 33
0.0
 40
0.0
 40
0.0
 40
0.0
 40
0.0
 40
1.0
 40
1.0
 40
1.0
 40
2.0
 40
2.0
 40
2.0
 40
3.0
 40
3.0
 40
3.0
 40
4.0
 40
4.0
 40
4.0
 40
5.0
 40
5.0
 40
5.0
 40
6.0
 40
6.0
 40
6.0
 40
7.0
 40
7.0
 40
7.0
 40
8.0
 40
8.0
 40
8.0
 40
9.0
 40
9.0
 40
9.0
 40
10.0
 40
10.0
 40
10.0
 40
11.0
 40
11.0
 40
11.0
 40
12.0
 40
12.0
 40
12.0
 40
13.0
 40
13.0
 40
13.0
 40
13.0
 10
85.3541354495816
 20
-114.2798461628363
 30
0.0
 10
85.13623316013955
 20
-114.438492809932
 30
0.0
 10
85.04304332726355
 20
-114.5125623628649
 30
0.0
 10
84.99446748092153
 20
-114.6563950993741
 30
0.0
 10
84.99446748092153
 20
-114.6563950993741
 30
0.0
 10
85.77288680581373
 20
-114.6563950993741
 30
0.0
 10
85.77288680581373
 20
-114.6563950993741
 30
0.0
 10
85.77288680581373
 20
-114.6563950993741
 30
0.0
 10
85.77288680581373
 20
-114.8615505355207
 30
0.0
 10
85.77288680581373
 20
-114.8615505355207
 30
0.0
 10
85.77288680581373
 20
-114.8615505355207
 30
0.0
 10
84.74487031301517
 20
-114.8615505355207
 30
0.0
 10
84.74487031301517
 20
-114.8615505355207
 30
0.0
 10
84.77656519147948
 20
-114.5039496241518
 30
0.0
 10
84.84202200569922
 20
-114.4257459566366
 30
0.0
 10
85.22718368095015
 20
-114.127400687614
 30
0.0
 10
85.48315427550422
 20
-113.9286186781151
 30
0.0
 10
85.54861108972396
 20
-113.8609225518299
 30
0.0
 10
85.54861108972396
 20
-113.7234632419684
 30
0.0
 10
85.54861108972396
 20
-113.6049519572758
 30
0.0
 10
85.4767808488565
 20
-113.4738660740621
 30
0.0
 10
85.28006589664874
 20
-113.4738660740621
 30
0.0
 10
85.01978893273811
 20
-113.4738660740621
 30
0.0
 10
85.01134844879925
 20
-113.7043429620253
 30
0.0
 10
85.00704207944268
 20
-113.8207871894268
 30
0.0
 10
85.00704207944268
 20
-113.8207871894268
 30
0.0
 10
84.78293861812719
 20
-113.8207871894268
 30
0.0
 10
84.78293861812719
 20
-113.8207871894268
 30
0.0
 10
84.79137910206605
 20
-113.6938354207953
 30
0.0
 10
84.80188664329606
 20
-113.5816975627504
 30
0.0
 10
84.88232962287664
 20
-113.4631862780578
 30
0.0
 10
84.99222816885612
 20
-113.3024725736709
 30
0.0
 10
85.17843557983387
 20
-113.2685383831412
 30
0.0
 10
85.29487980723532
 20
-113.2685383831412
 30
0.0
 10
85.57203773902366
 20
-113.2685383831412
 30
0.0
 10
85.77926023246144
 20
-113.4526787368278
 30
0.0
 10
85.77926023246144
 20
-113.7255302992596
 30
0.0
 10
85.77926023246144
 20
-113.9539401299317
 30
0.0
 10
85.66298825983425
 20
-114.0535033894554
 30
0.0
 10
85.3541354495816
 20
-114.2798461628363
 30
0.0
  0
HATCH
  5
CD
330
C8
100
AcDbEntity
  8
_U+30EC_U+30A4_U+30E4_U+30FC 1
 62
   179
420
  2234388
100
AcDbHatch
 10
0.0
 20
0.0
 30
0.0
210
0.0
220
0.0
230
1.0
  2
SOLID
 70
     1
 71
     0
 91
        1
 92
        1
 93
        1
 72
     4
 94
        3
 73
     0
 74
     1
 95
       44
 96
       40
 40
0.0
 40
0.0
 40
0.0
 40
0.0
 40
1.0
 40
1.0
 40
1.0
 40
2.0
 40
2.0
 40
2.0
 40
3.0
 40
3.0
 40
3.0
 40
4.0
 40
4.0
 40
4.0
 40
5.0
 40
5.0
 40
5.0
 40
6.0
 40
6.0
 40
6.0
 40
7.0
 40
7.0
 40
7.0
 40
8.0
 40
8.0
 40
8.0
 40
9.0
 40
9.0
 40
9.0
 40
10.0
 40
10.0
 40
10.0
 40
11.0
 40
11.0
 40
11.0
 40
12.0
 40
12.0
 40
12.0
 40
13.0
 40
13.0
 40
13.0
 40
13.0
 10
85.3541354495816
 20
-114.2798461628363
 10
85.13623316013955
 20
-114.438492809932
 10
85.04304332726355
 20
-114.5125623628649
 10
84.99446748092153
 20
-114.6563950993741
 10
84.99446748092153
 20
-114.6563950993741
 10
85.77288680581373
 20
-114.6563950993741
 10
85.77288680581373
 20
-114.6563950993741
 10
85.77288680581373
 20
-114.6563950993741
 10
85.77288680581373
 20
-114.8615505355207
 10
85.77288680581373
 20
-114.8615505355207
 10
85.77288680581373
 20
-114.8615505355207
 10
84.74487031301517
 20
-114.8615505355207
 10
84.74487031301517
 20
-114.8615505355207
 10
84.77656519147948
 20
-114.5039496241518
 10
84.84202200569922
 20
-114.4257459566366
 10
85.22718368095015
 20
-114.127400687614
 10
85.48315427550422
 20
-113.9286186781151
 10
85.54861108972396
 20
-113.8609225518299
 10
85.54861108972396
 20
-113.7234632419684
 10
85.54861108972396
 20
-113.6049519572758
 10
85.4767808488565
 20
-113.4738660740621
 10
85.28006589664874
 20
-113.4738660740621
 10
85.01978893273811
 20
-113.4738660740621
 10
85.01134844879925
 20
-113.7043429620253
 10
85.00704207944268
 20
-113.8207871894268
 10
85.00704207944268
 20
-113.8207871894268
 10
84.78293861812719
 20
-113.8207871894268
 10
84.78293861812719
 20
-113.8207871894268
 10
84.79137910206605
 20
-113.6938354207953
 10
84.80188664329606
 20
-113.5816975627504
 10
84.88232962287664
 20
-113.4631862780578
 10
84.99222816885612
 20
-113.3024725736709
 10
85.17843557983387
 20
-113.2685383831412
 10
85.29487980723532
 20
-113.2685383831412
 10
85.57203773902366
 20
-113.2685383831412
 10
85.77926023246144
 20
-113.4526787368278
 10
85.77926023246144
 20
-113.7255302992596
 10
85.77926023246144
 20
-113.9539401299317
 10
85.66298825983425
 20
-114.0535033894554
 10
85.3541354495816
 20
-114.2798461628363
 97
        0
 97
        0
 75
     2
 76
     1
 98
        0
  0
SPLINE
  5
CE
330
C8
100
AcDbEntity
  8
_U+30EC_U+30A4_U+30E4_U+30FC 1
370
     0
100
AcDbSpline
210
0.0
220
0.0
230
1.0
 70
    11
 71
     3
 72
    53
 73
    49
 74
     0
 42
0.0000000001
 43
0.0000000001
 12
1.0
 22
0.0
 32
0.0
 13
1.0
 23
0.0
 33
0.0
 40
0.0
 40
0.0
 40
0.0
 40
0.0
 40
1.0
 40
1.0
 40
1.0
 40
2.0
 40
2.0
 40
2.0
 40
3.0
 40
3.0
 40
3.0
 40
4.0
 40
4.0
 40
4.0
 40
5.0
 40
5.0
 40
5.0
 40
6.0
 40
6.0
 40
6.0
 40
7.0
 40
7.0
 40
7.0
 40
8.0
 40
8.0
 40
8.0
 40
9.0
 40
9.0
 40
9.0
 40
10.0
 40
10.0
 40
10.0
 40
11.0
 40
11.0
 40
11.0
 40
12.0
 40
12.0
 40
12.0
 40
13.0
 40
13.0
 40
13.0
 40
14.0
 40
14.0
 40
14.0
 40
15.0
 40
15.0
 40
15.0
 40
16.0
 40
16.0
 40
16.0
 40
16.0
 10
86.41884220929808
 20
-114.9123656939282
 30
0.0
 10
86.3406385417829
 20
-114.9123656939282
 30
0.0
 10
86.23900822496803
 20
-114.8953124712762
 30
0.0
 10
86.13737790815316
 20
-114.8319227143476
 30
0.0
 10
85.96408960524509
 20
-114.7218519135939
 30
0.0
 10
85.94273001323654
 20
-114.5907660303801
 30
0.0
 10
85.92378198806767
 20
-114.4829345416918
 30
0.0
 10
85.92378198806767
 20
-114.4829345416918
 30
0.0
 10
86.14599064686628
 20
-114.4829345416918
 30
0.0
 10
86.14599064686628
 20
-114.4829345416918
 30
0.0
 10
86.20076766508176
 20
-114.6817165511907
 30
0.0
 10
86.32789168848747
 20
-114.7113443723638
 30
0.0
 10
86.42090926658922
 20
-114.7113443723638
 30
0.0
 10
86.56043563374185
 20
-114.7113443723638
 30
0.0
 10
86.71270885418988
 20
-114.6119533676144
 30
0.0
 10
86.71270885418988
 20
-114.3792371675858
 30
0.0
 10
86.71270885418988
 20
-114.1232665730317
 30
0.0
 10
86.53287486985984
 20
-114.0535033894554
 30
0.0
 10
86.4122965278761
 20
-114.0535033894554
 30
0.0
 10
86.3806016494118
 20
-114.0535033894554
 30
0.0
 10
86.23900822496803
 20
-114.0535033894554
 30
0.0
 10
86.15012476144858
 20
-114.182522215378
 30
0.0
 10
86.15012476144858
 20
-114.182522215378
 30
0.0
 10
85.97442489170085
 20
-114.1634019354348
 30
0.0
 10
85.97442489170085
 20
-114.1634019354348
 30
0.0
 10
85.97442489170085
 20
-114.1634019354348
 30
0.0
 10
86.09500323368458
 20
-113.3172864842575
 30
0.0
 10
86.09500323368458
 20
-113.3172864842575
 30
0.0
 10
86.09500323368458
 20
-113.3172864842575
 30
0.0
 10
86.87359481335105
 20
-113.3172864842575
 30
0.0
 10
86.87359481335105
 20
-113.3172864842575
 30
0.0
 10
86.87359481335105
 20
-113.3172864842575
 30
0.0
 10
86.87359481335105
 20
-113.5119343791741
 30
0.0
 10
86.87359481335105
 20
-113.5119343791741
 30
0.0
 10
86.87359481335105
 20
-113.5119343791741
 30
0.0
 10
86.2579562501369
 20
-113.5119343791741
 30
0.0
 10
86.2579562501369
 20
-113.5119343791741
 30
0.0
 10
86.2579562501369
 20
-113.5119343791741
 30
0.0
 10
86.19249943591716
 20
-113.9349921047628
 30
0.0
 10
86.19249943591716
 20
-113.9349921047628
 30
0.0
 10
86.2538221355546
 20
-113.9010579142331
 30
0.0
 10
86.33615991765207
 20
-113.8609225518299
 30
0.0
 10
86.45467120234467
 20
-113.8609225518299
 30
0.0
 10
86.70857473960758
 20
-113.8609225518299
 30
0.0
 10
86.94559730899277
 20
-114.0471299628077
 30
0.0
 10
86.94559730899277
 20
-114.3601168876426
 30
0.0
 10
86.94559730899277
 20
-114.6775824366084
 30
0.0
 10
86.72132159290301
 20
-114.9123656939282
 30
0.0
 10
86.41884220929808
 20
-114.9123656939282
 30
0.0
  0
HATCH
  5
CF
330
C8
100
AcDbEntity
  8
_U+30EC_U+30A4_U+30E4_U+30FC 1
 62
   179
420
  2234388
100
AcDbHatch
 10
0.0
 20
0.0
 30
0.0
210
0.0
220
0.0
230
1.0
  2
SOLID
 70
     1
 71
     0
 91
        1
 92
        1
 93
        1
 72
     4
 94
        3
 73
     0
 74
     1
 95
       53
 96
       49
 40
0.0
 40
0.0
 40
0.0
 40
0.0
 40
1.0
 40
1.0
 40
1.0
 40
2.0
 40
2.0
 40
2.0
 40
3.0
 40
3.0
 40
3.0
 40
4.0
 40
4.0
 40
4.0
 40
5.0
 40
5.0
 40
5.0
 40
6.0
 40
6.0
 40
6.0
 40
7.0
 40
7.0
 40
7.0
 40
8.0
 40
8.0
 40
8.0
 40
9.0
 40
9.0
 40
9.0
 40
10.0
 40
10.0
 40
10.0
 40
11.0
 40
11.0
 40
11.0
 40
12.0
 40
12.0
 40
12.0
 40
13.0
 40
13.0
 40
13.0
 40
14.0
 40
14.0
 40
14.0
 40
15.0
 40
15.0
 40
15.0
 40
16.0
 40
16.0
 40
16.0
 40
16.0
 10
86.41884220929808
 20
-114.9123656939282
 10
86.3406385417829
 20
-114.9123656939282
 10
86.23900822496803
 20
-114.8953124712762
 10
86.13737790815316
 20
-114.8319227143476
 10
85.96408960524509
 20
-114.7218519135939
 10
85.94273001323654
 20
-114.5907660303801
 10
85.92378198806767
 20
-114.4829345416918
 10
85.92378198806767
 20
-114.4829345416918
 10
86.14599064686628
 20
-114.4829345416918
 10
86.14599064686628
 20
-114.4829345416918
 10
86.20076766508176
 20
-114.6817165511907
 10
86.32789168848747
 20
-114.7113443723638
 10
86.42090926658922
 20
-114.7113443723638
 10
86.56043563374185
 20
-114.7113443723638
 10
86.71270885418988
 20
-114.6119533676144
 10
86.71270885418988
 20
-114.3792371675858
 10
86.71270885418988
 20
-114.1232665730317
 10
86.53287486985984
 20
-114.0535033894554
 10
86.4122965278761
 20
-114.0535033894554
 10
86.3806016494118
 20
-114.0535033894554
 10
86.23900822496803
 20
-114.0535033894554
 10
86.15012476144858
 20
-114.182522215378
 10
86.15012476144858
 20
-114.182522215378
 10
85.97442489170085
 20
-114.1634019354348
 10
85.97442489170085
 20
-114.1634019354348
 10
85.97442489170085
 20
-114.1634019354348
 10
86.09500323368458
 20
-113.3172864842575
 10
86.09500323368458
 20
-113.3172864842575
 10
86.09500323368458
 20
-113.3172864842575
 10
86.87359481335105
 20
-113.3172864842575
 10
86.87359481335105
 20
-113.3172864842575
 10
86.87359481335105
 20
-113.3172864842575
 10
86.87359481335105
 20
-113.5119343791741
 10
86.87359481335105
 20
-113.5119343791741
 10
86.87359481335105
 20
-113.5119343791741
 10
86.2579562501369
 20
-113.5119343791741
 10
86.2579562501369
 20
-113.5119343791741
 10
86.2579562501369
 20
-113.5119343791741
 10
86.19249943591716
 20
-113.9349921047628
 10
86.19249943591716
 20
-113.9349921047628
 10
86.2538221355546
 20
-113.9010579142331
 10
86.33615991765207
 20
-113.8609225518299
 10
86.45467120234467
 20
-113.8609225518299
 10
86.70857473960758
 20
-113.8609225518299
 10
86.94559730899277
 20
-114.0471299628077
 10
86.94559730899277
 20
-114.3601168876426
 10
86.94559730899277
 20
-114.6775824366084
 10
86.72132159290301
 20
-114.9123656939282
 10
86.41884220929808
 20
-114.9123656939282
 97
        0
 97
        0
 75
     2
 76
     1
 98
        0
  0
ENDBLK
  5
CB
330
C8
100
AcDbEntity
  8
0
100
AcDbBlockEnd
  0
BLOCK
  5
DA
330
D8
100
AcDbEntity
  8
0
100
AcDbBlockBegin
  2
block 7
 70
     0
 10
0.0
 20
0.0
 30
0.0
  3
block 7
  1

  0
SPLINE
  5
DC
330
D8
100
AcDbEntity
  8
_U+30EC_U+30A4_U+30E4_U+30FC 1
370
     0
100
AcDbSpline
210
0.0
220
0.0
230
1.0
 70
    11
 71
     3
 72
    26
 73
    22
 74
     0
 42
0.0000000001
 43
0.0000000001
 12
1.0
 22
0.0
 32
0.0
 13
1.0
 23
0.0
 33
0.0
 40
0.0
 40
0.0
 40
0.0
 40
0.0
 40
1.0
 40
1.0
 40
1.0
 40
2.0
 40
2.0
 40
2.0
 40
3.0
 40
3.0
 40
3.0
 40
4.0
 40
4.0
 40
4.0
 40
5.0
 40
5.0
 40
5.0
 40
6.0
 40
6.0
 40
6.0
 40
7.0
 40
7.0
 40
7.0
 40
7.0
 10
101.703697348706
 20
-130.8898572806456
 30
0.0
 10
101.703697348706
 20
-130.8898572806456
 30
0.0
 10
100.5995442456834
 20
-130.8898572806456
 30
0.0
 10
100.5995442456834
 20
-130.8898572806456
 30
0.0
 10
100.5995442456834
 20
-130.8898572806456
 30
0.0
 10
100.5995442456834
 20
-131.2198974281325
 30
0.0
 10
100.5995442456834
 20
-131.2198974281325
 30
0.0
 10
100.5995442456834
 20
-131.2198974281325
 30
0.0
 10
100.4514051398177
 20
-131.2198974281325
 30
0.0
 10
100.4514051398177
 20
-131.2198974281325
 30
0.0
 10
100.4365912292311
 20
-130.8877902233544
 30
0.0
 10
100.2736382127788
 20
-130.8412814343036
 30
0.0
 10
100.1592610426685
 20
-130.8116536131304
 30
0.0
 10
100.1592610426685
 20
-130.8116536131304
 30
0.0
 10
100.1592610426685
 20
-130.6655815645558
 30
0.0
 10
100.1592610426685
 20
-130.6655815645558
 30
0.0
 10
100.1592610426685
 20
-130.6655815645558
 30
0.0
 10
101.703697348706
 20
-130.6655815645558
 30
0.0
 10
101.703697348706
 20
-130.6655815645558
 30
0.0
 10
101.703697348706
 20
-130.6655815645558
 30
0.0
 10
101.703697348706
 20
-130.8898572806456
 30
0.0
 10
101.703697348706
 20
-130.8898572806456
 30
0.0
  0
HATCH
  5
DD
330
D8
100
AcDbEntity
  8
_U+30EC_U+30A4_U+30E4_U+30FC 1
 62
   179
420
  2234388
100
AcDbHatch
 10
0.0
 20
0.0
 30
0.0
210
0.0
220
0.0
230
1.0
  2
SOLID
 70
     1
 71
     0
 91
        1
 92
        1
 93
        1
 72
     4
 94
        3
 73
     0
 74
     1
 95
       26
 96
       22
 40
0.0
 40
0.0
 40
0.0
 40
0.0
 40
1.0
 40
1.0
 40
1.0
 40
2.0
 40
2.0
 40
2.0
 40
3.0
 40
3.0
 40
3.0
 40
4.0
 40
4.0
 40
4.0
 40
5.0
 40
5.0
 40
5.0
 40
6.0
 40
6.0
 40
6.0
 40
7.0
 40
7.0
 40
7.0
 40
7.0
 10
101.703697348706
 20
-130.8898572806456
 10
101.703697348706
 20
-130.8898572806456
 10
100.5995442456834
 20
-130.8898572806456
 10
100.5995442456834
 20
-130.8898572806456
 10
100.5995442456834
 20
-130.8898572806456
 10
100.5995442456834
 20
-131.2198974281325
 10
100.5995442456834
 20
-131.2198974281325
 10
100.5995442456834
 20
-131.2198974281325
 10
100.4514051398177
 20
-131.2198974281325
 10
100.4514051398177
 20
-131.2198974281325
 10
100.4365912292311
 20
-130.8877902233544
 10
100.2736382127788
 20
-130.8412814343036
 10
100.1592610426685
 20
-130.8116536131304
 10
100.1592610426685
 20
-130.8116536131304
 10
100.1592610426685
 20
-130.6655815645558
 10
100.1592610426685
 20
-130.6655815645558
 10
100.1592610426685
 20
-130.6655815645558
 10
101.703697348706
 20
-130.6655815645558
 10
101.703697348706
 20
-130.6655815645558
 10
101.703697348706
 20
-130.6655815645558
 10
101.703697348706
 20
-130.8898572806456
 10
101.703697348706
 20
-130.8898572806456
 97
        0
 97
        0
 75
     2
 76
     1
 98
        0
  0
SPLINE
  5
DE
330
D8
100
AcDbEntity
  8
_U+30EC_U+30A4_U+30E4_U+30FC 1
370
     0
100
AcDbSpline
210
0.0
220
0.0
230
1.0
 70
    11
 71
     3
 72
    53
 73
    49
 74
     0
 42
0.0000000001
 43
0.0000000001
 12
1.0
 22
0.0
 32
0.0
 13
1.0
 23
0.0
 33
0.0
 40
0.0
 40
0.0
 40
0.0
 40
0.0
 40
1.0
 40
1.0
 40
1.0
 40
2.0
 40
2.0
 40
2.0
 40
3.0
 40
3.0
 40
3.0
 40
4.0
 40
4.0
 40
4.0
 40
5.0
 40
5.0
 40
5.0
 40
6.0
 40
6.0
 40
6.0
 40
7.0
 40
7.0
 40
7.0
 40
8.0
 40
8.0
 40
8.0
 40
9.0
 40
9.0
 40
9.0
 40
10.0
 40
10.0
 40
10.0
 40
11.0
 40
11.0
 40
11.0
 40
12.0
 40
12.0
 40
12.0
 40
13.0
 40
13.0
 40
13.0
 40
14.0
 40
14.0
 40
14.0
 40
15.0
 40
15.0
 40
15.0
 40
16.0
 40
16.0
 40
16.0
 40
16.0
 10
101.7543402523392
 20
-129.6833848417111
 30
0.0
 10
101.7543402523392
 20
-129.7615885092263
 30
0.0
 10
101.7374592844615
 20
-129.8632188260411
 30
0.0
 10
101.6740695275329
 20
-129.964849142856
 30
0.0
 10
101.5641709815534
 20
-130.1381374457641
 30
0.0
 10
101.4329128435654
 20
-130.1594970377726
 30
0.0
 10
101.3250813548771
 20
-130.1784450629415
 30
0.0
 10
101.3250813548771
 20
-130.1784450629415
 30
0.0
 10
101.3250813548771
 20
-129.9562364041429
 30
0.0
 10
101.3250813548771
 20
-129.9562364041429
 30
0.0
 10
101.523863364376
 20
-129.9014593859274
 30
0.0
 10
101.5534911855491
 20
-129.7743353625217
 30
0.0
 10
101.5534911855491
 20
-129.6813177844199
 30
0.0
 10
101.5534911855491
 20
-129.5417914172673
 30
0.0
 10
101.4539279260254
 20
-129.3895181968193
 30
0.0
 10
101.2213839807711
 20
-129.3895181968193
 30
0.0
 10
100.965413386217
 20
-129.3895181968193
 30
0.0
 10
100.8954779478664
 20
-129.5693521811493
 30
0.0
 10
100.8954779478664
 20
-129.6899305231331
 30
0.0
 10
100.8954779478664
 20
-129.7216254015974
 30
0.0
 10
100.8954779478664
 20
-129.8632188260411
 30
0.0
 10
101.0246690285633
 20
-129.9521022895606
 30
0.0
 10
101.0246690285633
 20
-129.9521022895606
 30
0.0
 10
101.0057210033944
 20
-130.1278021593083
 30
0.0
 10
101.0057210033944
 20
-130.1278021593083
 30
0.0
 10
101.0057210033944
 20
-130.1278021593083
 30
0.0
 10
100.1592610426685
 20
-130.0072238173246
 30
0.0
 10
100.1592610426685
 20
-130.0072238173246
 30
0.0
 10
100.1592610426685
 20
-130.0072238173246
 30
0.0
 10
100.1592610426685
 20
-129.2286322376581
 30
0.0
 10
100.1592610426685
 20
-129.2286322376581
 30
0.0
 10
100.1592610426685
 20
-129.2286322376581
 30
0.0
 10
100.3539089375851
 20
-129.2286322376581
 30
0.0
 10
100.3539089375851
 20
-129.2286322376581
 30
0.0
 10
100.3539089375851
 20
-129.2286322376581
 30
0.0
 10
100.3539089375851
 20
-129.8442708008723
 30
0.0
 10
100.3539089375851
 20
-129.8442708008723
 30
0.0
 10
100.3539089375851
 20
-129.8442708008723
 30
0.0
 10
100.7769666631738
 20
-129.909727615092
 30
0.0
 10
100.7769666631738
 20
-129.909727615092
 30
0.0
 10
100.7432047274184
 20
-129.8484049154546
 30
0.0
 10
100.7028971102409
 20
-129.7660671333571
 30
0.0
 10
100.7028971102409
 20
-129.6475558486645
 30
0.0
 10
100.7028971102409
 20
-129.3936523114016
 30
0.0
 10
100.889276775993
 20
-129.1566297420164
 30
0.0
 10
101.2024359556022
 20
-129.1566297420164
 30
0.0
 10
101.5197292497937
 20
-129.1566297420164
 30
0.0
 10
101.7543402523392
 20
-129.3809054581062
 30
0.0
 10
101.7543402523392
 20
-129.6833848417111
 30
0.0
  0
HATCH
  5
DF
330
D8
100
AcDbEntity
  8
_U+30EC_U+30A4_U+30E4_U+30FC 1
 62
   179
420
  2234388
100
AcDbHatch
 10
0.0
 20
0.0
 30
0.0
210
0.0
220
0.0
230
1.0
  2
SOLID
 70
     1
 71
     0
 91
        1
 92
        1
 93
        1
 72
     4
 94
        3
 73
     0
 74
     1
 95
       53
 96
       49
 40
0.0
 40
0.0
 40
0.0
 40
0.0
 40
1.0
 40
1.0
 40
1.0
 40
2.0
 40
2.0
 40
2.0
 40
3.0
 40
3.0
 40
3.0
 40
4.0
 40
4.0
 40
4.0
 40
5.0
 40
5.0
 40
5.0
 40
6.0
 40
6.0
 40
6.0
 40
7.0
 40
7.0
 40
7.0
 40
8.0
 40
8.0
 40
8.0
 40
9.0
 40
9.0
 40
9.0
 40
10.0
 40
10.0
 40
10.0
 40
11.0
 40
11.0
 40
11.0
 40
12.0
 40
12.0
 40
12.0
 40
13.0
 40
13.0
 40
13.0
 40
14.0
 40
14.0
 40
14.0
 40
15.0
 40
15.0
 40
15.0
 40
16.0
 40
16.0
 40
16.0
 40
16.0
 10
101.7543402523392
 20
-129.6833848417111
 10
101.7543402523392
 20
-129.7615885092263
 10
101.7374592844615
 20
-129.8632188260411
 10
101.6740695275329
 20
-129.964849142856
 10
101.5641709815534
 20
-130.1381374457641
 10
101.4329128435654
 20
-130.1594970377726
 10
101.3250813548771
 20
-130.1784450629415
 10
101.3250813548771
 20
-130.1784450629415
 10
101.3250813548771
 20
-129.9562364041429
 10
101.3250813548771
 20
-129.9562364041429
 10
101.523863364376
 20
-129.9014593859274
 10
101.5534911855491
 20
-129.7743353625217
 10
101.5534911855491
 20
-129.6813177844199
 10
101.5534911855491
 20
-129.5417914172673
 10
101.4539279260254
 20
-129.3895181968193
 10
101.2213839807711
 20
-129.3895181968193
 10
100.965413386217
 20
-129.3895181968193
 10
100.8954779478664
 20
-129.5693521811493
 10
100.8954779478664
 20
-129.6899305231331
 10
100.8954779478664
 20
-129.7216254015974
 10
100.8954779478664
 20
-129.8632188260411
 10
101.0246690285633
 20
-129.9521022895606
 10
101.0246690285633
 20
-129.9521022895606
 10
101.0057210033944
 20
-130.1278021593083
 10
101.0057210033944
 20
-130.1278021593083
 10
101.0057210033944
 20
-130.1278021593083
 10
100.1592610426685
 20
-130.0072238173246
 10
100.1592610426685
 20
-130.0072238173246
 10
100.1592610426685
 20
-130.0072238173246
 10
100.1592610426685
 20
-129.2286322376581
 10
100.1592610426685
 20
-129.2286322376581
 10
100.1592610426685
 20
-129.2286322376581
 10
100.3539089375851
 20
-129.2286322376581
 10
100.3539089375851
 20
-129.2286322376581
 10
100.3539089375851
 20
-129.2286322376581
 10
100.3539089375851
 20
-129.8442708008723
 10
100.3539089375851
 20
-129.8442708008723
 10
100.3539089375851
 20
-129.8442708008723
 10
100.7769666631738
 20
-129.909727615092
 10
100.7769666631738
 20
-129.909727615092
 10
100.7432047274184
 20
-129.8484049154546
 10
100.7028971102409
 20
-129.7660671333571
 10
100.7028971102409
 20
-129.6475558486645
 10
100.7028971102409
 20
-129.3936523114016
 10
100.889276775993
 20
-129.1566297420164
 10
101.2024359556022
 20
-129.1566297420164
 10
101.5197292497937
 20
-129.1566297420164
 10
101.7543402523392
 20
-129.3809054581062
 10
101.7543402523392
 20
-129.6833848417111
 97
        0
 97
        0
 75
     2
 76
     1
 98
        0
  0
POLYLINE
  5
E0
330
D8
100
AcDbEntity
  8
_U+30EC_U+30A4_U+30E4_U+30FC 1
370
     0
100
AcDb2dPolyline
 66
     1
 10
0.0
 20
0.0
 30
0.0
  0
VERTEX
  5
E1
330
E0
100
AcDbEntity
  8
_U+30EC_U+30A4_U+30E4_U+30FC 1
370
     0
100
AcDbVertex
100
AcDb2dVertex
 10
101.703697348706
 20
-128.9275308922473
 30
0.0
  0
VERTEX
  5
E2
330
E0
100
AcDbEntity
  8
_U+30EC_U+30A4_U+30E4_U+30FC 1
370
     0
100
AcDbVertex
100
AcDb2dVertex
 10
101.4518608687343
 20
-128.9275308922473
 30
0.0
  0
VERTEX
  5
E3
330
E0
100
AcDbEntity
  8
_U+30EC_U+30A4_U+30E4_U+30FC 1
370
     0
100
AcDbVertex
100
AcDb2dVertex
 10
101.4518608687343
 20
-128.6756944122755
 30
0.0
  0
VERTEX
  5
E4
330
E0
100
AcDbEntity
  8
_U+30EC_U+30A4_U+30E4_U+30FC 1
370
     0
100
AcDbVertex
100
AcDb2dVertex
 10
101.703697348706
 20
-128.6756944122755
 30
0.0
  0
VERTEX
  5
E5
330
E0
100
AcDbEntity
  8
_U+30EC_U+30A4_U+30E4_U+30FC 1
370
     0
100
AcDbVertex
100
AcDb2dVertex
 10
101.703697348706
 20
-128.9275308922473
 30
0.0
  0
SEQEND
  5
E6
330
E0
100
AcDbEntity
  8
_U+30EC_U+30A4_U+30E4_U+30FC 1
370
     0
  0
HATCH
  5
E7
330
D8
100
AcDbEntity
  8
_U+30EC_U+30A4_U+30E4_U+30FC 1
 62
   179
420
  2234388
100
AcDbHatch
 10
0.0
 20
0.0
 30
0.0
210
0.0
220
0.0
230
1.0
  2
SOLID
 70
     1
 71
     0
 91
        1
 92
        1
 93
        4
 72
     1
 10
101.703697348706
 20
-128.9275308922473
 11
101.4518608687343
 21
-128.9275308922473
 72
     1
 10
101.4518608687343
 20
-128.9275308922473
 11
101.4518608687343
 21
-128.6756944122755
 72
     1
 10
101.4518608687343
 20
-128.6756944122755
 11
101.703697348706
 21
-128.6756944122755
 72
     1
 10
101.703697348706
 20
-128.6756944122755
 11
101.703697348706
 21
-128.9275308922473
 97
        0
 75
     2
 76
     1
 98
        0
  0
SPLINE
  5
E8
330
D8
100
AcDbEntity
  8
_U+30EC_U+30A4_U+30E4_U+30FC 1
370
     0
100
AcDbSpline
210
0.0
220
0.0
230
1.0
 70
    11
 71
     3
 72
    53
 73
    49
 74
     0
 42
0.0000000001
 43
0.0000000001
 12
1.0
 22
0.0
 32
0.0
 13
1.0
 23
0.0
 33
0.0
 40
0.0
 40
0.0
 40
0.0
 40
0.0
 40
1.0
 40
1.0
 40
1.0
 40
2.0
 40
2.0
 40
2.0
 40
3.0
 40
3.0
 40
3.0
 40
4.0
 40
4.0
 40
4.0
 40
5.0
 40
5.0
 40
5.0
 40
6.0
 40
6.0
 40
6.0
 40
7.0
 40
7.0
 40
7.0
 40
8.0
 40
8.0
 40
8.0
 40
9.0
 40
9.0
 40
9.0
 40
10.0
 40
10.0
 40
10.0
 40
11.0
 40
11.0
 40
11.0
 40
12.0
 40
12.0
 40
12.0
 40
13.0
 40
13.0
 40
13.0
 40
14.0
 40
14.0
 40
14.0
 40
15.0
 40
15.0
 40
15.0
 40
16.0
 40
16.0
 40
16.0
 40
16.0
 10
101.7543402523392
 20
-127.9584255322465
 30
0.0
 10
101.7543402523392
 20
-128.0366291997617
 30
0.0
 10
101.7374592844615
 20
-128.1382595165765
 30
0.0
 10
101.6740695275329
 20
-128.2398898333914
 30
0.0
 10
101.5641709815534
 20
-128.4131781362995
 30
0.0
 10
101.4329128435654
 20
-128.434537728308
 30
0.0
 10
101.3250813548771
 20
-128.4534857534769
 30
0.0
 10
101.3250813548771
 20
-128.4534857534769
 30
0.0
 10
101.3250813548771
 20
-128.2312770946783
 30
0.0
 10
101.3250813548771
 20
-128.2312770946783
 30
0.0
 10
101.523863364376
 20
-128.1765000764628
 30
0.0
 10
101.5534911855491
 20
-128.0493760530571
 30
0.0
 10
101.5534911855491
 20
-127.9563584749554
 30
0.0
 10
101.5534911855491
 20
-127.8168321078027
 30
0.0
 10
101.4539279260254
 20
-127.6645588873547
 30
0.0
 10
101.2213839807711
 20
-127.6645588873547
 30
0.0
 10
100.965413386217
 20
-127.6645588873547
 30
0.0
 10
100.8954779478664
 20
-127.8443928716847
 30
0.0
 10
100.8954779478664
 20
-127.9649712136685
 30
0.0
 10
100.8954779478664
 20
-127.9966660921328
 30
0.0
 10
100.8954779478664
 20
-128.1382595165765
 30
0.0
 10
101.0246690285633
 20
-128.227142980096
 30
0.0
 10
101.0246690285633
 20
-128.227142980096
 30
0.0
 10
101.0057210033944
 20
-128.4028428498438
 30
0.0
 10
101.0057210033944
 20
-128.4028428498438
 30
0.0
 10
101.0057210033944
 20
-128.4028428498438
 30
0.0
 10
100.1592610426685
 20
-128.28226450786
 30
0.0
 10
100.1592610426685
 20
-128.28226450786
 30
0.0
 10
100.1592610426685
 20
-128.28226450786
 30
0.0
 10
100.1592610426685
 20
-127.5036729281935
 30
0.0
 10
100.1592610426685
 20
-127.5036729281935
 30
0.0
 10
100.1592610426685
 20
-127.5036729281935
 30
0.0
 10
100.3539089375851
 20
-127.5036729281935
 30
0.0
 10
100.3539089375851
 20
-127.5036729281935
 30
0.0
 10
100.3539089375851
 20
-127.5036729281935
 30
0.0
 10
100.3539089375851
 20
-128.1193114914077
 30
0.0
 10
100.3539089375851
 20
-128.1193114914077
 30
0.0
 10
100.3539089375851
 20
-128.1193114914077
 30
0.0
 10
100.7769666631738
 20
-128.1847683056274
 30
0.0
 10
100.7769666631738
 20
-128.1847683056274
 30
0.0
 10
100.7432047274184
 20
-128.12344560599
 30
0.0
 10
100.7028971102409
 20
-128.0411078238925
 30
0.0
 10
100.7028971102409
 20
-127.9225965391999
 30
0.0
 10
100.7028971102409
 20
-127.668693001937
 30
0.0
 10
100.889276775993
 20
-127.4316704325518
 30
0.0
 10
101.2024359556022
 20
-127.4316704325518
 30
0.0
 10
101.5197292497937
 20
-127.4316704325518
 30
0.0
 10
101.7543402523392
 20
-127.6559461486416
 30
0.0
 10
101.7543402523392
 20
-127.9584255322465
 30
0.0
  0
HATCH
  5
E9
330
D8
100
AcDbEntity
  8
_U+30EC_U+30A4_U+30E4_U+30FC 1
 62
   179
420
  2234388
100
AcDbHatch
 10
0.0
 20
0.0
 30
0.0
210
0.0
220
0.0
230
1.0
  2
SOLID
 70
     1
 71
     0
 91
        1
 92
        1
 93
        1
 72
     4
 94
        3
 73
     0
 74
     1
 95
       53
 96
       49
 40
0.0
 40
0.0
 40
0.0
 40
0.0
 40
1.0
 40
1.0
 40
1.0
 40
2.0
 40
2.0
 40
2.0
 40
3.0
 40
3.0
 40
3.0
 40
4.0
 40
4.0
 40
4.0
 40
5.0
 40
5.0
 40
5.0
 40
6.0
 40
6.0
 40
6.0
 40
7.0
 40
7.0
 40
7.0
 40
8.0
 40
8.0
 40
8.0
 40
9.0
 40
9.0
 40
9.0
 40
10.0
 40
10.0
 40
10.0
 40
11.0
 40
11.0
 40
11.0
 40
12.0
 40
12.0
 40
12.0
 40
13.0
 40
13.0
 40
13.0
 40
14.0
 40
14.0
 40
14.0
 40
15.0
 40
15.0
 40
15.0
 40
16.0
 40
16.0
 40
16.0
 40
16.0
 10
101.7543402523392
 20
-127.9584255322465
 10
101.7543402523392
 20
-128.0366291997617
 10
101.7374592844615
 20
-128.1382595165765
 10
101.6740695275329
 20
-128.2398898333914
 10
101.5641709815534
 20
-128.4131781362995
 10
101.4329128435654
 20
-128.434537728308
 10
101.3250813548771
 20
-128.4534857534769
 10
101.3250813548771
 20
-128.4534857534769
 10
101.3250813548771
 20
-128.2312770946783
 10
101.3250813548771
 20
-128.2312770946783
 10
101.523863364376
 20
-128.1765000764628
 10
101.5534911855491
 20
-128.0493760530571
 10
101.5534911855491
 20
-127.9563584749554
 10
101.5534911855491
 20
-127.8168321078027
 10
101.4539279260254
 20
-127.6645588873547
 10
101.2213839807711
 20
-127.6645588873547
 10
100.965413386217
 20
-127.6645588873547
 10
100.8954779478664
 20
-127.8443928716847
 10
100.8954779478664
 20
-127.9649712136685
 10
100.8954779478664
 20
-127.9966660921328
 10
100.8954779478664
 20
-128.1382595165765
 10
101.0246690285633
 20
-128.227142980096
 10
101.0246690285633
 20
-128.227142980096
 10
101.0057210033944
 20
-128.4028428498438
 10
101.0057210033944
 20
-128.4028428498438
 10
101.0057210033944
 20
-128.4028428498438
 10
100.1592610426685
 20
-128.28226450786
 10
100.1592610426685
 20
-128.28226450786
 10
100.1592610426685
 20
-128.28226450786
 10
100.1592610426685
 20
-127.5036729281935
 10
100.1592610426685
 20
-127.5036729281935
 10
100.1592610426685
 20
-127.5036729281935
 10
100.3539089375851
 20
-127.5036729281935
 10
100.3539089375851
 20
-127.5036729281935
 10
100.3539089375851
 20
-127.5036729281935
 10
100.3539089375851
 20
-128.1193114914077
 10
100.3539089375851
 20
-128.1193114914077
 10
100.3539089375851
 20
-128.1193114914077
 10
100.7769666631738
 20
-128.1847683056274
 10
100.7769666631738
 20
-128.1847683056274
 10
100.7432047274184
 20
-128.12344560599
 10
100.7028971102409
 20
-128.0411078238925
 10
100.7028971102409
 20
-127.9225965391999
 10
100.7028971102409
 20
-127.668693001937
 10
100.889276775993
 20
-127.4316704325518
 10
101.2024359556022
 20
-127.4316704325518
 10
101.5197292497937
 20
-127.4316704325518
 10
101.7543402523392
 20
-127.6559461486416
 10
101.7543402523392
 20
-127.9584255322465
 97
        0
 97
        0
 75
     2
 76
     1
 98
        0
  0
ENDBLK
  5
DB
330
D8
100
AcDbEntity
  8
0
100
AcDbBlockEnd
  0
ENDSEC
  0
SECTION
  2
ENTITIES
  0
INSERT
  5
42
330
1F
100
AcDbEntity
  8
_U+30EC_U+30A4_U+30E4_U+30FC 1
100
AcDbBlockReference
  2
block 2
 10
0.0
 20
0.0
 30
0.0
  0
ENDSEC
  0
SECTION
  2
OBJECTS
  0
DICTIONARY
  5
C
330
0
100
AcDbDictionary
281
     1
  3
ACAD_GROUP
350
D
  3
ACAD_LAYOUT
350
1A
  3
ACAD_MATERIAL
350
3B
  3
ACAD_MLEADERSTYLE
350
EB
  3
ACAD_MLINESTYLE
350
17
  3
ACAD_PLOTSETTINGS
350
19
  3
ACAD_PLOTSTYLENAME
350
E
  3
ACAD_TABLESTYLE
350
EA
  3
ACAD_VISUALSTYLE
350
2A
  0
SUN
  5
3F
330
29
100
AcDbSun
 90
        1
290
     0
 63
     7
421
 16777215
 40
1.0
291
     1
 91
  2455826
 92
 54000000
292
     0
 70
     2
 71
   256
280
     1
  0
DICTIONARY
  5
D
102
{ACAD_REACTORS
330
C
102
}
330
C
100
AcDbDictionary
281
     1
  0
DICTIONARY
  5
1A
102
{ACAD_REACTORS
330
C
102
}
330
C
100
AcDbDictionary
281
     1
  3
Layout1
350
1E
  3
Layout2
350
26
  3
Model
350
22
  0
DICTIONARY
  5
3B
102
{ACAD_REACTORS
330
C
102
}
330
C
100
AcDbDictionary
281
     1
  3
ByBlock
350
3D
  3
ByLayer
350
3C
  3
Global
350
3E
  0
DICTIONARY
  5
EB
102
{ACAD_REACTORS
330
C
102
}
330
C
100
AcDbDictionary
281
     1
  0
DICTIONARY
  5
17
102
{ACAD_REACTORS
330
C
102
}
330
C
100
AcDbDictionary
281
     1
  3
Standard
350
18
  0
DICTIONARY
  5
19
102
{ACAD_REACTORS
330
C
102
}
330
C
100
AcDbDictionary
281
     1
  0
ACDBDICTIONARYWDFLT
  5
E
102
{ACAD_REACTORS
330
C
102
}
330
C
100
AcDbDictionary
281
     1
  3
Normal
350
F
100
AcDbDictionaryWithDefault
340
F
  0
DICTIONARY
  5
EA
102
{ACAD_REACTORS
330
C
102
}
330
C
100
AcDbDictionary
281
     1
  0
DICTIONARY
  5
2A
102
{ACAD_REACTORS
330
C
102
}
330
C
100
AcDbDictionary
281
     1
  3
2dWireframe
350
2F
  3
3D Hidden
350
31
  3
3dWireframe
350
30
  3
Basic
350
32
  3
Brighten
350
36
  3
ColorChange
350
3A
  3
Conceptual
350
34
  3
Dim
350
35
  3
Facepattern
350
39
  3
Flat
350
2B
  3
FlatWithEdges
350
2C
  3
Gouraud
350
2D
  3
GouraudWithEdges
350
2E
  3
Linepattern
350
38
  3
Realistic
350
33
  3
Thicken
350
37
  0
LAYOUT
  5
1E
102
{ACAD_REACTORS
330
1A
102
}
330
1A
100
AcDbPlotSettings
  1

  2
none_device
  4

  6

 40
0.0
 41
0.0
 42
0.0
 43
0.0
 44
0.0
 45
0.0
 46
0.0
 47
0.0
 48
0.0
 49
0.0
140
0.0
141
0.0
142
1.0
143
1.0
 70
   688
 72
     0
 73
     0
 74
     5
  7

 75
    16
 76
     0
 77
     2
 78
   300
147
1.0
148
0.0
149
0.0
100
AcDbLayout
  1
Layout1
 70
     1
 71
     1
 10
0.0
 20
0.0
 11
12.0
 21
9.0
 12
0.0
 22
0.0
 32
0.0
 14
1.000000000000000E+20
 24
1.000000000000000E+20
 34
1.000000000000000E+20
 15
-1.000000000000000E+20
 25
-1.000000000000000E+20
 35
-1.000000000000000E+20
146
0.0
 13
0.0
 23
0.0
 33
0.0
 16
1.0
 26
0.0
 36
0.0
 17
0.0
 27
1.0
 37
0.0
 76
     0
330
1B
  0
LAYOUT
  5
26
102
{ACAD_REACTORS
330
1A
102
}
330
1A
100
AcDbPlotSettings
  1

  2
none_device
  4

  6

 40
0.0
 41
0.0
 42
0.0
 43
0.0
 44
0.0
 45
0.0
 46
0.0
 47
0.0
 48
0.0
 49
0.0
140
0.0
141
0.0
142
1.0
143
1.0
 70
   688
 72
     0
 73
     0
 74
     5
  7

 75
    16
 76
     0
 77
     2
 78
   300
147
1.0
148
0.0
149
0.0
100
AcDbLayout
  1
Layout2
 70
     1
 71
     2
 10
0.0
 20
0.0
 11
0.0
 21
0.0
 12
0.0
 22
0.0
 32
0.0
 14
0.0
 24
0.0
 34
0.0
 15
0.0
 25
0.0
 35
0.0
146
0.0
 13
0.0
 23
0.0
 33
0.0
 16
1.0
 26
0.0
 36
0.0
 17
0.0
 27
1.0
 37
0.0
 76
     0
330
23
  0
LAYOUT
  5
22
102
{ACAD_REACTORS
330
1A
102
}
330
1A
100
AcDbPlotSettings
  1

  2
none_device
  4

  6

 40
0.0
 41
0.0
 42
0.0
 43
0.0
 44
0.0
 45
0.0
 46
0.0
 47
0.0
 48
0.0
 49
0.0
140
0.0
141
0.0
142
1.0
143
1.0
 70
  1712
 72
     0
 73
     0
 74
     0
  7

 75
     0
 76
     0
 77
     2
 78
   300
147
1.0
148
0.0
149
0.0
100
AcDbLayout
  1
Model
 70
     1
 71
     0
 10
0.0
 20
0.0
 11
12.0
 21
9.0
 12
0.0
 22
0.0
 32
0.0
 14
1.000000000000000E+20
 24
1.000000000000000E+20
 34
1.000000000000000E+20
 15
-1.000000000000000E+20
 25
-1.000000000000000E+20
 35
-1.000000000000000E+20
146
0.0
 13
0.0
 23
0.0
 33
0.0
 16
1.0
 26
0.0
 36
0.0
 17
0.0
 27
1.0
 37
0.0
 76
     0
330
1F
331
29
  0
MATERIAL
  5
3D
102
{ACAD_REACTORS
330
3B
102
}
330
3B
100
AcDbMaterial
  1
ByBlock
 72
     1
 94
      127
  0
MATERIAL
  5
3C
102
{ACAD_REACTORS
330
3B
102
}
330
3B
100
AcDbMaterial
  1
ByLayer
 72
     1
 94
      127
  0
MATERIAL
  5
3E
102
{ACAD_REACTORS
330
3B
102
}
330
3B
100
AcDbMaterial
  1
Global
 72
     1
 94
      127
  0
MLINESTYLE
  5
18
102
{ACAD_REACTORS
330
17
102
}
330
17
100
AcDbMlineStyle
  2
Standard
 70
     0
  3

 62
   256
 51
90.0
 52
90.0
 71
     2
 49
0.5
 62
   256
  6
BYLAYER
 49
-0.5
 62
   256
  6
BYLAYER
  0
ACDBPLACEHOLDER
  5
F
102
{ACAD_REACTORS
330
E
102
}
330
E
  0
VISUALSTYLE
  5
2F
102
{ACAD_REACTORS
330
2A
102
}
330
2A
100
AcDbVisualStyle
  2
2dWireframe
 70
     4
177
     2
291
     0
 71
     0
176
     1
 72
     2
176
     1
 73
     0
176
     1
 90
        0
176
     1
 40
-0.6
176
     1
 41
-30.0
176
     1
 62
     5
 63
     7
421
 16777215
176
     1
 74
     1
176
     1
 91
        4
176
     1
 64
     7
176
     1
 65
   257
176
     1
 75
     1
176
     1
175
     1
176
     1
 42
1.0
176
     1
 92
        0
176
     1
 66
   257
176
     1
 43
1.0
176
     1
 76
     1
176
     1
 77
     6
176
     1
 78
     2
176
     1
 67
     7
176
     1
 79
     5
176
     1
170
     0
176
     1
171
     0
176
     1
290
     0
176
     1
 93
        1
176
     1
 44
0.0
176
     1
173
     0
176
     1
  0
VISUALSTYLE
  5
31
102
{ACAD_REACTORS
330
2A
102
}
330
2A
100
AcDbVisualStyle
  2
3D Hidden
 70
     6
177
     2
291
     0
 71
     1
176
     1
 72
     2
176
     1
 73
     2
176
     1
 90
        0
176
     1
 40
-0.6
176
     1
 41
-30.0
176
     1
 62
     5
 63
     7
421
 16777215
176
     1
 74
     2
176
     1
 91
        2
176
     1
 64
     7
176
     1
 65
   257
176
     1
 75
     2
176
     1
175
     1
176
     1
 42
40.0
176
     1
 92
        0
176
     1
 66
   257
176
     1
 43
1.0
176
     1
 76
     1
176
     1
 77
     6
176
     1
 78
     2
176
     1
 67
     7
176
     1
 79
     3
176
     1
170
     0
176
     1
171
     0
176
     1
290
     0
176
     1
 93
        1
176
     1
 44
0.0
176
     1
173
     0
176
     1
  0
VISUALSTYLE
  5
30
102
{ACAD_REACTORS
330
2A
102
}
330
2A
100
AcDbVisualStyle
  2
3dWireframe
 70
     5
177
     2
291
     0
 71
     0
176
     1
 72
     2
176
     1
 73
     0
176
     1
 90
        0
176
     1
 40
-0.6
176
     1
 41
-30.0
176
     1
 62
     5
 63
     7
421
 16777215
176
     1
 74
     1
176
     1
 91
        4
176
     1
 64
     7
176
     1
 65
   257
176
     1
 75
     1
176
     1
175
     1
176
     1
 42
1.0
176
     1
 92
        0
176
     1
 66
   257
176
     1
 43
1.0
176
     1
 76
     1
176
     1
 77
     6
176
     1
 78
     2
176
     1
 67
     7
176
     1
 79
     5
176
     1
170
     0
176
     1
171
     0
176
     1
290
     0
176
     1
 93
        1
176
     1
 44
0.0
176
     1
173
     0
176
     1
  0
VISUALSTYLE
  5
32
102
{ACAD_REACTORS
330
2A
102
}
330
2A
100
AcDbVisualStyle
  2
Basic
 70
     7
177
     2
291
     1
 71
     1
176
     1
 72
     0
176
     1
 73
     1
176
     1
 90
        0
176
     1
 40
-0.6
176
     1
 41
-30.0
176
     1
 62
     5
 63
     7
421
 16777215
176
     1
 74
     0
176
     1
 91
        4
176
     1
 64
     7
176
     1
 65
   257
176
     1
 75
     1
176
     1
175
     1
176
     1
 42
1.0
176
     1
 92
        8
176
     1
 66
     7
176
     1
 43
1.0
176
     1
 76
     1
176
     1
 77
     6
176
     1
 78
     2
176
     1
 67
     7
176
     1
 79
     5
176
     1
170
     0
176
     1
171
     0
176
     1
290
     0
176
     1
 93
        1
176
     1
 44
0.0
176
     1
173
     0
176
     1
  0
VISUALSTYLE
  5
36
102
{ACAD_REACTORS
330
2A
102
}
330
2A
100
AcDbVisualStyle
  2
Brighten
 70
    12
177
     2
291
     1
 71
     2
176
     1
 72
     2
176
     1
 73
     0
176
     1
 90
        0
176
     1
 40
-0.6
176
     1
 41
-30.0
176
     1
 62
     5
 63
     7
421
 16777215
176
     1
 74
     1
176
     1
 91
        4
176
     1
 64
     7
176
     1
 65
   257
176
     1
 75
     1
176
     1
175
     1
176
     1
 42
1.0
176
     1
 92
        8
176
     1
 66
     7
176
     1
 43
1.0
176
     1
 76
     1
176
     1
 77
     6
176
     1
 78
     2
176
     1
 67
     7
176
     1
 79
     5
176
     1
170
     0
176
     1
171
     0
176
     1
290
     0
176
     1
 93
        1
176
     1
 44
50.0
176
     1
173
     0
176
     1
  0
VISUALSTYLE
  5
3A
102
{ACAD_REACTORS
330
2A
102
}
330
2A
100
AcDbVisualStyle
  2
ColorChange
 70
    16
177
     2
291
     1
 71
     2
176
     1
 72
     2
176
     1
 73
     3
176
     1
 90
        0
176
     1
 40
-0.6
176
     1
 41
-30.0
176
     1
 62
     5
 63
     8
421
  8421504
176
     1
 74
     1
176
     1
 91
        4
176
     1
 64
     7
176
     1
 65
   257
176
     1
 75
     1
176
     1
175
     1
176
     1
 42
1.0
176
     1
 92
        8
176
     1
 66
     8
424
  8421504
176
     1
 43
1.0
176
     1
 76
     1
176
     1
 77
     6
176
     1
 78
     2
176
     1
 67
     7
176
     1
 79
     5
176
     1
170
     0
176
     1
171
     0
176
     1
290
     0
176
     1
 93
        1
176
     1
 44
0.0
176
     1
173
     0
176
     1
  0
VISUALSTYLE
  5
34
102
{ACAD_REACTORS
330
2A
102
}
330
2A
100
AcDbVisualStyle
  2
Conceptual
 70
     9
177
     2
291
     0
 71
     3
176
     1
 72
     2
176
     1
 73
     0
176
     1
 90
        0
176
     1
 40
-0.6
176
     1
 41
-30.0
176
     1
 62
     5
 63
     7
421
 16777215
176
     1
 74
     2
176
     1
 91
        2
176
     1
 64
     7
176
     1
 65
   257
176
     1
 75
     1
176
     1
175
     1
176
     1
 42
40.0
176
     1
 92
        8
176
     1
 66
     7
176
     1
 43
1.0
176
     1
 76
     1
176
     1
 77
     6
176
     1
 78
     2
176
     1
 67
     7
176
     1
 79
     3
176
     1
170
     0
176
     1
171
     0
176
     1
290
     0
176
     1
 93
        1
176
     1
 44
0.0
176
     1
173
     0
176
     1
  0
VISUALSTYLE
  5
35
102
{ACAD_REACTORS
330
2A
102
}
330
2A
100
AcDbVisualStyle
  2
Dim
 70
    11
177
     2
291
     1
 71
     2
176
     1
 72
     2
176
     1
 73
     0
176
     1
 90
        0
176
     1
 40
-0.6
176
     1
 41
-30.0
176
     1
 62
     5
 63
     7
421
 16777215
176
     1
 74
     1
176
     1
 91
        4
176
     1
 64
     7
176
     1
 65
   257
176
     1
 75
     1
176
     1
175
     1
176
     1
 42
1.0
176
     1
 92
        8
176
     1
 66
     7
176
     1
 43
1.0
176
     1
 76
     1
176
     1
 77
     6
176
     1
 78
     2
176
     1
 67
     7
176
     1
 79
     5
176
     1
170
     0
176
     1
171
     0
176
     1
290
     0
176
     1
 93
        1
176
     1
 44
-50.0
176
     1
173
     0
176
     1
  0
VISUALSTYLE
  5
39
102
{ACAD_REACTORS
330
2A
102
}
330
2A
100
AcDbVisualStyle
  2
Facepattern
 70
    15
177
     2
291
     1
 71
     2
176
     1
 72
     2
176
     1
 73
     0
176
     1
 90
        0
176
     1
 40
-0.6
176
     1
 41
-30.0
176
     1
 62
     5
 63
     7
421
 16777215
176
     1
 74
     1
176
     1
 91
        4
176
     1
 64
     7
176
     1
 65
   257
176
     1
 75
     1
176
     1
175
     1
176
     1
 42
1.0
176
     1
 92
        8
176
     1
 66
     7
176
     1
 43
1.0
176
     1
 76
     1
176
     1
 77
     6
176
     1
 78
     2
176
     1
 67
     7
176
     1
 79
     5
176
     1
170
     0
176
     1
171
     0
176
     1
290
     0
176
     1
 93
        1
176
     1
 44
0.0
176
     1
173
     0
176
     1
  0
VISUALSTYLE
  5
2B
102
{ACAD_REACTORS
330
2A
102
}
330
2A
100
AcDbVisualStyle
  2
Flat
 70
     0
177
     2
291
     1
 71
     2
176
     1
 72
     1
176
     1
 73
     1
176
     1
 90
        2
176
     1
 40
-0.6
176
     1
 41
30.0
176
     1
 62
     5
 63
     7
421
 16777215
176
     1
 74
     0
176
     1
 91
        4
176
     1
 64
     7
176
     1
 65
   257
176
     1
 75
     1
176
     1
175
     1
176
     1
 42
1.0
176
     1
 92
        8
176
     1
 66
     7
176
     1
 43
1.0
176
     1
 76
     1
176
     1
 77
     6
176
     1
 78
     2
176
     1
 67
     7
176
     1
 79
     5
176
     1
170
     0
176
     1
171
     0
176
     1
290
     0
176
     1
 93
       13
176
     1
 44
0.0
176
     1
173
     0
176
     1
  0
VISUALSTYLE
  5
2C
102
{ACAD_REACTORS
330
2A
102
}
330
2A
100
AcDbVisualStyle
  2
FlatWithEdges
 70
     1
177
     2
291
     1
 71
     2
176
     1
 72
     1
176
     1
 73
     1
176
     1
 90
        2
176
     1
 40
-0.6
176
     1
 41
30.0
176
     1
 62
     5
 63
     7
421
 16777215
176
     1
 74
     1
176
     1
 91
        4
176
     1
 64
     7
176
     1
 65
   257
176
     1
 75
     1
176
     1
175
     1
176
     1
 42
1.0
176
     1
 92
        0
176
     1
 66
   257
176
     1
 43
1.0
176
     1
 76
     1
176
     1
 77
     6
176
     1
 78
     2
176
     1
 67
     7
176
     1
 79
     5
176
     1
170
     0
176
     1
171
     0
176
     1
290
     0
176
     1
 93
       13
176
     1
 44
0.0
176
     1
173
     0
176
     1
  0
VISUALSTYLE
  5
2D
102
{ACAD_REACTORS
330
2A
102
}
330
2A
100
AcDbVisualStyle
  2
Gouraud
 70
     2
177
     2
291
     1
 71
     2
176
     1
 72
     2
176
     1
 73
     1
176
     1
 90
        2
176
     1
 40
-0.6
176
     1
 41
30.0
176
     1
 62
     5
 63
     7
421
 16777215
176
     1
 74
     0
176
     1
 91
        4
176
     1
 64
     7
176
     1
 65
   257
176
     1
 75
     1
176
     1
175
     1
176
     1
 42
1.0
176
     1
 92
        0
176
     1
 66
     7
176
     1
 43
1.0
176
     1
 76
     1
176
     1
 77
     6
176
     1
 78
     2
176
     1
 67
     7
176
     1
 79
     5
176
     1
170
     0
176
     1
171
     0
176
     1
290
     0
176
     1
 93
       13
176
     1
 44
0.0
176
     1
173
     0
176
     1
  0
VISUALSTYLE
  5
2E
102
{ACAD_REACTORS
330
2A
102
}
330
2A
100
AcDbVisualStyle
  2
GouraudWithEdges
 70
     3
177
     2
291
     1
 71
     2
176
     1
 72
     2
176
     1
 73
     1
176
     1
 90
        2
176
     1
 40
-0.6
176
     1
 41
30.0
176
     1
 62
     5
 63
     7
421
 16777215
176
     1
 74
     1
176
     1
 91
        4
176
     1
 64
     7
176
     1
 65
   257
176
     1
 75
     1
176
     1
175
     1
176
     1
 42
1.0
176
     1
 92
        0
176
     1
 66
   257
176
     1
 43
1.0
176
     1
 76
     1
176
     1
 77
     6
176
     1
 78
     2
176
     1
 67
     7
176
     1
 79
     5
176
     1
170
     0
176
     1
171
     0
176
     1
290
     0
176
     1
 93
       13
176
     1
 44
0.0
176
     1
173
     0
176
     1
  0
VISUALSTYLE
  5
38
102
{ACAD_REACTORS
330
2A
102
}
330
2A
100
AcDbVisualStyle
  2
Linepattern
 70
    14
177
     2
291
     1
 71
     2
176
     1
 72
     2
176
     1
 73
     0
176
     1
 90
        0
176
     1
 40
-0.6
176
     1
 41
-30.0
176
     1
 62
     5
 63
     7
421
 16777215
176
     1
 74
     1
176
     1
 91
        4
176
     1
 64
     7
176
     1
 65
   257
176
     1
 75
     7
176
     1
175
     7
176
     1
 42
1.0
176
     1
 92
        8
176
     1
 66
     7
176
     1
 43
1.0
176
     1
 76
     1
176
     1
 77
     6
176
     1
 78
     2
176
     1
 67
     7
176
     1
 79
     5
176
     1
170
     0
176
     1
171
     0
176
     1
290
     0
176
     1
 93
        1
176
     1
 44
0.0
176
     1
173
     0
176
     1
  0
VISUALSTYLE
  5
33
102
{ACAD_REACTORS
330
2A
102
}
330
2A
100
AcDbVisualStyle
  2
Realistic
 70
     8
177
     2
291
     0
 71
     2
176
     1
 72
     2
176
     1
 73
     0
176
     1
 90
        0
176
     1
 40
-0.6
176
     1
 41
-30.0
176
     1
 62
     5
 63
     7
421
 16777215
176
     1
 74
     1
176
     1
 91
        0
176
     1
 64
     7
176
     1
 65
   257
176
     1
 75
     1
176
     1
175
     1
176
     1
 42
1.0
176
     1
 92
        8
176
     1
 66
     8
424
  7895160
176
     1
 43
1.0
176
     1
 76
     1
176
     1
 77
     6
176
     1
 78
     2
176
     1
 67
     7
176
     1
 79
     5
176
     1
170
     0
176
     1
171
     0
176
     1
290
     0
176
     1
 93
       13
176
     1
 44
0.0
176
     1
173
     0
176
     1
  0
VISUALSTYLE
  5
37
102
{ACAD_REACTORS
330
2A
102
}
330
2A
100
AcDbVisualStyle
  2
Thicken
 70
    13
177
     2
291
     1
 71
     2
176
     1
 72
     2
176
     1
 73
     0
176
     1
 90
        0
176
     1
 40
-0.6
176
     1
 41
-30.0
176
     1
 62
     5
 63
     7
421
 16777215
176
     1
 74
     1
176
     1
 91
        4
176
     1
 64
     7
176
     1
 65
   257
176
     1
 75
     1
176
     1
175
     1
176
     1
 42
1.0
176
     1
 92
       12
176
     1
 66
     7
176
     1
 43
1.0
176
     1
 76
     1
176
     1
 77
     6
176
     1
 78
     2
176
     1
 67
     7
176
     1
 79
     5
176
     1
170
     0
176
     1
171
     0
176
     1
290
     0
176
     1
 93
        1
176
     1
 44
0.0
176
     1
173
     0
176
     1
  0
ENDSEC
  0
EOF
