  0
SECTION
  2
HEADER
  9
$ACADVER
  1
AC1024
  9
$ACADMAINTVER
 70
     6
  9
$DWGCODEPAGE
  3
UNDEFINED
  9
$INSBASE
 10
0.0
 20
0.0
 30
0.0
  9
$EXTMIN
 10
1.000000000000000E+20
 20
1.000000000000000E+20
 30
1.000000000000000E+20
  9
$EXTMAX
 10
-1.000000000000000E+20
 20
-1.000000000000000E+20
 30
-1.000000000000000E+20
  9
$LIMMIN
 10
0.0
 20
0.0
  9
$LIMMAX
 10
12.0
 20
9.0
  9
$ORTHOMODE
 70
     0
  9
$REGENMODE
 70
     1
  9
$FILLMODE
 70
     1
  9
$QTEXTMODE
 70
     0
  9
$MIRRTEXT
 70
     1
  9
$LTSCALE
 40
1.0
  9
$ATTMODE
 70
     1
  9
$TEXTSIZE
 40
0.2
  9
$TRACEWID
 40
0.05
  9
$TEXTSTYLE
  7
Standard
  9
$CLAYER
  8
0
  9
$CELTYPE
  6
ByLayer
  9
$CECOLOR
 62
   256
  9
$CELTSCALE
 40
1.0
  9
$DISPSILH
 70
     0
  9
$DIMSCALE
 40
1.0
  9
$DIMASZ
 40
0.18
  9
$DIMEXO
 40
0.0625
  9
$DIMDLI
 40
0.38
  9
$DIMRND
 40
0.0
  9
$DIMDLE
 40
0.0
  9
$DIMEXE
 40
0.18
  9
$DIMTP
 40
0.0
  9
$DIMTM
 40
0.0
  9
$DIMTXT
 40
0.18
  9
$DIMCEN
 40
0.09
  9
$DIMTSZ
 40
0.0
  9
$DIMTOL
 70
     0
  9
$DIMLIM
 70
     0
  9
$DIMTIH
 70
     1
  9
$DIMTOH
 70
     1
  9
$DIMSE1
 70
     0
  9
$DIMSE2
 70
     0
  9
$DIMTAD
 70
     0
  9
$DIMZIN
 70
     0
  9
$DIMBLK
  1

  9
$DIMASO
 70
     1
  9
$DIMSHO
 70
     1
  9
$DIMPOST
  1

  9
$DIMAPOST
  1

  9
$DIMALT
 70
     0
  9
$DIMALTD
 70
     2
  9
$DIMALTF
 40
25.4
  9
$DIMLFAC
 40
1.0
  9
$DIMTOFL
 70
     0
  9
$DIMTVP
 40
0.0
  9
$DIMTIX
 70
     0
  9
$DIMSOXD
 70
     0
  9
$DIMSAH
 70
     0
  9
$DIMBLK1
  1

  9
$DIMBLK2
  1

  9
$DIMSTYLE
  2
Standard
  9
$DIMCLRD
 70
     0
  9
$DIMCLRE
 70
     0
  9
$DIMCLRT
 70
     0
  9
$DIMTFAC
 40
1.0
  9
$DIMGAP
 40
0.09
  9
$DIMJUST
 70
     0
  9
$DIMSD1
 70
     0
  9
$DIMSD2
 70
     0
  9
$DIMTOLJ
 70
     1
  9
$DIMTZIN
 70
     0
  9
$DIMALTZ
 70
     0
  9
$DIMALTTZ
 70
     0
  9
$DIMUPT
 70
     0
  9
$DIMDEC
 70
     4
  9
$DIMTDEC
 70
     4
  9
$DIMALTU
 70
     2
  9
$DIMALTTD
 70
     2
  9
$DIMTXSTY
  7
Standard
  9
$DIMAUNIT
 70
     0
  9
$DIMADEC
 70
     0
  9
$DIMALTRND
 40
0.0
  9
$DIMAZIN
 70
     0
  9
$DIMDSEP
 70
    46
  9
$DIMATFIT
 70
     3
  9
$DIMFRAC
 70
     0
  9
$DIMLDRBLK
  1

  9
$DIMLUNIT
 70
     2
  9
$DIMLWD
 70
    -2
  9
$DIMLWE
 70
    -2
  9
$DIMTMOVE
 70
     0
  9
$DIMFXL
 40
1.0
  9
$DIMFXLON
 70
     0
  9
$DIMJOGANG
 40
0.7853981633974483
  9
$DIMTFILL
 70
     0
  9
$DIMTFILLCLR
 70
     0
  9
$DIMARCSYM
 70
     0
  9
$DIMLTYPE
  6

  9
$DIMLTEX1
  6

  9
$DIMLTEX2
  6

  9
$DIMTXTDIRECTION
 70
     0
  9
$LUNITS
 70
     2
  9
$LUPREC
 70
     4
  9
$SKETCHINC
 40
0.1
  9
$FILLETRAD
 40
0.5
  9
$AUNITS
 70
     0
  9
$AUPREC
 70
     0
  9
$MENU
  1
.
  9
$ELEVATION
 40
0.0
  9
$PELEVATION
 40
0.0
  9
$THICKNESS
 40
0.0
  9
$LIMCHECK
 70
     0
  9
$CHAMFERA
 40
0.5
  9
$CHAMFERB
 40
0.5
  9
$CHAMFERC
 40
1.0
  9
$CHAMFERD
 40
0.0
  9
$SKPOLY
 70
     0
  9
$TDCREATE
 40
2457917.612384248
  9
$TDUCREATE
 40
2457917.237384259
  9
$TDUPDATE
 40
2457917.612384248
  9
$TDUUPDATE
 40
2457917.237384259
  9
$TDINDWG
 40
0.0000000116
  9
$TDUSRTIMER
 40
0.0000000116
  9
$USRTIMER
 70
     1
  9
$ANGBASE
 50
0.0
  9
$ANGDIR
 70
     0
  9
$PDMODE
 70
     0
  9
$PDSIZE
 40
0.0
  9
$PLINEWID
 40
0.0
  9
$SPLFRAME
 70
     0
  9
$SPLINETYPE
 70
     6
  9
$SPLINESEGS
 70
     8
  9
$HANDSEED
  5
F4
  9
$SURFTAB1
 70
     6
  9
$SURFTAB2
 70
     6
  9
$SURFTYPE
 70
     6
  9
$SURFU
 70
     6
  9
$SURFV
 70
     6
  9
$UCSBASE
  2

  9
$UCSNAME
  2

  9
$UCSORG
 10
0.0
 20
0.0
 30
0.0
  9
$UCSXDIR
 10
1.0
 20
0.0
 30
0.0
  9
$UCSYDIR
 10
0.0
 20
1.0
 30
0.0
  9
$UCSORTHOREF
  2

  9
$UCSORTHOVIEW
 70
     0
  9
$UCSORGTOP
 10
0.0
 20
0.0
 30
0.0
  9
$UCSORGBOTTOM
 10
0.0
 20
0.0
 30
0.0
  9
$UCSORGLEFT
 10
0.0
 20
0.0
 30
0.0
  9
$UCSORGRIGHT
 10
0.0
 20
0.0
 30
0.0
  9
$UCSORGFRONT
 10
0.0
 20
0.0
 30
0.0
  9
$UCSORGBACK
 10
0.0
 20
0.0
 30
0.0
  9
$PUCSBASE
  2

  9
$PUCSNAME
  2

  9
$PUCSORG
 10
0.0
 20
0.0
 30
0.0
  9
$PUCSXDIR
 10
1.0
 20
0.0
 30
0.0
  9
$PUCSYDIR
 10
0.0
 20
1.0
 30
0.0
  9
$PUCSORTHOREF
  2

  9
$PUCSORTHOVIEW
 70
     0
  9
$PUCSORGTOP
 10
0.0
 20
0.0
 30
0.0
  9
$PUCSORGBOTTOM
 10
0.0
 20
0.0
 30
0.0
  9
$PUCSORGLEFT
 10
0.0
 20
0.0
 30
0.0
  9
$PUCSORGRIGHT
 10
0.0
 20
0.0
 30
0.0
  9
$PUCSORGFRONT
 10
0.0
 20
0.0
 30
0.0
  9
$PUCSORGBACK
 10
0.0
 20
0.0
 30
0.0
  9
$USERI1
 70
     0
  9
$USERI2
 70
     0
  9
$USERI3
 70
     0
  9
$USERI4
 70
     0
  9
$USERI5
 70
     0
  9
$USERR1
 40
0.0
  9
$USERR2
 40
0.0
  9
$USERR3
 40
0.0
  9
$USERR4
 40
0.0
  9
$USERR5
 40
0.0
  9
$WORLDVIEW
 70
     1
  9
$SHADEDGE
 70
     3
  9
$SHADEDIF
 70
    70
  9
$TILEMODE
 70
     1
  9
$MAXACTVP
 70
    64
  9
$PINSBASE
 10
0.0
 20
0.0
 30
0.0
  9
$PLIMCHECK
 70
     0
  9
$PEXTMIN
 10
1.000000000000000E+20
 20
1.000000000000000E+20
 30
1.000000000000000E+20
  9
$PEXTMAX
 10
-1.000000000000000E+20
 20
-1.000000000000000E+20
 30
-1.000000000000000E+20
  9
$PLIMMIN
 10
0.0
 20
0.0
  9
$PLIMMAX
 10
12.0
 20
9.0
  9
$UNITMODE
 70
     0
  9
$VISRETAIN
 70
     1
  9
$PLINEGEN
 70
     0
  9
$PSLTSCALE
 70
     1
  9
$TREEDEPTH
 70
  3020
  9
$CMLSTYLE
  2
Standard
  9
$CMLJUST
 70
     0
  9
$CMLSCALE
 40
1.0
  9
$PROXYGRAPHICS
 70
     1
  9
$MEASUREMENT
 70
     0
  9
$CELWEIGHT
370
    -1
  9
$ENDCAPS
280
     0
  9
$JOINSTYLE
280
     0
  9
$LWDISPLAY
290
     1
  9
$INSUNITS
 70
     1
  9
$HYPERLINKBASE
  1

  9
$STYLESHEET
  1

  9
$XEDIT
290
     1
  9
$CEPSNTYPE
380
     0
  9
$PSTYLEMODE
290
     1
  9
$FINGERPRINTGUID
  2
{D655CAE9-8477-EDD5-A32C-A74C8740F16D}
  9
$VERSIONGUID
  2
{FAEB1C32-E019-11D5-929B-00C0DF256EC4}
  9
$EXTNAMES
290
     1
  9
$PSVPSCALE
 40
0.0
  9
$OLESTARTUP
290
     0
  9
$SORTENTS
280
   127
  9
$INDEXCTL
280
     0
  9
$HIDETEXT
280
     1
  9
$XCLIPFRAME
280
     2
  9
$HALOGAP
280
     0
  9
$OBSCOLOR
 70
   257
  9
$OBSLTYPE
280
     0
  9
$INTERSECTIONDISPLAY
280
     0
  9
$INTERSECTIONCOLOR
 70
   257
  9
$DIMASSOC
280
     2
  9
$PROJECTNAME
  1

  9
$CAMERADISPLAY
290
     0
  9
$LENSLENGTH
 40
50.0
  9
$CAMERAHEIGHT
 40
0.0
  9
$STEPSPERSEC
 40
2.0
  9
$STEPSIZE
 40
6.0
  9
$3DDWFPREC
 40
2.0
  9
$PSOLWIDTH
 40
0.25
  9
$PSOLHEIGHT
 40
4.0
  9
$LOFTANG1
 40
1.570796326794897
  9
$LOFTANG2
 40
1.570796326794897
  9
$LOFTMAG1
 40
0.0
  9
$LOFTMAG2
 40
0.0
  9
$LOFTPARAM
 70
     7
  9
$LOFTNORMALS
280
     1
  9
$LATITUDE
 40
37.795
  9
$LONGITUDE
 40
-122.394
  9
$NORTHDIRECTION
 40
0.0
  9
$TIMEZONE
 70
 -8000
  9
$LIGHTGLYPHDISPLAY
280
     1
  9
$TILEMODELIGHTSYNCH
280
     1
  9
$CMATERIAL
347
3C
  9
$SOLIDHIST
280
     1
  9
$SHOWHIST
280
     1
  9
$DWFFRAME
280
     2
  9
$DGNFRAME
280
     2
  9
$REALWORLDSCALE
290
     1
  9
$INTERFERECOLOR
 62
   256
  9
$CSHADOW
280
     0
  9
$SHADOWPLANELOCATION
 40
0.0
  0
ENDSEC
  0
SECTION
  2
CLASSES
  0
CLASS
  1
ACDBDICTIONARYWDFLT
  2
AcDbDictionaryWithDefault
  3
ObjectDBX Classes
 90
        0
 91
        4
280
     0
281
     0
  0
CLASS
  1
VISUALSTYLE
  2
AcDbVisualStyle
  3
ObjectDBX Classes
 90
     4095
 91
        4
280
     0
281
     0
  0
CLASS
  1
MATERIAL
  2
AcDbMaterial
  3
ObjectDBX Classes
 90
     1153
 91
        4
280
     0
281
     0
  0
CLASS
  1
SUN
  2
AcDbSun
  3
SCENEOE
 90
     1024
 91
        4
280
     0
281
     0
  0
ENDSEC
  0
SECTION
  2
TABLES
  0
TABLE
  2
VPORT
  5
8
330
0
100
AcDbSymbolTable
 70
     1
  0
VPORT
  5
29
330
8
100
AcDbSymbolTableRecord
100
AcDbViewportTableRecord
  2
*Active
 70
     0
 10
0.0
 20
0.0
 11
1.0
 21
1.0
 12
0.0
 22
0.0
 13
0.0
 23
0.0
 14
0.5
 24
0.5
 15
0.5
 25
0.5
 16
0.0
 26
0.0
 36
1.0
 17
91.00082462281999
 27
-128.4993055234307
 37
0.0
 40
256.9986110468615
 41
0.7081814508812795
 42
50.0
 43
0.0
 44
0.0
 50
0.0
 51
0.0
 71
     0
 72
   100
 73
     1
 74
     3
 75
     0
 76
     0
 77
     0
 78
     0
281
     0
 65
     1
110
0.0
120
0.0
130
0.0
111
1.0
121
0.0
131
0.0
112
0.0
122
1.0
132
0.0
 79
     0
146
0.0
 60
     3
 61
     5
292
     1
282
     1
141
0.0
142
0.0
 63
   250
361
3F
  0
ENDTAB
  0
TABLE
  2
LTYPE
  5
5
330
0
100
AcDbSymbolTable
 70
     1
  0
LTYPE
  5
14
330
5
100
AcDbSymbolTableRecord
100
AcDbLinetypeTableRecord
  2
ByBlock
 70
     0
  3

 72
    65
 73
     0
 40
0.0
  0
LTYPE
  5
15
330
5
100
AcDbSymbolTableRecord
100
AcDbLinetypeTableRecord
  2
ByLayer
 70
     0
  3

 72
    65
 73
     0
 40
0.0
  0
LTYPE
  5
16
330
5
100
AcDbSymbolTableRecord
100
AcDbLinetypeTableRecord
  2
Continuous
 70
     0
  3
Solid line
 72
    65
 73
     0
 40
0.0
  0
ENDTAB
  0
TABLE
  2
LAYER
  5
2
330
0
100
AcDbSymbolTable
 70
     2
  0
LAYER
  5
10
330
2
100
AcDbSymbolTableRecord
100
AcDbLayerTableRecord
  2
0
 70
     0
 62
     7
  6
Continuous
370
    -3
390
F
347
3E
  0
LAYER
  5
40
330
2
100
AcDbSymbolTableRecord
100
AcDbLayerTableRecord
  2
_U+30EC_U+30A4_U+30E4_U+30FC 1
 70
     0
 62
     7
  6
Continuous
370
    -3
390
F
347
3E
  0
ENDTAB
  0
TABLE
  2
STYLE
  5
3
330
0
100
AcDbSymbolTable
 70
     1
  0
STYLE
  5
11
330
3
100
AcDbSymbolTableRecord
100
AcDbTextStyleTableRecord
  2
Standard
 70
     0
 40
0.0
 41
1.0
 50
0.0
 71
     0
 42
0.2
  3
txt
  4

  0
ENDTAB
  0
TABLE
  2
VIEW
  5
6
330
0
100
AcDbSymbolTable
 70
     0
  0
ENDTAB
  0
TABLE
  2
UCS
  5
7
330
0
100
AcDbSymbolTable
 70
     0
  0
ENDTAB
  0
TABLE
  2
APPID
  5
9
330
0
100
AcDbSymbolTable
 70
     1
  0
APPID
  5
12
330
9
100
AcDbSymbolTableRecord
100
AcDbRegAppTableRecord
  2
ACAD
 70
     0
  0
ENDTAB
  0
TABLE
  2
DIMSTYLE
  5
A
330
0
100
AcDbSymbolTable
 70
     1
100
AcDbDimStyleTable
  0
DIMSTYLE
105
27
330
A
100
AcDbSymbolTableRecord
100
AcDbDimStyleTableRecord
  2
Standard
 70
     0
178
     0
340
11
  0
ENDTAB
  0
TABLE
  2
BLOCK_RECORD
  5
1
330
0
100
AcDbSymbolTable
 70
     9
  0
BLOCK_RECORD
  5
1F
330
1
100
AcDbSymbolTableRecord
100
AcDbBlockTableRecord
  2
*Model_Space
340
22
 70
     0
280
     1
281
     0
  0
BLOCK_RECORD
  5
1B
330
1
100
AcDbSymbolTableRecord
100
AcDbBlockTableRecord
  2
*Paper_Space
340
1E
 70
     0
280
     1
281
     0
  0
BLOCK_RECORD
  5
23
330
1
100
AcDbSymbolTableRecord
100
AcDbBlockTableRecord
  2
*Paper_Space0
340
26
 70
     0
280
     1
281
     0
  0
BLOCK_RECORD
  5
41
330
1
100
AcDbSymbolTableRecord
100
AcDbBlockTableRecord
  2
block 2
340
0
102
{BLKREFS
331
42
102
}
 70
     0
280
     1
281
     0
  0
BLOCK_RECORD
  5
83
330
1
100
AcDbSymbolTableRecord
100
AcDbBlockTableRecord
  2
block 3
340
0
102
{BLKREFS
331
84
102
}
 70
     0
280
     1
281
     0
  0
BLOCK_RECORD
  5
97
330
1
100
AcDbSymbolTableRecord
100
AcDbBlockTableRecord
  2
block 4
340
0
102
{BLKREFS
331
98
102
}
 70
     0
280
     1
281
     0
  0
BLOCK_RECORD
  5
9D
330
1
100
AcDbSymbolTableRecord
100
AcDbBlockTableRecord
  2
block 5
340
0
102
{BLKREFS
331
9E
102
}
 70
     0
280
     1
281
     0
  0
BLOCK_RECORD
  5
A9
330
1
100
AcDbSymbolTableRecord
100
AcDbBlockTableRecord
  2
block 6
340
0
102
{BLKREFS
331
AA
102
}
 70
     0
280
     1
281
     0
  0
BLOCK_RECORD
  5
B7
330
1
100
AcDbSymbolTableRecord
100
AcDbBlockTableRecord
  2
block 7
340
0
102
{BLKREFS
331
B8
102
}
 70
     0
280
     1
281
     0
  0
BLOCK_RECORD
  5
D5
330
1
100
AcDbSymbolTableRecord
100
AcDbBlockTableRecord
  2
block 8
340
0
102
{BLKREFS
331
D6
102
}
 70
     0
280
     1
281
     0
  0
BLOCK_RECORD
  5
E9
330
1
100
AcDbSymbolTableRecord
100
AcDbBlockTableRecord
  2
block 9
340
0
102
{BLKREFS
331
EA
102
}
 70
     0
280
     1
281
     0
  0
ENDTAB
  0
ENDSEC
  0
SECTION
  2
BLOCKS
  0
BLOCK
  5
20
330
1F
100
AcDbEntity
  8
0
100
AcDbBlockBegin
  2
*Model_Space
 70
     0
 10
0.0
 20
0.0
 30
0.0
  3
*Model_Space
  1

  0
ENDBLK
  5
21
330
1F
100
AcDbEntity
  8
0
100
AcDbBlockEnd
  0
BLOCK
  5
1C
330
1B
100
AcDbEntity
 67
     1
  8
0
100
AcDbBlockBegin
  2
*Paper_Space
 70
     0
 10
0.0
 20
0.0
 30
0.0
  3
*Paper_Space
  1

  0
ENDBLK
  5
1D
330
1B
100
AcDbEntity
 67
     1
  8
0
100
AcDbBlockEnd
  0
BLOCK
  5
24
330
23
100
AcDbEntity
  8
0
100
AcDbBlockBegin
  2
*Paper_Space0
 70
     0
 10
0.0
 20
0.0
 30
0.0
  3
*Paper_Space0
  1

  0
ENDBLK
  5
25
330
23
100
AcDbEntity
  8
0
100
AcDbBlockEnd
  0
BLOCK
  5
43
330
41
100
AcDbEntity
  8
0
100
AcDbBlockBegin
  2
block 2
 70
     0
 10
0.0
 20
0.0
 30
0.0
  3
block 2
  1

  0
POLYLINE
  5
45
330
41
100
AcDbEntity
  8
_U+30EC_U+30A4_U+30E4_U+30FC 1
370
     0
100
AcDb2dPolyline
 66
     1
 10
0.0
 20
0.0
 30
0.0
  0
VERTEX
  5
46
330
45
100
AcDbEntity
  8
_U+30EC_U+30A4_U+30E4_U+30FC 1
370
     0
100
AcDbVertex
100
AcDb2dVertex
 10
73.62771895493373
 20
-136.259711077046
 30
0.0
  0
VERTEX
  5
47
330
45
100
AcDbEntity
  8
_U+30EC_U+30A4_U+30E4_U+30FC 1
370
     0
100
AcDbVertex
100
AcDb2dVertex
 10
88.67108023781228
 20
-136.259711077046
 30
0.0
  0
VERTEX
  5
48
330
45
100
AcDbEntity
  8
_U+30EC_U+30A4_U+30E4_U+30FC 1
370
     0
100
AcDbVertex
100
AcDb2dVertex
 10
88.62698301671507
 20
-133.239051355579
 30
0.0
  0
VERTEX
  5
49
330
45
100
AcDbEntity
  8
_U+30EC_U+30A4_U+30E4_U+30FC 1
370
     0
100
AcDbVertex
100
AcDb2dVertex
 10
87.59069832093067
 20
-133.2170027444734
 30
0.0
  0
VERTEX
  5
4A
330
45
100
AcDbEntity
  8
_U+30EC_U+30A4_U+30E4_U+30FC 1
370
     0
100
AcDbVertex
100
AcDb2dVertex
 10
87.62788331142644
 20
-135.2234263550829
 30
0.0
  0
VERTEX
  5
4B
330
45
100
AcDbEntity
  8
_U+30EC_U+30A4_U+30E4_U+30FC 1
370
     0
100
AcDbVertex
100
AcDb2dVertex
 10
74.62816142941031
 20
-135.1572805217661
 30
0.0
  0
VERTEX
  5
4C
330
45
100
AcDbEntity
  8
_U+30EC_U+30A4_U+30E4_U+30FC 1
370
     0
100
AcDbVertex
100
AcDb2dVertex
 10
74.62816142941031
 20
-124.0962860800871
 30
0.0
  0
VERTEX
  5
4D
330
45
100
AcDbEntity
  8
_U+30EC_U+30A4_U+30E4_U+30FC 1
370
     0
100
AcDbVertex
100
AcDb2dVertex
 10
103.6029637457571
 20
-124.0962860800871
 30
0.0
  0
VERTEX
  5
4E
330
45
100
AcDbEntity
  8
_U+30EC_U+30A4_U+30E4_U+30FC 1
370
     0
100
AcDbVertex
100
AcDb2dVertex
 10
103.6029637457571
 20
-123.0965491358924
 30
0.0
  0
VERTEX
  5
4F
330
45
100
AcDbEntity
  8
_U+30EC_U+30A4_U+30E4_U+30FC 1
370
     0
100
AcDbVertex
100
AcDb2dVertex
 10
73.62771895493373
 20
-123.0965491358924
 30
0.0
  0
VERTEX
  5
50
330
45
100
AcDbEntity
  8
_U+30EC_U+30A4_U+30E4_U+30FC 1
370
     0
100
AcDbVertex
100
AcDb2dVertex
 10
73.62771895493373
 20
-136.259711077046
 30
0.0
  0
SEQEND
  5
52
330
45
100
AcDbEntity
  8
_U+30EC_U+30A4_U+30E4_U+30FC 1
370
     0
  0
HATCH
  5
51
330
41
100
AcDbEntity
  8
_U+30EC_U+30A4_U+30E4_U+30FC 1
 62
   253
420
 11711154
100
AcDbHatch
 10
0.0
 20
0.0
 30
0.0
210
0.0
220
0.0
230
1.0
  2
SOLID
 70
     1
 71
     0
 91
        1
 92
        1
 93
       10
 72
     1
 10
73.62771895493373
 20
-136.259711077046
 11
88.67108023781228
 21
-136.259711077046
 72
     1
 10
88.67108023781228
 20
-136.259711077046
 11
88.62698301671507
 21
-133.239051355579
 72
     1
 10
88.62698301671507
 20
-133.239051355579
 11
87.59069832093067
 21
-133.2170027444734
 72
     1
 10
87.59069832093067
 20
-133.2170027444734
 11
87.62788331142644
 21
-135.2234263550829
 72
     1
 10
87.62788331142644
 20
-135.2234263550829
 11
74.62816142941031
 21
-135.1572805217661
 72
     1
 10
74.62816142941031
 20
-135.1572805217661
 11
74.62816142941031
 21
-124.0962860800871
 72
     1
 10
74.62816142941031
 20
-124.0962860800871
 11
103.6029637457571
 21
-124.0962860800871
 72
     1
 10
103.6029637457571
 20
-124.0962860800871
 11
103.6029637457571
 21
-123.0965491358924
 72
     1
 10
103.6029637457571
 20
-123.0965491358924
 11
73.62771895493373
 21
-123.0965491358924
 72
     1
 10
73.62771895493373
 20
-123.0965491358924
 11
73.62771895493373
 21
-136.259711077046
 97
        0
 75
     2
 76
     1
 98
        0
  0
POLYLINE
  5
53
330
41
100
AcDbEntity
  8
_U+30EC_U+30A4_U+30E4_U+30FC 1
 62
     7
420
 16777215
370
    25
100
AcDb2dPolyline
 66
     1
 10
0.0
 20
0.0
 30
0.0
  0
VERTEX
  5
54
330
53
100
AcDbEntity
  8
_U+30EC_U+30A4_U+30E4_U+30FC 1
 62
     7
420
 16777215
370
    25
100
AcDbVertex
100
AcDb2dVertex
 10
73.62771895493373
 20
-123.0965491358924
 30
0.0
  0
VERTEX
  5
55
330
53
100
AcDbEntity
  8
_U+30EC_U+30A4_U+30E4_U+30FC 1
 62
     7
420
 16777215
370
    25
100
AcDbVertex
100
AcDb2dVertex
 10
103.6277666407596
 20
-123.0965491358924
 30
0.0
  0
SEQEND
  5
56
330
53
100
AcDbEntity
  8
_U+30EC_U+30A4_U+30E4_U+30FC 1
 62
     7
420
 16777215
370
    25
  0
POLYLINE
  5
57
330
41
100
AcDbEntity
  8
_U+30EC_U+30A4_U+30E4_U+30FC 1
 62
     7
420
 16777215
370
    25
100
AcDb2dPolyline
 66
     1
 10
0.0
 20
0.0
 30
0.0
  0
VERTEX
  5
58
330
57
100
AcDbEntity
  8
_U+30EC_U+30A4_U+30E4_U+30FC 1
 62
     7
420
 16777215
370
    25
100
AcDbVertex
100
AcDb2dVertex
 10
73.62771895493373
 20
-123.0965491358924
 30
0.0
  0
VERTEX
  5
59
330
57
100
AcDbEntity
  8
_U+30EC_U+30A4_U+30E4_U+30FC 1
 62
     7
420
 16777215
370
    25
100
AcDbVertex
100
AcDb2dVertex
 10
73.62771895493373
 20
-136.0971157993089
 30
0.0
  0
SEQEND
  5
5A
330
57
100
AcDbEntity
  8
_U+30EC_U+30A4_U+30E4_U+30FC 1
 62
     7
420
 16777215
370
    25
  0
POLYLINE
  5
5B
330
41
100
AcDbEntity
  8
_U+30EC_U+30A4_U+30E4_U+30FC 1
 62
     7
420
 16777215
370
    25
100
AcDb2dPolyline
 66
     1
 10
0.0
 20
0.0
 30
0.0
  0
VERTEX
  5
5C
330
5B
100
AcDbEntity
  8
_U+30EC_U+30A4_U+30E4_U+30FC 1
 62
     7
420
 16777215
370
    25
100
AcDbVertex
100
AcDb2dVertex
 10
103.6277666407596
 20
-123.0965491358924
 30
0.0
  0
VERTEX
  5
5D
330
5B
100
AcDbEntity
  8
_U+30EC_U+30A4_U+30E4_U+30FC 1
 62
     7
420
 16777215
370
    25
100
AcDbVertex
100
AcDb2dVertex
 10
103.6277666407596
 20
-124.0962860800871
 30
0.0
  0
SEQEND
  5
5E
330
5B
100
AcDbEntity
  8
_U+30EC_U+30A4_U+30E4_U+30FC 1
 62
     7
420
 16777215
370
    25
  0
POLYLINE
  5
5F
330
41
100
AcDbEntity
  8
_U+30EC_U+30A4_U+30E4_U+30FC 1
 62
     7
420
 16777215
370
    25
100
AcDb2dPolyline
 66
     1
 10
0.0
 20
0.0
 30
0.0
  0
VERTEX
  5
60
330
5F
100
AcDbEntity
  8
_U+30EC_U+30A4_U+30E4_U+30FC 1
 62
     7
420
 16777215
370
    25
100
AcDbVertex
100
AcDb2dVertex
 10
74.62816142941031
 20
-124.0962860800871
 30
0.0
  0
VERTEX
  5
61
330
5F
100
AcDbEntity
  8
_U+30EC_U+30A4_U+30E4_U+30FC 1
 62
     7
420
 16777215
370
    25
100
AcDbVertex
100
AcDb2dVertex
 10
103.6277666407596
 20
-124.0962860800871
 30
0.0
  0
SEQEND
  5
62
330
5F
100
AcDbEntity
  8
_U+30EC_U+30A4_U+30E4_U+30FC 1
 62
     7
420
 16777215
370
    25
  0
POLYLINE
  5
63
330
41
100
AcDbEntity
  8
_U+30EC_U+30A4_U+30E4_U+30FC 1
 62
     7
420
 16777215
370
    25
100
AcDb2dPolyline
 66
     1
 10
0.0
 20
0.0
 30
0.0
  0
VERTEX
  5
64
330
63
100
AcDbEntity
  8
_U+30EC_U+30A4_U+30E4_U+30FC 1
 62
     7
420
 16777215
370
    25
100
AcDbVertex
100
AcDb2dVertex
 10
88.62765553339867
 20
-133.1984113555891
 30
0.0
  0
VERTEX
  5
65
330
63
100
AcDbEntity
  8
_U+30EC_U+30A4_U+30E4_U+30FC 1
 62
     7
420
 16777215
370
    25
100
AcDbVertex
100
AcDb2dVertex
 10
88.62765553339867
 20
-136.1983982992834
 30
0.0
  0
SEQEND
  5
66
330
63
100
AcDbEntity
  8
_U+30EC_U+30A4_U+30E4_U+30FC 1
 62
     7
420
 16777215
370
    25
  0
POLYLINE
  5
67
330
41
100
AcDbEntity
  8
_U+30EC_U+30A4_U+30E4_U+30FC 1
 62
     7
420
 16777215
370
    25
100
AcDb2dPolyline
 66
     1
 10
0.0
 20
0.0
 30
0.0
  0
VERTEX
  5
68
330
67
100
AcDbEntity
  8
_U+30EC_U+30A4_U+30E4_U+30FC 1
 62
     7
420
 16777215
370
    25
100
AcDbVertex
100
AcDb2dVertex
 10
87.62788331142644
 20
-133.1984113555891
 30
0.0
  0
VERTEX
  5
69
330
67
100
AcDbEntity
  8
_U+30EC_U+30A4_U+30E4_U+30FC 1
 62
     7
420
 16777215
370
    25
100
AcDbVertex
100
AcDb2dVertex
 10
87.62788331142644
 20
-135.1986260773115
 30
0.0
  0
SEQEND
  5
6A
330
67
100
AcDbEntity
  8
_U+30EC_U+30A4_U+30E4_U+30FC 1
 62
     7
420
 16777215
370
    25
  0
POLYLINE
  5
6B
330
41
100
AcDbEntity
  8
_U+30EC_U+30A4_U+30E4_U+30FC 1
 62
     7
420
 16777215
370
    25
100
AcDb2dPolyline
 66
     1
 10
0.0
 20
0.0
 30
0.0
  0
VERTEX
  5
6C
330
6B
100
AcDbEntity
  8
_U+30EC_U+30A4_U+30E4_U+30FC 1
 62
     7
420
 16777215
370
    25
100
AcDbVertex
100
AcDb2dVertex
 10
74.62816142941031
 20
-124.0962860800871
 30
0.0
  0
VERTEX
  5
6D
330
6B
100
AcDbEntity
  8
_U+30EC_U+30A4_U+30E4_U+30FC 1
 62
     7
420
 16777215
370
    25
100
AcDbVertex
100
AcDb2dVertex
 10
74.62816142941031
 20
-135.096673299559
 30
0.0
  0
SEQEND
  5
6E
330
6B
100
AcDbEntity
  8
_U+30EC_U+30A4_U+30E4_U+30FC 1
 62
     7
420
 16777215
370
    25
  0
POLYLINE
  5
6F
330
41
100
AcDbEntity
  8
_U+30EC_U+30A4_U+30E4_U+30FC 1
 62
     7
420
 16777215
370
    25
100
AcDb2dPolyline
 66
     1
 10
0.0
 20
0.0
 30
0.0
  0
VERTEX
  5
70
330
6F
100
AcDbEntity
  8
_U+30EC_U+30A4_U+30E4_U+30FC 1
 62
     7
420
 16777215
370
    25
100
AcDbVertex
100
AcDb2dVertex
 10
87.62788331142644
 20
-133.1984113555891
 30
0.0
  0
VERTEX
  5
71
330
6F
100
AcDbEntity
  8
_U+30EC_U+30A4_U+30E4_U+30FC 1
 62
     7
420
 16777215
370
    25
100
AcDbVertex
100
AcDb2dVertex
 10
88.62765553339867
 20
-133.1984113555891
 30
0.0
  0
SEQEND
  5
72
330
6F
100
AcDbEntity
  8
_U+30EC_U+30A4_U+30E4_U+30FC 1
 62
     7
420
 16777215
370
    25
  0
POLYLINE
  5
73
330
41
100
AcDbEntity
  8
_U+30EC_U+30A4_U+30E4_U+30FC 1
 62
     7
420
 16777215
370
    25
100
AcDb2dPolyline
 66
     1
 10
0.0
 20
0.0
 30
0.0
  0
VERTEX
  5
74
330
73
100
AcDbEntity
  8
_U+30EC_U+30A4_U+30E4_U+30FC 1
 62
     7
420
 16777215
370
    25
100
AcDbVertex
100
AcDb2dVertex
 10
73.62771895493373
 20
-136.1983982992834
 30
0.0
  0
VERTEX
  5
75
330
73
100
AcDbEntity
  8
_U+30EC_U+30A4_U+30E4_U+30FC 1
 62
     7
420
 16777215
370
    25
100
AcDbVertex
100
AcDb2dVertex
 10
88.62765553339867
 20
-136.1983982992834
 30
0.0
  0
SEQEND
  5
76
330
73
100
AcDbEntity
  8
_U+30EC_U+30A4_U+30E4_U+30FC 1
 62
     7
420
 16777215
370
    25
  0
POLYLINE
  5
77
330
41
100
AcDbEntity
  8
_U+30EC_U+30A4_U+30E4_U+30FC 1
 62
     7
420
 16777215
370
    25
100
AcDb2dPolyline
 66
     1
 10
0.0
 20
0.0
 30
0.0
  0
VERTEX
  5
78
330
77
100
AcDbEntity
  8
_U+30EC_U+30A4_U+30E4_U+30FC 1
 62
     7
420
 16777215
370
    25
100
AcDbVertex
100
AcDb2dVertex
 10
74.62816142941031
 20
-135.1986260773115
 30
0.0
  0
VERTEX
  5
79
330
77
100
AcDbEntity
  8
_U+30EC_U+30A4_U+30E4_U+30FC 1
 62
     7
420
 16777215
370
    25
100
AcDbVertex
100
AcDb2dVertex
 10
87.62788331142644
 20
-135.1986260773115
 30
0.0
  0
SEQEND
  5
7A
330
77
100
AcDbEntity
  8
_U+30EC_U+30A4_U+30E4_U+30FC 1
 62
     7
420
 16777215
370
    25
  0
SPLINE
  5
7B
330
41
100
AcDbEntity
  8
_U+30EC_U+30A4_U+30E4_U+30FC 1
 62
     7
420
 16777215
370
     9
100
AcDbSpline
210
0.0
220
0.0
230
1.0
 70
    11
 71
     3
 72
    17
 73
    13
 74
     0
 42
0.0000000001
 43
0.0000000001
 12
1.0
 22
0.0
 32
0.0
 13
1.0
 23
0.0
 33
0.0
 40
0.0
 40
0.0
 40
0.0
 40
0.0
 40
1.0
 40
1.0
 40
1.0
 40
2.0
 40
2.0
 40
2.0
 40
3.0
 40
3.0
 40
3.0
 40
4.0
 40
4.0
 40
4.0
 40
4.0
 10
73.72762561905157
 20
-119.0960844146703
 30
0.0
 10
73.72762561905157
 20
-119.0409805257954
 30
0.0
 10
73.6828228424168
 20
-118.9961777480287
 30
0.0
 10
73.62771895493373
 20
-118.9961777480287
 30
0.0
 10
73.57257978967378
 20
-118.9961777480287
 30
0.0
 10
73.5278122908159
 20
-119.0409805257954
 30
0.0
 10
73.5278122908159
 20
-119.0960844146703
 30
0.0
 10
73.5278122908159
 20
-119.1518938591008
 30
0.0
 10
73.57257978967378
 20
-119.1966966368675
 30
0.0
 10
73.62771895493373
 20
-119.1966966368675
 30
0.0
 10
73.6828228424168
 20
-119.1966966368675
 30
0.0
 10
73.72762561905157
 20
-119.1518938591008
 30
0.0
 10
73.72762561905157
 20
-119.0960844146703
 30
0.0
  0
SPLINE
  5
7C
330
41
100
AcDbEntity
  8
_U+30EC_U+30A4_U+30E4_U+30FC 1
 62
     7
420
 16777215
370
     9
100
AcDbSpline
210
0.0
220
0.0
230
1.0
 70
    11
 71
     3
 72
    17
 73
    13
 74
     0
 42
0.0000000001
 43
0.0000000001
 12
1.0
 22
0.0
 32
0.0
 13
1.0
 23
0.0
 33
0.0
 40
0.0
 40
0.0
 40
0.0
 40
0.0
 40
1.0
 40
1.0
 40
1.0
 40
2.0
 40
2.0
 40
2.0
 40
3.0
 40
3.0
 40
3.0
 40
4.0
 40
4.0
 40
4.0
 40
4.0
 10
103.7277059647969
 20
-119.0960844146703
 30
0.0
 10
103.7277059647969
 20
-119.0409805257954
 30
0.0
 10
103.6829031881621
 20
-118.9961777480287
 30
0.0
 10
103.6277666407596
 20
-118.9961777480287
 30
0.0
 10
103.5726601354191
 20
-118.9961777480287
 30
0.0
 10
103.5278573587843
 20
-119.0409805257954
 30
0.0
 10
103.5278573587843
 20
-119.0960844146703
 30
0.0
 10
103.5278573587843
 20
-119.1518938591008
 30
0.0
 10
103.5726601354191
 20
-119.1966966368675
 30
0.0
 10
103.6277666407596
 20
-119.1966966368675
 30
0.0
 10
103.6829031881621
 20
-119.1966966368675
 30
0.0
 10
103.7277059647969
 20
-119.1518938591008
 30
0.0
 10
103.7277059647969
 20
-119.0960844146703
 30
0.0
  0
SPLINE
  5
7D
330
41
100
AcDbEntity
  8
_U+30EC_U+30A4_U+30E4_U+30FC 1
 62
     7
420
 16777215
370
     9
100
AcDbSpline
210
0.0
220
0.0
230
1.0
 70
    11
 71
     3
 72
    17
 73
    13
 74
     0
 42
0.0000000001
 43
0.0000000001
 12
1.0
 22
0.0
 32
0.0
 13
1.0
 23
0.0
 33
0.0
 40
0.0
 40
0.0
 40
0.0
 40
0.0
 40
1.0
 40
1.0
 40
1.0
 40
2.0
 40
2.0
 40
2.0
 40
3.0
 40
3.0
 40
3.0
 40
4.0
 40
4.0
 40
4.0
 40
4.0
 10
107.7281353071819
 20
-123.0965491358924
 30
0.0
 10
107.7281353071819
 20
-123.0414099692397
 30
0.0
 10
107.6833325305471
 20
-122.9966424692508
 30
0.0
 10
107.628228643064
 20
-122.9966424692508
 30
0.0
 10
107.5724192000434
 20
-122.9966424692508
 30
0.0
 10
107.5276164234086
 20
-123.0414099692397
 30
0.0
 10
107.5276164234086
 20
-123.0965491358924
 30
0.0
 10
107.5276164234086
 20
-123.1516530247677
 30
0.0
 10
107.5724192000434
 20
-123.1964558025344
 30
0.0
 10
107.628228643064
 20
-123.1964558025344
 30
0.0
 10
107.6833325305471
 20
-123.1964558025344
 30
0.0
 10
107.7281353071819
 20
-123.1516530247677
 30
0.0
 10
107.7281353071819
 20
-123.0965491358924
 30
0.0
  0
SPLINE
  5
7E
330
41
100
AcDbEntity
  8
_U+30EC_U+30A4_U+30E4_U+30FC 1
 62
     7
420
 16777215
370
     9
100
AcDbSpline
210
0.0
220
0.0
230
1.0
 70
    11
 71
     3
 72
    17
 73
    13
 74
     0
 42
0.0000000001
 43
0.0000000001
 12
1.0
 22
0.0
 32
0.0
 13
1.0
 23
0.0
 33
0.0
 40
0.0
 40
0.0
 40
0.0
 40
0.0
 40
1.0
 40
1.0
 40
1.0
 40
2.0
 40
2.0
 40
2.0
 40
3.0
 40
3.0
 40
3.0
 40
4.0
 40
4.0
 40
4.0
 40
4.0
 10
107.7281353071819
 20
-124.0962860800871
 30
0.0
 10
107.7281353071819
 20
-124.0411821912119
 30
0.0
 10
107.6833325305471
 20
-123.9963794134455
 30
0.0
 10
107.628228643064
 20
-123.9963794134455
 30
0.0
 10
107.5724192000434
 20
-123.9963794134455
 30
0.0
 10
107.5276164234086
 20
-124.0411821912119
 30
0.0
 10
107.5276164234086
 20
-124.0962860800871
 30
0.0
 10
107.5276164234086
 20
-124.1514252467399
 30
0.0
 10
107.5724192000434
 20
-124.1961927467288
 30
0.0
 10
107.628228643064
 20
-124.1961927467288
 30
0.0
 10
107.6833325305471
 20
-124.1961927467288
 30
0.0
 10
107.7281353071819
 20
-124.1514252467399
 30
0.0
 10
107.7281353071819
 20
-124.0962860800871
 30
0.0
  0
SPLINE
  5
7F
330
41
100
AcDbEntity
  8
_U+30EC_U+30A4_U+30E4_U+30FC 1
 62
     7
420
 16777215
370
     9
100
AcDbSpline
210
0.0
220
0.0
230
1.0
 70
    11
 71
     3
 72
    17
 73
    13
 74
     0
 42
0.0000000001
 43
0.0000000001
 12
1.0
 22
0.0
 32
0.0
 13
1.0
 23
0.0
 33
0.0
 40
0.0
 40
0.0
 40
0.0
 40
0.0
 40
1.0
 40
1.0
 40
1.0
 40
2.0
 40
2.0
 40
2.0
 40
3.0
 40
3.0
 40
3.0
 40
4.0
 40
4.0
 40
4.0
 40
4.0
 10
107.7281353071819
 20
-133.1984113555891
 30
0.0
 10
107.7281353071819
 20
-133.1433074667142
 30
0.0
 10
107.6833325305471
 20
-133.0985046889475
 30
0.0
 10
107.628228643064
 20
-133.0985046889475
 30
0.0
 10
107.5724192000434
 20
-133.0985046889475
 30
0.0
 10
107.5276164234086
 20
-133.1433074667142
 30
0.0
 10
107.5276164234086
 20
-133.1984113555891
 30
0.0
 10
107.5276164234086
 20
-133.2535505222422
 30
0.0
 10
107.5724192000434
 20
-133.2983180222307
 30
0.0
 10
107.628228643064
 20
-133.2983180222307
 30
0.0
 10
107.6833325305471
 20
-133.2983180222307
 30
0.0
 10
107.7281353071819
 20
-133.2535505222422
 30
0.0
 10
107.7281353071819
 20
-133.1984113555891
 30
0.0
  0
SPLINE
  5
80
330
41
100
AcDbEntity
  8
_U+30EC_U+30A4_U+30E4_U+30FC 1
 62
     7
420
 16777215
370
     9
100
AcDbSpline
210
0.0
220
0.0
230
1.0
 70
    11
 71
     3
 72
    17
 73
    13
 74
     0
 42
0.0000000001
 43
0.0000000001
 12
1.0
 22
0.0
 32
0.0
 13
1.0
 23
0.0
 33
0.0
 40
0.0
 40
0.0
 40
0.0
 40
0.0
 40
1.0
 40
1.0
 40
1.0
 40
2.0
 40
2.0
 40
2.0
 40
3.0
 40
3.0
 40
3.0
 40
4.0
 40
4.0
 40
4.0
 40
4.0
 10
107.7281353071819
 20
-136.1983982992834
 30
0.0
 10
107.7281353071819
 20
-136.1432944104085
 30
0.0
 10
107.6833325305471
 20
-136.0984916326418
 30
0.0
 10
107.628228643064
 20
-136.0984916326418
 30
0.0
 10
107.5724192000434
 20
-136.0984916326418
 30
0.0
 10
107.5276164234086
 20
-136.1432944104085
 30
0.0
 10
107.5276164234086
 20
-136.1983982992834
 30
0.0
 10
107.5276164234086
 20
-136.2535374659365
 30
0.0
 10
107.5724192000434
 20
-136.2983049659257
 30
0.0
 10
107.628228643064
 20
-136.2983049659257
 30
0.0
 10
107.6833325305471
 20
-136.2983049659257
 30
0.0
 10
107.7281353071819
 20
-136.2535374659365
 30
0.0
 10
107.7281353071819
 20
-136.1983982992834
 30
0.0
  0
SPLINE
  5
81
330
41
100
AcDbEntity
  8
_U+30EC_U+30A4_U+30E4_U+30FC 1
 62
     7
420
 16777215
370
     9
100
AcDbSpline
210
0.0
220
0.0
230
1.0
 70
    11
 71
     3
 72
    17
 73
    13
 74
     0
 42
0.0000000001
 43
0.0000000001
 12
1.0
 22
0.0
 32
0.0
 13
1.0
 23
0.0
 33
0.0
 40
0.0
 40
0.0
 40
0.0
 40
0.0
 40
1.0
 40
1.0
 40
1.0
 40
2.0
 40
2.0
 40
2.0
 40
3.0
 40
3.0
 40
3.0
 40
4.0
 40
4.0
 40
4.0
 40
4.0
 10
88.72755995859359
 20
-140.2587999649356
 30
0.0
 10
88.72755995859359
 20
-140.2036607982825
 30
0.0
 10
88.6827924597357
 20
-140.1588932982939
 30
0.0
 10
88.62765553339867
 20
-140.1588932982939
 30
0.0
 10
88.57254940699268
 20
-140.1588932982939
 30
0.0
 10
88.52774663035791
 20
-140.2036607982825
 30
0.0
 10
88.52774663035791
 20
-140.2587999649356
 30
0.0
 10
88.52774663035791
 20
-140.3139038538105
 30
0.0
 10
88.57254940699268
 20
-140.3587066315772
 30
0.0
 10
88.62765553339867
 20
-140.3587066315772
 30
0.0
 10
88.6827924597357
 20
-140.3587066315772
 30
0.0
 10
88.72755995859359
 20
-140.3139038538105
 30
0.0
 10
88.72755995859359
 20
-140.2587999649356
 30
0.0
  0
SPLINE
  5
82
330
41
100
AcDbEntity
  8
_U+30EC_U+30A4_U+30E4_U+30FC 1
 62
     7
420
 16777215
370
     9
100
AcDbSpline
210
0.0
220
0.0
230
1.0
 70
    11
 71
     3
 72
    17
 73
    13
 74
     0
 42
0.0000000001
 43
0.0000000001
 12
1.0
 22
0.0
 32
0.0
 13
1.0
 23
0.0
 33
0.0
 40
0.0
 40
0.0
 40
0.0
 40
0.0
 40
1.0
 40
1.0
 40
1.0
 40
2.0
 40
2.0
 40
2.0
 40
3.0
 40
3.0
 40
3.0
 40
4.0
 40
4.0
 40
4.0
 40
4.0
 10
73.72762561905157
 20
-140.2587999649356
 30
0.0
 10
73.72762561905157
 20
-140.2036607982825
 30
0.0
 10
73.6828228424168
 20
-140.1588932982939
 30
0.0
 10
73.62771895493373
 20
-140.1588932982939
 30
0.0
 10
73.57257978967378
 20
-140.1588932982939
 30
0.0
 10
73.5278122908159
 20
-140.2036607982825
 30
0.0
 10
73.5278122908159
 20
-140.2587999649356
 30
0.0
 10
73.5278122908159
 20
-140.3139038538105
 30
0.0
 10
73.57257978967378
 20
-140.3587066315772
 30
0.0
 10
73.62771895493373
 20
-140.3587066315772
 30
0.0
 10
73.6828228424168
 20
-140.3587066315772
 30
0.0
 10
73.72762561905157
 20
-140.3139038538105
 30
0.0
 10
73.72762561905157
 20
-140.2587999649356
 30
0.0
  0
INSERT
  5
84
330
41
100
AcDbEntity
  8
_U+30EC_U+30A4_U+30E4_U+30FC 1
100
AcDbBlockReference
  2
block 3
 10
0.0
 20
0.0
 30
0.0
  0
INSERT
  5
9E
330
41
100
AcDbEntity
  8
_U+30EC_U+30A4_U+30E4_U+30FC 1
100
AcDbBlockReference
  2
block 5
 10
0.0
 20
0.0
 30
0.0
  0
POLYLINE
  5
AF
330
41
100
AcDbEntity
  8
_U+30EC_U+30A4_U+30E4_U+30FC 1
 62
     7
420
 16777215
370
     9
100
AcDb2dPolyline
 66
     1
 10
0.0
 20
0.0
 30
0.0
  0
VERTEX
  5
B0
330
AF
100
AcDbEntity
  8
_U+30EC_U+30A4_U+30E4_U+30FC 1
 62
     7
420
 16777215
370
     9
100
AcDbVertex
100
AcDb2dVertex
 10
107.628228643064
 20
-133.0964585778372
 30
0.0
  0
VERTEX
  5
B1
330
AF
100
AcDbEntity
  8
_U+30EC_U+30A4_U+30E4_U+30FC 1
 62
     7
420
 16777215
370
     9
100
AcDbVertex
100
AcDb2dVertex
 10
107.628228643064
 20
-124.0962860800871
 30
0.0
  0
SEQEND
  5
B2
330
AF
100
AcDbEntity
  8
_U+30EC_U+30A4_U+30E4_U+30FC 1
 62
     7
420
 16777215
370
     9
  0
POLYLINE
  5
B3
330
41
100
AcDbEntity
  8
_U+30EC_U+30A4_U+30E4_U+30FC 1
 62
     7
420
 16777215
370
     9
100
AcDb2dPolyline
 66
     1
 10
0.0
 20
0.0
 30
0.0
  0
VERTEX
  5
B4
330
B3
100
AcDbEntity
  8
_U+30EC_U+30A4_U+30E4_U+30FC 1
 62
     7
420
 16777215
370
     9
100
AcDbVertex
100
AcDb2dVertex
 10
91.16807656299748
 20
-133.1984113555891
 30
0.0
  0
VERTEX
  5
B5
330
B3
100
AcDbEntity
  8
_U+30EC_U+30A4_U+30E4_U+30FC 1
 62
     7
420
 16777215
370
     9
100
AcDbVertex
100
AcDb2dVertex
 10
108.6272952842424
 20
-133.1984113555891
 30
0.0
  0
SEQEND
  5
B6
330
B3
100
AcDbEntity
  8
_U+30EC_U+30A4_U+30E4_U+30FC 1
 62
     7
420
 16777215
370
     9
  0
INSERT
  5
B8
330
41
100
AcDbEntity
  8
_U+30EC_U+30A4_U+30E4_U+30FC 1
100
AcDbBlockReference
  2
block 7
 10
0.0
 20
0.0
 30
0.0
  0
POLYLINE
  5
C9
330
41
100
AcDbEntity
  8
_U+30EC_U+30A4_U+30E4_U+30FC 1
 62
     7
420
 16777215
370
     9
100
AcDb2dPolyline
 66
     1
 10
0.0
 20
0.0
 30
0.0
  0
VERTEX
  5
CA
330
C9
100
AcDbEntity
  8
_U+30EC_U+30A4_U+30E4_U+30FC 1
 62
     7
420
 16777215
370
     9
100
AcDbVertex
100
AcDb2dVertex
 10
73.62771895493373
 20
-140.2587999649356
 30
0.0
  0
VERTEX
  5
CB
330
C9
100
AcDbEntity
  8
_U+30EC_U+30A4_U+30E4_U+30FC 1
 62
     7
420
 16777215
370
     9
100
AcDbVertex
100
AcDb2dVertex
 10
88.62765553339867
 20
-140.2587999649356
 30
0.0
  0
SEQEND
  5
CC
330
C9
100
AcDbEntity
  8
_U+30EC_U+30A4_U+30E4_U+30FC 1
 62
     7
420
 16777215
370
     9
  0
POLYLINE
  5
CD
330
41
100
AcDbEntity
  8
_U+30EC_U+30A4_U+30E4_U+30FC 1
 62
     7
420
 16777215
370
     9
100
AcDb2dPolyline
 66
     1
 10
0.0
 20
0.0
 30
0.0
  0
VERTEX
  5
CE
330
CD
100
AcDbEntity
  8
_U+30EC_U+30A4_U+30E4_U+30FC 1
 62
     7
420
 16777215
370
     9
100
AcDbVertex
100
AcDb2dVertex
 10
73.62771895493373
 20
-138.7987585764112
 30
0.0
  0
VERTEX
  5
CF
330
CD
100
AcDbEntity
  8
_U+30EC_U+30A4_U+30E4_U+30FC 1
 62
     7
420
 16777215
370
     9
100
AcDbVertex
100
AcDb2dVertex
 10
73.62771895493373
 20
-141.2585721869075
 30
0.0
  0
SEQEND
  5
D0
330
CD
100
AcDbEntity
  8
_U+30EC_U+30A4_U+30E4_U+30FC 1
 62
     7
420
 16777215
370
     9
  0
POLYLINE
  5
D1
330
41
100
AcDbEntity
  8
_U+30EC_U+30A4_U+30E4_U+30FC 1
 62
     7
420
 16777215
370
     9
100
AcDb2dPolyline
 66
     1
 10
0.0
 20
0.0
 30
0.0
  0
VERTEX
  5
D2
330
D1
100
AcDbEntity
  8
_U+30EC_U+30A4_U+30E4_U+30FC 1
 62
     7
420
 16777215
370
     9
100
AcDbVertex
100
AcDb2dVertex
 10
88.62765553339867
 20
-138.7987585764112
 30
0.0
  0
VERTEX
  5
D3
330
D1
100
AcDbEntity
  8
_U+30EC_U+30A4_U+30E4_U+30FC 1
 62
     7
420
 16777215
370
     9
100
AcDbVertex
100
AcDb2dVertex
 10
88.62765553339867
 20
-141.2585721869075
 30
0.0
  0
SEQEND
  5
D4
330
D1
100
AcDbEntity
  8
_U+30EC_U+30A4_U+30E4_U+30FC 1
 62
     7
420
 16777215
370
     9
  0
INSERT
  5
D6
330
41
100
AcDbEntity
  8
_U+30EC_U+30A4_U+30E4_U+30FC 1
100
AcDbBlockReference
  2
block 8
 10
0.0
 20
0.0
 30
0.0
  0
POLYLINE
  5
DD
330
41
100
AcDbEntity
  8
_U+30EC_U+30A4_U+30E4_U+30FC 1
 62
     7
420
 16777215
370
     9
100
AcDb2dPolyline
 66
     1
 10
0.0
 20
0.0
 30
0.0
  0
VERTEX
  5
DE
330
DD
100
AcDbEntity
  8
_U+30EC_U+30A4_U+30E4_U+30FC 1
 62
     7
420
 16777215
370
     9
100
AcDbVertex
100
AcDb2dVertex
 10
73.62771895493373
 20
-119.0960844146703
 30
0.0
  0
VERTEX
  5
DF
330
DD
100
AcDbEntity
  8
_U+30EC_U+30A4_U+30E4_U+30FC 1
 62
     7
420
 16777215
370
     9
100
AcDbVertex
100
AcDb2dVertex
 10
103.6277666407596
 20
-119.0960844146703
 30
0.0
  0
SEQEND
  5
E0
330
DD
100
AcDbEntity
  8
_U+30EC_U+30A4_U+30E4_U+30FC 1
 62
     7
420
 16777215
370
     9
  0
POLYLINE
  5
E1
330
41
100
AcDbEntity
  8
_U+30EC_U+30A4_U+30E4_U+30FC 1
 62
     7
420
 16777215
370
     9
100
AcDb2dPolyline
 66
     1
 10
0.0
 20
0.0
 30
0.0
  0
VERTEX
  5
E2
330
E1
100
AcDbEntity
  8
_U+30EC_U+30A4_U+30E4_U+30FC 1
 62
     7
420
 16777215
370
     9
100
AcDbVertex
100
AcDb2dVertex
 10
73.62771895493373
 20
-120.5561258031944
 30
0.0
  0
VERTEX
  5
E3
330
E1
100
AcDbEntity
  8
_U+30EC_U+30A4_U+30E4_U+30FC 1
 62
     7
420
 16777215
370
     9
100
AcDbVertex
100
AcDb2dVertex
 10
73.62771895493373
 20
-118.0963121926981
 30
0.0
  0
SEQEND
  5
E4
330
E1
100
AcDbEntity
  8
_U+30EC_U+30A4_U+30E4_U+30FC 1
 62
     7
420
 16777215
370
     9
  0
POLYLINE
  5
E5
330
41
100
AcDbEntity
  8
_U+30EC_U+30A4_U+30E4_U+30FC 1
 62
     7
420
 16777215
370
     9
100
AcDb2dPolyline
 66
     1
 10
0.0
 20
0.0
 30
0.0
  0
VERTEX
  5
E6
330
E5
100
AcDbEntity
  8
_U+30EC_U+30A4_U+30E4_U+30FC 1
 62
     7
420
 16777215
370
     9
100
AcDbVertex
100
AcDb2dVertex
 10
103.6277666407596
 20
-120.5561258031944
 30
0.0
  0
VERTEX
  5
E7
330
E5
100
AcDbEntity
  8
_U+30EC_U+30A4_U+30E4_U+30FC 1
 62
     7
420
 16777215
370
     9
100
AcDbVertex
100
AcDb2dVertex
 10
103.6277666407596
 20
-118.0963121926981
 30
0.0
  0
SEQEND
  5
E8
330
E5
100
AcDbEntity
  8
_U+30EC_U+30A4_U+30E4_U+30FC 1
 62
     7
420
 16777215
370
     9
  0
INSERT
  5
EA
330
41
100
AcDbEntity
  8
_U+30EC_U+30A4_U+30E4_U+30FC 1
100
AcDbBlockReference
  2
block 9
 10
0.0
 20
0.0
 30
0.0
  0
ENDBLK
  5
44
330
41
100
AcDbEntity
  8
0
100
AcDbBlockEnd
  0
BLOCK
  5
85
330
83
100
AcDbEntity
  8
0
100
AcDbBlockBegin
  2
block 3
 70
     0
 10
0.0
 20
0.0
 30
0.0
  3
block 3
  1

  0
POLYLINE
  5
87
330
83
100
AcDbEntity
  8
_U+30EC_U+30A4_U+30E4_U+30FC 1
 62
     7
420
 16777215
370
     9
100
AcDb2dPolyline
 66
     1
 10
0.0
 20
0.0
 30
0.0
  0
VERTEX
  5
88
330
87
100
AcDbEntity
  8
_U+30EC_U+30A4_U+30E4_U+30FC 1
 62
     7
420
 16777215
370
     9
100
AcDbVertex
100
AcDb2dVertex
 10
107.628228643064
 20
-123.0965491358924
 30
0.0
  0
VERTEX
  5
89
330
87
100
AcDbEntity
  8
_U+30EC_U+30A4_U+30E4_U+30FC 1
 62
     7
420
 16777215
370
     9
100
AcDbVertex
100
AcDb2dVertex
 10
107.628228643064
 20
-119.326236636835
 30
0.0
  0
SEQEND
  5
8A
330
87
100
AcDbEntity
  8
_U+30EC_U+30A4_U+30E4_U+30FC 1
 62
     7
420
 16777215
370
     9
  0
POLYLINE
  5
8B
330
83
100
AcDbEntity
  8
_U+30EC_U+30A4_U+30E4_U+30FC 1
 62
     7
420
 16777215
370
     9
100
AcDb2dPolyline
 66
     1
 10
0.0
 20
0.0
 30
0.0
  0
VERTEX
  5
8C
330
8B
100
AcDbEntity
  8
_U+30EC_U+30A4_U+30E4_U+30FC 1
 62
     7
420
 16777215
370
     9
100
AcDbVertex
100
AcDb2dVertex
 10
107.628228643064
 20
-123.0965491358924
 30
0.0
  0
VERTEX
  5
8D
330
8B
100
AcDbEntity
  8
_U+30EC_U+30A4_U+30E4_U+30FC 1
 62
     7
420
 16777215
370
     9
100
AcDbVertex
100
AcDb2dVertex
 10
107.628228643064
 20
-124.0962860800871
 30
0.0
  0
SEQEND
  5
8E
330
8B
100
AcDbEntity
  8
_U+30EC_U+30A4_U+30E4_U+30FC 1
 62
     7
420
 16777215
370
     9
  0
POLYLINE
  5
8F
330
83
100
AcDbEntity
  8
_U+30EC_U+30A4_U+30E4_U+30FC 1
 62
     7
420
 16777215
370
     9
100
AcDb2dPolyline
 66
     1
 10
0.0
 20
0.0
 30
0.0
  0
VERTEX
  5
90
330
8F
100
AcDbEntity
  8
_U+30EC_U+30A4_U+30E4_U+30FC 1
 62
     7
420
 16777215
370
     9
100
AcDbVertex
100
AcDb2dVertex
 10
106.1681872914239
 20
-123.0965491358924
 30
0.0
  0
VERTEX
  5
91
330
8F
100
AcDbEntity
  8
_U+30EC_U+30A4_U+30E4_U+30FC 1
 62
     7
420
 16777215
370
     9
100
AcDbVertex
100
AcDb2dVertex
 10
108.6272952842424
 20
-123.0965491358924
 30
0.0
  0
SEQEND
  5
92
330
8F
100
AcDbEntity
  8
_U+30EC_U+30A4_U+30E4_U+30FC 1
 62
     7
420
 16777215
370
     9
  0
POLYLINE
  5
93
330
83
100
AcDbEntity
  8
_U+30EC_U+30A4_U+30E4_U+30FC 1
 62
     7
420
 16777215
370
     9
100
AcDb2dPolyline
 66
     1
 10
0.0
 20
0.0
 30
0.0
  0
VERTEX
  5
94
330
93
100
AcDbEntity
  8
_U+30EC_U+30A4_U+30E4_U+30FC 1
 62
     7
420
 16777215
370
     9
100
AcDbVertex
100
AcDb2dVertex
 10
106.1681872914239
 20
-124.0962860800871
 30
0.0
  0
VERTEX
  5
95
330
93
100
AcDbEntity
  8
_U+30EC_U+30A4_U+30E4_U+30FC 1
 62
     7
420
 16777215
370
     9
100
AcDbVertex
100
AcDb2dVertex
 10
108.6272952842424
 20
-124.0962860800871
 30
0.0
  0
SEQEND
  5
96
330
93
100
AcDbEntity
  8
_U+30EC_U+30A4_U+30E4_U+30FC 1
 62
     7
420
 16777215
370
     9
  0
INSERT
  5
98
330
83
100
AcDbEntity
  8
_U+30EC_U+30A4_U+30E4_U+30FC 1
100
AcDbBlockReference
  2
block 4
 10
0.0
 20
0.0
 30
0.0
  0
ENDBLK
  5
86
330
83
100
AcDbEntity
  8
0
100
AcDbBlockEnd
  0
BLOCK
  5
99
330
97
100
AcDbEntity
  8
0
100
AcDbBlockBegin
  2
block 4
 70
     0
 10
0.0
 20
0.0
 30
0.0
  3
block 4
  1

  0
SPLINE
  5
9B
330
97
100
AcDbEntity
  8
_U+30EC_U+30A4_U+30E4_U+30FC 1
370
     0
100
AcDbSpline
210
0.0
220
0.0
230
1.0
 70
    11
 71
     3
 72
    26
 73
    22
 74
     0
 42
0.0000000001
 43
0.0000000001
 12
1.0
 22
0.0
 32
0.0
 13
1.0
 23
0.0
 33
0.0
 40
0.0
 40
0.0
 40
0.0
 40
0.0
 40
1.0
 40
1.0
 40
1.0
 40
2.0
 40
2.0
 40
2.0
 40
3.0
 40
3.0
 40
3.0
 40
4.0
 40
4.0
 40
4.0
 40
5.0
 40
5.0
 40
5.0
 40
6.0
 40
6.0
 40
6.0
 40
7.0
 40
7.0
 40
7.0
 40
7.0
 10
106.0996391878848
 20
-123.7902045046427
 30
0.0
 10
106.0996391878848
 20
-123.7902045046427
 30
0.0
 10
104.9954860848623
 20
-123.7902045046427
 30
0.0
 10
104.9954860848623
 20
-123.7902045046427
 30
0.0
 10
104.9954860848623
 20
-123.7902045046427
 30
0.0
 10
104.9954860848623
 20
-124.1202446521297
 30
0.0
 10
104.9954860848623
 20
-124.1202446521297
 30
0.0
 10
104.9954860848623
 20
-124.1202446521297
 30
0.0
 10
104.8473469789965
 20
-124.1202446521297
 30
0.0
 10
104.8473469789965
 20
-124.1202446521297
 30
0.0
 10
104.8325330684099
 20
-123.7881374473516
 30
0.0
 10
104.6695800519576
 20
-123.7416286583007
 30
0.0
 10
104.5552028818473
 20
-123.7120008371276
 30
0.0
 10
104.5552028818473
 20
-123.7120008371276
 30
0.0
 10
104.5552028818473
 20
-123.565928788553
 30
0.0
 10
104.5552028818473
 20
-123.565928788553
 30
0.0
 10
104.5552028818473
 20
-123.565928788553
 30
0.0
 10
106.0996391878848
 20
-123.565928788553
 30
0.0
 10
106.0996391878848
 20
-123.565928788553
 30
0.0
 10
106.0996391878848
 20
-123.565928788553
 30
0.0
 10
106.0996391878848
 20
-123.7902045046427
 30
0.0
 10
106.0996391878848
 20
-123.7902045046427
 30
0.0
  0
HATCH
  5
9C
330
97
100
AcDbEntity
  8
_U+30EC_U+30A4_U+30E4_U+30FC 1
 62
     7
420
 16777215
100
AcDbHatch
 10
0.0
 20
0.0
 30
0.0
210
0.0
220
0.0
230
1.0
  2
SOLID
 70
     1
 71
     0
 91
        1
 92
        1
 93
        1
 72
     4
 94
        3
 73
     0
 74
     1
 95
       26
 96
       22
 40
0.0
 40
0.0
 40
0.0
 40
0.0
 40
1.0
 40
1.0
 40
1.0
 40
2.0
 40
2.0
 40
2.0
 40
3.0
 40
3.0
 40
3.0
 40
4.0
 40
4.0
 40
4.0
 40
5.0
 40
5.0
 40
5.0
 40
6.0
 40
6.0
 40
6.0
 40
7.0
 40
7.0
 40
7.0
 40
7.0
 10
106.0996391878848
 20
-123.7902045046427
 10
106.0996391878848
 20
-123.7902045046427
 10
104.9954860848623
 20
-123.7902045046427
 10
104.9954860848623
 20
-123.7902045046427
 10
104.9954860848623
 20
-123.7902045046427
 10
104.9954860848623
 20
-124.1202446521297
 10
104.9954860848623
 20
-124.1202446521297
 10
104.9954860848623
 20
-124.1202446521297
 10
104.8473469789965
 20
-124.1202446521297
 10
104.8473469789965
 20
-124.1202446521297
 10
104.8325330684099
 20
-123.7881374473516
 10
104.6695800519576
 20
-123.7416286583007
 10
104.5552028818473
 20
-123.7120008371276
 10
104.5552028818473
 20
-123.7120008371276
 10
104.5552028818473
 20
-123.565928788553
 10
104.5552028818473
 20
-123.565928788553
 10
104.5552028818473
 20
-123.565928788553
 10
106.0996391878848
 20
-123.565928788553
 10
106.0996391878848
 20
-123.565928788553
 10
106.0996391878848
 20
-123.565928788553
 10
106.0996391878848
 20
-123.7902045046427
 10
106.0996391878848
 20
-123.7902045046427
 97
        0
 97
        0
 75
     2
 76
     1
 98
        0
  0
ENDBLK
  5
9A
330
97
100
AcDbEntity
  8
0
100
AcDbBlockEnd
  0
BLOCK
  5
9F
330
9D
100
AcDbEntity
  8
0
100
AcDbBlockBegin
  2
block 5
 70
     0
 10
0.0
 20
0.0
 30
0.0
  3
block 5
  1

  0
POLYLINE
  5
A1
330
9D
100
AcDbEntity
  8
_U+30EC_U+30A4_U+30E4_U+30FC 1
 62
     7
420
 16777215
370
     9
100
AcDb2dPolyline
 66
     1
 10
0.0
 20
0.0
 30
0.0
  0
VERTEX
  5
A2
330
A1
100
AcDbEntity
  8
_U+30EC_U+30A4_U+30E4_U+30FC 1
 62
     7
420
 16777215
370
     9
100
AcDbVertex
100
AcDb2dVertex
 10
107.628228643064
 20
-133.1984113555891
 30
0.0
  0
VERTEX
  5
A3
330
A1
100
AcDbEntity
  8
_U+30EC_U+30A4_U+30E4_U+30FC 1
 62
     7
420
 16777215
370
     9
100
AcDbVertex
100
AcDb2dVertex
 10
107.628228643064
 20
-136.1983982992834
 30
0.0
  0
SEQEND
  5
A4
330
A1
100
AcDbEntity
  8
_U+30EC_U+30A4_U+30E4_U+30FC 1
 62
     7
420
 16777215
370
     9
  0
POLYLINE
  5
A5
330
9D
100
AcDbEntity
  8
_U+30EC_U+30A4_U+30E4_U+30FC 1
 62
     7
420
 16777215
370
     9
100
AcDb2dPolyline
 66
     1
 10
0.0
 20
0.0
 30
0.0
  0
VERTEX
  5
A6
330
A5
100
AcDbEntity
  8
_U+30EC_U+30A4_U+30E4_U+30FC 1
 62
     7
420
 16777215
370
     9
100
AcDbVertex
100
AcDb2dVertex
 10
91.16807656299748
 20
-136.1983982992834
 30
0.0
  0
VERTEX
  5
A7
330
A5
100
AcDbEntity
  8
_U+30EC_U+30A4_U+30E4_U+30FC 1
 62
     7
420
 16777215
370
     9
100
AcDbVertex
100
AcDb2dVertex
 10
108.6272952842424
 20
-136.1983982992834
 30
0.0
  0
SEQEND
  5
A8
330
A5
100
AcDbEntity
  8
_U+30EC_U+30A4_U+30E4_U+30FC 1
 62
     7
420
 16777215
370
     9
  0
INSERT
  5
AA
330
9D
100
AcDbEntity
  8
_U+30EC_U+30A4_U+30E4_U+30FC 1
100
AcDbBlockReference
  2
block 6
 10
0.0
 20
0.0
 30
0.0
  0
ENDBLK
  5
A0
330
9D
100
AcDbEntity
  8
0
100
AcDbBlockEnd
  0
BLOCK
  5
AB
330
A9
100
AcDbEntity
  8
0
100
AcDbBlockBegin
  2
block 6
 70
     0
 10
0.0
 20
0.0
 30
0.0
  3
block 6
  1

  0
SPLINE
  5
AD
330
A9
100
AcDbEntity
  8
_U+30EC_U+30A4_U+30E4_U+30FC 1
370
     0
100
AcDbSpline
210
0.0
220
0.0
230
1.0
 70
    11
 71
     3
 72
    62
 73
    58
 74
     0
 42
0.0000000001
 43
0.0000000001
 12
1.0
 22
0.0
 32
0.0
 13
1.0
 23
0.0
 33
0.0
 40
0.0
 40
0.0
 40
0.0
 40
0.0
 40
1.0
 40
1.0
 40
1.0
 40
2.0
 40
2.0
 40
2.0
 40
3.0
 40
3.0
 40
3.0
 40
4.0
 40
4.0
 40
4.0
 40
5.0
 40
5.0
 40
5.0
 40
6.0
 40
6.0
 40
6.0
 40
7.0
 40
7.0
 40
7.0
 40
8.0
 40
8.0
 40
8.0
 40
9.0
 40
9.0
 40
9.0
 40
10.0
 40
10.0
 40
10.0
 40
11.0
 40
11.0
 40
11.0
 40
12.0
 40
12.0
 40
12.0
 40
13.0
 40
13.0
 40
13.0
 40
14.0
 40
14.0
 40
14.0
 40
15.0
 40
15.0
 40
15.0
 40
16.0
 40
16.0
 40
16.0
 40
17.0
 40
17.0
 40
17.0
 40
18.0
 40
18.0
 40
18.0
 40
19.0
 40
19.0
 40
19.0
 40
19.0
 10
106.150282091518
 20
-134.7073675878509
 30
0.0
 10
106.150282091518
 20
-134.8027967327924
 30
0.0
 10
106.129267009058
 20
-135.0205267674602
 30
0.0
 10
105.9432318528545
 20
-135.1455837335747
 30
0.0
 10
105.8309217400353
 20
-135.2193087769591
 30
0.0
 10
105.7317029900601
 20
-135.2237874010899
 30
0.0
 10
105.646953641123
 20
-135.2279215156722
 30
0.0
 10
105.646953641123
 20
-135.2279215156722
 30
0.0
 10
105.646953641123
 20
-135.0077799141647
 30
0.0
 10
105.646953641123
 20
-135.0077799141647
 30
0.0
 10
105.7210231940559
 20
-135.0057128568736
 30
0.0
 10
105.9556341966014
 20
-134.9953775704178
 30
0.0
 10
105.9556341966014
 20
-134.7118462119818
 30
0.0
 10
105.9556341966014
 20
-134.5743869021203
 30
0.0
 10
105.8860432677993
 20
-134.4217691721237
 30
0.0
 10
105.6576334371273
 20
-134.4217691721237
 30
0.0
 10
105.5411892097258
 20
-134.4217691721237
 30
0.0
 10
105.4926133633838
 20
-134.46000973201
 30
0.0
 10
105.4609184849195
 20
-134.4917046104743
 30
0.0
 10
105.3868489319866
 20
-134.5657741634072
 30
0.0
 10
105.3741020786912
 20
-134.6822183908086
 30
0.0
 10
105.3741020786912
 20
-134.7369954090241
 30
0.0
 10
105.3741020786912
 20
-134.7562879437415
 30
0.0
 10
105.3761691359824
 20
-134.7921169367881
 30
0.0
 10
105.3803032505647
 20
-134.8196777006701
 30
0.0
 10
105.3803032505647
 20
-134.8196777006701
 30
0.0
 10
105.185655355648
 20
-134.8196777006701
 30
0.0
 10
105.185655355648
 20
-134.8196777006701
 30
0.0
 10
105.19220103707
 20
-134.7814371407838
 30
0.0
 10
105.1942680943612
 20
-134.7394069758638
 30
0.0
 10
105.1942680943612
 20
-134.7328612944418
 30
0.0
 10
105.1942680943612
 20
-134.667404480222
 30
0.0
 10
105.1729085023526
 20
-134.4686224707231
 30
0.0
 10
104.9362304425159
 20
-134.4686224707231
 30
0.0
 10
104.7584635154771
 20
-134.4686224707231
 30
0.0
 10
104.7033419877131
 20
-134.5995360991626
 30
0.0
 10
104.7033419877131
 20
-134.7097791546906
 30
0.0
 10
104.7033419877131
 20
-134.9740179784093
 30
0.0
 10
104.9362304425159
 20
-134.9826307171224
 30
0.0
 10
105.0078884286091
 20
-134.9867648317047
 30
0.0
 10
105.0078884286091
 20
-134.9867648317047
 30
0.0
 10
105.0078884286091
 20
-135.1900254653345
 30
0.0
 10
105.0078884286091
 20
-135.1900254653345
 30
0.0
 10
104.8831759720431
 20
-135.1814127266213
 30
0.0
 10
104.5066270355053
 20
-135.1538519627393
 30
0.0
 10
104.5066270355053
 20
-134.6970323013952
 30
0.0
 10
104.5066270355053
 20
-134.4727565853054
 30
0.0
 10
104.633751058911
 20
-134.2315999013379
 30
0.0
 10
104.929684761094
 20
-134.2315999013379
 30
0.0
 10
105.116064426846
 20
-134.2315999013379
 30
0.0
 10
105.1984022089435
 20
-134.3266845367308
 30
0.0
 10
105.2597249085809
 20
-134.4262477962546
 30
0.0
 10
105.2872856724629
 20
-134.3649250966171
 30
0.0
 10
105.3675563972692
 20
-134.1830240549959
 30
0.0
 10
105.6448865838318
 20
-134.1830240549959
 30
0.0
 10
105.9831949604834
 20
-134.1830240549959
 30
0.0
 10
106.150282091518
 20
-134.4303819108368
 30
0.0
 10
106.150282091518
 20
-134.7073675878509
 30
0.0
  0
HATCH
  5
AE
330
A9
100
AcDbEntity
  8
_U+30EC_U+30A4_U+30E4_U+30FC 1
 62
     7
420
 16777215
100
AcDbHatch
 10
0.0
 20
0.0
 30
0.0
210
0.0
220
0.0
230
1.0
  2
SOLID
 70
     1
 71
     0
 91
        1
 92
        1
 93
        1
 72
     4
 94
        3
 73
     0
 74
     1
 95
       62
 96
       58
 40
0.0
 40
0.0
 40
0.0
 40
0.0
 40
1.0
 40
1.0
 40
1.0
 40
2.0
 40
2.0
 40
2.0
 40
3.0
 40
3.0
 40
3.0
 40
4.0
 40
4.0
 40
4.0
 40
5.0
 40
5.0
 40
5.0
 40
6.0
 40
6.0
 40
6.0
 40
7.0
 40
7.0
 40
7.0
 40
8.0
 40
8.0
 40
8.0
 40
9.0
 40
9.0
 40
9.0
 40
10.0
 40
10.0
 40
10.0
 40
11.0
 40
11.0
 40
11.0
 40
12.0
 40
12.0
 40
12.0
 40
13.0
 40
13.0
 40
13.0
 40
14.0
 40
14.0
 40
14.0
 40
15.0
 40
15.0
 40
15.0
 40
16.0
 40
16.0
 40
16.0
 40
17.0
 40
17.0
 40
17.0
 40
18.0
 40
18.0
 40
18.0
 40
19.0
 40
19.0
 40
19.0
 40
19.0
 10
106.150282091518
 20
-134.7073675878509
 10
106.150282091518
 20
-134.8027967327924
 10
106.129267009058
 20
-135.0205267674602
 10
105.9432318528545
 20
-135.1455837335747
 10
105.8309217400353
 20
-135.2193087769591
 10
105.7317029900601
 20
-135.2237874010899
 10
105.646953641123
 20
-135.2279215156722
 10
105.646953641123
 20
-135.2279215156722
 10
105.646953641123
 20
-135.0077799141647
 10
105.646953641123
 20
-135.0077799141647
 10
105.7210231940559
 20
-135.0057128568736
 10
105.9556341966014
 20
-134.9953775704178
 10
105.9556341966014
 20
-134.7118462119818
 10
105.9556341966014
 20
-134.5743869021203
 10
105.8860432677993
 20
-134.4217691721237
 10
105.6576334371273
 20
-134.4217691721237
 10
105.5411892097258
 20
-134.4217691721237
 10
105.4926133633838
 20
-134.46000973201
 10
105.4609184849195
 20
-134.4917046104743
 10
105.3868489319866
 20
-134.5657741634072
 10
105.3741020786912
 20
-134.6822183908086
 10
105.3741020786912
 20
-134.7369954090241
 10
105.3741020786912
 20
-134.7562879437415
 10
105.3761691359824
 20
-134.7921169367881
 10
105.3803032505647
 20
-134.8196777006701
 10
105.3803032505647
 20
-134.8196777006701
 10
105.185655355648
 20
-134.8196777006701
 10
105.185655355648
 20
-134.8196777006701
 10
105.19220103707
 20
-134.7814371407838
 10
105.1942680943612
 20
-134.7394069758638
 10
105.1942680943612
 20
-134.7328612944418
 10
105.1942680943612
 20
-134.667404480222
 10
105.1729085023526
 20
-134.4686224707231
 10
104.9362304425159
 20
-134.4686224707231
 10
104.7584635154771
 20
-134.4686224707231
 10
104.7033419877131
 20
-134.5995360991626
 10
104.7033419877131
 20
-134.7097791546906
 10
104.7033419877131
 20
-134.9740179784093
 10
104.9362304425159
 20
-134.9826307171224
 10
105.0078884286091
 20
-134.9867648317047
 10
105.0078884286091
 20
-134.9867648317047
 10
105.0078884286091
 20
-135.1900254653345
 10
105.0078884286091
 20
-135.1900254653345
 10
104.8831759720431
 20
-135.1814127266213
 10
104.5066270355053
 20
-135.1538519627393
 10
104.5066270355053
 20
-134.6970323013952
 10
104.5066270355053
 20
-134.4727565853054
 10
104.633751058911
 20
-134.2315999013379
 10
104.929684761094
 20
-134.2315999013379
 10
105.116064426846
 20
-134.2315999013379
 10
105.1984022089435
 20
-134.3266845367308
 10
105.2597249085809
 20
-134.4262477962546
 10
105.2872856724629
 20
-134.3649250966171
 10
105.3675563972692
 20
-134.1830240549959
 10
105.6448865838318
 20
-134.1830240549959
 10
105.9831949604834
 20
-134.1830240549959
 10
106.150282091518
 20
-134.4303819108368
 10
106.150282091518
 20
-134.7073675878509
 97
        0
 97
        0
 75
     2
 76
     1
 98
        0
  0
ENDBLK
  5
AC
330
A9
100
AcDbEntity
  8
0
100
AcDbBlockEnd
  0
BLOCK
  5
B9
330
B7
100
AcDbEntity
  8
0
100
AcDbBlockBegin
  2
block 7
 70
     0
 10
0.0
 20
0.0
 30
0.0
  3
block 7
  1

  0
SPLINE
  5
BB
330
B7
100
AcDbEntity
  8
_U+30EC_U+30A4_U+30E4_U+30FC 1
370
     0
100
AcDbSpline
210
0.0
220
0.0
230
1.0
 70
    11
 71
     3
 72
    29
 73
    25
 74
     0
 42
0.0000000001
 43
0.0000000001
 12
1.0
 22
0.0
 32
0.0
 13
1.0
 23
0.0
 33
0.0
 40
0.0
 40
0.0
 40
0.0
 40
0.0
 40
1.0
 40
1.0
 40
1.0
 40
2.0
 40
2.0
 40
2.0
 40
3.0
 40
3.0
 40
3.0
 40
4.0
 40
4.0
 40
4.0
 40
5.0
 40
5.0
 40
5.0
 40
6.0
 40
6.0
 40
6.0
 40
7.0
 40
7.0
 40
7.0
 40
8.0
 40
8.0
 40
8.0
 40
8.0
 10
106.150282091518
 20
-129.4597981447184
 30
0.0
 10
106.150282091518
 20
-129.7264485352767
 30
0.0
 10
106.0128227816565
 20
-129.9800075629911
 30
0.0
 10
105.6638346090007
 20
-129.9800075629911
 30
0.0
 10
105.4078640144466
 20
-129.9800075629911
 30
0.0
 10
105.3127793790538
 20
-129.8384141385473
 30
0.0
 10
105.2514566794163
 20
-129.7326497071502
 30
0.0
 10
105.19220103707
 20
-129.8573621637162
 30
0.0
 10
105.0778238669597
 20
-129.9334987739402
 30
0.0
 10
104.9169379077985
 20
-129.9334987739402
 30
0.0
 10
104.6420192880756
 20
-129.9334987739402
 30
0.0
 10
104.5066270355053
 20
-129.7347167644413
 30
0.0
 10
104.5066270355053
 20
-129.4597981447184
 30
0.0
 10
104.5066270355053
 20
-129.1762667862823
 30
0.0
 10
104.6506320267887
 20
-128.985753005948
 30
0.0
 10
104.9169379077985
 20
-128.985753005948
 30
0.0
 10
105.0778238669597
 20
-128.985753005948
 30
0.0
 10
105.19220103707
 20
-129.0643011830117
 30
0.0
 10
105.2514566794163
 20
-129.1890136395778
 30
0.0
 10
105.3020995830495
 20
-129.1001301760583
 30
0.0
 10
105.3971842184424
 20
-128.9413112741883
 30
0.0
 10
105.6597004944184
 20
-128.9413112741883
 30
0.0
 10
106.0341823736651
 20
-128.9413112741883
 30
0.0
 10
106.150282091518
 20
-129.220708518042
 30
0.0
 10
106.150282091518
 20
-129.4597981447184
 30
0.0
  0
SPLINE
  5
BC
330
B7
100
AcDbEntity
  8
_U+30EC_U+30A4_U+30E4_U+30FC 1
370
     0
100
AcDbSpline
210
0.0
220
0.0
230
1.0
 70
    11
 71
     3
 72
    17
 73
    13
 74
     0
 42
0.0000000001
 43
0.0000000001
 12
1.0
 22
0.0
 32
0.0
 13
1.0
 23
0.0
 33
0.0
 40
0.0
 40
0.0
 40
0.0
 40
0.0
 40
1.0
 40
1.0
 40
1.0
 40
2.0
 40
2.0
 40
2.0
 40
3.0
 40
3.0
 40
3.0
 40
4.0
 40
4.0
 40
4.0
 40
4.0
 10
104.6992078731308
 20
-129.4597981447184
 30
0.0
 10
104.6992078731308
 20
-129.6248182184619
 30
0.0
 10
104.7942925085237
 20
-129.7092230578505
 30
0.0
 10
104.929684761094
 20
-129.7092230578505
 30
0.0
 10
105.0523301603689
 20
-129.7092230578505
 30
0.0
 10
105.1708414450615
 20
-129.6375650717573
 30
0.0
 10
105.1708414450615
 20
-129.4597981447184
 30
0.0
 10
105.1708414450615
 20
-129.2820312176795
 30
0.0
 10
105.0523301603689
 20
-129.2100287220378
 30
0.0
 10
104.929684761094
 20
-129.2100287220378
 30
0.0
 10
104.7942925085237
 20
-129.2100287220378
 30
0.0
 10
104.6992078731308
 20
-129.2968451282661
 30
0.0
 10
104.6992078731308
 20
-129.4597981447184
 30
0.0
  0
SPLINE
  5
BD
330
B7
100
AcDbEntity
  8
_U+30EC_U+30A4_U+30E4_U+30FC 1
370
     0
100
AcDbSpline
210
0.0
220
0.0
230
1.0
 70
    11
 71
     3
 72
    17
 73
    13
 74
     0
 42
0.0000000001
 43
0.0000000001
 12
1.0
 22
0.0
 32
0.0
 13
1.0
 23
0.0
 33
0.0
 40
0.0
 40
0.0
 40
0.0
 40
0.0
 40
1.0
 40
1.0
 40
1.0
 40
2.0
 40
2.0
 40
2.0
 40
3.0
 40
3.0
 40
3.0
 40
4.0
 40
4.0
 40
4.0
 40
4.0
 10
105.3592881681046
 20
-129.4597981447184
 30
0.0
 10
105.3592881681046
 20
-129.6034586264533
 30
0.0
 10
105.4461045743329
 20
-129.7560763564499
 30
0.0
 10
105.6490206984141
 20
-129.7560763564499
 30
0.0
 10
105.854348389335
 20
-129.7560763564499
 30
0.0
 10
105.9556341966014
 20
-129.6289523330442
 30
0.0
 10
105.9556341966014
 20
-129.4597981447184
 30
0.0
 10
105.9556341966014
 20
-129.2737629885149
 30
0.0
 10
105.8329887973265
 20
-129.1635199329869
 30
0.0
 10
105.6552218702876
 20
-129.1635199329869
 30
0.0
 10
105.4333577210375
 20
-129.1635199329869
 30
0.0
 10
105.3592881681046
 20
-129.3264729494392
 30
0.0
 10
105.3592881681046
 20
-129.4597981447184
 30
0.0
  0
HATCH
  5
BE
330
B7
100
AcDbEntity
  8
_U+30EC_U+30A4_U+30E4_U+30FC 1
 62
     7
420
 16777215
100
AcDbHatch
 10
0.0
 20
0.0
 30
0.0
210
0.0
220
0.0
230
1.0
  2
SOLID
 70
     1
 71
     0
 91
        3
 92
        1
 93
        1
 72
     4
 94
        3
 73
     0
 74
     1
 95
       29
 96
       25
 40
0.0
 40
0.0
 40
0.0
 40
0.0
 40
1.0
 40
1.0
 40
1.0
 40
2.0
 40
2.0
 40
2.0
 40
3.0
 40
3.0
 40
3.0
 40
4.0
 40
4.0
 40
4.0
 40
5.0
 40
5.0
 40
5.0
 40
6.0
 40
6.0
 40
6.0
 40
7.0
 40
7.0
 40
7.0
 40
8.0
 40
8.0
 40
8.0
 40
8.0
 10
106.150282091518
 20
-129.4597981447184
 10
106.150282091518
 20
-129.7264485352767
 10
106.0128227816565
 20
-129.9800075629911
 10
105.6638346090007
 20
-129.9800075629911
 10
105.4078640144466
 20
-129.9800075629911
 10
105.3127793790538
 20
-129.8384141385473
 10
105.2514566794163
 20
-129.7326497071502
 10
105.19220103707
 20
-129.8573621637162
 10
105.0778238669597
 20
-129.9334987739402
 10
104.9169379077985
 20
-129.9334987739402
 10
104.6420192880756
 20
-129.9334987739402
 10
104.5066270355053
 20
-129.7347167644413
 10
104.5066270355053
 20
-129.4597981447184
 10
104.5066270355053
 20
-129.1762667862823
 10
104.6506320267887
 20
-128.985753005948
 10
104.9169379077985
 20
-128.985753005948
 10
105.0778238669597
 20
-128.985753005948
 10
105.19220103707
 20
-129.0643011830117
 10
105.2514566794163
 20
-129.1890136395778
 10
105.3020995830495
 20
-129.1001301760583
 10
105.3971842184424
 20
-128.9413112741883
 10
105.6597004944184
 20
-128.9413112741883
 10
106.0341823736651
 20
-128.9413112741883
 10
106.150282091518
 20
-129.220708518042
 10
106.150282091518
 20
-129.4597981447184
 97
        0
 97
        0
 92
        1
 93
        1
 72
     4
 94
        3
 73
     0
 74
     1
 95
       17
 96
       13
 40
0.0
 40
0.0
 40
0.0
 40
0.0
 40
1.0
 40
1.0
 40
1.0
 40
2.0
 40
2.0
 40
2.0
 40
3.0
 40
3.0
 40
3.0
 40
4.0
 40
4.0
 40
4.0
 40
4.0
 10
104.6992078731308
 20
-129.4597981447184
 10
104.6992078731308
 20
-129.6248182184619
 10
104.7942925085237
 20
-129.7092230578505
 10
104.929684761094
 20
-129.7092230578505
 10
105.0523301603689
 20
-129.7092230578505
 10
105.1708414450615
 20
-129.6375650717573
 10
105.1708414450615
 20
-129.4597981447184
 10
105.1708414450615
 20
-129.2820312176795
 10
105.0523301603689
 20
-129.2100287220378
 10
104.929684761094
 20
-129.2100287220378
 10
104.7942925085237
 20
-129.2100287220378
 10
104.6992078731308
 20
-129.2968451282661
 10
104.6992078731308
 20
-129.4597981447184
 97
        0
 97
        0
 92
        1
 93
        1
 72
     4
 94
        3
 73
     0
 74
     1
 95
       17
 96
       13
 40
0.0
 40
0.0
 40
0.0
 40
0.0
 40
1.0
 40
1.0
 40
1.0
 40
2.0
 40
2.0
 40
2.0
 40
3.0
 40
3.0
 40
3.0
 40
4.0
 40
4.0
 40
4.0
 40
4.0
 10
105.3592881681046
 20
-129.4597981447184
 10
105.3592881681046
 20
-129.6034586264533
 10
105.4461045743329
 20
-129.7560763564499
 10
105.6490206984141
 20
-129.7560763564499
 10
105.854348389335
 20
-129.7560763564499
 10
105.9556341966014
 20
-129.6289523330442
 10
105.9556341966014
 20
-129.4597981447184
 10
105.9556341966014
 20
-129.2737629885149
 10
105.8329887973265
 20
-129.1635199329869
 10
105.6552218702876
 20
-129.1635199329869
 10
105.4333577210375
 20
-129.1635199329869
 10
105.3592881681046
 20
-129.3264729494392
 10
105.3592881681046
 20
-129.4597981447184
 97
        0
 97
        0
 75
     2
 76
     1
 98
        0
  0
POLYLINE
  5
BF
330
B7
100
AcDbEntity
  8
_U+30EC_U+30A4_U+30E4_U+30FC 1
370
     0
100
AcDb2dPolyline
 66
     1
 10
0.0
 20
0.0
 30
0.0
  0
VERTEX
  5
C0
330
BF
100
AcDbEntity
  8
_U+30EC_U+30A4_U+30E4_U+30FC 1
370
     0
100
AcDbVertex
100
AcDb2dVertex
 10
106.0996391878848
 20
-128.7228922204235
 30
0.0
  0
VERTEX
  5
C1
330
BF
100
AcDbEntity
  8
_U+30EC_U+30A4_U+30E4_U+30FC 1
370
     0
100
AcDbVertex
100
AcDb2dVertex
 10
105.8478027079131
 20
-128.7228922204235
 30
0.0
  0
VERTEX
  5
C2
330
BF
100
AcDbEntity
  8
_U+30EC_U+30A4_U+30E4_U+30FC 1
370
     0
100
AcDbVertex
100
AcDb2dVertex
 10
105.8478027079131
 20
-128.4710557404517
 30
0.0
  0
VERTEX
  5
C3
330
BF
100
AcDbEntity
  8
_U+30EC_U+30A4_U+30E4_U+30FC 1
370
     0
100
AcDbVertex
100
AcDb2dVertex
 10
106.0996391878848
 20
-128.4710557404517
 30
0.0
  0
VERTEX
  5
C4
330
BF
100
AcDbEntity
  8
_U+30EC_U+30A4_U+30E4_U+30FC 1
370
     0
100
AcDbVertex
100
AcDb2dVertex
 10
106.0996391878848
 20
-128.7228922204235
 30
0.0
  0
SEQEND
  5
C5
330
BF
100
AcDbEntity
  8
_U+30EC_U+30A4_U+30E4_U+30FC 1
370
     0
  0
HATCH
  5
C6
330
B7
100
AcDbEntity
  8
_U+30EC_U+30A4_U+30E4_U+30FC 1
 62
     7
420
 16777215
100
AcDbHatch
 10
0.0
 20
0.0
 30
0.0
210
0.0
220
0.0
230
1.0
  2
SOLID
 70
     1
 71
     0
 91
        1
 92
        1
 93
        4
 72
     1
 10
106.0996391878848
 20
-128.7228922204235
 11
105.8478027079131
 21
-128.7228922204235
 72
     1
 10
105.8478027079131
 20
-128.7228922204235
 11
105.8478027079131
 21
-128.4710557404517
 72
     1
 10
105.8478027079131
 20
-128.4710557404517
 11
106.0996391878848
 21
-128.4710557404517
 72
     1
 10
106.0996391878848
 20
-128.4710557404517
 11
106.0996391878848
 21
-128.7228922204235
 97
        0
 75
     2
 76
     1
 98
        0
  0
SPLINE
  5
C7
330
B7
100
AcDbEntity
  8
_U+30EC_U+30A4_U+30E4_U+30FC 1
370
     0
100
AcDbSpline
210
0.0
220
0.0
230
1.0
 70
    11
 71
     3
 72
    53
 73
    49
 74
     0
 42
0.0000000001
 43
0.0000000001
 12
1.0
 22
0.0
 32
0.0
 13
1.0
 23
0.0
 33
0.0
 40
0.0
 40
0.0
 40
0.0
 40
0.0
 40
1.0
 40
1.0
 40
1.0
 40
2.0
 40
2.0
 40
2.0
 40
3.0
 40
3.0
 40
3.0
 40
4.0
 40
4.0
 40
4.0
 40
5.0
 40
5.0
 40
5.0
 40
6.0
 40
6.0
 40
6.0
 40
7.0
 40
7.0
 40
7.0
 40
8.0
 40
8.0
 40
8.0
 40
9.0
 40
9.0
 40
9.0
 40
10.0
 40
10.0
 40
10.0
 40
11.0
 40
11.0
 40
11.0
 40
12.0
 40
12.0
 40
12.0
 40
13.0
 40
13.0
 40
13.0
 40
14.0
 40
14.0
 40
14.0
 40
15.0
 40
15.0
 40
15.0
 40
16.0
 40
16.0
 40
16.0
 40
16.0
 10
106.150282091518
 20
-127.7537868604227
 30
0.0
 10
106.150282091518
 20
-127.8319905279378
 30
0.0
 10
106.1334011236403
 20
-127.9336208447527
 30
0.0
 10
106.0700113667117
 20
-128.0352511615676
 30
0.0
 10
105.9601128207322
 20
-128.2085394644756
 30
0.0
 10
105.8288546827442
 20
-128.2298990564842
 30
0.0
 10
105.7210231940559
 20
-128.2488470816531
 30
0.0
 10
105.7210231940559
 20
-128.2488470816531
 30
0.0
 10
105.7210231940559
 20
-128.0266384228545
 30
0.0
 10
105.7210231940559
 20
-128.0266384228545
 30
0.0
 10
105.9198052035548
 20
-127.971861404639
 30
0.0
 10
105.9494330247279
 20
-127.8447373812333
 30
0.0
 10
105.9494330247279
 20
-127.7517198031315
 30
0.0
 10
105.9494330247279
 20
-127.6121934359789
 30
0.0
 10
105.8498697652042
 20
-127.4599202155309
 30
0.0
 10
105.6173258199498
 20
-127.4599202155309
 30
0.0
 10
105.3613552253958
 20
-127.4599202155309
 30
0.0
 10
105.2914197870452
 20
-127.6397541998609
 30
0.0
 10
105.2914197870452
 20
-127.7603325418446
 30
0.0
 10
105.2914197870452
 20
-127.7920274203089
 30
0.0
 10
105.2914197870452
 20
-127.9336208447527
 30
0.0
 10
105.4206108677421
 20
-128.0225043082721
 30
0.0
 10
105.4206108677421
 20
-128.0225043082721
 30
0.0
 10
105.4016628425732
 20
-128.1982041780199
 30
0.0
 10
105.4016628425732
 20
-128.1982041780199
 30
0.0
 10
105.4016628425732
 20
-128.1982041780199
 30
0.0
 10
104.5552028818473
 20
-128.0776258360362
 30
0.0
 10
104.5552028818473
 20
-128.0776258360362
 30
0.0
 10
104.5552028818473
 20
-128.0776258360362
 30
0.0
 10
104.5552028818473
 20
-127.2990342563697
 30
0.0
 10
104.5552028818473
 20
-127.2990342563697
 30
0.0
 10
104.5552028818473
 20
-127.2990342563697
 30
0.0
 10
104.7498507767639
 20
-127.2990342563697
 30
0.0
 10
104.7498507767639
 20
-127.2990342563697
 30
0.0
 10
104.7498507767639
 20
-127.2990342563697
 30
0.0
 10
104.7498507767639
 20
-127.9146728195838
 30
0.0
 10
104.7498507767639
 20
-127.9146728195838
 30
0.0
 10
104.7498507767639
 20
-127.9146728195838
 30
0.0
 10
105.1729085023526
 20
-127.9801296338036
 30
0.0
 10
105.1729085023526
 20
-127.9801296338036
 30
0.0
 10
105.1391465665972
 20
-127.9188069341661
 30
0.0
 10
105.0988389494197
 20
-127.8364691520687
 30
0.0
 10
105.0988389494197
 20
-127.7179578673761
 30
0.0
 10
105.0988389494197
 20
-127.4640543301132
 30
0.0
 10
105.2852186151718
 20
-127.227031760728
 30
0.0
 10
105.598377794781
 20
-127.227031760728
 30
0.0
 10
105.9156710889725
 20
-127.227031760728
 30
0.0
 10
106.150282091518
 20
-127.4513074768177
 30
0.0
 10
106.150282091518
 20
-127.7537868604227
 30
0.0
  0
HATCH
  5
C8
330
B7
100
AcDbEntity
  8
_U+30EC_U+30A4_U+30E4_U+30FC 1
 62
     7
420
 16777215
100
AcDbHatch
 10
0.0
 20
0.0
 30
0.0
210
0.0
220
0.0
230
1.0
  2
SOLID
 70
     1
 71
     0
 91
        1
 92
        1
 93
        1
 72
     4
 94
        3
 73
     0
 74
     1
 95
       53
 96
       49
 40
0.0
 40
0.0
 40
0.0
 40
0.0
 40
1.0
 40
1.0
 40
1.0
 40
2.0
 40
2.0
 40
2.0
 40
3.0
 40
3.0
 40
3.0
 40
4.0
 40
4.0
 40
4.0
 40
5.0
 40
5.0
 40
5.0
 40
6.0
 40
6.0
 40
6.0
 40
7.0
 40
7.0
 40
7.0
 40
8.0
 40
8.0
 40
8.0
 40
9.0
 40
9.0
 40
9.0
 40
10.0
 40
10.0
 40
10.0
 40
11.0
 40
11.0
 40
11.0
 40
12.0
 40
12.0
 40
12.0
 40
13.0
 40
13.0
 40
13.0
 40
14.0
 40
14.0
 40
14.0
 40
15.0
 40
15.0
 40
15.0
 40
16.0
 40
16.0
 40
16.0
 40
16.0
 10
106.150282091518
 20
-127.7537868604227
 10
106.150282091518
 20
-127.8319905279378
 10
106.1334011236403
 20
-127.9336208447527
 10
106.0700113667117
 20
-128.0352511615676
 10
105.9601128207322
 20
-128.2085394644756
 10
105.8288546827442
 20
-128.2298990564842
 10
105.7210231940559
 20
-128.2488470816531
 10
105.7210231940559
 20
-128.2488470816531
 10
105.7210231940559
 20
-128.0266384228545
 10
105.7210231940559
 20
-128.0266384228545
 10
105.9198052035548
 20
-127.971861404639
 10
105.9494330247279
 20
-127.8447373812333
 10
105.9494330247279
 20
-127.7517198031315
 10
105.9494330247279
 20
-127.6121934359789
 10
105.8498697652042
 20
-127.4599202155309
 10
105.6173258199498
 20
-127.4599202155309
 10
105.3613552253958
 20
-127.4599202155309
 10
105.2914197870452
 20
-127.6397541998609
 10
105.2914197870452
 20
-127.7603325418446
 10
105.2914197870452
 20
-127.7920274203089
 10
105.2914197870452
 20
-127.9336208447527
 10
105.4206108677421
 20
-128.0225043082721
 10
105.4206108677421
 20
-128.0225043082721
 10
105.4016628425732
 20
-128.1982041780199
 10
105.4016628425732
 20
-128.1982041780199
 10
105.4016628425732
 20
-128.1982041780199
 10
104.5552028818473
 20
-128.0776258360362
 10
104.5552028818473
 20
-128.0776258360362
 10
104.5552028818473
 20
-128.0776258360362
 10
104.5552028818473
 20
-127.2990342563697
 10
104.5552028818473
 20
-127.2990342563697
 10
104.5552028818473
 20
-127.2990342563697
 10
104.7498507767639
 20
-127.2990342563697
 10
104.7498507767639
 20
-127.2990342563697
 10
104.7498507767639
 20
-127.2990342563697
 10
104.7498507767639
 20
-127.9146728195838
 10
104.7498507767639
 20
-127.9146728195838
 10
104.7498507767639
 20
-127.9146728195838
 10
105.1729085023526
 20
-127.9801296338036
 10
105.1729085023526
 20
-127.9801296338036
 10
105.1391465665972
 20
-127.9188069341661
 10
105.0988389494197
 20
-127.8364691520687
 10
105.0988389494197
 20
-127.7179578673761
 10
105.0988389494197
 20
-127.4640543301132
 10
105.2852186151718
 20
-127.227031760728
 10
105.598377794781
 20
-127.227031760728
 10
105.9156710889725
 20
-127.227031760728
 10
106.150282091518
 20
-127.4513074768177
 10
106.150282091518
 20
-127.7537868604227
 97
        0
 97
        0
 75
     2
 76
     1
 98
        0
  0
ENDBLK
  5
BA
330
B7
100
AcDbEntity
  8
0
100
AcDbBlockEnd
  0
BLOCK
  5
D7
330
D5
100
AcDbEntity
  8
0
100
AcDbBlockBegin
  2
block 8
 70
     0
 10
0.0
 20
0.0
 30
0.0
  3
block 8
  1

  0
SPLINE
  5
D9
330
D5
100
AcDbEntity
  8
_U+30EC_U+30A4_U+30E4_U+30FC 1
370
     0
100
AcDbSpline
210
0.0
220
0.0
230
1.0
 70
    11
 71
     3
 72
    26
 73
    22
 74
     0
 42
0.0000000001
 43
0.0000000001
 12
1.0
 22
0.0
 32
0.0
 13
1.0
 23
0.0
 33
0.0
 40
0.0
 40
0.0
 40
0.0
 40
0.0
 40
1.0
 40
1.0
 40
1.0
 40
2.0
 40
2.0
 40
2.0
 40
3.0
 40
3.0
 40
3.0
 40
4.0
 40
4.0
 40
4.0
 40
5.0
 40
5.0
 40
5.0
 40
6.0
 40
6.0
 40
6.0
 40
7.0
 40
7.0
 40
7.0
 40
7.0
 10
80.4903496435059
 20
-139.6124945397497
 30
0.0
 10
80.4903496435059
 20
-139.6124945397497
 30
0.0
 10
80.4903496435059
 20
-138.5083414367271
 30
0.0
 10
80.4903496435059
 20
-138.5083414367271
 30
0.0
 10
80.4903496435059
 20
-138.5083414367271
 30
0.0
 10
80.16030949601895
 20
-138.5083414367271
 30
0.0
 10
80.16030949601895
 20
-138.5083414367271
 30
0.0
 10
80.16030949601895
 20
-138.5083414367271
 30
0.0
 10
80.16030949601895
 20
-138.3602023308613
 30
0.0
 10
80.16030949601895
 20
-138.3602023308613
 30
0.0
 10
80.49241670079704
 20
-138.3453884202748
 30
0.0
 10
80.53892548984791
 20
-138.1824354038225
 30
0.0
 10
80.56855331102106
 20
-138.0680582337122
 30
0.0
 10
80.56855331102106
 20
-138.0680582337122
 30
0.0
 10
80.71462535959566
 20
-138.0680582337122
 30
0.0
 10
80.71462535959566
 20
-138.0680582337122
 30
0.0
 10
80.71462535959566
 20
-138.0680582337122
 30
0.0
 10
80.71462535959566
 20
-139.6124945397497
 30
0.0
 10
80.71462535959566
 20
-139.6124945397497
 30
0.0
 10
80.71462535959566
 20
-139.6124945397497
 30
0.0
 10
80.4903496435059
 20
-139.6124945397497
 30
0.0
 10
80.4903496435059
 20
-139.6124945397497
 30
0.0
  0
HATCH
  5
DA
330
D5
100
AcDbEntity
  8
_U+30EC_U+30A4_U+30E4_U+30FC 1
 62
     7
420
 16777215
100
AcDbHatch
 10
0.0
 20
0.0
 30
0.0
210
0.0
220
0.0
230
1.0
  2
SOLID
 70
     1
 71
     0
 91
        1
 92
        1
 93
        1
 72
     4
 94
        3
 73
     0
 74
     1
 95
       26
 96
       22
 40
0.0
 40
0.0
 40
0.0
 40
0.0
 40
1.0
 40
1.0
 40
1.0
 40
2.0
 40
2.0
 40
2.0
 40
3.0
 40
3.0
 40
3.0
 40
4.0
 40
4.0
 40
4.0
 40
5.0
 40
5.0
 40
5.0
 40
6.0
 40
6.0
 40
6.0
 40
7.0
 40
7.0
 40
7.0
 40
7.0
 10
80.4903496435059
 20
-139.6124945397497
 10
80.4903496435059
 20
-139.6124945397497
 10
80.4903496435059
 20
-138.5083414367271
 10
80.4903496435059
 20
-138.5083414367271
 10
80.4903496435059
 20
-138.5083414367271
 10
80.16030949601895
 20
-138.5083414367271
 10
80.16030949601895
 20
-138.5083414367271
 10
80.16030949601895
 20
-138.5083414367271
 10
80.16030949601895
 20
-138.3602023308613
 10
80.16030949601895
 20
-138.3602023308613
 10
80.49241670079704
 20
-138.3453884202748
 10
80.53892548984791
 20
-138.1824354038225
 10
80.56855331102106
 20
-138.0680582337122
 10
80.56855331102106
 20
-138.0680582337122
 10
80.71462535959566
 20
-138.0680582337122
 10
80.71462535959566
 20
-138.0680582337122
 10
80.71462535959566
 20
-138.0680582337122
 10
80.71462535959566
 20
-139.6124945397497
 10
80.71462535959566
 20
-139.6124945397497
 10
80.71462535959566
 20
-139.6124945397497
 10
80.4903496435059
 20
-139.6124945397497
 10
80.4903496435059
 20
-139.6124945397497
 97
        0
 97
        0
 75
     2
 76
     1
 98
        0
  0
SPLINE
  5
DB
330
D5
100
AcDbEntity
  8
_U+30EC_U+30A4_U+30E4_U+30FC 1
370
     0
100
AcDbSpline
210
0.0
220
0.0
230
1.0
 70
    11
 71
     3
 72
    53
 73
    49
 74
     0
 42
0.0000000001
 43
0.0000000001
 12
1.0
 22
0.0
 32
0.0
 13
1.0
 23
0.0
 33
0.0
 40
0.0
 40
0.0
 40
0.0
 40
0.0
 40
1.0
 40
1.0
 40
1.0
 40
2.0
 40
2.0
 40
2.0
 40
3.0
 40
3.0
 40
3.0
 40
4.0
 40
4.0
 40
4.0
 40
5.0
 40
5.0
 40
5.0
 40
6.0
 40
6.0
 40
6.0
 40
7.0
 40
7.0
 40
7.0
 40
8.0
 40
8.0
 40
8.0
 40
9.0
 40
9.0
 40
9.0
 40
10.0
 40
10.0
 40
10.0
 40
11.0
 40
11.0
 40
11.0
 40
12.0
 40
12.0
 40
12.0
 40
13.0
 40
13.0
 40
13.0
 40
14.0
 40
14.0
 40
14.0
 40
15.0
 40
15.0
 40
15.0
 40
16.0
 40
16.0
 40
16.0
 40
16.0
 10
81.69682208244038
 20
-139.6631374433828
 30
0.0
 10
81.61844616015095
 20
-139.6631374433828
 30
0.0
 10
81.51698809811035
 20
-139.6462564755051
 30
0.0
 10
81.41535778129547
 20
-139.5828667185765
 30
0.0
 10
81.24189722361314
 20
-139.472968172597
 30
0.0
 10
81.22070988637886
 20
-139.341710034609
 30
0.0
 10
81.20176186120997
 20
-139.2338785459207
 30
0.0
 10
81.20176186120997
 20
-139.2338785459207
 30
0.0
 10
81.42379826523432
 20
-139.2338785459207
 30
0.0
 10
81.42379826523432
 20
-139.2338785459207
 30
0.0
 10
81.47891979299833
 20
-139.4326605554196
 30
0.0
 10
81.60587156162978
 20
-139.4622883765928
 30
0.0
 10
81.69888913973153
 20
-139.4622883765928
 30
0.0
 10
81.83841550688415
 20
-139.4622883765928
 30
0.0
 10
81.99086098210645
 20
-139.3627251170691
 30
0.0
 10
81.99086098210645
 20
-139.1301811718147
 30
0.0
 10
81.99086098210645
 20
-138.8742105772606
 30
0.0
 10
81.81102699777641
 20
-138.80427513891
 30
0.0
 10
81.69044865579266
 20
-138.80427513891
 30
0.0
 10
81.65875377732837
 20
-138.80427513891
 30
0.0
 10
81.51698809811035
 20
-138.80427513891
 30
0.0
 10
81.4281046345909
 20
-138.9334662196069
 30
0.0
 10
81.4281046345909
 20
-138.9334662196069
 30
0.0
 10
81.25257701961742
 20
-138.914518194438
 30
0.0
 10
81.25257701961742
 20
-138.914518194438
 30
0.0
 10
81.25257701961742
 20
-138.914518194438
 30
0.0
 10
81.37315536160116
 20
-138.0680582337122
 30
0.0
 10
81.37315536160116
 20
-138.0680582337122
 30
0.0
 10
81.37315536160116
 20
-138.0680582337122
 30
0.0
 10
82.15157468649336
 20
-138.0680582337122
 30
0.0
 10
82.15157468649336
 20
-138.0680582337122
 30
0.0
 10
82.15157468649336
 20
-138.0680582337122
 30
0.0
 10
82.15157468649336
 20
-138.2627061286288
 30
0.0
 10
82.15157468649336
 20
-138.2627061286288
 30
0.0
 10
82.15157468649336
 20
-138.2627061286288
 30
0.0
 10
81.53593612327921
 20
-138.2627061286288
 30
0.0
 10
81.53593612327921
 20
-138.2627061286288
 30
0.0
 10
81.53593612327921
 20
-138.2627061286288
 30
0.0
 10
81.47047930905947
 20
-138.6857638542174
 30
0.0
 10
81.47047930905947
 20
-138.6857638542174
 30
0.0
 10
81.53180200869691
 20
-138.652001918462
 30
0.0
 10
81.61431204556865
 20
-138.6116943012846
 30
0.0
 10
81.73265107548698
 20
-138.6116943012846
 30
0.0
 10
81.9865546127499
 20
-138.6116943012846
 30
0.0
 10
82.22357718213509
 20
-138.7980739670366
 30
0.0
 10
82.22357718213509
 20
-139.1112331466458
 30
0.0
 10
82.22357718213509
 20
-139.4285264408373
 30
0.0
 10
81.99930146604532
 20
-139.6631374433828
 30
0.0
 10
81.69682208244038
 20
-139.6631374433828
 30
0.0
  0
HATCH
  5
DC
330
D5
100
AcDbEntity
  8
_U+30EC_U+30A4_U+30E4_U+30FC 1
 62
     7
420
 16777215
100
AcDbHatch
 10
0.0
 20
0.0
 30
0.0
210
0.0
220
0.0
230
1.0
  2
SOLID
 70
     1
 71
     0
 91
        1
 92
        1
 93
        1
 72
     4
 94
        3
 73
     0
 74
     1
 95
       53
 96
       49
 40
0.0
 40
0.0
 40
0.0
 40
0.0
 40
1.0
 40
1.0
 40
1.0
 40
2.0
 40
2.0
 40
2.0
 40
3.0
 40
3.0
 40
3.0
 40
4.0
 40
4.0
 40
4.0
 40
5.0
 40
5.0
 40
5.0
 40
6.0
 40
6.0
 40
6.0
 40
7.0
 40
7.0
 40
7.0
 40
8.0
 40
8.0
 40
8.0
 40
9.0
 40
9.0
 40
9.0
 40
10.0
 40
10.0
 40
10.0
 40
11.0
 40
11.0
 40
11.0
 40
12.0
 40
12.0
 40
12.0
 40
13.0
 40
13.0
 40
13.0
 40
14.0
 40
14.0
 40
14.0
 40
15.0
 40
15.0
 40
15.0
 40
16.0
 40
16.0
 40
16.0
 40
16.0
 10
81.69682208244038
 20
-139.6631374433828
 10
81.61844616015095
 20
-139.6631374433828
 10
81.51698809811035
 20
-139.6462564755051
 10
81.41535778129547
 20
-139.5828667185765
 10
81.24189722361314
 20
-139.472968172597
 10
81.22070988637886
 20
-139.341710034609
 10
81.20176186120997
 20
-139.2338785459207
 10
81.20176186120997
 20
-139.2338785459207
 10
81.42379826523432
 20
-139.2338785459207
 10
81.42379826523432
 20
-139.2338785459207
 10
81.47891979299833
 20
-139.4326605554196
 10
81.60587156162978
 20
-139.4622883765928
 10
81.69888913973153
 20
-139.4622883765928
 10
81.83841550688415
 20
-139.4622883765928
 10
81.99086098210645
 20
-139.3627251170691
 10
81.99086098210645
 20
-139.1301811718147
 10
81.99086098210645
 20
-138.8742105772606
 10
81.81102699777641
 20
-138.80427513891
 10
81.69044865579266
 20
-138.80427513891
 10
81.65875377732837
 20
-138.80427513891
 10
81.51698809811035
 20
-138.80427513891
 10
81.4281046345909
 20
-138.9334662196069
 10
81.4281046345909
 20
-138.9334662196069
 10
81.25257701961742
 20
-138.914518194438
 10
81.25257701961742
 20
-138.914518194438
 10
81.25257701961742
 20
-138.914518194438
 10
81.37315536160116
 20
-138.0680582337122
 10
81.37315536160116
 20
-138.0680582337122
 10
81.37315536160116
 20
-138.0680582337122
 10
82.15157468649336
 20
-138.0680582337122
 10
82.15157468649336
 20
-138.0680582337122
 10
82.15157468649336
 20
-138.0680582337122
 10
82.15157468649336
 20
-138.2627061286288
 10
82.15157468649336
 20
-138.2627061286288
 10
82.15157468649336
 20
-138.2627061286288
 10
81.53593612327921
 20
-138.2627061286288
 10
81.53593612327921
 20
-138.2627061286288
 10
81.53593612327921
 20
-138.2627061286288
 10
81.47047930905947
 20
-138.6857638542174
 10
81.47047930905947
 20
-138.6857638542174
 10
81.53180200869691
 20
-138.652001918462
 10
81.61431204556865
 20
-138.6116943012846
 10
81.73265107548698
 20
-138.6116943012846
 10
81.9865546127499
 20
-138.6116943012846
 10
82.22357718213509
 20
-138.7980739670366
 10
82.22357718213509
 20
-139.1112331466458
 10
82.22357718213509
 20
-139.4285264408373
 10
81.99930146604532
 20
-139.6631374433828
 10
81.69682208244038
 20
-139.6631374433828
 97
        0
 97
        0
 75
     2
 76
     1
 98
        0
  0
ENDBLK
  5
D8
330
D5
100
AcDbEntity
  8
0
100
AcDbBlockEnd
  0
BLOCK
  5
EB
330
E9
100
AcDbEntity
  8
0
100
AcDbBlockBegin
  2
block 9
 70
     0
 10
0.0
 20
0.0
 30
0.0
  3
block 9
  1

  0
SPLINE
  5
ED
330
E9
100
AcDbEntity
  8
_U+30EC_U+30A4_U+30E4_U+30FC 1
370
     0
100
AcDbSpline
210
0.0
220
0.0
230
1.0
 70
    11
 71
     3
 72
    62
 73
    58
 74
     0
 42
0.0000000001
 43
0.0000000001
 12
1.0
 22
0.0
 32
0.0
 13
1.0
 23
0.0
 33
0.0
 40
0.0
 40
0.0
 40
0.0
 40
0.0
 40
1.0
 40
1.0
 40
1.0
 40
2.0
 40
2.0
 40
2.0
 40
3.0
 40
3.0
 40
3.0
 40
4.0
 40
4.0
 40
4.0
 40
5.0
 40
5.0
 40
5.0
 40
6.0
 40
6.0
 40
6.0
 40
7.0
 40
7.0
 40
7.0
 40
8.0
 40
8.0
 40
8.0
 40
9.0
 40
9.0
 40
9.0
 40
10.0
 40
10.0
 40
10.0
 40
11.0
 40
11.0
 40
11.0
 40
12.0
 40
12.0
 40
12.0
 40
13.0
 40
13.0
 40
13.0
 40
14.0
 40
14.0
 40
14.0
 40
15.0
 40
15.0
 40
15.0
 40
16.0
 40
16.0
 40
16.0
 40
17.0
 40
17.0
 40
17.0
 40
18.0
 40
18.0
 40
18.0
 40
19.0
 40
19.0
 40
19.0
 40
19.0
 10
88.03028562252368
 20
-118.5016384252357
 30
0.0
 10
87.93485647758226
 20
-118.5016384252357
 30
0.0
 10
87.71712644291448
 20
-118.4804510880014
 30
0.0
 10
87.5920694767999
 20
-118.2942436770237
 30
0.0
 10
87.51799992386704
 20
-118.1821058189788
 30
0.0
 10
87.51386580928474
 20
-118.0827148142293
 30
0.0
 10
87.50973169470244
 20
-117.9981377200664
 30
0.0
 10
87.50973169470244
 20
-117.9981377200664
 30
0.0
 10
87.7298732962099
 20
-117.9981377200664
 30
0.0
 10
87.7298732962099
 20
-117.9981377200664
 30
0.0
 10
87.73194035350105
 20
-118.0722072729993
 30
0.0
 10
87.7422756399568
 20
-118.3069905303191
 30
0.0
 10
88.02580699839285
 20
-118.3069905303191
 30
0.0
 10
88.16326630825432
 20
-118.3069905303191
 30
0.0
 10
88.3158840382509
 20
-118.2372273467428
 30
0.0
 10
88.3158840382509
 20
-118.0086452612965
 30
0.0
 10
88.3158840382509
 20
-117.8923732886693
 30
0.0
 10
88.27764347836462
 20
-117.843625187553
 30
0.0
 10
88.24594859990032
 20
-117.8119303090887
 30
0.0
 10
88.17187904696745
 20
-117.7378607561558
 30
0.0
 10
88.055434819566
 20
-117.7252861576347
 30
0.0
 10
88.00065780135053
 20
-117.7252861576347
 30
0.0
 10
87.98136526663313
 20
-117.7252861576347
 30
0.0
 10
87.94553627358654
 20
-117.7273532149258
 30
0.0
 10
87.91797550970453
 20
-117.7314873295081
 30
0.0
 10
87.91797550970453
 20
-117.7314873295081
 30
0.0
 10
87.91797550970453
 20
-117.5368394345915
 30
0.0
 10
87.91797550970453
 20
-117.5368394345915
 30
0.0
 10
87.95621606959081
 20
-117.5432128612392
 30
0.0
 10
87.99824623451086
 20
-117.5454521733046
 30
0.0
 10
88.00479191593283
 20
-117.5454521733046
 30
0.0
 10
88.07024873015258
 20
-117.5454521733046
 30
0.0
 10
88.2690307396515
 20
-117.5242648360703
 30
0.0
 10
88.2690307396515
 20
-117.2872422666851
 30
0.0
 10
88.2690307396515
 20
-117.1096475944205
 30
0.0
 10
88.138117111212
 20
-117.0545260666565
 30
0.0
 10
88.02787405568401
 20
-117.0545260666565
 30
0.0
 10
87.76363523196534
 20
-117.0545260666565
 30
0.0
 10
87.75502249325223
 20
-117.2872422666851
 30
0.0
 10
87.75088837866993
 20
-117.3592447623269
 30
0.0
 10
87.75088837866993
 20
-117.3592447623269
 30
0.0
 10
87.54762774504017
 20
-117.3592447623269
 30
0.0
 10
87.54762774504017
 20
-117.3592447623269
 30
0.0
 10
87.5562404837533
 20
-117.2343600509866
 30
0.0
 10
87.58380124763531
 20
-116.8578111144488
 30
0.0
 10
88.04062090897943
 20
-116.8578111144488
 30
0.0
 10
88.2648966250692
 20
-116.8578111144488
 30
0.0
 10
88.50605330903669
 20
-116.9847628830802
 30
0.0
 10
88.50605330903669
 20
-117.2808688400374
 30
0.0
 10
88.50605330903669
 20
-117.4670762510152
 30
0.0
 10
88.4109686736438
 20
-117.5495862878869
 30
0.0
 10
88.31140541412007
 20
-117.6109089875244
 30
0.0
 10
88.37272811375752
 20
-117.6384697514064
 30
0.0
 10
88.5546291553787
 20
-117.7189127309869
 30
0.0
 10
88.5546291553787
 20
-117.9960706627753
 30
0.0
 10
88.5546291553787
 20
-118.3345512942011
 30
0.0
 10
88.30727129953777
 20
-118.5016384252357
 30
0.0
 10
88.03028562252368
 20
-118.5016384252357
 30
0.0
  0
HATCH
  5
EE
330
E9
100
AcDbEntity
  8
_U+30EC_U+30A4_U+30E4_U+30FC 1
 62
     7
420
 16777215
100
AcDbHatch
 10
0.0
 20
0.0
 30
0.0
210
0.0
220
0.0
230
1.0
  2
SOLID
 70
     1
 71
     0
 91
        1
 92
        1
 93
        1
 72
     4
 94
        3
 73
     0
 74
     1
 95
       62
 96
       58
 40
0.0
 40
0.0
 40
0.0
 40
0.0
 40
1.0
 40
1.0
 40
1.0
 40
2.0
 40
2.0
 40
2.0
 40
3.0
 40
3.0
 40
3.0
 40
4.0
 40
4.0
 40
4.0
 40
5.0
 40
5.0
 40
5.0
 40
6.0
 40
6.0
 40
6.0
 40
7.0
 40
7.0
 40
7.0
 40
8.0
 40
8.0
 40
8.0
 40
9.0
 40
9.0
 40
9.0
 40
10.0
 40
10.0
 40
10.0
 40
11.0
 40
11.0
 40
11.0
 40
12.0
 40
12.0
 40
12.0
 40
13.0
 40
13.0
 40
13.0
 40
14.0
 40
14.0
 40
14.0
 40
15.0
 40
15.0
 40
15.0
 40
16.0
 40
16.0
 40
16.0
 40
17.0
 40
17.0
 40
17.0
 40
18.0
 40
18.0
 40
18.0
 40
19.0
 40
19.0
 40
19.0
 40
19.0
 10
88.03028562252368
 20
-118.5016384252357
 10
87.93485647758226
 20
-118.5016384252357
 10
87.71712644291448
 20
-118.4804510880014
 10
87.5920694767999
 20
-118.2942436770237
 10
87.51799992386704
 20
-118.1821058189788
 10
87.51386580928474
 20
-118.0827148142293
 10
87.50973169470244
 20
-117.9981377200664
 10
87.50973169470244
 20
-117.9981377200664
 10
87.7298732962099
 20
-117.9981377200664
 10
87.7298732962099
 20
-117.9981377200664
 10
87.73194035350105
 20
-118.0722072729993
 10
87.7422756399568
 20
-118.3069905303191
 10
88.02580699839285
 20
-118.3069905303191
 10
88.16326630825432
 20
-118.3069905303191
 10
88.3158840382509
 20
-118.2372273467428
 10
88.3158840382509
 20
-118.0086452612965
 10
88.3158840382509
 20
-117.8923732886693
 10
88.27764347836462
 20
-117.843625187553
 10
88.24594859990032
 20
-117.8119303090887
 10
88.17187904696745
 20
-117.7378607561558
 10
88.055434819566
 20
-117.7252861576347
 10
88.00065780135053
 20
-117.7252861576347
 10
87.98136526663313
 20
-117.7252861576347
 10
87.94553627358654
 20
-117.7273532149258
 10
87.91797550970453
 20
-117.7314873295081
 10
87.91797550970453
 20
-117.7314873295081
 10
87.91797550970453
 20
-117.5368394345915
 10
87.91797550970453
 20
-117.5368394345915
 10
87.95621606959081
 20
-117.5432128612392
 10
87.99824623451086
 20
-117.5454521733046
 10
88.00479191593283
 20
-117.5454521733046
 10
88.07024873015258
 20
-117.5454521733046
 10
88.2690307396515
 20
-117.5242648360703
 10
88.2690307396515
 20
-117.2872422666851
 10
88.2690307396515
 20
-117.1096475944205
 10
88.138117111212
 20
-117.0545260666565
 10
88.02787405568401
 20
-117.0545260666565
 10
87.76363523196534
 20
-117.0545260666565
 10
87.75502249325223
 20
-117.2872422666851
 10
87.75088837866993
 20
-117.3592447623269
 10
87.75088837866993
 20
-117.3592447623269
 10
87.54762774504017
 20
-117.3592447623269
 10
87.54762774504017
 20
-117.3592447623269
 10
87.5562404837533
 20
-117.2343600509866
 10
87.58380124763531
 20
-116.8578111144488
 10
88.04062090897943
 20
-116.8578111144488
 10
88.2648966250692
 20
-116.8578111144488
 10
88.50605330903669
 20
-116.9847628830802
 10
88.50605330903669
 20
-117.2808688400374
 10
88.50605330903669
 20
-117.4670762510152
 10
88.4109686736438
 20
-117.5495862878869
 10
88.31140541412007
 20
-117.6109089875244
 10
88.37272811375752
 20
-117.6384697514064
 10
88.5546291553787
 20
-117.7189127309869
 10
88.5546291553787
 20
-117.9960706627753
 10
88.5546291553787
 20
-118.3345512942011
 10
88.30727129953777
 20
-118.5016384252357
 10
88.03028562252368
 20
-118.5016384252357
 97
        0
 97
        0
 75
     2
 76
     1
 98
        0
  0
SPLINE
  5
EF
330
E9
100
AcDbEntity
  8
_U+30EC_U+30A4_U+30E4_U+30FC 1
370
     0
100
AcDbSpline
210
0.0
220
0.0
230
1.0
 70
    11
 71
     3
 72
    29
 73
    25
 74
     0
 42
0.0000000001
 43
0.0000000001
 12
1.0
 22
0.0
 32
0.0
 13
1.0
 23
0.0
 33
0.0
 40
0.0
 40
0.0
 40
0.0
 40
0.0
 40
1.0
 40
1.0
 40
1.0
 40
2.0
 40
2.0
 40
2.0
 40
3.0
 40
3.0
 40
3.0
 40
4.0
 40
4.0
 40
4.0
 40
5.0
 40
5.0
 40
5.0
 40
6.0
 40
6.0
 40
6.0
 40
7.0
 40
7.0
 40
7.0
 40
8.0
 40
8.0
 40
8.0
 40
8.0
 10
89.61330699799598
 20
-118.2730563397894
 30
0.0
 10
89.50513099975913
 20
-118.4825181452926
 30
0.0
 10
89.33184269685107
 20
-118.5016384252357
 30
0.0
 10
89.21539846944962
 20
-118.5016384252357
 30
0.0
 10
89.05451251028846
 20
-118.5016384252357
 30
0.0
 10
88.91291908584469
 20
-118.4551296361848
 30
0.0
 10
88.8178344504518
 20
-118.2730563397894
 30
0.0
 10
88.71413707634578
 20
-118.0784084448728
 30
0.0
 10
88.69484454162837
 20
-117.8415581302618
 30
0.0
 10
88.69484454162837
 20
-117.6786051138095
 30
0.0
 10
88.69484454162837
 20
-117.5347723773003
 30
0.0
 10
88.71207001905462
 20
-117.2831081521028
 30
0.0
 10
88.8178344504518
 20
-117.0841538878297
 30
0.0
 10
88.92566593914012
 20
-116.8810655089742
 30
0.0
 10
89.08655189830128
 20
-116.8578111144488
 30
0.0
 10
89.21539846944962
 20
-116.8578111144488
 30
0.0
 10
89.37421737131965
 20
-116.8578111144488
 30
0.0
 10
89.51787785305456
 20
-116.9022528462085
 30
0.0
 10
89.61330699799598
 20
-117.0841538878297
 30
0.0
 10
89.71252574797118
 20
-117.2767347254551
 30
0.0
 10
89.73595239727088
 20
-117.5051445561272
 30
0.0
 10
89.73595239727088
 20
-117.6786051138095
 30
0.0
 10
89.73595239727088
 20
-117.8499986142007
 30
0.0
 10
89.71459280526233
 20
-118.0806477569382
 30
0.0
 10
89.61330699799598
 20
-118.2730563397894
 30
0.0
  0
SPLINE
  5
F0
330
E9
100
AcDbEntity
  8
_U+30EC_U+30A4_U+30E4_U+30FC 1
370
     0
100
AcDbSpline
210
0.0
220
0.0
230
1.0
 70
    11
 71
     3
 72
    17
 73
    13
 74
     0
 42
0.0000000001
 43
0.0000000001
 12
1.0
 22
0.0
 32
0.0
 13
1.0
 23
0.0
 33
0.0
 40
0.0
 40
0.0
 40
0.0
 40
0.0
 40
1.0
 40
1.0
 40
1.0
 40
2.0
 40
2.0
 40
2.0
 40
3.0
 40
3.0
 40
3.0
 40
4.0
 40
4.0
 40
4.0
 40
4.0
 10
89.21539846944962
 20
-117.0503919520742
 30
0.0
 10
88.96562904676901
 20
-117.0503919520742
 30
0.0
 10
88.91912025771813
 20
-117.3339233105103
 30
0.0
 10
88.91912025771813
 20
-117.6786051138095
 30
0.0
 10
88.91912025771813
 20
-117.9981377200664
 30
0.0
 10
88.95529376031327
 20
-118.3069905303191
 30
0.0
 10
89.21539846944962
 20
-118.3069905303191
 30
0.0
 10
89.4631008348391
 20
-118.3069905303191
 30
0.0
 10
89.51167668118111
 20
-118.0255262291742
 30
0.0
 10
89.51167668118111
 20
-117.6786051138095
 30
0.0
 10
89.51167668118111
 20
-117.3592447623269
 30
0.0
 10
89.47343612129484
 20
-117.0503919520742
 30
0.0
 10
89.21539846944962
 20
-117.0503919520742
 30
0.0
  0
HATCH
  5
F1
330
E9
100
AcDbEntity
  8
_U+30EC_U+30A4_U+30E4_U+30FC 1
 62
     7
420
 16777215
100
AcDbHatch
 10
0.0
 20
0.0
 30
0.0
210
0.0
220
0.0
230
1.0
  2
SOLID
 70
     1
 71
     0
 91
        2
 92
        1
 93
        1
 72
     4
 94
        3
 73
     0
 74
     1
 95
       29
 96
       25
 40
0.0
 40
0.0
 40
0.0
 40
0.0
 40
1.0
 40
1.0
 40
1.0
 40
2.0
 40
2.0
 40
2.0
 40
3.0
 40
3.0
 40
3.0
 40
4.0
 40
4.0
 40
4.0
 40
5.0
 40
5.0
 40
5.0
 40
6.0
 40
6.0
 40
6.0
 40
7.0
 40
7.0
 40
7.0
 40
8.0
 40
8.0
 40
8.0
 40
8.0
 10
89.61330699799598
 20
-118.2730563397894
 10
89.50513099975913
 20
-118.4825181452926
 10
89.33184269685107
 20
-118.5016384252357
 10
89.21539846944962
 20
-118.5016384252357
 10
89.05451251028846
 20
-118.5016384252357
 10
88.91291908584469
 20
-118.4551296361848
 10
88.8178344504518
 20
-118.2730563397894
 10
88.71413707634578
 20
-118.0784084448728
 10
88.69484454162837
 20
-117.8415581302618
 10
88.69484454162837
 20
-117.6786051138095
 10
88.69484454162837
 20
-117.5347723773003
 10
88.71207001905462
 20
-117.2831081521028
 10
88.8178344504518
 20
-117.0841538878297
 10
88.92566593914012
 20
-116.8810655089742
 10
89.08655189830128
 20
-116.8578111144488
 10
89.21539846944962
 20
-116.8578111144488
 10
89.37421737131965
 20
-116.8578111144488
 10
89.51787785305456
 20
-116.9022528462085
 10
89.61330699799598
 20
-117.0841538878297
 10
89.71252574797118
 20
-117.2767347254551
 10
89.73595239727088
 20
-117.5051445561272
 10
89.73595239727088
 20
-117.6786051138095
 10
89.73595239727088
 20
-117.8499986142007
 10
89.71459280526233
 20
-118.0806477569382
 10
89.61330699799598
 20
-118.2730563397894
 97
        0
 97
        0
 92
        1
 93
        1
 72
     4
 94
        3
 73
     0
 74
     1
 95
       17
 96
       13
 40
0.0
 40
0.0
 40
0.0
 40
0.0
 40
1.0
 40
1.0
 40
1.0
 40
2.0
 40
2.0
 40
2.0
 40
3.0
 40
3.0
 40
3.0
 40
4.0
 40
4.0
 40
4.0
 40
4.0
 10
89.21539846944962
 20
-117.0503919520742
 10
88.96562904676901
 20
-117.0503919520742
 10
88.91912025771813
 20
-117.3339233105103
 10
88.91912025771813
 20
-117.6786051138095
 10
88.91912025771813
 20
-117.9981377200664
 10
88.95529376031327
 20
-118.3069905303191
 10
89.21539846944962
 20
-118.3069905303191
 10
89.4631008348391
 20
-118.3069905303191
 10
89.51167668118111
 20
-118.0255262291742
 10
89.51167668118111
 20
-117.6786051138095
 10
89.51167668118111
 20
-117.3592447623269
 10
89.47343612129484
 20
-117.0503919520742
 10
89.21539846944962
 20
-117.0503919520742
 97
        0
 97
        0
 75
     2
 76
     1
 98
        0
  0
ENDBLK
  5
EC
330
E9
100
AcDbEntity
  8
0
100
AcDbBlockEnd
  0
ENDSEC
  0
SECTION
  2
ENTITIES
  0
INSERT
  5
42
330
1F
100
AcDbEntity
  8
_U+30EC_U+30A4_U+30E4_U+30FC 1
100
AcDbBlockReference
  2
block 2
 10
0.0
 20
0.0
 30
0.0
  0
ENDSEC
  0
SECTION
  2
OBJECTS
  0
DICTIONARY
  5
C
330
0
100
AcDbDictionary
281
     1
  3
ACAD_GROUP
350
D
  3
ACAD_LAYOUT
350
1A
  3
ACAD_MATERIAL
350
3B
  3
ACAD_MLEADERSTYLE
350
F3
  3
ACAD_MLINESTYLE
350
17
  3
ACAD_PLOTSETTINGS
350
19
  3
ACAD_PLOTSTYLENAME
350
E
  3
ACAD_TABLESTYLE
350
F2
  3
ACAD_VISUALSTYLE
350
2A
  0
SUN
  5
3F
330
29
100
AcDbSun
 90
        1
290
     0
 63
     7
421
 16777215
 40
1.0
291
     1
 91
  2455826
 92
 54000000
292
     0
 70
     2
 71
   256
280
     1
  0
DICTIONARY
  5
D
102
{ACAD_REACTORS
330
C
102
}
330
C
100
AcDbDictionary
281
     1
  0
DICTIONARY
  5
1A
102
{ACAD_REACTORS
330
C
102
}
330
C
100
AcDbDictionary
281
     1
  3
Layout1
350
1E
  3
Layout2
350
26
  3
Model
350
22
  0
DICTIONARY
  5
3B
102
{ACAD_REACTORS
330
C
102
}
330
C
100
AcDbDictionary
281
     1
  3
ByBlock
350
3D
  3
ByLayer
350
3C
  3
Global
350
3E
  0
DICTIONARY
  5
F3
102
{ACAD_REACTORS
330
C
102
}
330
C
100
AcDbDictionary
281
     1
  0
DICTIONARY
  5
17
102
{ACAD_REACTORS
330
C
102
}
330
C
100
AcDbDictionary
281
     1
  3
Standard
350
18
  0
DICTIONARY
  5
19
102
{ACAD_REACTORS
330
C
102
}
330
C
100
AcDbDictionary
281
     1
  0
ACDBDICTIONARYWDFLT
  5
E
102
{ACAD_REACTORS
330
C
102
}
330
C
100
AcDbDictionary
281
     1
  3
Normal
350
F
100
AcDbDictionaryWithDefault
340
F
  0
DICTIONARY
  5
F2
102
{ACAD_REACTORS
330
C
102
}
330
C
100
AcDbDictionary
281
     1
  0
DICTIONARY
  5
2A
102
{ACAD_REACTORS
330
C
102
}
330
C
100
AcDbDictionary
281
     1
  3
2dWireframe
350
2F
  3
3D Hidden
350
31
  3
3dWireframe
350
30
  3
Basic
350
32
  3
Brighten
350
36
  3
ColorChange
350
3A
  3
Conceptual
350
34
  3
Dim
350
35
  3
Facepattern
350
39
  3
Flat
350
2B
  3
FlatWithEdges
350
2C
  3
Gouraud
350
2D
  3
GouraudWithEdges
350
2E
  3
Linepattern
350
38
  3
Realistic
350
33
  3
Thicken
350
37
  0
LAYOUT
  5
1E
102
{ACAD_REACTORS
330
1A
102
}
330
1A
100
AcDbPlotSettings
  1

  2
none_device
  4

  6

 40
0.0
 41
0.0
 42
0.0
 43
0.0
 44
0.0
 45
0.0
 46
0.0
 47
0.0
 48
0.0
 49
0.0
140
0.0
141
0.0
142
1.0
143
1.0
 70
   688
 72
     0
 73
     0
 74
     5
  7

 75
    16
 76
     0
 77
     2
 78
   300
147
1.0
148
0.0
149
0.0
100
AcDbLayout
  1
Layout1
 70
     1
 71
     1
 10
0.0
 20
0.0
 11
12.0
 21
9.0
 12
0.0
 22
0.0
 32
0.0
 14
1.000000000000000E+20
 24
1.000000000000000E+20
 34
1.000000000000000E+20
 15
-1.000000000000000E+20
 25
-1.000000000000000E+20
 35
-1.000000000000000E+20
146
0.0
 13
0.0
 23
0.0
 33
0.0
 16
1.0
 26
0.0
 36
0.0
 17
0.0
 27
1.0
 37
0.0
 76
     0
330
1B
  0
LAYOUT
  5
26
102
{ACAD_REACTORS
330
1A
102
}
330
1A
100
AcDbPlotSettings
  1

  2
none_device
  4

  6

 40
0.0
 41
0.0
 42
0.0
 43
0.0
 44
0.0
 45
0.0
 46
0.0
 47
0.0
 48
0.0
 49
0.0
140
0.0
141
0.0
142
1.0
143
1.0
 70
   688
 72
     0
 73
     0
 74
     5
  7

 75
    16
 76
     0
 77
     2
 78
   300
147
1.0
148
0.0
149
0.0
100
AcDbLayout
  1
Layout2
 70
     1
 71
     2
 10
0.0
 20
0.0
 11
0.0
 21
0.0
 12
0.0
 22
0.0
 32
0.0
 14
0.0
 24
0.0
 34
0.0
 15
0.0
 25
0.0
 35
0.0
146
0.0
 13
0.0
 23
0.0
 33
0.0
 16
1.0
 26
0.0
 36
0.0
 17
0.0
 27
1.0
 37
0.0
 76
     0
330
23
  0
LAYOUT
  5
22
102
{ACAD_REACTORS
330
1A
102
}
330
1A
100
AcDbPlotSettings
  1

  2
none_device
  4

  6

 40
0.0
 41
0.0
 42
0.0
 43
0.0
 44
0.0
 45
0.0
 46
0.0
 47
0.0
 48
0.0
 49
0.0
140
0.0
141
0.0
142
1.0
143
1.0
 70
  1712
 72
     0
 73
     0
 74
     0
  7

 75
     0
 76
     0
 77
     2
 78
   300
147
1.0
148
0.0
149
0.0
100
AcDbLayout
  1
Model
 70
     1
 71
     0
 10
0.0
 20
0.0
 11
12.0
 21
9.0
 12
0.0
 22
0.0
 32
0.0
 14
1.000000000000000E+20
 24
1.000000000000000E+20
 34
1.000000000000000E+20
 15
-1.000000000000000E+20
 25
-1.000000000000000E+20
 35
-1.000000000000000E+20
146
0.0
 13
0.0
 23
0.0
 33
0.0
 16
1.0
 26
0.0
 36
0.0
 17
0.0
 27
1.0
 37
0.0
 76
     0
330
1F
331
29
  0
MATERIAL
  5
3D
102
{ACAD_REACTORS
330
3B
102
}
330
3B
100
AcDbMaterial
  1
ByBlock
 72
     1
 94
      127
  0
MATERIAL
  5
3C
102
{ACAD_REACTORS
330
3B
102
}
330
3B
100
AcDbMaterial
  1
ByLayer
 72
     1
 94
      127
  0
MATERIAL
  5
3E
102
{ACAD_REACTORS
330
3B
102
}
330
3B
100
AcDbMaterial
  1
Global
 72
     1
 94
      127
  0
MLINESTYLE
  5
18
102
{ACAD_REACTORS
330
17
102
}
330
17
100
AcDbMlineStyle
  2
Standard
 70
     0
  3

 62
   256
 51
90.0
 52
90.0
 71
     2
 49
0.5
 62
   256
  6
BYLAYER
 49
-0.5
 62
   256
  6
BYLAYER
  0
ACDBPLACEHOLDER
  5
F
102
{ACAD_REACTORS
330
E
102
}
330
E
  0
VISUALSTYLE
  5
2F
102
{ACAD_REACTORS
330
2A
102
}
330
2A
100
AcDbVisualStyle
  2
2dWireframe
 70
     4
177
     2
291
     0
 71
     0
176
     1
 72
     2
176
     1
 73
     0
176
     1
 90
        0
176
     1
 40
-0.6
176
     1
 41
-30.0
176
     1
 62
     5
 63
     7
421
 16777215
176
     1
 74
     1
176
     1
 91
        4
176
     1
 64
     7
176
     1
 65
   257
176
     1
 75
     1
176
     1
175
     1
176
     1
 42
1.0
176
     1
 92
        0
176
     1
 66
   257
176
     1
 43
1.0
176
     1
 76
     1
176
     1
 77
     6
176
     1
 78
     2
176
     1
 67
     7
176
     1
 79
     5
176
     1
170
     0
176
     1
171
     0
176
     1
290
     0
176
     1
 93
        1
176
     1
 44
0.0
176
     1
173
     0
176
     1
  0
VISUALSTYLE
  5
31
102
{ACAD_REACTORS
330
2A
102
}
330
2A
100
AcDbVisualStyle
  2
3D Hidden
 70
     6
177
     2
291
     0
 71
     1
176
     1
 72
     2
176
     1
 73
     2
176
     1
 90
        0
176
     1
 40
-0.6
176
     1
 41
-30.0
176
     1
 62
     5
 63
     7
421
 16777215
176
     1
 74
     2
176
     1
 91
        2
176
     1
 64
     7
176
     1
 65
   257
176
     1
 75
     2
176
     1
175
     1
176
     1
 42
40.0
176
     1
 92
        0
176
     1
 66
   257
176
     1
 43
1.0
176
     1
 76
     1
176
     1
 77
     6
176
     1
 78
     2
176
     1
 67
     7
176
     1
 79
     3
176
     1
170
     0
176
     1
171
     0
176
     1
290
     0
176
     1
 93
        1
176
     1
 44
0.0
176
     1
173
     0
176
     1
  0
VISUALSTYLE
  5
30
102
{ACAD_REACTORS
330
2A
102
}
330
2A
100
AcDbVisualStyle
  2
3dWireframe
 70
     5
177
     2
291
     0
 71
     0
176
     1
 72
     2
176
     1
 73
     0
176
     1
 90
        0
176
     1
 40
-0.6
176
     1
 41
-30.0
176
     1
 62
     5
 63
     7
421
 16777215
176
     1
 74
     1
176
     1
 91
        4
176
     1
 64
     7
176
     1
 65
   257
176
     1
 75
     1
176
     1
175
     1
176
     1
 42
1.0
176
     1
 92
        0
176
     1
 66
   257
176
     1
 43
1.0
176
     1
 76
     1
176
     1
 77
     6
176
     1
 78
     2
176
     1
 67
     7
176
     1
 79
     5
176
     1
170
     0
176
     1
171
     0
176
     1
290
     0
176
     1
 93
        1
176
     1
 44
0.0
176
     1
173
     0
176
     1
  0
VISUALSTYLE
  5
32
102
{ACAD_REACTORS
330
2A
102
}
330
2A
100
AcDbVisualStyle
  2
Basic
 70
     7
177
     2
291
     1
 71
     1
176
     1
 72
     0
176
     1
 73
     1
176
     1
 90
        0
176
     1
 40
-0.6
176
     1
 41
-30.0
176
     1
 62
     5
 63
     7
421
 16777215
176
     1
 74
     0
176
     1
 91
        4
176
     1
 64
     7
176
     1
 65
   257
176
     1
 75
     1
176
     1
175
     1
176
     1
 42
1.0
176
     1
 92
        8
176
     1
 66
     7
176
     1
 43
1.0
176
     1
 76
     1
176
     1
 77
     6
176
     1
 78
     2
176
     1
 67
     7
176
     1
 79
     5
176
     1
170
     0
176
     1
171
     0
176
     1
290
     0
176
     1
 93
        1
176
     1
 44
0.0
176
     1
173
     0
176
     1
  0
VISUALSTYLE
  5
36
102
{ACAD_REACTORS
330
2A
102
}
330
2A
100
AcDbVisualStyle
  2
Brighten
 70
    12
177
     2
291
     1
 71
     2
176
     1
 72
     2
176
     1
 73
     0
176
     1
 90
        0
176
     1
 40
-0.6
176
     1
 41
-30.0
176
     1
 62
     5
 63
     7
421
 16777215
176
     1
 74
     1
176
     1
 91
        4
176
     1
 64
     7
176
     1
 65
   257
176
     1
 75
     1
176
     1
175
     1
176
     1
 42
1.0
176
     1
 92
        8
176
     1
 66
     7
176
     1
 43
1.0
176
     1
 76
     1
176
     1
 77
     6
176
     1
 78
     2
176
     1
 67
     7
176
     1
 79
     5
176
     1
170
     0
176
     1
171
     0
176
     1
290
     0
176
     1
 93
        1
176
     1
 44
50.0
176
     1
173
     0
176
     1
  0
VISUALSTYLE
  5
3A
102
{ACAD_REACTORS
330
2A
102
}
330
2A
100
AcDbVisualStyle
  2
ColorChange
 70
    16
177
     2
291
     1
 71
     2
176
     1
 72
     2
176
     1
 73
     3
176
     1
 90
        0
176
     1
 40
-0.6
176
     1
 41
-30.0
176
     1
 62
     5
 63
     8
421
  8421504
176
     1
 74
     1
176
     1
 91
        4
176
     1
 64
     7
176
     1
 65
   257
176
     1
 75
     1
176
     1
175
     1
176
     1
 42
1.0
176
     1
 92
        8
176
     1
 66
     8
424
  8421504
176
     1
 43
1.0
176
     1
 76
     1
176
     1
 77
     6
176
     1
 78
     2
176
     1
 67
     7
176
     1
 79
     5
176
     1
170
     0
176
     1
171
     0
176
     1
290
     0
176
     1
 93
        1
176
     1
 44
0.0
176
     1
173
     0
176
     1
  0
VISUALSTYLE
  5
34
102
{ACAD_REACTORS
330
2A
102
}
330
2A
100
AcDbVisualStyle
  2
Conceptual
 70
     9
177
     2
291
     0
 71
     3
176
     1
 72
     2
176
     1
 73
     0
176
     1
 90
        0
176
     1
 40
-0.6
176
     1
 41
-30.0
176
     1
 62
     5
 63
     7
421
 16777215
176
     1
 74
     2
176
     1
 91
        2
176
     1
 64
     7
176
     1
 65
   257
176
     1
 75
     1
176
     1
175
     1
176
     1
 42
40.0
176
     1
 92
        8
176
     1
 66
     7
176
     1
 43
1.0
176
     1
 76
     1
176
     1
 77
     6
176
     1
 78
     2
176
     1
 67
     7
176
     1
 79
     3
176
     1
170
     0
176
     1
171
     0
176
     1
290
     0
176
     1
 93
        1
176
     1
 44
0.0
176
     1
173
     0
176
     1
  0
VISUALSTYLE
  5
35
102
{ACAD_REACTORS
330
2A
102
}
330
2A
100
AcDbVisualStyle
  2
Dim
 70
    11
177
     2
291
     1
 71
     2
176
     1
 72
     2
176
     1
 73
     0
176
     1
 90
        0
176
     1
 40
-0.6
176
     1
 41
-30.0
176
     1
 62
     5
 63
     7
421
 16777215
176
     1
 74
     1
176
     1
 91
        4
176
     1
 64
     7
176
     1
 65
   257
176
     1
 75
     1
176
     1
175
     1
176
     1
 42
1.0
176
     1
 92
        8
176
     1
 66
     7
176
     1
 43
1.0
176
     1
 76
     1
176
     1
 77
     6
176
     1
 78
     2
176
     1
 67
     7
176
     1
 79
     5
176
     1
170
     0
176
     1
171
     0
176
     1
290
     0
176
     1
 93
        1
176
     1
 44
-50.0
176
     1
173
     0
176
     1
  0
VISUALSTYLE
  5
39
102
{ACAD_REACTORS
330
2A
102
}
330
2A
100
AcDbVisualStyle
  2
Facepattern
 70
    15
177
     2
291
     1
 71
     2
176
     1
 72
     2
176
     1
 73
     0
176
     1
 90
        0
176
     1
 40
-0.6
176
     1
 41
-30.0
176
     1
 62
     5
 63
     7
421
 16777215
176
     1
 74
     1
176
     1
 91
        4
176
     1
 64
     7
176
     1
 65
   257
176
     1
 75
     1
176
     1
175
     1
176
     1
 42
1.0
176
     1
 92
        8
176
     1
 66
     7
176
     1
 43
1.0
176
     1
 76
     1
176
     1
 77
     6
176
     1
 78
     2
176
     1
 67
     7
176
     1
 79
     5
176
     1
170
     0
176
     1
171
     0
176
     1
290
     0
176
     1
 93
        1
176
     1
 44
0.0
176
     1
173
     0
176
     1
  0
VISUALSTYLE
  5
2B
102
{ACAD_REACTORS
330
2A
102
}
330
2A
100
AcDbVisualStyle
  2
Flat
 70
     0
177
     2
291
     1
 71
     2
176
     1
 72
     1
176
     1
 73
     1
176
     1
 90
        2
176
     1
 40
-0.6
176
     1
 41
30.0
176
     1
 62
     5
 63
     7
421
 16777215
176
     1
 74
     0
176
     1
 91
        4
176
     1
 64
     7
176
     1
 65
   257
176
     1
 75
     1
176
     1
175
     1
176
     1
 42
1.0
176
     1
 92
        8
176
     1
 66
     7
176
     1
 43
1.0
176
     1
 76
     1
176
     1
 77
     6
176
     1
 78
     2
176
     1
 67
     7
176
     1
 79
     5
176
     1
170
     0
176
     1
171
     0
176
     1
290
     0
176
     1
 93
       13
176
     1
 44
0.0
176
     1
173
     0
176
     1
  0
VISUALSTYLE
  5
2C
102
{ACAD_REACTORS
330
2A
102
}
330
2A
100
AcDbVisualStyle
  2
FlatWithEdges
 70
     1
177
     2
291
     1
 71
     2
176
     1
 72
     1
176
     1
 73
     1
176
     1
 90
        2
176
     1
 40
-0.6
176
     1
 41
30.0
176
     1
 62
     5
 63
     7
421
 16777215
176
     1
 74
     1
176
     1
 91
        4
176
     1
 64
     7
176
     1
 65
   257
176
     1
 75
     1
176
     1
175
     1
176
     1
 42
1.0
176
     1
 92
        0
176
     1
 66
   257
176
     1
 43
1.0
176
     1
 76
     1
176
     1
 77
     6
176
     1
 78
     2
176
     1
 67
     7
176
     1
 79
     5
176
     1
170
     0
176
     1
171
     0
176
     1
290
     0
176
     1
 93
       13
176
     1
 44
0.0
176
     1
173
     0
176
     1
  0
VISUALSTYLE
  5
2D
102
{ACAD_REACTORS
330
2A
102
}
330
2A
100
AcDbVisualStyle
  2
Gouraud
 70
     2
177
     2
291
     1
 71
     2
176
     1
 72
     2
176
     1
 73
     1
176
     1
 90
        2
176
     1
 40
-0.6
176
     1
 41
30.0
176
     1
 62
     5
 63
     7
421
 16777215
176
     1
 74
     0
176
     1
 91
        4
176
     1
 64
     7
176
     1
 65
   257
176
     1
 75
     1
176
     1
175
     1
176
     1
 42
1.0
176
     1
 92
        0
176
     1
 66
     7
176
     1
 43
1.0
176
     1
 76
     1
176
     1
 77
     6
176
     1
 78
     2
176
     1
 67
     7
176
     1
 79
     5
176
     1
170
     0
176
     1
171
     0
176
     1
290
     0
176
     1
 93
       13
176
     1
 44
0.0
176
     1
173
     0
176
     1
  0
VISUALSTYLE
  5
2E
102
{ACAD_REACTORS
330
2A
102
}
330
2A
100
AcDbVisualStyle
  2
GouraudWithEdges
 70
     3
177
     2
291
     1
 71
     2
176
     1
 72
     2
176
     1
 73
     1
176
     1
 90
        2
176
     1
 40
-0.6
176
     1
 41
30.0
176
     1
 62
     5
 63
     7
421
 16777215
176
     1
 74
     1
176
     1
 91
        4
176
     1
 64
     7
176
     1
 65
   257
176
     1
 75
     1
176
     1
175
     1
176
     1
 42
1.0
176
     1
 92
        0
176
     1
 66
   257
176
     1
 43
1.0
176
     1
 76
     1
176
     1
 77
     6
176
     1
 78
     2
176
     1
 67
     7
176
     1
 79
     5
176
     1
170
     0
176
     1
171
     0
176
     1
290
     0
176
     1
 93
       13
176
     1
 44
0.0
176
     1
173
     0
176
     1
  0
VISUALSTYLE
  5
38
102
{ACAD_REACTORS
330
2A
102
}
330
2A
100
AcDbVisualStyle
  2
Linepattern
 70
    14
177
     2
291
     1
 71
     2
176
     1
 72
     2
176
     1
 73
     0
176
     1
 90
        0
176
     1
 40
-0.6
176
     1
 41
-30.0
176
     1
 62
     5
 63
     7
421
 16777215
176
     1
 74
     1
176
     1
 91
        4
176
     1
 64
     7
176
     1
 65
   257
176
     1
 75
     7
176
     1
175
     7
176
     1
 42
1.0
176
     1
 92
        8
176
     1
 66
     7
176
     1
 43
1.0
176
     1
 76
     1
176
     1
 77
     6
176
     1
 78
     2
176
     1
 67
     7
176
     1
 79
     5
176
     1
170
     0
176
     1
171
     0
176
     1
290
     0
176
     1
 93
        1
176
     1
 44
0.0
176
     1
173
     0
176
     1
  0
VISUALSTYLE
  5
33
102
{ACAD_REACTORS
330
2A
102
}
330
2A
100
AcDbVisualStyle
  2
Realistic
 70
     8
177
     2
291
     0
 71
     2
176
     1
 72
     2
176
     1
 73
     0
176
     1
 90
        0
176
     1
 40
-0.6
176
     1
 41
-30.0
176
     1
 62
     5
 63
     7
421
 16777215
176
     1
 74
     1
176
     1
 91
        0
176
     1
 64
     7
176
     1
 65
   257
176
     1
 75
     1
176
     1
175
     1
176
     1
 42
1.0
176
     1
 92
        8
176
     1
 66
     8
424
  7895160
176
     1
 43
1.0
176
     1
 76
     1
176
     1
 77
     6
176
     1
 78
     2
176
     1
 67
     7
176
     1
 79
     5
176
     1
170
     0
176
     1
171
     0
176
     1
290
     0
176
     1
 93
       13
176
     1
 44
0.0
176
     1
173
     0
176
     1
  0
VISUALSTYLE
  5
37
102
{ACAD_REACTORS
330
2A
102
}
330
2A
100
AcDbVisualStyle
  2
Thicken
 70
    13
177
     2
291
     1
 71
     2
176
     1
 72
     2
176
     1
 73
     0
176
     1
 90
        0
176
     1
 40
-0.6
176
     1
 41
-30.0
176
     1
 62
     5
 63
     7
421
 16777215
176
     1
 74
     1
176
     1
 91
        4
176
     1
 64
     7
176
     1
 65
   257
176
     1
 75
     1
176
     1
175
     1
176
     1
 42
1.0
176
     1
 92
       12
176
     1
 66
     7
176
     1
 43
1.0
176
     1
 76
     1
176
     1
 77
     6
176
     1
 78
     2
176
     1
 67
     7
176
     1
 79
     5
176
     1
170
     0
176
     1
171
     0
176
     1
290
     0
176
     1
 93
        1
176
     1
 44
0.0
176
     1
173
     0
176
     1
  0
ENDSEC
  0
EOF
