  0
SECTION
  2
HEADER
  9
$ACADVER
  1
AC1024
  9
$ACADMAINTVER
 70
     6
  9
$DWGCODEPAGE
  3
UNDEFINED
  9
$INSBASE
 10
0.0
 20
0.0
 30
0.0
  9
$EXTMIN
 10
1.000000000000000E+20
 20
1.000000000000000E+20
 30
1.000000000000000E+20
  9
$EXTMAX
 10
-1.000000000000000E+20
 20
-1.000000000000000E+20
 30
-1.000000000000000E+20
  9
$LIMMIN
 10
0.0
 20
0.0
  9
$LIMMAX
 10
12.0
 20
9.0
  9
$ORTHOMODE
 70
     0
  9
$REGENMODE
 70
     1
  9
$FILLMODE
 70
     1
  9
$QTEXTMODE
 70
     0
  9
$MIRRTEXT
 70
     1
  9
$LTSCALE
 40
1.0
  9
$ATTMODE
 70
     1
  9
$TEXTSIZE
 40
0.2
  9
$TRACEWID
 40
0.05
  9
$TEXTSTYLE
  7
Standard
  9
$CLAYER
  8
0
  9
$CELTYPE
  6
ByLayer
  9
$CECOLOR
 62
   256
  9
$CELTSCALE
 40
1.0
  9
$DISPSILH
 70
     0
  9
$DIMSCALE
 40
1.0
  9
$DIMASZ
 40
0.18
  9
$DIMEXO
 40
0.0625
  9
$DIMDLI
 40
0.38
  9
$DIMRND
 40
0.0
  9
$DIMDLE
 40
0.0
  9
$DIMEXE
 40
0.18
  9
$DIMTP
 40
0.0
  9
$DIMTM
 40
0.0
  9
$DIMTXT
 40
0.18
  9
$DIMCEN
 40
0.09
  9
$DIMTSZ
 40
0.0
  9
$DIMTOL
 70
     0
  9
$DIMLIM
 70
     0
  9
$DIMTIH
 70
     1
  9
$DIMTOH
 70
     1
  9
$DIMSE1
 70
     0
  9
$DIMSE2
 70
     0
  9
$DIMTAD
 70
     0
  9
$DIMZIN
 70
     0
  9
$DIMBLK
  1

  9
$DIMASO
 70
     1
  9
$DIMSHO
 70
     1
  9
$DIMPOST
  1

  9
$DIMAPOST
  1

  9
$DIMALT
 70
     0
  9
$DIMALTD
 70
     2
  9
$DIMALTF
 40
25.4
  9
$DIMLFAC
 40
1.0
  9
$DIMTOFL
 70
     0
  9
$DIMTVP
 40
0.0
  9
$DIMTIX
 70
     0
  9
$DIMSOXD
 70
     0
  9
$DIMSAH
 70
     0
  9
$DIMBLK1
  1

  9
$DIMBLK2
  1

  9
$DIMSTYLE
  2
Standard
  9
$DIMCLRD
 70
     0
  9
$DIMCLRE
 70
     0
  9
$DIMCLRT
 70
     0
  9
$DIMTFAC
 40
1.0
  9
$DIMGAP
 40
0.09
  9
$DIMJUST
 70
     0
  9
$DIMSD1
 70
     0
  9
$DIMSD2
 70
     0
  9
$DIMTOLJ
 70
     1
  9
$DIMTZIN
 70
     0
  9
$DIMALTZ
 70
     0
  9
$DIMALTTZ
 70
     0
  9
$DIMUPT
 70
     0
  9
$DIMDEC
 70
     4
  9
$DIMTDEC
 70
     4
  9
$DIMALTU
 70
     2
  9
$DIMALTTD
 70
     2
  9
$DIMTXSTY
  7
Standard
  9
$DIMAUNIT
 70
     0
  9
$DIMADEC
 70
     0
  9
$DIMALTRND
 40
0.0
  9
$DIMAZIN
 70
     0
  9
$DIMDSEP
 70
    46
  9
$DIMATFIT
 70
     3
  9
$DIMFRAC
 70
     0
  9
$DIMLDRBLK
  1

  9
$DIMLUNIT
 70
     2
  9
$DIMLWD
 70
    -2
  9
$DIMLWE
 70
    -2
  9
$DIMTMOVE
 70
     0
  9
$DIMFXL
 40
1.0
  9
$DIMFXLON
 70
     0
  9
$DIMJOGANG
 40
0.7853981633974483
  9
$DIMTFILL
 70
     0
  9
$DIMTFILLCLR
 70
     0
  9
$DIMARCSYM
 70
     0
  9
$DIMLTYPE
  6

  9
$DIMLTEX1
  6

  9
$DIMLTEX2
  6

  9
$DIMTXTDIRECTION
 70
     0
  9
$LUNITS
 70
     2
  9
$LUPREC
 70
     4
  9
$SKETCHINC
 40
0.1
  9
$FILLETRAD
 40
0.5
  9
$AUNITS
 70
     0
  9
$AUPREC
 70
     0
  9
$MENU
  1
.
  9
$ELEVATION
 40
0.0
  9
$PELEVATION
 40
0.0
  9
$THICKNESS
 40
0.0
  9
$LIMCHECK
 70
     0
  9
$CHAMFERA
 40
0.5
  9
$CHAMFERB
 40
0.5
  9
$CHAMFERC
 40
1.0
  9
$CHAMFERD
 40
0.0
  9
$SKPOLY
 70
     0
  9
$TDCREATE
 40
2457917.612303229
  9
$TDUCREATE
 40
2457917.237303241
  9
$TDUPDATE
 40
2457917.612314803
  9
$TDUUPDATE
 40
2457917.237314815
  9
$TDINDWG
 40
0.0000000116
  9
$TDUSRTIMER
 40
0.0000000116
  9
$USRTIMER
 70
     1
  9
$ANGBASE
 50
0.0
  9
$ANGDIR
 70
     0
  9
$PDMODE
 70
     0
  9
$PDSIZE
 40
0.0
  9
$PLINEWID
 40
0.0
  9
$SPLFRAME
 70
     0
  9
$SPLINETYPE
 70
     6
  9
$SPLINESEGS
 70
     8
  9
$HANDSEED
  5
F6
  9
$SURFTAB1
 70
     6
  9
$SURFTAB2
 70
     6
  9
$SURFTYPE
 70
     6
  9
$SURFU
 70
     6
  9
$SURFV
 70
     6
  9
$UCSBASE
  2

  9
$UCSNAME
  2

  9
$UCSORG
 10
0.0
 20
0.0
 30
0.0
  9
$UCSXDIR
 10
1.0
 20
0.0
 30
0.0
  9
$UCSYDIR
 10
0.0
 20
1.0
 30
0.0
  9
$UCSORTHOREF
  2

  9
$UCSORTHOVIEW
 70
     0
  9
$UCSORGTOP
 10
0.0
 20
0.0
 30
0.0
  9
$UCSORGBOTTOM
 10
0.0
 20
0.0
 30
0.0
  9
$UCSORGLEFT
 10
0.0
 20
0.0
 30
0.0
  9
$UCSORGRIGHT
 10
0.0
 20
0.0
 30
0.0
  9
$UCSORGFRONT
 10
0.0
 20
0.0
 30
0.0
  9
$UCSORGBACK
 10
0.0
 20
0.0
 30
0.0
  9
$PUCSBASE
  2

  9
$PUCSNAME
  2

  9
$PUCSORG
 10
0.0
 20
0.0
 30
0.0
  9
$PUCSXDIR
 10
1.0
 20
0.0
 30
0.0
  9
$PUCSYDIR
 10
0.0
 20
1.0
 30
0.0
  9
$PUCSORTHOREF
  2

  9
$PUCSORTHOVIEW
 70
     0
  9
$PUCSORGTOP
 10
0.0
 20
0.0
 30
0.0
  9
$PUCSORGBOTTOM
 10
0.0
 20
0.0
 30
0.0
  9
$PUCSORGLEFT
 10
0.0
 20
0.0
 30
0.0
  9
$PUCSORGRIGHT
 10
0.0
 20
0.0
 30
0.0
  9
$PUCSORGFRONT
 10
0.0
 20
0.0
 30
0.0
  9
$PUCSORGBACK
 10
0.0
 20
0.0
 30
0.0
  9
$USERI1
 70
     0
  9
$USERI2
 70
     0
  9
$USERI3
 70
     0
  9
$USERI4
 70
     0
  9
$USERI5
 70
     0
  9
$USERR1
 40
0.0
  9
$USERR2
 40
0.0
  9
$USERR3
 40
0.0
  9
$USERR4
 40
0.0
  9
$USERR5
 40
0.0
  9
$WORLDVIEW
 70
     1
  9
$SHADEDGE
 70
     3
  9
$SHADEDIF
 70
    70
  9
$TILEMODE
 70
     1
  9
$MAXACTVP
 70
    64
  9
$PINSBASE
 10
0.0
 20
0.0
 30
0.0
  9
$PLIMCHECK
 70
     0
  9
$PEXTMIN
 10
1.000000000000000E+20
 20
1.000000000000000E+20
 30
1.000000000000000E+20
  9
$PEXTMAX
 10
-1.000000000000000E+20
 20
-1.000000000000000E+20
 30
-1.000000000000000E+20
  9
$PLIMMIN
 10
0.0
 20
0.0
  9
$PLIMMAX
 10
12.0
 20
9.0
  9
$UNITMODE
 70
     0
  9
$VISRETAIN
 70
     1
  9
$PLINEGEN
 70
     0
  9
$PSLTSCALE
 70
     1
  9
$TREEDEPTH
 70
  3020
  9
$CMLSTYLE
  2
Standard
  9
$CMLJUST
 70
     0
  9
$CMLSCALE
 40
1.0
  9
$PROXYGRAPHICS
 70
     1
  9
$MEASUREMENT
 70
     0
  9
$CELWEIGHT
370
    -1
  9
$ENDCAPS
280
     0
  9
$JOINSTYLE
280
     0
  9
$LWDISPLAY
290
     1
  9
$INSUNITS
 70
     1
  9
$HYPERLINKBASE
  1

  9
$STYLESHEET
  1

  9
$XEDIT
290
     1
  9
$CEPSNTYPE
380
     0
  9
$PSTYLEMODE
290
     1
  9
$FINGERPRINTGUID
  2
{777D25DF-FD1A-0EA7-406A-93C73AAA76F6}
  9
$VERSIONGUID
  2
{FAEB1C32-E019-11D5-929B-00C0DF256EC4}
  9
$EXTNAMES
290
     1
  9
$PSVPSCALE
 40
0.0
  9
$OLESTARTUP
290
     0
  9
$SORTENTS
280
   127
  9
$INDEXCTL
280
     0
  9
$HIDETEXT
280
     1
  9
$XCLIPFRAME
280
     2
  9
$HALOGAP
280
     0
  9
$OBSCOLOR
 70
   257
  9
$OBSLTYPE
280
     0
  9
$INTERSECTIONDISPLAY
280
     0
  9
$INTERSECTIONCOLOR
 70
   257
  9
$DIMASSOC
280
     2
  9
$PROJECTNAME
  1

  9
$CAMERADISPLAY
290
     0
  9
$LENSLENGTH
 40
50.0
  9
$CAMERAHEIGHT
 40
0.0
  9
$STEPSPERSEC
 40
2.0
  9
$STEPSIZE
 40
6.0
  9
$3DDWFPREC
 40
2.0
  9
$PSOLWIDTH
 40
0.25
  9
$PSOLHEIGHT
 40
4.0
  9
$LOFTANG1
 40
1.570796326794897
  9
$LOFTANG2
 40
1.570796326794897
  9
$LOFTMAG1
 40
0.0
  9
$LOFTMAG2
 40
0.0
  9
$LOFTPARAM
 70
     7
  9
$LOFTNORMALS
280
     1
  9
$LATITUDE
 40
37.795
  9
$LONGITUDE
 40
-122.394
  9
$NORTHDIRECTION
 40
0.0
  9
$TIMEZONE
 70
 -8000
  9
$LIGHTGLYPHDISPLAY
280
     1
  9
$TILEMODELIGHTSYNCH
280
     1
  9
$CMATERIAL
347
3C
  9
$SOLIDHIST
280
     1
  9
$SHOWHIST
280
     1
  9
$DWFFRAME
280
     2
  9
$DGNFRAME
280
     2
  9
$REALWORLDSCALE
290
     1
  9
$INTERFERECOLOR
 62
   256
  9
$CSHADOW
280
     0
  9
$SHADOWPLANELOCATION
 40
0.0
  0
ENDSEC
  0
SECTION
  2
CLASSES
  0
CLASS
  1
ACDBDICTIONARYWDFLT
  2
AcDbDictionaryWithDefault
  3
ObjectDBX Classes
 90
        0
 91
        4
280
     0
281
     0
  0
CLASS
  1
VISUALSTYLE
  2
AcDbVisualStyle
  3
ObjectDBX Classes
 90
     4095
 91
        4
280
     0
281
     0
  0
CLASS
  1
MATERIAL
  2
AcDbMaterial
  3
ObjectDBX Classes
 90
     1153
 91
        4
280
     0
281
     0
  0
CLASS
  1
SUN
  2
AcDbSun
  3
SCENEOE
 90
     1024
 91
        4
280
     0
281
     0
  0
ENDSEC
  0
SECTION
  2
TABLES
  0
TABLE
  2
VPORT
  5
8
330
0
100
AcDbSymbolTable
 70
     1
  0
VPORT
  5
29
330
8
100
AcDbSymbolTableRecord
100
AcDbViewportTableRecord
  2
*Active
 70
     0
 10
0.0
 20
0.0
 11
1.0
 21
1.0
 12
0.0
 22
0.0
 13
0.0
 23
0.0
 14
0.5
 24
0.5
 15
0.5
 25
0.5
 16
0.0
 26
0.0
 36
1.0
 17
91.00082462281999
 27
-128.4993055234307
 37
0.0
 40
256.9986110468615
 41
0.7081814508812795
 42
50.0
 43
0.0
 44
0.0
 50
0.0
 51
0.0
 71
     0
 72
   100
 73
     1
 74
     3
 75
     0
 76
     0
 77
     0
 78
     0
281
     0
 65
     1
110
0.0
120
0.0
130
0.0
111
1.0
121
0.0
131
0.0
112
0.0
122
1.0
132
0.0
 79
     0
146
0.0
 60
     3
 61
     5
292
     1
282
     1
141
0.0
142
0.0
 63
   250
361
3F
  0
ENDTAB
  0
TABLE
  2
LTYPE
  5
5
330
0
100
AcDbSymbolTable
 70
     1
  0
LTYPE
  5
14
330
5
100
AcDbSymbolTableRecord
100
AcDbLinetypeTableRecord
  2
ByBlock
 70
     0
  3

 72
    65
 73
     0
 40
0.0
  0
LTYPE
  5
15
330
5
100
AcDbSymbolTableRecord
100
AcDbLinetypeTableRecord
  2
ByLayer
 70
     0
  3

 72
    65
 73
     0
 40
0.0
  0
LTYPE
  5
16
330
5
100
AcDbSymbolTableRecord
100
AcDbLinetypeTableRecord
  2
Continuous
 70
     0
  3
Solid line
 72
    65
 73
     0
 40
0.0
  0
ENDTAB
  0
TABLE
  2
LAYER
  5
2
330
0
100
AcDbSymbolTable
 70
     2
  0
LAYER
  5
10
330
2
100
AcDbSymbolTableRecord
100
AcDbLayerTableRecord
  2
0
 70
     0
 62
     7
  6
Continuous
370
    -3
390
F
347
3E
  0
LAYER
  5
40
330
2
100
AcDbSymbolTableRecord
100
AcDbLayerTableRecord
  2
_U+30EC_U+30A4_U+30E4_U+30FC 1
 70
     0
 62
     7
  6
Continuous
370
    -3
390
F
347
3E
  0
ENDTAB
  0
TABLE
  2
STYLE
  5
3
330
0
100
AcDbSymbolTable
 70
     1
  0
STYLE
  5
11
330
3
100
AcDbSymbolTableRecord
100
AcDbTextStyleTableRecord
  2
Standard
 70
     0
 40
0.0
 41
1.0
 50
0.0
 71
     0
 42
0.2
  3
txt
  4

  0
ENDTAB
  0
TABLE
  2
VIEW
  5
6
330
0
100
AcDbSymbolTable
 70
     0
  0
ENDTAB
  0
TABLE
  2
UCS
  5
7
330
0
100
AcDbSymbolTable
 70
     0
  0
ENDTAB
  0
TABLE
  2
APPID
  5
9
330
0
100
AcDbSymbolTable
 70
     1
  0
APPID
  5
12
330
9
100
AcDbSymbolTableRecord
100
AcDbRegAppTableRecord
  2
ACAD
 70
     0
  0
ENDTAB
  0
TABLE
  2
DIMSTYLE
  5
A
330
0
100
AcDbSymbolTable
 70
     1
100
AcDbDimStyleTable
  0
DIMSTYLE
105
27
330
A
100
AcDbSymbolTableRecord
100
AcDbDimStyleTableRecord
  2
Standard
 70
     0
178
     0
340
11
  0
ENDTAB
  0
TABLE
  2
BLOCK_RECORD
  5
1
330
0
100
AcDbSymbolTable
 70
    12
  0
BLOCK_RECORD
  5
1F
330
1
100
AcDbSymbolTableRecord
100
AcDbBlockTableRecord
  2
*Model_Space
340
22
 70
     0
280
     1
281
     0
  0
BLOCK_RECORD
  5
1B
330
1
100
AcDbSymbolTableRecord
100
AcDbBlockTableRecord
  2
*Paper_Space
340
1E
 70
     0
280
     1
281
     0
  0
BLOCK_RECORD
  5
23
330
1
100
AcDbSymbolTableRecord
100
AcDbBlockTableRecord
  2
*Paper_Space0
340
26
 70
     0
280
     1
281
     0
  0
BLOCK_RECORD
  5
41
330
1
100
AcDbSymbolTableRecord
100
AcDbBlockTableRecord
  2
block 2
340
0
102
{BLKREFS
331
42
102
}
 70
     0
280
     1
281
     0
  0
BLOCK_RECORD
  5
83
330
1
100
AcDbSymbolTableRecord
100
AcDbBlockTableRecord
  2
block 3
340
0
102
{BLKREFS
331
84
102
}
 70
     0
280
     1
281
     0
  0
BLOCK_RECORD
  5
93
330
1
100
AcDbSymbolTableRecord
100
AcDbBlockTableRecord
  2
block 4
340
0
102
{BLKREFS
331
94
102
}
 70
     0
280
     1
281
     0
  0
BLOCK_RECORD
  5
9C
330
1
100
AcDbSymbolTableRecord
100
AcDbBlockTableRecord
  2
block 5
340
0
102
{BLKREFS
331
9D
102
}
 70
     0
280
     1
281
     0
  0
BLOCK_RECORD
  5
AC
330
1
100
AcDbSymbolTableRecord
100
AcDbBlockTableRecord
  2
block 6
340
0
102
{BLKREFS
331
AD
102
}
 70
     0
280
     1
281
     0
  0
BLOCK_RECORD
  5
B4
330
1
100
AcDbSymbolTableRecord
100
AcDbBlockTableRecord
  2
block 7
340
0
102
{BLKREFS
331
B5
102
}
 70
     0
280
     1
281
     0
  0
BLOCK_RECORD
  5
C8
330
1
100
AcDbSymbolTableRecord
100
AcDbBlockTableRecord
  2
block 8
340
0
102
{BLKREFS
331
C9
102
}
 70
     0
280
     1
281
     0
  0
BLOCK_RECORD
  5
CE
330
1
100
AcDbSymbolTableRecord
100
AcDbBlockTableRecord
  2
block 9
340
0
102
{BLKREFS
331
CF
102
}
 70
     0
280
     1
281
     0
  0
BLOCK_RECORD
  5
DA
330
1
100
AcDbSymbolTableRecord
100
AcDbBlockTableRecord
  2
block 10
340
0
102
{BLKREFS
331
DB
102
}
 70
     0
280
     1
281
     0
  0
BLOCK_RECORD
  5
E0
330
1
100
AcDbSymbolTableRecord
100
AcDbBlockTableRecord
  2
block 11
340
0
102
{BLKREFS
331
E1
102
}
 70
     0
280
     1
281
     0
  0
BLOCK_RECORD
  5
EC
330
1
100
AcDbSymbolTableRecord
100
AcDbBlockTableRecord
  2
block 12
340
0
102
{BLKREFS
331
ED
102
}
 70
     0
280
     1
281
     0
  0
ENDTAB
  0
ENDSEC
  0
SECTION
  2
BLOCKS
  0
BLOCK
  5
20
330
1F
100
AcDbEntity
  8
0
100
AcDbBlockBegin
  2
*Model_Space
 70
     0
 10
0.0
 20
0.0
 30
0.0
  3
*Model_Space
  1

  0
ENDBLK
  5
21
330
1F
100
AcDbEntity
  8
0
100
AcDbBlockEnd
  0
BLOCK
  5
1C
330
1B
100
AcDbEntity
 67
     1
  8
0
100
AcDbBlockBegin
  2
*Paper_Space
 70
     0
 10
0.0
 20
0.0
 30
0.0
  3
*Paper_Space
  1

  0
ENDBLK
  5
1D
330
1B
100
AcDbEntity
 67
     1
  8
0
100
AcDbBlockEnd
  0
BLOCK
  5
24
330
23
100
AcDbEntity
  8
0
100
AcDbBlockBegin
  2
*Paper_Space0
 70
     0
 10
0.0
 20
0.0
 30
0.0
  3
*Paper_Space0
  1

  0
ENDBLK
  5
25
330
23
100
AcDbEntity
  8
0
100
AcDbBlockEnd
  0
BLOCK
  5
43
330
41
100
AcDbEntity
  8
0
100
AcDbBlockBegin
  2
block 2
 70
     0
 10
0.0
 20
0.0
 30
0.0
  3
block 2
  1

  0
POLYLINE
  5
45
330
41
100
AcDbEntity
  8
_U+30EC_U+30A4_U+30E4_U+30FC 1
370
     0
100
AcDb2dPolyline
 66
     1
 10
0.0
 20
0.0
 30
0.0
  0
VERTEX
  5
46
330
45
100
AcDbEntity
  8
_U+30EC_U+30A4_U+30E4_U+30FC 1
370
     0
100
AcDbVertex
100
AcDb2dVertex
 10
73.30266951878198
 20
-138.4897252431551
 30
0.0
  0
VERTEX
  5
47
330
45
100
AcDbEntity
  8
_U+30EC_U+30A4_U+30E4_U+30FC 1
370
     0
100
AcDbVertex
100
AcDb2dVertex
 10
83.3024023192231
 20
-138.4897252431551
 30
0.0
  0
VERTEX
  5
48
330
45
100
AcDbEntity
  8
_U+30EC_U+30A4_U+30E4_U+30FC 1
370
     0
100
AcDbVertex
100
AcDb2dVertex
 10
83.3024023192231
 20
-135.4897382994607
 30
0.0
  0
VERTEX
  5
49
330
45
100
AcDbEntity
  8
_U+30EC_U+30A4_U+30E4_U+30FC 1
370
     0
100
AcDbVertex
100
AcDb2dVertex
 10
82.3026301225072
 20
-135.4897382994607
 30
0.0
  0
VERTEX
  5
4A
330
45
100
AcDbEntity
  8
_U+30EC_U+30A4_U+30E4_U+30FC 1
370
     0
100
AcDbVertex
100
AcDb2dVertex
 10
82.3026301225072
 20
-137.4899882989607
 30
0.0
  0
VERTEX
  5
4B
330
45
100
AcDbEntity
  8
_U+30EC_U+30A4_U+30E4_U+30FC 1
370
     0
100
AcDbVertex
100
AcDb2dVertex
 10
74.30244171549789
 20
-137.4899882989607
 30
0.0
  0
VERTEX
  5
4C
330
45
100
AcDbEntity
  8
_U+30EC_U+30A4_U+30E4_U+30FC 1
370
     0
100
AcDbVertex
100
AcDb2dVertex
 10
74.30244171549789
 20
-122.4900183027108
 30
0.0
  0
VERTEX
  5
4D
330
45
100
AcDbEntity
  8
_U+30EC_U+30A4_U+30E4_U+30FC 1
370
     0
100
AcDbVertex
100
AcDb2dVertex
 10
98.30304221430268
 20
-122.4900183027108
 30
0.0
  0
VERTEX
  5
4E
330
45
100
AcDbEntity
  8
_U+30EC_U+30A4_U+30E4_U+30FC 1
370
     0
100
AcDbVertex
100
AcDb2dVertex
 10
98.30304221430268
 20
-121.4902460807386
 30
0.0
  0
VERTEX
  5
4F
330
45
100
AcDbEntity
  8
_U+30EC_U+30A4_U+30E4_U+30FC 1
370
     0
100
AcDbVertex
100
AcDb2dVertex
 10
73.30266951878198
 20
-121.4902460807386
 30
0.0
  0
VERTEX
  5
50
330
45
100
AcDbEntity
  8
_U+30EC_U+30A4_U+30E4_U+30FC 1
370
     0
100
AcDbVertex
100
AcDb2dVertex
 10
73.30266951878198
 20
-138.4897252431551
 30
0.0
  0
SEQEND
  5
52
330
45
100
AcDbEntity
  8
_U+30EC_U+30A4_U+30E4_U+30FC 1
370
     0
  0
HATCH
  5
51
330
41
100
AcDbEntity
  8
_U+30EC_U+30A4_U+30E4_U+30FC 1
 62
     9
420
 13224394
100
AcDbHatch
 10
0.0
 20
0.0
 30
0.0
210
0.0
220
0.0
230
1.0
  2
SOLID
 70
     1
 71
     0
 91
        1
 92
        1
 93
       10
 72
     1
 10
73.30266951878198
 20
-138.4897252431551
 11
83.3024023192231
 21
-138.4897252431551
 72
     1
 10
83.3024023192231
 20
-138.4897252431551
 11
83.3024023192231
 21
-135.4897382994607
 72
     1
 10
83.3024023192231
 20
-135.4897382994607
 11
82.3026301225072
 21
-135.4897382994607
 72
     1
 10
82.3026301225072
 20
-135.4897382994607
 11
82.3026301225072
 21
-137.4899882989607
 72
     1
 10
82.3026301225072
 20
-137.4899882989607
 11
74.30244171549789
 21
-137.4899882989607
 72
     1
 10
74.30244171549789
 20
-137.4899882989607
 11
74.30244171549789
 21
-122.4900183027108
 72
     1
 10
74.30244171549789
 20
-122.4900183027108
 11
98.30304221430268
 21
-122.4900183027108
 72
     1
 10
98.30304221430268
 20
-122.4900183027108
 11
98.30304221430268
 21
-121.4902460807386
 72
     1
 10
98.30304221430268
 20
-121.4902460807386
 11
73.30266951878198
 21
-121.4902460807386
 72
     1
 10
73.30266951878198
 20
-121.4902460807386
 11
73.30266951878198
 21
-138.4897252431551
 97
        0
 75
     2
 76
     1
 98
        0
  0
POLYLINE
  5
53
330
41
100
AcDbEntity
  8
_U+30EC_U+30A4_U+30E4_U+30FC 1
 62
   179
420
  2234388
370
    25
100
AcDb2dPolyline
 66
     1
 10
0.0
 20
0.0
 30
0.0
  0
VERTEX
  5
54
330
53
100
AcDbEntity
  8
_U+30EC_U+30A4_U+30E4_U+30FC 1
 62
   179
420
  2234388
370
    25
100
AcDbVertex
100
AcDb2dVertex
 10
73.30266951878198
 20
-121.4902460807386
 30
0.0
  0
VERTEX
  5
55
330
53
100
AcDbEntity
  8
_U+30EC_U+30A4_U+30E4_U+30FC 1
 62
   179
420
  2234388
370
    25
100
AcDbVertex
100
AcDb2dVertex
 10
98.3026894365339
 20
-121.4902460807386
 30
0.0
  0
SEQEND
  5
56
330
53
100
AcDbEntity
  8
_U+30EC_U+30A4_U+30E4_U+30FC 1
 62
   179
420
  2234388
370
    25
  0
POLYLINE
  5
57
330
41
100
AcDbEntity
  8
_U+30EC_U+30A4_U+30E4_U+30FC 1
 62
   179
420
  2234388
370
    25
100
AcDb2dPolyline
 66
     1
 10
0.0
 20
0.0
 30
0.0
  0
VERTEX
  5
58
330
57
100
AcDbEntity
  8
_U+30EC_U+30A4_U+30E4_U+30FC 1
 62
   179
420
  2234388
370
    25
100
AcDbVertex
100
AcDb2dVertex
 10
73.30266951878198
 20
-121.4902460807386
 30
0.0
  0
VERTEX
  5
59
330
57
100
AcDbEntity
  8
_U+30EC_U+30A4_U+30E4_U+30FC 1
 62
   179
420
  2234388
370
    25
100
AcDbVertex
100
AcDb2dVertex
 10
73.30266951878198
 20
-138.4897252431551
 30
0.0
  0
SEQEND
  5
5A
330
57
100
AcDbEntity
  8
_U+30EC_U+30A4_U+30E4_U+30FC 1
 62
   179
420
  2234388
370
    25
  0
POLYLINE
  5
5B
330
41
100
AcDbEntity
  8
_U+30EC_U+30A4_U+30E4_U+30FC 1
 62
   179
420
  2234388
370
    25
100
AcDb2dPolyline
 66
     1
 10
0.0
 20
0.0
 30
0.0
  0
VERTEX
  5
5C
330
5B
100
AcDbEntity
  8
_U+30EC_U+30A4_U+30E4_U+30FC 1
 62
   179
420
  2234388
370
    25
100
AcDbVertex
100
AcDb2dVertex
 10
98.3026894365339
 20
-121.4902460807386
 30
0.0
  0
VERTEX
  5
5D
330
5B
100
AcDbEntity
  8
_U+30EC_U+30A4_U+30E4_U+30FC 1
 62
   179
420
  2234388
370
    25
100
AcDbVertex
100
AcDb2dVertex
 10
98.3026894365339
 20
-122.4900183027108
 30
0.0
  0
SEQEND
  5
5E
330
5B
100
AcDbEntity
  8
_U+30EC_U+30A4_U+30E4_U+30FC 1
 62
   179
420
  2234388
370
    25
  0
POLYLINE
  5
5F
330
41
100
AcDbEntity
  8
_U+30EC_U+30A4_U+30E4_U+30FC 1
 62
   179
420
  2234388
370
    25
100
AcDb2dPolyline
 66
     1
 10
0.0
 20
0.0
 30
0.0
  0
VERTEX
  5
60
330
5F
100
AcDbEntity
  8
_U+30EC_U+30A4_U+30E4_U+30FC 1
 62
   179
420
  2234388
370
    25
100
AcDbVertex
100
AcDb2dVertex
 10
74.30244171549789
 20
-122.4900183027108
 30
0.0
  0
VERTEX
  5
61
330
5F
100
AcDbEntity
  8
_U+30EC_U+30A4_U+30E4_U+30FC 1
 62
   179
420
  2234388
370
    25
100
AcDbVertex
100
AcDb2dVertex
 10
98.3026894365339
 20
-122.4900183027108
 30
0.0
  0
SEQEND
  5
62
330
5F
100
AcDbEntity
  8
_U+30EC_U+30A4_U+30E4_U+30FC 1
 62
   179
420
  2234388
370
    25
  0
POLYLINE
  5
63
330
41
100
AcDbEntity
  8
_U+30EC_U+30A4_U+30E4_U+30FC 1
 62
   179
420
  2234388
370
    25
100
AcDb2dPolyline
 66
     1
 10
0.0
 20
0.0
 30
0.0
  0
VERTEX
  5
64
330
63
100
AcDbEntity
  8
_U+30EC_U+30A4_U+30E4_U+30FC 1
 62
   179
420
  2234388
370
    25
100
AcDbVertex
100
AcDb2dVertex
 10
83.3024023192231
 20
-135.4897382994607
 30
0.0
  0
VERTEX
  5
65
330
63
100
AcDbEntity
  8
_U+30EC_U+30A4_U+30E4_U+30FC 1
 62
   179
420
  2234388
370
    25
100
AcDbVertex
100
AcDb2dVertex
 10
83.3024023192231
 20
-138.4897252431551
 30
0.0
  0
SEQEND
  5
66
330
63
100
AcDbEntity
  8
_U+30EC_U+30A4_U+30E4_U+30FC 1
 62
   179
420
  2234388
370
    25
  0
POLYLINE
  5
67
330
41
100
AcDbEntity
  8
_U+30EC_U+30A4_U+30E4_U+30FC 1
 62
   179
420
  2234388
370
    25
100
AcDb2dPolyline
 66
     1
 10
0.0
 20
0.0
 30
0.0
  0
VERTEX
  5
68
330
67
100
AcDbEntity
  8
_U+30EC_U+30A4_U+30E4_U+30FC 1
 62
   179
420
  2234388
370
    25
100
AcDbVertex
100
AcDb2dVertex
 10
82.3026301225072
 20
-135.4897382994607
 30
0.0
  0
VERTEX
  5
69
330
67
100
AcDbEntity
  8
_U+30EC_U+30A4_U+30E4_U+30FC 1
 62
   179
420
  2234388
370
    25
100
AcDbVertex
100
AcDb2dVertex
 10
82.3026301225072
 20
-137.4899882989607
 30
0.0
  0
SEQEND
  5
6A
330
67
100
AcDbEntity
  8
_U+30EC_U+30A4_U+30E4_U+30FC 1
 62
   179
420
  2234388
370
    25
  0
POLYLINE
  5
6B
330
41
100
AcDbEntity
  8
_U+30EC_U+30A4_U+30E4_U+30FC 1
 62
   179
420
  2234388
370
    25
100
AcDb2dPolyline
 66
     1
 10
0.0
 20
0.0
 30
0.0
  0
VERTEX
  5
6C
330
6B
100
AcDbEntity
  8
_U+30EC_U+30A4_U+30E4_U+30FC 1
 62
   179
420
  2234388
370
    25
100
AcDbVertex
100
AcDb2dVertex
 10
74.30244171549789
 20
-122.4900183027108
 30
0.0
  0
VERTEX
  5
6D
330
6B
100
AcDbEntity
  8
_U+30EC_U+30A4_U+30E4_U+30FC 1
 62
   179
420
  2234388
370
    25
100
AcDbVertex
100
AcDb2dVertex
 10
74.30244171549789
 20
-137.4899882989607
 30
0.0
  0
SEQEND
  5
6E
330
6B
100
AcDbEntity
  8
_U+30EC_U+30A4_U+30E4_U+30FC 1
 62
   179
420
  2234388
370
    25
  0
POLYLINE
  5
6F
330
41
100
AcDbEntity
  8
_U+30EC_U+30A4_U+30E4_U+30FC 1
 62
   179
420
  2234388
370
    25
100
AcDb2dPolyline
 66
     1
 10
0.0
 20
0.0
 30
0.0
  0
VERTEX
  5
70
330
6F
100
AcDbEntity
  8
_U+30EC_U+30A4_U+30E4_U+30FC 1
 62
   179
420
  2234388
370
    25
100
AcDbVertex
100
AcDb2dVertex
 10
82.3026301225072
 20
-135.4897382994607
 30
0.0
  0
VERTEX
  5
71
330
6F
100
AcDbEntity
  8
_U+30EC_U+30A4_U+30E4_U+30FC 1
 62
   179
420
  2234388
370
    25
100
AcDbVertex
100
AcDb2dVertex
 10
83.3024023192231
 20
-135.4897382994607
 30
0.0
  0
SEQEND
  5
72
330
6F
100
AcDbEntity
  8
_U+30EC_U+30A4_U+30E4_U+30FC 1
 62
   179
420
  2234388
370
    25
  0
POLYLINE
  5
73
330
41
100
AcDbEntity
  8
_U+30EC_U+30A4_U+30E4_U+30FC 1
 62
   179
420
  2234388
370
    25
100
AcDb2dPolyline
 66
     1
 10
0.0
 20
0.0
 30
0.0
  0
VERTEX
  5
74
330
73
100
AcDbEntity
  8
_U+30EC_U+30A4_U+30E4_U+30FC 1
 62
   179
420
  2234388
370
    25
100
AcDbVertex
100
AcDb2dVertex
 10
73.30266951878198
 20
-138.4897252431551
 30
0.0
  0
VERTEX
  5
75
330
73
100
AcDbEntity
  8
_U+30EC_U+30A4_U+30E4_U+30FC 1
 62
   179
420
  2234388
370
    25
100
AcDbVertex
100
AcDb2dVertex
 10
83.3024023192231
 20
-138.4897252431551
 30
0.0
  0
SEQEND
  5
76
330
73
100
AcDbEntity
  8
_U+30EC_U+30A4_U+30E4_U+30FC 1
 62
   179
420
  2234388
370
    25
  0
POLYLINE
  5
77
330
41
100
AcDbEntity
  8
_U+30EC_U+30A4_U+30E4_U+30FC 1
 62
   179
420
  2234388
370
    25
100
AcDb2dPolyline
 66
     1
 10
0.0
 20
0.0
 30
0.0
  0
VERTEX
  5
78
330
77
100
AcDbEntity
  8
_U+30EC_U+30A4_U+30E4_U+30FC 1
 62
   179
420
  2234388
370
    25
100
AcDbVertex
100
AcDb2dVertex
 10
74.30244171549789
 20
-137.4899882989607
 30
0.0
  0
VERTEX
  5
79
330
77
100
AcDbEntity
  8
_U+30EC_U+30A4_U+30E4_U+30FC 1
 62
   179
420
  2234388
370
    25
100
AcDbVertex
100
AcDb2dVertex
 10
82.3026301225072
 20
-137.4899882989607
 30
0.0
  0
SEQEND
  5
7A
330
77
100
AcDbEntity
  8
_U+30EC_U+30A4_U+30E4_U+30FC 1
 62
   179
420
  2234388
370
    25
  0
SPLINE
  5
7B
330
41
100
AcDbEntity
  8
_U+30EC_U+30A4_U+30E4_U+30FC 1
 62
   179
420
  2234388
370
     9
100
AcDbSpline
210
0.0
220
0.0
230
1.0
 70
    11
 71
     3
 72
    17
 73
    13
 74
     0
 42
0.0000000001
 43
0.0000000001
 12
1.0
 22
0.0
 32
0.0
 13
1.0
 23
0.0
 33
0.0
 40
0.0
 40
0.0
 40
0.0
 40
0.0
 40
1.0
 40
1.0
 40
1.0
 40
2.0
 40
2.0
 40
2.0
 40
3.0
 40
3.0
 40
3.0
 40
4.0
 40
4.0
 40
4.0
 40
4.0
 10
73.40257618289982
 20
-117.4898166372944
 30
0.0
 10
73.40257618289982
 20
-117.4346774706413
 30
0.0
 10
73.35780868404194
 20
-117.3899099706524
 30
0.0
 10
73.30266951878198
 20
-117.3899099706524
 30
0.0
 10
73.24756563129891
 20
-117.3899099706524
 30
0.0
 10
73.20276285466416
 20
-117.4346774706413
 30
0.0
 10
73.20276285466416
 20
-117.4898166372944
 30
0.0
 10
73.20276285466416
 20
-117.5449205261693
 30
0.0
 10
73.24756563129891
 20
-117.589723303936
 30
0.0
 10
73.30266951878198
 20
-117.589723303936
 30
0.0
 10
73.35780868404194
 20
-117.589723303936
 30
0.0
 10
73.40257618289982
 20
-117.5449205261693
 30
0.0
 10
73.40257618289982
 20
-117.4898166372944
 30
0.0
  0
SPLINE
  5
7C
330
41
100
AcDbEntity
  8
_U+30EC_U+30A4_U+30E4_U+30FC 1
 62
   179
420
  2234388
370
     9
100
AcDbSpline
210
0.0
220
0.0
230
1.0
 70
    11
 71
     3
 72
    17
 73
    13
 74
     0
 42
0.0000000001
 43
0.0000000001
 12
1.0
 22
0.0
 32
0.0
 13
1.0
 23
0.0
 33
0.0
 40
0.0
 40
0.0
 40
0.0
 40
0.0
 40
1.0
 40
1.0
 40
1.0
 40
2.0
 40
2.0
 40
2.0
 40
3.0
 40
3.0
 40
3.0
 40
4.0
 40
4.0
 40
4.0
 40
4.0
 10
98.40259610065173
 20
-117.4898166372944
 30
0.0
 10
98.40259610065173
 20
-117.4346774706413
 30
0.0
 10
98.35782860179386
 20
-117.3899099706524
 30
0.0
 10
98.3026894365339
 20
-117.3899099706524
 30
0.0
 10
98.24723277128206
 20
-117.3899099706524
 30
0.0
 10
98.20242999464729
 20
-117.4346774706413
 30
0.0
 10
98.20242999464729
 20
-117.4898166372944
 30
0.0
 10
98.20242999464729
 20
-117.5449205261693
 30
0.0
 10
98.24723277128206
 20
-117.589723303936
 30
0.0
 10
98.3026894365339
 20
-117.589723303936
 30
0.0
 10
98.35782860179386
 20
-117.589723303936
 30
0.0
 10
98.40259610065173
 20
-117.5449205261693
 30
0.0
 10
98.40259610065173
 20
-117.4898166372944
 30
0.0
  0
SPLINE
  5
7D
330
41
100
AcDbEntity
  8
_U+30EC_U+30A4_U+30E4_U+30FC 1
 62
   179
420
  2234388
370
     9
100
AcDbSpline
210
0.0
220
0.0
230
1.0
 70
    11
 71
     3
 72
    17
 73
    13
 74
     0
 42
0.0000000001
 43
0.0000000001
 12
1.0
 22
0.0
 32
0.0
 13
1.0
 23
0.0
 33
0.0
 40
0.0
 40
0.0
 40
0.0
 40
0.0
 40
1.0
 40
1.0
 40
1.0
 40
2.0
 40
2.0
 40
2.0
 40
3.0
 40
3.0
 40
3.0
 40
4.0
 40
4.0
 40
4.0
 40
4.0
 10
102.4027079430448
 20
-121.4902460807386
 30
0.0
 10
102.4027079430448
 20
-121.4344366363081
 30
0.0
 10
102.3579051664101
 20
-121.3896691363193
 30
0.0
 10
102.3024485011582
 20
-121.3896691363193
 30
0.0
 10
102.2473471966601
 20
-121.3896691363193
 30
0.0
 10
102.202544418894
 20
-121.4344366363081
 30
0.0
 10
102.202544418894
 20
-121.4902460807386
 30
0.0
 10
102.202544418894
 20
-121.5453852473914
 30
0.0
 10
102.2473471966601
 20
-121.5901527473802
 30
0.0
 10
102.3024485011582
 20
-121.5901527473802
 30
0.0
 10
102.3579051664101
 20
-121.5901527473802
 30
0.0
 10
102.4027079430448
 20
-121.5453852473914
 30
0.0
 10
102.4027079430448
 20
-121.4902460807386
 30
0.0
  0
SPLINE
  5
7E
330
41
100
AcDbEntity
  8
_U+30EC_U+30A4_U+30E4_U+30FC 1
 62
   179
420
  2234388
370
     9
100
AcDbSpline
210
0.0
220
0.0
230
1.0
 70
    11
 71
     3
 72
    17
 73
    13
 74
     0
 42
0.0000000001
 43
0.0000000001
 12
1.0
 22
0.0
 32
0.0
 13
1.0
 23
0.0
 33
0.0
 40
0.0
 40
0.0
 40
0.0
 40
0.0
 40
1.0
 40
1.0
 40
1.0
 40
2.0
 40
2.0
 40
2.0
 40
3.0
 40
3.0
 40
3.0
 40
4.0
 40
4.0
 40
4.0
 40
4.0
 10
102.4027079430448
 20
-122.4900183027108
 30
0.0
 10
102.4027079430448
 20
-122.4349144138356
 30
0.0
 10
102.3579051664101
 20
-122.3901116360692
 30
0.0
 10
102.3024485011582
 20
-122.3901116360692
 30
0.0
 10
102.2473471966601
 20
-122.3901116360692
 30
0.0
 10
102.202544418894
 20
-122.4349144138356
 30
0.0
 10
102.202544418894
 20
-122.4900183027108
 30
0.0
 10
102.202544418894
 20
-122.5451574693636
 30
0.0
 10
102.2473471966601
 20
-122.5899249693525
 30
0.0
 10
102.3024485011582
 20
-122.5899249693525
 30
0.0
 10
102.3579051664101
 20
-122.5899249693525
 30
0.0
 10
102.4027079430448
 20
-122.5451574693636
 30
0.0
 10
102.4027079430448
 20
-122.4900183027108
 30
0.0
  0
SPLINE
  5
7F
330
41
100
AcDbEntity
  8
_U+30EC_U+30A4_U+30E4_U+30FC 1
 62
   179
420
  2234388
370
     9
100
AcDbSpline
210
0.0
220
0.0
230
1.0
 70
    11
 71
     3
 72
    17
 73
    13
 74
     0
 42
0.0000000001
 43
0.0000000001
 12
1.0
 22
0.0
 32
0.0
 13
1.0
 23
0.0
 33
0.0
 40
0.0
 40
0.0
 40
0.0
 40
0.0
 40
1.0
 40
1.0
 40
1.0
 40
2.0
 40
2.0
 40
2.0
 40
3.0
 40
3.0
 40
3.0
 40
4.0
 40
4.0
 40
4.0
 40
4.0
 10
102.4027079430448
 20
-135.4897382994607
 30
0.0
 10
102.4027079430448
 20
-135.4346344105858
 30
0.0
 10
102.3579051664101
 20
-135.3898316328191
 30
0.0
 10
102.3024485011582
 20
-135.3898316328191
 30
0.0
 10
102.2473471966601
 20
-135.3898316328191
 30
0.0
 10
102.202544418894
 20
-135.4346344105858
 30
0.0
 10
102.202544418894
 20
-135.4897382994607
 30
0.0
 10
102.202544418894
 20
-135.5448774661138
 30
0.0
 10
102.2473471966601
 20
-135.5896449661024
 30
0.0
 10
102.3024485011582
 20
-135.5896449661024
 30
0.0
 10
102.3579051664101
 20
-135.5896449661024
 30
0.0
 10
102.4027079430448
 20
-135.5448774661138
 30
0.0
 10
102.4027079430448
 20
-135.4897382994607
 30
0.0
  0
SPLINE
  5
80
330
41
100
AcDbEntity
  8
_U+30EC_U+30A4_U+30E4_U+30FC 1
 62
   179
420
  2234388
370
     9
100
AcDbSpline
210
0.0
220
0.0
230
1.0
 70
    11
 71
     3
 72
    17
 73
    13
 74
     0
 42
0.0000000001
 43
0.0000000001
 12
1.0
 22
0.0
 32
0.0
 13
1.0
 23
0.0
 33
0.0
 40
0.0
 40
0.0
 40
0.0
 40
0.0
 40
1.0
 40
1.0
 40
1.0
 40
2.0
 40
2.0
 40
2.0
 40
3.0
 40
3.0
 40
3.0
 40
4.0
 40
4.0
 40
4.0
 40
4.0
 10
102.4027079430448
 20
-138.4897252431551
 30
0.0
 10
102.4027079430448
 20
-138.4346213542802
 30
0.0
 10
102.3579051664101
 20
-138.3898185765134
 30
0.0
 10
102.3024485011582
 20
-138.3898185765134
 30
0.0
 10
102.2473471966601
 20
-138.3898185765134
 30
0.0
 10
102.202544418894
 20
-138.4346213542802
 30
0.0
 10
102.202544418894
 20
-138.4897252431551
 30
0.0
 10
102.202544418894
 20
-138.5448644098082
 30
0.0
 10
102.2473471966601
 20
-138.5896319097974
 30
0.0
 10
102.3024485011582
 20
-138.5896319097974
 30
0.0
 10
102.3579051664101
 20
-138.5896319097974
 30
0.0
 10
102.4027079430448
 20
-138.5448644098082
 30
0.0
 10
102.4027079430448
 20
-138.4897252431551
 30
0.0
  0
SPLINE
  5
81
330
41
100
AcDbEntity
  8
_U+30EC_U+30A4_U+30E4_U+30FC 1
 62
   179
420
  2234388
370
     9
100
AcDbSpline
210
0.0
220
0.0
230
1.0
 70
    11
 71
     3
 72
    17
 73
    13
 74
     0
 42
0.0000000001
 43
0.0000000001
 12
1.0
 22
0.0
 32
0.0
 13
1.0
 23
0.0
 33
0.0
 40
0.0
 40
0.0
 40
0.0
 40
0.0
 40
1.0
 40
1.0
 40
1.0
 40
2.0
 40
2.0
 40
2.0
 40
3.0
 40
3.0
 40
3.0
 40
4.0
 40
4.0
 40
4.0
 40
4.0
 10
83.4023110902606
 20
-142.489484408822
 30
0.0
 10
83.4023110902606
 20
-142.434380519947
 30
0.0
 10
83.35754148448305
 20
-142.3895777421803
 30
0.0
 10
83.3024023192231
 20
-142.3895777421803
 30
0.0
 10
83.24729843174003
 20
-142.3895777421803
 30
0.0
 10
83.20249565510527
 20
-142.434380519947
 30
0.0
 10
83.20249565510527
 20
-142.489484408822
 30
0.0
 10
83.20249565510527
 20
-142.544623575475
 30
0.0
 10
83.24729843174003
 20
-142.5893910754636
 30
0.0
 10
83.3024023192231
 20
-142.5893910754636
 30
0.0
 10
83.35754148448305
 20
-142.5893910754636
 30
0.0
 10
83.4023110902606
 20
-142.544623575475
 30
0.0
 10
83.4023110902606
 20
-142.489484408822
 30
0.0
  0
SPLINE
  5
82
330
41
100
AcDbEntity
  8
_U+30EC_U+30A4_U+30E4_U+30FC 1
 62
   179
420
  2234388
370
     9
100
AcDbSpline
210
0.0
220
0.0
230
1.0
 70
    11
 71
     3
 72
    17
 73
    13
 74
     0
 42
0.0000000001
 43
0.0000000001
 12
1.0
 22
0.0
 32
0.0
 13
1.0
 23
0.0
 33
0.0
 40
0.0
 40
0.0
 40
0.0
 40
0.0
 40
1.0
 40
1.0
 40
1.0
 40
2.0
 40
2.0
 40
2.0
 40
3.0
 40
3.0
 40
3.0
 40
4.0
 40
4.0
 40
4.0
 40
4.0
 10
73.40257618289982
 20
-142.489484408822
 30
0.0
 10
73.40257618289982
 20
-142.434380519947
 30
0.0
 10
73.35780868404194
 20
-142.3895777421803
 30
0.0
 10
73.30266951878198
 20
-142.3895777421803
 30
0.0
 10
73.24756563129891
 20
-142.3895777421803
 30
0.0
 10
73.20276285466416
 20
-142.434380519947
 30
0.0
 10
73.20276285466416
 20
-142.489484408822
 30
0.0
 10
73.20276285466416
 20
-142.544623575475
 30
0.0
 10
73.24756563129891
 20
-142.5893910754636
 30
0.0
 10
73.30266951878198
 20
-142.5893910754636
 30
0.0
 10
73.35780868404194
 20
-142.5893910754636
 30
0.0
 10
73.40257618289982
 20
-142.544623575475
 30
0.0
 10
73.40257618289982
 20
-142.489484408822
 30
0.0
  0
INSERT
  5
84
330
41
100
AcDbEntity
  8
_U+30EC_U+30A4_U+30E4_U+30FC 1
100
AcDbBlockReference
  2
block 3
 10
0.0
 20
0.0
 30
0.0
  0
INSERT
  5
9D
330
41
100
AcDbEntity
  8
_U+30EC_U+30A4_U+30E4_U+30FC 1
100
AcDbBlockReference
  2
block 5
 10
0.0
 20
0.0
 30
0.0
  0
INSERT
  5
B5
330
41
100
AcDbEntity
  8
_U+30EC_U+30A4_U+30E4_U+30FC 1
100
AcDbBlockReference
  2
block 7
 10
0.0
 20
0.0
 30
0.0
  0
INSERT
  5
CF
330
41
100
AcDbEntity
  8
_U+30EC_U+30A4_U+30E4_U+30FC 1
100
AcDbBlockReference
  2
block 9
 10
0.0
 20
0.0
 30
0.0
  0
INSERT
  5
E1
330
41
100
AcDbEntity
  8
_U+30EC_U+30A4_U+30E4_U+30FC 1
100
AcDbBlockReference
  2
block 11
 10
0.0
 20
0.0
 30
0.0
  0
ENDBLK
  5
44
330
41
100
AcDbEntity
  8
0
100
AcDbBlockEnd
  0
BLOCK
  5
85
330
83
100
AcDbEntity
  8
0
100
AcDbBlockBegin
  2
block 3
 70
     0
 10
0.0
 20
0.0
 30
0.0
  3
block 3
  1

  0
POLYLINE
  5
87
330
83
100
AcDbEntity
  8
_U+30EC_U+30A4_U+30E4_U+30FC 1
 62
   179
420
  2234388
370
     9
100
AcDb2dPolyline
 66
     1
 10
0.0
 20
0.0
 30
0.0
  0
VERTEX
  5
88
330
87
100
AcDbEntity
  8
_U+30EC_U+30A4_U+30E4_U+30FC 1
 62
   179
420
  2234388
370
     9
100
AcDbVertex
100
AcDb2dVertex
 10
73.30266951878198
 20
-142.489484408822
 30
0.0
  0
VERTEX
  5
89
330
87
100
AcDbEntity
  8
_U+30EC_U+30A4_U+30E4_U+30FC 1
 62
   179
420
  2234388
370
     9
100
AcDbVertex
100
AcDb2dVertex
 10
83.3024023192231
 20
-142.489484408822
 30
0.0
  0
SEQEND
  5
8A
330
87
100
AcDbEntity
  8
_U+30EC_U+30A4_U+30E4_U+30FC 1
 62
   179
420
  2234388
370
     9
  0
POLYLINE
  5
8B
330
83
100
AcDbEntity
  8
_U+30EC_U+30A4_U+30E4_U+30FC 1
 62
   179
420
  2234388
370
     9
100
AcDb2dPolyline
 66
     1
 10
0.0
 20
0.0
 30
0.0
  0
VERTEX
  5
8C
330
8B
100
AcDbEntity
  8
_U+30EC_U+30A4_U+30E4_U+30FC 1
 62
   179
420
  2234388
370
     9
100
AcDbVertex
100
AcDb2dVertex
 10
73.30266951878198
 20
-141.0294782980758
 30
0.0
  0
VERTEX
  5
8D
330
8B
100
AcDbEntity
  8
_U+30EC_U+30A4_U+30E4_U+30FC 1
 62
   179
420
  2234388
370
     9
100
AcDbVertex
100
AcDb2dVertex
 10
73.30266951878198
 20
-143.4892566307945
 30
0.0
  0
SEQEND
  5
8E
330
8B
100
AcDbEntity
  8
_U+30EC_U+30A4_U+30E4_U+30FC 1
 62
   179
420
  2234388
370
     9
  0
POLYLINE
  5
8F
330
83
100
AcDbEntity
  8
_U+30EC_U+30A4_U+30E4_U+30FC 1
 62
   179
420
  2234388
370
     9
100
AcDb2dPolyline
 66
     1
 10
0.0
 20
0.0
 30
0.0
  0
VERTEX
  5
90
330
8F
100
AcDbEntity
  8
_U+30EC_U+30A4_U+30E4_U+30FC 1
 62
   179
420
  2234388
370
     9
100
AcDbVertex
100
AcDb2dVertex
 10
83.3024023192231
 20
-141.0294782980758
 30
0.0
  0
VERTEX
  5
91
330
8F
100
AcDbEntity
  8
_U+30EC_U+30A4_U+30E4_U+30FC 1
 62
   179
420
  2234388
370
     9
100
AcDbVertex
100
AcDb2dVertex
 10
83.3024023192231
 20
-143.4892566307945
 30
0.0
  0
SEQEND
  5
92
330
8F
100
AcDbEntity
  8
_U+30EC_U+30A4_U+30E4_U+30FC 1
 62
   179
420
  2234388
370
     9
  0
INSERT
  5
94
330
83
100
AcDbEntity
  8
_U+30EC_U+30A4_U+30E4_U+30FC 1
100
AcDbBlockReference
  2
block 4
 10
0.0
 20
0.0
 30
0.0
  0
ENDBLK
  5
86
330
83
100
AcDbEntity
  8
0
100
AcDbBlockEnd
  0
BLOCK
  5
95
330
93
100
AcDbEntity
  8
0
100
AcDbBlockBegin
  2
block 4
 70
     0
 10
0.0
 20
0.0
 30
0.0
  3
block 4
  1

  0
SPLINE
  5
97
330
93
100
AcDbEntity
  8
_U+30EC_U+30A4_U+30E4_U+30FC 1
370
     0
100
AcDbSpline
210
0.0
220
0.0
230
1.0
 70
    11
 71
     3
 72
    26
 73
    22
 74
     0
 42
0.0000000001
 43
0.0000000001
 12
1.0
 22
0.0
 32
0.0
 13
1.0
 23
0.0
 33
0.0
 40
0.0
 40
0.0
 40
0.0
 40
0.0
 40
1.0
 40
1.0
 40
1.0
 40
2.0
 40
2.0
 40
2.0
 40
3.0
 40
3.0
 40
3.0
 40
4.0
 40
4.0
 40
4.0
 40
5.0
 40
5.0
 40
5.0
 40
6.0
 40
6.0
 40
6.0
 40
7.0
 40
7.0
 40
7.0
 40
7.0
 10
77.66519909082676
 20
-141.8442273950945
 30
0.0
 10
77.66519909082676
 20
-141.8442273950945
 30
0.0
 10
77.66519909082676
 20
-140.7400742920719
 30
0.0
 10
77.66519909082676
 20
-140.7400742920719
 30
0.0
 10
77.66519909082676
 20
-140.7400742920719
 30
0.0
 10
77.33515894333982
 20
-140.7400742920719
 30
0.0
 10
77.33515894333982
 20
-140.7400742920719
 30
0.0
 10
77.33515894333982
 20
-140.7400742920719
 30
0.0
 10
77.33515894333982
 20
-140.5919351862062
 30
0.0
 10
77.33515894333982
 20
-140.5919351862062
 30
0.0
 10
77.6672661481179
 20
-140.5771212756196
 30
0.0
 10
77.71377493716878
 20
-140.4141682591673
 30
0.0
 10
77.74340275834193
 20
-140.299791089057
 30
0.0
 10
77.74340275834193
 20
-140.299791089057
 30
0.0
 10
77.88947480691652
 20
-140.299791089057
 30
0.0
 10
77.88947480691652
 20
-140.299791089057
 30
0.0
 10
77.88947480691652
 20
-140.299791089057
 30
0.0
 10
77.88947480691652
 20
-141.8442273950945
 30
0.0
 10
77.88947480691652
 20
-141.8442273950945
 30
0.0
 10
77.88947480691652
 20
-141.8442273950945
 30
0.0
 10
77.66519909082676
 20
-141.8442273950945
 30
0.0
 10
77.66519909082676
 20
-141.8442273950945
 30
0.0
  0
HATCH
  5
98
330
93
100
AcDbEntity
  8
_U+30EC_U+30A4_U+30E4_U+30FC 1
 62
   179
420
  2234388
100
AcDbHatch
 10
0.0
 20
0.0
 30
0.0
210
0.0
220
0.0
230
1.0
  2
SOLID
 70
     1
 71
     0
 91
        1
 92
        1
 93
        1
 72
     4
 94
        3
 73
     0
 74
     1
 95
       26
 96
       22
 40
0.0
 40
0.0
 40
0.0
 40
0.0
 40
1.0
 40
1.0
 40
1.0
 40
2.0
 40
2.0
 40
2.0
 40
3.0
 40
3.0
 40
3.0
 40
4.0
 40
4.0
 40
4.0
 40
5.0
 40
5.0
 40
5.0
 40
6.0
 40
6.0
 40
6.0
 40
7.0
 40
7.0
 40
7.0
 40
7.0
 10
77.66519909082676
 20
-141.8442273950945
 10
77.66519909082676
 20
-141.8442273950945
 10
77.66519909082676
 20
-140.7400742920719
 10
77.66519909082676
 20
-140.7400742920719
 10
77.66519909082676
 20
-140.7400742920719
 10
77.33515894333982
 20
-140.7400742920719
 10
77.33515894333982
 20
-140.7400742920719
 10
77.33515894333982
 20
-140.7400742920719
 10
77.33515894333982
 20
-140.5919351862062
 10
77.33515894333982
 20
-140.5919351862062
 10
77.6672661481179
 20
-140.5771212756196
 10
77.71377493716878
 20
-140.4141682591673
 10
77.74340275834193
 20
-140.299791089057
 10
77.74340275834193
 20
-140.299791089057
 10
77.88947480691652
 20
-140.299791089057
 10
77.88947480691652
 20
-140.299791089057
 10
77.88947480691652
 20
-140.299791089057
 10
77.88947480691652
 20
-141.8442273950945
 10
77.88947480691652
 20
-141.8442273950945
 10
77.88947480691652
 20
-141.8442273950945
 10
77.66519909082676
 20
-141.8442273950945
 10
77.66519909082676
 20
-141.8442273950945
 97
        0
 97
        0
 75
     2
 76
     1
 98
        0
  0
SPLINE
  5
99
330
93
100
AcDbEntity
  8
_U+30EC_U+30A4_U+30E4_U+30FC 1
370
     0
100
AcDbSpline
210
0.0
220
0.0
230
1.0
 70
    11
 71
     3
 72
    29
 73
    25
 74
     0
 42
0.0000000001
 43
0.0000000001
 12
1.0
 22
0.0
 32
0.0
 13
1.0
 23
0.0
 33
0.0
 40
0.0
 40
0.0
 40
0.0
 40
0.0
 40
1.0
 40
1.0
 40
1.0
 40
2.0
 40
2.0
 40
2.0
 40
3.0
 40
3.0
 40
3.0
 40
4.0
 40
4.0
 40
4.0
 40
5.0
 40
5.0
 40
5.0
 40
6.0
 40
6.0
 40
6.0
 40
7.0
 40
7.0
 40
7.0
 40
8.0
 40
8.0
 40
8.0
 40
8.0
 10
79.28835582870222
 20
-141.6664604680556
 30
0.0
 10
79.1805243400139
 20
-141.8759222735588
 30
0.0
 10
79.00706378233157
 20
-141.8948702987277
 30
0.0
 10
78.89061955493013
 20
-141.8948702987277
 30
0.0
 10
78.72990585054322
 20
-141.8948702987277
 30
0.0
 10
78.5881401713252
 20
-141.8483615096768
 30
0.0
 10
78.49288328115803
 20
-141.6664604680556
 30
0.0
 10
78.38935816182628
 20
-141.471812573139
 30
0.0
 10
78.37023788188314
 20
-141.2351345133023
 30
0.0
 10
78.37023788188314
 20
-141.07218149685
 30
0.0
 10
78.37023788188314
 20
-140.9281765055666
 30
0.0
 10
78.38711884976087
 20
-140.6763400255948
 30
0.0
 10
78.49288328115803
 20
-140.4775580160959
 30
0.0
 10
78.60088702462062
 20
-140.2746418920147
 30
0.0
 10
78.76160072900753
 20
-140.251215242715
 30
0.0
 10
78.89061955493013
 20
-140.251215242715
 30
0.0
 10
79.04926620202588
 20
-140.251215242715
 30
0.0
 10
79.19309893853506
 20
-140.2956569744747
 30
0.0
 10
79.28835582870222
 20
-140.4775580160959
 30
0.0
 10
79.38774683345167
 20
-140.6701388537214
 30
0.0
 10
79.41100122797711
 20
-140.8985486843934
 30
0.0
 10
79.41100122797711
 20
-141.07218149685
 30
0.0
 10
79.41100122797711
 20
-141.2434027424669
 30
0.0
 10
79.38998614551708
 20
-141.4738796304302
 30
0.0
 10
79.28835582870222
 20
-141.6664604680556
 30
0.0
  0
SPLINE
  5
9A
330
93
100
AcDbEntity
  8
_U+30EC_U+30A4_U+30E4_U+30FC 1
370
     0
100
AcDbSpline
210
0.0
220
0.0
230
1.0
 70
    11
 71
     3
 72
    17
 73
    13
 74
     0
 42
0.0000000001
 43
0.0000000001
 12
1.0
 22
0.0
 32
0.0
 13
1.0
 23
0.0
 33
0.0
 40
0.0
 40
0.0
 40
0.0
 40
0.0
 40
1.0
 40
1.0
 40
1.0
 40
2.0
 40
2.0
 40
2.0
 40
3.0
 40
3.0
 40
3.0
 40
4.0
 40
4.0
 40
4.0
 40
4.0
 10
78.89061955493013
 20
-140.4437960803404
 30
0.0
 10
78.64102238702378
 20
-140.4437960803404
 30
0.0
 10
78.5945135979729
 20
-140.7273274387765
 30
0.0
 10
78.5945135979729
 20
-141.07218149685
 30
0.0
 10
78.5945135979729
 20
-141.3915418483327
 30
0.0
 10
78.63051484579377
 20
-141.7002224038111
 30
0.0
 10
78.89061955493013
 20
-141.7002224038111
 30
0.0
 10
79.13814966554533
 20
-141.7002224038111
 30
0.0
 10
79.18689776666162
 20
-141.4191026122147
 30
0.0
 10
79.18689776666162
 20
-141.07218149685
 30
0.0
 10
79.18689776666162
 20
-140.7524766358188
 30
0.0
 10
79.14865720677534
 20
-140.4437960803404
 30
0.0
 10
78.89061955493013
 20
-140.4437960803404
 30
0.0
  0
HATCH
  5
9B
330
93
100
AcDbEntity
  8
_U+30EC_U+30A4_U+30E4_U+30FC 1
 62
   179
420
  2234388
100
AcDbHatch
 10
0.0
 20
0.0
 30
0.0
210
0.0
220
0.0
230
1.0
  2
SOLID
 70
     1
 71
     0
 91
        2
 92
        1
 93
        1
 72
     4
 94
        3
 73
     0
 74
     1
 95
       29
 96
       25
 40
0.0
 40
0.0
 40
0.0
 40
0.0
 40
1.0
 40
1.0
 40
1.0
 40
2.0
 40
2.0
 40
2.0
 40
3.0
 40
3.0
 40
3.0
 40
4.0
 40
4.0
 40
4.0
 40
5.0
 40
5.0
 40
5.0
 40
6.0
 40
6.0
 40
6.0
 40
7.0
 40
7.0
 40
7.0
 40
8.0
 40
8.0
 40
8.0
 40
8.0
 10
79.28835582870222
 20
-141.6664604680556
 10
79.1805243400139
 20
-141.8759222735588
 10
79.00706378233157
 20
-141.8948702987277
 10
78.89061955493013
 20
-141.8948702987277
 10
78.72990585054322
 20
-141.8948702987277
 10
78.5881401713252
 20
-141.8483615096768
 10
78.49288328115803
 20
-141.6664604680556
 10
78.38935816182628
 20
-141.471812573139
 10
78.37023788188314
 20
-141.2351345133023
 10
78.37023788188314
 20
-141.07218149685
 10
78.37023788188314
 20
-140.9281765055666
 10
78.38711884976087
 20
-140.6763400255948
 10
78.49288328115803
 20
-140.4775580160959
 10
78.60088702462062
 20
-140.2746418920147
 10
78.76160072900753
 20
-140.251215242715
 10
78.89061955493013
 20
-140.251215242715
 10
79.04926620202588
 20
-140.251215242715
 10
79.19309893853506
 20
-140.2956569744747
 10
79.28835582870222
 20
-140.4775580160959
 10
79.38774683345167
 20
-140.6701388537214
 10
79.41100122797711
 20
-140.8985486843934
 10
79.41100122797711
 20
-141.07218149685
 10
79.41100122797711
 20
-141.2434027424669
 10
79.38998614551708
 20
-141.4738796304302
 10
79.28835582870222
 20
-141.6664604680556
 97
        0
 97
        0
 92
        1
 93
        1
 72
     4
 94
        3
 73
     0
 74
     1
 95
       17
 96
       13
 40
0.0
 40
0.0
 40
0.0
 40
0.0
 40
1.0
 40
1.0
 40
1.0
 40
2.0
 40
2.0
 40
2.0
 40
3.0
 40
3.0
 40
3.0
 40
4.0
 40
4.0
 40
4.0
 40
4.0
 10
78.89061955493013
 20
-140.4437960803404
 10
78.64102238702378
 20
-140.4437960803404
 10
78.5945135979729
 20
-140.7273274387765
 10
78.5945135979729
 20
-141.07218149685
 10
78.5945135979729
 20
-141.3915418483327
 10
78.63051484579377
 20
-141.7002224038111
 10
78.89061955493013
 20
-141.7002224038111
 10
79.13814966554533
 20
-141.7002224038111
 10
79.18689776666162
 20
-141.4191026122147
 10
79.18689776666162
 20
-141.07218149685
 10
79.18689776666162
 20
-140.7524766358188
 10
79.14865720677534
 20
-140.4437960803404
 10
78.89061955493013
 20
-140.4437960803404
 97
        0
 97
        0
 75
     2
 76
     1
 98
        0
  0
ENDBLK
  5
96
330
93
100
AcDbEntity
  8
0
100
AcDbBlockEnd
  0
BLOCK
  5
9E
330
9C
100
AcDbEntity
  8
0
100
AcDbBlockBegin
  2
block 5
 70
     0
 10
0.0
 20
0.0
 30
0.0
  3
block 5
  1

  0
POLYLINE
  5
A0
330
9C
100
AcDbEntity
  8
_U+30EC_U+30A4_U+30E4_U+30FC 1
 62
   179
420
  2234388
370
     9
100
AcDb2dPolyline
 66
     1
 10
0.0
 20
0.0
 30
0.0
  0
VERTEX
  5
A1
330
A0
100
AcDbEntity
  8
_U+30EC_U+30A4_U+30E4_U+30FC 1
 62
   179
420
  2234388
370
     9
100
AcDbVertex
100
AcDb2dVertex
 10
73.30266951878198
 20
-117.4898166372944
 30
0.0
  0
VERTEX
  5
A2
330
A0
100
AcDbEntity
  8
_U+30EC_U+30A4_U+30E4_U+30FC 1
 62
   179
420
  2234388
370
     9
100
AcDbVertex
100
AcDb2dVertex
 10
98.3026894365339
 20
-117.4898166372944
 30
0.0
  0
SEQEND
  5
A3
330
A0
100
AcDbEntity
  8
_U+30EC_U+30A4_U+30E4_U+30FC 1
 62
   179
420
  2234388
370
     9
  0
POLYLINE
  5
A4
330
9C
100
AcDbEntity
  8
_U+30EC_U+30A4_U+30E4_U+30FC 1
 62
   179
420
  2234388
370
     9
100
AcDb2dPolyline
 66
     1
 10
0.0
 20
0.0
 30
0.0
  0
VERTEX
  5
A5
330
A4
100
AcDbEntity
  8
_U+30EC_U+30A4_U+30E4_U+30FC 1
 62
   179
420
  2234388
370
     9
100
AcDbVertex
100
AcDb2dVertex
 10
73.30266951878198
 20
-118.9498580258181
 30
0.0
  0
VERTEX
  5
A6
330
A4
100
AcDbEntity
  8
_U+30EC_U+30A4_U+30E4_U+30FC 1
 62
   179
420
  2234388
370
     9
100
AcDbVertex
100
AcDb2dVertex
 10
73.30266951878198
 20
-116.4900444153218
 30
0.0
  0
SEQEND
  5
A7
330
A4
100
AcDbEntity
  8
_U+30EC_U+30A4_U+30E4_U+30FC 1
 62
   179
420
  2234388
370
     9
  0
POLYLINE
  5
A8
330
9C
100
AcDbEntity
  8
_U+30EC_U+30A4_U+30E4_U+30FC 1
 62
   179
420
  2234388
370
     9
100
AcDb2dPolyline
 66
     1
 10
0.0
 20
0.0
 30
0.0
  0
VERTEX
  5
A9
330
A8
100
AcDbEntity
  8
_U+30EC_U+30A4_U+30E4_U+30FC 1
 62
   179
420
  2234388
370
     9
100
AcDbVertex
100
AcDb2dVertex
 10
98.3026894365339
 20
-118.9498580258181
 30
0.0
  0
VERTEX
  5
AA
330
A8
100
AcDbEntity
  8
_U+30EC_U+30A4_U+30E4_U+30FC 1
 62
   179
420
  2234388
370
     9
100
AcDbVertex
100
AcDb2dVertex
 10
98.3026894365339
 20
-116.4900444153218
 30
0.0
  0
SEQEND
  5
AB
330
A8
100
AcDbEntity
  8
_U+30EC_U+30A4_U+30E4_U+30FC 1
 62
   179
420
  2234388
370
     9
  0
INSERT
  5
AD
330
9C
100
AcDbEntity
  8
_U+30EC_U+30A4_U+30E4_U+30FC 1
100
AcDbBlockReference
  2
block 6
 10
0.0
 20
0.0
 30
0.0
  0
ENDBLK
  5
9F
330
9C
100
AcDbEntity
  8
0
100
AcDbBlockEnd
  0
BLOCK
  5
AE
330
AC
100
AcDbEntity
  8
0
100
AcDbBlockBegin
  2
block 6
 70
     0
 10
0.0
 20
0.0
 30
0.0
  3
block 6
  1

  0
SPLINE
  5
B0
330
AC
100
AcDbEntity
  8
_U+30EC_U+30A4_U+30E4_U+30FC 1
370
     0
100
AcDbSpline
210
0.0
220
0.0
230
1.0
 70
    11
 71
     3
 72
    44
 73
    40
 74
     0
 42
0.0000000001
 43
0.0000000001
 12
1.0
 22
0.0
 32
0.0
 13
1.0
 23
0.0
 33
0.0
 40
0.0
 40
0.0
 40
0.0
 40
0.0
 40
1.0
 40
1.0
 40
1.0
 40
2.0
 40
2.0
 40
2.0
 40
3.0
 40
3.0
 40
3.0
 40
4.0
 40
4.0
 40
4.0
 40
5.0
 40
5.0
 40
5.0
 40
6.0
 40
6.0
 40
6.0
 40
7.0
 40
7.0
 40
7.0
 40
8.0
 40
8.0
 40
8.0
 40
9.0
 40
9.0
 40
9.0
 40
10.0
 40
10.0
 40
10.0
 40
11.0
 40
11.0
 40
11.0
 40
12.0
 40
12.0
 40
12.0
 40
13.0
 40
13.0
 40
13.0
 40
13.0
 10
85.30693764143369
 20
-116.262154105049
 30
0.0
 10
85.08903535199164
 20
-116.4208007521448
 30
0.0
 10
84.99584551911562
 20
-116.4948703050777
 30
0.0
 10
84.9472696727736
 20
-116.6387030415869
 30
0.0
 10
84.9472696727736
 20
-116.6387030415869
 30
0.0
 10
85.7256889976658
 20
-116.6387030415869
 30
0.0
 10
85.7256889976658
 20
-116.6387030415869
 30
0.0
 10
85.7256889976658
 20
-116.6387030415869
 30
0.0
 10
85.7256889976658
 20
-116.8438584777335
 30
0.0
 10
85.7256889976658
 20
-116.8438584777335
 30
0.0
 10
85.7256889976658
 20
-116.8438584777335
 30
0.0
 10
84.69767250486726
 20
-116.8438584777335
 30
0.0
 10
84.69767250486726
 20
-116.8438584777335
 30
0.0
 10
84.72936738333155
 20
-116.4862575663646
 30
0.0
 10
84.79482419755129
 20
-116.4080538988494
 30
0.0
 10
85.17998587280223
 20
-116.1097086298267
 30
0.0
 10
85.43595646735629
 20
-115.9109266203278
 30
0.0
 10
85.50141328157603
 20
-115.8432304940427
 30
0.0
 10
85.50141328157603
 20
-115.7057711841812
 30
0.0
 10
85.50141328157603
 20
-115.5872598994886
 30
0.0
 10
85.42958304070858
 20
-115.4561740162749
 30
0.0
 10
85.23286808850081
 20
-115.4561740162749
 30
0.0
 10
84.9725911245902
 20
-115.4561740162749
 30
0.0
 10
84.96415064065133
 20
-115.6866509042381
 30
0.0
 10
84.95984427129477
 20
-115.8030951316395
 30
0.0
 10
84.95984427129477
 20
-115.8030951316395
 30
0.0
 10
84.73574080997926
 20
-115.8030951316395
 30
0.0
 10
84.73574080997926
 20
-115.8030951316395
 30
0.0
 10
84.74418129391813
 20
-115.6761433630081
 30
0.0
 10
84.75468883514814
 20
-115.5640055049632
 30
0.0
 10
84.83513181472873
 20
-115.4454942202706
 30
0.0
 10
84.94503036070819
 20
-115.2847805158837
 30
0.0
 10
85.13123777168595
 20
-115.250846325354
 30
0.0
 10
85.24768199908739
 20
-115.250846325354
 30
0.0
 10
85.52483993087574
 20
-115.250846325354
 30
0.0
 10
85.73206242431351
 20
-115.4349866790406
 30
0.0
 10
85.73206242431351
 20
-115.7078382414723
 30
0.0
 10
85.73206242431351
 20
-115.9362480721444
 30
0.0
 10
85.61579045168634
 20
-116.0358113316681
 30
0.0
 10
85.30693764143369
 20
-116.262154105049
 30
0.0
  0
HATCH
  5
B1
330
AC
100
AcDbEntity
  8
_U+30EC_U+30A4_U+30E4_U+30FC 1
 62
   179
420
  2234388
100
AcDbHatch
 10
0.0
 20
0.0
 30
0.0
210
0.0
220
0.0
230
1.0
  2
SOLID
 70
     1
 71
     0
 91
        1
 92
        1
 93
        1
 72
     4
 94
        3
 73
     0
 74
     1
 95
       44
 96
       40
 40
0.0
 40
0.0
 40
0.0
 40
0.0
 40
1.0
 40
1.0
 40
1.0
 40
2.0
 40
2.0
 40
2.0
 40
3.0
 40
3.0
 40
3.0
 40
4.0
 40
4.0
 40
4.0
 40
5.0
 40
5.0
 40
5.0
 40
6.0
 40
6.0
 40
6.0
 40
7.0
 40
7.0
 40
7.0
 40
8.0
 40
8.0
 40
8.0
 40
9.0
 40
9.0
 40
9.0
 40
10.0
 40
10.0
 40
10.0
 40
11.0
 40
11.0
 40
11.0
 40
12.0
 40
12.0
 40
12.0
 40
13.0
 40
13.0
 40
13.0
 40
13.0
 10
85.30693764143369
 20
-116.262154105049
 10
85.08903535199164
 20
-116.4208007521448
 10
84.99584551911562
 20
-116.4948703050777
 10
84.9472696727736
 20
-116.6387030415869
 10
84.9472696727736
 20
-116.6387030415869
 10
85.7256889976658
 20
-116.6387030415869
 10
85.7256889976658
 20
-116.6387030415869
 10
85.7256889976658
 20
-116.6387030415869
 10
85.7256889976658
 20
-116.8438584777335
 10
85.7256889976658
 20
-116.8438584777335
 10
85.7256889976658
 20
-116.8438584777335
 10
84.69767250486726
 20
-116.8438584777335
 10
84.69767250486726
 20
-116.8438584777335
 10
84.72936738333155
 20
-116.4862575663646
 10
84.79482419755129
 20
-116.4080538988494
 10
85.17998587280223
 20
-116.1097086298267
 10
85.43595646735629
 20
-115.9109266203278
 10
85.50141328157603
 20
-115.8432304940427
 10
85.50141328157603
 20
-115.7057711841812
 10
85.50141328157603
 20
-115.5872598994886
 10
85.42958304070858
 20
-115.4561740162749
 10
85.23286808850081
 20
-115.4561740162749
 10
84.9725911245902
 20
-115.4561740162749
 10
84.96415064065133
 20
-115.6866509042381
 10
84.95984427129477
 20
-115.8030951316395
 10
84.95984427129477
 20
-115.8030951316395
 10
84.73574080997926
 20
-115.8030951316395
 10
84.73574080997926
 20
-115.8030951316395
 10
84.74418129391813
 20
-115.6761433630081
 10
84.75468883514814
 20
-115.5640055049632
 10
84.83513181472873
 20
-115.4454942202706
 10
84.94503036070819
 20
-115.2847805158837
 10
85.13123777168595
 20
-115.250846325354
 10
85.24768199908739
 20
-115.250846325354
 10
85.52483993087574
 20
-115.250846325354
 10
85.73206242431351
 20
-115.4349866790406
 10
85.73206242431351
 20
-115.7078382414723
 10
85.73206242431351
 20
-115.9362480721444
 10
85.61579045168634
 20
-116.0358113316681
 10
85.30693764143369
 20
-116.262154105049
 97
        0
 97
        0
 75
     2
 76
     1
 98
        0
  0
SPLINE
  5
B2
330
AC
100
AcDbEntity
  8
_U+30EC_U+30A4_U+30E4_U+30FC 1
370
     0
100
AcDbSpline
210
0.0
220
0.0
230
1.0
 70
    11
 71
     3
 72
    53
 73
    49
 74
     0
 42
0.0000000001
 43
0.0000000001
 12
1.0
 22
0.0
 32
0.0
 13
1.0
 23
0.0
 33
0.0
 40
0.0
 40
0.0
 40
0.0
 40
0.0
 40
1.0
 40
1.0
 40
1.0
 40
2.0
 40
2.0
 40
2.0
 40
3.0
 40
3.0
 40
3.0
 40
4.0
 40
4.0
 40
4.0
 40
5.0
 40
5.0
 40
5.0
 40
6.0
 40
6.0
 40
6.0
 40
7.0
 40
7.0
 40
7.0
 40
8.0
 40
8.0
 40
8.0
 40
9.0
 40
9.0
 40
9.0
 40
10.0
 40
10.0
 40
10.0
 40
11.0
 40
11.0
 40
11.0
 40
12.0
 40
12.0
 40
12.0
 40
13.0
 40
13.0
 40
13.0
 40
14.0
 40
14.0
 40
14.0
 40
15.0
 40
15.0
 40
15.0
 40
16.0
 40
16.0
 40
16.0
 40
16.0
 10
86.37164440115015
 20
-116.8946736361409
 30
0.0
 10
86.29344073363498
 20
-116.8946736361409
 30
0.0
 10
86.1918104168201
 20
-116.8776204134889
 30
0.0
 10
86.09018010000524
 20
-116.8142306565603
 30
0.0
 10
85.91689179709716
 20
-116.7041598558066
 30
0.0
 10
85.89553220508861
 20
-116.5730739725929
 30
0.0
 10
85.87658417991975
 20
-116.4652424839045
 30
0.0
 10
85.87658417991975
 20
-116.4652424839045
 30
0.0
 10
86.09879283871837
 20
-116.4652424839045
 30
0.0
 10
86.09879283871837
 20
-116.4652424839045
 30
0.0
 10
86.15356985693383
 20
-116.6640244934034
 30
0.0
 10
86.28069388033956
 20
-116.6936523145766
 30
0.0
 10
86.37371145844129
 20
-116.6936523145766
 30
0.0
 10
86.51323782559392
 20
-116.6936523145766
 30
0.0
 10
86.66551104604196
 20
-116.5942613098271
 30
0.0
 10
86.66551104604196
 20
-116.3615451097985
 30
0.0
 10
86.66551104604196
 20
-116.1055745152444
 30
0.0
 10
86.48567706171191
 20
-116.0358113316681
 30
0.0
 10
86.36509871972818
 20
-116.0358113316681
 30
0.0
 10
86.33340384126387
 20
-116.0358113316681
 30
0.0
 10
86.1918104168201
 20
-116.0358113316681
 30
0.0
 10
86.10292695330067
 20
-116.1648301575907
 30
0.0
 10
86.10292695330067
 20
-116.1648301575907
 30
0.0
 10
85.92722708355292
 20
-116.1457098776476
 30
0.0
 10
85.92722708355292
 20
-116.1457098776476
 30
0.0
 10
85.92722708355292
 20
-116.1457098776476
 30
0.0
 10
86.04780542553667
 20
-115.2995944264703
 30
0.0
 10
86.04780542553667
 20
-115.2995944264703
 30
0.0
 10
86.04780542553667
 20
-115.2995944264703
 30
0.0
 10
86.82639700520313
 20
-115.2995944264703
 30
0.0
 10
86.82639700520313
 20
-115.2995944264703
 30
0.0
 10
86.82639700520313
 20
-115.2995944264703
 30
0.0
 10
86.82639700520313
 20
-115.4942423213869
 30
0.0
 10
86.82639700520313
 20
-115.4942423213869
 30
0.0
 10
86.82639700520313
 20
-115.4942423213869
 30
0.0
 10
86.21075844198899
 20
-115.4942423213869
 30
0.0
 10
86.21075844198899
 20
-115.4942423213869
 30
0.0
 10
86.21075844198899
 20
-115.4942423213869
 30
0.0
 10
86.14530162776923
 20
-115.9173000469755
 30
0.0
 10
86.14530162776923
 20
-115.9173000469755
 30
0.0
 10
86.20662432740669
 20
-115.8833658564458
 30
0.0
 10
86.28896210950415
 20
-115.8432304940427
 30
0.0
 10
86.40747339419674
 20
-115.8432304940427
 30
0.0
 10
86.66137693145966
 20
-115.8432304940427
 30
0.0
 10
86.89839950084485
 20
-116.0294379050204
 30
0.0
 10
86.89839950084485
 20
-116.3424248298554
 30
0.0
 10
86.89839950084485
 20
-116.6598903788211
 30
0.0
 10
86.67412378475508
 20
-116.8946736361409
 30
0.0
 10
86.37164440115015
 20
-116.8946736361409
 30
0.0
  0
HATCH
  5
B3
330
AC
100
AcDbEntity
  8
_U+30EC_U+30A4_U+30E4_U+30FC 1
 62
   179
420
  2234388
100
AcDbHatch
 10
0.0
 20
0.0
 30
0.0
210
0.0
220
0.0
230
1.0
  2
SOLID
 70
     1
 71
     0
 91
        1
 92
        1
 93
        1
 72
     4
 94
        3
 73
     0
 74
     1
 95
       53
 96
       49
 40
0.0
 40
0.0
 40
0.0
 40
0.0
 40
1.0
 40
1.0
 40
1.0
 40
2.0
 40
2.0
 40
2.0
 40
3.0
 40
3.0
 40
3.0
 40
4.0
 40
4.0
 40
4.0
 40
5.0
 40
5.0
 40
5.0
 40
6.0
 40
6.0
 40
6.0
 40
7.0
 40
7.0
 40
7.0
 40
8.0
 40
8.0
 40
8.0
 40
9.0
 40
9.0
 40
9.0
 40
10.0
 40
10.0
 40
10.0
 40
11.0
 40
11.0
 40
11.0
 40
12.0
 40
12.0
 40
12.0
 40
13.0
 40
13.0
 40
13.0
 40
14.0
 40
14.0
 40
14.0
 40
15.0
 40
15.0
 40
15.0
 40
16.0
 40
16.0
 40
16.0
 40
16.0
 10
86.37164440115015
 20
-116.8946736361409
 10
86.29344073363498
 20
-116.8946736361409
 10
86.1918104168201
 20
-116.8776204134889
 10
86.09018010000524
 20
-116.8142306565603
 10
85.91689179709716
 20
-116.7041598558066
 10
85.89553220508861
 20
-116.5730739725929
 10
85.87658417991975
 20
-116.4652424839045
 10
85.87658417991975
 20
-116.4652424839045
 10
86.09879283871837
 20
-116.4652424839045
 10
86.09879283871837
 20
-116.4652424839045
 10
86.15356985693383
 20
-116.6640244934034
 10
86.28069388033956
 20
-116.6936523145766
 10
86.37371145844129
 20
-116.6936523145766
 10
86.51323782559392
 20
-116.6936523145766
 10
86.66551104604196
 20
-116.5942613098271
 10
86.66551104604196
 20
-116.3615451097985
 10
86.66551104604196
 20
-116.1055745152444
 10
86.48567706171191
 20
-116.0358113316681
 10
86.36509871972818
 20
-116.0358113316681
 10
86.33340384126387
 20
-116.0358113316681
 10
86.1918104168201
 20
-116.0358113316681
 10
86.10292695330067
 20
-116.1648301575907
 10
86.10292695330067
 20
-116.1648301575907
 10
85.92722708355292
 20
-116.1457098776476
 10
85.92722708355292
 20
-116.1457098776476
 10
85.92722708355292
 20
-116.1457098776476
 10
86.04780542553667
 20
-115.2995944264703
 10
86.04780542553667
 20
-115.2995944264703
 10
86.04780542553667
 20
-115.2995944264703
 10
86.82639700520313
 20
-115.2995944264703
 10
86.82639700520313
 20
-115.2995944264703
 10
86.82639700520313
 20
-115.2995944264703
 10
86.82639700520313
 20
-115.4942423213869
 10
86.82639700520313
 20
-115.4942423213869
 10
86.82639700520313
 20
-115.4942423213869
 10
86.21075844198899
 20
-115.4942423213869
 10
86.21075844198899
 20
-115.4942423213869
 10
86.21075844198899
 20
-115.4942423213869
 10
86.14530162776923
 20
-115.9173000469755
 10
86.14530162776923
 20
-115.9173000469755
 10
86.20662432740669
 20
-115.8833658564458
 10
86.28896210950415
 20
-115.8432304940427
 10
86.40747339419674
 20
-115.8432304940427
 10
86.66137693145966
 20
-115.8432304940427
 10
86.89839950084485
 20
-116.0294379050204
 10
86.89839950084485
 20
-116.3424248298554
 10
86.89839950084485
 20
-116.6598903788211
 10
86.67412378475508
 20
-116.8946736361409
 10
86.37164440115015
 20
-116.8946736361409
 97
        0
 97
        0
 75
     2
 76
     1
 98
        0
  0
ENDBLK
  5
AF
330
AC
100
AcDbEntity
  8
0
100
AcDbBlockEnd
  0
BLOCK
  5
B6
330
B4
100
AcDbEntity
  8
0
100
AcDbBlockBegin
  2
block 7
 70
     0
 10
0.0
 20
0.0
 30
0.0
  3
block 7
  1

  0
POLYLINE
  5
B8
330
B4
100
AcDbEntity
  8
_U+30EC_U+30A4_U+30E4_U+30FC 1
 62
   179
420
  2234388
370
     9
100
AcDb2dPolyline
 66
     1
 10
0.0
 20
0.0
 30
0.0
  0
VERTEX
  5
B9
330
B8
100
AcDbEntity
  8
_U+30EC_U+30A4_U+30E4_U+30FC 1
 62
   179
420
  2234388
370
     9
100
AcDbVertex
100
AcDb2dVertex
 10
102.3024485011582
 20
-121.4902460807386
 30
0.0
  0
VERTEX
  5
BA
330
B8
100
AcDbEntity
  8
_U+30EC_U+30A4_U+30E4_U+30FC 1
 62
   179
420
  2234388
370
     9
100
AcDbVertex
100
AcDb2dVertex
 10
102.3024485011582
 20
-117.7192633039035
 30
0.0
  0
SEQEND
  5
BB
330
B8
100
AcDbEntity
  8
_U+30EC_U+30A4_U+30E4_U+30FC 1
 62
   179
420
  2234388
370
     9
  0
POLYLINE
  5
BC
330
B4
100
AcDbEntity
  8
_U+30EC_U+30A4_U+30E4_U+30FC 1
 62
   179
420
  2234388
370
     9
100
AcDb2dPolyline
 66
     1
 10
0.0
 20
0.0
 30
0.0
  0
VERTEX
  5
BD
330
BC
100
AcDbEntity
  8
_U+30EC_U+30A4_U+30E4_U+30FC 1
 62
   179
420
  2234388
370
     9
100
AcDbVertex
100
AcDb2dVertex
 10
102.3024485011582
 20
-121.4902460807386
 30
0.0
  0
VERTEX
  5
BE
330
BC
100
AcDbEntity
  8
_U+30EC_U+30A4_U+30E4_U+30FC 1
 62
   179
420
  2234388
370
     9
100
AcDbVertex
100
AcDb2dVertex
 10
102.3024485011582
 20
-122.4900183027108
 30
0.0
  0
SEQEND
  5
BF
330
BC
100
AcDbEntity
  8
_U+30EC_U+30A4_U+30E4_U+30FC 1
 62
   179
420
  2234388
370
     9
  0
POLYLINE
  5
C0
330
B4
100
AcDbEntity
  8
_U+30EC_U+30A4_U+30E4_U+30FC 1
 62
   179
420
  2234388
370
     9
100
AcDb2dPolyline
 66
     1
 10
0.0
 20
0.0
 30
0.0
  0
VERTEX
  5
C1
330
C0
100
AcDbEntity
  8
_U+30EC_U+30A4_U+30E4_U+30FC 1
 62
   179
420
  2234388
370
     9
100
AcDbVertex
100
AcDb2dVertex
 10
100.8424071495181
 20
-121.4902460807386
 30
0.0
  0
VERTEX
  5
C2
330
C0
100
AcDbEntity
  8
_U+30EC_U+30A4_U+30E4_U+30FC 1
 62
   179
420
  2234388
370
     9
100
AcDbVertex
100
AcDb2dVertex
 10
103.3025734756429
 20
-121.4902460807386
 30
0.0
  0
SEQEND
  5
C3
330
C0
100
AcDbEntity
  8
_U+30EC_U+30A4_U+30E4_U+30FC 1
 62
   179
420
  2234388
370
     9
  0
POLYLINE
  5
C4
330
B4
100
AcDbEntity
  8
_U+30EC_U+30A4_U+30E4_U+30FC 1
 62
   179
420
  2234388
370
     9
100
AcDb2dPolyline
 66
     1
 10
0.0
 20
0.0
 30
0.0
  0
VERTEX
  5
C5
330
C4
100
AcDbEntity
  8
_U+30EC_U+30A4_U+30E4_U+30FC 1
 62
   179
420
  2234388
370
     9
100
AcDbVertex
100
AcDb2dVertex
 10
100.8424071495181
 20
-122.4900183027108
 30
0.0
  0
VERTEX
  5
C6
330
C4
100
AcDbEntity
  8
_U+30EC_U+30A4_U+30E4_U+30FC 1
 62
   179
420
  2234388
370
     9
100
AcDbVertex
100
AcDb2dVertex
 10
103.3025734756429
 20
-122.4900183027108
 30
0.0
  0
SEQEND
  5
C7
330
C4
100
AcDbEntity
  8
_U+30EC_U+30A4_U+30E4_U+30FC 1
 62
   179
420
  2234388
370
     9
  0
INSERT
  5
C9
330
B4
100
AcDbEntity
  8
_U+30EC_U+30A4_U+30E4_U+30FC 1
100
AcDbBlockReference
  2
block 8
 10
0.0
 20
0.0
 30
0.0
  0
ENDBLK
  5
B7
330
B4
100
AcDbEntity
  8
0
100
AcDbBlockEnd
  0
BLOCK
  5
CA
330
C8
100
AcDbEntity
  8
0
100
AcDbBlockBegin
  2
block 8
 70
     0
 10
0.0
 20
0.0
 30
0.0
  3
block 8
  1

  0
SPLINE
  5
CC
330
C8
100
AcDbEntity
  8
_U+30EC_U+30A4_U+30E4_U+30FC 1
370
     0
100
AcDbSpline
210
0.0
220
0.0
230
1.0
 70
    11
 71
     3
 72
    26
 73
    22
 74
     0
 42
0.0000000001
 43
0.0000000001
 12
1.0
 22
0.0
 32
0.0
 13
1.0
 23
0.0
 33
0.0
 40
0.0
 40
0.0
 40
0.0
 40
0.0
 40
1.0
 40
1.0
 40
1.0
 40
2.0
 40
2.0
 40
2.0
 40
3.0
 40
3.0
 40
3.0
 40
4.0
 40
4.0
 40
4.0
 40
5.0
 40
5.0
 40
5.0
 40
6.0
 40
6.0
 40
6.0
 40
7.0
 40
7.0
 40
7.0
 40
7.0
 10
106.4772216530682
 20
-122.0659342142752
 30
0.0
 10
106.4772216530682
 20
-122.0659342142752
 30
0.0
 10
105.3730685500456
 20
-122.0659342142752
 30
0.0
 10
105.3730685500456
 20
-122.0659342142752
 30
0.0
 10
105.3730685500456
 20
-122.0659342142752
 30
0.0
 10
105.3730685500456
 20
-122.3959743617621
 30
0.0
 10
105.3730685500456
 20
-122.3959743617621
 30
0.0
 10
105.3730685500456
 20
-122.3959743617621
 30
0.0
 10
105.2249294441799
 20
-122.3959743617621
 30
0.0
 10
105.2249294441799
 20
-122.3959743617621
 30
0.0
 10
105.2101155335933
 20
-122.063867156984
 30
0.0
 10
105.047162517141
 20
-122.0173583679332
 30
0.0
 10
104.9327853470307
 20
-121.98773054676
 30
0.0
 10
104.9327853470307
 20
-121.98773054676
 30
0.0
 10
104.9327853470307
 20
-121.8416584981854
 30
0.0
 10
104.9327853470307
 20
-121.8416584981854
 30
0.0
 10
104.9327853470307
 20
-121.8416584981854
 30
0.0
 10
106.4772216530682
 20
-121.8416584981854
 30
0.0
 10
106.4772216530682
 20
-121.8416584981854
 30
0.0
 10
106.4772216530682
 20
-121.8416584981854
 30
0.0
 10
106.4772216530682
 20
-122.0659342142752
 30
0.0
 10
106.4772216530682
 20
-122.0659342142752
 30
0.0
  0
HATCH
  5
CD
330
C8
100
AcDbEntity
  8
_U+30EC_U+30A4_U+30E4_U+30FC 1
 62
   179
420
  2234388
100
AcDbHatch
 10
0.0
 20
0.0
 30
0.0
210
0.0
220
0.0
230
1.0
  2
SOLID
 70
     1
 71
     0
 91
        1
 92
        1
 93
        1
 72
     4
 94
        3
 73
     0
 74
     1
 95
       26
 96
       22
 40
0.0
 40
0.0
 40
0.0
 40
0.0
 40
1.0
 40
1.0
 40
1.0
 40
2.0
 40
2.0
 40
2.0
 40
3.0
 40
3.0
 40
3.0
 40
4.0
 40
4.0
 40
4.0
 40
5.0
 40
5.0
 40
5.0
 40
6.0
 40
6.0
 40
6.0
 40
7.0
 40
7.0
 40
7.0
 40
7.0
 10
106.4772216530682
 20
-122.0659342142752
 10
106.4772216530682
 20
-122.0659342142752
 10
105.3730685500456
 20
-122.0659342142752
 10
105.3730685500456
 20
-122.0659342142752
 10
105.3730685500456
 20
-122.0659342142752
 10
105.3730685500456
 20
-122.3959743617621
 10
105.3730685500456
 20
-122.3959743617621
 10
105.3730685500456
 20
-122.3959743617621
 10
105.2249294441799
 20
-122.3959743617621
 10
105.2249294441799
 20
-122.3959743617621
 10
105.2101155335933
 20
-122.063867156984
 10
105.047162517141
 20
-122.0173583679332
 10
104.9327853470307
 20
-121.98773054676
 10
104.9327853470307
 20
-121.98773054676
 10
104.9327853470307
 20
-121.8416584981854
 10
104.9327853470307
 20
-121.8416584981854
 10
104.9327853470307
 20
-121.8416584981854
 10
106.4772216530682
 20
-121.8416584981854
 10
106.4772216530682
 20
-121.8416584981854
 10
106.4772216530682
 20
-121.8416584981854
 10
106.4772216530682
 20
-122.0659342142752
 10
106.4772216530682
 20
-122.0659342142752
 97
        0
 97
        0
 75
     2
 76
     1
 98
        0
  0
ENDBLK
  5
CB
330
C8
100
AcDbEntity
  8
0
100
AcDbBlockEnd
  0
BLOCK
  5
D0
330
CE
100
AcDbEntity
  8
0
100
AcDbBlockBegin
  2
block 9
 70
     0
 10
0.0
 20
0.0
 30
0.0
  3
block 9
  1

  0
POLYLINE
  5
D2
330
CE
100
AcDbEntity
  8
_U+30EC_U+30A4_U+30E4_U+30FC 1
 62
   179
420
  2234388
370
     9
100
AcDb2dPolyline
 66
     1
 10
0.0
 20
0.0
 30
0.0
  0
VERTEX
  5
D3
330
D2
100
AcDbEntity
  8
_U+30EC_U+30A4_U+30E4_U+30FC 1
 62
   179
420
  2234388
370
     9
100
AcDbVertex
100
AcDb2dVertex
 10
102.3024485011582
 20
-135.4897382994607
 30
0.0
  0
VERTEX
  5
D4
330
D2
100
AcDbEntity
  8
_U+30EC_U+30A4_U+30E4_U+30FC 1
 62
   179
420
  2234388
370
     9
100
AcDbVertex
100
AcDb2dVertex
 10
102.3024485011582
 20
-138.4897252431551
 30
0.0
  0
SEQEND
  5
D5
330
D2
100
AcDbEntity
  8
_U+30EC_U+30A4_U+30E4_U+30FC 1
 62
   179
420
  2234388
370
     9
  0
POLYLINE
  5
D6
330
CE
100
AcDbEntity
  8
_U+30EC_U+30A4_U+30E4_U+30FC 1
 62
   179
420
  2234388
370
     9
100
AcDb2dPolyline
 66
     1
 10
0.0
 20
0.0
 30
0.0
  0
VERTEX
  5
D7
330
D6
100
AcDbEntity
  8
_U+30EC_U+30A4_U+30E4_U+30FC 1
 62
   179
420
  2234388
370
     9
100
AcDbVertex
100
AcDb2dVertex
 10
85.84247497853926
 20
-138.4897252431551
 30
0.0
  0
VERTEX
  5
D8
330
D6
100
AcDbEntity
  8
_U+30EC_U+30A4_U+30E4_U+30FC 1
 62
   179
420
  2234388
370
     9
100
AcDbVertex
100
AcDb2dVertex
 10
103.3025734756429
 20
-138.4897252431551
 30
0.0
  0
SEQEND
  5
D9
330
D6
100
AcDbEntity
  8
_U+30EC_U+30A4_U+30E4_U+30FC 1
 62
   179
420
  2234388
370
     9
  0
INSERT
  5
DB
330
CE
100
AcDbEntity
  8
_U+30EC_U+30A4_U+30E4_U+30FC 1
100
AcDbBlockReference
  2
block 10
 10
0.0
 20
0.0
 30
0.0
  0
ENDBLK
  5
D1
330
CE
100
AcDbEntity
  8
0
100
AcDbBlockEnd
  0
BLOCK
  5
DC
330
DA
100
AcDbEntity
  8
0
100
AcDbBlockBegin
  2
block 10
 70
     0
 10
0.0
 20
0.0
 30
0.0
  3
block 10
  1

  0
SPLINE
  5
DE
330
DA
100
AcDbEntity
  8
_U+30EC_U+30A4_U+30E4_U+30FC 1
370
     0
100
AcDbSpline
210
0.0
220
0.0
230
1.0
 70
    11
 71
     3
 72
    62
 73
    58
 74
     0
 42
0.0000000001
 43
0.0000000001
 12
1.0
 22
0.0
 32
0.0
 13
1.0
 23
0.0
 33
0.0
 40
0.0
 40
0.0
 40
0.0
 40
0.0
 40
1.0
 40
1.0
 40
1.0
 40
2.0
 40
2.0
 40
2.0
 40
3.0
 40
3.0
 40
3.0
 40
4.0
 40
4.0
 40
4.0
 40
5.0
 40
5.0
 40
5.0
 40
6.0
 40
6.0
 40
6.0
 40
7.0
 40
7.0
 40
7.0
 40
8.0
 40
8.0
 40
8.0
 40
9.0
 40
9.0
 40
9.0
 40
10.0
 40
10.0
 40
10.0
 40
11.0
 40
11.0
 40
11.0
 40
12.0
 40
12.0
 40
12.0
 40
13.0
 40
13.0
 40
13.0
 40
14.0
 40
14.0
 40
14.0
 40
15.0
 40
15.0
 40
15.0
 40
16.0
 40
16.0
 40
16.0
 40
17.0
 40
17.0
 40
17.0
 40
18.0
 40
18.0
 40
18.0
 40
19.0
 40
19.0
 40
19.0
 40
19.0
 10
101.7067979346428
 20
-136.9980115759936
 30
0.0
 10
101.7067979346428
 20
-137.093440720935
 30
0.0
 10
101.6857828521827
 20
-137.3111707556028
 30
0.0
 10
101.4997476959792
 20
-137.4362277217173
 30
0.0
 10
101.3874375831601
 20
-137.5102972746502
 30
0.0
 10
101.2882188331849
 20
-137.5144313892325
 30
0.0
 10
101.2034694842477
 20
-137.5185655038148
 30
0.0
 10
101.2034694842477
 20
-137.5185655038148
 30
0.0
 10
101.2034694842477
 20
-137.2984239023073
 30
0.0
 10
101.2034694842477
 20
-137.2984239023073
 30
0.0
 10
101.2775390371806
 20
-137.2963568450162
 30
0.0
 10
101.5121500397261
 20
-137.2860215585604
 30
0.0
 10
101.5121500397261
 20
-137.0024902001244
 30
0.0
 10
101.5121500397261
 20
-136.8650308902629
 30
0.0
 10
101.4425591109241
 20
-136.7124131602664
 30
0.0
 10
101.214149280252
 20
-136.7124131602664
 30
0.0
 10
101.0977050528506
 20
-136.7124131602664
 30
0.0
 10
101.0491292065086
 20
-136.7506537201526
 30
0.0
 10
101.0174343280443
 20
-136.7823485986169
 30
0.0
 10
100.9433647751114
 20
-136.8564181515498
 30
0.0
 10
100.930617921816
 20
-136.9728623789512
 30
0.0
 10
100.930617921816
 20
-137.0276393971667
 30
0.0
 10
100.930617921816
 20
-137.0469319318841
 30
0.0
 10
100.9326849791071
 20
-137.0827609249307
 30
0.0
 10
100.9368190936894
 20
-137.1103216888127
 30
0.0
 10
100.9368190936894
 20
-137.1103216888127
 30
0.0
 10
100.7421711987728
 20
-137.1103216888127
 30
0.0
 10
100.7421711987728
 20
-137.1103216888127
 30
0.0
 10
100.7487168801948
 20
-137.0720811289264
 30
0.0
 10
100.7507839374859
 20
-137.0300509640064
 30
0.0
 10
100.7507839374859
 20
-137.0235052825844
 30
0.0
 10
100.7507839374859
 20
-136.9580484683647
 30
0.0
 10
100.7294243454774
 20
-136.7592664588657
 30
0.0
 10
100.4927462856407
 20
-136.7592664588657
 30
0.0
 10
100.3149793586018
 20
-136.7592664588657
 30
0.0
 10
100.2598578308378
 20
-136.8901800873052
 30
0.0
 10
100.2598578308378
 20
-137.0004231428332
 30
0.0
 10
100.2598578308378
 20
-137.2646619665519
 30
0.0
 10
100.4927462856407
 20
-137.273274705265
 30
0.0
 10
100.5644042717339
 20
-137.2774088198473
 30
0.0
 10
100.5644042717339
 20
-137.2774088198473
 30
0.0
 10
100.5644042717339
 20
-137.480669453477
 30
0.0
 10
100.5644042717339
 20
-137.480669453477
 30
0.0
 10
100.4396918151679
 20
-137.4720567147639
 30
0.0
 10
100.06314287863
 20
-137.4444959508819
 30
0.0
 10
100.06314287863
 20
-136.9876762895378
 30
0.0
 10
100.06314287863
 20
-136.7634005734481
 30
0.0
 10
100.1902669020358
 20
-136.5222438894806
 30
0.0
 10
100.4862006042187
 20
-136.5222438894806
 30
0.0
 10
100.6725802699708
 20
-136.5222438894806
 30
0.0
 10
100.7549180520682
 20
-136.6173285248734
 30
0.0
 10
100.8162407517057
 20
-136.7168917843972
 30
0.0
 10
100.8438015155877
 20
-136.6555690847597
 30
0.0
 10
100.924072240394
 20
-136.4736680431385
 30
0.0
 10
101.2014024269566
 20
-136.4736680431385
 30
0.0
 10
101.5397108036081
 20
-136.4736680431385
 30
0.0
 10
101.7067979346428
 20
-136.7210258989795
 30
0.0
 10
101.7067979346428
 20
-136.9980115759936
 30
0.0
  0
HATCH
  5
DF
330
DA
100
AcDbEntity
  8
_U+30EC_U+30A4_U+30E4_U+30FC 1
 62
   179
420
  2234388
100
AcDbHatch
 10
0.0
 20
0.0
 30
0.0
210
0.0
220
0.0
230
1.0
  2
SOLID
 70
     1
 71
     0
 91
        1
 92
        1
 93
        1
 72
     4
 94
        3
 73
     0
 74
     1
 95
       62
 96
       58
 40
0.0
 40
0.0
 40
0.0
 40
0.0
 40
1.0
 40
1.0
 40
1.0
 40
2.0
 40
2.0
 40
2.0
 40
3.0
 40
3.0
 40
3.0
 40
4.0
 40
4.0
 40
4.0
 40
5.0
 40
5.0
 40
5.0
 40
6.0
 40
6.0
 40
6.0
 40
7.0
 40
7.0
 40
7.0
 40
8.0
 40
8.0
 40
8.0
 40
9.0
 40
9.0
 40
9.0
 40
10.0
 40
10.0
 40
10.0
 40
11.0
 40
11.0
 40
11.0
 40
12.0
 40
12.0
 40
12.0
 40
13.0
 40
13.0
 40
13.0
 40
14.0
 40
14.0
 40
14.0
 40
15.0
 40
15.0
 40
15.0
 40
16.0
 40
16.0
 40
16.0
 40
17.0
 40
17.0
 40
17.0
 40
18.0
 40
18.0
 40
18.0
 40
19.0
 40
19.0
 40
19.0
 40
19.0
 10
101.7067979346428
 20
-136.9980115759936
 10
101.7067979346428
 20
-137.093440720935
 10
101.6857828521827
 20
-137.3111707556028
 10
101.4997476959792
 20
-137.4362277217173
 10
101.3874375831601
 20
-137.5102972746502
 10
101.2882188331849
 20
-137.5144313892325
 10
101.2034694842477
 20
-137.5185655038148
 10
101.2034694842477
 20
-137.5185655038148
 10
101.2034694842477
 20
-137.2984239023073
 10
101.2034694842477
 20
-137.2984239023073
 10
101.2775390371806
 20
-137.2963568450162
 10
101.5121500397261
 20
-137.2860215585604
 10
101.5121500397261
 20
-137.0024902001244
 10
101.5121500397261
 20
-136.8650308902629
 10
101.4425591109241
 20
-136.7124131602664
 10
101.214149280252
 20
-136.7124131602664
 10
101.0977050528506
 20
-136.7124131602664
 10
101.0491292065086
 20
-136.7506537201526
 10
101.0174343280443
 20
-136.7823485986169
 10
100.9433647751114
 20
-136.8564181515498
 10
100.930617921816
 20
-136.9728623789512
 10
100.930617921816
 20
-137.0276393971667
 10
100.930617921816
 20
-137.0469319318841
 10
100.9326849791071
 20
-137.0827609249307
 10
100.9368190936894
 20
-137.1103216888127
 10
100.9368190936894
 20
-137.1103216888127
 10
100.7421711987728
 20
-137.1103216888127
 10
100.7421711987728
 20
-137.1103216888127
 10
100.7487168801948
 20
-137.0720811289264
 10
100.7507839374859
 20
-137.0300509640064
 10
100.7507839374859
 20
-137.0235052825844
 10
100.7507839374859
 20
-136.9580484683647
 10
100.7294243454774
 20
-136.7592664588657
 10
100.4927462856407
 20
-136.7592664588657
 10
100.3149793586018
 20
-136.7592664588657
 10
100.2598578308378
 20
-136.8901800873052
 10
100.2598578308378
 20
-137.0004231428332
 10
100.2598578308378
 20
-137.2646619665519
 10
100.4927462856407
 20
-137.273274705265
 10
100.5644042717339
 20
-137.2774088198473
 10
100.5644042717339
 20
-137.2774088198473
 10
100.5644042717339
 20
-137.480669453477
 10
100.5644042717339
 20
-137.480669453477
 10
100.4396918151679
 20
-137.4720567147639
 10
100.06314287863
 20
-137.4444959508819
 10
100.06314287863
 20
-136.9876762895378
 10
100.06314287863
 20
-136.7634005734481
 10
100.1902669020358
 20
-136.5222438894806
 10
100.4862006042187
 20
-136.5222438894806
 10
100.6725802699708
 20
-136.5222438894806
 10
100.7549180520682
 20
-136.6173285248734
 10
100.8162407517057
 20
-136.7168917843972
 10
100.8438015155877
 20
-136.6555690847597
 10
100.924072240394
 20
-136.4736680431385
 10
101.2014024269566
 20
-136.4736680431385
 10
101.5397108036081
 20
-136.4736680431385
 10
101.7067979346428
 20
-136.7210258989795
 10
101.7067979346428
 20
-136.9980115759936
 97
        0
 97
        0
 75
     2
 76
     1
 98
        0
  0
ENDBLK
  5
DD
330
DA
100
AcDbEntity
  8
0
100
AcDbBlockEnd
  0
BLOCK
  5
E2
330
E0
100
AcDbEntity
  8
0
100
AcDbBlockBegin
  2
block 11
 70
     0
 10
0.0
 20
0.0
 30
0.0
  3
block 11
  1

  0
POLYLINE
  5
E4
330
E0
100
AcDbEntity
  8
_U+30EC_U+30A4_U+30E4_U+30FC 1
 62
   179
420
  2234388
370
     9
100
AcDb2dPolyline
 66
     1
 10
0.0
 20
0.0
 30
0.0
  0
VERTEX
  5
E5
330
E4
100
AcDbEntity
  8
_U+30EC_U+30A4_U+30E4_U+30FC 1
 62
   179
420
  2234388
370
     9
100
AcDbVertex
100
AcDb2dVertex
 10
102.3024485011582
 20
-135.4897382994607
 30
0.0
  0
VERTEX
  5
E6
330
E4
100
AcDbEntity
  8
_U+30EC_U+30A4_U+30E4_U+30FC 1
 62
   179
420
  2234388
370
     9
100
AcDbVertex
100
AcDb2dVertex
 10
102.3024485011582
 20
-122.4900183027108
 30
0.0
  0
SEQEND
  5
E7
330
E4
100
AcDbEntity
  8
_U+30EC_U+30A4_U+30E4_U+30FC 1
 62
   179
420
  2234388
370
     9
  0
POLYLINE
  5
E8
330
E0
100
AcDbEntity
  8
_U+30EC_U+30A4_U+30E4_U+30FC 1
 62
   179
420
  2234388
370
     9
100
AcDb2dPolyline
 66
     1
 10
0.0
 20
0.0
 30
0.0
  0
VERTEX
  5
E9
330
E8
100
AcDbEntity
  8
_U+30EC_U+30A4_U+30E4_U+30FC 1
 62
   179
420
  2234388
370
     9
100
AcDbVertex
100
AcDb2dVertex
 10
85.84247497853926
 20
-135.4897382994607
 30
0.0
  0
VERTEX
  5
EA
330
E8
100
AcDbEntity
  8
_U+30EC_U+30A4_U+30E4_U+30FC 1
 62
   179
420
  2234388
370
     9
100
AcDbVertex
100
AcDb2dVertex
 10
103.3025734756429
 20
-135.4897382994607
 30
0.0
  0
SEQEND
  5
EB
330
E8
100
AcDbEntity
  8
_U+30EC_U+30A4_U+30E4_U+30FC 1
 62
   179
420
  2234388
370
     9
  0
INSERT
  5
ED
330
E0
100
AcDbEntity
  8
_U+30EC_U+30A4_U+30E4_U+30FC 1
100
AcDbBlockReference
  2
block 12
 10
0.0
 20
0.0
 30
0.0
  0
ENDBLK
  5
E3
330
E0
100
AcDbEntity
  8
0
100
AcDbBlockEnd
  0
BLOCK
  5
EE
330
EC
100
AcDbEntity
  8
0
100
AcDbBlockBegin
  2
block 12
 70
     0
 10
0.0
 20
0.0
 30
0.0
  3
block 12
  1

  0
SPLINE
  5
F0
330
EC
100
AcDbEntity
  8
_U+30EC_U+30A4_U+30E4_U+30FC 1
370
     0
100
AcDbSpline
210
0.0
220
0.0
230
1.0
 70
    11
 71
     3
 72
    26
 73
    22
 74
     0
 42
0.0000000001
 43
0.0000000001
 12
1.0
 22
0.0
 32
0.0
 13
1.0
 23
0.0
 33
0.0
 40
0.0
 40
0.0
 40
0.0
 40
0.0
 40
1.0
 40
1.0
 40
1.0
 40
2.0
 40
2.0
 40
2.0
 40
3.0
 40
3.0
 40
3.0
 40
4.0
 40
4.0
 40
4.0
 40
5.0
 40
5.0
 40
5.0
 40
6.0
 40
6.0
 40
6.0
 40
7.0
 40
7.0
 40
7.0
 40
7.0
 10
101.6561550310096
 20
-129.626885275753
 30
0.0
 10
101.6561550310096
 20
-129.626885275753
 30
0.0
 10
100.552001927987
 20
-129.626885275753
 30
0.0
 10
100.552001927987
 20
-129.626885275753
 30
0.0
 10
100.552001927987
 20
-129.626885275753
 30
0.0
 10
100.552001927987
 20
-129.9569254232399
 30
0.0
 10
100.552001927987
 20
-129.9569254232399
 30
0.0
 10
100.552001927987
 20
-129.9569254232399
 30
0.0
 10
100.4038628221213
 20
-129.9569254232399
 30
0.0
 10
100.4038628221213
 20
-129.9569254232399
 30
0.0
 10
100.3890489115347
 20
-129.6248182184619
 30
0.0
 10
100.2260958950824
 20
-129.578309429411
 30
0.0
 10
100.1117187249721
 20
-129.5486816082378
 30
0.0
 10
100.1117187249721
 20
-129.5486816082378
 30
0.0
 10
100.1117187249721
 20
-129.4026095596632
 30
0.0
 10
100.1117187249721
 20
-129.4026095596632
 30
0.0
 10
100.1117187249721
 20
-129.4026095596632
 30
0.0
 10
101.6561550310096
 20
-129.4026095596632
 30
0.0
 10
101.6561550310096
 20
-129.4026095596632
 30
0.0
 10
101.6561550310096
 20
-129.4026095596632
 30
0.0
 10
101.6561550310096
 20
-129.626885275753
 30
0.0
 10
101.6561550310096
 20
-129.626885275753
 30
0.0
  0
HATCH
  5
F1
330
EC
100
AcDbEntity
  8
_U+30EC_U+30A4_U+30E4_U+30FC 1
 62
   179
420
  2234388
100
AcDbHatch
 10
0.0
 20
0.0
 30
0.0
210
0.0
220
0.0
230
1.0
  2
SOLID
 70
     1
 71
     0
 91
        1
 92
        1
 93
        1
 72
     4
 94
        3
 73
     0
 74
     1
 95
       26
 96
       22
 40
0.0
 40
0.0
 40
0.0
 40
0.0
 40
1.0
 40
1.0
 40
1.0
 40
2.0
 40
2.0
 40
2.0
 40
3.0
 40
3.0
 40
3.0
 40
4.0
 40
4.0
 40
4.0
 40
5.0
 40
5.0
 40
5.0
 40
6.0
 40
6.0
 40
6.0
 40
7.0
 40
7.0
 40
7.0
 40
7.0
 10
101.6561550310096
 20
-129.626885275753
 10
101.6561550310096
 20
-129.626885275753
 10
100.552001927987
 20
-129.626885275753
 10
100.552001927987
 20
-129.626885275753
 10
100.552001927987
 20
-129.626885275753
 10
100.552001927987
 20
-129.9569254232399
 10
100.552001927987
 20
-129.9569254232399
 10
100.552001927987
 20
-129.9569254232399
 10
100.4038628221213
 20
-129.9569254232399
 10
100.4038628221213
 20
-129.9569254232399
 10
100.3890489115347
 20
-129.6248182184619
 10
100.2260958950824
 20
-129.578309429411
 10
100.1117187249721
 20
-129.5486816082378
 10
100.1117187249721
 20
-129.5486816082378
 10
100.1117187249721
 20
-129.4026095596632
 10
100.1117187249721
 20
-129.4026095596632
 10
100.1117187249721
 20
-129.4026095596632
 10
101.6561550310096
 20
-129.4026095596632
 10
101.6561550310096
 20
-129.4026095596632
 10
101.6561550310096
 20
-129.4026095596632
 10
101.6561550310096
 20
-129.626885275753
 10
101.6561550310096
 20
-129.626885275753
 97
        0
 97
        0
 75
     2
 76
     1
 98
        0
  0
SPLINE
  5
F2
330
EC
100
AcDbEntity
  8
_U+30EC_U+30A4_U+30E4_U+30FC 1
370
     0
100
AcDbSpline
210
0.0
220
0.0
230
1.0
 70
    11
 71
     3
 72
    62
 73
    58
 74
     0
 42
0.0000000001
 43
0.0000000001
 12
1.0
 22
0.0
 32
0.0
 13
1.0
 23
0.0
 33
0.0
 40
0.0
 40
0.0
 40
0.0
 40
0.0
 40
1.0
 40
1.0
 40
1.0
 40
2.0
 40
2.0
 40
2.0
 40
3.0
 40
3.0
 40
3.0
 40
4.0
 40
4.0
 40
4.0
 40
5.0
 40
5.0
 40
5.0
 40
6.0
 40
6.0
 40
6.0
 40
7.0
 40
7.0
 40
7.0
 40
8.0
 40
8.0
 40
8.0
 40
9.0
 40
9.0
 40
9.0
 40
10.0
 40
10.0
 40
10.0
 40
11.0
 40
11.0
 40
11.0
 40
12.0
 40
12.0
 40
12.0
 40
13.0
 40
13.0
 40
13.0
 40
14.0
 40
14.0
 40
14.0
 40
15.0
 40
15.0
 40
15.0
 40
16.0
 40
16.0
 40
16.0
 40
17.0
 40
17.0
 40
17.0
 40
18.0
 40
18.0
 40
18.0
 40
19.0
 40
19.0
 40
19.0
 40
19.0
 10
101.7067979346428
 20
-128.4097330408142
 30
0.0
 10
101.7067979346428
 20
-128.5051621857557
 30
0.0
 10
101.6857828521827
 20
-128.7228922204235
 30
0.0
 10
101.4997476959792
 20
-128.847949186538
 30
0.0
 10
101.3874375831601
 20
-128.9216742299224
 30
0.0
 10
101.2882188331849
 20
-128.9261528540532
 30
0.0
 10
101.2034694842477
 20
-128.9302869686355
 30
0.0
 10
101.2034694842477
 20
-128.9302869686355
 30
0.0
 10
101.2034694842477
 20
-128.710145367128
 30
0.0
 10
101.2034694842477
 20
-128.710145367128
 30
0.0
 10
101.2775390371806
 20
-128.7080783098369
 30
0.0
 10
101.5121500397261
 20
-128.6977430233811
 30
0.0
 10
101.5121500397261
 20
-128.4142116649451
 30
0.0
 10
101.5121500397261
 20
-128.2767523550836
 30
0.0
 10
101.4425591109241
 20
-128.124134625087
 30
0.0
 10
101.214149280252
 20
-128.124134625087
 30
0.0
 10
101.0977050528506
 20
-128.124134625087
 30
0.0
 10
101.0491292065086
 20
-128.1623751849733
 30
0.0
 10
101.0174343280443
 20
-128.1940700634376
 30
0.0
 10
100.9433647751114
 20
-128.2681396163705
 30
0.0
 10
100.930617921816
 20
-128.3845838437719
 30
0.0
 10
100.930617921816
 20
-128.4393608619874
 30
0.0
 10
100.930617921816
 20
-128.4586533967048
 30
0.0
 10
100.9326849791071
 20
-128.4944823897514
 30
0.0
 10
100.9368190936894
 20
-128.5220431536334
 30
0.0
 10
100.9368190936894
 20
-128.5220431536334
 30
0.0
 10
100.7421711987728
 20
-128.5220431536334
 30
0.0
 10
100.7421711987728
 20
-128.5220431536334
 30
0.0
 10
100.7487168801948
 20
-128.4838025937471
 30
0.0
 10
100.7507839374859
 20
-128.4417724288271
 30
0.0
 10
100.7507839374859
 20
-128.4352267474051
 30
0.0
 10
100.7507839374859
 20
-128.3697699331854
 30
0.0
 10
100.7294243454774
 20
-128.1709879236864
 30
0.0
 10
100.4927462856407
 20
-128.1709879236864
 30
0.0
 10
100.3149793586018
 20
-128.1709879236864
 30
0.0
 10
100.2598578308378
 20
-128.3019015521259
 30
0.0
 10
100.2598578308378
 20
-128.4121446076539
 30
0.0
 10
100.2598578308378
 20
-128.6763834313726
 30
0.0
 10
100.4927462856407
 20
-128.6849961700857
 30
0.0
 10
100.5644042717339
 20
-128.689130284668
 30
0.0
 10
100.5644042717339
 20
-128.689130284668
 30
0.0
 10
100.5644042717339
 20
-128.8923909182977
 30
0.0
 10
100.5644042717339
 20
-128.8923909182977
 30
0.0
 10
100.4396918151679
 20
-128.8837781795846
 30
0.0
 10
100.06314287863
 20
-128.8562174157026
 30
0.0
 10
100.06314287863
 20
-128.3993977543585
 30
0.0
 10
100.06314287863
 20
-128.1751220382687
 30
0.0
 10
100.1902669020358
 20
-127.9339653543012
 30
0.0
 10
100.4862006042187
 20
-127.9339653543012
 30
0.0
 10
100.6725802699708
 20
-127.9339653543012
 30
0.0
 10
100.7549180520682
 20
-128.0290499896941
 30
0.0
 10
100.8162407517057
 20
-128.1286132492179
 30
0.0
 10
100.8438015155877
 20
-128.0672905495804
 30
0.0
 10
100.924072240394
 20
-127.8853895079592
 30
0.0
 10
101.2014024269566
 20
-127.8853895079592
 30
0.0
 10
101.5397108036081
 20
-127.8853895079592
 30
0.0
 10
101.7067979346428
 20
-128.1327473638001
 30
0.0
 10
101.7067979346428
 20
-128.4097330408142
 30
0.0
  0
HATCH
  5
F3
330
EC
100
AcDbEntity
  8
_U+30EC_U+30A4_U+30E4_U+30FC 1
 62
   179
420
  2234388
100
AcDbHatch
 10
0.0
 20
0.0
 30
0.0
210
0.0
220
0.0
230
1.0
  2
SOLID
 70
     1
 71
     0
 91
        1
 92
        1
 93
        1
 72
     4
 94
        3
 73
     0
 74
     1
 95
       62
 96
       58
 40
0.0
 40
0.0
 40
0.0
 40
0.0
 40
1.0
 40
1.0
 40
1.0
 40
2.0
 40
2.0
 40
2.0
 40
3.0
 40
3.0
 40
3.0
 40
4.0
 40
4.0
 40
4.0
 40
5.0
 40
5.0
 40
5.0
 40
6.0
 40
6.0
 40
6.0
 40
7.0
 40
7.0
 40
7.0
 40
8.0
 40
8.0
 40
8.0
 40
9.0
 40
9.0
 40
9.0
 40
10.0
 40
10.0
 40
10.0
 40
11.0
 40
11.0
 40
11.0
 40
12.0
 40
12.0
 40
12.0
 40
13.0
 40
13.0
 40
13.0
 40
14.0
 40
14.0
 40
14.0
 40
15.0
 40
15.0
 40
15.0
 40
16.0
 40
16.0
 40
16.0
 40
17.0
 40
17.0
 40
17.0
 40
18.0
 40
18.0
 40
18.0
 40
19.0
 40
19.0
 40
19.0
 40
19.0
 10
101.7067979346428
 20
-128.4097330408142
 10
101.7067979346428
 20
-128.5051621857557
 10
101.6857828521827
 20
-128.7228922204235
 10
101.4997476959792
 20
-128.847949186538
 10
101.3874375831601
 20
-128.9216742299224
 10
101.2882188331849
 20
-128.9261528540532
 10
101.2034694842477
 20
-128.9302869686355
 10
101.2034694842477
 20
-128.9302869686355
 10
101.2034694842477
 20
-128.710145367128
 10
101.2034694842477
 20
-128.710145367128
 10
101.2775390371806
 20
-128.7080783098369
 10
101.5121500397261
 20
-128.6977430233811
 10
101.5121500397261
 20
-128.4142116649451
 10
101.5121500397261
 20
-128.2767523550836
 10
101.4425591109241
 20
-128.124134625087
 10
101.214149280252
 20
-128.124134625087
 10
101.0977050528506
 20
-128.124134625087
 10
101.0491292065086
 20
-128.1623751849733
 10
101.0174343280443
 20
-128.1940700634376
 10
100.9433647751114
 20
-128.2681396163705
 10
100.930617921816
 20
-128.3845838437719
 10
100.930617921816
 20
-128.4393608619874
 10
100.930617921816
 20
-128.4586533967048
 10
100.9326849791071
 20
-128.4944823897514
 10
100.9368190936894
 20
-128.5220431536334
 10
100.9368190936894
 20
-128.5220431536334
 10
100.7421711987728
 20
-128.5220431536334
 10
100.7421711987728
 20
-128.5220431536334
 10
100.7487168801948
 20
-128.4838025937471
 10
100.7507839374859
 20
-128.4417724288271
 10
100.7507839374859
 20
-128.4352267474051
 10
100.7507839374859
 20
-128.3697699331854
 10
100.7294243454774
 20
-128.1709879236864
 10
100.4927462856407
 20
-128.1709879236864
 10
100.3149793586018
 20
-128.1709879236864
 10
100.2598578308378
 20
-128.3019015521259
 10
100.2598578308378
 20
-128.4121446076539
 10
100.2598578308378
 20
-128.6763834313726
 10
100.4927462856407
 20
-128.6849961700857
 10
100.5644042717339
 20
-128.689130284668
 10
100.5644042717339
 20
-128.689130284668
 10
100.5644042717339
 20
-128.8923909182977
 10
100.5644042717339
 20
-128.8923909182977
 10
100.4396918151679
 20
-128.8837781795846
 10
100.06314287863
 20
-128.8562174157026
 10
100.06314287863
 20
-128.3993977543585
 10
100.06314287863
 20
-128.1751220382687
 10
100.1902669020358
 20
-127.9339653543012
 10
100.4862006042187
 20
-127.9339653543012
 10
100.6725802699708
 20
-127.9339653543012
 10
100.7549180520682
 20
-128.0290499896941
 10
100.8162407517057
 20
-128.1286132492179
 10
100.8438015155877
 20
-128.0672905495804
 10
100.924072240394
 20
-127.8853895079592
 10
101.2014024269566
 20
-127.8853895079592
 10
101.5397108036081
 20
-127.8853895079592
 10
101.7067979346428
 20
-128.1327473638001
 10
101.7067979346428
 20
-128.4097330408142
 97
        0
 97
        0
 75
     2
 76
     1
 98
        0
  0
ENDBLK
  5
EF
330
EC
100
AcDbEntity
  8
0
100
AcDbBlockEnd
  0
ENDSEC
  0
SECTION
  2
ENTITIES
  0
INSERT
  5
42
330
1F
100
AcDbEntity
  8
_U+30EC_U+30A4_U+30E4_U+30FC 1
100
AcDbBlockReference
  2
block 2
 10
0.0
 20
0.0
 30
0.0
  0
ENDSEC
  0
SECTION
  2
OBJECTS
  0
DICTIONARY
  5
C
330
0
100
AcDbDictionary
281
     1
  3
ACAD_GROUP
350
D
  3
ACAD_LAYOUT
350
1A
  3
ACAD_MATERIAL
350
3B
  3
ACAD_MLEADERSTYLE
350
F5
  3
ACAD_MLINESTYLE
350
17
  3
ACAD_PLOTSETTINGS
350
19
  3
ACAD_PLOTSTYLENAME
350
E
  3
ACAD_TABLESTYLE
350
F4
  3
ACAD_VISUALSTYLE
350
2A
  0
SUN
  5
3F
330
29
100
AcDbSun
 90
        1
290
     0
 63
     7
421
 16777215
 40
1.0
291
     1
 91
  2455826
 92
 54000000
292
     0
 70
     2
 71
   256
280
     1
  0
DICTIONARY
  5
D
102
{ACAD_REACTORS
330
C
102
}
330
C
100
AcDbDictionary
281
     1
  0
DICTIONARY
  5
1A
102
{ACAD_REACTORS
330
C
102
}
330
C
100
AcDbDictionary
281
     1
  3
Layout1
350
1E
  3
Layout2
350
26
  3
Model
350
22
  0
DICTIONARY
  5
3B
102
{ACAD_REACTORS
330
C
102
}
330
C
100
AcDbDictionary
281
     1
  3
ByBlock
350
3D
  3
ByLayer
350
3C
  3
Global
350
3E
  0
DICTIONARY
  5
F5
102
{ACAD_REACTORS
330
C
102
}
330
C
100
AcDbDictionary
281
     1
  0
DICTIONARY
  5
17
102
{ACAD_REACTORS
330
C
102
}
330
C
100
AcDbDictionary
281
     1
  3
Standard
350
18
  0
DICTIONARY
  5
19
102
{ACAD_REACTORS
330
C
102
}
330
C
100
AcDbDictionary
281
     1
  0
ACDBDICTIONARYWDFLT
  5
E
102
{ACAD_REACTORS
330
C
102
}
330
C
100
AcDbDictionary
281
     1
  3
Normal
350
F
100
AcDbDictionaryWithDefault
340
F
  0
DICTIONARY
  5
F4
102
{ACAD_REACTORS
330
C
102
}
330
C
100
AcDbDictionary
281
     1
  0
DICTIONARY
  5
2A
102
{ACAD_REACTORS
330
C
102
}
330
C
100
AcDbDictionary
281
     1
  3
2dWireframe
350
2F
  3
3D Hidden
350
31
  3
3dWireframe
350
30
  3
Basic
350
32
  3
Brighten
350
36
  3
ColorChange
350
3A
  3
Conceptual
350
34
  3
Dim
350
35
  3
Facepattern
350
39
  3
Flat
350
2B
  3
FlatWithEdges
350
2C
  3
Gouraud
350
2D
  3
GouraudWithEdges
350
2E
  3
Linepattern
350
38
  3
Realistic
350
33
  3
Thicken
350
37
  0
LAYOUT
  5
1E
102
{ACAD_REACTORS
330
1A
102
}
330
1A
100
AcDbPlotSettings
  1

  2
none_device
  4

  6

 40
0.0
 41
0.0
 42
0.0
 43
0.0
 44
0.0
 45
0.0
 46
0.0
 47
0.0
 48
0.0
 49
0.0
140
0.0
141
0.0
142
1.0
143
1.0
 70
   688
 72
     0
 73
     0
 74
     5
  7

 75
    16
 76
     0
 77
     2
 78
   300
147
1.0
148
0.0
149
0.0
100
AcDbLayout
  1
Layout1
 70
     1
 71
     1
 10
0.0
 20
0.0
 11
12.0
 21
9.0
 12
0.0
 22
0.0
 32
0.0
 14
1.000000000000000E+20
 24
1.000000000000000E+20
 34
1.000000000000000E+20
 15
-1.000000000000000E+20
 25
-1.000000000000000E+20
 35
-1.000000000000000E+20
146
0.0
 13
0.0
 23
0.0
 33
0.0
 16
1.0
 26
0.0
 36
0.0
 17
0.0
 27
1.0
 37
0.0
 76
     0
330
1B
  0
LAYOUT
  5
26
102
{ACAD_REACTORS
330
1A
102
}
330
1A
100
AcDbPlotSettings
  1

  2
none_device
  4

  6

 40
0.0
 41
0.0
 42
0.0
 43
0.0
 44
0.0
 45
0.0
 46
0.0
 47
0.0
 48
0.0
 49
0.0
140
0.0
141
0.0
142
1.0
143
1.0
 70
   688
 72
     0
 73
     0
 74
     5
  7

 75
    16
 76
     0
 77
     2
 78
   300
147
1.0
148
0.0
149
0.0
100
AcDbLayout
  1
Layout2
 70
     1
 71
     2
 10
0.0
 20
0.0
 11
0.0
 21
0.0
 12
0.0
 22
0.0
 32
0.0
 14
0.0
 24
0.0
 34
0.0
 15
0.0
 25
0.0
 35
0.0
146
0.0
 13
0.0
 23
0.0
 33
0.0
 16
1.0
 26
0.0
 36
0.0
 17
0.0
 27
1.0
 37
0.0
 76
     0
330
23
  0
LAYOUT
  5
22
102
{ACAD_REACTORS
330
1A
102
}
330
1A
100
AcDbPlotSettings
  1

  2
none_device
  4

  6

 40
0.0
 41
0.0
 42
0.0
 43
0.0
 44
0.0
 45
0.0
 46
0.0
 47
0.0
 48
0.0
 49
0.0
140
0.0
141
0.0
142
1.0
143
1.0
 70
  1712
 72
     0
 73
     0
 74
     0
  7

 75
     0
 76
     0
 77
     2
 78
   300
147
1.0
148
0.0
149
0.0
100
AcDbLayout
  1
Model
 70
     1
 71
     0
 10
0.0
 20
0.0
 11
12.0
 21
9.0
 12
0.0
 22
0.0
 32
0.0
 14
1.000000000000000E+20
 24
1.000000000000000E+20
 34
1.000000000000000E+20
 15
-1.000000000000000E+20
 25
-1.000000000000000E+20
 35
-1.000000000000000E+20
146
0.0
 13
0.0
 23
0.0
 33
0.0
 16
1.0
 26
0.0
 36
0.0
 17
0.0
 27
1.0
 37
0.0
 76
     0
330
1F
331
29
  0
MATERIAL
  5
3D
102
{ACAD_REACTORS
330
3B
102
}
330
3B
100
AcDbMaterial
  1
ByBlock
 72
     1
 94
      127
  0
MATERIAL
  5
3C
102
{ACAD_REACTORS
330
3B
102
}
330
3B
100
AcDbMaterial
  1
ByLayer
 72
     1
 94
      127
  0
MATERIAL
  5
3E
102
{ACAD_REACTORS
330
3B
102
}
330
3B
100
AcDbMaterial
  1
Global
 72
     1
 94
      127
  0
MLINESTYLE
  5
18
102
{ACAD_REACTORS
330
17
102
}
330
17
100
AcDbMlineStyle
  2
Standard
 70
     0
  3

 62
   256
 51
90.0
 52
90.0
 71
     2
 49
0.5
 62
   256
  6
BYLAYER
 49
-0.5
 62
   256
  6
BYLAYER
  0
ACDBPLACEHOLDER
  5
F
102
{ACAD_REACTORS
330
E
102
}
330
E
  0
VISUALSTYLE
  5
2F
102
{ACAD_REACTORS
330
2A
102
}
330
2A
100
AcDbVisualStyle
  2
2dWireframe
 70
     4
177
     2
291
     0
 71
     0
176
     1
 72
     2
176
     1
 73
     0
176
     1
 90
        0
176
     1
 40
-0.6
176
     1
 41
-30.0
176
     1
 62
     5
 63
     7
421
 16777215
176
     1
 74
     1
176
     1
 91
        4
176
     1
 64
     7
176
     1
 65
   257
176
     1
 75
     1
176
     1
175
     1
176
     1
 42
1.0
176
     1
 92
        0
176
     1
 66
   257
176
     1
 43
1.0
176
     1
 76
     1
176
     1
 77
     6
176
     1
 78
     2
176
     1
 67
     7
176
     1
 79
     5
176
     1
170
     0
176
     1
171
     0
176
     1
290
     0
176
     1
 93
        1
176
     1
 44
0.0
176
     1
173
     0
176
     1
  0
VISUALSTYLE
  5
31
102
{ACAD_REACTORS
330
2A
102
}
330
2A
100
AcDbVisualStyle
  2
3D Hidden
 70
     6
177
     2
291
     0
 71
     1
176
     1
 72
     2
176
     1
 73
     2
176
     1
 90
        0
176
     1
 40
-0.6
176
     1
 41
-30.0
176
     1
 62
     5
 63
     7
421
 16777215
176
     1
 74
     2
176
     1
 91
        2
176
     1
 64
     7
176
     1
 65
   257
176
     1
 75
     2
176
     1
175
     1
176
     1
 42
40.0
176
     1
 92
        0
176
     1
 66
   257
176
     1
 43
1.0
176
     1
 76
     1
176
     1
 77
     6
176
     1
 78
     2
176
     1
 67
     7
176
     1
 79
     3
176
     1
170
     0
176
     1
171
     0
176
     1
290
     0
176
     1
 93
        1
176
     1
 44
0.0
176
     1
173
     0
176
     1
  0
VISUALSTYLE
  5
30
102
{ACAD_REACTORS
330
2A
102
}
330
2A
100
AcDbVisualStyle
  2
3dWireframe
 70
     5
177
     2
291
     0
 71
     0
176
     1
 72
     2
176
     1
 73
     0
176
     1
 90
        0
176
     1
 40
-0.6
176
     1
 41
-30.0
176
     1
 62
     5
 63
     7
421
 16777215
176
     1
 74
     1
176
     1
 91
        4
176
     1
 64
     7
176
     1
 65
   257
176
     1
 75
     1
176
     1
175
     1
176
     1
 42
1.0
176
     1
 92
        0
176
     1
 66
   257
176
     1
 43
1.0
176
     1
 76
     1
176
     1
 77
     6
176
     1
 78
     2
176
     1
 67
     7
176
     1
 79
     5
176
     1
170
     0
176
     1
171
     0
176
     1
290
     0
176
     1
 93
        1
176
     1
 44
0.0
176
     1
173
     0
176
     1
  0
VISUALSTYLE
  5
32
102
{ACAD_REACTORS
330
2A
102
}
330
2A
100
AcDbVisualStyle
  2
Basic
 70
     7
177
     2
291
     1
 71
     1
176
     1
 72
     0
176
     1
 73
     1
176
     1
 90
        0
176
     1
 40
-0.6
176
     1
 41
-30.0
176
     1
 62
     5
 63
     7
421
 16777215
176
     1
 74
     0
176
     1
 91
        4
176
     1
 64
     7
176
     1
 65
   257
176
     1
 75
     1
176
     1
175
     1
176
     1
 42
1.0
176
     1
 92
        8
176
     1
 66
     7
176
     1
 43
1.0
176
     1
 76
     1
176
     1
 77
     6
176
     1
 78
     2
176
     1
 67
     7
176
     1
 79
     5
176
     1
170
     0
176
     1
171
     0
176
     1
290
     0
176
     1
 93
        1
176
     1
 44
0.0
176
     1
173
     0
176
     1
  0
VISUALSTYLE
  5
36
102
{ACAD_REACTORS
330
2A
102
}
330
2A
100
AcDbVisualStyle
  2
Brighten
 70
    12
177
     2
291
     1
 71
     2
176
     1
 72
     2
176
     1
 73
     0
176
     1
 90
        0
176
     1
 40
-0.6
176
     1
 41
-30.0
176
     1
 62
     5
 63
     7
421
 16777215
176
     1
 74
     1
176
     1
 91
        4
176
     1
 64
     7
176
     1
 65
   257
176
     1
 75
     1
176
     1
175
     1
176
     1
 42
1.0
176
     1
 92
        8
176
     1
 66
     7
176
     1
 43
1.0
176
     1
 76
     1
176
     1
 77
     6
176
     1
 78
     2
176
     1
 67
     7
176
     1
 79
     5
176
     1
170
     0
176
     1
171
     0
176
     1
290
     0
176
     1
 93
        1
176
     1
 44
50.0
176
     1
173
     0
176
     1
  0
VISUALSTYLE
  5
3A
102
{ACAD_REACTORS
330
2A
102
}
330
2A
100
AcDbVisualStyle
  2
ColorChange
 70
    16
177
     2
291
     1
 71
     2
176
     1
 72
     2
176
     1
 73
     3
176
     1
 90
        0
176
     1
 40
-0.6
176
     1
 41
-30.0
176
     1
 62
     5
 63
     8
421
  8421504
176
     1
 74
     1
176
     1
 91
        4
176
     1
 64
     7
176
     1
 65
   257
176
     1
 75
     1
176
     1
175
     1
176
     1
 42
1.0
176
     1
 92
        8
176
     1
 66
     8
424
  8421504
176
     1
 43
1.0
176
     1
 76
     1
176
     1
 77
     6
176
     1
 78
     2
176
     1
 67
     7
176
     1
 79
     5
176
     1
170
     0
176
     1
171
     0
176
     1
290
     0
176
     1
 93
        1
176
     1
 44
0.0
176
     1
173
     0
176
     1
  0
VISUALSTYLE
  5
34
102
{ACAD_REACTORS
330
2A
102
}
330
2A
100
AcDbVisualStyle
  2
Conceptual
 70
     9
177
     2
291
     0
 71
     3
176
     1
 72
     2
176
     1
 73
     0
176
     1
 90
        0
176
     1
 40
-0.6
176
     1
 41
-30.0
176
     1
 62
     5
 63
     7
421
 16777215
176
     1
 74
     2
176
     1
 91
        2
176
     1
 64
     7
176
     1
 65
   257
176
     1
 75
     1
176
     1
175
     1
176
     1
 42
40.0
176
     1
 92
        8
176
     1
 66
     7
176
     1
 43
1.0
176
     1
 76
     1
176
     1
 77
     6
176
     1
 78
     2
176
     1
 67
     7
176
     1
 79
     3
176
     1
170
     0
176
     1
171
     0
176
     1
290
     0
176
     1
 93
        1
176
     1
 44
0.0
176
     1
173
     0
176
     1
  0
VISUALSTYLE
  5
35
102
{ACAD_REACTORS
330
2A
102
}
330
2A
100
AcDbVisualStyle
  2
Dim
 70
    11
177
     2
291
     1
 71
     2
176
     1
 72
     2
176
     1
 73
     0
176
     1
 90
        0
176
     1
 40
-0.6
176
     1
 41
-30.0
176
     1
 62
     5
 63
     7
421
 16777215
176
     1
 74
     1
176
     1
 91
        4
176
     1
 64
     7
176
     1
 65
   257
176
     1
 75
     1
176
     1
175
     1
176
     1
 42
1.0
176
     1
 92
        8
176
     1
 66
     7
176
     1
 43
1.0
176
     1
 76
     1
176
     1
 77
     6
176
     1
 78
     2
176
     1
 67
     7
176
     1
 79
     5
176
     1
170
     0
176
     1
171
     0
176
     1
290
     0
176
     1
 93
        1
176
     1
 44
-50.0
176
     1
173
     0
176
     1
  0
VISUALSTYLE
  5
39
102
{ACAD_REACTORS
330
2A
102
}
330
2A
100
AcDbVisualStyle
  2
Facepattern
 70
    15
177
     2
291
     1
 71
     2
176
     1
 72
     2
176
     1
 73
     0
176
     1
 90
        0
176
     1
 40
-0.6
176
     1
 41
-30.0
176
     1
 62
     5
 63
     7
421
 16777215
176
     1
 74
     1
176
     1
 91
        4
176
     1
 64
     7
176
     1
 65
   257
176
     1
 75
     1
176
     1
175
     1
176
     1
 42
1.0
176
     1
 92
        8
176
     1
 66
     7
176
     1
 43
1.0
176
     1
 76
     1
176
     1
 77
     6
176
     1
 78
     2
176
     1
 67
     7
176
     1
 79
     5
176
     1
170
     0
176
     1
171
     0
176
     1
290
     0
176
     1
 93
        1
176
     1
 44
0.0
176
     1
173
     0
176
     1
  0
VISUALSTYLE
  5
2B
102
{ACAD_REACTORS
330
2A
102
}
330
2A
100
AcDbVisualStyle
  2
Flat
 70
     0
177
     2
291
     1
 71
     2
176
     1
 72
     1
176
     1
 73
     1
176
     1
 90
        2
176
     1
 40
-0.6
176
     1
 41
30.0
176
     1
 62
     5
 63
     7
421
 16777215
176
     1
 74
     0
176
     1
 91
        4
176
     1
 64
     7
176
     1
 65
   257
176
     1
 75
     1
176
     1
175
     1
176
     1
 42
1.0
176
     1
 92
        8
176
     1
 66
     7
176
     1
 43
1.0
176
     1
 76
     1
176
     1
 77
     6
176
     1
 78
     2
176
     1
 67
     7
176
     1
 79
     5
176
     1
170
     0
176
     1
171
     0
176
     1
290
     0
176
     1
 93
       13
176
     1
 44
0.0
176
     1
173
     0
176
     1
  0
VISUALSTYLE
  5
2C
102
{ACAD_REACTORS
330
2A
102
}
330
2A
100
AcDbVisualStyle
  2
FlatWithEdges
 70
     1
177
     2
291
     1
 71
     2
176
     1
 72
     1
176
     1
 73
     1
176
     1
 90
        2
176
     1
 40
-0.6
176
     1
 41
30.0
176
     1
 62
     5
 63
     7
421
 16777215
176
     1
 74
     1
176
     1
 91
        4
176
     1
 64
     7
176
     1
 65
   257
176
     1
 75
     1
176
     1
175
     1
176
     1
 42
1.0
176
     1
 92
        0
176
     1
 66
   257
176
     1
 43
1.0
176
     1
 76
     1
176
     1
 77
     6
176
     1
 78
     2
176
     1
 67
     7
176
     1
 79
     5
176
     1
170
     0
176
     1
171
     0
176
     1
290
     0
176
     1
 93
       13
176
     1
 44
0.0
176
     1
173
     0
176
     1
  0
VISUALSTYLE
  5
2D
102
{ACAD_REACTORS
330
2A
102
}
330
2A
100
AcDbVisualStyle
  2
Gouraud
 70
     2
177
     2
291
     1
 71
     2
176
     1
 72
     2
176
     1
 73
     1
176
     1
 90
        2
176
     1
 40
-0.6
176
     1
 41
30.0
176
     1
 62
     5
 63
     7
421
 16777215
176
     1
 74
     0
176
     1
 91
        4
176
     1
 64
     7
176
     1
 65
   257
176
     1
 75
     1
176
     1
175
     1
176
     1
 42
1.0
176
     1
 92
        0
176
     1
 66
     7
176
     1
 43
1.0
176
     1
 76
     1
176
     1
 77
     6
176
     1
 78
     2
176
     1
 67
     7
176
     1
 79
     5
176
     1
170
     0
176
     1
171
     0
176
     1
290
     0
176
     1
 93
       13
176
     1
 44
0.0
176
     1
173
     0
176
     1
  0
VISUALSTYLE
  5
2E
102
{ACAD_REACTORS
330
2A
102
}
330
2A
100
AcDbVisualStyle
  2
GouraudWithEdges
 70
     3
177
     2
291
     1
 71
     2
176
     1
 72
     2
176
     1
 73
     1
176
     1
 90
        2
176
     1
 40
-0.6
176
     1
 41
30.0
176
     1
 62
     5
 63
     7
421
 16777215
176
     1
 74
     1
176
     1
 91
        4
176
     1
 64
     7
176
     1
 65
   257
176
     1
 75
     1
176
     1
175
     1
176
     1
 42
1.0
176
     1
 92
        0
176
     1
 66
   257
176
     1
 43
1.0
176
     1
 76
     1
176
     1
 77
     6
176
     1
 78
     2
176
     1
 67
     7
176
     1
 79
     5
176
     1
170
     0
176
     1
171
     0
176
     1
290
     0
176
     1
 93
       13
176
     1
 44
0.0
176
     1
173
     0
176
     1
  0
VISUALSTYLE
  5
38
102
{ACAD_REACTORS
330
2A
102
}
330
2A
100
AcDbVisualStyle
  2
Linepattern
 70
    14
177
     2
291
     1
 71
     2
176
     1
 72
     2
176
     1
 73
     0
176
     1
 90
        0
176
     1
 40
-0.6
176
     1
 41
-30.0
176
     1
 62
     5
 63
     7
421
 16777215
176
     1
 74
     1
176
     1
 91
        4
176
     1
 64
     7
176
     1
 65
   257
176
     1
 75
     7
176
     1
175
     7
176
     1
 42
1.0
176
     1
 92
        8
176
     1
 66
     7
176
     1
 43
1.0
176
     1
 76
     1
176
     1
 77
     6
176
     1
 78
     2
176
     1
 67
     7
176
     1
 79
     5
176
     1
170
     0
176
     1
171
     0
176
     1
290
     0
176
     1
 93
        1
176
     1
 44
0.0
176
     1
173
     0
176
     1
  0
VISUALSTYLE
  5
33
102
{ACAD_REACTORS
330
2A
102
}
330
2A
100
AcDbVisualStyle
  2
Realistic
 70
     8
177
     2
291
     0
 71
     2
176
     1
 72
     2
176
     1
 73
     0
176
     1
 90
        0
176
     1
 40
-0.6
176
     1
 41
-30.0
176
     1
 62
     5
 63
     7
421
 16777215
176
     1
 74
     1
176
     1
 91
        0
176
     1
 64
     7
176
     1
 65
   257
176
     1
 75
     1
176
     1
175
     1
176
     1
 42
1.0
176
     1
 92
        8
176
     1
 66
     8
424
  7895160
176
     1
 43
1.0
176
     1
 76
     1
176
     1
 77
     6
176
     1
 78
     2
176
     1
 67
     7
176
     1
 79
     5
176
     1
170
     0
176
     1
171
     0
176
     1
290
     0
176
     1
 93
       13
176
     1
 44
0.0
176
     1
173
     0
176
     1
  0
VISUALSTYLE
  5
37
102
{ACAD_REACTORS
330
2A
102
}
330
2A
100
AcDbVisualStyle
  2
Thicken
 70
    13
177
     2
291
     1
 71
     2
176
     1
 72
     2
176
     1
 73
     0
176
     1
 90
        0
176
     1
 40
-0.6
176
     1
 41
-30.0
176
     1
 62
     5
 63
     7
421
 16777215
176
     1
 74
     1
176
     1
 91
        4
176
     1
 64
     7
176
     1
 65
   257
176
     1
 75
     1
176
     1
175
     1
176
     1
 42
1.0
176
     1
 92
       12
176
     1
 66
     7
176
     1
 43
1.0
176
     1
 76
     1
176
     1
 77
     6
176
     1
 78
     2
176
     1
 67
     7
176
     1
 79
     5
176
     1
170
     0
176
     1
171
     0
176
     1
290
     0
176
     1
 93
        1
176
     1
 44
0.0
176
     1
173
     0
176
     1
  0
ENDSEC
  0
EOF
