  0
SECTION
  2
HEADER
  9
$ACADVER
  1
AC1024
  9
$ACADMAINTVER
 70
     6
  9
$DWGCODEPAGE
  3
UNDEFINED
  9
$INSBASE
 10
0.0
 20
0.0
 30
0.0
  9
$EXTMIN
 10
1.000000000000000E+20
 20
1.000000000000000E+20
 30
1.000000000000000E+20
  9
$EXTMAX
 10
-1.000000000000000E+20
 20
-1.000000000000000E+20
 30
-1.000000000000000E+20
  9
$LIMMIN
 10
0.0
 20
0.0
  9
$LIMMAX
 10
12.0
 20
9.0
  9
$ORTHOMODE
 70
     0
  9
$REGENMODE
 70
     1
  9
$FILLMODE
 70
     1
  9
$QTEXTMODE
 70
     0
  9
$MIRRTEXT
 70
     1
  9
$LTSCALE
 40
1.0
  9
$ATTMODE
 70
     1
  9
$TEXTSIZE
 40
0.2
  9
$TRACEWID
 40
0.05
  9
$TEXTSTYLE
  7
Standard
  9
$CLAYER
  8
0
  9
$CELTYPE
  6
ByLayer
  9
$CECOLOR
 62
   256
  9
$CELTSCALE
 40
1.0
  9
$DISPSILH
 70
     0
  9
$DIMSCALE
 40
1.0
  9
$DIMASZ
 40
0.18
  9
$DIMEXO
 40
0.0625
  9
$DIMDLI
 40
0.38
  9
$DIMRND
 40
0.0
  9
$DIMDLE
 40
0.0
  9
$DIMEXE
 40
0.18
  9
$DIMTP
 40
0.0
  9
$DIMTM
 40
0.0
  9
$DIMTXT
 40
0.18
  9
$DIMCEN
 40
0.09
  9
$DIMTSZ
 40
0.0
  9
$DIMTOL
 70
     0
  9
$DIMLIM
 70
     0
  9
$DIMTIH
 70
     1
  9
$DIMTOH
 70
     1
  9
$DIMSE1
 70
     0
  9
$DIMSE2
 70
     0
  9
$DIMTAD
 70
     0
  9
$DIMZIN
 70
     0
  9
$DIMBLK
  1

  9
$DIMASO
 70
     1
  9
$DIMSHO
 70
     1
  9
$DIMPOST
  1

  9
$DIMAPOST
  1

  9
$DIMALT
 70
     0
  9
$DIMALTD
 70
     2
  9
$DIMALTF
 40
25.4
  9
$DIMLFAC
 40
1.0
  9
$DIMTOFL
 70
     0
  9
$DIMTVP
 40
0.0
  9
$DIMTIX
 70
     0
  9
$DIMSOXD
 70
     0
  9
$DIMSAH
 70
     0
  9
$DIMBLK1
  1

  9
$DIMBLK2
  1

  9
$DIMSTYLE
  2
Standard
  9
$DIMCLRD
 70
     0
  9
$DIMCLRE
 70
     0
  9
$DIMCLRT
 70
     0
  9
$DIMTFAC
 40
1.0
  9
$DIMGAP
 40
0.09
  9
$DIMJUST
 70
     0
  9
$DIMSD1
 70
     0
  9
$DIMSD2
 70
     0
  9
$DIMTOLJ
 70
     1
  9
$DIMTZIN
 70
     0
  9
$DIMALTZ
 70
     0
  9
$DIMALTTZ
 70
     0
  9
$DIMUPT
 70
     0
  9
$DIMDEC
 70
     4
  9
$DIMTDEC
 70
     4
  9
$DIMALTU
 70
     2
  9
$DIMALTTD
 70
     2
  9
$DIMTXSTY
  7
Standard
  9
$DIMAUNIT
 70
     0
  9
$DIMADEC
 70
     0
  9
$DIMALTRND
 40
0.0
  9
$DIMAZIN
 70
     0
  9
$DIMDSEP
 70
    46
  9
$DIMATFIT
 70
     3
  9
$DIMFRAC
 70
     0
  9
$DIMLDRBLK
  1

  9
$DIMLUNIT
 70
     2
  9
$DIMLWD
 70
    -2
  9
$DIMLWE
 70
    -2
  9
$DIMTMOVE
 70
     0
  9
$DIMFXL
 40
1.0
  9
$DIMFXLON
 70
     0
  9
$DIMJOGANG
 40
0.7853981633974483
  9
$DIMTFILL
 70
     0
  9
$DIMTFILLCLR
 70
     0
  9
$DIMARCSYM
 70
     0
  9
$DIMLTYPE
  6

  9
$DIMLTEX1
  6

  9
$DIMLTEX2
  6

  9
$DIMTXTDIRECTION
 70
     0
  9
$LUNITS
 70
     2
  9
$LUPREC
 70
     4
  9
$SKETCHINC
 40
0.1
  9
$FILLETRAD
 40
0.5
  9
$AUNITS
 70
     0
  9
$AUPREC
 70
     0
  9
$MENU
  1
.
  9
$ELEVATION
 40
0.0
  9
$PELEVATION
 40
0.0
  9
$THICKNESS
 40
0.0
  9
$LIMCHECK
 70
     0
  9
$CHAMFERA
 40
0.5
  9
$CHAMFERB
 40
0.5
  9
$CHAMFERC
 40
1.0
  9
$CHAMFERD
 40
0.0
  9
$SKPOLY
 70
     0
  9
$TDCREATE
 40
2457917.612291667
  9
$TDUCREATE
 40
2457917.237291667
  9
$TDUPDATE
 40
2457917.612291667
  9
$TDUUPDATE
 40
2457917.237291667
  9
$TDINDWG
 40
0.0000000116
  9
$TDUSRTIMER
 40
0.0000000116
  9
$USRTIMER
 70
     1
  9
$ANGBASE
 50
0.0
  9
$ANGDIR
 70
     0
  9
$PDMODE
 70
     0
  9
$PDSIZE
 40
0.0
  9
$PLINEWID
 40
0.0
  9
$SPLFRAME
 70
     0
  9
$SPLINETYPE
 70
     6
  9
$SPLINESEGS
 70
     8
  9
$HANDSEED
  5
F7
  9
$SURFTAB1
 70
     6
  9
$SURFTAB2
 70
     6
  9
$SURFTYPE
 70
     6
  9
$SURFU
 70
     6
  9
$SURFV
 70
     6
  9
$UCSBASE
  2

  9
$UCSNAME
  2

  9
$UCSORG
 10
0.0
 20
0.0
 30
0.0
  9
$UCSXDIR
 10
1.0
 20
0.0
 30
0.0
  9
$UCSYDIR
 10
0.0
 20
1.0
 30
0.0
  9
$UCSORTHOREF
  2

  9
$UCSORTHOVIEW
 70
     0
  9
$UCSORGTOP
 10
0.0
 20
0.0
 30
0.0
  9
$UCSORGBOTTOM
 10
0.0
 20
0.0
 30
0.0
  9
$UCSORGLEFT
 10
0.0
 20
0.0
 30
0.0
  9
$UCSORGRIGHT
 10
0.0
 20
0.0
 30
0.0
  9
$UCSORGFRONT
 10
0.0
 20
0.0
 30
0.0
  9
$UCSORGBACK
 10
0.0
 20
0.0
 30
0.0
  9
$PUCSBASE
  2

  9
$PUCSNAME
  2

  9
$PUCSORG
 10
0.0
 20
0.0
 30
0.0
  9
$PUCSXDIR
 10
1.0
 20
0.0
 30
0.0
  9
$PUCSYDIR
 10
0.0
 20
1.0
 30
0.0
  9
$PUCSORTHOREF
  2

  9
$PUCSORTHOVIEW
 70
     0
  9
$PUCSORGTOP
 10
0.0
 20
0.0
 30
0.0
  9
$PUCSORGBOTTOM
 10
0.0
 20
0.0
 30
0.0
  9
$PUCSORGLEFT
 10
0.0
 20
0.0
 30
0.0
  9
$PUCSORGRIGHT
 10
0.0
 20
0.0
 30
0.0
  9
$PUCSORGFRONT
 10
0.0
 20
0.0
 30
0.0
  9
$PUCSORGBACK
 10
0.0
 20
0.0
 30
0.0
  9
$USERI1
 70
     0
  9
$USERI2
 70
     0
  9
$USERI3
 70
     0
  9
$USERI4
 70
     0
  9
$USERI5
 70
     0
  9
$USERR1
 40
0.0
  9
$USERR2
 40
0.0
  9
$USERR3
 40
0.0
  9
$USERR4
 40
0.0
  9
$USERR5
 40
0.0
  9
$WORLDVIEW
 70
     1
  9
$SHADEDGE
 70
     3
  9
$SHADEDIF
 70
    70
  9
$TILEMODE
 70
     1
  9
$MAXACTVP
 70
    64
  9
$PINSBASE
 10
0.0
 20
0.0
 30
0.0
  9
$PLIMCHECK
 70
     0
  9
$PEXTMIN
 10
1.000000000000000E+20
 20
1.000000000000000E+20
 30
1.000000000000000E+20
  9
$PEXTMAX
 10
-1.000000000000000E+20
 20
-1.000000000000000E+20
 30
-1.000000000000000E+20
  9
$PLIMMIN
 10
0.0
 20
0.0
  9
$PLIMMAX
 10
12.0
 20
9.0
  9
$UNITMODE
 70
     0
  9
$VISRETAIN
 70
     1
  9
$PLINEGEN
 70
     0
  9
$PSLTSCALE
 70
     1
  9
$TREEDEPTH
 70
  3020
  9
$CMLSTYLE
  2
Standard
  9
$CMLJUST
 70
     0
  9
$CMLSCALE
 40
1.0
  9
$PROXYGRAPHICS
 70
     1
  9
$MEASUREMENT
 70
     0
  9
$CELWEIGHT
370
    -1
  9
$ENDCAPS
280
     0
  9
$JOINSTYLE
280
     0
  9
$LWDISPLAY
290
     1
  9
$INSUNITS
 70
     1
  9
$HYPERLINKBASE
  1

  9
$STYLESHEET
  1

  9
$XEDIT
290
     1
  9
$CEPSNTYPE
380
     0
  9
$PSTYLEMODE
290
     1
  9
$FINGERPRINTGUID
  2
{79F09A7C-F1BF-AFAD-D360-340FC6E568DD}
  9
$VERSIONGUID
  2
{FAEB1C32-E019-11D5-929B-00C0DF256EC4}
  9
$EXTNAMES
290
     1
  9
$PSVPSCALE
 40
0.0
  9
$OLESTARTUP
290
     0
  9
$SORTENTS
280
   127
  9
$INDEXCTL
280
     0
  9
$HIDETEXT
280
     1
  9
$XCLIPFRAME
280
     2
  9
$HALOGAP
280
     0
  9
$OBSCOLOR
 70
   257
  9
$OBSLTYPE
280
     0
  9
$INTERSECTIONDISPLAY
280
     0
  9
$INTERSECTIONCOLOR
 70
   257
  9
$DIMASSOC
280
     2
  9
$PROJECTNAME
  1

  9
$CAMERADISPLAY
290
     0
  9
$LENSLENGTH
 40
50.0
  9
$CAMERAHEIGHT
 40
0.0
  9
$STEPSPERSEC
 40
2.0
  9
$STEPSIZE
 40
6.0
  9
$3DDWFPREC
 40
2.0
  9
$PSOLWIDTH
 40
0.25
  9
$PSOLHEIGHT
 40
4.0
  9
$LOFTANG1
 40
1.570796326794897
  9
$LOFTANG2
 40
1.570796326794897
  9
$LOFTMAG1
 40
0.0
  9
$LOFTMAG2
 40
0.0
  9
$LOFTPARAM
 70
     7
  9
$LOFTNORMALS
280
     1
  9
$LATITUDE
 40
37.795
  9
$LONGITUDE
 40
-122.394
  9
$NORTHDIRECTION
 40
0.0
  9
$TIMEZONE
 70
 -8000
  9
$LIGHTGLYPHDISPLAY
280
     1
  9
$TILEMODELIGHTSYNCH
280
     1
  9
$CMATERIAL
347
3C
  9
$SOLIDHIST
280
     1
  9
$SHOWHIST
280
     1
  9
$DWFFRAME
280
     2
  9
$DGNFRAME
280
     2
  9
$REALWORLDSCALE
290
     1
  9
$INTERFERECOLOR
 62
   256
  9
$CSHADOW
280
     0
  9
$SHADOWPLANELOCATION
 40
0.0
  0
ENDSEC
  0
SECTION
  2
CLASSES
  0
CLASS
  1
ACDBDICTIONARYWDFLT
  2
AcDbDictionaryWithDefault
  3
ObjectDBX Classes
 90
        0
 91
        4
280
     0
281
     0
  0
CLASS
  1
VISUALSTYLE
  2
AcDbVisualStyle
  3
ObjectDBX Classes
 90
     4095
 91
        4
280
     0
281
     0
  0
CLASS
  1
MATERIAL
  2
AcDbMaterial
  3
ObjectDBX Classes
 90
     1153
 91
        4
280
     0
281
     0
  0
CLASS
  1
SUN
  2
AcDbSun
  3
SCENEOE
 90
     1024
 91
        4
280
     0
281
     0
  0
ENDSEC
  0
SECTION
  2
TABLES
  0
TABLE
  2
VPORT
  5
8
330
0
100
AcDbSymbolTable
 70
     1
  0
VPORT
  5
29
330
8
100
AcDbSymbolTableRecord
100
AcDbViewportTableRecord
  2
*Active
 70
     0
 10
0.0
 20
0.0
 11
1.0
 21
1.0
 12
0.0
 22
0.0
 13
0.0
 23
0.0
 14
0.5
 24
0.5
 15
0.5
 25
0.5
 16
0.0
 26
0.0
 36
1.0
 17
91.00082462281999
 27
-128.4993055234307
 37
0.0
 40
256.9986110468615
 41
0.7081814508812795
 42
50.0
 43
0.0
 44
0.0
 50
0.0
 51
0.0
 71
     0
 72
   100
 73
     1
 74
     3
 75
     0
 76
     0
 77
     0
 78
     0
281
     0
 65
     1
110
0.0
120
0.0
130
0.0
111
1.0
121
0.0
131
0.0
112
0.0
122
1.0
132
0.0
 79
     0
146
0.0
 60
     3
 61
     5
292
     1
282
     1
141
0.0
142
0.0
 63
   250
361
3F
  0
ENDTAB
  0
TABLE
  2
LTYPE
  5
5
330
0
100
AcDbSymbolTable
 70
     1
  0
LTYPE
  5
14
330
5
100
AcDbSymbolTableRecord
100
AcDbLinetypeTableRecord
  2
ByBlock
 70
     0
  3

 72
    65
 73
     0
 40
0.0
  0
LTYPE
  5
15
330
5
100
AcDbSymbolTableRecord
100
AcDbLinetypeTableRecord
  2
ByLayer
 70
     0
  3

 72
    65
 73
     0
 40
0.0
  0
LTYPE
  5
16
330
5
100
AcDbSymbolTableRecord
100
AcDbLinetypeTableRecord
  2
Continuous
 70
     0
  3
Solid line
 72
    65
 73
     0
 40
0.0
  0
ENDTAB
  0
TABLE
  2
LAYER
  5
2
330
0
100
AcDbSymbolTable
 70
     2
  0
LAYER
  5
10
330
2
100
AcDbSymbolTableRecord
100
AcDbLayerTableRecord
  2
0
 70
     0
 62
     7
  6
Continuous
370
    -3
390
F
347
3E
  0
LAYER
  5
40
330
2
100
AcDbSymbolTableRecord
100
AcDbLayerTableRecord
  2
_U+30EC_U+30A4_U+30E4_U+30FC 1
 70
     0
 62
     7
  6
Continuous
370
    -3
390
F
347
3E
  0
ENDTAB
  0
TABLE
  2
STYLE
  5
3
330
0
100
AcDbSymbolTable
 70
     1
  0
STYLE
  5
11
330
3
100
AcDbSymbolTableRecord
100
AcDbTextStyleTableRecord
  2
Standard
 70
     0
 40
0.0
 41
1.0
 50
0.0
 71
     0
 42
0.2
  3
txt
  4

  0
ENDTAB
  0
TABLE
  2
VIEW
  5
6
330
0
100
AcDbSymbolTable
 70
     0
  0
ENDTAB
  0
TABLE
  2
UCS
  5
7
330
0
100
AcDbSymbolTable
 70
     0
  0
ENDTAB
  0
TABLE
  2
APPID
  5
9
330
0
100
AcDbSymbolTable
 70
     1
  0
APPID
  5
12
330
9
100
AcDbSymbolTableRecord
100
AcDbRegAppTableRecord
  2
ACAD
 70
     0
  0
ENDTAB
  0
TABLE
  2
DIMSTYLE
  5
A
330
0
100
AcDbSymbolTable
 70
     1
100
AcDbDimStyleTable
  0
DIMSTYLE
105
27
330
A
100
AcDbSymbolTableRecord
100
AcDbDimStyleTableRecord
  2
Standard
 70
     0
178
     0
340
11
  0
ENDTAB
  0
TABLE
  2
BLOCK_RECORD
  5
1
330
0
100
AcDbSymbolTable
 70
    12
  0
BLOCK_RECORD
  5
1F
330
1
100
AcDbSymbolTableRecord
100
AcDbBlockTableRecord
  2
*Model_Space
340
22
 70
     0
280
     1
281
     0
  0
BLOCK_RECORD
  5
1B
330
1
100
AcDbSymbolTableRecord
100
AcDbBlockTableRecord
  2
*Paper_Space
340
1E
 70
     0
280
     1
281
     0
  0
BLOCK_RECORD
  5
23
330
1
100
AcDbSymbolTableRecord
100
AcDbBlockTableRecord
  2
*Paper_Space0
340
26
 70
     0
280
     1
281
     0
  0
BLOCK_RECORD
  5
41
330
1
100
AcDbSymbolTableRecord
100
AcDbBlockTableRecord
  2
block 2
340
0
102
{BLKREFS
331
42
102
}
 70
     0
280
     1
281
     0
  0
BLOCK_RECORD
  5
83
330
1
100
AcDbSymbolTableRecord
100
AcDbBlockTableRecord
  2
block 3
340
0
102
{BLKREFS
331
84
102
}
 70
     0
280
     1
281
     0
  0
BLOCK_RECORD
  5
93
330
1
100
AcDbSymbolTableRecord
100
AcDbBlockTableRecord
  2
block 4
340
0
102
{BLKREFS
331
94
102
}
 70
     0
280
     1
281
     0
  0
BLOCK_RECORD
  5
9C
330
1
100
AcDbSymbolTableRecord
100
AcDbBlockTableRecord
  2
block 5
340
0
102
{BLKREFS
331
9D
102
}
 70
     0
280
     1
281
     0
  0
BLOCK_RECORD
  5
AC
330
1
100
AcDbSymbolTableRecord
100
AcDbBlockTableRecord
  2
block 6
340
0
102
{BLKREFS
331
AD
102
}
 70
     0
280
     1
281
     0
  0
BLOCK_RECORD
  5
B4
330
1
100
AcDbSymbolTableRecord
100
AcDbBlockTableRecord
  2
block 7
340
0
102
{BLKREFS
331
B5
102
}
 70
     0
280
     1
281
     0
  0
BLOCK_RECORD
  5
C8
330
1
100
AcDbSymbolTableRecord
100
AcDbBlockTableRecord
  2
block 8
340
0
102
{BLKREFS
331
C9
102
}
 70
     0
280
     1
281
     0
  0
BLOCK_RECORD
  5
CE
330
1
100
AcDbSymbolTableRecord
100
AcDbBlockTableRecord
  2
block 9
340
0
102
{BLKREFS
331
CF
102
}
 70
     0
280
     1
281
     0
  0
BLOCK_RECORD
  5
DA
330
1
100
AcDbSymbolTableRecord
100
AcDbBlockTableRecord
  2
block 10
340
0
102
{BLKREFS
331
DB
102
}
 70
     0
280
     1
281
     0
  0
BLOCK_RECORD
  5
E0
330
1
100
AcDbSymbolTableRecord
100
AcDbBlockTableRecord
  2
block 11
340
0
102
{BLKREFS
331
E1
102
}
 70
     0
280
     1
281
     0
  0
BLOCK_RECORD
  5
EC
330
1
100
AcDbSymbolTableRecord
100
AcDbBlockTableRecord
  2
block 12
340
0
102
{BLKREFS
331
ED
102
}
 70
     0
280
     1
281
     0
  0
ENDTAB
  0
ENDSEC
  0
SECTION
  2
BLOCKS
  0
BLOCK
  5
20
330
1F
100
AcDbEntity
  8
0
100
AcDbBlockBegin
  2
*Model_Space
 70
     0
 10
0.0
 20
0.0
 30
0.0
  3
*Model_Space
  1

  0
ENDBLK
  5
21
330
1F
100
AcDbEntity
  8
0
100
AcDbBlockEnd
  0
BLOCK
  5
1C
330
1B
100
AcDbEntity
 67
     1
  8
0
100
AcDbBlockBegin
  2
*Paper_Space
 70
     0
 10
0.0
 20
0.0
 30
0.0
  3
*Paper_Space
  1

  0
ENDBLK
  5
1D
330
1B
100
AcDbEntity
 67
     1
  8
0
100
AcDbBlockEnd
  0
BLOCK
  5
24
330
23
100
AcDbEntity
  8
0
100
AcDbBlockBegin
  2
*Paper_Space0
 70
     0
 10
0.0
 20
0.0
 30
0.0
  3
*Paper_Space0
  1

  0
ENDBLK
  5
25
330
23
100
AcDbEntity
  8
0
100
AcDbBlockEnd
  0
BLOCK
  5
43
330
41
100
AcDbEntity
  8
0
100
AcDbBlockBegin
  2
block 2
 70
     0
 10
0.0
 20
0.0
 30
0.0
  3
block 2
  1

  0
POLYLINE
  5
45
330
41
100
AcDbEntity
  8
_U+30EC_U+30A4_U+30E4_U+30FC 1
370
     0
100
AcDb2dPolyline
 66
     1
 10
0.0
 20
0.0
 30
0.0
  0
VERTEX
  5
46
330
45
100
AcDbEntity
  8
_U+30EC_U+30A4_U+30E4_U+30FC 1
370
     0
100
AcDbVertex
100
AcDb2dVertex
 10
73.30266951878198
 20
-136.9397960768765
 30
0.0
  0
VERTEX
  5
47
330
45
100
AcDbEntity
  8
_U+30EC_U+30A4_U+30E4_U+30FC 1
370
     0
100
AcDbVertex
100
AcDb2dVertex
 10
83.3024023192231
 20
-136.9397960768765
 30
0.0
  0
VERTEX
  5
48
330
45
100
AcDbEntity
  8
_U+30EC_U+30A4_U+30E4_U+30FC 1
370
     0
100
AcDbVertex
100
AcDb2dVertex
 10
83.3024023192231
 20
-133.9398091331815
 30
0.0
  0
VERTEX
  5
49
330
45
100
AcDbEntity
  8
_U+30EC_U+30A4_U+30E4_U+30FC 1
370
     0
100
AcDbVertex
100
AcDb2dVertex
 10
82.3026301225072
 20
-133.9398091331815
 30
0.0
  0
VERTEX
  5
4A
330
45
100
AcDbEntity
  8
_U+30EC_U+30A4_U+30E4_U+30FC 1
370
     0
100
AcDbVertex
100
AcDb2dVertex
 10
82.3026301225072
 20
-135.9393182993484
 30
0.0
  0
VERTEX
  5
4B
330
45
100
AcDbEntity
  8
_U+30EC_U+30A4_U+30E4_U+30FC 1
370
     0
100
AcDbVertex
100
AcDb2dVertex
 10
74.30244171549789
 20
-135.9393182993484
 30
0.0
  0
VERTEX
  5
4C
330
45
100
AcDbEntity
  8
_U+30EC_U+30A4_U+30E4_U+30FC 1
370
     0
100
AcDbVertex
100
AcDb2dVertex
 10
74.30244171549789
 20
-123.9400760801262
 30
0.0
  0
VERTEX
  5
4D
330
45
100
AcDbEntity
  8
_U+30EC_U+30A4_U+30E4_U+30FC 1
370
     0
100
AcDbVertex
100
AcDb2dVertex
 10
98.30304221430268
 20
-123.9400760801262
 30
0.0
  0
VERTEX
  5
4E
330
45
100
AcDbEntity
  8
_U+30EC_U+30A4_U+30E4_U+30FC 1
370
     0
100
AcDbVertex
100
AcDb2dVertex
 10
98.30304221430268
 20
-122.9403038581537
 30
0.0
  0
VERTEX
  5
4F
330
45
100
AcDbEntity
  8
_U+30EC_U+30A4_U+30E4_U+30FC 1
370
     0
100
AcDbVertex
100
AcDb2dVertex
 10
73.30266951878198
 20
-122.9403038581537
 30
0.0
  0
VERTEX
  5
50
330
45
100
AcDbEntity
  8
_U+30EC_U+30A4_U+30E4_U+30FC 1
370
     0
100
AcDbVertex
100
AcDb2dVertex
 10
73.30266951878198
 20
-136.9397960768765
 30
0.0
  0
SEQEND
  5
52
330
45
100
AcDbEntity
  8
_U+30EC_U+30A4_U+30E4_U+30FC 1
370
     0
  0
HATCH
  5
51
330
41
100
AcDbEntity
  8
_U+30EC_U+30A4_U+30E4_U+30FC 1
 62
     9
420
 13224394
100
AcDbHatch
 10
0.0
 20
0.0
 30
0.0
210
0.0
220
0.0
230
1.0
  2
SOLID
 70
     1
 71
     0
 91
        1
 92
        1
 93
       10
 72
     1
 10
73.30266951878198
 20
-136.9397960768765
 11
83.3024023192231
 21
-136.9397960768765
 72
     1
 10
83.3024023192231
 20
-136.9397960768765
 11
83.3024023192231
 21
-133.9398091331815
 72
     1
 10
83.3024023192231
 20
-133.9398091331815
 11
82.3026301225072
 21
-133.9398091331815
 72
     1
 10
82.3026301225072
 20
-133.9398091331815
 11
82.3026301225072
 21
-135.9393182993484
 72
     1
 10
82.3026301225072
 20
-135.9393182993484
 11
74.30244171549789
 21
-135.9393182993484
 72
     1
 10
74.30244171549789
 20
-135.9393182993484
 11
74.30244171549789
 21
-123.9400760801262
 72
     1
 10
74.30244171549789
 20
-123.9400760801262
 11
98.30304221430268
 21
-123.9400760801262
 72
     1
 10
98.30304221430268
 20
-123.9400760801262
 11
98.30304221430268
 21
-122.9403038581537
 72
     1
 10
98.30304221430268
 20
-122.9403038581537
 11
73.30266951878198
 21
-122.9403038581537
 72
     1
 10
73.30266951878198
 20
-122.9403038581537
 11
73.30266951878198
 21
-136.9397960768765
 97
        0
 75
     2
 76
     1
 98
        0
  0
POLYLINE
  5
53
330
41
100
AcDbEntity
  8
_U+30EC_U+30A4_U+30E4_U+30FC 1
 62
   179
420
  2234388
370
    25
100
AcDb2dPolyline
 66
     1
 10
0.0
 20
0.0
 30
0.0
  0
VERTEX
  5
54
330
53
100
AcDbEntity
  8
_U+30EC_U+30A4_U+30E4_U+30FC 1
 62
   179
420
  2234388
370
    25
100
AcDbVertex
100
AcDb2dVertex
 10
73.30266951878198
 20
-122.9403038581537
 30
0.0
  0
VERTEX
  5
55
330
53
100
AcDbEntity
  8
_U+30EC_U+30A4_U+30E4_U+30FC 1
 62
   179
420
  2234388
370
    25
100
AcDbVertex
100
AcDb2dVertex
 10
98.30233665876513
 20
-122.9403038581537
 30
0.0
  0
SEQEND
  5
56
330
53
100
AcDbEntity
  8
_U+30EC_U+30A4_U+30E4_U+30FC 1
 62
   179
420
  2234388
370
    25
  0
POLYLINE
  5
57
330
41
100
AcDbEntity
  8
_U+30EC_U+30A4_U+30E4_U+30FC 1
 62
   179
420
  2234388
370
    25
100
AcDb2dPolyline
 66
     1
 10
0.0
 20
0.0
 30
0.0
  0
VERTEX
  5
58
330
57
100
AcDbEntity
  8
_U+30EC_U+30A4_U+30E4_U+30FC 1
 62
   179
420
  2234388
370
    25
100
AcDbVertex
100
AcDb2dVertex
 10
73.30266951878198
 20
-122.9403038581537
 30
0.0
  0
VERTEX
  5
59
330
57
100
AcDbEntity
  8
_U+30EC_U+30A4_U+30E4_U+30FC 1
 62
   179
420
  2234388
370
    25
100
AcDbVertex
100
AcDb2dVertex
 10
73.30266951878198
 20
-136.9397960768765
 30
0.0
  0
SEQEND
  5
5A
330
57
100
AcDbEntity
  8
_U+30EC_U+30A4_U+30E4_U+30FC 1
 62
   179
420
  2234388
370
    25
  0
POLYLINE
  5
5B
330
41
100
AcDbEntity
  8
_U+30EC_U+30A4_U+30E4_U+30FC 1
 62
   179
420
  2234388
370
    25
100
AcDb2dPolyline
 66
     1
 10
0.0
 20
0.0
 30
0.0
  0
VERTEX
  5
5C
330
5B
100
AcDbEntity
  8
_U+30EC_U+30A4_U+30E4_U+30FC 1
 62
   179
420
  2234388
370
    25
100
AcDbVertex
100
AcDb2dVertex
 10
98.30233665876513
 20
-122.9403038581537
 30
0.0
  0
VERTEX
  5
5D
330
5B
100
AcDbEntity
  8
_U+30EC_U+30A4_U+30E4_U+30FC 1
 62
   179
420
  2234388
370
    25
100
AcDbVertex
100
AcDb2dVertex
 10
98.30233665876513
 20
-123.9400760801262
 30
0.0
  0
SEQEND
  5
5E
330
5B
100
AcDbEntity
  8
_U+30EC_U+30A4_U+30E4_U+30FC 1
 62
   179
420
  2234388
370
    25
  0
POLYLINE
  5
5F
330
41
100
AcDbEntity
  8
_U+30EC_U+30A4_U+30E4_U+30FC 1
 62
   179
420
  2234388
370
    25
100
AcDb2dPolyline
 66
     1
 10
0.0
 20
0.0
 30
0.0
  0
VERTEX
  5
60
330
5F
100
AcDbEntity
  8
_U+30EC_U+30A4_U+30E4_U+30FC 1
 62
   179
420
  2234388
370
    25
100
AcDbVertex
100
AcDb2dVertex
 10
74.30244171549789
 20
-123.9400760801262
 30
0.0
  0
VERTEX
  5
61
330
5F
100
AcDbEntity
  8
_U+30EC_U+30A4_U+30E4_U+30FC 1
 62
   179
420
  2234388
370
    25
100
AcDbVertex
100
AcDb2dVertex
 10
98.30233665876513
 20
-123.9400760801262
 30
0.0
  0
SEQEND
  5
62
330
5F
100
AcDbEntity
  8
_U+30EC_U+30A4_U+30E4_U+30FC 1
 62
   179
420
  2234388
370
    25
  0
POLYLINE
  5
63
330
41
100
AcDbEntity
  8
_U+30EC_U+30A4_U+30E4_U+30FC 1
 62
   179
420
  2234388
370
    25
100
AcDb2dPolyline
 66
     1
 10
0.0
 20
0.0
 30
0.0
  0
VERTEX
  5
64
330
63
100
AcDbEntity
  8
_U+30EC_U+30A4_U+30E4_U+30FC 1
 62
   179
420
  2234388
370
    25
100
AcDbVertex
100
AcDb2dVertex
 10
83.3024023192231
 20
-133.9398091331815
 30
0.0
  0
VERTEX
  5
65
330
63
100
AcDbEntity
  8
_U+30EC_U+30A4_U+30E4_U+30FC 1
 62
   179
420
  2234388
370
    25
100
AcDbVertex
100
AcDb2dVertex
 10
83.3024023192231
 20
-136.9397960768765
 30
0.0
  0
SEQEND
  5
66
330
63
100
AcDbEntity
  8
_U+30EC_U+30A4_U+30E4_U+30FC 1
 62
   179
420
  2234388
370
    25
  0
POLYLINE
  5
67
330
41
100
AcDbEntity
  8
_U+30EC_U+30A4_U+30E4_U+30FC 1
 62
   179
420
  2234388
370
    25
100
AcDb2dPolyline
 66
     1
 10
0.0
 20
0.0
 30
0.0
  0
VERTEX
  5
68
330
67
100
AcDbEntity
  8
_U+30EC_U+30A4_U+30E4_U+30FC 1
 62
   179
420
  2234388
370
    25
100
AcDbVertex
100
AcDb2dVertex
 10
82.3026301225072
 20
-133.9398091331815
 30
0.0
  0
VERTEX
  5
69
330
67
100
AcDbEntity
  8
_U+30EC_U+30A4_U+30E4_U+30FC 1
 62
   179
420
  2234388
370
    25
100
AcDbVertex
100
AcDb2dVertex
 10
82.3026301225072
 20
-135.9393182993484
 30
0.0
  0
SEQEND
  5
6A
330
67
100
AcDbEntity
  8
_U+30EC_U+30A4_U+30E4_U+30FC 1
 62
   179
420
  2234388
370
    25
  0
POLYLINE
  5
6B
330
41
100
AcDbEntity
  8
_U+30EC_U+30A4_U+30E4_U+30FC 1
 62
   179
420
  2234388
370
    25
100
AcDb2dPolyline
 66
     1
 10
0.0
 20
0.0
 30
0.0
  0
VERTEX
  5
6C
330
6B
100
AcDbEntity
  8
_U+30EC_U+30A4_U+30E4_U+30FC 1
 62
   179
420
  2234388
370
    25
100
AcDbVertex
100
AcDb2dVertex
 10
74.30244171549789
 20
-123.9400760801262
 30
0.0
  0
VERTEX
  5
6D
330
6B
100
AcDbEntity
  8
_U+30EC_U+30A4_U+30E4_U+30FC 1
 62
   179
420
  2234388
370
    25
100
AcDbVertex
100
AcDb2dVertex
 10
74.30244171549789
 20
-135.9393182993484
 30
0.0
  0
SEQEND
  5
6E
330
6B
100
AcDbEntity
  8
_U+30EC_U+30A4_U+30E4_U+30FC 1
 62
   179
420
  2234388
370
    25
  0
POLYLINE
  5
6F
330
41
100
AcDbEntity
  8
_U+30EC_U+30A4_U+30E4_U+30FC 1
 62
   179
420
  2234388
370
    25
100
AcDb2dPolyline
 66
     1
 10
0.0
 20
0.0
 30
0.0
  0
VERTEX
  5
70
330
6F
100
AcDbEntity
  8
_U+30EC_U+30A4_U+30E4_U+30FC 1
 62
   179
420
  2234388
370
    25
100
AcDbVertex
100
AcDb2dVertex
 10
82.3026301225072
 20
-133.9398091331815
 30
0.0
  0
VERTEX
  5
71
330
6F
100
AcDbEntity
  8
_U+30EC_U+30A4_U+30E4_U+30FC 1
 62
   179
420
  2234388
370
    25
100
AcDbVertex
100
AcDb2dVertex
 10
83.3024023192231
 20
-133.9398091331815
 30
0.0
  0
SEQEND
  5
72
330
6F
100
AcDbEntity
  8
_U+30EC_U+30A4_U+30E4_U+30FC 1
 62
   179
420
  2234388
370
    25
  0
POLYLINE
  5
73
330
41
100
AcDbEntity
  8
_U+30EC_U+30A4_U+30E4_U+30FC 1
 62
   179
420
  2234388
370
    25
100
AcDb2dPolyline
 66
     1
 10
0.0
 20
0.0
 30
0.0
  0
VERTEX
  5
74
330
73
100
AcDbEntity
  8
_U+30EC_U+30A4_U+30E4_U+30FC 1
 62
   179
420
  2234388
370
    25
100
AcDbVertex
100
AcDb2dVertex
 10
73.30266951878198
 20
-136.9397960768765
 30
0.0
  0
VERTEX
  5
75
330
73
100
AcDbEntity
  8
_U+30EC_U+30A4_U+30E4_U+30FC 1
 62
   179
420
  2234388
370
    25
100
AcDbVertex
100
AcDb2dVertex
 10
83.3024023192231
 20
-136.9397960768765
 30
0.0
  0
SEQEND
  5
76
330
73
100
AcDbEntity
  8
_U+30EC_U+30A4_U+30E4_U+30FC 1
 62
   179
420
  2234388
370
    25
  0
POLYLINE
  5
77
330
41
100
AcDbEntity
  8
_U+30EC_U+30A4_U+30E4_U+30FC 1
 62
   179
420
  2234388
370
    25
100
AcDb2dPolyline
 66
     1
 10
0.0
 20
0.0
 30
0.0
  0
VERTEX
  5
78
330
77
100
AcDbEntity
  8
_U+30EC_U+30A4_U+30E4_U+30FC 1
 62
   179
420
  2234388
370
    25
100
AcDbVertex
100
AcDb2dVertex
 10
74.30244171549789
 20
-135.9393182993484
 30
0.0
  0
VERTEX
  5
79
330
77
100
AcDbEntity
  8
_U+30EC_U+30A4_U+30E4_U+30FC 1
 62
   179
420
  2234388
370
    25
100
AcDbVertex
100
AcDb2dVertex
 10
82.3026301225072
 20
-135.9393182993484
 30
0.0
  0
SEQEND
  5
7A
330
77
100
AcDbEntity
  8
_U+30EC_U+30A4_U+30E4_U+30FC 1
 62
   179
420
  2234388
370
    25
  0
SPLINE
  5
7B
330
41
100
AcDbEntity
  8
_U+30EC_U+30A4_U+30E4_U+30FC 1
 62
   179
420
  2234388
370
     9
100
AcDbSpline
210
0.0
220
0.0
230
1.0
 70
    11
 71
     3
 72
    17
 73
    13
 74
     0
 42
0.0000000001
 43
0.0000000001
 12
1.0
 22
0.0
 32
0.0
 13
1.0
 23
0.0
 33
0.0
 40
0.0
 40
0.0
 40
0.0
 40
0.0
 40
1.0
 40
1.0
 40
1.0
 40
2.0
 40
2.0
 40
2.0
 40
3.0
 40
3.0
 40
3.0
 40
4.0
 40
4.0
 40
4.0
 40
4.0
 10
73.40257618289982
 20
-118.9398391369316
 30
0.0
 10
73.40257618289982
 20
-118.8847352480567
 30
0.0
 10
73.35780868404194
 20
-118.83993247029
 30
0.0
 10
73.30266951878198
 20
-118.83993247029
 30
0.0
 10
73.24756563129891
 20
-118.83993247029
 30
0.0
 10
73.20276285466416
 20
-118.8847352480567
 30
0.0
 10
73.20276285466416
 20
-118.9398391369316
 30
0.0
 10
73.20276285466416
 20
-118.9956485813621
 30
0.0
 10
73.24756563129891
 20
-119.0404513591288
 30
0.0
 10
73.30266951878198
 20
-119.0404513591288
 30
0.0
 10
73.35780868404194
 20
-119.0404513591288
 30
0.0
 10
73.40257618289982
 20
-118.9956485813621
 30
0.0
 10
73.40257618289982
 20
-118.9398391369316
 30
0.0
  0
SPLINE
  5
7C
330
41
100
AcDbEntity
  8
_U+30EC_U+30A4_U+30E4_U+30FC 1
 62
   179
420
  2234388
370
     9
100
AcDbSpline
210
0.0
220
0.0
230
1.0
 70
    11
 71
     3
 72
    17
 73
    13
 74
     0
 42
0.0000000001
 43
0.0000000001
 12
1.0
 22
0.0
 32
0.0
 13
1.0
 23
0.0
 33
0.0
 40
0.0
 40
0.0
 40
0.0
 40
0.0
 40
1.0
 40
1.0
 40
1.0
 40
2.0
 40
2.0
 40
2.0
 40
3.0
 40
3.0
 40
3.0
 40
4.0
 40
4.0
 40
4.0
 40
4.0
 10
98.40224332288295
 20
-118.9398391369316
 30
0.0
 10
98.40224332288295
 20
-118.8847352480567
 30
0.0
 10
98.35747582402507
 20
-118.83993247029
 30
0.0
 10
98.30233665876513
 20
-118.83993247029
 30
0.0
 10
98.24723277128206
 20
-118.83993247029
 30
0.0
 10
98.20242999464729
 20
-118.8847352480567
 30
0.0
 10
98.20242999464729
 20
-118.9398391369316
 30
0.0
 10
98.20242999464729
 20
-118.9956485813621
 30
0.0
 10
98.24723277128206
 20
-119.0404513591288
 30
0.0
 10
98.30233665876513
 20
-119.0404513591288
 30
0.0
 10
98.35747582402507
 20
-119.0404513591288
 30
0.0
 10
98.40224332288295
 20
-118.9956485813621
 30
0.0
 10
98.40224332288295
 20
-118.9398391369316
 30
0.0
  0
SPLINE
  5
7D
330
41
100
AcDbEntity
  8
_U+30EC_U+30A4_U+30E4_U+30FC 1
 62
   179
420
  2234388
370
     9
100
AcDbSpline
210
0.0
220
0.0
230
1.0
 70
    11
 71
     3
 72
    17
 73
    13
 74
     0
 42
0.0000000001
 43
0.0000000001
 12
1.0
 22
0.0
 32
0.0
 13
1.0
 23
0.0
 33
0.0
 40
0.0
 40
0.0
 40
0.0
 40
0.0
 40
1.0
 40
1.0
 40
1.0
 40
2.0
 40
2.0
 40
2.0
 40
3.0
 40
3.0
 40
3.0
 40
4.0
 40
4.0
 40
4.0
 40
4.0
 10
102.4027079430448
 20
-122.9403038581537
 30
0.0
 10
102.4027079430448
 20
-122.8851646915009
 30
0.0
 10
102.3579051664101
 20
-122.8403971915121
 30
0.0
 10
102.3020957233894
 20
-122.8403971915121
 30
0.0
 10
102.246994418883
 20
-122.8403971915121
 30
0.0
 10
102.2021916411162
 20
-122.8851646915009
 30
0.0
 10
102.2021916411162
 20
-122.9403038581537
 30
0.0
 10
102.2021916411162
 20
-122.9954077470289
 30
0.0
 10
102.246994418883
 20
-123.0402105247957
 30
0.0
 10
102.3020957233894
 20
-123.0402105247957
 30
0.0
 10
102.3579051664101
 20
-123.0402105247957
 30
0.0
 10
102.4027079430448
 20
-122.9954077470289
 30
0.0
 10
102.4027079430448
 20
-122.9403038581537
 30
0.0
  0
SPLINE
  5
7E
330
41
100
AcDbEntity
  8
_U+30EC_U+30A4_U+30E4_U+30FC 1
 62
   179
420
  2234388
370
     9
100
AcDbSpline
210
0.0
220
0.0
230
1.0
 70
    11
 71
     3
 72
    17
 73
    13
 74
     0
 42
0.0000000001
 43
0.0000000001
 12
1.0
 22
0.0
 32
0.0
 13
1.0
 23
0.0
 33
0.0
 40
0.0
 40
0.0
 40
0.0
 40
0.0
 40
1.0
 40
1.0
 40
1.0
 40
2.0
 40
2.0
 40
2.0
 40
3.0
 40
3.0
 40
3.0
 40
4.0
 40
4.0
 40
4.0
 40
4.0
 10
102.4027079430448
 20
-123.9400760801262
 30
0.0
 10
102.4027079430448
 20
-123.8849369134732
 30
0.0
 10
102.3579051664101
 20
-123.8401694134843
 30
0.0
 10
102.3020957233894
 20
-123.8401694134843
 30
0.0
 10
102.246994418883
 20
-123.8401694134843
 30
0.0
 10
102.2021916411162
 20
-123.8849369134732
 30
0.0
 10
102.2021916411162
 20
-123.9400760801262
 30
0.0
 10
102.2021916411162
 20
-123.9951799690012
 30
0.0
 10
102.246994418883
 20
-124.0399827467679
 30
0.0
 10
102.3020957233894
 20
-124.0399827467679
 30
0.0
 10
102.3579051664101
 20
-124.0399827467679
 30
0.0
 10
102.4027079430448
 20
-123.9951799690012
 30
0.0
 10
102.4027079430448
 20
-123.9400760801262
 30
0.0
  0
SPLINE
  5
7F
330
41
100
AcDbEntity
  8
_U+30EC_U+30A4_U+30E4_U+30FC 1
 62
   179
420
  2234388
370
     9
100
AcDbSpline
210
0.0
220
0.0
230
1.0
 70
    11
 71
     3
 72
    17
 73
    13
 74
     0
 42
0.0000000001
 43
0.0000000001
 12
1.0
 22
0.0
 32
0.0
 13
1.0
 23
0.0
 33
0.0
 40
0.0
 40
0.0
 40
0.0
 40
0.0
 40
1.0
 40
1.0
 40
1.0
 40
2.0
 40
2.0
 40
2.0
 40
3.0
 40
3.0
 40
3.0
 40
4.0
 40
4.0
 40
4.0
 40
4.0
 10
102.4027079430448
 20
-133.9398091331815
 30
0.0
 10
102.4027079430448
 20
-133.8846699665291
 30
0.0
 10
102.3579051664101
 20
-133.8399024665399
 30
0.0
 10
102.3020957233894
 20
-133.8399024665399
 30
0.0
 10
102.246994418883
 20
-133.8399024665399
 30
0.0
 10
102.2021916411162
 20
-133.8846699665291
 30
0.0
 10
102.2021916411162
 20
-133.9398091331815
 30
0.0
 10
102.2021916411162
 20
-133.9949130220571
 30
0.0
 10
102.246994418883
 20
-134.0397157998231
 30
0.0
 10
102.3020957233894
 20
-134.0397157998231
 30
0.0
 10
102.3579051664101
 20
-134.0397157998231
 30
0.0
 10
102.4027079430448
 20
-133.9949130220571
 30
0.0
 10
102.4027079430448
 20
-133.9398091331815
 30
0.0
  0
SPLINE
  5
80
330
41
100
AcDbEntity
  8
_U+30EC_U+30A4_U+30E4_U+30FC 1
 62
   179
420
  2234388
370
     9
100
AcDbSpline
210
0.0
220
0.0
230
1.0
 70
    11
 71
     3
 72
    17
 73
    13
 74
     0
 42
0.0000000001
 43
0.0000000001
 12
1.0
 22
0.0
 32
0.0
 13
1.0
 23
0.0
 33
0.0
 40
0.0
 40
0.0
 40
0.0
 40
0.0
 40
1.0
 40
1.0
 40
1.0
 40
2.0
 40
2.0
 40
2.0
 40
3.0
 40
3.0
 40
3.0
 40
4.0
 40
4.0
 40
4.0
 40
4.0
 10
102.4027079430448
 20
-136.9397960768765
 30
0.0
 10
102.4027079430448
 20
-136.8846569102234
 30
0.0
 10
102.3579051664101
 20
-136.8398894102342
 30
0.0
 10
102.3020957233894
 20
-136.8398894102342
 30
0.0
 10
102.246994418883
 20
-136.8398894102342
 30
0.0
 10
102.2021916411162
 20
-136.8846569102234
 30
0.0
 10
102.2021916411162
 20
-136.9397960768765
 30
0.0
 10
102.2021916411162
 20
-136.9948999657514
 30
0.0
 10
102.246994418883
 20
-137.0397027435181
 30
0.0
 10
102.3020957233894
 20
-137.0397027435181
 30
0.0
 10
102.3579051664101
 20
-137.0397027435181
 30
0.0
 10
102.4027079430448
 20
-136.9948999657514
 30
0.0
 10
102.4027079430448
 20
-136.9397960768765
 30
0.0
  0
SPLINE
  5
81
330
41
100
AcDbEntity
  8
_U+30EC_U+30A4_U+30E4_U+30FC 1
 62
   179
420
  2234388
370
     9
100
AcDbSpline
210
0.0
220
0.0
230
1.0
 70
    11
 71
     3
 72
    17
 73
    13
 74
     0
 42
0.0000000001
 43
0.0000000001
 12
1.0
 22
0.0
 32
0.0
 13
1.0
 23
0.0
 33
0.0
 40
0.0
 40
0.0
 40
0.0
 40
0.0
 40
1.0
 40
1.0
 40
1.0
 40
2.0
 40
2.0
 40
2.0
 40
3.0
 40
3.0
 40
3.0
 40
4.0
 40
4.0
 40
4.0
 40
4.0
 10
83.4023110902606
 20
-140.9402255203207
 30
0.0
 10
83.4023110902606
 20
-140.8851216314452
 30
0.0
 10
83.35754148448305
 20
-140.8403188536791
 30
0.0
 10
83.3024023192231
 20
-140.8403188536791
 30
0.0
 10
83.24729843174003
 20
-140.8403188536791
 30
0.0
 10
83.20249565510527
 20
-140.8851216314452
 30
0.0
 10
83.20249565510527
 20
-140.9402255203207
 30
0.0
 10
83.20249565510527
 20
-140.9953646869732
 30
0.0
 10
83.24729843174003
 20
-141.0401321869624
 30
0.0
 10
83.3024023192231
 20
-141.0401321869624
 30
0.0
 10
83.35754148448305
 20
-141.0401321869624
 30
0.0
 10
83.4023110902606
 20
-140.9953646869732
 30
0.0
 10
83.4023110902606
 20
-140.9402255203207
 30
0.0
  0
SPLINE
  5
82
330
41
100
AcDbEntity
  8
_U+30EC_U+30A4_U+30E4_U+30FC 1
 62
   179
420
  2234388
370
     9
100
AcDbSpline
210
0.0
220
0.0
230
1.0
 70
    11
 71
     3
 72
    17
 73
    13
 74
     0
 42
0.0000000001
 43
0.0000000001
 12
1.0
 22
0.0
 32
0.0
 13
1.0
 23
0.0
 33
0.0
 40
0.0
 40
0.0
 40
0.0
 40
0.0
 40
1.0
 40
1.0
 40
1.0
 40
2.0
 40
2.0
 40
2.0
 40
3.0
 40
3.0
 40
3.0
 40
4.0
 40
4.0
 40
4.0
 40
4.0
 10
73.40257618289982
 20
-140.9402255203207
 30
0.0
 10
73.40257618289982
 20
-140.8851216314452
 30
0.0
 10
73.35780868404194
 20
-140.8403188536791
 30
0.0
 10
73.30266951878198
 20
-140.8403188536791
 30
0.0
 10
73.24756563129891
 20
-140.8403188536791
 30
0.0
 10
73.20276285466416
 20
-140.8851216314452
 30
0.0
 10
73.20276285466416
 20
-140.9402255203207
 30
0.0
 10
73.20276285466416
 20
-140.9953646869732
 30
0.0
 10
73.24756563129891
 20
-141.0401321869624
 30
0.0
 10
73.30266951878198
 20
-141.0401321869624
 30
0.0
 10
73.35780868404194
 20
-141.0401321869624
 30
0.0
 10
73.40257618289982
 20
-140.9953646869732
 30
0.0
 10
73.40257618289982
 20
-140.9402255203207
 30
0.0
  0
INSERT
  5
84
330
41
100
AcDbEntity
  8
_U+30EC_U+30A4_U+30E4_U+30FC 1
100
AcDbBlockReference
  2
block 3
 10
0.0
 20
0.0
 30
0.0
  0
INSERT
  5
9D
330
41
100
AcDbEntity
  8
_U+30EC_U+30A4_U+30E4_U+30FC 1
100
AcDbBlockReference
  2
block 5
 10
0.0
 20
0.0
 30
0.0
  0
INSERT
  5
B5
330
41
100
AcDbEntity
  8
_U+30EC_U+30A4_U+30E4_U+30FC 1
100
AcDbBlockReference
  2
block 7
 10
0.0
 20
0.0
 30
0.0
  0
INSERT
  5
CF
330
41
100
AcDbEntity
  8
_U+30EC_U+30A4_U+30E4_U+30FC 1
100
AcDbBlockReference
  2
block 9
 10
0.0
 20
0.0
 30
0.0
  0
INSERT
  5
E1
330
41
100
AcDbEntity
  8
_U+30EC_U+30A4_U+30E4_U+30FC 1
100
AcDbBlockReference
  2
block 11
 10
0.0
 20
0.0
 30
0.0
  0
ENDBLK
  5
44
330
41
100
AcDbEntity
  8
0
100
AcDbBlockEnd
  0
BLOCK
  5
85
330
83
100
AcDbEntity
  8
0
100
AcDbBlockBegin
  2
block 3
 70
     0
 10
0.0
 20
0.0
 30
0.0
  3
block 3
  1

  0
POLYLINE
  5
87
330
83
100
AcDbEntity
  8
_U+30EC_U+30A4_U+30E4_U+30FC 1
 62
   179
420
  2234388
370
     9
100
AcDb2dPolyline
 66
     1
 10
0.0
 20
0.0
 30
0.0
  0
VERTEX
  5
88
330
87
100
AcDbEntity
  8
_U+30EC_U+30A4_U+30E4_U+30FC 1
 62
   179
420
  2234388
370
     9
100
AcDbVertex
100
AcDb2dVertex
 10
73.30266951878198
 20
-140.9402255203207
 30
0.0
  0
VERTEX
  5
89
330
87
100
AcDbEntity
  8
_U+30EC_U+30A4_U+30E4_U+30FC 1
 62
   179
420
  2234388
370
     9
100
AcDbVertex
100
AcDb2dVertex
 10
83.3024023192231
 20
-140.9402255203207
 30
0.0
  0
SEQEND
  5
8A
330
87
100
AcDbEntity
  8
_U+30EC_U+30A4_U+30E4_U+30FC 1
 62
   179
420
  2234388
370
     9
  0
POLYLINE
  5
8B
330
83
100
AcDbEntity
  8
_U+30EC_U+30A4_U+30E4_U+30FC 1
 62
   179
420
  2234388
370
     9
100
AcDb2dPolyline
 66
     1
 10
0.0
 20
0.0
 30
0.0
  0
VERTEX
  5
8C
330
8B
100
AcDbEntity
  8
_U+30EC_U+30A4_U+30E4_U+30FC 1
 62
   179
420
  2234388
370
     9
100
AcDbVertex
100
AcDb2dVertex
 10
73.30266951878198
 20
-139.4802194095745
 30
0.0
  0
VERTEX
  5
8D
330
8B
100
AcDbEntity
  8
_U+30EC_U+30A4_U+30E4_U+30FC 1
 62
   179
420
  2234388
370
     9
100
AcDbVertex
100
AcDb2dVertex
 10
73.30266951878198
 20
-141.9399977422926
 30
0.0
  0
SEQEND
  5
8E
330
8B
100
AcDbEntity
  8
_U+30EC_U+30A4_U+30E4_U+30FC 1
 62
   179
420
  2234388
370
     9
  0
POLYLINE
  5
8F
330
83
100
AcDbEntity
  8
_U+30EC_U+30A4_U+30E4_U+30FC 1
 62
   179
420
  2234388
370
     9
100
AcDb2dPolyline
 66
     1
 10
0.0
 20
0.0
 30
0.0
  0
VERTEX
  5
90
330
8F
100
AcDbEntity
  8
_U+30EC_U+30A4_U+30E4_U+30FC 1
 62
   179
420
  2234388
370
     9
100
AcDbVertex
100
AcDb2dVertex
 10
83.3024023192231
 20
-139.4802194095745
 30
0.0
  0
VERTEX
  5
91
330
8F
100
AcDbEntity
  8
_U+30EC_U+30A4_U+30E4_U+30FC 1
 62
   179
420
  2234388
370
     9
100
AcDbVertex
100
AcDb2dVertex
 10
83.3024023192231
 20
-141.9399977422926
 30
0.0
  0
SEQEND
  5
92
330
8F
100
AcDbEntity
  8
_U+30EC_U+30A4_U+30E4_U+30FC 1
 62
   179
420
  2234388
370
     9
  0
INSERT
  5
94
330
83
100
AcDbEntity
  8
_U+30EC_U+30A4_U+30E4_U+30FC 1
100
AcDbBlockReference
  2
block 4
 10
0.0
 20
0.0
 30
0.0
  0
ENDBLK
  5
86
330
83
100
AcDbEntity
  8
0
100
AcDbBlockEnd
  0
BLOCK
  5
95
330
93
100
AcDbEntity
  8
0
100
AcDbBlockBegin
  2
block 4
 70
     0
 10
0.0
 20
0.0
 30
0.0
  3
block 4
  1

  0
SPLINE
  5
97
330
93
100
AcDbEntity
  8
_U+30EC_U+30A4_U+30E4_U+30FC 1
370
     0
100
AcDbSpline
210
0.0
220
0.0
230
1.0
 70
    11
 71
     3
 72
    26
 73
    22
 74
     0
 42
0.0000000001
 43
0.0000000001
 12
1.0
 22
0.0
 32
0.0
 13
1.0
 23
0.0
 33
0.0
 40
0.0
 40
0.0
 40
0.0
 40
0.0
 40
1.0
 40
1.0
 40
1.0
 40
2.0
 40
2.0
 40
2.0
 40
3.0
 40
3.0
 40
3.0
 40
4.0
 40
4.0
 40
4.0
 40
5.0
 40
5.0
 40
5.0
 40
6.0
 40
6.0
 40
6.0
 40
7.0
 40
7.0
 40
7.0
 40
7.0
 10
77.66519909082676
 20
-140.2935899171836
 30
0.0
 10
77.66519909082676
 20
-140.2935899171836
 30
0.0
 10
77.66519909082676
 20
-139.189436814161
 30
0.0
 10
77.66519909082676
 20
-139.189436814161
 30
0.0
 10
77.66519909082676
 20
-139.189436814161
 30
0.0
 10
77.33515894333982
 20
-139.189436814161
 30
0.0
 10
77.33515894333982
 20
-139.189436814161
 30
0.0
 10
77.33515894333982
 20
-139.189436814161
 30
0.0
 10
77.33515894333982
 20
-139.0412977082952
 30
0.0
 10
77.33515894333982
 20
-139.0412977082952
 30
0.0
 10
77.6672661481179
 20
-139.0264837977087
 30
0.0
 10
77.71377493716878
 20
-138.8635307812563
 30
0.0
 10
77.74340275834193
 20
-138.7491536111461
 30
0.0
 10
77.74340275834193
 20
-138.7491536111461
 30
0.0
 10
77.88947480691652
 20
-138.7491536111461
 30
0.0
 10
77.88947480691652
 20
-138.7491536111461
 30
0.0
 10
77.88947480691652
 20
-138.7491536111461
 30
0.0
 10
77.88947480691652
 20
-140.2935899171836
 30
0.0
 10
77.88947480691652
 20
-140.2935899171836
 30
0.0
 10
77.88947480691652
 20
-140.2935899171836
 30
0.0
 10
77.66519909082676
 20
-140.2935899171836
 30
0.0
 10
77.66519909082676
 20
-140.2935899171836
 30
0.0
  0
HATCH
  5
98
330
93
100
AcDbEntity
  8
_U+30EC_U+30A4_U+30E4_U+30FC 1
 62
   179
420
  2234388
100
AcDbHatch
 10
0.0
 20
0.0
 30
0.0
210
0.0
220
0.0
230
1.0
  2
SOLID
 70
     1
 71
     0
 91
        1
 92
        1
 93
        1
 72
     4
 94
        3
 73
     0
 74
     1
 95
       26
 96
       22
 40
0.0
 40
0.0
 40
0.0
 40
0.0
 40
1.0
 40
1.0
 40
1.0
 40
2.0
 40
2.0
 40
2.0
 40
3.0
 40
3.0
 40
3.0
 40
4.0
 40
4.0
 40
4.0
 40
5.0
 40
5.0
 40
5.0
 40
6.0
 40
6.0
 40
6.0
 40
7.0
 40
7.0
 40
7.0
 40
7.0
 10
77.66519909082676
 20
-140.2935899171836
 10
77.66519909082676
 20
-140.2935899171836
 10
77.66519909082676
 20
-139.189436814161
 10
77.66519909082676
 20
-139.189436814161
 10
77.66519909082676
 20
-139.189436814161
 10
77.33515894333982
 20
-139.189436814161
 10
77.33515894333982
 20
-139.189436814161
 10
77.33515894333982
 20
-139.189436814161
 10
77.33515894333982
 20
-139.0412977082952
 10
77.33515894333982
 20
-139.0412977082952
 10
77.6672661481179
 20
-139.0264837977087
 10
77.71377493716878
 20
-138.8635307812563
 10
77.74340275834193
 20
-138.7491536111461
 10
77.74340275834193
 20
-138.7491536111461
 10
77.88947480691652
 20
-138.7491536111461
 10
77.88947480691652
 20
-138.7491536111461
 10
77.88947480691652
 20
-138.7491536111461
 10
77.88947480691652
 20
-140.2935899171836
 10
77.88947480691652
 20
-140.2935899171836
 10
77.88947480691652
 20
-140.2935899171836
 10
77.66519909082676
 20
-140.2935899171836
 10
77.66519909082676
 20
-140.2935899171836
 97
        0
 97
        0
 75
     2
 76
     1
 98
        0
  0
SPLINE
  5
99
330
93
100
AcDbEntity
  8
_U+30EC_U+30A4_U+30E4_U+30FC 1
370
     0
100
AcDbSpline
210
0.0
220
0.0
230
1.0
 70
    11
 71
     3
 72
    29
 73
    25
 74
     0
 42
0.0000000001
 43
0.0000000001
 12
1.0
 22
0.0
 32
0.0
 13
1.0
 23
0.0
 33
0.0
 40
0.0
 40
0.0
 40
0.0
 40
0.0
 40
1.0
 40
1.0
 40
1.0
 40
2.0
 40
2.0
 40
2.0
 40
3.0
 40
3.0
 40
3.0
 40
4.0
 40
4.0
 40
4.0
 40
5.0
 40
5.0
 40
5.0
 40
6.0
 40
6.0
 40
6.0
 40
7.0
 40
7.0
 40
7.0
 40
8.0
 40
8.0
 40
8.0
 40
8.0
 10
79.28835582870222
 20
-140.1158229901447
 30
0.0
 10
79.1805243400139
 20
-140.3252847956479
 30
0.0
 10
79.00706378233157
 20
-140.3442328208167
 30
0.0
 10
78.89061955493013
 20
-140.3442328208167
 30
0.0
 10
78.72990585054322
 20
-140.3442328208167
 30
0.0
 10
78.5881401713252
 20
-140.2977240317659
 30
0.0
 10
78.49288328115803
 20
-140.1158229901447
 30
0.0
 10
78.38935816182628
 20
-139.9211750952281
 30
0.0
 10
78.37023788188314
 20
-139.6841525258428
 30
0.0
 10
78.37023788188314
 20
-139.5215440189391
 30
0.0
 10
78.37023788188314
 20
-139.3775390276556
 30
0.0
 10
78.38711884976087
 20
-139.1257025476839
 30
0.0
 10
78.49288328115803
 20
-138.9269205381849
 30
0.0
 10
78.60088702462062
 20
-138.7240044141037
 30
0.0
 10
78.76160072900753
 20
-138.700577764804
 30
0.0
 10
78.89061955493013
 20
-138.700577764804
 30
0.0
 10
79.04926620202588
 20
-138.700577764804
 30
0.0
 10
79.19309893853506
 20
-138.7450194965637
 30
0.0
 10
79.28835582870222
 20
-138.9269205381849
 30
0.0
 10
79.38774683345167
 20
-139.1195013758104
 30
0.0
 10
79.41100122797711
 20
-139.3479112064825
 30
0.0
 10
79.41100122797711
 20
-139.5215440189391
 30
0.0
 10
79.41100122797711
 20
-139.692765264556
 30
0.0
 10
79.38998614551708
 20
-139.9232421525192
 30
0.0
 10
79.28835582870222
 20
-140.1158229901447
 30
0.0
  0
SPLINE
  5
9A
330
93
100
AcDbEntity
  8
_U+30EC_U+30A4_U+30E4_U+30FC 1
370
     0
100
AcDbSpline
210
0.0
220
0.0
230
1.0
 70
    11
 71
     3
 72
    17
 73
    13
 74
     0
 42
0.0000000001
 43
0.0000000001
 12
1.0
 22
0.0
 32
0.0
 13
1.0
 23
0.0
 33
0.0
 40
0.0
 40
0.0
 40
0.0
 40
0.0
 40
1.0
 40
1.0
 40
1.0
 40
2.0
 40
2.0
 40
2.0
 40
3.0
 40
3.0
 40
3.0
 40
4.0
 40
4.0
 40
4.0
 40
4.0
 10
78.89061955493013
 20
-138.8931586024295
 30
0.0
 10
78.64102238702378
 20
-138.8931586024295
 30
0.0
 10
78.5945135979729
 20
-139.1766899608656
 30
0.0
 10
78.5945135979729
 20
-139.5215440189391
 30
0.0
 10
78.5945135979729
 20
-139.8409043704217
 30
0.0
 10
78.63051484579377
 20
-140.1495849259001
 30
0.0
 10
78.89061955493013
 20
-140.1495849259001
 30
0.0
 10
79.13814966554533
 20
-140.1495849259001
 30
0.0
 10
79.18689776666162
 20
-139.8684651343037
 30
0.0
 10
79.18689776666162
 20
-139.5215440189391
 30
0.0
 10
79.18689776666162
 20
-139.2018391579079
 30
0.0
 10
79.1488294615496
 20
-138.8931586024295
 30
0.0
 10
78.89061955493013
 20
-138.8931586024295
 30
0.0
  0
HATCH
  5
9B
330
93
100
AcDbEntity
  8
_U+30EC_U+30A4_U+30E4_U+30FC 1
 62
   179
420
  2234388
100
AcDbHatch
 10
0.0
 20
0.0
 30
0.0
210
0.0
220
0.0
230
1.0
  2
SOLID
 70
     1
 71
     0
 91
        2
 92
        1
 93
        1
 72
     4
 94
        3
 73
     0
 74
     1
 95
       29
 96
       25
 40
0.0
 40
0.0
 40
0.0
 40
0.0
 40
1.0
 40
1.0
 40
1.0
 40
2.0
 40
2.0
 40
2.0
 40
3.0
 40
3.0
 40
3.0
 40
4.0
 40
4.0
 40
4.0
 40
5.0
 40
5.0
 40
5.0
 40
6.0
 40
6.0
 40
6.0
 40
7.0
 40
7.0
 40
7.0
 40
8.0
 40
8.0
 40
8.0
 40
8.0
 10
79.28835582870222
 20
-140.1158229901447
 10
79.1805243400139
 20
-140.3252847956479
 10
79.00706378233157
 20
-140.3442328208167
 10
78.89061955493013
 20
-140.3442328208167
 10
78.72990585054322
 20
-140.3442328208167
 10
78.5881401713252
 20
-140.2977240317659
 10
78.49288328115803
 20
-140.1158229901447
 10
78.38935816182628
 20
-139.9211750952281
 10
78.37023788188314
 20
-139.6841525258428
 10
78.37023788188314
 20
-139.5215440189391
 10
78.37023788188314
 20
-139.3775390276556
 10
78.38711884976087
 20
-139.1257025476839
 10
78.49288328115803
 20
-138.9269205381849
 10
78.60088702462062
 20
-138.7240044141037
 10
78.76160072900753
 20
-138.700577764804
 10
78.89061955493013
 20
-138.700577764804
 10
79.04926620202588
 20
-138.700577764804
 10
79.19309893853506
 20
-138.7450194965637
 10
79.28835582870222
 20
-138.9269205381849
 10
79.38774683345167
 20
-139.1195013758104
 10
79.41100122797711
 20
-139.3479112064825
 10
79.41100122797711
 20
-139.5215440189391
 10
79.41100122797711
 20
-139.692765264556
 10
79.38998614551708
 20
-139.9232421525192
 10
79.28835582870222
 20
-140.1158229901447
 97
        0
 97
        0
 92
        1
 93
        1
 72
     4
 94
        3
 73
     0
 74
     1
 95
       17
 96
       13
 40
0.0
 40
0.0
 40
0.0
 40
0.0
 40
1.0
 40
1.0
 40
1.0
 40
2.0
 40
2.0
 40
2.0
 40
3.0
 40
3.0
 40
3.0
 40
4.0
 40
4.0
 40
4.0
 40
4.0
 10
78.89061955493013
 20
-138.8931586024295
 10
78.64102238702378
 20
-138.8931586024295
 10
78.5945135979729
 20
-139.1766899608656
 10
78.5945135979729
 20
-139.5215440189391
 10
78.5945135979729
 20
-139.8409043704217
 10
78.63051484579377
 20
-140.1495849259001
 10
78.89061955493013
 20
-140.1495849259001
 10
79.13814966554533
 20
-140.1495849259001
 10
79.18689776666162
 20
-139.8684651343037
 10
79.18689776666162
 20
-139.5215440189391
 10
79.18689776666162
 20
-139.2018391579079
 10
79.1488294615496
 20
-138.8931586024295
 10
78.89061955493013
 20
-138.8931586024295
 97
        0
 97
        0
 75
     2
 76
     1
 98
        0
  0
ENDBLK
  5
96
330
93
100
AcDbEntity
  8
0
100
AcDbBlockEnd
  0
BLOCK
  5
9E
330
9C
100
AcDbEntity
  8
0
100
AcDbBlockBegin
  2
block 5
 70
     0
 10
0.0
 20
0.0
 30
0.0
  3
block 5
  1

  0
POLYLINE
  5
A0
330
9C
100
AcDbEntity
  8
_U+30EC_U+30A4_U+30E4_U+30FC 1
 62
   179
420
  2234388
370
     9
100
AcDb2dPolyline
 66
     1
 10
0.0
 20
0.0
 30
0.0
  0
VERTEX
  5
A1
330
A0
100
AcDbEntity
  8
_U+30EC_U+30A4_U+30E4_U+30FC 1
 62
   179
420
  2234388
370
     9
100
AcDbVertex
100
AcDb2dVertex
 10
73.30266951878198
 20
-118.9398391369316
 30
0.0
  0
VERTEX
  5
A2
330
A0
100
AcDbEntity
  8
_U+30EC_U+30A4_U+30E4_U+30FC 1
 62
   179
420
  2234388
370
     9
100
AcDbVertex
100
AcDb2dVertex
 10
98.30233665876513
 20
-118.9398391369316
 30
0.0
  0
SEQEND
  5
A3
330
A0
100
AcDbEntity
  8
_U+30EC_U+30A4_U+30E4_U+30FC 1
 62
   179
420
  2234388
370
     9
  0
POLYLINE
  5
A4
330
9C
100
AcDbEntity
  8
_U+30EC_U+30A4_U+30E4_U+30FC 1
 62
   179
420
  2234388
370
     9
100
AcDb2dPolyline
 66
     1
 10
0.0
 20
0.0
 30
0.0
  0
VERTEX
  5
A5
330
A4
100
AcDbEntity
  8
_U+30EC_U+30A4_U+30E4_U+30FC 1
 62
   179
420
  2234388
370
     9
100
AcDbVertex
100
AcDb2dVertex
 10
73.30266951878198
 20
-120.3998805254556
 30
0.0
  0
VERTEX
  5
A6
330
A4
100
AcDbEntity
  8
_U+30EC_U+30A4_U+30E4_U+30FC 1
 62
   179
420
  2234388
370
     9
100
AcDbVertex
100
AcDb2dVertex
 10
73.30266951878198
 20
-117.9401021927372
 30
0.0
  0
SEQEND
  5
A7
330
A4
100
AcDbEntity
  8
_U+30EC_U+30A4_U+30E4_U+30FC 1
 62
   179
420
  2234388
370
     9
  0
POLYLINE
  5
A8
330
9C
100
AcDbEntity
  8
_U+30EC_U+30A4_U+30E4_U+30FC 1
 62
   179
420
  2234388
370
     9
100
AcDb2dPolyline
 66
     1
 10
0.0
 20
0.0
 30
0.0
  0
VERTEX
  5
A9
330
A8
100
AcDbEntity
  8
_U+30EC_U+30A4_U+30E4_U+30FC 1
 62
   179
420
  2234388
370
     9
100
AcDbVertex
100
AcDb2dVertex
 10
98.30233665876513
 20
-120.3998805254556
 30
0.0
  0
VERTEX
  5
AA
330
A8
100
AcDbEntity
  8
_U+30EC_U+30A4_U+30E4_U+30FC 1
 62
   179
420
  2234388
370
     9
100
AcDbVertex
100
AcDb2dVertex
 10
98.30233665876513
 20
-117.9401021927372
 30
0.0
  0
SEQEND
  5
AB
330
A8
100
AcDbEntity
  8
_U+30EC_U+30A4_U+30E4_U+30FC 1
 62
   179
420
  2234388
370
     9
  0
INSERT
  5
AD
330
9C
100
AcDbEntity
  8
_U+30EC_U+30A4_U+30E4_U+30FC 1
100
AcDbBlockReference
  2
block 6
 10
0.0
 20
0.0
 30
0.0
  0
ENDBLK
  5
9F
330
9C
100
AcDbEntity
  8
0
100
AcDbBlockEnd
  0
BLOCK
  5
AE
330
AC
100
AcDbEntity
  8
0
100
AcDbBlockBegin
  2
block 6
 70
     0
 10
0.0
 20
0.0
 30
0.0
  3
block 6
  1

  0
SPLINE
  5
B0
330
AC
100
AcDbEntity
  8
_U+30EC_U+30A4_U+30E4_U+30FC 1
370
     0
100
AcDbSpline
210
0.0
220
0.0
230
1.0
 70
    11
 71
     3
 72
    44
 73
    40
 74
     0
 42
0.0000000001
 43
0.0000000001
 12
1.0
 22
0.0
 32
0.0
 13
1.0
 23
0.0
 33
0.0
 40
0.0
 40
0.0
 40
0.0
 40
0.0
 40
1.0
 40
1.0
 40
1.0
 40
2.0
 40
2.0
 40
2.0
 40
3.0
 40
3.0
 40
3.0
 40
4.0
 40
4.0
 40
4.0
 40
5.0
 40
5.0
 40
5.0
 40
6.0
 40
6.0
 40
6.0
 40
7.0
 40
7.0
 40
7.0
 40
8.0
 40
8.0
 40
8.0
 40
9.0
 40
9.0
 40
9.0
 40
10.0
 40
10.0
 40
10.0
 40
11.0
 40
11.0
 40
11.0
 40
12.0
 40
12.0
 40
12.0
 40
13.0
 40
13.0
 40
13.0
 40
13.0
 10
85.30676538665942
 20
-117.7135728329848
 30
0.0
 10
85.08886309721737
 20
-117.8722194800806
 30
0.0
 10
84.99567326434136
 20
-117.9462890330134
 30
0.0
 10
84.94709741799934
 20
-118.0901217695226
 30
0.0
 10
84.94709741799934
 20
-118.0901217695226
 30
0.0
 10
85.72551674289154
 20
-118.0901217695226
 30
0.0
 10
85.72551674289154
 20
-118.0901217695226
 30
0.0
 10
85.72551674289154
 20
-118.0901217695226
 30
0.0
 10
85.72551674289154
 20
-118.2952772056692
 30
0.0
 10
85.72551674289154
 20
-118.2952772056692
 30
0.0
 10
85.72551674289154
 20
-118.2952772056692
 30
0.0
 10
84.69750025009299
 20
-118.2952772056692
 30
0.0
 10
84.69750025009299
 20
-118.2952772056692
 30
0.0
 10
84.7291951285573
 20
-117.9376762943003
 30
0.0
 10
84.79465194277704
 20
-117.8594726267851
 30
0.0
 10
85.17981361802796
 20
-117.5611273577625
 30
0.0
 10
85.43578421258204
 20
-117.3623453482636
 30
0.0
 10
85.50124102680178
 20
-117.2946492219784
 30
0.0
 10
85.50124102680178
 20
-117.157189912117
 30
0.0
 10
85.50124102680178
 20
-117.0386786274244
 30
0.0
 10
85.42941078593432
 20
-116.9075927442106
 30
0.0
 10
85.23269583372655
 20
-116.9075927442106
 30
0.0
 10
84.97241886981593
 20
-116.9075927442106
 30
0.0
 10
84.96397838587707
 20
-117.1380696321738
 30
0.0
 10
84.9596720165205
 20
-117.2545138595753
 30
0.0
 10
84.9596720165205
 20
-117.2545138595753
 30
0.0
 10
84.735568555205
 20
-117.2545138595753
 30
0.0
 10
84.735568555205
 20
-117.2545138595753
 30
0.0
 10
84.74400903914386
 20
-117.1275620909438
 30
0.0
 10
84.75451658037387
 20
-117.0154242328989
 30
0.0
 10
84.83495955995446
 20
-116.8969129482063
 30
0.0
 10
84.94485810593393
 20
-116.7361992438194
 30
0.0
 10
85.13106551691168
 20
-116.7022650532897
 30
0.0
 10
85.24750974431312
 20
-116.7022650532897
 30
0.0
 10
85.52466767610147
 20
-116.7022650532897
 30
0.0
 10
85.73189016953926
 20
-116.8864054069763
 30
0.0
 10
85.73189016953926
 20
-117.1592569694081
 30
0.0
 10
85.73189016953926
 20
-117.3876668000802
 30
0.0
 10
85.61561819691207
 20
-117.4872300596039
 30
0.0
 10
85.30676538665942
 20
-117.7135728329848
 30
0.0
  0
HATCH
  5
B1
330
AC
100
AcDbEntity
  8
_U+30EC_U+30A4_U+30E4_U+30FC 1
 62
   179
420
  2234388
100
AcDbHatch
 10
0.0
 20
0.0
 30
0.0
210
0.0
220
0.0
230
1.0
  2
SOLID
 70
     1
 71
     0
 91
        1
 92
        1
 93
        1
 72
     4
 94
        3
 73
     0
 74
     1
 95
       44
 96
       40
 40
0.0
 40
0.0
 40
0.0
 40
0.0
 40
1.0
 40
1.0
 40
1.0
 40
2.0
 40
2.0
 40
2.0
 40
3.0
 40
3.0
 40
3.0
 40
4.0
 40
4.0
 40
4.0
 40
5.0
 40
5.0
 40
5.0
 40
6.0
 40
6.0
 40
6.0
 40
7.0
 40
7.0
 40
7.0
 40
8.0
 40
8.0
 40
8.0
 40
9.0
 40
9.0
 40
9.0
 40
10.0
 40
10.0
 40
10.0
 40
11.0
 40
11.0
 40
11.0
 40
12.0
 40
12.0
 40
12.0
 40
13.0
 40
13.0
 40
13.0
 40
13.0
 10
85.30676538665942
 20
-117.7135728329848
 10
85.08886309721737
 20
-117.8722194800806
 10
84.99567326434136
 20
-117.9462890330134
 10
84.94709741799934
 20
-118.0901217695226
 10
84.94709741799934
 20
-118.0901217695226
 10
85.72551674289154
 20
-118.0901217695226
 10
85.72551674289154
 20
-118.0901217695226
 10
85.72551674289154
 20
-118.0901217695226
 10
85.72551674289154
 20
-118.2952772056692
 10
85.72551674289154
 20
-118.2952772056692
 10
85.72551674289154
 20
-118.2952772056692
 10
84.69750025009299
 20
-118.2952772056692
 10
84.69750025009299
 20
-118.2952772056692
 10
84.7291951285573
 20
-117.9376762943003
 10
84.79465194277704
 20
-117.8594726267851
 10
85.17981361802796
 20
-117.5611273577625
 10
85.43578421258204
 20
-117.3623453482636
 10
85.50124102680178
 20
-117.2946492219784
 10
85.50124102680178
 20
-117.157189912117
 10
85.50124102680178
 20
-117.0386786274244
 10
85.42941078593432
 20
-116.9075927442106
 10
85.23269583372655
 20
-116.9075927442106
 10
84.97241886981593
 20
-116.9075927442106
 10
84.96397838587707
 20
-117.1380696321738
 10
84.9596720165205
 20
-117.2545138595753
 10
84.9596720165205
 20
-117.2545138595753
 10
84.735568555205
 20
-117.2545138595753
 10
84.735568555205
 20
-117.2545138595753
 10
84.74400903914386
 20
-117.1275620909438
 10
84.75451658037387
 20
-117.0154242328989
 10
84.83495955995446
 20
-116.8969129482063
 10
84.94485810593393
 20
-116.7361992438194
 10
85.13106551691168
 20
-116.7022650532897
 10
85.24750974431312
 20
-116.7022650532897
 10
85.52466767610147
 20
-116.7022650532897
 10
85.73189016953926
 20
-116.8864054069763
 10
85.73189016953926
 20
-117.1592569694081
 10
85.73189016953926
 20
-117.3876668000802
 10
85.61561819691207
 20
-117.4872300596039
 10
85.30676538665942
 20
-117.7135728329848
 97
        0
 97
        0
 75
     2
 76
     1
 98
        0
  0
SPLINE
  5
B2
330
AC
100
AcDbEntity
  8
_U+30EC_U+30A4_U+30E4_U+30FC 1
370
     0
100
AcDbSpline
210
0.0
220
0.0
230
1.0
 70
    11
 71
     3
 72
    53
 73
    49
 74
     0
 42
0.0000000001
 43
0.0000000001
 12
1.0
 22
0.0
 32
0.0
 13
1.0
 23
0.0
 33
0.0
 40
0.0
 40
0.0
 40
0.0
 40
0.0
 40
1.0
 40
1.0
 40
1.0
 40
2.0
 40
2.0
 40
2.0
 40
3.0
 40
3.0
 40
3.0
 40
4.0
 40
4.0
 40
4.0
 40
5.0
 40
5.0
 40
5.0
 40
6.0
 40
6.0
 40
6.0
 40
7.0
 40
7.0
 40
7.0
 40
8.0
 40
8.0
 40
8.0
 40
9.0
 40
9.0
 40
9.0
 40
10.0
 40
10.0
 40
10.0
 40
11.0
 40
11.0
 40
11.0
 40
12.0
 40
12.0
 40
12.0
 40
13.0
 40
13.0
 40
13.0
 40
14.0
 40
14.0
 40
14.0
 40
15.0
 40
15.0
 40
15.0
 40
16.0
 40
16.0
 40
16.0
 40
16.0
 10
86.37147214637588
 20
-118.3460923640767
 30
0.0
 10
86.29326847886071
 20
-118.3460923640767
 30
0.0
 10
86.19163816204585
 20
-118.3290391414247
 30
0.0
 10
86.09000784523097
 20
-118.2656493844961
 30
0.0
 10
85.91671954232291
 20
-118.1555785837424
 30
0.0
 10
85.89535995031436
 20
-118.0244927005286
 30
0.0
 10
85.87641192514549
 20
-117.9166612118403
 30
0.0
 10
85.87641192514549
 20
-117.9166612118403
 30
0.0
 10
86.0986205839441
 20
-117.9166612118403
 30
0.0
 10
86.0986205839441
 20
-117.9166612118403
 30
0.0
 10
86.15339760215957
 20
-118.1154432213392
 30
0.0
 10
86.28052162556529
 20
-118.1450710425123
 30
0.0
 10
86.37353920366704
 20
-118.1450710425123
 30
0.0
 10
86.51306557081965
 20
-118.1450710425123
 30
0.0
 10
86.6653387912677
 20
-118.0456800377629
 30
0.0
 10
86.6653387912677
 20
-117.8129638377343
 30
0.0
 10
86.6653387912677
 20
-117.5569932431802
 30
0.0
 10
86.48550480693766
 20
-117.4872300596039
 30
0.0
 10
86.36492646495391
 20
-117.4872300596039
 30
0.0
 10
86.33323158648962
 20
-117.4872300596039
 30
0.0
 10
86.19163816204585
 20
-117.4872300596039
 30
0.0
 10
86.1027546985264
 20
-117.6162488855265
 30
0.0
 10
86.1027546985264
 20
-117.6162488855265
 30
0.0
 10
85.92705482877865
 20
-117.5971286055834
 30
0.0
 10
85.92705482877865
 20
-117.5971286055834
 30
0.0
 10
85.92705482877865
 20
-117.5971286055834
 30
0.0
 10
86.0476331707624
 20
-116.751013154406
 30
0.0
 10
86.0476331707624
 20
-116.751013154406
 30
0.0
 10
86.0476331707624
 20
-116.751013154406
 30
0.0
 10
86.82622475042886
 20
-116.751013154406
 30
0.0
 10
86.82622475042886
 20
-116.751013154406
 30
0.0
 10
86.82622475042886
 20
-116.751013154406
 30
0.0
 10
86.82622475042886
 20
-116.9456610493226
 30
0.0
 10
86.82622475042886
 20
-116.9456610493226
 30
0.0
 10
86.82622475042886
 20
-116.9456610493226
 30
0.0
 10
86.21058618721472
 20
-116.9456610493226
 30
0.0
 10
86.21058618721472
 20
-116.9456610493226
 30
0.0
 10
86.21058618721472
 20
-116.9456610493226
 30
0.0
 10
86.14512937299497
 20
-117.3687187749113
 30
0.0
 10
86.14512937299497
 20
-117.3687187749113
 30
0.0
 10
86.20645207263242
 20
-117.3347845843816
 30
0.0
 10
86.28878985472988
 20
-117.2946492219784
 30
0.0
 10
86.40730113942249
 20
-117.2946492219784
 30
0.0
 10
86.6612046766854
 20
-117.2946492219784
 30
0.0
 10
86.89822724607059
 20
-117.4808566329562
 30
0.0
 10
86.89822724607059
 20
-117.7938435577911
 30
0.0
 10
86.89822724607059
 20
-118.1113091067569
 30
0.0
 10
86.67395152998083
 20
-118.3460923640767
 30
0.0
 10
86.37147214637588
 20
-118.3460923640767
 30
0.0
  0
HATCH
  5
B3
330
AC
100
AcDbEntity
  8
_U+30EC_U+30A4_U+30E4_U+30FC 1
 62
   179
420
  2234388
100
AcDbHatch
 10
0.0
 20
0.0
 30
0.0
210
0.0
220
0.0
230
1.0
  2
SOLID
 70
     1
 71
     0
 91
        1
 92
        1
 93
        1
 72
     4
 94
        3
 73
     0
 74
     1
 95
       53
 96
       49
 40
0.0
 40
0.0
 40
0.0
 40
0.0
 40
1.0
 40
1.0
 40
1.0
 40
2.0
 40
2.0
 40
2.0
 40
3.0
 40
3.0
 40
3.0
 40
4.0
 40
4.0
 40
4.0
 40
5.0
 40
5.0
 40
5.0
 40
6.0
 40
6.0
 40
6.0
 40
7.0
 40
7.0
 40
7.0
 40
8.0
 40
8.0
 40
8.0
 40
9.0
 40
9.0
 40
9.0
 40
10.0
 40
10.0
 40
10.0
 40
11.0
 40
11.0
 40
11.0
 40
12.0
 40
12.0
 40
12.0
 40
13.0
 40
13.0
 40
13.0
 40
14.0
 40
14.0
 40
14.0
 40
15.0
 40
15.0
 40
15.0
 40
16.0
 40
16.0
 40
16.0
 40
16.0
 10
86.37147214637588
 20
-118.3460923640767
 10
86.29326847886071
 20
-118.3460923640767
 10
86.19163816204585
 20
-118.3290391414247
 10
86.09000784523097
 20
-118.2656493844961
 10
85.91671954232291
 20
-118.1555785837424
 10
85.89535995031436
 20
-118.0244927005286
 10
85.87641192514549
 20
-117.9166612118403
 10
85.87641192514549
 20
-117.9166612118403
 10
86.0986205839441
 20
-117.9166612118403
 10
86.0986205839441
 20
-117.9166612118403
 10
86.15339760215957
 20
-118.1154432213392
 10
86.28052162556529
 20
-118.1450710425123
 10
86.37353920366704
 20
-118.1450710425123
 10
86.51306557081965
 20
-118.1450710425123
 10
86.6653387912677
 20
-118.0456800377629
 10
86.6653387912677
 20
-117.8129638377343
 10
86.6653387912677
 20
-117.5569932431802
 10
86.48550480693766
 20
-117.4872300596039
 10
86.36492646495391
 20
-117.4872300596039
 10
86.33323158648962
 20
-117.4872300596039
 10
86.19163816204585
 20
-117.4872300596039
 10
86.1027546985264
 20
-117.6162488855265
 10
86.1027546985264
 20
-117.6162488855265
 10
85.92705482877865
 20
-117.5971286055834
 10
85.92705482877865
 20
-117.5971286055834
 10
85.92705482877865
 20
-117.5971286055834
 10
86.0476331707624
 20
-116.751013154406
 10
86.0476331707624
 20
-116.751013154406
 10
86.0476331707624
 20
-116.751013154406
 10
86.82622475042886
 20
-116.751013154406
 10
86.82622475042886
 20
-116.751013154406
 10
86.82622475042886
 20
-116.751013154406
 10
86.82622475042886
 20
-116.9456610493226
 10
86.82622475042886
 20
-116.9456610493226
 10
86.82622475042886
 20
-116.9456610493226
 10
86.21058618721472
 20
-116.9456610493226
 10
86.21058618721472
 20
-116.9456610493226
 10
86.21058618721472
 20
-116.9456610493226
 10
86.14512937299497
 20
-117.3687187749113
 10
86.14512937299497
 20
-117.3687187749113
 10
86.20645207263242
 20
-117.3347845843816
 10
86.28878985472988
 20
-117.2946492219784
 10
86.40730113942249
 20
-117.2946492219784
 10
86.6612046766854
 20
-117.2946492219784
 10
86.89822724607059
 20
-117.4808566329562
 10
86.89822724607059
 20
-117.7938435577911
 10
86.89822724607059
 20
-118.1113091067569
 10
86.67395152998083
 20
-118.3460923640767
 10
86.37147214637588
 20
-118.3460923640767
 97
        0
 97
        0
 75
     2
 76
     1
 98
        0
  0
ENDBLK
  5
AF
330
AC
100
AcDbEntity
  8
0
100
AcDbBlockEnd
  0
BLOCK
  5
B6
330
B4
100
AcDbEntity
  8
0
100
AcDbBlockBegin
  2
block 7
 70
     0
 10
0.0
 20
0.0
 30
0.0
  3
block 7
  1

  0
POLYLINE
  5
B8
330
B4
100
AcDbEntity
  8
_U+30EC_U+30A4_U+30E4_U+30FC 1
 62
   179
420
  2234388
370
     9
100
AcDb2dPolyline
 66
     1
 10
0.0
 20
0.0
 30
0.0
  0
VERTEX
  5
B9
330
B8
100
AcDbEntity
  8
_U+30EC_U+30A4_U+30E4_U+30FC 1
 62
   179
420
  2234388
370
     9
100
AcDbVertex
100
AcDb2dVertex
 10
102.3020957233894
 20
-122.9403038581537
 30
0.0
  0
VERTEX
  5
BA
330
B8
100
AcDbEntity
  8
_U+30EC_U+30A4_U+30E4_U+30FC 1
 62
   179
420
  2234388
370
     9
100
AcDbVertex
100
AcDb2dVertex
 10
102.3020957233894
 20
-119.1699913590963
 30
0.0
  0
SEQEND
  5
BB
330
B8
100
AcDbEntity
  8
_U+30EC_U+30A4_U+30E4_U+30FC 1
 62
   179
420
  2234388
370
     9
  0
POLYLINE
  5
BC
330
B4
100
AcDbEntity
  8
_U+30EC_U+30A4_U+30E4_U+30FC 1
 62
   179
420
  2234388
370
     9
100
AcDb2dPolyline
 66
     1
 10
0.0
 20
0.0
 30
0.0
  0
VERTEX
  5
BD
330
BC
100
AcDbEntity
  8
_U+30EC_U+30A4_U+30E4_U+30FC 1
 62
   179
420
  2234388
370
     9
100
AcDbVertex
100
AcDb2dVertex
 10
102.3020957233894
 20
-122.9403038581537
 30
0.0
  0
VERTEX
  5
BE
330
BC
100
AcDbEntity
  8
_U+30EC_U+30A4_U+30E4_U+30FC 1
 62
   179
420
  2234388
370
     9
100
AcDbVertex
100
AcDb2dVertex
 10
102.3020957233894
 20
-123.9400760801262
 30
0.0
  0
SEQEND
  5
BF
330
BC
100
AcDbEntity
  8
_U+30EC_U+30A4_U+30E4_U+30FC 1
 62
   179
420
  2234388
370
     9
  0
POLYLINE
  5
C0
330
B4
100
AcDbEntity
  8
_U+30EC_U+30A4_U+30E4_U+30FC 1
 62
   179
420
  2234388
370
     9
100
AcDb2dPolyline
 66
     1
 10
0.0
 20
0.0
 30
0.0
  0
VERTEX
  5
C1
330
C0
100
AcDbEntity
  8
_U+30EC_U+30A4_U+30E4_U+30FC 1
 62
   179
420
  2234388
370
     9
100
AcDbVertex
100
AcDb2dVertex
 10
100.8420896495262
 20
-122.9403038581537
 30
0.0
  0
VERTEX
  5
C2
330
C0
100
AcDbEntity
  8
_U+30EC_U+30A4_U+30E4_U+30FC 1
 62
   179
420
  2234388
370
     9
100
AcDbVertex
100
AcDb2dVertex
 10
103.3025734756429
 20
-122.9403038581537
 30
0.0
  0
SEQEND
  5
C3
330
C0
100
AcDbEntity
  8
_U+30EC_U+30A4_U+30E4_U+30FC 1
 62
   179
420
  2234388
370
     9
  0
POLYLINE
  5
C4
330
B4
100
AcDbEntity
  8
_U+30EC_U+30A4_U+30E4_U+30FC 1
 62
   179
420
  2234388
370
     9
100
AcDb2dPolyline
 66
     1
 10
0.0
 20
0.0
 30
0.0
  0
VERTEX
  5
C5
330
C4
100
AcDbEntity
  8
_U+30EC_U+30A4_U+30E4_U+30FC 1
 62
   179
420
  2234388
370
     9
100
AcDbVertex
100
AcDb2dVertex
 10
100.8420896495262
 20
-123.9400760801262
 30
0.0
  0
VERTEX
  5
C6
330
C4
100
AcDbEntity
  8
_U+30EC_U+30A4_U+30E4_U+30FC 1
 62
   179
420
  2234388
370
     9
100
AcDbVertex
100
AcDb2dVertex
 10
103.3025734756429
 20
-123.9400760801262
 30
0.0
  0
SEQEND
  5
C7
330
C4
100
AcDbEntity
  8
_U+30EC_U+30A4_U+30E4_U+30FC 1
 62
   179
420
  2234388
370
     9
  0
INSERT
  5
C9
330
B4
100
AcDbEntity
  8
_U+30EC_U+30A4_U+30E4_U+30FC 1
100
AcDbBlockReference
  2
block 8
 10
0.0
 20
0.0
 30
0.0
  0
ENDBLK
  5
B7
330
B4
100
AcDbEntity
  8
0
100
AcDbBlockEnd
  0
BLOCK
  5
CA
330
C8
100
AcDbEntity
  8
0
100
AcDbBlockBegin
  2
block 8
 70
     0
 10
0.0
 20
0.0
 30
0.0
  3
block 8
  1

  0
SPLINE
  5
CC
330
C8
100
AcDbEntity
  8
_U+30EC_U+30A4_U+30E4_U+30FC 1
370
     0
100
AcDbSpline
210
0.0
220
0.0
230
1.0
 70
    11
 71
     3
 72
    26
 73
    22
 74
     0
 42
0.0000000001
 43
0.0000000001
 12
1.0
 22
0.0
 32
0.0
 13
1.0
 23
0.0
 33
0.0
 40
0.0
 40
0.0
 40
0.0
 40
0.0
 40
1.0
 40
1.0
 40
1.0
 40
2.0
 40
2.0
 40
2.0
 40
3.0
 40
3.0
 40
3.0
 40
4.0
 40
4.0
 40
4.0
 40
5.0
 40
5.0
 40
5.0
 40
6.0
 40
6.0
 40
6.0
 40
7.0
 40
7.0
 40
7.0
 40
7.0
 10
106.4772216530682
 20
-123.5166639231139
 30
0.0
 10
106.4772216530682
 20
-123.5166639231139
 30
0.0
 10
105.3730685500456
 20
-123.5166639231139
 30
0.0
 10
105.3730685500456
 20
-123.5166639231139
 30
0.0
 10
105.3730685500456
 20
-123.5166639231139
 30
0.0
 10
105.3730685500456
 20
-123.8467040706008
 30
0.0
 10
105.3730685500456
 20
-123.8467040706008
 30
0.0
 10
105.3730685500456
 20
-123.8467040706008
 30
0.0
 10
105.2249294441799
 20
-123.8467040706008
 30
0.0
 10
105.2249294441799
 20
-123.8467040706008
 30
0.0
 10
105.2101155335933
 20
-123.5145968658227
 30
0.0
 10
105.047162517141
 20
-123.4680880767719
 30
0.0
 10
104.9327853470307
 20
-123.4384602555987
 30
0.0
 10
104.9327853470307
 20
-123.4384602555987
 30
0.0
 10
104.9327853470307
 20
-123.2923882070241
 30
0.0
 10
104.9327853470307
 20
-123.2923882070241
 30
0.0
 10
104.9327853470307
 20
-123.2923882070241
 30
0.0
 10
106.4772216530682
 20
-123.2923882070241
 30
0.0
 10
106.4772216530682
 20
-123.2923882070241
 30
0.0
 10
106.4772216530682
 20
-123.2923882070241
 30
0.0
 10
106.4772216530682
 20
-123.5166639231139
 30
0.0
 10
106.4772216530682
 20
-123.5166639231139
 30
0.0
  0
HATCH
  5
CD
330
C8
100
AcDbEntity
  8
_U+30EC_U+30A4_U+30E4_U+30FC 1
 62
   179
420
  2234388
100
AcDbHatch
 10
0.0
 20
0.0
 30
0.0
210
0.0
220
0.0
230
1.0
  2
SOLID
 70
     1
 71
     0
 91
        1
 92
        1
 93
        1
 72
     4
 94
        3
 73
     0
 74
     1
 95
       26
 96
       22
 40
0.0
 40
0.0
 40
0.0
 40
0.0
 40
1.0
 40
1.0
 40
1.0
 40
2.0
 40
2.0
 40
2.0
 40
3.0
 40
3.0
 40
3.0
 40
4.0
 40
4.0
 40
4.0
 40
5.0
 40
5.0
 40
5.0
 40
6.0
 40
6.0
 40
6.0
 40
7.0
 40
7.0
 40
7.0
 40
7.0
 10
106.4772216530682
 20
-123.5166639231139
 10
106.4772216530682
 20
-123.5166639231139
 10
105.3730685500456
 20
-123.5166639231139
 10
105.3730685500456
 20
-123.5166639231139
 10
105.3730685500456
 20
-123.5166639231139
 10
105.3730685500456
 20
-123.8467040706008
 10
105.3730685500456
 20
-123.8467040706008
 10
105.3730685500456
 20
-123.8467040706008
 10
105.2249294441799
 20
-123.8467040706008
 10
105.2249294441799
 20
-123.8467040706008
 10
105.2101155335933
 20
-123.5145968658227
 10
105.047162517141
 20
-123.4680880767719
 10
104.9327853470307
 20
-123.4384602555987
 10
104.9327853470307
 20
-123.4384602555987
 10
104.9327853470307
 20
-123.2923882070241
 10
104.9327853470307
 20
-123.2923882070241
 10
104.9327853470307
 20
-123.2923882070241
 10
106.4772216530682
 20
-123.2923882070241
 10
106.4772216530682
 20
-123.2923882070241
 10
106.4772216530682
 20
-123.2923882070241
 10
106.4772216530682
 20
-123.5166639231139
 10
106.4772216530682
 20
-123.5166639231139
 97
        0
 97
        0
 75
     2
 76
     1
 98
        0
  0
ENDBLK
  5
CB
330
C8
100
AcDbEntity
  8
0
100
AcDbBlockEnd
  0
BLOCK
  5
D0
330
CE
100
AcDbEntity
  8
0
100
AcDbBlockBegin
  2
block 9
 70
     0
 10
0.0
 20
0.0
 30
0.0
  3
block 9
  1

  0
POLYLINE
  5
D2
330
CE
100
AcDbEntity
  8
_U+30EC_U+30A4_U+30E4_U+30FC 1
 62
   179
420
  2234388
370
     9
100
AcDb2dPolyline
 66
     1
 10
0.0
 20
0.0
 30
0.0
  0
VERTEX
  5
D3
330
D2
100
AcDbEntity
  8
_U+30EC_U+30A4_U+30E4_U+30FC 1
 62
   179
420
  2234388
370
     9
100
AcDbVertex
100
AcDb2dVertex
 10
102.3020957233894
 20
-133.9398091331815
 30
0.0
  0
VERTEX
  5
D4
330
D2
100
AcDbEntity
  8
_U+30EC_U+30A4_U+30E4_U+30FC 1
 62
   179
420
  2234388
370
     9
100
AcDbVertex
100
AcDb2dVertex
 10
102.3020957233894
 20
-136.9397960768765
 30
0.0
  0
SEQEND
  5
D5
330
D2
100
AcDbEntity
  8
_U+30EC_U+30A4_U+30E4_U+30FC 1
 62
   179
420
  2234388
370
     9
  0
POLYLINE
  5
D6
330
CE
100
AcDbEntity
  8
_U+30EC_U+30A4_U+30E4_U+30FC 1
 62
   179
420
  2234388
370
     9
100
AcDb2dPolyline
 66
     1
 10
0.0
 20
0.0
 30
0.0
  0
VERTEX
  5
D7
330
D6
100
AcDbEntity
  8
_U+30EC_U+30A4_U+30E4_U+30FC 1
 62
   179
420
  2234388
370
     9
100
AcDbVertex
100
AcDb2dVertex
 10
85.8421222007618
 20
-136.9397960768765
 30
0.0
  0
VERTEX
  5
D8
330
D6
100
AcDbEntity
  8
_U+30EC_U+30A4_U+30E4_U+30FC 1
 62
   179
420
  2234388
370
     9
100
AcDbVertex
100
AcDb2dVertex
 10
103.3025734756429
 20
-136.9397960768765
 30
0.0
  0
SEQEND
  5
D9
330
D6
100
AcDbEntity
  8
_U+30EC_U+30A4_U+30E4_U+30FC 1
 62
   179
420
  2234388
370
     9
  0
INSERT
  5
DB
330
CE
100
AcDbEntity
  8
_U+30EC_U+30A4_U+30E4_U+30FC 1
100
AcDbBlockReference
  2
block 10
 10
0.0
 20
0.0
 30
0.0
  0
ENDBLK
  5
D1
330
CE
100
AcDbEntity
  8
0
100
AcDbBlockEnd
  0
BLOCK
  5
DC
330
DA
100
AcDbEntity
  8
0
100
AcDbBlockBegin
  2
block 10
 70
     0
 10
0.0
 20
0.0
 30
0.0
  3
block 10
  1

  0
SPLINE
  5
DE
330
DA
100
AcDbEntity
  8
_U+30EC_U+30A4_U+30E4_U+30FC 1
370
     0
100
AcDbSpline
210
0.0
220
0.0
230
1.0
 70
    11
 71
     3
 72
    62
 73
    58
 74
     0
 42
0.0000000001
 43
0.0000000001
 12
1.0
 22
0.0
 32
0.0
 13
1.0
 23
0.0
 33
0.0
 40
0.0
 40
0.0
 40
0.0
 40
0.0
 40
1.0
 40
1.0
 40
1.0
 40
2.0
 40
2.0
 40
2.0
 40
3.0
 40
3.0
 40
3.0
 40
4.0
 40
4.0
 40
4.0
 40
5.0
 40
5.0
 40
5.0
 40
6.0
 40
6.0
 40
6.0
 40
7.0
 40
7.0
 40
7.0
 40
8.0
 40
8.0
 40
8.0
 40
9.0
 40
9.0
 40
9.0
 40
10.0
 40
10.0
 40
10.0
 40
11.0
 40
11.0
 40
11.0
 40
12.0
 40
12.0
 40
12.0
 40
13.0
 40
13.0
 40
13.0
 40
14.0
 40
14.0
 40
14.0
 40
15.0
 40
15.0
 40
15.0
 40
16.0
 40
16.0
 40
16.0
 40
17.0
 40
17.0
 40
17.0
 40
18.0
 40
18.0
 40
18.0
 40
19.0
 40
19.0
 40
19.0
 40
19.0
 10
101.7067979346428
 20
-135.4473740980826
 30
0.0
 10
101.7067979346428
 20
-135.542803243024
 30
0.0
 10
101.6857828521827
 20
-135.7605332776918
 30
0.0
 10
101.4997476959792
 20
-135.8855902438064
 30
0.0
 10
101.3874375831601
 20
-135.9593152871907
 30
0.0
 10
101.2882188331849
 20
-135.9637939113215
 30
0.0
 10
101.2034694842477
 20
-135.9679280259039
 30
0.0
 10
101.2034694842477
 20
-135.9679280259039
 30
0.0
 10
101.2034694842477
 20
-135.7477864243964
 30
0.0
 10
101.2034694842477
 20
-135.7477864243964
 30
0.0
 10
101.2775390371806
 20
-135.7457193671052
 30
0.0
 10
101.5121500397261
 20
-135.7353840806495
 30
0.0
 10
101.5121500397261
 20
-135.4518527222134
 30
0.0
 10
101.5121500397261
 20
-135.314393412352
 30
0.0
 10
101.4425591109241
 20
-135.1617756823554
 30
0.0
 10
101.214149280252
 20
-135.1617756823554
 30
0.0
 10
101.0977050528506
 20
-135.1617756823554
 30
0.0
 10
101.0491292065086
 20
-135.2000162422417
 30
0.0
 10
101.0174343280443
 20
-135.231711120706
 30
0.0
 10
100.9433647751114
 20
-135.3057806736388
 30
0.0
 10
100.930617921816
 20
-135.4222249010403
 30
0.0
 10
100.930617921816
 20
-135.4770019192558
 30
0.0
 10
100.930617921816
 20
-135.4962944539731
 30
0.0
 10
100.9326849791071
 20
-135.5321234470198
 30
0.0
 10
100.9368190936894
 20
-135.5596842109018
 30
0.0
 10
100.9368190936894
 20
-135.5596842109018
 30
0.0
 10
100.7421711987728
 20
-135.5596842109018
 30
0.0
 10
100.7421711987728
 20
-135.5596842109018
 30
0.0
 10
100.7487168801948
 20
-135.5214436510155
 30
0.0
 10
100.7507839374859
 20
-135.4794134860954
 30
0.0
 10
100.7507839374859
 20
-135.4728678046735
 30
0.0
 10
100.7507839374859
 20
-135.4074109904537
 30
0.0
 10
100.7294243454774
 20
-135.2086289809548
 30
0.0
 10
100.4927462856407
 20
-135.2086289809548
 30
0.0
 10
100.3149793586018
 20
-135.2086289809548
 30
0.0
 10
100.2598578308378
 20
-135.3395426093943
 30
0.0
 10
100.2598578308378
 20
-135.4497856649223
 30
0.0
 10
100.2598578308378
 20
-135.7140244886409
 30
0.0
 10
100.4927462856407
 20
-135.7226372273541
 30
0.0
 10
100.5644042717339
 20
-135.7267713419364
 30
0.0
 10
100.5644042717339
 20
-135.7267713419364
 30
0.0
 10
100.5644042717339
 20
-135.9300319755661
 30
0.0
 10
100.5644042717339
 20
-135.9300319755661
 30
0.0
 10
100.4396918151679
 20
-135.921419236853
 30
0.0
 10
100.06314287863
 20
-135.893858472971
 30
0.0
 10
100.06314287863
 20
-135.4370388116268
 30
0.0
 10
100.06314287863
 20
-135.2127630955371
 30
0.0
 10
100.1902669020358
 20
-134.9716064115696
 30
0.0
 10
100.4862006042187
 20
-134.9716064115696
 30
0.0
 10
100.6725802699708
 20
-134.9716064115696
 30
0.0
 10
100.7549180520682
 20
-135.0666910469625
 30
0.0
 10
100.8162407517057
 20
-135.1662543064862
 30
0.0
 10
100.8438015155877
 20
-135.1049316068488
 30
0.0
 10
100.924072240394
 20
-134.9230305652276
 30
0.0
 10
101.2014024269566
 20
-134.9230305652276
 30
0.0
 10
101.5397108036081
 20
-134.9230305652276
 30
0.0
 10
101.7067979346428
 20
-135.1703884210685
 30
0.0
 10
101.7067979346428
 20
-135.4473740980826
 30
0.0
  0
HATCH
  5
DF
330
DA
100
AcDbEntity
  8
_U+30EC_U+30A4_U+30E4_U+30FC 1
 62
   179
420
  2234388
100
AcDbHatch
 10
0.0
 20
0.0
 30
0.0
210
0.0
220
0.0
230
1.0
  2
SOLID
 70
     1
 71
     0
 91
        1
 92
        1
 93
        1
 72
     4
 94
        3
 73
     0
 74
     1
 95
       62
 96
       58
 40
0.0
 40
0.0
 40
0.0
 40
0.0
 40
1.0
 40
1.0
 40
1.0
 40
2.0
 40
2.0
 40
2.0
 40
3.0
 40
3.0
 40
3.0
 40
4.0
 40
4.0
 40
4.0
 40
5.0
 40
5.0
 40
5.0
 40
6.0
 40
6.0
 40
6.0
 40
7.0
 40
7.0
 40
7.0
 40
8.0
 40
8.0
 40
8.0
 40
9.0
 40
9.0
 40
9.0
 40
10.0
 40
10.0
 40
10.0
 40
11.0
 40
11.0
 40
11.0
 40
12.0
 40
12.0
 40
12.0
 40
13.0
 40
13.0
 40
13.0
 40
14.0
 40
14.0
 40
14.0
 40
15.0
 40
15.0
 40
15.0
 40
16.0
 40
16.0
 40
16.0
 40
17.0
 40
17.0
 40
17.0
 40
18.0
 40
18.0
 40
18.0
 40
19.0
 40
19.0
 40
19.0
 40
19.0
 10
101.7067979346428
 20
-135.4473740980826
 10
101.7067979346428
 20
-135.542803243024
 10
101.6857828521827
 20
-135.7605332776918
 10
101.4997476959792
 20
-135.8855902438064
 10
101.3874375831601
 20
-135.9593152871907
 10
101.2882188331849
 20
-135.9637939113215
 10
101.2034694842477
 20
-135.9679280259039
 10
101.2034694842477
 20
-135.9679280259039
 10
101.2034694842477
 20
-135.7477864243964
 10
101.2034694842477
 20
-135.7477864243964
 10
101.2775390371806
 20
-135.7457193671052
 10
101.5121500397261
 20
-135.7353840806495
 10
101.5121500397261
 20
-135.4518527222134
 10
101.5121500397261
 20
-135.314393412352
 10
101.4425591109241
 20
-135.1617756823554
 10
101.214149280252
 20
-135.1617756823554
 10
101.0977050528506
 20
-135.1617756823554
 10
101.0491292065086
 20
-135.2000162422417
 10
101.0174343280443
 20
-135.231711120706
 10
100.9433647751114
 20
-135.3057806736388
 10
100.930617921816
 20
-135.4222249010403
 10
100.930617921816
 20
-135.4770019192558
 10
100.930617921816
 20
-135.4962944539731
 10
100.9326849791071
 20
-135.5321234470198
 10
100.9368190936894
 20
-135.5596842109018
 10
100.9368190936894
 20
-135.5596842109018
 10
100.7421711987728
 20
-135.5596842109018
 10
100.7421711987728
 20
-135.5596842109018
 10
100.7487168801948
 20
-135.5214436510155
 10
100.7507839374859
 20
-135.4794134860954
 10
100.7507839374859
 20
-135.4728678046735
 10
100.7507839374859
 20
-135.4074109904537
 10
100.7294243454774
 20
-135.2086289809548
 10
100.4927462856407
 20
-135.2086289809548
 10
100.3149793586018
 20
-135.2086289809548
 10
100.2598578308378
 20
-135.3395426093943
 10
100.2598578308378
 20
-135.4497856649223
 10
100.2598578308378
 20
-135.7140244886409
 10
100.4927462856407
 20
-135.7226372273541
 10
100.5644042717339
 20
-135.7267713419364
 10
100.5644042717339
 20
-135.7267713419364
 10
100.5644042717339
 20
-135.9300319755661
 10
100.5644042717339
 20
-135.9300319755661
 10
100.4396918151679
 20
-135.921419236853
 10
100.06314287863
 20
-135.893858472971
 10
100.06314287863
 20
-135.4370388116268
 10
100.06314287863
 20
-135.2127630955371
 10
100.1902669020358
 20
-134.9716064115696
 10
100.4862006042187
 20
-134.9716064115696
 10
100.6725802699708
 20
-134.9716064115696
 10
100.7549180520682
 20
-135.0666910469625
 10
100.8162407517057
 20
-135.1662543064862
 10
100.8438015155877
 20
-135.1049316068488
 10
100.924072240394
 20
-134.9230305652276
 10
101.2014024269566
 20
-134.9230305652276
 10
101.5397108036081
 20
-134.9230305652276
 10
101.7067979346428
 20
-135.1703884210685
 10
101.7067979346428
 20
-135.4473740980826
 97
        0
 97
        0
 75
     2
 76
     1
 98
        0
  0
ENDBLK
  5
DD
330
DA
100
AcDbEntity
  8
0
100
AcDbBlockEnd
  0
BLOCK
  5
E2
330
E0
100
AcDbEntity
  8
0
100
AcDbBlockBegin
  2
block 11
 70
     0
 10
0.0
 20
0.0
 30
0.0
  3
block 11
  1

  0
POLYLINE
  5
E4
330
E0
100
AcDbEntity
  8
_U+30EC_U+30A4_U+30E4_U+30FC 1
 62
   179
420
  2234388
370
     9
100
AcDb2dPolyline
 66
     1
 10
0.0
 20
0.0
 30
0.0
  0
VERTEX
  5
E5
330
E4
100
AcDbEntity
  8
_U+30EC_U+30A4_U+30E4_U+30FC 1
 62
   179
420
  2234388
370
     9
100
AcDbVertex
100
AcDb2dVertex
 10
102.3020957233894
 20
-133.9398091331815
 30
0.0
  0
VERTEX
  5
E6
330
E4
100
AcDbEntity
  8
_U+30EC_U+30A4_U+30E4_U+30FC 1
 62
   179
420
  2234388
370
     9
100
AcDbVertex
100
AcDb2dVertex
 10
102.3020957233894
 20
-123.9400760801262
 30
0.0
  0
SEQEND
  5
E7
330
E4
100
AcDbEntity
  8
_U+30EC_U+30A4_U+30E4_U+30FC 1
 62
   179
420
  2234388
370
     9
  0
POLYLINE
  5
E8
330
E0
100
AcDbEntity
  8
_U+30EC_U+30A4_U+30E4_U+30FC 1
 62
   179
420
  2234388
370
     9
100
AcDb2dPolyline
 66
     1
 10
0.0
 20
0.0
 30
0.0
  0
VERTEX
  5
E9
330
E8
100
AcDbEntity
  8
_U+30EC_U+30A4_U+30E4_U+30FC 1
 62
   179
420
  2234388
370
     9
100
AcDbVertex
100
AcDb2dVertex
 10
85.8421222007618
 20
-133.9398091331815
 30
0.0
  0
VERTEX
  5
EA
330
E8
100
AcDbEntity
  8
_U+30EC_U+30A4_U+30E4_U+30FC 1
 62
   179
420
  2234388
370
     9
100
AcDbVertex
100
AcDb2dVertex
 10
103.3025734756429
 20
-133.9398091331815
 30
0.0
  0
SEQEND
  5
EB
330
E8
100
AcDbEntity
  8
_U+30EC_U+30A4_U+30E4_U+30FC 1
 62
   179
420
  2234388
370
     9
  0
INSERT
  5
ED
330
E0
100
AcDbEntity
  8
_U+30EC_U+30A4_U+30E4_U+30FC 1
100
AcDbBlockReference
  2
block 12
 10
0.0
 20
0.0
 30
0.0
  0
ENDBLK
  5
E3
330
E0
100
AcDbEntity
  8
0
100
AcDbBlockEnd
  0
BLOCK
  5
EE
330
EC
100
AcDbEntity
  8
0
100
AcDbBlockBegin
  2
block 12
 70
     0
 10
0.0
 20
0.0
 30
0.0
  3
block 12
  1

  0
SPLINE
  5
F0
330
EC
100
AcDbEntity
  8
_U+30EC_U+30A4_U+30E4_U+30FC 1
370
     0
100
AcDbSpline
210
0.0
220
0.0
230
1.0
 70
    11
 71
     3
 72
    26
 73
    22
 74
     0
 42
0.0000000001
 43
0.0000000001
 12
1.0
 22
0.0
 32
0.0
 13
1.0
 23
0.0
 33
0.0
 40
0.0
 40
0.0
 40
0.0
 40
0.0
 40
1.0
 40
1.0
 40
1.0
 40
2.0
 40
2.0
 40
2.0
 40
3.0
 40
3.0
 40
3.0
 40
4.0
 40
4.0
 40
4.0
 40
5.0
 40
5.0
 40
5.0
 40
6.0
 40
6.0
 40
6.0
 40
7.0
 40
7.0
 40
7.0
 40
7.0
 10
101.6561550310096
 20
-129.5769313912169
 30
0.0
 10
101.6561550310096
 20
-129.5769313912169
 30
0.0
 10
100.552001927987
 20
-129.5769313912169
 30
0.0
 10
100.552001927987
 20
-129.5769313912169
 30
0.0
 10
100.552001927987
 20
-129.5769313912169
 30
0.0
 10
100.552001927987
 20
-129.9069715387038
 30
0.0
 10
100.552001927987
 20
-129.9069715387038
 30
0.0
 10
100.552001927987
 20
-129.9069715387038
 30
0.0
 10
100.4038628221213
 20
-129.9069715387038
 30
0.0
 10
100.4038628221213
 20
-129.9069715387038
 30
0.0
 10
100.3890489115347
 20
-129.5748643339257
 30
0.0
 10
100.2260958950824
 20
-129.5283555448749
 30
0.0
 10
100.1117187249721
 20
-129.4987277237017
 30
0.0
 10
100.1117187249721
 20
-129.4987277237017
 30
0.0
 10
100.1117187249721
 20
-129.3526556751271
 30
0.0
 10
100.1117187249721
 20
-129.3526556751271
 30
0.0
 10
100.1117187249721
 20
-129.3526556751271
 30
0.0
 10
101.6561550310096
 20
-129.3526556751271
 30
0.0
 10
101.6561550310096
 20
-129.3526556751271
 30
0.0
 10
101.6561550310096
 20
-129.3526556751271
 30
0.0
 10
101.6561550310096
 20
-129.5769313912169
 30
0.0
 10
101.6561550310096
 20
-129.5769313912169
 30
0.0
  0
HATCH
  5
F1
330
EC
100
AcDbEntity
  8
_U+30EC_U+30A4_U+30E4_U+30FC 1
 62
   179
420
  2234388
100
AcDbHatch
 10
0.0
 20
0.0
 30
0.0
210
0.0
220
0.0
230
1.0
  2
SOLID
 70
     1
 71
     0
 91
        1
 92
        1
 93
        1
 72
     4
 94
        3
 73
     0
 74
     1
 95
       26
 96
       22
 40
0.0
 40
0.0
 40
0.0
 40
0.0
 40
1.0
 40
1.0
 40
1.0
 40
2.0
 40
2.0
 40
2.0
 40
3.0
 40
3.0
 40
3.0
 40
4.0
 40
4.0
 40
4.0
 40
5.0
 40
5.0
 40
5.0
 40
6.0
 40
6.0
 40
6.0
 40
7.0
 40
7.0
 40
7.0
 40
7.0
 10
101.6561550310096
 20
-129.5769313912169
 10
101.6561550310096
 20
-129.5769313912169
 10
100.552001927987
 20
-129.5769313912169
 10
100.552001927987
 20
-129.5769313912169
 10
100.552001927987
 20
-129.5769313912169
 10
100.552001927987
 20
-129.9069715387038
 10
100.552001927987
 20
-129.9069715387038
 10
100.552001927987
 20
-129.9069715387038
 10
100.4038628221213
 20
-129.9069715387038
 10
100.4038628221213
 20
-129.9069715387038
 10
100.3890489115347
 20
-129.5748643339257
 10
100.2260958950824
 20
-129.5283555448749
 10
100.1117187249721
 20
-129.4987277237017
 10
100.1117187249721
 20
-129.4987277237017
 10
100.1117187249721
 20
-129.3526556751271
 10
100.1117187249721
 20
-129.3526556751271
 10
100.1117187249721
 20
-129.3526556751271
 10
101.6561550310096
 20
-129.3526556751271
 10
101.6561550310096
 20
-129.3526556751271
 10
101.6561550310096
 20
-129.3526556751271
 10
101.6561550310096
 20
-129.5769313912169
 10
101.6561550310096
 20
-129.5769313912169
 97
        0
 97
        0
 75
     2
 76
     1
 98
        0
  0
SPLINE
  5
F2
330
EC
100
AcDbEntity
  8
_U+30EC_U+30A4_U+30E4_U+30FC 1
370
     0
100
AcDbSpline
210
0.0
220
0.0
230
1.0
 70
    11
 71
     3
 72
    29
 73
    25
 74
     0
 42
0.0000000001
 43
0.0000000001
 12
1.0
 22
0.0
 32
0.0
 13
1.0
 23
0.0
 33
0.0
 40
0.0
 40
0.0
 40
0.0
 40
0.0
 40
1.0
 40
1.0
 40
1.0
 40
2.0
 40
2.0
 40
2.0
 40
3.0
 40
3.0
 40
3.0
 40
4.0
 40
4.0
 40
4.0
 40
5.0
 40
5.0
 40
5.0
 40
6.0
 40
6.0
 40
6.0
 40
7.0
 40
7.0
 40
7.0
 40
8.0
 40
8.0
 40
8.0
 40
8.0
 10
101.4783881039707
 20
-127.9536023985672
 30
0.0
 10
101.6878499094739
 20
-128.061778396804
 30
0.0
 10
101.7067979346428
 20
-128.2350666997121
 30
0.0
 10
101.7067979346428
 20
-128.3515109271135
 30
0.0
 10
101.7067979346428
 20
-128.5123968862747
 30
0.0
 10
101.6602891455919
 20
-128.6539903107185
 30
0.0
 10
101.4783881039707
 20
-128.7490749461113
 30
0.0
 10
101.2837402090541
 20
-128.8527723202174
 30
0.0
 10
101.0467176396689
 20
-128.8720648549348
 30
0.0
 10
100.8841091327651
 20
-128.8720648549348
 30
0.0
 10
100.7401041414817
 20
-128.8720648549348
 30
0.0
 10
100.4882676615099
 20
-128.8548393775085
 30
0.0
 10
100.289485652011
 20
-128.7490749461113
 30
0.0
 10
100.0865695279298
 20
-128.641243457423
 30
0.0
 10
100.06314287863
 20
-128.4803574982619
 30
0.0
 10
100.06314287863
 20
-128.3515109271135
 30
0.0
 10
100.06314287863
 20
-128.1926920252435
 30
0.0
 10
100.1075846103898
 20
-128.0490315435086
 30
0.0
 10
100.289485652011
 20
-127.9536023985672
 30
0.0
 10
100.4820664896364
 20
-127.854383648592
 30
0.0
 10
100.7104763203085
 20
-127.8309569992923
 30
0.0
 10
100.8841091327651
 20
-127.8309569992923
 30
0.0
 10
101.055330378382
 20
-127.8309569992923
 30
0.0
 10
101.2858072663452
 20
-127.8523165913008
 30
0.0
 10
101.4783881039707
 20
-127.9536023985672
 30
0.0
  0
SPLINE
  5
F3
330
EC
100
AcDbEntity
  8
_U+30EC_U+30A4_U+30E4_U+30FC 1
370
     0
100
AcDbSpline
210
0.0
220
0.0
230
1.0
 70
    11
 71
     3
 72
    17
 73
    13
 74
     0
 42
0.0000000001
 43
0.0000000001
 12
1.0
 22
0.0
 32
0.0
 13
1.0
 23
0.0
 33
0.0
 40
0.0
 40
0.0
 40
0.0
 40
0.0
 40
1.0
 40
1.0
 40
1.0
 40
2.0
 40
2.0
 40
2.0
 40
3.0
 40
3.0
 40
3.0
 40
4.0
 40
4.0
 40
4.0
 40
4.0
 10
100.2557237162555
 20
-128.3515109271135
 30
0.0
 10
100.2557237162555
 20
-128.6012803497941
 30
0.0
 10
100.5392550746916
 20
-128.647789138845
 30
0.0
 10
100.8841091327651
 20
-128.647789138845
 30
0.0
 10
101.2034694842477
 20
-128.647789138845
 30
0.0
 10
101.5121500397261
 20
-128.6116156362499
 30
0.0
 10
101.5121500397261
 20
-128.3515109271135
 30
0.0
 10
101.5121500397261
 20
-128.1038085617241
 30
0.0
 10
101.2310302481297
 20
-128.055232715382
 30
0.0
 10
100.8841091327651
 20
-128.055232715382
 30
0.0
 10
100.5644042717339
 20
-128.055232715382
 30
0.0
 10
100.2557237162555
 20
-128.0934732752683
 30
0.0
 10
100.2557237162555
 20
-128.3515109271135
 30
0.0
  0
HATCH
  5
F4
330
EC
100
AcDbEntity
  8
_U+30EC_U+30A4_U+30E4_U+30FC 1
 62
   179
420
  2234388
100
AcDbHatch
 10
0.0
 20
0.0
 30
0.0
210
0.0
220
0.0
230
1.0
  2
SOLID
 70
     1
 71
     0
 91
        2
 92
        1
 93
        1
 72
     4
 94
        3
 73
     0
 74
     1
 95
       29
 96
       25
 40
0.0
 40
0.0
 40
0.0
 40
0.0
 40
1.0
 40
1.0
 40
1.0
 40
2.0
 40
2.0
 40
2.0
 40
3.0
 40
3.0
 40
3.0
 40
4.0
 40
4.0
 40
4.0
 40
5.0
 40
5.0
 40
5.0
 40
6.0
 40
6.0
 40
6.0
 40
7.0
 40
7.0
 40
7.0
 40
8.0
 40
8.0
 40
8.0
 40
8.0
 10
101.4783881039707
 20
-127.9536023985672
 10
101.6878499094739
 20
-128.061778396804
 10
101.7067979346428
 20
-128.2350666997121
 10
101.7067979346428
 20
-128.3515109271135
 10
101.7067979346428
 20
-128.5123968862747
 10
101.6602891455919
 20
-128.6539903107185
 10
101.4783881039707
 20
-128.7490749461113
 10
101.2837402090541
 20
-128.8527723202174
 10
101.0467176396689
 20
-128.8720648549348
 10
100.8841091327651
 20
-128.8720648549348
 10
100.7401041414817
 20
-128.8720648549348
 10
100.4882676615099
 20
-128.8548393775085
 10
100.289485652011
 20
-128.7490749461113
 10
100.0865695279298
 20
-128.641243457423
 10
100.06314287863
 20
-128.4803574982619
 10
100.06314287863
 20
-128.3515109271135
 10
100.06314287863
 20
-128.1926920252435
 10
100.1075846103898
 20
-128.0490315435086
 10
100.289485652011
 20
-127.9536023985672
 10
100.4820664896364
 20
-127.854383648592
 10
100.7104763203085
 20
-127.8309569992923
 10
100.8841091327651
 20
-127.8309569992923
 10
101.055330378382
 20
-127.8309569992923
 10
101.2858072663452
 20
-127.8523165913008
 10
101.4783881039707
 20
-127.9536023985672
 97
        0
 97
        0
 92
        1
 93
        1
 72
     4
 94
        3
 73
     0
 74
     1
 95
       17
 96
       13
 40
0.0
 40
0.0
 40
0.0
 40
0.0
 40
1.0
 40
1.0
 40
1.0
 40
2.0
 40
2.0
 40
2.0
 40
3.0
 40
3.0
 40
3.0
 40
4.0
 40
4.0
 40
4.0
 40
4.0
 10
100.2557237162555
 20
-128.3515109271135
 10
100.2557237162555
 20
-128.6012803497941
 10
100.5392550746916
 20
-128.647789138845
 10
100.8841091327651
 20
-128.647789138845
 10
101.2034694842477
 20
-128.647789138845
 10
101.5121500397261
 20
-128.6116156362499
 10
101.5121500397261
 20
-128.3515109271135
 10
101.5121500397261
 20
-128.1038085617241
 10
101.2310302481297
 20
-128.055232715382
 10
100.8841091327651
 20
-128.055232715382
 10
100.5644042717339
 20
-128.055232715382
 10
100.2557237162555
 20
-128.0934732752683
 10
100.2557237162555
 20
-128.3515109271135
 97
        0
 97
        0
 75
     2
 76
     1
 98
        0
  0
ENDBLK
  5
EF
330
EC
100
AcDbEntity
  8
0
100
AcDbBlockEnd
  0
ENDSEC
  0
SECTION
  2
ENTITIES
  0
INSERT
  5
42
330
1F
100
AcDbEntity
  8
_U+30EC_U+30A4_U+30E4_U+30FC 1
100
AcDbBlockReference
  2
block 2
 10
0.0
 20
0.0
 30
0.0
  0
ENDSEC
  0
SECTION
  2
OBJECTS
  0
DICTIONARY
  5
C
330
0
100
AcDbDictionary
281
     1
  3
ACAD_GROUP
350
D
  3
ACAD_LAYOUT
350
1A
  3
ACAD_MATERIAL
350
3B
  3
ACAD_MLEADERSTYLE
350
F6
  3
ACAD_MLINESTYLE
350
17
  3
ACAD_PLOTSETTINGS
350
19
  3
ACAD_PLOTSTYLENAME
350
E
  3
ACAD_TABLESTYLE
350
F5
  3
ACAD_VISUALSTYLE
350
2A
  0
SUN
  5
3F
330
29
100
AcDbSun
 90
        1
290
     0
 63
     7
421
 16777215
 40
1.0
291
     1
 91
  2455826
 92
 54000000
292
     0
 70
     2
 71
   256
280
     1
  0
DICTIONARY
  5
D
102
{ACAD_REACTORS
330
C
102
}
330
C
100
AcDbDictionary
281
     1
  0
DICTIONARY
  5
1A
102
{ACAD_REACTORS
330
C
102
}
330
C
100
AcDbDictionary
281
     1
  3
Layout1
350
1E
  3
Layout2
350
26
  3
Model
350
22
  0
DICTIONARY
  5
3B
102
{ACAD_REACTORS
330
C
102
}
330
C
100
AcDbDictionary
281
     1
  3
ByBlock
350
3D
  3
ByLayer
350
3C
  3
Global
350
3E
  0
DICTIONARY
  5
F6
102
{ACAD_REACTORS
330
C
102
}
330
C
100
AcDbDictionary
281
     1
  0
DICTIONARY
  5
17
102
{ACAD_REACTORS
330
C
102
}
330
C
100
AcDbDictionary
281
     1
  3
Standard
350
18
  0
DICTIONARY
  5
19
102
{ACAD_REACTORS
330
C
102
}
330
C
100
AcDbDictionary
281
     1
  0
ACDBDICTIONARYWDFLT
  5
E
102
{ACAD_REACTORS
330
C
102
}
330
C
100
AcDbDictionary
281
     1
  3
Normal
350
F
100
AcDbDictionaryWithDefault
340
F
  0
DICTIONARY
  5
F5
102
{ACAD_REACTORS
330
C
102
}
330
C
100
AcDbDictionary
281
     1
  0
DICTIONARY
  5
2A
102
{ACAD_REACTORS
330
C
102
}
330
C
100
AcDbDictionary
281
     1
  3
2dWireframe
350
2F
  3
3D Hidden
350
31
  3
3dWireframe
350
30
  3
Basic
350
32
  3
Brighten
350
36
  3
ColorChange
350
3A
  3
Conceptual
350
34
  3
Dim
350
35
  3
Facepattern
350
39
  3
Flat
350
2B
  3
FlatWithEdges
350
2C
  3
Gouraud
350
2D
  3
GouraudWithEdges
350
2E
  3
Linepattern
350
38
  3
Realistic
350
33
  3
Thicken
350
37
  0
LAYOUT
  5
1E
102
{ACAD_REACTORS
330
1A
102
}
330
1A
100
AcDbPlotSettings
  1

  2
none_device
  4

  6

 40
0.0
 41
0.0
 42
0.0
 43
0.0
 44
0.0
 45
0.0
 46
0.0
 47
0.0
 48
0.0
 49
0.0
140
0.0
141
0.0
142
1.0
143
1.0
 70
   688
 72
     0
 73
     0
 74
     5
  7

 75
    16
 76
     0
 77
     2
 78
   300
147
1.0
148
0.0
149
0.0
100
AcDbLayout
  1
Layout1
 70
     1
 71
     1
 10
0.0
 20
0.0
 11
12.0
 21
9.0
 12
0.0
 22
0.0
 32
0.0
 14
1.000000000000000E+20
 24
1.000000000000000E+20
 34
1.000000000000000E+20
 15
-1.000000000000000E+20
 25
-1.000000000000000E+20
 35
-1.000000000000000E+20
146
0.0
 13
0.0
 23
0.0
 33
0.0
 16
1.0
 26
0.0
 36
0.0
 17
0.0
 27
1.0
 37
0.0
 76
     0
330
1B
  0
LAYOUT
  5
26
102
{ACAD_REACTORS
330
1A
102
}
330
1A
100
AcDbPlotSettings
  1

  2
none_device
  4

  6

 40
0.0
 41
0.0
 42
0.0
 43
0.0
 44
0.0
 45
0.0
 46
0.0
 47
0.0
 48
0.0
 49
0.0
140
0.0
141
0.0
142
1.0
143
1.0
 70
   688
 72
     0
 73
     0
 74
     5
  7

 75
    16
 76
     0
 77
     2
 78
   300
147
1.0
148
0.0
149
0.0
100
AcDbLayout
  1
Layout2
 70
     1
 71
     2
 10
0.0
 20
0.0
 11
0.0
 21
0.0
 12
0.0
 22
0.0
 32
0.0
 14
0.0
 24
0.0
 34
0.0
 15
0.0
 25
0.0
 35
0.0
146
0.0
 13
0.0
 23
0.0
 33
0.0
 16
1.0
 26
0.0
 36
0.0
 17
0.0
 27
1.0
 37
0.0
 76
     0
330
23
  0
LAYOUT
  5
22
102
{ACAD_REACTORS
330
1A
102
}
330
1A
100
AcDbPlotSettings
  1

  2
none_device
  4

  6

 40
0.0
 41
0.0
 42
0.0
 43
0.0
 44
0.0
 45
0.0
 46
0.0
 47
0.0
 48
0.0
 49
0.0
140
0.0
141
0.0
142
1.0
143
1.0
 70
  1712
 72
     0
 73
     0
 74
     0
  7

 75
     0
 76
     0
 77
     2
 78
   300
147
1.0
148
0.0
149
0.0
100
AcDbLayout
  1
Model
 70
     1
 71
     0
 10
0.0
 20
0.0
 11
12.0
 21
9.0
 12
0.0
 22
0.0
 32
0.0
 14
1.000000000000000E+20
 24
1.000000000000000E+20
 34
1.000000000000000E+20
 15
-1.000000000000000E+20
 25
-1.000000000000000E+20
 35
-1.000000000000000E+20
146
0.0
 13
0.0
 23
0.0
 33
0.0
 16
1.0
 26
0.0
 36
0.0
 17
0.0
 27
1.0
 37
0.0
 76
     0
330
1F
331
29
  0
MATERIAL
  5
3D
102
{ACAD_REACTORS
330
3B
102
}
330
3B
100
AcDbMaterial
  1
ByBlock
 72
     1
 94
      127
  0
MATERIAL
  5
3C
102
{ACAD_REACTORS
330
3B
102
}
330
3B
100
AcDbMaterial
  1
ByLayer
 72
     1
 94
      127
  0
MATERIAL
  5
3E
102
{ACAD_REACTORS
330
3B
102
}
330
3B
100
AcDbMaterial
  1
Global
 72
     1
 94
      127
  0
MLINESTYLE
  5
18
102
{ACAD_REACTORS
330
17
102
}
330
17
100
AcDbMlineStyle
  2
Standard
 70
     0
  3

 62
   256
 51
90.0
 52
90.0
 71
     2
 49
0.5
 62
   256
  6
BYLAYER
 49
-0.5
 62
   256
  6
BYLAYER
  0
ACDBPLACEHOLDER
  5
F
102
{ACAD_REACTORS
330
E
102
}
330
E
  0
VISUALSTYLE
  5
2F
102
{ACAD_REACTORS
330
2A
102
}
330
2A
100
AcDbVisualStyle
  2
2dWireframe
 70
     4
177
     2
291
     0
 71
     0
176
     1
 72
     2
176
     1
 73
     0
176
     1
 90
        0
176
     1
 40
-0.6
176
     1
 41
-30.0
176
     1
 62
     5
 63
     7
421
 16777215
176
     1
 74
     1
176
     1
 91
        4
176
     1
 64
     7
176
     1
 65
   257
176
     1
 75
     1
176
     1
175
     1
176
     1
 42
1.0
176
     1
 92
        0
176
     1
 66
   257
176
     1
 43
1.0
176
     1
 76
     1
176
     1
 77
     6
176
     1
 78
     2
176
     1
 67
     7
176
     1
 79
     5
176
     1
170
     0
176
     1
171
     0
176
     1
290
     0
176
     1
 93
        1
176
     1
 44
0.0
176
     1
173
     0
176
     1
  0
VISUALSTYLE
  5
31
102
{ACAD_REACTORS
330
2A
102
}
330
2A
100
AcDbVisualStyle
  2
3D Hidden
 70
     6
177
     2
291
     0
 71
     1
176
     1
 72
     2
176
     1
 73
     2
176
     1
 90
        0
176
     1
 40
-0.6
176
     1
 41
-30.0
176
     1
 62
     5
 63
     7
421
 16777215
176
     1
 74
     2
176
     1
 91
        2
176
     1
 64
     7
176
     1
 65
   257
176
     1
 75
     2
176
     1
175
     1
176
     1
 42
40.0
176
     1
 92
        0
176
     1
 66
   257
176
     1
 43
1.0
176
     1
 76
     1
176
     1
 77
     6
176
     1
 78
     2
176
     1
 67
     7
176
     1
 79
     3
176
     1
170
     0
176
     1
171
     0
176
     1
290
     0
176
     1
 93
        1
176
     1
 44
0.0
176
     1
173
     0
176
     1
  0
VISUALSTYLE
  5
30
102
{ACAD_REACTORS
330
2A
102
}
330
2A
100
AcDbVisualStyle
  2
3dWireframe
 70
     5
177
     2
291
     0
 71
     0
176
     1
 72
     2
176
     1
 73
     0
176
     1
 90
        0
176
     1
 40
-0.6
176
     1
 41
-30.0
176
     1
 62
     5
 63
     7
421
 16777215
176
     1
 74
     1
176
     1
 91
        4
176
     1
 64
     7
176
     1
 65
   257
176
     1
 75
     1
176
     1
175
     1
176
     1
 42
1.0
176
     1
 92
        0
176
     1
 66
   257
176
     1
 43
1.0
176
     1
 76
     1
176
     1
 77
     6
176
     1
 78
     2
176
     1
 67
     7
176
     1
 79
     5
176
     1
170
     0
176
     1
171
     0
176
     1
290
     0
176
     1
 93
        1
176
     1
 44
0.0
176
     1
173
     0
176
     1
  0
VISUALSTYLE
  5
32
102
{ACAD_REACTORS
330
2A
102
}
330
2A
100
AcDbVisualStyle
  2
Basic
 70
     7
177
     2
291
     1
 71
     1
176
     1
 72
     0
176
     1
 73
     1
176
     1
 90
        0
176
     1
 40
-0.6
176
     1
 41
-30.0
176
     1
 62
     5
 63
     7
421
 16777215
176
     1
 74
     0
176
     1
 91
        4
176
     1
 64
     7
176
     1
 65
   257
176
     1
 75
     1
176
     1
175
     1
176
     1
 42
1.0
176
     1
 92
        8
176
     1
 66
     7
176
     1
 43
1.0
176
     1
 76
     1
176
     1
 77
     6
176
     1
 78
     2
176
     1
 67
     7
176
     1
 79
     5
176
     1
170
     0
176
     1
171
     0
176
     1
290
     0
176
     1
 93
        1
176
     1
 44
0.0
176
     1
173
     0
176
     1
  0
VISUALSTYLE
  5
36
102
{ACAD_REACTORS
330
2A
102
}
330
2A
100
AcDbVisualStyle
  2
Brighten
 70
    12
177
     2
291
     1
 71
     2
176
     1
 72
     2
176
     1
 73
     0
176
     1
 90
        0
176
     1
 40
-0.6
176
     1
 41
-30.0
176
     1
 62
     5
 63
     7
421
 16777215
176
     1
 74
     1
176
     1
 91
        4
176
     1
 64
     7
176
     1
 65
   257
176
     1
 75
     1
176
     1
175
     1
176
     1
 42
1.0
176
     1
 92
        8
176
     1
 66
     7
176
     1
 43
1.0
176
     1
 76
     1
176
     1
 77
     6
176
     1
 78
     2
176
     1
 67
     7
176
     1
 79
     5
176
     1
170
     0
176
     1
171
     0
176
     1
290
     0
176
     1
 93
        1
176
     1
 44
50.0
176
     1
173
     0
176
     1
  0
VISUALSTYLE
  5
3A
102
{ACAD_REACTORS
330
2A
102
}
330
2A
100
AcDbVisualStyle
  2
ColorChange
 70
    16
177
     2
291
     1
 71
     2
176
     1
 72
     2
176
     1
 73
     3
176
     1
 90
        0
176
     1
 40
-0.6
176
     1
 41
-30.0
176
     1
 62
     5
 63
     8
421
  8421504
176
     1
 74
     1
176
     1
 91
        4
176
     1
 64
     7
176
     1
 65
   257
176
     1
 75
     1
176
     1
175
     1
176
     1
 42
1.0
176
     1
 92
        8
176
     1
 66
     8
424
  8421504
176
     1
 43
1.0
176
     1
 76
     1
176
     1
 77
     6
176
     1
 78
     2
176
     1
 67
     7
176
     1
 79
     5
176
     1
170
     0
176
     1
171
     0
176
     1
290
     0
176
     1
 93
        1
176
     1
 44
0.0
176
     1
173
     0
176
     1
  0
VISUALSTYLE
  5
34
102
{ACAD_REACTORS
330
2A
102
}
330
2A
100
AcDbVisualStyle
  2
Conceptual
 70
     9
177
     2
291
     0
 71
     3
176
     1
 72
     2
176
     1
 73
     0
176
     1
 90
        0
176
     1
 40
-0.6
176
     1
 41
-30.0
176
     1
 62
     5
 63
     7
421
 16777215
176
     1
 74
     2
176
     1
 91
        2
176
     1
 64
     7
176
     1
 65
   257
176
     1
 75
     1
176
     1
175
     1
176
     1
 42
40.0
176
     1
 92
        8
176
     1
 66
     7
176
     1
 43
1.0
176
     1
 76
     1
176
     1
 77
     6
176
     1
 78
     2
176
     1
 67
     7
176
     1
 79
     3
176
     1
170
     0
176
     1
171
     0
176
     1
290
     0
176
     1
 93
        1
176
     1
 44
0.0
176
     1
173
     0
176
     1
  0
VISUALSTYLE
  5
35
102
{ACAD_REACTORS
330
2A
102
}
330
2A
100
AcDbVisualStyle
  2
Dim
 70
    11
177
     2
291
     1
 71
     2
176
     1
 72
     2
176
     1
 73
     0
176
     1
 90
        0
176
     1
 40
-0.6
176
     1
 41
-30.0
176
     1
 62
     5
 63
     7
421
 16777215
176
     1
 74
     1
176
     1
 91
        4
176
     1
 64
     7
176
     1
 65
   257
176
     1
 75
     1
176
     1
175
     1
176
     1
 42
1.0
176
     1
 92
        8
176
     1
 66
     7
176
     1
 43
1.0
176
     1
 76
     1
176
     1
 77
     6
176
     1
 78
     2
176
     1
 67
     7
176
     1
 79
     5
176
     1
170
     0
176
     1
171
     0
176
     1
290
     0
176
     1
 93
        1
176
     1
 44
-50.0
176
     1
173
     0
176
     1
  0
VISUALSTYLE
  5
39
102
{ACAD_REACTORS
330
2A
102
}
330
2A
100
AcDbVisualStyle
  2
Facepattern
 70
    15
177
     2
291
     1
 71
     2
176
     1
 72
     2
176
     1
 73
     0
176
     1
 90
        0
176
     1
 40
-0.6
176
     1
 41
-30.0
176
     1
 62
     5
 63
     7
421
 16777215
176
     1
 74
     1
176
     1
 91
        4
176
     1
 64
     7
176
     1
 65
   257
176
     1
 75
     1
176
     1
175
     1
176
     1
 42
1.0
176
     1
 92
        8
176
     1
 66
     7
176
     1
 43
1.0
176
     1
 76
     1
176
     1
 77
     6
176
     1
 78
     2
176
     1
 67
     7
176
     1
 79
     5
176
     1
170
     0
176
     1
171
     0
176
     1
290
     0
176
     1
 93
        1
176
     1
 44
0.0
176
     1
173
     0
176
     1
  0
VISUALSTYLE
  5
2B
102
{ACAD_REACTORS
330
2A
102
}
330
2A
100
AcDbVisualStyle
  2
Flat
 70
     0
177
     2
291
     1
 71
     2
176
     1
 72
     1
176
     1
 73
     1
176
     1
 90
        2
176
     1
 40
-0.6
176
     1
 41
30.0
176
     1
 62
     5
 63
     7
421
 16777215
176
     1
 74
     0
176
     1
 91
        4
176
     1
 64
     7
176
     1
 65
   257
176
     1
 75
     1
176
     1
175
     1
176
     1
 42
1.0
176
     1
 92
        8
176
     1
 66
     7
176
     1
 43
1.0
176
     1
 76
     1
176
     1
 77
     6
176
     1
 78
     2
176
     1
 67
     7
176
     1
 79
     5
176
     1
170
     0
176
     1
171
     0
176
     1
290
     0
176
     1
 93
       13
176
     1
 44
0.0
176
     1
173
     0
176
     1
  0
VISUALSTYLE
  5
2C
102
{ACAD_REACTORS
330
2A
102
}
330
2A
100
AcDbVisualStyle
  2
FlatWithEdges
 70
     1
177
     2
291
     1
 71
     2
176
     1
 72
     1
176
     1
 73
     1
176
     1
 90
        2
176
     1
 40
-0.6
176
     1
 41
30.0
176
     1
 62
     5
 63
     7
421
 16777215
176
     1
 74
     1
176
     1
 91
        4
176
     1
 64
     7
176
     1
 65
   257
176
     1
 75
     1
176
     1
175
     1
176
     1
 42
1.0
176
     1
 92
        0
176
     1
 66
   257
176
     1
 43
1.0
176
     1
 76
     1
176
     1
 77
     6
176
     1
 78
     2
176
     1
 67
     7
176
     1
 79
     5
176
     1
170
     0
176
     1
171
     0
176
     1
290
     0
176
     1
 93
       13
176
     1
 44
0.0
176
     1
173
     0
176
     1
  0
VISUALSTYLE
  5
2D
102
{ACAD_REACTORS
330
2A
102
}
330
2A
100
AcDbVisualStyle
  2
Gouraud
 70
     2
177
     2
291
     1
 71
     2
176
     1
 72
     2
176
     1
 73
     1
176
     1
 90
        2
176
     1
 40
-0.6
176
     1
 41
30.0
176
     1
 62
     5
 63
     7
421
 16777215
176
     1
 74
     0
176
     1
 91
        4
176
     1
 64
     7
176
     1
 65
   257
176
     1
 75
     1
176
     1
175
     1
176
     1
 42
1.0
176
     1
 92
        0
176
     1
 66
     7
176
     1
 43
1.0
176
     1
 76
     1
176
     1
 77
     6
176
     1
 78
     2
176
     1
 67
     7
176
     1
 79
     5
176
     1
170
     0
176
     1
171
     0
176
     1
290
     0
176
     1
 93
       13
176
     1
 44
0.0
176
     1
173
     0
176
     1
  0
VISUALSTYLE
  5
2E
102
{ACAD_REACTORS
330
2A
102
}
330
2A
100
AcDbVisualStyle
  2
GouraudWithEdges
 70
     3
177
     2
291
     1
 71
     2
176
     1
 72
     2
176
     1
 73
     1
176
     1
 90
        2
176
     1
 40
-0.6
176
     1
 41
30.0
176
     1
 62
     5
 63
     7
421
 16777215
176
     1
 74
     1
176
     1
 91
        4
176
     1
 64
     7
176
     1
 65
   257
176
     1
 75
     1
176
     1
175
     1
176
     1
 42
1.0
176
     1
 92
        0
176
     1
 66
   257
176
     1
 43
1.0
176
     1
 76
     1
176
     1
 77
     6
176
     1
 78
     2
176
     1
 67
     7
176
     1
 79
     5
176
     1
170
     0
176
     1
171
     0
176
     1
290
     0
176
     1
 93
       13
176
     1
 44
0.0
176
     1
173
     0
176
     1
  0
VISUALSTYLE
  5
38
102
{ACAD_REACTORS
330
2A
102
}
330
2A
100
AcDbVisualStyle
  2
Linepattern
 70
    14
177
     2
291
     1
 71
     2
176
     1
 72
     2
176
     1
 73
     0
176
     1
 90
        0
176
     1
 40
-0.6
176
     1
 41
-30.0
176
     1
 62
     5
 63
     7
421
 16777215
176
     1
 74
     1
176
     1
 91
        4
176
     1
 64
     7
176
     1
 65
   257
176
     1
 75
     7
176
     1
175
     7
176
     1
 42
1.0
176
     1
 92
        8
176
     1
 66
     7
176
     1
 43
1.0
176
     1
 76
     1
176
     1
 77
     6
176
     1
 78
     2
176
     1
 67
     7
176
     1
 79
     5
176
     1
170
     0
176
     1
171
     0
176
     1
290
     0
176
     1
 93
        1
176
     1
 44
0.0
176
     1
173
     0
176
     1
  0
VISUALSTYLE
  5
33
102
{ACAD_REACTORS
330
2A
102
}
330
2A
100
AcDbVisualStyle
  2
Realistic
 70
     8
177
     2
291
     0
 71
     2
176
     1
 72
     2
176
     1
 73
     0
176
     1
 90
        0
176
     1
 40
-0.6
176
     1
 41
-30.0
176
     1
 62
     5
 63
     7
421
 16777215
176
     1
 74
     1
176
     1
 91
        0
176
     1
 64
     7
176
     1
 65
   257
176
     1
 75
     1
176
     1
175
     1
176
     1
 42
1.0
176
     1
 92
        8
176
     1
 66
     8
424
  7895160
176
     1
 43
1.0
176
     1
 76
     1
176
     1
 77
     6
176
     1
 78
     2
176
     1
 67
     7
176
     1
 79
     5
176
     1
170
     0
176
     1
171
     0
176
     1
290
     0
176
     1
 93
       13
176
     1
 44
0.0
176
     1
173
     0
176
     1
  0
VISUALSTYLE
  5
37
102
{ACAD_REACTORS
330
2A
102
}
330
2A
100
AcDbVisualStyle
  2
Thicken
 70
    13
177
     2
291
     1
 71
     2
176
     1
 72
     2
176
     1
 73
     0
176
     1
 90
        0
176
     1
 40
-0.6
176
     1
 41
-30.0
176
     1
 62
     5
 63
     7
421
 16777215
176
     1
 74
     1
176
     1
 91
        4
176
     1
 64
     7
176
     1
 65
   257
176
     1
 75
     1
176
     1
175
     1
176
     1
 42
1.0
176
     1
 92
       12
176
     1
 66
     7
176
     1
 43
1.0
176
     1
 76
     1
176
     1
 77
     6
176
     1
 78
     2
176
     1
 67
     7
176
     1
 79
     5
176
     1
170
     0
176
     1
171
     0
176
     1
290
     0
176
     1
 93
        1
176
     1
 44
0.0
176
     1
173
     0
176
     1
  0
ENDSEC
  0
EOF
