  0
SECTION
  2
HEADER
  9
$ACADVER
  1
AC1024
  9
$ACADMAINTVER
 70
     6
  9
$DWGCODEPAGE
  3
UNDEFINED
  9
$INSBASE
 10
0.0
 20
0.0
 30
0.0
  9
$EXTMIN
 10
1.000000000000000E+20
 20
1.000000000000000E+20
 30
1.000000000000000E+20
  9
$EXTMAX
 10
-1.000000000000000E+20
 20
-1.000000000000000E+20
 30
-1.000000000000000E+20
  9
$LIMMIN
 10
0.0
 20
0.0
  9
$LIMMAX
 10
12.0
 20
9.0
  9
$ORTHOMODE
 70
     0
  9
$REGENMODE
 70
     1
  9
$FILLMODE
 70
     1
  9
$QTEXTMODE
 70
     0
  9
$MIRRTEXT
 70
     1
  9
$LTSCALE
 40
1.0
  9
$ATTMODE
 70
     1
  9
$TEXTSIZE
 40
0.2
  9
$TRACEWID
 40
0.05
  9
$TEXTSTYLE
  7
Standard
  9
$CLAYER
  8
0
  9
$CELTYPE
  6
ByLayer
  9
$CECOLOR
 62
   256
  9
$CELTSCALE
 40
1.0
  9
$DISPSILH
 70
     0
  9
$DIMSCALE
 40
1.0
  9
$DIMASZ
 40
0.18
  9
$DIMEXO
 40
0.0625
  9
$DIMDLI
 40
0.38
  9
$DIMRND
 40
0.0
  9
$DIMDLE
 40
0.0
  9
$DIMEXE
 40
0.18
  9
$DIMTP
 40
0.0
  9
$DIMTM
 40
0.0
  9
$DIMTXT
 40
0.18
  9
$DIMCEN
 40
0.09
  9
$DIMTSZ
 40
0.0
  9
$DIMTOL
 70
     0
  9
$DIMLIM
 70
     0
  9
$DIMTIH
 70
     1
  9
$DIMTOH
 70
     1
  9
$DIMSE1
 70
     0
  9
$DIMSE2
 70
     0
  9
$DIMTAD
 70
     0
  9
$DIMZIN
 70
     0
  9
$DIMBLK
  1

  9
$DIMASO
 70
     1
  9
$DIMSHO
 70
     1
  9
$DIMPOST
  1

  9
$DIMAPOST
  1

  9
$DIMALT
 70
     0
  9
$DIMALTD
 70
     2
  9
$DIMALTF
 40
25.4
  9
$DIMLFAC
 40
1.0
  9
$DIMTOFL
 70
     0
  9
$DIMTVP
 40
0.0
  9
$DIMTIX
 70
     0
  9
$DIMSOXD
 70
     0
  9
$DIMSAH
 70
     0
  9
$DIMBLK1
  1

  9
$DIMBLK2
  1

  9
$DIMSTYLE
  2
Standard
  9
$DIMCLRD
 70
     0
  9
$DIMCLRE
 70
     0
  9
$DIMCLRT
 70
     0
  9
$DIMTFAC
 40
1.0
  9
$DIMGAP
 40
0.09
  9
$DIMJUST
 70
     0
  9
$DIMSD1
 70
     0
  9
$DIMSD2
 70
     0
  9
$DIMTOLJ
 70
     1
  9
$DIMTZIN
 70
     0
  9
$DIMALTZ
 70
     0
  9
$DIMALTTZ
 70
     0
  9
$DIMUPT
 70
     0
  9
$DIMDEC
 70
     4
  9
$DIMTDEC
 70
     4
  9
$DIMALTU
 70
     2
  9
$DIMALTTD
 70
     2
  9
$DIMTXSTY
  7
Standard
  9
$DIMAUNIT
 70
     0
  9
$DIMADEC
 70
     0
  9
$DIMALTRND
 40
0.0
  9
$DIMAZIN
 70
     0
  9
$DIMDSEP
 70
    46
  9
$DIMATFIT
 70
     3
  9
$DIMFRAC
 70
     0
  9
$DIMLDRBLK
  1

  9
$DIMLUNIT
 70
     2
  9
$DIMLWD
 70
    -2
  9
$DIMLWE
 70
    -2
  9
$DIMTMOVE
 70
     0
  9
$DIMFXL
 40
1.0
  9
$DIMFXLON
 70
     0
  9
$DIMJOGANG
 40
0.7853981633974483
  9
$DIMTFILL
 70
     0
  9
$DIMTFILLCLR
 70
     0
  9
$DIMARCSYM
 70
     0
  9
$DIMLTYPE
  6

  9
$DIMLTEX1
  6

  9
$DIMLTEX2
  6

  9
$DIMTXTDIRECTION
 70
     0
  9
$LUNITS
 70
     2
  9
$LUPREC
 70
     4
  9
$SKETCHINC
 40
0.1
  9
$FILLETRAD
 40
0.5
  9
$AUNITS
 70
     0
  9
$AUPREC
 70
     0
  9
$MENU
  1
.
  9
$ELEVATION
 40
0.0
  9
$PELEVATION
 40
0.0
  9
$THICKNESS
 40
0.0
  9
$LIMCHECK
 70
     0
  9
$CHAMFERA
 40
0.5
  9
$CHAMFERB
 40
0.5
  9
$CHAMFERC
 40
1.0
  9
$CHAMFERD
 40
0.0
  9
$SKPOLY
 70
     0
  9
$TDCREATE
 40
2457917.6121875
  9
$TDUCREATE
 40
2457917.2371875
  9
$TDUPDATE
 40
2457917.6121875
  9
$TDUUPDATE
 40
2457917.2371875
  9
$TDINDWG
 40
0.0000000116
  9
$TDUSRTIMER
 40
0.0000000116
  9
$USRTIMER
 70
     1
  9
$ANGBASE
 50
0.0
  9
$ANGDIR
 70
     0
  9
$PDMODE
 70
     0
  9
$PDSIZE
 40
0.0
  9
$PLINEWID
 40
0.0
  9
$SPLFRAME
 70
     0
  9
$SPLINETYPE
 70
     6
  9
$SPLINESEGS
 70
     8
  9
$HANDSEED
  5
101
  9
$SURFTAB1
 70
     6
  9
$SURFTAB2
 70
     6
  9
$SURFTYPE
 70
     6
  9
$SURFU
 70
     6
  9
$SURFV
 70
     6
  9
$UCSBASE
  2

  9
$UCSNAME
  2

  9
$UCSORG
 10
0.0
 20
0.0
 30
0.0
  9
$UCSXDIR
 10
1.0
 20
0.0
 30
0.0
  9
$UCSYDIR
 10
0.0
 20
1.0
 30
0.0
  9
$UCSORTHOREF
  2

  9
$UCSORTHOVIEW
 70
     0
  9
$UCSORGTOP
 10
0.0
 20
0.0
 30
0.0
  9
$UCSORGBOTTOM
 10
0.0
 20
0.0
 30
0.0
  9
$UCSORGLEFT
 10
0.0
 20
0.0
 30
0.0
  9
$UCSORGRIGHT
 10
0.0
 20
0.0
 30
0.0
  9
$UCSORGFRONT
 10
0.0
 20
0.0
 30
0.0
  9
$UCSORGBACK
 10
0.0
 20
0.0
 30
0.0
  9
$PUCSBASE
  2

  9
$PUCSNAME
  2

  9
$PUCSORG
 10
0.0
 20
0.0
 30
0.0
  9
$PUCSXDIR
 10
1.0
 20
0.0
 30
0.0
  9
$PUCSYDIR
 10
0.0
 20
1.0
 30
0.0
  9
$PUCSORTHOREF
  2

  9
$PUCSORTHOVIEW
 70
     0
  9
$PUCSORGTOP
 10
0.0
 20
0.0
 30
0.0
  9
$PUCSORGBOTTOM
 10
0.0
 20
0.0
 30
0.0
  9
$PUCSORGLEFT
 10
0.0
 20
0.0
 30
0.0
  9
$PUCSORGRIGHT
 10
0.0
 20
0.0
 30
0.0
  9
$PUCSORGFRONT
 10
0.0
 20
0.0
 30
0.0
  9
$PUCSORGBACK
 10
0.0
 20
0.0
 30
0.0
  9
$USERI1
 70
     0
  9
$USERI2
 70
     0
  9
$USERI3
 70
     0
  9
$USERI4
 70
     0
  9
$USERI5
 70
     0
  9
$USERR1
 40
0.0
  9
$USERR2
 40
0.0
  9
$USERR3
 40
0.0
  9
$USERR4
 40
0.0
  9
$USERR5
 40
0.0
  9
$WORLDVIEW
 70
     1
  9
$SHADEDGE
 70
     3
  9
$SHADEDIF
 70
    70
  9
$TILEMODE
 70
     1
  9
$MAXACTVP
 70
    64
  9
$PINSBASE
 10
0.0
 20
0.0
 30
0.0
  9
$PLIMCHECK
 70
     0
  9
$PEXTMIN
 10
1.000000000000000E+20
 20
1.000000000000000E+20
 30
1.000000000000000E+20
  9
$PEXTMAX
 10
-1.000000000000000E+20
 20
-1.000000000000000E+20
 30
-1.000000000000000E+20
  9
$PLIMMIN
 10
0.0
 20
0.0
  9
$PLIMMAX
 10
12.0
 20
9.0
  9
$UNITMODE
 70
     0
  9
$VISRETAIN
 70
     1
  9
$PLINEGEN
 70
     0
  9
$PSLTSCALE
 70
     1
  9
$TREEDEPTH
 70
  3020
  9
$CMLSTYLE
  2
Standard
  9
$CMLJUST
 70
     0
  9
$CMLSCALE
 40
1.0
  9
$PROXYGRAPHICS
 70
     1
  9
$MEASUREMENT
 70
     0
  9
$CELWEIGHT
370
    -1
  9
$ENDCAPS
280
     0
  9
$JOINSTYLE
280
     0
  9
$LWDISPLAY
290
     1
  9
$INSUNITS
 70
     1
  9
$HYPERLINKBASE
  1

  9
$STYLESHEET
  1

  9
$XEDIT
290
     1
  9
$CEPSNTYPE
380
     0
  9
$PSTYLEMODE
290
     1
  9
$FINGERPRINTGUID
  2
{1CFD4154-3B16-0333-A4B6-3CEBE7BC37F1}
  9
$VERSIONGUID
  2
{FAEB1C32-E019-11D5-929B-00C0DF256EC4}
  9
$EXTNAMES
290
     1
  9
$PSVPSCALE
 40
0.0
  9
$OLESTARTUP
290
     0
  9
$SORTENTS
280
   127
  9
$INDEXCTL
280
     0
  9
$HIDETEXT
280
     1
  9
$XCLIPFRAME
280
     2
  9
$HALOGAP
280
     0
  9
$OBSCOLOR
 70
   257
  9
$OBSLTYPE
280
     0
  9
$INTERSECTIONDISPLAY
280
     0
  9
$INTERSECTIONCOLOR
 70
   257
  9
$DIMASSOC
280
     2
  9
$PROJECTNAME
  1

  9
$CAMERADISPLAY
290
     0
  9
$LENSLENGTH
 40
50.0
  9
$CAMERAHEIGHT
 40
0.0
  9
$STEPSPERSEC
 40
2.0
  9
$STEPSIZE
 40
6.0
  9
$3DDWFPREC
 40
2.0
  9
$PSOLWIDTH
 40
0.25
  9
$PSOLHEIGHT
 40
4.0
  9
$LOFTANG1
 40
1.570796326794897
  9
$LOFTANG2
 40
1.570796326794897
  9
$LOFTMAG1
 40
0.0
  9
$LOFTMAG2
 40
0.0
  9
$LOFTPARAM
 70
     7
  9
$LOFTNORMALS
280
     1
  9
$LATITUDE
 40
37.795
  9
$LONGITUDE
 40
-122.394
  9
$NORTHDIRECTION
 40
0.0
  9
$TIMEZONE
 70
 -8000
  9
$LIGHTGLYPHDISPLAY
280
     1
  9
$TILEMODELIGHTSYNCH
280
     1
  9
$CMATERIAL
347
3C
  9
$SOLIDHIST
280
     1
  9
$SHOWHIST
280
     1
  9
$DWFFRAME
280
     2
  9
$DGNFRAME
280
     2
  9
$REALWORLDSCALE
290
     1
  9
$INTERFERECOLOR
 62
   256
  9
$CSHADOW
280
     0
  9
$SHADOWPLANELOCATION
 40
0.0
  0
ENDSEC
  0
SECTION
  2
CLASSES
  0
CLASS
  1
ACDBDICTIONARYWDFLT
  2
AcDbDictionaryWithDefault
  3
ObjectDBX Classes
 90
        0
 91
        4
280
     0
281
     0
  0
CLASS
  1
VISUALSTYLE
  2
AcDbVisualStyle
  3
ObjectDBX Classes
 90
     4095
 91
        4
280
     0
281
     0
  0
CLASS
  1
MATERIAL
  2
AcDbMaterial
  3
ObjectDBX Classes
 90
     1153
 91
        4
280
     0
281
     0
  0
CLASS
  1
SUN
  2
AcDbSun
  3
SCENEOE
 90
     1024
 91
        4
280
     0
281
     0
  0
ENDSEC
  0
SECTION
  2
TABLES
  0
TABLE
  2
VPORT
  5
8
330
0
100
AcDbSymbolTable
 70
     1
  0
VPORT
  5
29
330
8
100
AcDbSymbolTableRecord
100
AcDbViewportTableRecord
  2
*Active
 70
     0
 10
0.0
 20
0.0
 11
1.0
 21
1.0
 12
0.0
 22
0.0
 13
0.0
 23
0.0
 14
0.5
 24
0.5
 15
0.5
 25
0.5
 16
0.0
 26
0.0
 36
1.0
 17
91.00082462281999
 27
-128.4993055234307
 37
0.0
 40
256.9986110468615
 41
0.7081814508812795
 42
50.0
 43
0.0
 44
0.0
 50
0.0
 51
0.0
 71
     0
 72
   100
 73
     1
 74
     3
 75
     0
 76
     0
 77
     0
 78
     0
281
     0
 65
     1
110
0.0
120
0.0
130
0.0
111
1.0
121
0.0
131
0.0
112
0.0
122
1.0
132
0.0
 79
     0
146
0.0
 60
     3
 61
     5
292
     1
282
     1
141
0.0
142
0.0
 63
   250
361
3F
  0
ENDTAB
  0
TABLE
  2
LTYPE
  5
5
330
0
100
AcDbSymbolTable
 70
     1
  0
LTYPE
  5
14
330
5
100
AcDbSymbolTableRecord
100
AcDbLinetypeTableRecord
  2
ByBlock
 70
     0
  3

 72
    65
 73
     0
 40
0.0
  0
LTYPE
  5
15
330
5
100
AcDbSymbolTableRecord
100
AcDbLinetypeTableRecord
  2
ByLayer
 70
     0
  3

 72
    65
 73
     0
 40
0.0
  0
LTYPE
  5
16
330
5
100
AcDbSymbolTableRecord
100
AcDbLinetypeTableRecord
  2
Continuous
 70
     0
  3
Solid line
 72
    65
 73
     0
 40
0.0
  0
ENDTAB
  0
TABLE
  2
LAYER
  5
2
330
0
100
AcDbSymbolTable
 70
     2
  0
LAYER
  5
10
330
2
100
AcDbSymbolTableRecord
100
AcDbLayerTableRecord
  2
0
 70
     0
 62
     7
  6
Continuous
370
    -3
390
F
347
3E
  0
LAYER
  5
40
330
2
100
AcDbSymbolTableRecord
100
AcDbLayerTableRecord
  2
_U+30EC_U+30A4_U+30E4_U+30FC 1
 70
     0
 62
     7
  6
Continuous
370
    -3
390
F
347
3E
  0
ENDTAB
  0
TABLE
  2
STYLE
  5
3
330
0
100
AcDbSymbolTable
 70
     1
  0
STYLE
  5
11
330
3
100
AcDbSymbolTableRecord
100
AcDbTextStyleTableRecord
  2
Standard
 70
     0
 40
0.0
 41
1.0
 50
0.0
 71
     0
 42
0.2
  3
txt
  4

  0
ENDTAB
  0
TABLE
  2
VIEW
  5
6
330
0
100
AcDbSymbolTable
 70
     0
  0
ENDTAB
  0
TABLE
  2
UCS
  5
7
330
0
100
AcDbSymbolTable
 70
     0
  0
ENDTAB
  0
TABLE
  2
APPID
  5
9
330
0
100
AcDbSymbolTable
 70
     1
  0
APPID
  5
12
330
9
100
AcDbSymbolTableRecord
100
AcDbRegAppTableRecord
  2
ACAD
 70
     0
  0
ENDTAB
  0
TABLE
  2
DIMSTYLE
  5
A
330
0
100
AcDbSymbolTable
 70
     1
100
AcDbDimStyleTable
  0
DIMSTYLE
105
27
330
A
100
AcDbSymbolTableRecord
100
AcDbDimStyleTableRecord
  2
Standard
 70
     0
178
     0
340
11
  0
ENDTAB
  0
TABLE
  2
BLOCK_RECORD
  5
1
330
0
100
AcDbSymbolTable
 70
    12
  0
BLOCK_RECORD
  5
1F
330
1
100
AcDbSymbolTableRecord
100
AcDbBlockTableRecord
  2
*Model_Space
340
22
 70
     0
280
     1
281
     0
  0
BLOCK_RECORD
  5
1B
330
1
100
AcDbSymbolTableRecord
100
AcDbBlockTableRecord
  2
*Paper_Space
340
1E
 70
     0
280
     1
281
     0
  0
BLOCK_RECORD
  5
23
330
1
100
AcDbSymbolTableRecord
100
AcDbBlockTableRecord
  2
*Paper_Space0
340
26
 70
     0
280
     1
281
     0
  0
BLOCK_RECORD
  5
41
330
1
100
AcDbSymbolTableRecord
100
AcDbBlockTableRecord
  2
block 2
340
0
102
{BLKREFS
331
42
102
}
 70
     0
280
     1
281
     0
  0
BLOCK_RECORD
  5
83
330
1
100
AcDbSymbolTableRecord
100
AcDbBlockTableRecord
  2
block 3
340
0
102
{BLKREFS
331
84
102
}
 70
     0
280
     1
281
     0
  0
BLOCK_RECORD
  5
93
330
1
100
AcDbSymbolTableRecord
100
AcDbBlockTableRecord
  2
block 4
340
0
102
{BLKREFS
331
94
102
}
 70
     0
280
     1
281
     0
  0
BLOCK_RECORD
  5
9C
330
1
100
AcDbSymbolTableRecord
100
AcDbBlockTableRecord
  2
block 5
340
0
102
{BLKREFS
331
9D
102
}
 70
     0
280
     1
281
     0
  0
BLOCK_RECORD
  5
AC
330
1
100
AcDbSymbolTableRecord
100
AcDbBlockTableRecord
  2
block 6
340
0
102
{BLKREFS
331
AD
102
}
 70
     0
280
     1
281
     0
  0
BLOCK_RECORD
  5
B4
330
1
100
AcDbSymbolTableRecord
100
AcDbBlockTableRecord
  2
block 7
340
0
102
{BLKREFS
331
B5
102
}
 70
     0
280
     1
281
     0
  0
BLOCK_RECORD
  5
C8
330
1
100
AcDbSymbolTableRecord
100
AcDbBlockTableRecord
  2
block 8
340
0
102
{BLKREFS
331
C9
102
}
 70
     0
280
     1
281
     0
  0
BLOCK_RECORD
  5
CE
330
1
100
AcDbSymbolTableRecord
100
AcDbBlockTableRecord
  2
block 9
340
0
102
{BLKREFS
331
CF
102
}
 70
     0
280
     1
281
     0
  0
BLOCK_RECORD
  5
DA
330
1
100
AcDbSymbolTableRecord
100
AcDbBlockTableRecord
  2
block 10
340
0
102
{BLKREFS
331
DB
102
}
 70
     0
280
     1
281
     0
  0
BLOCK_RECORD
  5
ED
330
1
100
AcDbSymbolTableRecord
100
AcDbBlockTableRecord
  2
block 11
340
0
102
{BLKREFS
331
EE
102
}
 70
     0
280
     1
281
     0
  0
BLOCK_RECORD
  5
F9
330
1
100
AcDbSymbolTableRecord
100
AcDbBlockTableRecord
  2
block 12
340
0
102
{BLKREFS
331
FA
102
}
 70
     0
280
     1
281
     0
  0
ENDTAB
  0
ENDSEC
  0
SECTION
  2
BLOCKS
  0
BLOCK
  5
20
330
1F
100
AcDbEntity
  8
0
100
AcDbBlockBegin
  2
*Model_Space
 70
     0
 10
0.0
 20
0.0
 30
0.0
  3
*Model_Space
  1

  0
ENDBLK
  5
21
330
1F
100
AcDbEntity
  8
0
100
AcDbBlockEnd
  0
BLOCK
  5
1C
330
1B
100
AcDbEntity
 67
     1
  8
0
100
AcDbBlockBegin
  2
*Paper_Space
 70
     0
 10
0.0
 20
0.0
 30
0.0
  3
*Paper_Space
  1

  0
ENDBLK
  5
1D
330
1B
100
AcDbEntity
 67
     1
  8
0
100
AcDbBlockEnd
  0
BLOCK
  5
24
330
23
100
AcDbEntity
  8
0
100
AcDbBlockBegin
  2
*Paper_Space0
 70
     0
 10
0.0
 20
0.0
 30
0.0
  3
*Paper_Space0
  1

  0
ENDBLK
  5
25
330
23
100
AcDbEntity
  8
0
100
AcDbBlockEnd
  0
BLOCK
  5
43
330
41
100
AcDbEntity
  8
0
100
AcDbBlockBegin
  2
block 2
 70
     0
 10
0.0
 20
0.0
 30
0.0
  3
block 2
  1

  0
POLYLINE
  5
45
330
41
100
AcDbEntity
  8
_U+30EC_U+30A4_U+30E4_U+30FC 1
370
     0
100
AcDb2dPolyline
 66
     1
 10
0.0
 20
0.0
 30
0.0
  0
VERTEX
  5
46
330
45
100
AcDbEntity
  8
_U+30EC_U+30A4_U+30E4_U+30FC 1
370
     0
100
AcDbVertex
100
AcDb2dVertex
 10
73.35022396201322
 20
-137.0779438546194
 30
0.0
  0
VERTEX
  5
47
330
45
100
AcDbEntity
  8
_U+30EC_U+30A4_U+30E4_U+30FC 1
370
     0
100
AcDbVertex
100
AcDb2dVertex
 10
83.35030954022311
 20
-137.0779438546194
 30
0.0
  0
VERTEX
  5
48
330
45
100
AcDbEntity
  8
_U+30EC_U+30A4_U+30E4_U+30FC 1
370
     0
100
AcDbVertex
100
AcDb2dVertex
 10
83.35030954022311
 20
-134.077956910925
 30
0.0
  0
VERTEX
  5
49
330
45
100
AcDbEntity
  8
_U+30EC_U+30A4_U+30E4_U+30FC 1
370
     0
100
AcDbVertex
100
AcDb2dVertex
 10
82.35053734350721
 20
-134.077956910925
 30
0.0
  0
VERTEX
  5
4A
330
45
100
AcDbEntity
  8
_U+30EC_U+30A4_U+30E4_U+30FC 1
370
     0
100
AcDbVertex
100
AcDb2dVertex
 10
82.35053734350721
 20
-136.0781716326468
 30
0.0
  0
VERTEX
  5
4B
330
45
100
AcDbEntity
  8
_U+30EC_U+30A4_U+30E4_U+30FC 1
370
     0
100
AcDbVertex
100
AcDb2dVertex
 10
74.35031365872102
 20
-136.0781716326468
 30
0.0
  0
VERTEX
  5
4C
330
45
100
AcDbEntity
  8
_U+30EC_U+30A4_U+30E4_U+30FC 1
370
     0
100
AcDbVertex
100
AcDb2dVertex
 10
74.35031365872102
 20
-123.5779849691054
 30
0.0
  0
VERTEX
  5
4D
330
45
100
AcDbEntity
  8
_U+30EC_U+30A4_U+30E4_U+30FC 1
370
     0
100
AcDbVertex
100
AcDb2dVertex
 10
98.35024387976513
 20
-123.5779849691054
 30
0.0
  0
VERTEX
  5
4E
330
45
100
AcDbEntity
  8
_U+30EC_U+30A4_U+30E4_U+30FC 1
370
     0
100
AcDbVertex
100
AcDb2dVertex
 10
98.35024387976513
 20
-122.5782127471332
 30
0.0
  0
VERTEX
  5
4F
330
45
100
AcDbEntity
  8
_U+30EC_U+30A4_U+30E4_U+30FC 1
370
     0
100
AcDbVertex
100
AcDb2dVertex
 10
73.35022396201322
 20
-122.5782127471332
 30
0.0
  0
VERTEX
  5
50
330
45
100
AcDbEntity
  8
_U+30EC_U+30A4_U+30E4_U+30FC 1
370
     0
100
AcDbVertex
100
AcDb2dVertex
 10
73.35022396201322
 20
-137.0779438546194
 30
0.0
  0
SEQEND
  5
52
330
45
100
AcDbEntity
  8
_U+30EC_U+30A4_U+30E4_U+30FC 1
370
     0
  0
HATCH
  5
51
330
41
100
AcDbEntity
  8
_U+30EC_U+30A4_U+30E4_U+30FC 1
 62
     9
420
 13224394
100
AcDbHatch
 10
0.0
 20
0.0
 30
0.0
210
0.0
220
0.0
230
1.0
  2
SOLID
 70
     1
 71
     0
 91
        1
 92
        1
 93
       10
 72
     1
 10
73.35022396201322
 20
-137.0779438546194
 11
83.35030954022311
 21
-137.0779438546194
 72
     1
 10
83.35030954022311
 20
-137.0779438546194
 11
83.35030954022311
 21
-134.077956910925
 72
     1
 10
83.35030954022311
 20
-134.077956910925
 11
82.35053734350721
 21
-134.077956910925
 72
     1
 10
82.35053734350721
 20
-134.077956910925
 11
82.35053734350721
 21
-136.0781716326468
 72
     1
 10
82.35053734350721
 20
-136.0781716326468
 11
74.35031365872102
 21
-136.0781716326468
 72
     1
 10
74.35031365872102
 20
-136.0781716326468
 11
74.35031365872102
 21
-123.5779849691054
 72
     1
 10
74.35031365872102
 20
-123.5779849691054
 11
98.35024387976513
 21
-123.5779849691054
 72
     1
 10
98.35024387976513
 20
-123.5779849691054
 11
98.35024387976513
 21
-122.5782127471332
 72
     1
 10
98.35024387976513
 20
-122.5782127471332
 11
73.35022396201322
 21
-122.5782127471332
 72
     1
 10
73.35022396201322
 20
-122.5782127471332
 11
73.35022396201322
 21
-137.0779438546194
 97
        0
 75
     2
 76
     1
 98
        0
  0
POLYLINE
  5
53
330
41
100
AcDbEntity
  8
_U+30EC_U+30A4_U+30E4_U+30FC 1
 62
   179
420
  2234388
370
    25
100
AcDb2dPolyline
 66
     1
 10
0.0
 20
0.0
 30
0.0
  0
VERTEX
  5
54
330
53
100
AcDbEntity
  8
_U+30EC_U+30A4_U+30E4_U+30FC 1
 62
   179
420
  2234388
370
    25
100
AcDbVertex
100
AcDb2dVertex
 10
73.34987118424444
 20
-122.5782127471332
 30
0.0
  0
VERTEX
  5
55
330
53
100
AcDbEntity
  8
_U+30EC_U+30A4_U+30E4_U+30FC 1
 62
   179
420
  2234388
370
    25
100
AcDbVertex
100
AcDb2dVertex
 10
98.35024387976513
 20
-122.5782127471332
 30
0.0
  0
SEQEND
  5
56
330
53
100
AcDbEntity
  8
_U+30EC_U+30A4_U+30E4_U+30FC 1
 62
   179
420
  2234388
370
    25
  0
POLYLINE
  5
57
330
41
100
AcDbEntity
  8
_U+30EC_U+30A4_U+30E4_U+30FC 1
 62
   179
420
  2234388
370
    25
100
AcDb2dPolyline
 66
     1
 10
0.0
 20
0.0
 30
0.0
  0
VERTEX
  5
58
330
57
100
AcDbEntity
  8
_U+30EC_U+30A4_U+30E4_U+30FC 1
 62
   179
420
  2234388
370
    25
100
AcDbVertex
100
AcDb2dVertex
 10
73.34987118424444
 20
-122.5782127471332
 30
0.0
  0
VERTEX
  5
59
330
57
100
AcDbEntity
  8
_U+30EC_U+30A4_U+30E4_U+30FC 1
 62
   179
420
  2234388
370
    25
100
AcDbVertex
100
AcDb2dVertex
 10
73.34987118424444
 20
-137.0779438546194
 30
0.0
  0
SEQEND
  5
5A
330
57
100
AcDbEntity
  8
_U+30EC_U+30A4_U+30E4_U+30FC 1
 62
   179
420
  2234388
370
    25
  0
POLYLINE
  5
5B
330
41
100
AcDbEntity
  8
_U+30EC_U+30A4_U+30E4_U+30FC 1
 62
   179
420
  2234388
370
    25
100
AcDb2dPolyline
 66
     1
 10
0.0
 20
0.0
 30
0.0
  0
VERTEX
  5
5C
330
5B
100
AcDbEntity
  8
_U+30EC_U+30A4_U+30E4_U+30FC 1
 62
   179
420
  2234388
370
    25
100
AcDbVertex
100
AcDb2dVertex
 10
98.35024387976513
 20
-122.5782127471332
 30
0.0
  0
VERTEX
  5
5D
330
5B
100
AcDbEntity
  8
_U+30EC_U+30A4_U+30E4_U+30FC 1
 62
   179
420
  2234388
370
    25
100
AcDbVertex
100
AcDb2dVertex
 10
98.35024387976513
 20
-123.5779849691054
 30
0.0
  0
SEQEND
  5
5E
330
5B
100
AcDbEntity
  8
_U+30EC_U+30A4_U+30E4_U+30FC 1
 62
   179
420
  2234388
370
    25
  0
POLYLINE
  5
5F
330
41
100
AcDbEntity
  8
_U+30EC_U+30A4_U+30E4_U+30FC 1
 62
   179
420
  2234388
370
    25
100
AcDb2dPolyline
 66
     1
 10
0.0
 20
0.0
 30
0.0
  0
VERTEX
  5
60
330
5F
100
AcDbEntity
  8
_U+30EC_U+30A4_U+30E4_U+30FC 1
 62
   179
420
  2234388
370
    25
100
AcDbVertex
100
AcDb2dVertex
 10
74.35031365872102
 20
-123.5779849691054
 30
0.0
  0
VERTEX
  5
61
330
5F
100
AcDbEntity
  8
_U+30EC_U+30A4_U+30E4_U+30FC 1
 62
   179
420
  2234388
370
    25
100
AcDbVertex
100
AcDb2dVertex
 10
98.35024387976513
 20
-123.5779849691054
 30
0.0
  0
SEQEND
  5
62
330
5F
100
AcDbEntity
  8
_U+30EC_U+30A4_U+30E4_U+30FC 1
 62
   179
420
  2234388
370
    25
  0
POLYLINE
  5
63
330
41
100
AcDbEntity
  8
_U+30EC_U+30A4_U+30E4_U+30FC 1
 62
   179
420
  2234388
370
    25
100
AcDb2dPolyline
 66
     1
 10
0.0
 20
0.0
 30
0.0
  0
VERTEX
  5
64
330
63
100
AcDbEntity
  8
_U+30EC_U+30A4_U+30E4_U+30FC 1
 62
   179
420
  2234388
370
    25
100
AcDbVertex
100
AcDb2dVertex
 10
83.34995676245434
 20
-134.077956910925
 30
0.0
  0
VERTEX
  5
65
330
63
100
AcDbEntity
  8
_U+30EC_U+30A4_U+30E4_U+30FC 1
 62
   179
420
  2234388
370
    25
100
AcDbVertex
100
AcDb2dVertex
 10
83.34995676245434
 20
-137.0779438546194
 30
0.0
  0
SEQEND
  5
66
330
63
100
AcDbEntity
  8
_U+30EC_U+30A4_U+30E4_U+30FC 1
 62
   179
420
  2234388
370
    25
  0
POLYLINE
  5
67
330
41
100
AcDbEntity
  8
_U+30EC_U+30A4_U+30E4_U+30FC 1
 62
   179
420
  2234388
370
    25
100
AcDb2dPolyline
 66
     1
 10
0.0
 20
0.0
 30
0.0
  0
VERTEX
  5
68
330
67
100
AcDbEntity
  8
_U+30EC_U+30A4_U+30E4_U+30FC 1
 62
   179
420
  2234388
370
    25
100
AcDbVertex
100
AcDb2dVertex
 10
82.35018456573843
 20
-134.077956910925
 30
0.0
  0
VERTEX
  5
69
330
67
100
AcDbEntity
  8
_U+30EC_U+30A4_U+30E4_U+30FC 1
 62
   179
420
  2234388
370
    25
100
AcDbVertex
100
AcDb2dVertex
 10
82.35018456573843
 20
-136.0781716326468
 30
0.0
  0
SEQEND
  5
6A
330
67
100
AcDbEntity
  8
_U+30EC_U+30A4_U+30E4_U+30FC 1
 62
   179
420
  2234388
370
    25
  0
POLYLINE
  5
6B
330
41
100
AcDbEntity
  8
_U+30EC_U+30A4_U+30E4_U+30FC 1
 62
   179
420
  2234388
370
    25
100
AcDb2dPolyline
 66
     1
 10
0.0
 20
0.0
 30
0.0
  0
VERTEX
  5
6C
330
6B
100
AcDbEntity
  8
_U+30EC_U+30A4_U+30E4_U+30FC 1
 62
   179
420
  2234388
370
    25
100
AcDbVertex
100
AcDb2dVertex
 10
74.35031365872102
 20
-123.5779849691054
 30
0.0
  0
VERTEX
  5
6D
330
6B
100
AcDbEntity
  8
_U+30EC_U+30A4_U+30E4_U+30FC 1
 62
   179
420
  2234388
370
    25
100
AcDbVertex
100
AcDb2dVertex
 10
74.35031365872102
 20
-136.0781716326468
 30
0.0
  0
SEQEND
  5
6E
330
6B
100
AcDbEntity
  8
_U+30EC_U+30A4_U+30E4_U+30FC 1
 62
   179
420
  2234388
370
    25
  0
POLYLINE
  5
6F
330
41
100
AcDbEntity
  8
_U+30EC_U+30A4_U+30E4_U+30FC 1
 62
   179
420
  2234388
370
    25
100
AcDb2dPolyline
 66
     1
 10
0.0
 20
0.0
 30
0.0
  0
VERTEX
  5
70
330
6F
100
AcDbEntity
  8
_U+30EC_U+30A4_U+30E4_U+30FC 1
 62
   179
420
  2234388
370
    25
100
AcDbVertex
100
AcDb2dVertex
 10
82.35018456573843
 20
-134.077956910925
 30
0.0
  0
VERTEX
  5
71
330
6F
100
AcDbEntity
  8
_U+30EC_U+30A4_U+30E4_U+30FC 1
 62
   179
420
  2234388
370
    25
100
AcDbVertex
100
AcDb2dVertex
 10
83.34995676245434
 20
-134.077956910925
 30
0.0
  0
SEQEND
  5
72
330
6F
100
AcDbEntity
  8
_U+30EC_U+30A4_U+30E4_U+30FC 1
 62
   179
420
  2234388
370
    25
  0
POLYLINE
  5
73
330
41
100
AcDbEntity
  8
_U+30EC_U+30A4_U+30E4_U+30FC 1
 62
   179
420
  2234388
370
    25
100
AcDb2dPolyline
 66
     1
 10
0.0
 20
0.0
 30
0.0
  0
VERTEX
  5
74
330
73
100
AcDbEntity
  8
_U+30EC_U+30A4_U+30E4_U+30FC 1
 62
   179
420
  2234388
370
    25
100
AcDbVertex
100
AcDb2dVertex
 10
73.34987118424444
 20
-137.0779438546194
 30
0.0
  0
VERTEX
  5
75
330
73
100
AcDbEntity
  8
_U+30EC_U+30A4_U+30E4_U+30FC 1
 62
   179
420
  2234388
370
    25
100
AcDbVertex
100
AcDb2dVertex
 10
83.34995676245434
 20
-137.0779438546194
 30
0.0
  0
SEQEND
  5
76
330
73
100
AcDbEntity
  8
_U+30EC_U+30A4_U+30E4_U+30FC 1
 62
   179
420
  2234388
370
    25
  0
POLYLINE
  5
77
330
41
100
AcDbEntity
  8
_U+30EC_U+30A4_U+30E4_U+30FC 1
 62
   179
420
  2234388
370
    25
100
AcDb2dPolyline
 66
     1
 10
0.0
 20
0.0
 30
0.0
  0
VERTEX
  5
78
330
77
100
AcDbEntity
  8
_U+30EC_U+30A4_U+30E4_U+30FC 1
 62
   179
420
  2234388
370
    25
100
AcDbVertex
100
AcDb2dVertex
 10
74.35031365872102
 20
-136.0781716326468
 30
0.0
  0
VERTEX
  5
79
330
77
100
AcDbEntity
  8
_U+30EC_U+30A4_U+30E4_U+30FC 1
 62
   179
420
  2234388
370
    25
100
AcDbVertex
100
AcDb2dVertex
 10
82.35018456573843
 20
-136.0781716326468
 30
0.0
  0
SEQEND
  5
7A
330
77
100
AcDbEntity
  8
_U+30EC_U+30A4_U+30E4_U+30FC 1
 62
   179
420
  2234388
370
    25
  0
SPLINE
  5
7B
330
41
100
AcDbEntity
  8
_U+30EC_U+30A4_U+30E4_U+30FC 1
 62
   179
420
  2234388
370
     9
100
AcDbSpline
210
0.0
220
0.0
230
1.0
 70
    11
 71
     3
 72
    17
 73
    13
 74
     0
 42
0.0000000001
 43
0.0000000001
 12
1.0
 22
0.0
 32
0.0
 13
1.0
 23
0.0
 33
0.0
 40
0.0
 40
0.0
 40
0.0
 40
0.0
 40
1.0
 40
1.0
 40
1.0
 40
2.0
 40
2.0
 40
2.0
 40
3.0
 40
3.0
 40
3.0
 40
4.0
 40
4.0
 40
4.0
 40
4.0
 10
73.45013062613106
 20
-118.577783303689
 30
0.0
 10
73.45013062613106
 20
-118.5226441370359
 30
0.0
 10
73.40532784949629
 20
-118.4778766370473
 30
0.0
 10
73.34987118424444
 20
-118.4778766370473
 30
0.0
 10
73.29473201898449
 20
-118.4778766370473
 30
0.0
 10
73.24996452012661
 20
-118.5226441370359
 30
0.0
 10
73.24996452012661
 20
-118.577783303689
 30
0.0
 10
73.24996452012661
 20
-118.6335927481194
 30
0.0
 10
73.29473201898449
 20
-118.6783602481083
 30
0.0
 10
73.34987118424444
 20
-118.6783602481083
 30
0.0
 10
73.40532784949629
 20
-118.6783602481083
 30
0.0
 10
73.45013062613106
 20
-118.6335927481194
 30
0.0
 10
73.45013062613106
 20
-118.577783303689
 30
0.0
  0
SPLINE
  5
7C
330
41
100
AcDbEntity
  8
_U+30EC_U+30A4_U+30E4_U+30FC 1
 62
   179
420
  2234388
370
     9
100
AcDbSpline
210
0.0
220
0.0
230
1.0
 70
    11
 71
     3
 72
    17
 73
    13
 74
     0
 42
0.0000000001
 43
0.0000000001
 12
1.0
 22
0.0
 32
0.0
 13
1.0
 23
0.0
 33
0.0
 40
0.0
 40
0.0
 40
0.0
 40
0.0
 40
1.0
 40
1.0
 40
1.0
 40
2.0
 40
2.0
 40
2.0
 40
3.0
 40
3.0
 40
3.0
 40
4.0
 40
4.0
 40
4.0
 40
4.0
 10
98.45015054388297
 20
-118.577783303689
 30
0.0
 10
98.45015054388297
 20
-118.5226441370359
 30
0.0
 10
98.4053477672482
 20
-118.4778766370473
 30
0.0
 10
98.35024387976513
 20
-118.4778766370473
 30
0.0
 10
98.29478721451328
 20
-118.4778766370473
 30
0.0
 10
98.24998443787852
 20
-118.5226441370359
 30
0.0
 10
98.24998443787852
 20
-118.577783303689
 30
0.0
 10
98.24998443787852
 20
-118.6335927481194
 30
0.0
 10
98.29478721451328
 20
-118.6783602481083
 30
0.0
 10
98.35024387976513
 20
-118.6783602481083
 30
0.0
 10
98.4053477672482
 20
-118.6783602481083
 30
0.0
 10
98.45015054388297
 20
-118.6335927481194
 30
0.0
 10
98.45015054388297
 20
-118.577783303689
 30
0.0
  0
SPLINE
  5
7D
330
41
100
AcDbEntity
  8
_U+30EC_U+30A4_U+30E4_U+30FC 1
 62
   179
420
  2234388
370
     9
100
AcDbSpline
210
0.0
220
0.0
230
1.0
 70
    11
 71
     3
 72
    17
 73
    13
 74
     0
 42
0.0000000001
 43
0.0000000001
 12
1.0
 22
0.0
 32
0.0
 13
1.0
 23
0.0
 33
0.0
 40
0.0
 40
0.0
 40
0.0
 40
0.0
 40
1.0
 40
1.0
 40
1.0
 40
2.0
 40
2.0
 40
2.0
 40
3.0
 40
3.0
 40
3.0
 40
4.0
 40
4.0
 40
4.0
 40
4.0
 10
102.4502623862761
 20
-122.5782127471332
 30
0.0
 10
102.4502623862761
 20
-122.523108858258
 30
0.0
 10
102.4054596096413
 20
-122.4783060804916
 30
0.0
 10
102.3500055299681
 20
-122.4783060804916
 30
0.0
 10
102.2948637791295
 20
-122.4783060804916
 30
0.0
 10
102.2500962802716
 20
-122.523108858258
 30
0.0
 10
102.2500962802716
 20
-122.5782127471332
 30
0.0
 10
102.2500962802716
 20
-122.633351913786
 30
0.0
 10
102.2948637791295
 20
-122.6781194137749
 30
0.0
 10
102.3500055299681
 20
-122.6781194137749
 30
0.0
 10
102.4054596096413
 20
-122.6781194137749
 30
0.0
 10
102.4502623862761
 20
-122.633351913786
 30
0.0
 10
102.4502623862761
 20
-122.5782127471332
 30
0.0
  0
SPLINE
  5
7E
330
41
100
AcDbEntity
  8
_U+30EC_U+30A4_U+30E4_U+30FC 1
 62
   179
420
  2234388
370
     9
100
AcDbSpline
210
0.0
220
0.0
230
1.0
 70
    11
 71
     3
 72
    17
 73
    13
 74
     0
 42
0.0000000001
 43
0.0000000001
 12
1.0
 22
0.0
 32
0.0
 13
1.0
 23
0.0
 33
0.0
 40
0.0
 40
0.0
 40
0.0
 40
0.0
 40
1.0
 40
1.0
 40
1.0
 40
2.0
 40
2.0
 40
2.0
 40
3.0
 40
3.0
 40
3.0
 40
4.0
 40
4.0
 40
4.0
 40
4.0
 10
102.4502623862761
 20
-123.5779849691054
 30
0.0
 10
102.4502623862761
 20
-123.5228810802305
 30
0.0
 10
102.4054596096413
 20
-123.4780783024638
 30
0.0
 10
102.3500055299681
 20
-123.4780783024638
 30
0.0
 10
102.2948637791295
 20
-123.4780783024638
 30
0.0
 10
102.2500962802716
 20
-123.5228810802305
 30
0.0
 10
102.2500962802716
 20
-123.5779849691054
 30
0.0
 10
102.2500962802716
 20
-123.6331241357585
 30
0.0
 10
102.2948637791295
 20
-123.6778916357471
 30
0.0
 10
102.3500055299681
 20
-123.6778916357471
 30
0.0
 10
102.4054596096413
 20
-123.6778916357471
 30
0.0
 10
102.4502623862761
 20
-123.6331241357585
 30
0.0
 10
102.4502623862761
 20
-123.5779849691054
 30
0.0
  0
SPLINE
  5
7F
330
41
100
AcDbEntity
  8
_U+30EC_U+30A4_U+30E4_U+30FC 1
 62
   179
420
  2234388
370
     9
100
AcDbSpline
210
0.0
220
0.0
230
1.0
 70
    11
 71
     3
 72
    17
 73
    13
 74
     0
 42
0.0000000001
 43
0.0000000001
 12
1.0
 22
0.0
 32
0.0
 13
1.0
 23
0.0
 33
0.0
 40
0.0
 40
0.0
 40
0.0
 40
0.0
 40
1.0
 40
1.0
 40
1.0
 40
2.0
 40
2.0
 40
2.0
 40
3.0
 40
3.0
 40
3.0
 40
4.0
 40
4.0
 40
4.0
 40
4.0
 10
102.4502623862761
 20
-134.077956910925
 30
0.0
 10
102.4502623862761
 20
-134.0228177442719
 30
0.0
 10
102.4054596096413
 20
-133.9780502442834
 30
0.0
 10
102.3500055299681
 20
-133.9780502442834
 30
0.0
 10
102.2948637791295
 20
-133.9780502442834
 30
0.0
 10
102.2500962802716
 20
-134.0228177442719
 30
0.0
 10
102.2500962802716
 20
-134.077956910925
 30
0.0
 10
102.2500962802716
 20
-134.1337663553555
 30
0.0
 10
102.2948637791295
 20
-134.1778635775667
 30
0.0
 10
102.3500055299681
 20
-134.1778635775667
 30
0.0
 10
102.4054596096413
 20
-134.1778635775667
 30
0.0
 10
102.4502623862761
 20
-134.1337663553555
 30
0.0
 10
102.4502623862761
 20
-134.077956910925
 30
0.0
  0
SPLINE
  5
80
330
41
100
AcDbEntity
  8
_U+30EC_U+30A4_U+30E4_U+30FC 1
 62
   179
420
  2234388
370
     9
100
AcDbSpline
210
0.0
220
0.0
230
1.0
 70
    11
 71
     3
 72
    17
 73
    13
 74
     0
 42
0.0000000001
 43
0.0000000001
 12
1.0
 22
0.0
 32
0.0
 13
1.0
 23
0.0
 33
0.0
 40
0.0
 40
0.0
 40
0.0
 40
0.0
 40
1.0
 40
1.0
 40
1.0
 40
2.0
 40
2.0
 40
2.0
 40
3.0
 40
3.0
 40
3.0
 40
4.0
 40
4.0
 40
4.0
 40
4.0
 10
102.4502623862761
 20
-137.0779438546194
 30
0.0
 10
102.4502623862761
 20
-137.0228046879663
 30
0.0
 10
102.4054596096413
 20
-136.9780371879777
 30
0.0
 10
102.3500055299681
 20
-136.9780371879777
 30
0.0
 10
102.2948637791295
 20
-136.9780371879777
 30
0.0
 10
102.2500962802716
 20
-137.0228046879663
 30
0.0
 10
102.2500962802716
 20
-137.0779438546194
 30
0.0
 10
102.2500962802716
 20
-137.1337532990498
 30
0.0
 10
102.2948637791295
 20
-137.178520799039
 30
0.0
 10
102.3500055299681
 20
-137.178520799039
 30
0.0
 10
102.4054596096413
 20
-137.178520799039
 30
0.0
 10
102.4502623862761
 20
-137.1337532990498
 30
0.0
 10
102.4502623862761
 20
-137.0779438546194
 30
0.0
  0
SPLINE
  5
81
330
41
100
AcDbEntity
  8
_U+30EC_U+30A4_U+30E4_U+30FC 1
 62
   179
420
  2234388
370
     9
100
AcDbSpline
210
0.0
220
0.0
230
1.0
 70
    11
 71
     3
 72
    17
 73
    13
 74
     0
 42
0.0000000001
 43
0.0000000001
 12
1.0
 22
0.0
 32
0.0
 13
1.0
 23
0.0
 33
0.0
 40
0.0
 40
0.0
 40
0.0
 40
0.0
 40
1.0
 40
1.0
 40
1.0
 40
2.0
 40
2.0
 40
2.0
 40
3.0
 40
3.0
 40
3.0
 40
4.0
 40
4.0
 40
4.0
 40
4.0
 10
83.44986342657218
 20
-141.0783732980636
 30
0.0
 10
83.44986342657218
 20
-141.0232694091887
 30
0.0
 10
83.40506064993741
 20
-140.978466631422
 30
0.0
 10
83.34995676245434
 20
-140.978466631422
 30
0.0
 10
83.29481759719438
 20
-140.978466631422
 30
0.0
 10
83.2500500983365
 20
-141.0232694091887
 30
0.0
 10
83.2500500983365
 20
-141.0783732980636
 30
0.0
 10
83.2500500983365
 20
-141.1335124647167
 30
0.0
 10
83.29481759719438
 20
-141.1782799647053
 30
0.0
 10
83.34995676245434
 20
-141.1782799647053
 30
0.0
 10
83.40506064993741
 20
-141.1782799647053
 30
0.0
 10
83.44986342657218
 20
-141.1335124647167
 30
0.0
 10
83.44986342657218
 20
-141.0783732980636
 30
0.0
  0
SPLINE
  5
82
330
41
100
AcDbEntity
  8
_U+30EC_U+30A4_U+30E4_U+30FC 1
 62
   179
420
  2234388
370
     9
100
AcDbSpline
210
0.0
220
0.0
230
1.0
 70
    11
 71
     3
 72
    17
 73
    13
 74
     0
 42
0.0000000001
 43
0.0000000001
 12
1.0
 22
0.0
 32
0.0
 13
1.0
 23
0.0
 33
0.0
 40
0.0
 40
0.0
 40
0.0
 40
0.0
 40
1.0
 40
1.0
 40
1.0
 40
2.0
 40
2.0
 40
2.0
 40
3.0
 40
3.0
 40
3.0
 40
4.0
 40
4.0
 40
4.0
 40
4.0
 10
73.45013062613106
 20
-141.0783732980636
 30
0.0
 10
73.45013062613106
 20
-141.0232694091887
 30
0.0
 10
73.40532784949629
 20
-140.978466631422
 30
0.0
 10
73.34987118424444
 20
-140.978466631422
 30
0.0
 10
73.29473201898449
 20
-140.978466631422
 30
0.0
 10
73.24996452012661
 20
-141.0232694091887
 30
0.0
 10
73.24996452012661
 20
-141.0783732980636
 30
0.0
 10
73.24996452012661
 20
-141.1335124647167
 30
0.0
 10
73.29473201898449
 20
-141.1782799647053
 30
0.0
 10
73.34987118424444
 20
-141.1782799647053
 30
0.0
 10
73.40532784949629
 20
-141.1782799647053
 30
0.0
 10
73.45013062613106
 20
-141.1335124647167
 30
0.0
 10
73.45013062613106
 20
-141.0783732980636
 30
0.0
  0
INSERT
  5
84
330
41
100
AcDbEntity
  8
_U+30EC_U+30A4_U+30E4_U+30FC 1
100
AcDbBlockReference
  2
block 3
 10
0.0
 20
0.0
 30
0.0
  0
INSERT
  5
9D
330
41
100
AcDbEntity
  8
_U+30EC_U+30A4_U+30E4_U+30FC 1
100
AcDbBlockReference
  2
block 5
 10
0.0
 20
0.0
 30
0.0
  0
INSERT
  5
B5
330
41
100
AcDbEntity
  8
_U+30EC_U+30A4_U+30E4_U+30FC 1
100
AcDbBlockReference
  2
block 7
 10
0.0
 20
0.0
 30
0.0
  0
INSERT
  5
CF
330
41
100
AcDbEntity
  8
_U+30EC_U+30A4_U+30E4_U+30FC 1
100
AcDbBlockReference
  2
block 9
 10
0.0
 20
0.0
 30
0.0
  0
INSERT
  5
EE
330
41
100
AcDbEntity
  8
_U+30EC_U+30A4_U+30E4_U+30FC 1
100
AcDbBlockReference
  2
block 11
 10
0.0
 20
0.0
 30
0.0
  0
ENDBLK
  5
44
330
41
100
AcDbEntity
  8
0
100
AcDbBlockEnd
  0
BLOCK
  5
85
330
83
100
AcDbEntity
  8
0
100
AcDbBlockBegin
  2
block 3
 70
     0
 10
0.0
 20
0.0
 30
0.0
  3
block 3
  1

  0
POLYLINE
  5
87
330
83
100
AcDbEntity
  8
_U+30EC_U+30A4_U+30E4_U+30FC 1
 62
   179
420
  2234388
370
     9
100
AcDb2dPolyline
 66
     1
 10
0.0
 20
0.0
 30
0.0
  0
VERTEX
  5
88
330
87
100
AcDbEntity
  8
_U+30EC_U+30A4_U+30E4_U+30FC 1
 62
   179
420
  2234388
370
     9
100
AcDbVertex
100
AcDb2dVertex
 10
73.34987118424444
 20
-141.0783732980636
 30
0.0
  0
VERTEX
  5
89
330
87
100
AcDbEntity
  8
_U+30EC_U+30A4_U+30E4_U+30FC 1
 62
   179
420
  2234388
370
     9
100
AcDbVertex
100
AcDb2dVertex
 10
83.34995676245434
 20
-141.0783732980636
 30
0.0
  0
SEQEND
  5
8A
330
87
100
AcDbEntity
  8
_U+30EC_U+30A4_U+30E4_U+30FC 1
 62
   179
420
  2234388
370
     9
  0
POLYLINE
  5
8B
330
83
100
AcDbEntity
  8
_U+30EC_U+30A4_U+30E4_U+30FC 1
 62
   179
420
  2234388
370
     9
100
AcDb2dPolyline
 66
     1
 10
0.0
 20
0.0
 30
0.0
  0
VERTEX
  5
8C
330
8B
100
AcDbEntity
  8
_U+30EC_U+30A4_U+30E4_U+30FC 1
 62
   179
420
  2234388
370
     9
100
AcDbVertex
100
AcDb2dVertex
 10
73.34987118424444
 20
-139.6183671873174
 30
0.0
  0
VERTEX
  5
8D
330
8B
100
AcDbEntity
  8
_U+30EC_U+30A4_U+30E4_U+30FC 1
 62
   179
420
  2234388
370
     9
100
AcDbVertex
100
AcDb2dVertex
 10
73.34987118424444
 20
-142.0781455200362
 30
0.0
  0
SEQEND
  5
8E
330
8B
100
AcDbEntity
  8
_U+30EC_U+30A4_U+30E4_U+30FC 1
 62
   179
420
  2234388
370
     9
  0
POLYLINE
  5
8F
330
83
100
AcDbEntity
  8
_U+30EC_U+30A4_U+30E4_U+30FC 1
 62
   179
420
  2234388
370
     9
100
AcDb2dPolyline
 66
     1
 10
0.0
 20
0.0
 30
0.0
  0
VERTEX
  5
90
330
8F
100
AcDbEntity
  8
_U+30EC_U+30A4_U+30E4_U+30FC 1
 62
   179
420
  2234388
370
     9
100
AcDbVertex
100
AcDb2dVertex
 10
83.34995676245434
 20
-139.6183671873174
 30
0.0
  0
VERTEX
  5
91
330
8F
100
AcDbEntity
  8
_U+30EC_U+30A4_U+30E4_U+30FC 1
 62
   179
420
  2234388
370
     9
100
AcDbVertex
100
AcDb2dVertex
 10
83.34995676245434
 20
-142.0781455200362
 30
0.0
  0
SEQEND
  5
92
330
8F
100
AcDbEntity
  8
_U+30EC_U+30A4_U+30E4_U+30FC 1
 62
   179
420
  2234388
370
     9
  0
INSERT
  5
94
330
83
100
AcDbEntity
  8
_U+30EC_U+30A4_U+30E4_U+30FC 1
100
AcDbBlockReference
  2
block 4
 10
0.0
 20
0.0
 30
0.0
  0
ENDBLK
  5
86
330
83
100
AcDbEntity
  8
0
100
AcDbBlockEnd
  0
BLOCK
  5
95
330
93
100
AcDbEntity
  8
0
100
AcDbBlockBegin
  2
block 4
 70
     0
 10
0.0
 20
0.0
 30
0.0
  3
block 4
  1

  0
SPLINE
  5
97
330
93
100
AcDbEntity
  8
_U+30EC_U+30A4_U+30E4_U+30FC 1
370
     0
100
AcDbSpline
210
0.0
220
0.0
230
1.0
 70
    11
 71
     3
 72
    26
 73
    22
 74
     0
 42
0.0000000001
 43
0.0000000001
 12
1.0
 22
0.0
 32
0.0
 13
1.0
 23
0.0
 33
0.0
 40
0.0
 40
0.0
 40
0.0
 40
0.0
 40
1.0
 40
1.0
 40
1.0
 40
2.0
 40
2.0
 40
2.0
 40
3.0
 40
3.0
 40
3.0
 40
4.0
 40
4.0
 40
4.0
 40
5.0
 40
5.0
 40
5.0
 40
6.0
 40
6.0
 40
6.0
 40
7.0
 40
7.0
 40
7.0
 40
7.0
 10
77.7127414085232
 20
-140.4327717747877
 30
0.0
 10
77.7127414085232
 20
-140.4327717747877
 30
0.0
 10
77.7127414085232
 20
-139.3286186717651
 30
0.0
 10
77.7127414085232
 20
-139.3286186717651
 30
0.0
 10
77.7127414085232
 20
-139.3286186717651
 30
0.0
 10
77.38270126103627
 20
-139.3286186717651
 30
0.0
 10
77.38270126103627
 20
-139.3286186717651
 30
0.0
 10
77.38270126103627
 20
-139.3286186717651
 30
0.0
 10
77.38270126103627
 20
-139.1804795658993
 30
0.0
 10
77.38270126103627
 20
-139.1804795658993
 30
0.0
 10
77.71480846581436
 20
-139.1656656553128
 30
0.0
 10
77.76131725486523
 20
-139.0027126388604
 30
0.0
 10
77.79094507603838
 20
-138.8883354687501
 30
0.0
 10
77.79094507603838
 20
-138.8883354687501
 30
0.0
 10
77.93701712461298
 20
-138.8883354687501
 30
0.0
 10
77.93701712461298
 20
-138.8883354687501
 30
0.0
 10
77.93701712461298
 20
-138.8883354687501
 30
0.0
 10
77.93701712461298
 20
-140.4327717747877
 30
0.0
 10
77.93701712461298
 20
-140.4327717747877
 30
0.0
 10
77.93701712461298
 20
-140.4327717747877
 30
0.0
 10
77.7127414085232
 20
-140.4327717747877
 30
0.0
 10
77.7127414085232
 20
-140.4327717747877
 30
0.0
  0
HATCH
  5
98
330
93
100
AcDbEntity
  8
_U+30EC_U+30A4_U+30E4_U+30FC 1
 62
   179
420
  2234388
100
AcDbHatch
 10
0.0
 20
0.0
 30
0.0
210
0.0
220
0.0
230
1.0
  2
SOLID
 70
     1
 71
     0
 91
        1
 92
        1
 93
        1
 72
     4
 94
        3
 73
     0
 74
     1
 95
       26
 96
       22
 40
0.0
 40
0.0
 40
0.0
 40
0.0
 40
1.0
 40
1.0
 40
1.0
 40
2.0
 40
2.0
 40
2.0
 40
3.0
 40
3.0
 40
3.0
 40
4.0
 40
4.0
 40
4.0
 40
5.0
 40
5.0
 40
5.0
 40
6.0
 40
6.0
 40
6.0
 40
7.0
 40
7.0
 40
7.0
 40
7.0
 10
77.7127414085232
 20
-140.4327717747877
 10
77.7127414085232
 20
-140.4327717747877
 10
77.7127414085232
 20
-139.3286186717651
 10
77.7127414085232
 20
-139.3286186717651
 10
77.7127414085232
 20
-139.3286186717651
 10
77.38270126103627
 20
-139.3286186717651
 10
77.38270126103627
 20
-139.3286186717651
 10
77.38270126103627
 20
-139.3286186717651
 10
77.38270126103627
 20
-139.1804795658993
 10
77.38270126103627
 20
-139.1804795658993
 10
77.71480846581436
 20
-139.1656656553128
 10
77.76131725486523
 20
-139.0027126388604
 10
77.79094507603838
 20
-138.8883354687501
 10
77.79094507603838
 20
-138.8883354687501
 10
77.93701712461298
 20
-138.8883354687501
 10
77.93701712461298
 20
-138.8883354687501
 10
77.93701712461298
 20
-138.8883354687501
 10
77.93701712461298
 20
-140.4327717747877
 10
77.93701712461298
 20
-140.4327717747877
 10
77.93701712461298
 20
-140.4327717747877
 10
77.7127414085232
 20
-140.4327717747877
 10
77.7127414085232
 20
-140.4327717747877
 97
        0
 97
        0
 75
     2
 76
     1
 98
        0
  0
SPLINE
  5
99
330
93
100
AcDbEntity
  8
_U+30EC_U+30A4_U+30E4_U+30FC 1
370
     0
100
AcDbSpline
210
0.0
220
0.0
230
1.0
 70
    11
 71
     3
 72
    29
 73
    25
 74
     0
 42
0.0000000001
 43
0.0000000001
 12
1.0
 22
0.0
 32
0.0
 13
1.0
 23
0.0
 33
0.0
 40
0.0
 40
0.0
 40
0.0
 40
0.0
 40
1.0
 40
1.0
 40
1.0
 40
2.0
 40
2.0
 40
2.0
 40
3.0
 40
3.0
 40
3.0
 40
4.0
 40
4.0
 40
4.0
 40
5.0
 40
5.0
 40
5.0
 40
6.0
 40
6.0
 40
6.0
 40
7.0
 40
7.0
 40
7.0
 40
8.0
 40
8.0
 40
8.0
 40
8.0
 10
79.33589814639866
 20
-140.2550048477488
 30
0.0
 10
79.22806665771034
 20
-140.4644666532519
 30
0.0
 10
79.05460610002802
 20
-140.4834146784208
 30
0.0
 10
78.93816187262658
 20
-140.4834146784208
 30
0.0
 10
78.77744816823967
 20
-140.4834146784208
 30
0.0
 10
78.63568248902163
 20
-140.4369058893699
 30
0.0
 10
78.54042559885448
 20
-140.2550048477488
 30
0.0
 10
78.43690047952272
 20
-140.0603569528321
 30
0.0
 10
78.41778019957958
 20
-139.823334383447
 30
0.0
 10
78.41778019957958
 20
-139.6607258765432
 30
0.0
 10
78.41778019957958
 20
-139.5167208852597
 30
0.0
 10
78.4346611674573
 20
-139.2648844052879
 30
0.0
 10
78.54042559885448
 20
-139.066102395789
 30
0.0
 10
78.64842934231706
 20
-138.8631862717078
 30
0.0
 10
78.80914304670397
 20
-138.8397596224081
 30
0.0
 10
78.93816187262658
 20
-138.8397596224081
 30
0.0
 10
79.09680851972233
 20
-138.8397596224081
 30
0.0
 10
79.24064125623151
 20
-138.8842013541679
 30
0.0
 10
79.33589814639866
 20
-139.066102395789
 30
0.0
 10
79.43528915114813
 20
-139.2586832334145
 30
0.0
 10
79.45854354567356
 20
-139.4870930640866
 30
0.0
 10
79.45854354567356
 20
-139.6607258765432
 30
0.0
 10
79.45854354567356
 20
-139.8319471221601
 30
0.0
 10
79.43752846321354
 20
-140.0624240101233
 30
0.0
 10
79.33589814639866
 20
-140.2550048477488
 30
0.0
  0
SPLINE
  5
9A
330
93
100
AcDbEntity
  8
_U+30EC_U+30A4_U+30E4_U+30FC 1
370
     0
100
AcDbSpline
210
0.0
220
0.0
230
1.0
 70
    11
 71
     3
 72
    17
 73
    13
 74
     0
 42
0.0000000001
 43
0.0000000001
 12
1.0
 22
0.0
 32
0.0
 13
1.0
 23
0.0
 33
0.0
 40
0.0
 40
0.0
 40
0.0
 40
0.0
 40
1.0
 40
1.0
 40
1.0
 40
2.0
 40
2.0
 40
2.0
 40
3.0
 40
3.0
 40
3.0
 40
4.0
 40
4.0
 40
4.0
 40
4.0
 10
78.93816187262658
 20
-139.0323404600336
 30
0.0
 10
78.68856470472022
 20
-139.0323404600336
 30
0.0
 10
78.64205591566935
 20
-139.3158718184696
 30
0.0
 10
78.64205591566935
 20
-139.6607258765432
 30
0.0
 10
78.64205591566935
 20
-139.9800862280258
 30
0.0
 10
78.67805716349021
 20
-140.2887667835042
 30
0.0
 10
78.93816187262658
 20
-140.2887667835042
 30
0.0
 10
79.18569198324178
 20
-140.2887667835042
 30
0.0
 10
79.23444008435806
 20
-140.0076469919078
 30
0.0
 10
79.23444008435806
 20
-139.6607258765432
 30
0.0
 10
79.23444008435806
 20
-139.341021015512
 30
0.0
 10
79.1961995244718
 20
-139.0323404600336
 30
0.0
 10
78.93816187262658
 20
-139.0323404600336
 30
0.0
  0
HATCH
  5
9B
330
93
100
AcDbEntity
  8
_U+30EC_U+30A4_U+30E4_U+30FC 1
 62
   179
420
  2234388
100
AcDbHatch
 10
0.0
 20
0.0
 30
0.0
210
0.0
220
0.0
230
1.0
  2
SOLID
 70
     1
 71
     0
 91
        2
 92
        1
 93
        1
 72
     4
 94
        3
 73
     0
 74
     1
 95
       29
 96
       25
 40
0.0
 40
0.0
 40
0.0
 40
0.0
 40
1.0
 40
1.0
 40
1.0
 40
2.0
 40
2.0
 40
2.0
 40
3.0
 40
3.0
 40
3.0
 40
4.0
 40
4.0
 40
4.0
 40
5.0
 40
5.0
 40
5.0
 40
6.0
 40
6.0
 40
6.0
 40
7.0
 40
7.0
 40
7.0
 40
8.0
 40
8.0
 40
8.0
 40
8.0
 10
79.33589814639866
 20
-140.2550048477488
 10
79.22806665771034
 20
-140.4644666532519
 10
79.05460610002802
 20
-140.4834146784208
 10
78.93816187262658
 20
-140.4834146784208
 10
78.77744816823967
 20
-140.4834146784208
 10
78.63568248902163
 20
-140.4369058893699
 10
78.54042559885448
 20
-140.2550048477488
 10
78.43690047952272
 20
-140.0603569528321
 10
78.41778019957958
 20
-139.823334383447
 10
78.41778019957958
 20
-139.6607258765432
 10
78.41778019957958
 20
-139.5167208852597
 10
78.4346611674573
 20
-139.2648844052879
 10
78.54042559885448
 20
-139.066102395789
 10
78.64842934231706
 20
-138.8631862717078
 10
78.80914304670397
 20
-138.8397596224081
 10
78.93816187262658
 20
-138.8397596224081
 10
79.09680851972233
 20
-138.8397596224081
 10
79.24064125623151
 20
-138.8842013541679
 10
79.33589814639866
 20
-139.066102395789
 10
79.43528915114813
 20
-139.2586832334145
 10
79.45854354567356
 20
-139.4870930640866
 10
79.45854354567356
 20
-139.6607258765432
 10
79.45854354567356
 20
-139.8319471221601
 10
79.43752846321354
 20
-140.0624240101233
 10
79.33589814639866
 20
-140.2550048477488
 97
        0
 97
        0
 92
        1
 93
        1
 72
     4
 94
        3
 73
     0
 74
     1
 95
       17
 96
       13
 40
0.0
 40
0.0
 40
0.0
 40
0.0
 40
1.0
 40
1.0
 40
1.0
 40
2.0
 40
2.0
 40
2.0
 40
3.0
 40
3.0
 40
3.0
 40
4.0
 40
4.0
 40
4.0
 40
4.0
 10
78.93816187262658
 20
-139.0323404600336
 10
78.68856470472022
 20
-139.0323404600336
 10
78.64205591566935
 20
-139.3158718184696
 10
78.64205591566935
 20
-139.6607258765432
 10
78.64205591566935
 20
-139.9800862280258
 10
78.67805716349021
 20
-140.2887667835042
 10
78.93816187262658
 20
-140.2887667835042
 10
79.18569198324178
 20
-140.2887667835042
 10
79.23444008435806
 20
-140.0076469919078
 10
79.23444008435806
 20
-139.6607258765432
 10
79.23444008435806
 20
-139.341021015512
 10
79.1961995244718
 20
-139.0323404600336
 10
78.93816187262658
 20
-139.0323404600336
 97
        0
 97
        0
 75
     2
 76
     1
 98
        0
  0
ENDBLK
  5
96
330
93
100
AcDbEntity
  8
0
100
AcDbBlockEnd
  0
BLOCK
  5
9E
330
9C
100
AcDbEntity
  8
0
100
AcDbBlockBegin
  2
block 5
 70
     0
 10
0.0
 20
0.0
 30
0.0
  3
block 5
  1

  0
POLYLINE
  5
A0
330
9C
100
AcDbEntity
  8
_U+30EC_U+30A4_U+30E4_U+30FC 1
 62
   179
420
  2234388
370
     9
100
AcDb2dPolyline
 66
     1
 10
0.0
 20
0.0
 30
0.0
  0
VERTEX
  5
A1
330
A0
100
AcDbEntity
  8
_U+30EC_U+30A4_U+30E4_U+30FC 1
 62
   179
420
  2234388
370
     9
100
AcDbVertex
100
AcDb2dVertex
 10
73.34987118424444
 20
-118.577783303689
 30
0.0
  0
VERTEX
  5
A2
330
A0
100
AcDbEntity
  8
_U+30EC_U+30A4_U+30E4_U+30FC 1
 62
   179
420
  2234388
370
     9
100
AcDbVertex
100
AcDb2dVertex
 10
98.35024387976513
 20
-118.577783303689
 30
0.0
  0
SEQEND
  5
A3
330
A0
100
AcDbEntity
  8
_U+30EC_U+30A4_U+30E4_U+30FC 1
 62
   179
420
  2234388
370
     9
  0
POLYLINE
  5
A4
330
9C
100
AcDbEntity
  8
_U+30EC_U+30A4_U+30E4_U+30FC 1
 62
   179
420
  2234388
370
     9
100
AcDb2dPolyline
 66
     1
 10
0.0
 20
0.0
 30
0.0
  0
VERTEX
  5
A5
330
A4
100
AcDbEntity
  8
_U+30EC_U+30A4_U+30E4_U+30FC 1
 62
   179
420
  2234388
370
     9
100
AcDbVertex
100
AcDb2dVertex
 10
73.34987118424444
 20
-120.0377894144352
 30
0.0
  0
VERTEX
  5
A6
330
A4
100
AcDbEntity
  8
_U+30EC_U+30A4_U+30E4_U+30FC 1
 62
   179
420
  2234388
370
     9
100
AcDbVertex
100
AcDb2dVertex
 10
73.34987118424444
 20
-117.5780110817167
 30
0.0
  0
SEQEND
  5
A7
330
A4
100
AcDbEntity
  8
_U+30EC_U+30A4_U+30E4_U+30FC 1
 62
   179
420
  2234388
370
     9
  0
POLYLINE
  5
A8
330
9C
100
AcDbEntity
  8
_U+30EC_U+30A4_U+30E4_U+30FC 1
 62
   179
420
  2234388
370
     9
100
AcDb2dPolyline
 66
     1
 10
0.0
 20
0.0
 30
0.0
  0
VERTEX
  5
A9
330
A8
100
AcDbEntity
  8
_U+30EC_U+30A4_U+30E4_U+30FC 1
 62
   179
420
  2234388
370
     9
100
AcDbVertex
100
AcDb2dVertex
 10
98.35024387976513
 20
-120.0377894144352
 30
0.0
  0
VERTEX
  5
AA
330
A8
100
AcDbEntity
  8
_U+30EC_U+30A4_U+30E4_U+30FC 1
 62
   179
420
  2234388
370
     9
100
AcDbVertex
100
AcDb2dVertex
 10
98.35024387976513
 20
-117.5780110817167
 30
0.0
  0
SEQEND
  5
AB
330
A8
100
AcDbEntity
  8
_U+30EC_U+30A4_U+30E4_U+30FC 1
 62
   179
420
  2234388
370
     9
  0
INSERT
  5
AD
330
9C
100
AcDbEntity
  8
_U+30EC_U+30A4_U+30E4_U+30FC 1
100
AcDbBlockReference
  2
block 6
 10
0.0
 20
0.0
 30
0.0
  0
ENDBLK
  5
9F
330
9C
100
AcDbEntity
  8
0
100
AcDbBlockEnd
  0
BLOCK
  5
AE
330
AC
100
AcDbEntity
  8
0
100
AcDbBlockBegin
  2
block 6
 70
     0
 10
0.0
 20
0.0
 30
0.0
  3
block 6
  1

  0
SPLINE
  5
B0
330
AC
100
AcDbEntity
  8
_U+30EC_U+30A4_U+30E4_U+30FC 1
370
     0
100
AcDbSpline
210
0.0
220
0.0
230
1.0
 70
    11
 71
     3
 72
    44
 73
    40
 74
     0
 42
0.0000000001
 43
0.0000000001
 12
1.0
 22
0.0
 32
0.0
 13
1.0
 23
0.0
 33
0.0
 40
0.0
 40
0.0
 40
0.0
 40
0.0
 40
1.0
 40
1.0
 40
1.0
 40
2.0
 40
2.0
 40
2.0
 40
3.0
 40
3.0
 40
3.0
 40
4.0
 40
4.0
 40
4.0
 40
5.0
 40
5.0
 40
5.0
 40
6.0
 40
6.0
 40
6.0
 40
7.0
 40
7.0
 40
7.0
 40
8.0
 40
8.0
 40
8.0
 40
9.0
 40
9.0
 40
9.0
 40
10.0
 40
10.0
 40
10.0
 40
11.0
 40
11.0
 40
11.0
 40
12.0
 40
12.0
 40
12.0
 40
13.0
 40
13.0
 40
13.0
 40
13.0
 10
85.35447995913013
 20
-117.350804278388
 30
0.0
 10
85.13657766968808
 20
-117.5094509254837
 30
0.0
 10
85.04338783681207
 20
-117.5835204784166
 30
0.0
 10
84.99481199047005
 20
-117.7273532149258
 30
0.0
 10
84.99481199047005
 20
-117.7273532149258
 30
0.0
 10
85.77323131536225
 20
-117.7273532149258
 30
0.0
 10
85.77323131536225
 20
-117.7273532149258
 30
0.0
 10
85.77323131536225
 20
-117.7273532149258
 30
0.0
 10
85.77323131536225
 20
-117.9325086510724
 30
0.0
 10
85.77323131536225
 20
-117.9325086510724
 30
0.0
 10
85.77323131536225
 20
-117.9325086510724
 30
0.0
 10
84.7452148225637
 20
-117.9325086510724
 30
0.0
 10
84.7452148225637
 20
-117.9325086510724
 30
0.0
 10
84.776909701028
 20
-117.5749077397035
 30
0.0
 10
84.84236651524775
 20
-117.4967040721883
 30
0.0
 10
85.22752819049867
 20
-117.1983588031657
 30
0.0
 10
85.48349878505275
 20
-116.9995767936668
 30
0.0
 10
85.54895559927249
 20
-116.9318806673816
 30
0.0
 10
85.54895559927249
 20
-116.7944213575202
 30
0.0
 10
85.54895559927249
 20
-116.6759100728276
 30
0.0
 10
85.47712535840503
 20
-116.5448241896138
 30
0.0
 10
85.28041040619726
 20
-116.5448241896138
 30
0.0
 10
85.02013344228664
 20
-116.5448241896138
 30
0.0
 10
85.01169295834778
 20
-116.775301077577
 30
0.0
 10
85.00738658899121
 20
-116.8917453049785
 30
0.0
 10
85.00738658899121
 20
-116.8917453049785
 30
0.0
 10
84.78328312767572
 20
-116.8917453049785
 30
0.0
 10
84.78328312767572
 20
-116.8917453049785
 30
0.0
 10
84.79172361161457
 20
-116.764793536347
 30
0.0
 10
84.80223115284458
 20
-116.6526556783021
 30
0.0
 10
84.88267413242517
 20
-116.5341443936095
 30
0.0
 10
84.99257267840464
 20
-116.3734306892226
 30
0.0
 10
85.17878008938239
 20
-116.3394964986929
 30
0.0
 10
85.29522431678383
 20
-116.3394964986929
 30
0.0
 10
85.57238224857218
 20
-116.3394964986929
 30
0.0
 10
85.77960474200997
 20
-116.5236368523795
 30
0.0
 10
85.77960474200997
 20
-116.7964884148113
 30
0.0
 10
85.77960474200997
 20
-117.0248982454834
 30
0.0
 10
85.66333276938278
 20
-117.1244615050071
 30
0.0
 10
85.35447995913013
 20
-117.350804278388
 30
0.0
  0
HATCH
  5
B1
330
AC
100
AcDbEntity
  8
_U+30EC_U+30A4_U+30E4_U+30FC 1
 62
   179
420
  2234388
100
AcDbHatch
 10
0.0
 20
0.0
 30
0.0
210
0.0
220
0.0
230
1.0
  2
SOLID
 70
     1
 71
     0
 91
        1
 92
        1
 93
        1
 72
     4
 94
        3
 73
     0
 74
     1
 95
       44
 96
       40
 40
0.0
 40
0.0
 40
0.0
 40
0.0
 40
1.0
 40
1.0
 40
1.0
 40
2.0
 40
2.0
 40
2.0
 40
3.0
 40
3.0
 40
3.0
 40
4.0
 40
4.0
 40
4.0
 40
5.0
 40
5.0
 40
5.0
 40
6.0
 40
6.0
 40
6.0
 40
7.0
 40
7.0
 40
7.0
 40
8.0
 40
8.0
 40
8.0
 40
9.0
 40
9.0
 40
9.0
 40
10.0
 40
10.0
 40
10.0
 40
11.0
 40
11.0
 40
11.0
 40
12.0
 40
12.0
 40
12.0
 40
13.0
 40
13.0
 40
13.0
 40
13.0
 10
85.35447995913013
 20
-117.350804278388
 10
85.13657766968808
 20
-117.5094509254837
 10
85.04338783681207
 20
-117.5835204784166
 10
84.99481199047005
 20
-117.7273532149258
 10
84.99481199047005
 20
-117.7273532149258
 10
85.77323131536225
 20
-117.7273532149258
 10
85.77323131536225
 20
-117.7273532149258
 10
85.77323131536225
 20
-117.7273532149258
 10
85.77323131536225
 20
-117.9325086510724
 10
85.77323131536225
 20
-117.9325086510724
 10
85.77323131536225
 20
-117.9325086510724
 10
84.7452148225637
 20
-117.9325086510724
 10
84.7452148225637
 20
-117.9325086510724
 10
84.776909701028
 20
-117.5749077397035
 10
84.84236651524775
 20
-117.4967040721883
 10
85.22752819049867
 20
-117.1983588031657
 10
85.48349878505275
 20
-116.9995767936668
 10
85.54895559927249
 20
-116.9318806673816
 10
85.54895559927249
 20
-116.7944213575202
 10
85.54895559927249
 20
-116.6759100728276
 10
85.47712535840503
 20
-116.5448241896138
 10
85.28041040619726
 20
-116.5448241896138
 10
85.02013344228664
 20
-116.5448241896138
 10
85.01169295834778
 20
-116.775301077577
 10
85.00738658899121
 20
-116.8917453049785
 10
85.00738658899121
 20
-116.8917453049785
 10
84.78328312767572
 20
-116.8917453049785
 10
84.78328312767572
 20
-116.8917453049785
 10
84.79172361161457
 20
-116.764793536347
 10
84.80223115284458
 20
-116.6526556783021
 10
84.88267413242517
 20
-116.5341443936095
 10
84.99257267840464
 20
-116.3734306892226
 10
85.17878008938239
 20
-116.3394964986929
 10
85.29522431678383
 20
-116.3394964986929
 10
85.57238224857218
 20
-116.3394964986929
 10
85.77960474200997
 20
-116.5236368523795
 10
85.77960474200997
 20
-116.7964884148113
 10
85.77960474200997
 20
-117.0248982454834
 10
85.66333276938278
 20
-117.1244615050071
 10
85.35447995913013
 20
-117.350804278388
 97
        0
 97
        0
 75
     2
 76
     1
 98
        0
  0
SPLINE
  5
B2
330
AC
100
AcDbEntity
  8
_U+30EC_U+30A4_U+30E4_U+30FC 1
370
     0
100
AcDbSpline
210
0.0
220
0.0
230
1.0
 70
    11
 71
     3
 72
    53
 73
    49
 74
     0
 42
0.0000000001
 43
0.0000000001
 12
1.0
 22
0.0
 32
0.0
 13
1.0
 23
0.0
 33
0.0
 40
0.0
 40
0.0
 40
0.0
 40
0.0
 40
1.0
 40
1.0
 40
1.0
 40
2.0
 40
2.0
 40
2.0
 40
3.0
 40
3.0
 40
3.0
 40
4.0
 40
4.0
 40
4.0
 40
5.0
 40
5.0
 40
5.0
 40
6.0
 40
6.0
 40
6.0
 40
7.0
 40
7.0
 40
7.0
 40
8.0
 40
8.0
 40
8.0
 40
9.0
 40
9.0
 40
9.0
 40
10.0
 40
10.0
 40
10.0
 40
11.0
 40
11.0
 40
11.0
 40
12.0
 40
12.0
 40
12.0
 40
13.0
 40
13.0
 40
13.0
 40
14.0
 40
14.0
 40
14.0
 40
15.0
 40
15.0
 40
15.0
 40
16.0
 40
16.0
 40
16.0
 40
16.0
 10
86.41918671884659
 20
-117.9833238094799
 30
0.0
 10
86.34098305133142
 20
-117.9833238094799
 30
0.0
 10
86.23935273451656
 20
-117.9662705868279
 30
0.0
 10
86.13772241770168
 20
-117.9028808298993
 30
0.0
 10
85.96443411479362
 20
-117.7928100291456
 30
0.0
 10
85.94307452278507
 20
-117.6617241459318
 30
0.0
 10
85.9241264976162
 20
-117.5538926572435
 30
0.0
 10
85.9241264976162
 20
-117.5538926572435
 30
0.0
 10
86.1463351564148
 20
-117.5538926572435
 30
0.0
 10
86.1463351564148
 20
-117.5538926572435
 30
0.0
 10
86.20111217463028
 20
-117.7526746667424
 30
0.0
 10
86.328236198036
 20
-117.7823024879155
 30
0.0
 10
86.42125377613775
 20
-117.7823024879155
 30
0.0
 10
86.56078014329036
 20
-117.7823024879155
 30
0.0
 10
86.71305336373841
 20
-117.6829114831661
 30
0.0
 10
86.71305336373841
 20
-117.4501952831375
 30
0.0
 10
86.71305336373841
 20
-117.1942246885834
 30
0.0
 10
86.53321937940837
 20
-117.1244615050071
 30
0.0
 10
86.41264103742462
 20
-117.1244615050071
 30
0.0
 10
86.38094615896033
 20
-117.1244615050071
 30
0.0
 10
86.23935273451656
 20
-117.1244615050071
 30
0.0
 10
86.1504692709971
 20
-117.2534803309297
 30
0.0
 10
86.1504692709971
 20
-117.2534803309297
 30
0.0
 10
85.97476940124936
 20
-117.2343600509866
 30
0.0
 10
85.97476940124936
 20
-117.2343600509866
 30
0.0
 10
85.97476940124936
 20
-117.2343600509866
 30
0.0
 10
86.0953477432331
 20
-116.3882445998092
 30
0.0
 10
86.0953477432331
 20
-116.3882445998092
 30
0.0
 10
86.0953477432331
 20
-116.3882445998092
 30
0.0
 10
86.87393932289957
 20
-116.3882445998092
 30
0.0
 10
86.87393932289957
 20
-116.3882445998092
 30
0.0
 10
86.87393932289957
 20
-116.3882445998092
 30
0.0
 10
86.87393932289957
 20
-116.5828924947258
 30
0.0
 10
86.87393932289957
 20
-116.5828924947258
 30
0.0
 10
86.87393932289957
 20
-116.5828924947258
 30
0.0
 10
86.25830075968543
 20
-116.5828924947258
 30
0.0
 10
86.25830075968543
 20
-116.5828924947258
 30
0.0
 10
86.25830075968543
 20
-116.5828924947258
 30
0.0
 10
86.19284394546568
 20
-117.0059502203145
 30
0.0
 10
86.19284394546568
 20
-117.0059502203145
 30
0.0
 10
86.25416664510313
 20
-116.9720160297848
 30
0.0
 10
86.3365044272006
 20
-116.9318806673816
 30
0.0
 10
86.4550157118932
 20
-116.9318806673816
 30
0.0
 10
86.70891924915611
 20
-116.9318806673816
 30
0.0
 10
86.9459418185413
 20
-117.1180880783594
 30
0.0
 10
86.9459418185413
 20
-117.4310750031943
 30
0.0
 10
86.9459418185413
 20
-117.7485405521601
 30
0.0
 10
86.72166610245154
 20
-117.9833238094799
 30
0.0
 10
86.41918671884659
 20
-117.9833238094799
 30
0.0
  0
HATCH
  5
B3
330
AC
100
AcDbEntity
  8
_U+30EC_U+30A4_U+30E4_U+30FC 1
 62
   179
420
  2234388
100
AcDbHatch
 10
0.0
 20
0.0
 30
0.0
210
0.0
220
0.0
230
1.0
  2
SOLID
 70
     1
 71
     0
 91
        1
 92
        1
 93
        1
 72
     4
 94
        3
 73
     0
 74
     1
 95
       53
 96
       49
 40
0.0
 40
0.0
 40
0.0
 40
0.0
 40
1.0
 40
1.0
 40
1.0
 40
2.0
 40
2.0
 40
2.0
 40
3.0
 40
3.0
 40
3.0
 40
4.0
 40
4.0
 40
4.0
 40
5.0
 40
5.0
 40
5.0
 40
6.0
 40
6.0
 40
6.0
 40
7.0
 40
7.0
 40
7.0
 40
8.0
 40
8.0
 40
8.0
 40
9.0
 40
9.0
 40
9.0
 40
10.0
 40
10.0
 40
10.0
 40
11.0
 40
11.0
 40
11.0
 40
12.0
 40
12.0
 40
12.0
 40
13.0
 40
13.0
 40
13.0
 40
14.0
 40
14.0
 40
14.0
 40
15.0
 40
15.0
 40
15.0
 40
16.0
 40
16.0
 40
16.0
 40
16.0
 10
86.41918671884659
 20
-117.9833238094799
 10
86.34098305133142
 20
-117.9833238094799
 10
86.23935273451656
 20
-117.9662705868279
 10
86.13772241770168
 20
-117.9028808298993
 10
85.96443411479362
 20
-117.7928100291456
 10
85.94307452278507
 20
-117.6617241459318
 10
85.9241264976162
 20
-117.5538926572435
 10
85.9241264976162
 20
-117.5538926572435
 10
86.1463351564148
 20
-117.5538926572435
 10
86.1463351564148
 20
-117.5538926572435
 10
86.20111217463028
 20
-117.7526746667424
 10
86.328236198036
 20
-117.7823024879155
 10
86.42125377613775
 20
-117.7823024879155
 10
86.56078014329036
 20
-117.7823024879155
 10
86.71305336373841
 20
-117.6829114831661
 10
86.71305336373841
 20
-117.4501952831375
 10
86.71305336373841
 20
-117.1942246885834
 10
86.53321937940837
 20
-117.1244615050071
 10
86.41264103742462
 20
-117.1244615050071
 10
86.38094615896033
 20
-117.1244615050071
 10
86.23935273451656
 20
-117.1244615050071
 10
86.1504692709971
 20
-117.2534803309297
 10
86.1504692709971
 20
-117.2534803309297
 10
85.97476940124936
 20
-117.2343600509866
 10
85.97476940124936
 20
-117.2343600509866
 10
85.97476940124936
 20
-117.2343600509866
 10
86.0953477432331
 20
-116.3882445998092
 10
86.0953477432331
 20
-116.3882445998092
 10
86.0953477432331
 20
-116.3882445998092
 10
86.87393932289957
 20
-116.3882445998092
 10
86.87393932289957
 20
-116.3882445998092
 10
86.87393932289957
 20
-116.3882445998092
 10
86.87393932289957
 20
-116.5828924947258
 10
86.87393932289957
 20
-116.5828924947258
 10
86.87393932289957
 20
-116.5828924947258
 10
86.25830075968543
 20
-116.5828924947258
 10
86.25830075968543
 20
-116.5828924947258
 10
86.25830075968543
 20
-116.5828924947258
 10
86.19284394546568
 20
-117.0059502203145
 10
86.19284394546568
 20
-117.0059502203145
 10
86.25416664510313
 20
-116.9720160297848
 10
86.3365044272006
 20
-116.9318806673816
 10
86.4550157118932
 20
-116.9318806673816
 10
86.70891924915611
 20
-116.9318806673816
 10
86.9459418185413
 20
-117.1180880783594
 10
86.9459418185413
 20
-117.4310750031943
 10
86.9459418185413
 20
-117.7485405521601
 10
86.72166610245154
 20
-117.9833238094799
 10
86.41918671884659
 20
-117.9833238094799
 97
        0
 97
        0
 75
     2
 76
     1
 98
        0
  0
ENDBLK
  5
AF
330
AC
100
AcDbEntity
  8
0
100
AcDbBlockEnd
  0
BLOCK
  5
B6
330
B4
100
AcDbEntity
  8
0
100
AcDbBlockBegin
  2
block 7
 70
     0
 10
0.0
 20
0.0
 30
0.0
  3
block 7
  1

  0
POLYLINE
  5
B8
330
B4
100
AcDbEntity
  8
_U+30EC_U+30A4_U+30E4_U+30FC 1
 62
   179
420
  2234388
370
     9
100
AcDb2dPolyline
 66
     1
 10
0.0
 20
0.0
 30
0.0
  0
VERTEX
  5
B9
330
B8
100
AcDbEntity
  8
_U+30EC_U+30A4_U+30E4_U+30FC 1
 62
   179
420
  2234388
370
     9
100
AcDbVertex
100
AcDb2dVertex
 10
102.3500055299681
 20
-122.5782127471332
 30
0.0
  0
VERTEX
  5
BA
330
B8
100
AcDbEntity
  8
_U+30EC_U+30A4_U+30E4_U+30FC 1
 62
   179
420
  2234388
370
     9
100
AcDbVertex
100
AcDb2dVertex
 10
102.3500055299681
 20
-118.8079002480758
 30
0.0
  0
SEQEND
  5
BB
330
B8
100
AcDbEntity
  8
_U+30EC_U+30A4_U+30E4_U+30FC 1
 62
   179
420
  2234388
370
     9
  0
POLYLINE
  5
BC
330
B4
100
AcDbEntity
  8
_U+30EC_U+30A4_U+30E4_U+30FC 1
 62
   179
420
  2234388
370
     9
100
AcDb2dPolyline
 66
     1
 10
0.0
 20
0.0
 30
0.0
  0
VERTEX
  5
BD
330
BC
100
AcDbEntity
  8
_U+30EC_U+30A4_U+30E4_U+30FC 1
 62
   179
420
  2234388
370
     9
100
AcDbVertex
100
AcDb2dVertex
 10
102.3500055299681
 20
-122.5782127471332
 30
0.0
  0
VERTEX
  5
BE
330
BC
100
AcDbEntity
  8
_U+30EC_U+30A4_U+30E4_U+30FC 1
 62
   179
420
  2234388
370
     9
100
AcDbVertex
100
AcDb2dVertex
 10
102.3500055299681
 20
-123.5779849691054
 30
0.0
  0
SEQEND
  5
BF
330
BC
100
AcDbEntity
  8
_U+30EC_U+30A4_U+30E4_U+30FC 1
 62
   179
420
  2234388
370
     9
  0
POLYLINE
  5
C0
330
B4
100
AcDbEntity
  8
_U+30EC_U+30A4_U+30E4_U+30FC 1
 62
   179
420
  2234388
370
     9
100
AcDb2dPolyline
 66
     1
 10
0.0
 20
0.0
 30
0.0
  0
VERTEX
  5
C1
330
C0
100
AcDbEntity
  8
_U+30EC_U+30A4_U+30E4_U+30FC 1
 62
   179
420
  2234388
370
     9
100
AcDbVertex
100
AcDb2dVertex
 10
100.8899615927493
 20
-122.5782127471332
 30
0.0
  0
VERTEX
  5
C2
330
C0
100
AcDbEntity
  8
_U+30EC_U+30A4_U+30E4_U+30FC 1
 62
   179
420
  2234388
370
     9
100
AcDbVertex
100
AcDb2dVertex
 10
103.3500926410972
 20
-122.5782127471332
 30
0.0
  0
SEQEND
  5
C3
330
C0
100
AcDbEntity
  8
_U+30EC_U+30A4_U+30E4_U+30FC 1
 62
   179
420
  2234388
370
     9
  0
POLYLINE
  5
C4
330
B4
100
AcDbEntity
  8
_U+30EC_U+30A4_U+30E4_U+30FC 1
 62
   179
420
  2234388
370
     9
100
AcDb2dPolyline
 66
     1
 10
0.0
 20
0.0
 30
0.0
  0
VERTEX
  5
C5
330
C4
100
AcDbEntity
  8
_U+30EC_U+30A4_U+30E4_U+30FC 1
 62
   179
420
  2234388
370
     9
100
AcDbVertex
100
AcDb2dVertex
 10
100.8899615927493
 20
-123.5779849691054
 30
0.0
  0
VERTEX
  5
C6
330
C4
100
AcDbEntity
  8
_U+30EC_U+30A4_U+30E4_U+30FC 1
 62
   179
420
  2234388
370
     9
100
AcDbVertex
100
AcDb2dVertex
 10
103.3500926410972
 20
-123.5779849691054
 30
0.0
  0
SEQEND
  5
C7
330
C4
100
AcDbEntity
  8
_U+30EC_U+30A4_U+30E4_U+30FC 1
 62
   179
420
  2234388
370
     9
  0
INSERT
  5
C9
330
B4
100
AcDbEntity
  8
_U+30EC_U+30A4_U+30E4_U+30FC 1
100
AcDbBlockReference
  2
block 8
 10
0.0
 20
0.0
 30
0.0
  0
ENDBLK
  5
B7
330
B4
100
AcDbEntity
  8
0
100
AcDbBlockEnd
  0
BLOCK
  5
CA
330
C8
100
AcDbEntity
  8
0
100
AcDbBlockBegin
  2
block 8
 70
     0
 10
0.0
 20
0.0
 30
0.0
  3
block 8
  1

  0
SPLINE
  5
CC
330
C8
100
AcDbEntity
  8
_U+30EC_U+30A4_U+30E4_U+30FC 1
370
     0
100
AcDbSpline
210
0.0
220
0.0
230
1.0
 70
    11
 71
     3
 72
    26
 73
    22
 74
     0
 42
0.0000000001
 43
0.0000000001
 12
1.0
 22
0.0
 32
0.0
 13
1.0
 23
0.0
 33
0.0
 40
0.0
 40
0.0
 40
0.0
 40
0.0
 40
1.0
 40
1.0
 40
1.0
 40
2.0
 40
2.0
 40
2.0
 40
3.0
 40
3.0
 40
3.0
 40
4.0
 40
4.0
 40
4.0
 40
5.0
 40
5.0
 40
5.0
 40
6.0
 40
6.0
 40
6.0
 40
7.0
 40
7.0
 40
7.0
 40
7.0
 10
106.2898084586706
 20
-123.0377956506642
 30
0.0
 10
106.2898084586706
 20
-123.0377956506642
 30
0.0
 10
105.185655355648
 20
-123.0377956506642
 30
0.0
 10
105.185655355648
 20
-123.0377956506642
 30
0.0
 10
105.185655355648
 20
-123.0377956506642
 30
0.0
 10
105.185655355648
 20
-123.3678357981511
 30
0.0
 10
105.185655355648
 20
-123.3678357981511
 30
0.0
 10
105.185655355648
 20
-123.3678357981511
 30
0.0
 10
105.0375162497823
 20
-123.3678357981511
 30
0.0
 10
105.0375162497823
 20
-123.3678357981511
 30
0.0
 10
105.0227023391957
 20
-123.035728593373
 30
0.0
 10
104.8597493227434
 20
-122.9892198043221
 30
0.0
 10
104.7453721526331
 20
-122.959591983149
 30
0.0
 10
104.7453721526331
 20
-122.959591983149
 30
0.0
 10
104.7453721526331
 20
-122.8135199345744
 30
0.0
 10
104.7453721526331
 20
-122.8135199345744
 30
0.0
 10
104.7453721526331
 20
-122.8135199345744
 30
0.0
 10
106.2898084586706
 20
-122.8135199345744
 30
0.0
 10
106.2898084586706
 20
-122.8135199345744
 30
0.0
 10
106.2898084586706
 20
-122.8135199345744
 30
0.0
 10
106.2898084586706
 20
-123.0377956506642
 30
0.0
 10
106.2898084586706
 20
-123.0377956506642
 30
0.0
  0
HATCH
  5
CD
330
C8
100
AcDbEntity
  8
_U+30EC_U+30A4_U+30E4_U+30FC 1
 62
   179
420
  2234388
100
AcDbHatch
 10
0.0
 20
0.0
 30
0.0
210
0.0
220
0.0
230
1.0
  2
SOLID
 70
     1
 71
     0
 91
        1
 92
        1
 93
        1
 72
     4
 94
        3
 73
     0
 74
     1
 95
       26
 96
       22
 40
0.0
 40
0.0
 40
0.0
 40
0.0
 40
1.0
 40
1.0
 40
1.0
 40
2.0
 40
2.0
 40
2.0
 40
3.0
 40
3.0
 40
3.0
 40
4.0
 40
4.0
 40
4.0
 40
5.0
 40
5.0
 40
5.0
 40
6.0
 40
6.0
 40
6.0
 40
7.0
 40
7.0
 40
7.0
 40
7.0
 10
106.2898084586706
 20
-123.0377956506642
 10
106.2898084586706
 20
-123.0377956506642
 10
105.185655355648
 20
-123.0377956506642
 10
105.185655355648
 20
-123.0377956506642
 10
105.185655355648
 20
-123.0377956506642
 10
105.185655355648
 20
-123.3678357981511
 10
105.185655355648
 20
-123.3678357981511
 10
105.185655355648
 20
-123.3678357981511
 10
105.0375162497823
 20
-123.3678357981511
 10
105.0375162497823
 20
-123.3678357981511
 10
105.0227023391957
 20
-123.035728593373
 10
104.8597493227434
 20
-122.9892198043221
 10
104.7453721526331
 20
-122.959591983149
 10
104.7453721526331
 20
-122.959591983149
 10
104.7453721526331
 20
-122.8135199345744
 10
104.7453721526331
 20
-122.8135199345744
 10
104.7453721526331
 20
-122.8135199345744
 10
106.2898084586706
 20
-122.8135199345744
 10
106.2898084586706
 20
-122.8135199345744
 10
106.2898084586706
 20
-122.8135199345744
 10
106.2898084586706
 20
-123.0377956506642
 10
106.2898084586706
 20
-123.0377956506642
 97
        0
 97
        0
 75
     2
 76
     1
 98
        0
  0
ENDBLK
  5
CB
330
C8
100
AcDbEntity
  8
0
100
AcDbBlockEnd
  0
BLOCK
  5
D0
330
CE
100
AcDbEntity
  8
0
100
AcDbBlockBegin
  2
block 9
 70
     0
 10
0.0
 20
0.0
 30
0.0
  3
block 9
  1

  0
POLYLINE
  5
D2
330
CE
100
AcDbEntity
  8
_U+30EC_U+30A4_U+30E4_U+30FC 1
 62
   179
420
  2234388
370
     9
100
AcDb2dPolyline
 66
     1
 10
0.0
 20
0.0
 30
0.0
  0
VERTEX
  5
D3
330
D2
100
AcDbEntity
  8
_U+30EC_U+30A4_U+30E4_U+30FC 1
 62
   179
420
  2234388
370
     9
100
AcDbVertex
100
AcDb2dVertex
 10
102.3500055299681
 20
-123.5779849691054
 30
0.0
  0
VERTEX
  5
D4
330
D2
100
AcDbEntity
  8
_U+30EC_U+30A4_U+30E4_U+30FC 1
 62
   179
420
  2234388
370
     9
100
AcDbVertex
100
AcDb2dVertex
 10
102.3500055299681
 20
-134.077956910925
 30
0.0
  0
SEQEND
  5
D5
330
D2
100
AcDbEntity
  8
_U+30EC_U+30A4_U+30E4_U+30FC 1
 62
   179
420
  2234388
370
     9
  0
POLYLINE
  5
D6
330
CE
100
AcDbEntity
  8
_U+30EC_U+30A4_U+30E4_U+30FC 1
 62
   179
420
  2234388
370
     9
100
AcDb2dPolyline
 66
     1
 10
0.0
 20
0.0
 30
0.0
  0
VERTEX
  5
D7
330
D6
100
AcDbEntity
  8
_U+30EC_U+30A4_U+30E4_U+30FC 1
 62
   179
420
  2234388
370
     9
100
AcDbVertex
100
AcDb2dVertex
 10
85.8900272532073
 20
-134.077956910925
 30
0.0
  0
VERTEX
  5
D8
330
D6
100
AcDbEntity
  8
_U+30EC_U+30A4_U+30E4_U+30FC 1
 62
   179
420
  2234388
370
     9
100
AcDbVertex
100
AcDb2dVertex
 10
103.3500926410972
 20
-134.077956910925
 30
0.0
  0
SEQEND
  5
D9
330
D6
100
AcDbEntity
  8
_U+30EC_U+30A4_U+30E4_U+30FC 1
 62
   179
420
  2234388
370
     9
  0
INSERT
  5
DB
330
CE
100
AcDbEntity
  8
_U+30EC_U+30A4_U+30E4_U+30FC 1
100
AcDbBlockReference
  2
block 10
 10
0.0
 20
0.0
 30
0.0
  0
ENDBLK
  5
D1
330
CE
100
AcDbEntity
  8
0
100
AcDbBlockEnd
  0
BLOCK
  5
DC
330
DA
100
AcDbEntity
  8
0
100
AcDbBlockBegin
  2
block 10
 70
     0
 10
0.0
 20
0.0
 30
0.0
  3
block 10
  1

  0
SPLINE
  5
DE
330
DA
100
AcDbEntity
  8
_U+30EC_U+30A4_U+30E4_U+30FC 1
370
     0
100
AcDbSpline
210
0.0
220
0.0
230
1.0
 70
    11
 71
     3
 72
    26
 73
    22
 74
     0
 42
0.0000000001
 43
0.0000000001
 12
1.0
 22
0.0
 32
0.0
 13
1.0
 23
0.0
 33
0.0
 40
0.0
 40
0.0
 40
0.0
 40
0.0
 40
1.0
 40
1.0
 40
1.0
 40
2.0
 40
2.0
 40
2.0
 40
3.0
 40
3.0
 40
3.0
 40
4.0
 40
4.0
 40
4.0
 40
5.0
 40
5.0
 40
5.0
 40
6.0
 40
6.0
 40
6.0
 40
7.0
 40
7.0
 40
7.0
 40
7.0
 10
101.703697348706
 20
-130.3286512260984
 30
0.0
 10
101.703697348706
 20
-130.3286512260984
 30
0.0
 10
100.5995442456834
 20
-130.3286512260984
 30
0.0
 10
100.5995442456834
 20
-130.3286512260984
 30
0.0
 10
100.5995442456834
 20
-130.3286512260984
 30
0.0
 10
100.5995442456834
 20
-130.6586913735853
 30
0.0
 10
100.5995442456834
 20
-130.6586913735853
 30
0.0
 10
100.5995442456834
 20
-130.6586913735853
 30
0.0
 10
100.4514051398177
 20
-130.6586913735853
 30
0.0
 10
100.4514051398177
 20
-130.6586913735853
 30
0.0
 10
100.4365912292311
 20
-130.3265841688072
 30
0.0
 10
100.2736382127788
 20
-130.2800753797564
 30
0.0
 10
100.1592610426685
 20
-130.2504475585832
 30
0.0
 10
100.1592610426685
 20
-130.2504475585832
 30
0.0
 10
100.1592610426685
 20
-130.1043755100086
 30
0.0
 10
100.1592610426685
 20
-130.1043755100086
 30
0.0
 10
100.1592610426685
 20
-130.1043755100086
 30
0.0
 10
101.703697348706
 20
-130.1043755100086
 30
0.0
 10
101.703697348706
 20
-130.1043755100086
 30
0.0
 10
101.703697348706
 20
-130.1043755100086
 30
0.0
 10
101.703697348706
 20
-130.3286512260984
 30
0.0
 10
101.703697348706
 20
-130.3286512260984
 30
0.0
  0
HATCH
  5
DF
330
DA
100
AcDbEntity
  8
_U+30EC_U+30A4_U+30E4_U+30FC 1
 62
   179
420
  2234388
100
AcDbHatch
 10
0.0
 20
0.0
 30
0.0
210
0.0
220
0.0
230
1.0
  2
SOLID
 70
     1
 71
     0
 91
        1
 92
        1
 93
        1
 72
     4
 94
        3
 73
     0
 74
     1
 95
       26
 96
       22
 40
0.0
 40
0.0
 40
0.0
 40
0.0
 40
1.0
 40
1.0
 40
1.0
 40
2.0
 40
2.0
 40
2.0
 40
3.0
 40
3.0
 40
3.0
 40
4.0
 40
4.0
 40
4.0
 40
5.0
 40
5.0
 40
5.0
 40
6.0
 40
6.0
 40
6.0
 40
7.0
 40
7.0
 40
7.0
 40
7.0
 10
101.703697348706
 20
-130.3286512260984
 10
101.703697348706
 20
-130.3286512260984
 10
100.5995442456834
 20
-130.3286512260984
 10
100.5995442456834
 20
-130.3286512260984
 10
100.5995442456834
 20
-130.3286512260984
 10
100.5995442456834
 20
-130.6586913735853
 10
100.5995442456834
 20
-130.6586913735853
 10
100.5995442456834
 20
-130.6586913735853
 10
100.4514051398177
 20
-130.6586913735853
 10
100.4514051398177
 20
-130.6586913735853
 10
100.4365912292311
 20
-130.3265841688072
 10
100.2736382127788
 20
-130.2800753797564
 10
100.1592610426685
 20
-130.2504475585832
 10
100.1592610426685
 20
-130.2504475585832
 10
100.1592610426685
 20
-130.1043755100086
 10
100.1592610426685
 20
-130.1043755100086
 10
100.1592610426685
 20
-130.1043755100086
 10
101.703697348706
 20
-130.1043755100086
 10
101.703697348706
 20
-130.1043755100086
 10
101.703697348706
 20
-130.1043755100086
 10
101.703697348706
 20
-130.3286512260984
 10
101.703697348706
 20
-130.3286512260984
 97
        0
 97
        0
 75
     2
 76
     1
 98
        0
  0
SPLINE
  5
E0
330
DA
100
AcDbEntity
  8
_U+30EC_U+30A4_U+30E4_U+30FC 1
370
     0
100
AcDbSpline
210
0.0
220
0.0
230
1.0
 70
    11
 71
     3
 72
    29
 73
    25
 74
     0
 42
0.0000000001
 43
0.0000000001
 12
1.0
 22
0.0
 32
0.0
 13
1.0
 23
0.0
 33
0.0
 40
0.0
 40
0.0
 40
0.0
 40
0.0
 40
1.0
 40
1.0
 40
1.0
 40
2.0
 40
2.0
 40
2.0
 40
3.0
 40
3.0
 40
3.0
 40
4.0
 40
4.0
 40
4.0
 40
5.0
 40
5.0
 40
5.0
 40
6.0
 40
6.0
 40
6.0
 40
7.0
 40
7.0
 40
7.0
 40
8.0
 40
8.0
 40
8.0
 40
8.0
 10
101.5259304216671
 20
-128.7053222334487
 30
0.0
 10
101.7353922271703
 20
-128.8134982316855
 30
0.0
 10
101.7543402523392
 20
-128.9867865345936
 30
0.0
 10
101.7543402523392
 20
-129.103230761995
 30
0.0
 10
101.7543402523392
 20
-129.2641167211562
 30
0.0
 10
101.7078314632883
 20
-129.4057101456
 30
0.0
 10
101.5259304216671
 20
-129.5007947809929
 30
0.0
 10
101.3312825267505
 20
-129.6044921550989
 30
0.0
 10
101.0946044669139
 20
-129.6237846898163
 30
0.0
 10
100.9316514504615
 20
-129.6237846898163
 30
0.0
 10
100.7876464591781
 20
-129.6237846898163
 30
0.0
 10
100.5358099792063
 20
-129.60655921239
 30
0.0
 10
100.3370279697074
 20
-129.5007947809929
 30
0.0
 10
100.1341118456262
 20
-129.3929632923045
 30
0.0
 10
100.1106851963265
 20
-129.2320773331434
 30
0.0
 10
100.1106851963265
 20
-129.103230761995
 30
0.0
 10
100.1106851963265
 20
-128.944411860125
 30
0.0
 10
100.1551269280862
 20
-128.8007513783901
 30
0.0
 10
100.3370279697074
 20
-128.7053222334487
 30
0.0
 10
100.5296088073329
 20
-128.6061034834735
 30
0.0
 10
100.7580186380049
 20
-128.5826768341738
 30
0.0
 10
100.9316514504615
 20
-128.5826768341738
 30
0.0
 10
101.1028726960784
 20
-128.5826768341738
 30
0.0
 10
101.3333495840417
 20
-128.6040364261823
 30
0.0
 10
101.5259304216671
 20
-128.7053222334487
 30
0.0
  0
SPLINE
  5
E1
330
DA
100
AcDbEntity
  8
_U+30EC_U+30A4_U+30E4_U+30FC 1
370
     0
100
AcDbSpline
210
0.0
220
0.0
230
1.0
 70
    11
 71
     3
 72
    17
 73
    13
 74
     0
 42
0.0000000001
 43
0.0000000001
 12
1.0
 22
0.0
 32
0.0
 13
1.0
 23
0.0
 33
0.0
 40
0.0
 40
0.0
 40
0.0
 40
0.0
 40
1.0
 40
1.0
 40
1.0
 40
2.0
 40
2.0
 40
2.0
 40
3.0
 40
3.0
 40
3.0
 40
4.0
 40
4.0
 40
4.0
 40
4.0
 10
100.303266033952
 20
-129.103230761995
 30
0.0
 10
100.303266033952
 20
-129.3530001846756
 30
0.0
 10
100.586797392388
 20
-129.3995089737265
 30
0.0
 10
100.9316514504615
 20
-129.3995089737265
 30
0.0
 10
101.2510118019442
 20
-129.3995089737265
 30
0.0
 10
101.5596923574226
 20
-129.3633354711314
 30
0.0
 10
101.5596923574226
 20
-129.103230761995
 30
0.0
 10
101.5596923574226
 20
-128.8555283966056
 30
0.0
 10
101.2785725658262
 20
-128.8069525502635
 30
0.0
 10
100.9316514504615
 20
-128.8069525502635
 30
0.0
 10
100.6119465894303
 20
-128.8069525502635
 30
0.0
 10
100.303266033952
 20
-128.8451931101498
 30
0.0
 10
100.303266033952
 20
-129.103230761995
 30
0.0
  0
HATCH
  5
E2
330
DA
100
AcDbEntity
  8
_U+30EC_U+30A4_U+30E4_U+30FC 1
 62
   179
420
  2234388
100
AcDbHatch
 10
0.0
 20
0.0
 30
0.0
210
0.0
220
0.0
230
1.0
  2
SOLID
 70
     1
 71
     0
 91
        2
 92
        1
 93
        1
 72
     4
 94
        3
 73
     0
 74
     1
 95
       29
 96
       25
 40
0.0
 40
0.0
 40
0.0
 40
0.0
 40
1.0
 40
1.0
 40
1.0
 40
2.0
 40
2.0
 40
2.0
 40
3.0
 40
3.0
 40
3.0
 40
4.0
 40
4.0
 40
4.0
 40
5.0
 40
5.0
 40
5.0
 40
6.0
 40
6.0
 40
6.0
 40
7.0
 40
7.0
 40
7.0
 40
8.0
 40
8.0
 40
8.0
 40
8.0
 10
101.5259304216671
 20
-128.7053222334487
 10
101.7353922271703
 20
-128.8134982316855
 10
101.7543402523392
 20
-128.9867865345936
 10
101.7543402523392
 20
-129.103230761995
 10
101.7543402523392
 20
-129.2641167211562
 10
101.7078314632883
 20
-129.4057101456
 10
101.5259304216671
 20
-129.5007947809929
 10
101.3312825267505
 20
-129.6044921550989
 10
101.0946044669139
 20
-129.6237846898163
 10
100.9316514504615
 20
-129.6237846898163
 10
100.7876464591781
 20
-129.6237846898163
 10
100.5358099792063
 20
-129.60655921239
 10
100.3370279697074
 20
-129.5007947809929
 10
100.1341118456262
 20
-129.3929632923045
 10
100.1106851963265
 20
-129.2320773331434
 10
100.1106851963265
 20
-129.103230761995
 10
100.1106851963265
 20
-128.944411860125
 10
100.1551269280862
 20
-128.8007513783901
 10
100.3370279697074
 20
-128.7053222334487
 10
100.5296088073329
 20
-128.6061034834735
 10
100.7580186380049
 20
-128.5826768341738
 10
100.9316514504615
 20
-128.5826768341738
 10
101.1028726960784
 20
-128.5826768341738
 10
101.3333495840417
 20
-128.6040364261823
 10
101.5259304216671
 20
-128.7053222334487
 97
        0
 97
        0
 92
        1
 93
        1
 72
     4
 94
        3
 73
     0
 74
     1
 95
       17
 96
       13
 40
0.0
 40
0.0
 40
0.0
 40
0.0
 40
1.0
 40
1.0
 40
1.0
 40
2.0
 40
2.0
 40
2.0
 40
3.0
 40
3.0
 40
3.0
 40
4.0
 40
4.0
 40
4.0
 40
4.0
 10
100.303266033952
 20
-129.103230761995
 10
100.303266033952
 20
-129.3530001846756
 10
100.586797392388
 20
-129.3995089737265
 10
100.9316514504615
 20
-129.3995089737265
 10
101.2510118019442
 20
-129.3995089737265
 10
101.5596923574226
 20
-129.3633354711314
 10
101.5596923574226
 20
-129.103230761995
 10
101.5596923574226
 20
-128.8555283966056
 10
101.2785725658262
 20
-128.8069525502635
 10
100.9316514504615
 20
-128.8069525502635
 10
100.6119465894303
 20
-128.8069525502635
 10
100.303266033952
 20
-128.8451931101498
 10
100.303266033952
 20
-129.103230761995
 97
        0
 97
        0
 75
     2
 76
     1
 98
        0
  0
POLYLINE
  5
E3
330
DA
100
AcDbEntity
  8
_U+30EC_U+30A4_U+30E4_U+30FC 1
370
     0
100
AcDb2dPolyline
 66
     1
 10
0.0
 20
0.0
 30
0.0
  0
VERTEX
  5
E4
330
E3
100
AcDbEntity
  8
_U+30EC_U+30A4_U+30E4_U+30FC 1
370
     0
100
AcDbVertex
100
AcDb2dVertex
 10
101.703697348706
 20
-128.3663248377001
 30
0.0
  0
VERTEX
  5
E5
330
E3
100
AcDbEntity
  8
_U+30EC_U+30A4_U+30E4_U+30FC 1
370
     0
100
AcDbVertex
100
AcDb2dVertex
 10
101.4518608687343
 20
-128.3663248377001
 30
0.0
  0
VERTEX
  5
E6
330
E3
100
AcDbEntity
  8
_U+30EC_U+30A4_U+30E4_U+30FC 1
370
     0
100
AcDbVertex
100
AcDb2dVertex
 10
101.4518608687343
 20
-128.1144883577283
 30
0.0
  0
VERTEX
  5
E7
330
E3
100
AcDbEntity
  8
_U+30EC_U+30A4_U+30E4_U+30FC 1
370
     0
100
AcDbVertex
100
AcDb2dVertex
 10
101.703697348706
 20
-128.1144883577283
 30
0.0
  0
VERTEX
  5
E8
330
E3
100
AcDbEntity
  8
_U+30EC_U+30A4_U+30E4_U+30FC 1
370
     0
100
AcDbVertex
100
AcDb2dVertex
 10
101.703697348706
 20
-128.3663248377001
 30
0.0
  0
SEQEND
  5
E9
330
E3
100
AcDbEntity
  8
_U+30EC_U+30A4_U+30E4_U+30FC 1
370
     0
  0
HATCH
  5
EA
330
DA
100
AcDbEntity
  8
_U+30EC_U+30A4_U+30E4_U+30FC 1
 62
   179
420
  2234388
100
AcDbHatch
 10
0.0
 20
0.0
 30
0.0
210
0.0
220
0.0
230
1.0
  2
SOLID
 70
     1
 71
     0
 91
        1
 92
        1
 93
        4
 72
     1
 10
101.703697348706
 20
-128.3663248377001
 11
101.4518608687343
 21
-128.3663248377001
 72
     1
 10
101.4518608687343
 20
-128.3663248377001
 11
101.4518608687343
 21
-128.1144883577283
 72
     1
 10
101.4518608687343
 20
-128.1144883577283
 11
101.703697348706
 21
-128.1144883577283
 72
     1
 10
101.703697348706
 20
-128.1144883577283
 11
101.703697348706
 21
-128.3663248377001
 97
        0
 75
     2
 76
     1
 98
        0
  0
SPLINE
  5
EB
330
DA
100
AcDbEntity
  8
_U+30EC_U+30A4_U+30E4_U+30FC 1
370
     0
100
AcDbSpline
210
0.0
220
0.0
230
1.0
 70
    11
 71
     3
 72
    53
 73
    49
 74
     0
 42
0.0000000001
 43
0.0000000001
 12
1.0
 22
0.0
 32
0.0
 13
1.0
 23
0.0
 33
0.0
 40
0.0
 40
0.0
 40
0.0
 40
0.0
 40
1.0
 40
1.0
 40
1.0
 40
2.0
 40
2.0
 40
2.0
 40
3.0
 40
3.0
 40
3.0
 40
4.0
 40
4.0
 40
4.0
 40
5.0
 40
5.0
 40
5.0
 40
6.0
 40
6.0
 40
6.0
 40
7.0
 40
7.0
 40
7.0
 40
8.0
 40
8.0
 40
8.0
 40
9.0
 40
9.0
 40
9.0
 40
10.0
 40
10.0
 40
10.0
 40
11.0
 40
11.0
 40
11.0
 40
12.0
 40
12.0
 40
12.0
 40
13.0
 40
13.0
 40
13.0
 40
14.0
 40
14.0
 40
14.0
 40
15.0
 40
15.0
 40
15.0
 40
16.0
 40
16.0
 40
16.0
 40
16.0
 10
101.7543402523392
 20
-127.3972194776993
 30
0.0
 10
101.7543402523392
 20
-127.4754231452145
 30
0.0
 10
101.7374592844615
 20
-127.5770534620294
 30
0.0
 10
101.6740695275329
 20
-127.6786837788442
 30
0.0
 10
101.5641709815534
 20
-127.8519720817523
 30
0.0
 10
101.4329128435654
 20
-127.8733316737608
 30
0.0
 10
101.3250813548771
 20
-127.8922796989297
 30
0.0
 10
101.3250813548771
 20
-127.8922796989297
 30
0.0
 10
101.3250813548771
 20
-127.6700710401311
 30
0.0
 10
101.3250813548771
 20
-127.6700710401311
 30
0.0
 10
101.523863364376
 20
-127.6152940219156
 30
0.0
 10
101.5534911855491
 20
-127.4881699985099
 30
0.0
 10
101.5534911855491
 20
-127.3951524204082
 30
0.0
 10
101.5534911855491
 20
-127.2556260532555
 30
0.0
 10
101.4539279260254
 20
-127.1033528328075
 30
0.0
 10
101.2213839807711
 20
-127.1033528328075
 30
0.0
 10
100.965413386217
 20
-127.1033528328075
 30
0.0
 10
100.8954779478664
 20
-127.2831868171375
 30
0.0
 10
100.8954779478664
 20
-127.4037651591213
 30
0.0
 10
100.8954779478664
 20
-127.4354600375856
 30
0.0
 10
100.8954779478664
 20
-127.5770534620294
 30
0.0
 10
101.0246690285633
 20
-127.6659369255488
 30
0.0
 10
101.0246690285633
 20
-127.6659369255488
 30
0.0
 10
101.0057210033944
 20
-127.8416367952965
 30
0.0
 10
101.0057210033944
 20
-127.8416367952965
 30
0.0
 10
101.0057210033944
 20
-127.8416367952965
 30
0.0
 10
100.1592610426685
 20
-127.7210584533128
 30
0.0
 10
100.1592610426685
 20
-127.7210584533128
 30
0.0
 10
100.1592610426685
 20
-127.7210584533128
 30
0.0
 10
100.1592610426685
 20
-126.9424668736463
 30
0.0
 10
100.1592610426685
 20
-126.9424668736463
 30
0.0
 10
100.1592610426685
 20
-126.9424668736463
 30
0.0
 10
100.3539089375851
 20
-126.9424668736463
 30
0.0
 10
100.3539089375851
 20
-126.9424668736463
 30
0.0
 10
100.3539089375851
 20
-126.9424668736463
 30
0.0
 10
100.3539089375851
 20
-127.5581054368605
 30
0.0
 10
100.3539089375851
 20
-127.5581054368605
 30
0.0
 10
100.3539089375851
 20
-127.5581054368605
 30
0.0
 10
100.7769666631738
 20
-127.6235622510802
 30
0.0
 10
100.7769666631738
 20
-127.6235622510802
 30
0.0
 10
100.7432047274184
 20
-127.5622395514428
 30
0.0
 10
100.7028971102409
 20
-127.4799017693453
 30
0.0
 10
100.7028971102409
 20
-127.3613904846527
 30
0.0
 10
100.7028971102409
 20
-127.1074869473898
 30
0.0
 10
100.889276775993
 20
-126.8704643780046
 30
0.0
 10
101.2024359556022
 20
-126.8704643780046
 30
0.0
 10
101.5197292497937
 20
-126.8704643780046
 30
0.0
 10
101.7543402523392
 20
-127.0947400940944
 30
0.0
 10
101.7543402523392
 20
-127.3972194776993
 30
0.0
  0
HATCH
  5
EC
330
DA
100
AcDbEntity
  8
_U+30EC_U+30A4_U+30E4_U+30FC 1
 62
   179
420
  2234388
100
AcDbHatch
 10
0.0
 20
0.0
 30
0.0
210
0.0
220
0.0
230
1.0
  2
SOLID
 70
     1
 71
     0
 91
        1
 92
        1
 93
        1
 72
     4
 94
        3
 73
     0
 74
     1
 95
       53
 96
       49
 40
0.0
 40
0.0
 40
0.0
 40
0.0
 40
1.0
 40
1.0
 40
1.0
 40
2.0
 40
2.0
 40
2.0
 40
3.0
 40
3.0
 40
3.0
 40
4.0
 40
4.0
 40
4.0
 40
5.0
 40
5.0
 40
5.0
 40
6.0
 40
6.0
 40
6.0
 40
7.0
 40
7.0
 40
7.0
 40
8.0
 40
8.0
 40
8.0
 40
9.0
 40
9.0
 40
9.0
 40
10.0
 40
10.0
 40
10.0
 40
11.0
 40
11.0
 40
11.0
 40
12.0
 40
12.0
 40
12.0
 40
13.0
 40
13.0
 40
13.0
 40
14.0
 40
14.0
 40
14.0
 40
15.0
 40
15.0
 40
15.0
 40
16.0
 40
16.0
 40
16.0
 40
16.0
 10
101.7543402523392
 20
-127.3972194776993
 10
101.7543402523392
 20
-127.4754231452145
 10
101.7374592844615
 20
-127.5770534620294
 10
101.6740695275329
 20
-127.6786837788442
 10
101.5641709815534
 20
-127.8519720817523
 10
101.4329128435654
 20
-127.8733316737608
 10
101.3250813548771
 20
-127.8922796989297
 10
101.3250813548771
 20
-127.8922796989297
 10
101.3250813548771
 20
-127.6700710401311
 10
101.3250813548771
 20
-127.6700710401311
 10
101.523863364376
 20
-127.6152940219156
 10
101.5534911855491
 20
-127.4881699985099
 10
101.5534911855491
 20
-127.3951524204082
 10
101.5534911855491
 20
-127.2556260532555
 10
101.4539279260254
 20
-127.1033528328075
 10
101.2213839807711
 20
-127.1033528328075
 10
100.965413386217
 20
-127.1033528328075
 10
100.8954779478664
 20
-127.2831868171375
 10
100.8954779478664
 20
-127.4037651591213
 10
100.8954779478664
 20
-127.4354600375856
 10
100.8954779478664
 20
-127.5770534620294
 10
101.0246690285633
 20
-127.6659369255488
 10
101.0246690285633
 20
-127.6659369255488
 10
101.0057210033944
 20
-127.8416367952965
 10
101.0057210033944
 20
-127.8416367952965
 10
101.0057210033944
 20
-127.8416367952965
 10
100.1592610426685
 20
-127.7210584533128
 10
100.1592610426685
 20
-127.7210584533128
 10
100.1592610426685
 20
-127.7210584533128
 10
100.1592610426685
 20
-126.9424668736463
 10
100.1592610426685
 20
-126.9424668736463
 10
100.1592610426685
 20
-126.9424668736463
 10
100.3539089375851
 20
-126.9424668736463
 10
100.3539089375851
 20
-126.9424668736463
 10
100.3539089375851
 20
-126.9424668736463
 10
100.3539089375851
 20
-127.5581054368605
 10
100.3539089375851
 20
-127.5581054368605
 10
100.3539089375851
 20
-127.5581054368605
 10
100.7769666631738
 20
-127.6235622510802
 10
100.7769666631738
 20
-127.6235622510802
 10
100.7432047274184
 20
-127.5622395514428
 10
100.7028971102409
 20
-127.4799017693453
 10
100.7028971102409
 20
-127.3613904846527
 10
100.7028971102409
 20
-127.1074869473898
 10
100.889276775993
 20
-126.8704643780046
 10
101.2024359556022
 20
-126.8704643780046
 10
101.5197292497937
 20
-126.8704643780046
 10
101.7543402523392
 20
-127.0947400940944
 10
101.7543402523392
 20
-127.3972194776993
 97
        0
 97
        0
 75
     2
 76
     1
 98
        0
  0
ENDBLK
  5
DD
330
DA
100
AcDbEntity
  8
0
100
AcDbBlockEnd
  0
BLOCK
  5
EF
330
ED
100
AcDbEntity
  8
0
100
AcDbBlockBegin
  2
block 11
 70
     0
 10
0.0
 20
0.0
 30
0.0
  3
block 11
  1

  0
POLYLINE
  5
F1
330
ED
100
AcDbEntity
  8
_U+30EC_U+30A4_U+30E4_U+30FC 1
 62
   179
420
  2234388
370
     9
100
AcDb2dPolyline
 66
     1
 10
0.0
 20
0.0
 30
0.0
  0
VERTEX
  5
F2
330
F1
100
AcDbEntity
  8
_U+30EC_U+30A4_U+30E4_U+30FC 1
 62
   179
420
  2234388
370
     9
100
AcDbVertex
100
AcDb2dVertex
 10
102.3500055299681
 20
-134.077956910925
 30
0.0
  0
VERTEX
  5
F3
330
F1
100
AcDbEntity
  8
_U+30EC_U+30A4_U+30E4_U+30FC 1
 62
   179
420
  2234388
370
     9
100
AcDbVertex
100
AcDb2dVertex
 10
102.3500055299681
 20
-137.0779438546194
 30
0.0
  0
SEQEND
  5
F4
330
F1
100
AcDbEntity
  8
_U+30EC_U+30A4_U+30E4_U+30FC 1
 62
   179
420
  2234388
370
     9
  0
POLYLINE
  5
F5
330
ED
100
AcDbEntity
  8
_U+30EC_U+30A4_U+30E4_U+30FC 1
 62
   179
420
  2234388
370
     9
100
AcDb2dPolyline
 66
     1
 10
0.0
 20
0.0
 30
0.0
  0
VERTEX
  5
F6
330
F5
100
AcDbEntity
  8
_U+30EC_U+30A4_U+30E4_U+30FC 1
 62
   179
420
  2234388
370
     9
100
AcDbVertex
100
AcDb2dVertex
 10
85.8900272532073
 20
-137.0779438546194
 30
0.0
  0
VERTEX
  5
F7
330
F5
100
AcDbEntity
  8
_U+30EC_U+30A4_U+30E4_U+30FC 1
 62
   179
420
  2234388
370
     9
100
AcDbVertex
100
AcDb2dVertex
 10
103.3500926410972
 20
-137.0779438546194
 30
0.0
  0
SEQEND
  5
F8
330
F5
100
AcDbEntity
  8
_U+30EC_U+30A4_U+30E4_U+30FC 1
 62
   179
420
  2234388
370
     9
  0
INSERT
  5
FA
330
ED
100
AcDbEntity
  8
_U+30EC_U+30A4_U+30E4_U+30FC 1
100
AcDbBlockReference
  2
block 12
 10
0.0
 20
0.0
 30
0.0
  0
ENDBLK
  5
F0
330
ED
100
AcDbEntity
  8
0
100
AcDbBlockEnd
  0
BLOCK
  5
FB
330
F9
100
AcDbEntity
  8
0
100
AcDbBlockBegin
  2
block 12
 70
     0
 10
0.0
 20
0.0
 30
0.0
  3
block 12
  1

  0
SPLINE
  5
FD
330
F9
100
AcDbEntity
  8
_U+30EC_U+30A4_U+30E4_U+30FC 1
370
     0
100
AcDbSpline
210
0.0
220
0.0
230
1.0
 70
    11
 71
     3
 72
    62
 73
    58
 74
     0
 42
0.0000000001
 43
0.0000000001
 12
1.0
 22
0.0
 32
0.0
 13
1.0
 23
0.0
 33
0.0
 40
0.0
 40
0.0
 40
0.0
 40
0.0
 40
1.0
 40
1.0
 40
1.0
 40
2.0
 40
2.0
 40
2.0
 40
3.0
 40
3.0
 40
3.0
 40
4.0
 40
4.0
 40
4.0
 40
5.0
 40
5.0
 40
5.0
 40
6.0
 40
6.0
 40
6.0
 40
7.0
 40
7.0
 40
7.0
 40
8.0
 40
8.0
 40
8.0
 40
9.0
 40
9.0
 40
9.0
 40
10.0
 40
10.0
 40
10.0
 40
11.0
 40
11.0
 40
11.0
 40
12.0
 40
12.0
 40
12.0
 40
13.0
 40
13.0
 40
13.0
 40
14.0
 40
14.0
 40
14.0
 40
15.0
 40
15.0
 40
15.0
 40
16.0
 40
16.0
 40
16.0
 40
17.0
 40
17.0
 40
17.0
 40
18.0
 40
18.0
 40
18.0
 40
19.0
 40
19.0
 40
19.0
 40
19.0
 10
101.7543402523392
 20
-135.5872449747837
 30
0.0
 10
101.7543402523392
 20
-135.6826741197252
 30
0.0
 10
101.7333251698792
 20
-135.900404154393
 30
0.0
 10
101.5472900136757
 20
-136.0254611205075
 30
0.0
 10
101.4349799008565
 20
-136.0991861638919
 30
0.0
 10
101.3357611508813
 20
-136.1036647880227
 30
0.0
 10
101.2510118019442
 20
-136.107798902605
 30
0.0
 10
101.2510118019442
 20
-136.107798902605
 30
0.0
 10
101.2510118019442
 20
-135.8876573010975
 30
0.0
 10
101.2510118019442
 20
-135.8876573010975
 30
0.0
 10
101.3250813548771
 20
-135.8855902438064
 30
0.0
 10
101.5596923574226
 20
-135.8752549573506
 30
0.0
 10
101.5596923574226
 20
-135.5917235989146
 30
0.0
 10
101.5596923574226
 20
-135.4542642890531
 30
0.0
 10
101.4901014286205
 20
-135.3016465590565
 30
0.0
 10
101.2616915979485
 20
-135.3016465590565
 30
0.0
 10
101.145247370547
 20
-135.3016465590565
 30
0.0
 10
101.096671524205
 20
-135.3398871189428
 30
0.0
 10
101.0649766457407
 20
-135.3715819974071
 30
0.0
 10
100.9909070928078
 20
-135.44565155034
 30
0.0
 10
100.9781602395124
 20
-135.5620957777414
 30
0.0
 10
100.9781602395124
 20
-135.6168727959569
 30
0.0
 10
100.9781602395124
 20
-135.6361653306743
 30
0.0
 10
100.9802272968036
 20
-135.6719943237209
 30
0.0
 10
100.9843614113859
 20
-135.6995550876029
 30
0.0
 10
100.9843614113859
 20
-135.6995550876029
 30
0.0
 10
100.7897135164692
 20
-135.6995550876029
 30
0.0
 10
100.7897135164692
 20
-135.6995550876029
 30
0.0
 10
100.7962591978912
 20
-135.6613145277166
 30
0.0
 10
100.7983262551824
 20
-135.6192843627966
 30
0.0
 10
100.7983262551824
 20
-135.6127386813746
 30
0.0
 10
100.7983262551824
 20
-135.5472818671549
 30
0.0
 10
100.7769666631738
 20
-135.3484998576559
 30
0.0
 10
100.5402886033372
 20
-135.3484998576559
 30
0.0
 10
100.3625216762983
 20
-135.3484998576559
 30
0.0
 10
100.3074001485343
 20
-135.4794134860954
 30
0.0
 10
100.3074001485343
 20
-135.5896565416234
 30
0.0
 10
100.3074001485343
 20
-135.8538953653421
 30
0.0
 10
100.5402886033372
 20
-135.8625081040552
 30
0.0
 10
100.6119465894303
 20
-135.8666422186375
 30
0.0
 10
100.6119465894303
 20
-135.8666422186375
 30
0.0
 10
100.6119465894303
 20
-136.0699028522673
 30
0.0
 10
100.6119465894303
 20
-136.0699028522673
 30
0.0
 10
100.4872341328643
 20
-136.0612901135541
 30
0.0
 10
100.1106851963265
 20
-136.0337293496721
 30
0.0
 10
100.1106851963265
 20
-135.576909688328
 30
0.0
 10
100.1106851963265
 20
-135.3526339722382
 30
0.0
 10
100.2378092197322
 20
-135.1114772882707
 30
0.0
 10
100.5337429219152
 20
-135.1114772882707
 30
0.0
 10
100.7201225876672
 20
-135.1114772882707
 30
0.0
 10
100.8024603697647
 20
-135.2065619236637
 30
0.0
 10
100.8637830694021
 20
-135.3061251831874
 30
0.0
 10
100.8913438332841
 20
-135.2448024835499
 30
0.0
 10
100.9716145580904
 20
-135.0629014419287
 30
0.0
 10
101.248944744653
 20
-135.0629014419287
 30
0.0
 10
101.5872531213046
 20
-135.0629014419287
 30
0.0
 10
101.7543402523392
 20
-135.3102592977697
 30
0.0
 10
101.7543402523392
 20
-135.5872449747837
 30
0.0
  0
HATCH
  5
FE
330
F9
100
AcDbEntity
  8
_U+30EC_U+30A4_U+30E4_U+30FC 1
 62
   179
420
  2234388
100
AcDbHatch
 10
0.0
 20
0.0
 30
0.0
210
0.0
220
0.0
230
1.0
  2
SOLID
 70
     1
 71
     0
 91
        1
 92
        1
 93
        1
 72
     4
 94
        3
 73
     0
 74
     1
 95
       62
 96
       58
 40
0.0
 40
0.0
 40
0.0
 40
0.0
 40
1.0
 40
1.0
 40
1.0
 40
2.0
 40
2.0
 40
2.0
 40
3.0
 40
3.0
 40
3.0
 40
4.0
 40
4.0
 40
4.0
 40
5.0
 40
5.0
 40
5.0
 40
6.0
 40
6.0
 40
6.0
 40
7.0
 40
7.0
 40
7.0
 40
8.0
 40
8.0
 40
8.0
 40
9.0
 40
9.0
 40
9.0
 40
10.0
 40
10.0
 40
10.0
 40
11.0
 40
11.0
 40
11.0
 40
12.0
 40
12.0
 40
12.0
 40
13.0
 40
13.0
 40
13.0
 40
14.0
 40
14.0
 40
14.0
 40
15.0
 40
15.0
 40
15.0
 40
16.0
 40
16.0
 40
16.0
 40
17.0
 40
17.0
 40
17.0
 40
18.0
 40
18.0
 40
18.0
 40
19.0
 40
19.0
 40
19.0
 40
19.0
 10
101.7543402523392
 20
-135.5872449747837
 10
101.7543402523392
 20
-135.6826741197252
 10
101.7333251698792
 20
-135.900404154393
 10
101.5472900136757
 20
-136.0254611205075
 10
101.4349799008565
 20
-136.0991861638919
 10
101.3357611508813
 20
-136.1036647880227
 10
101.2510118019442
 20
-136.107798902605
 10
101.2510118019442
 20
-136.107798902605
 10
101.2510118019442
 20
-135.8876573010975
 10
101.2510118019442
 20
-135.8876573010975
 10
101.3250813548771
 20
-135.8855902438064
 10
101.5596923574226
 20
-135.8752549573506
 10
101.5596923574226
 20
-135.5917235989146
 10
101.5596923574226
 20
-135.4542642890531
 10
101.4901014286205
 20
-135.3016465590565
 10
101.2616915979485
 20
-135.3016465590565
 10
101.145247370547
 20
-135.3016465590565
 10
101.096671524205
 20
-135.3398871189428
 10
101.0649766457407
 20
-135.3715819974071
 10
100.9909070928078
 20
-135.44565155034
 10
100.9781602395124
 20
-135.5620957777414
 10
100.9781602395124
 20
-135.6168727959569
 10
100.9781602395124
 20
-135.6361653306743
 10
100.9802272968036
 20
-135.6719943237209
 10
100.9843614113859
 20
-135.6995550876029
 10
100.9843614113859
 20
-135.6995550876029
 10
100.7897135164692
 20
-135.6995550876029
 10
100.7897135164692
 20
-135.6995550876029
 10
100.7962591978912
 20
-135.6613145277166
 10
100.7983262551824
 20
-135.6192843627966
 10
100.7983262551824
 20
-135.6127386813746
 10
100.7983262551824
 20
-135.5472818671549
 10
100.7769666631738
 20
-135.3484998576559
 10
100.5402886033372
 20
-135.3484998576559
 10
100.3625216762983
 20
-135.3484998576559
 10
100.3074001485343
 20
-135.4794134860954
 10
100.3074001485343
 20
-135.5896565416234
 10
100.3074001485343
 20
-135.8538953653421
 10
100.5402886033372
 20
-135.8625081040552
 10
100.6119465894303
 20
-135.8666422186375
 10
100.6119465894303
 20
-135.8666422186375
 10
100.6119465894303
 20
-136.0699028522673
 10
100.6119465894303
 20
-136.0699028522673
 10
100.4872341328643
 20
-136.0612901135541
 10
100.1106851963265
 20
-136.0337293496721
 10
100.1106851963265
 20
-135.576909688328
 10
100.1106851963265
 20
-135.3526339722382
 10
100.2378092197322
 20
-135.1114772882707
 10
100.5337429219152
 20
-135.1114772882707
 10
100.7201225876672
 20
-135.1114772882707
 10
100.8024603697647
 20
-135.2065619236637
 10
100.8637830694021
 20
-135.3061251831874
 10
100.8913438332841
 20
-135.2448024835499
 10
100.9716145580904
 20
-135.0629014419287
 10
101.248944744653
 20
-135.0629014419287
 10
101.5872531213046
 20
-135.0629014419287
 10
101.7543402523392
 20
-135.3102592977697
 10
101.7543402523392
 20
-135.5872449747837
 97
        0
 97
        0
 75
     2
 76
     1
 98
        0
  0
ENDBLK
  5
FC
330
F9
100
AcDbEntity
  8
0
100
AcDbBlockEnd
  0
ENDSEC
  0
SECTION
  2
ENTITIES
  0
INSERT
  5
42
330
1F
100
AcDbEntity
  8
_U+30EC_U+30A4_U+30E4_U+30FC 1
100
AcDbBlockReference
  2
block 2
 10
0.0
 20
0.0
 30
0.0
  0
ENDSEC
  0
SECTION
  2
OBJECTS
  0
DICTIONARY
  5
C
330
0
100
AcDbDictionary
281
     1
  3
ACAD_GROUP
350
D
  3
ACAD_LAYOUT
350
1A
  3
ACAD_MATERIAL
350
3B
  3
ACAD_MLEADERSTYLE
350
100
  3
ACAD_MLINESTYLE
350
17
  3
ACAD_PLOTSETTINGS
350
19
  3
ACAD_PLOTSTYLENAME
350
E
  3
ACAD_TABLESTYLE
350
FF
  3
ACAD_VISUALSTYLE
350
2A
  0
SUN
  5
3F
330
29
100
AcDbSun
 90
        1
290
     0
 63
     7
421
 16777215
 40
1.0
291
     1
 91
  2455826
 92
 54000000
292
     0
 70
     2
 71
   256
280
     1
  0
DICTIONARY
  5
D
102
{ACAD_REACTORS
330
C
102
}
330
C
100
AcDbDictionary
281
     1
  0
DICTIONARY
  5
1A
102
{ACAD_REACTORS
330
C
102
}
330
C
100
AcDbDictionary
281
     1
  3
Layout1
350
1E
  3
Layout2
350
26
  3
Model
350
22
  0
DICTIONARY
  5
3B
102
{ACAD_REACTORS
330
C
102
}
330
C
100
AcDbDictionary
281
     1
  3
ByBlock
350
3D
  3
ByLayer
350
3C
  3
Global
350
3E
  0
DICTIONARY
  5
100
102
{ACAD_REACTORS
330
C
102
}
330
C
100
AcDbDictionary
281
     1
  0
DICTIONARY
  5
17
102
{ACAD_REACTORS
330
C
102
}
330
C
100
AcDbDictionary
281
     1
  3
Standard
350
18
  0
DICTIONARY
  5
19
102
{ACAD_REACTORS
330
C
102
}
330
C
100
AcDbDictionary
281
     1
  0
ACDBDICTIONARYWDFLT
  5
E
102
{ACAD_REACTORS
330
C
102
}
330
C
100
AcDbDictionary
281
     1
  3
Normal
350
F
100
AcDbDictionaryWithDefault
340
F
  0
DICTIONARY
  5
FF
102
{ACAD_REACTORS
330
C
102
}
330
C
100
AcDbDictionary
281
     1
  0
DICTIONARY
  5
2A
102
{ACAD_REACTORS
330
C
102
}
330
C
100
AcDbDictionary
281
     1
  3
2dWireframe
350
2F
  3
3D Hidden
350
31
  3
3dWireframe
350
30
  3
Basic
350
32
  3
Brighten
350
36
  3
ColorChange
350
3A
  3
Conceptual
350
34
  3
Dim
350
35
  3
Facepattern
350
39
  3
Flat
350
2B
  3
FlatWithEdges
350
2C
  3
Gouraud
350
2D
  3
GouraudWithEdges
350
2E
  3
Linepattern
350
38
  3
Realistic
350
33
  3
Thicken
350
37
  0
LAYOUT
  5
1E
102
{ACAD_REACTORS
330
1A
102
}
330
1A
100
AcDbPlotSettings
  1

  2
none_device
  4

  6

 40
0.0
 41
0.0
 42
0.0
 43
0.0
 44
0.0
 45
0.0
 46
0.0
 47
0.0
 48
0.0
 49
0.0
140
0.0
141
0.0
142
1.0
143
1.0
 70
   688
 72
     0
 73
     0
 74
     5
  7

 75
    16
 76
     0
 77
     2
 78
   300
147
1.0
148
0.0
149
0.0
100
AcDbLayout
  1
Layout1
 70
     1
 71
     1
 10
0.0
 20
0.0
 11
12.0
 21
9.0
 12
0.0
 22
0.0
 32
0.0
 14
1.000000000000000E+20
 24
1.000000000000000E+20
 34
1.000000000000000E+20
 15
-1.000000000000000E+20
 25
-1.000000000000000E+20
 35
-1.000000000000000E+20
146
0.0
 13
0.0
 23
0.0
 33
0.0
 16
1.0
 26
0.0
 36
0.0
 17
0.0
 27
1.0
 37
0.0
 76
     0
330
1B
  0
LAYOUT
  5
26
102
{ACAD_REACTORS
330
1A
102
}
330
1A
100
AcDbPlotSettings
  1

  2
none_device
  4

  6

 40
0.0
 41
0.0
 42
0.0
 43
0.0
 44
0.0
 45
0.0
 46
0.0
 47
0.0
 48
0.0
 49
0.0
140
0.0
141
0.0
142
1.0
143
1.0
 70
   688
 72
     0
 73
     0
 74
     5
  7

 75
    16
 76
     0
 77
     2
 78
   300
147
1.0
148
0.0
149
0.0
100
AcDbLayout
  1
Layout2
 70
     1
 71
     2
 10
0.0
 20
0.0
 11
0.0
 21
0.0
 12
0.0
 22
0.0
 32
0.0
 14
0.0
 24
0.0
 34
0.0
 15
0.0
 25
0.0
 35
0.0
146
0.0
 13
0.0
 23
0.0
 33
0.0
 16
1.0
 26
0.0
 36
0.0
 17
0.0
 27
1.0
 37
0.0
 76
     0
330
23
  0
LAYOUT
  5
22
102
{ACAD_REACTORS
330
1A
102
}
330
1A
100
AcDbPlotSettings
  1

  2
none_device
  4

  6

 40
0.0
 41
0.0
 42
0.0
 43
0.0
 44
0.0
 45
0.0
 46
0.0
 47
0.0
 48
0.0
 49
0.0
140
0.0
141
0.0
142
1.0
143
1.0
 70
  1712
 72
     0
 73
     0
 74
     0
  7

 75
     0
 76
     0
 77
     2
 78
   300
147
1.0
148
0.0
149
0.0
100
AcDbLayout
  1
Model
 70
     1
 71
     0
 10
0.0
 20
0.0
 11
12.0
 21
9.0
 12
0.0
 22
0.0
 32
0.0
 14
1.000000000000000E+20
 24
1.000000000000000E+20
 34
1.000000000000000E+20
 15
-1.000000000000000E+20
 25
-1.000000000000000E+20
 35
-1.000000000000000E+20
146
0.0
 13
0.0
 23
0.0
 33
0.0
 16
1.0
 26
0.0
 36
0.0
 17
0.0
 27
1.0
 37
0.0
 76
     0
330
1F
331
29
  0
MATERIAL
  5
3D
102
{ACAD_REACTORS
330
3B
102
}
330
3B
100
AcDbMaterial
  1
ByBlock
 72
     1
 94
      127
  0
MATERIAL
  5
3C
102
{ACAD_REACTORS
330
3B
102
}
330
3B
100
AcDbMaterial
  1
ByLayer
 72
     1
 94
      127
  0
MATERIAL
  5
3E
102
{ACAD_REACTORS
330
3B
102
}
330
3B
100
AcDbMaterial
  1
Global
 72
     1
 94
      127
  0
MLINESTYLE
  5
18
102
{ACAD_REACTORS
330
17
102
}
330
17
100
AcDbMlineStyle
  2
Standard
 70
     0
  3

 62
   256
 51
90.0
 52
90.0
 71
     2
 49
0.5
 62
   256
  6
BYLAYER
 49
-0.5
 62
   256
  6
BYLAYER
  0
ACDBPLACEHOLDER
  5
F
102
{ACAD_REACTORS
330
E
102
}
330
E
  0
VISUALSTYLE
  5
2F
102
{ACAD_REACTORS
330
2A
102
}
330
2A
100
AcDbVisualStyle
  2
2dWireframe
 70
     4
177
     2
291
     0
 71
     0
176
     1
 72
     2
176
     1
 73
     0
176
     1
 90
        0
176
     1
 40
-0.6
176
     1
 41
-30.0
176
     1
 62
     5
 63
     7
421
 16777215
176
     1
 74
     1
176
     1
 91
        4
176
     1
 64
     7
176
     1
 65
   257
176
     1
 75
     1
176
     1
175
     1
176
     1
 42
1.0
176
     1
 92
        0
176
     1
 66
   257
176
     1
 43
1.0
176
     1
 76
     1
176
     1
 77
     6
176
     1
 78
     2
176
     1
 67
     7
176
     1
 79
     5
176
     1
170
     0
176
     1
171
     0
176
     1
290
     0
176
     1
 93
        1
176
     1
 44
0.0
176
     1
173
     0
176
     1
  0
VISUALSTYLE
  5
31
102
{ACAD_REACTORS
330
2A
102
}
330
2A
100
AcDbVisualStyle
  2
3D Hidden
 70
     6
177
     2
291
     0
 71
     1
176
     1
 72
     2
176
     1
 73
     2
176
     1
 90
        0
176
     1
 40
-0.6
176
     1
 41
-30.0
176
     1
 62
     5
 63
     7
421
 16777215
176
     1
 74
     2
176
     1
 91
        2
176
     1
 64
     7
176
     1
 65
   257
176
     1
 75
     2
176
     1
175
     1
176
     1
 42
40.0
176
     1
 92
        0
176
     1
 66
   257
176
     1
 43
1.0
176
     1
 76
     1
176
     1
 77
     6
176
     1
 78
     2
176
     1
 67
     7
176
     1
 79
     3
176
     1
170
     0
176
     1
171
     0
176
     1
290
     0
176
     1
 93
        1
176
     1
 44
0.0
176
     1
173
     0
176
     1
  0
VISUALSTYLE
  5
30
102
{ACAD_REACTORS
330
2A
102
}
330
2A
100
AcDbVisualStyle
  2
3dWireframe
 70
     5
177
     2
291
     0
 71
     0
176
     1
 72
     2
176
     1
 73
     0
176
     1
 90
        0
176
     1
 40
-0.6
176
     1
 41
-30.0
176
     1
 62
     5
 63
     7
421
 16777215
176
     1
 74
     1
176
     1
 91
        4
176
     1
 64
     7
176
     1
 65
   257
176
     1
 75
     1
176
     1
175
     1
176
     1
 42
1.0
176
     1
 92
        0
176
     1
 66
   257
176
     1
 43
1.0
176
     1
 76
     1
176
     1
 77
     6
176
     1
 78
     2
176
     1
 67
     7
176
     1
 79
     5
176
     1
170
     0
176
     1
171
     0
176
     1
290
     0
176
     1
 93
        1
176
     1
 44
0.0
176
     1
173
     0
176
     1
  0
VISUALSTYLE
  5
32
102
{ACAD_REACTORS
330
2A
102
}
330
2A
100
AcDbVisualStyle
  2
Basic
 70
     7
177
     2
291
     1
 71
     1
176
     1
 72
     0
176
     1
 73
     1
176
     1
 90
        0
176
     1
 40
-0.6
176
     1
 41
-30.0
176
     1
 62
     5
 63
     7
421
 16777215
176
     1
 74
     0
176
     1
 91
        4
176
     1
 64
     7
176
     1
 65
   257
176
     1
 75
     1
176
     1
175
     1
176
     1
 42
1.0
176
     1
 92
        8
176
     1
 66
     7
176
     1
 43
1.0
176
     1
 76
     1
176
     1
 77
     6
176
     1
 78
     2
176
     1
 67
     7
176
     1
 79
     5
176
     1
170
     0
176
     1
171
     0
176
     1
290
     0
176
     1
 93
        1
176
     1
 44
0.0
176
     1
173
     0
176
     1
  0
VISUALSTYLE
  5
36
102
{ACAD_REACTORS
330
2A
102
}
330
2A
100
AcDbVisualStyle
  2
Brighten
 70
    12
177
     2
291
     1
 71
     2
176
     1
 72
     2
176
     1
 73
     0
176
     1
 90
        0
176
     1
 40
-0.6
176
     1
 41
-30.0
176
     1
 62
     5
 63
     7
421
 16777215
176
     1
 74
     1
176
     1
 91
        4
176
     1
 64
     7
176
     1
 65
   257
176
     1
 75
     1
176
     1
175
     1
176
     1
 42
1.0
176
     1
 92
        8
176
     1
 66
     7
176
     1
 43
1.0
176
     1
 76
     1
176
     1
 77
     6
176
     1
 78
     2
176
     1
 67
     7
176
     1
 79
     5
176
     1
170
     0
176
     1
171
     0
176
     1
290
     0
176
     1
 93
        1
176
     1
 44
50.0
176
     1
173
     0
176
     1
  0
VISUALSTYLE
  5
3A
102
{ACAD_REACTORS
330
2A
102
}
330
2A
100
AcDbVisualStyle
  2
ColorChange
 70
    16
177
     2
291
     1
 71
     2
176
     1
 72
     2
176
     1
 73
     3
176
     1
 90
        0
176
     1
 40
-0.6
176
     1
 41
-30.0
176
     1
 62
     5
 63
     8
421
  8421504
176
     1
 74
     1
176
     1
 91
        4
176
     1
 64
     7
176
     1
 65
   257
176
     1
 75
     1
176
     1
175
     1
176
     1
 42
1.0
176
     1
 92
        8
176
     1
 66
     8
424
  8421504
176
     1
 43
1.0
176
     1
 76
     1
176
     1
 77
     6
176
     1
 78
     2
176
     1
 67
     7
176
     1
 79
     5
176
     1
170
     0
176
     1
171
     0
176
     1
290
     0
176
     1
 93
        1
176
     1
 44
0.0
176
     1
173
     0
176
     1
  0
VISUALSTYLE
  5
34
102
{ACAD_REACTORS
330
2A
102
}
330
2A
100
AcDbVisualStyle
  2
Conceptual
 70
     9
177
     2
291
     0
 71
     3
176
     1
 72
     2
176
     1
 73
     0
176
     1
 90
        0
176
     1
 40
-0.6
176
     1
 41
-30.0
176
     1
 62
     5
 63
     7
421
 16777215
176
     1
 74
     2
176
     1
 91
        2
176
     1
 64
     7
176
     1
 65
   257
176
     1
 75
     1
176
     1
175
     1
176
     1
 42
40.0
176
     1
 92
        8
176
     1
 66
     7
176
     1
 43
1.0
176
     1
 76
     1
176
     1
 77
     6
176
     1
 78
     2
176
     1
 67
     7
176
     1
 79
     3
176
     1
170
     0
176
     1
171
     0
176
     1
290
     0
176
     1
 93
        1
176
     1
 44
0.0
176
     1
173
     0
176
     1
  0
VISUALSTYLE
  5
35
102
{ACAD_REACTORS
330
2A
102
}
330
2A
100
AcDbVisualStyle
  2
Dim
 70
    11
177
     2
291
     1
 71
     2
176
     1
 72
     2
176
     1
 73
     0
176
     1
 90
        0
176
     1
 40
-0.6
176
     1
 41
-30.0
176
     1
 62
     5
 63
     7
421
 16777215
176
     1
 74
     1
176
     1
 91
        4
176
     1
 64
     7
176
     1
 65
   257
176
     1
 75
     1
176
     1
175
     1
176
     1
 42
1.0
176
     1
 92
        8
176
     1
 66
     7
176
     1
 43
1.0
176
     1
 76
     1
176
     1
 77
     6
176
     1
 78
     2
176
     1
 67
     7
176
     1
 79
     5
176
     1
170
     0
176
     1
171
     0
176
     1
290
     0
176
     1
 93
        1
176
     1
 44
-50.0
176
     1
173
     0
176
     1
  0
VISUALSTYLE
  5
39
102
{ACAD_REACTORS
330
2A
102
}
330
2A
100
AcDbVisualStyle
  2
Facepattern
 70
    15
177
     2
291
     1
 71
     2
176
     1
 72
     2
176
     1
 73
     0
176
     1
 90
        0
176
     1
 40
-0.6
176
     1
 41
-30.0
176
     1
 62
     5
 63
     7
421
 16777215
176
     1
 74
     1
176
     1
 91
        4
176
     1
 64
     7
176
     1
 65
   257
176
     1
 75
     1
176
     1
175
     1
176
     1
 42
1.0
176
     1
 92
        8
176
     1
 66
     7
176
     1
 43
1.0
176
     1
 76
     1
176
     1
 77
     6
176
     1
 78
     2
176
     1
 67
     7
176
     1
 79
     5
176
     1
170
     0
176
     1
171
     0
176
     1
290
     0
176
     1
 93
        1
176
     1
 44
0.0
176
     1
173
     0
176
     1
  0
VISUALSTYLE
  5
2B
102
{ACAD_REACTORS
330
2A
102
}
330
2A
100
AcDbVisualStyle
  2
Flat
 70
     0
177
     2
291
     1
 71
     2
176
     1
 72
     1
176
     1
 73
     1
176
     1
 90
        2
176
     1
 40
-0.6
176
     1
 41
30.0
176
     1
 62
     5
 63
     7
421
 16777215
176
     1
 74
     0
176
     1
 91
        4
176
     1
 64
     7
176
     1
 65
   257
176
     1
 75
     1
176
     1
175
     1
176
     1
 42
1.0
176
     1
 92
        8
176
     1
 66
     7
176
     1
 43
1.0
176
     1
 76
     1
176
     1
 77
     6
176
     1
 78
     2
176
     1
 67
     7
176
     1
 79
     5
176
     1
170
     0
176
     1
171
     0
176
     1
290
     0
176
     1
 93
       13
176
     1
 44
0.0
176
     1
173
     0
176
     1
  0
VISUALSTYLE
  5
2C
102
{ACAD_REACTORS
330
2A
102
}
330
2A
100
AcDbVisualStyle
  2
FlatWithEdges
 70
     1
177
     2
291
     1
 71
     2
176
     1
 72
     1
176
     1
 73
     1
176
     1
 90
        2
176
     1
 40
-0.6
176
     1
 41
30.0
176
     1
 62
     5
 63
     7
421
 16777215
176
     1
 74
     1
176
     1
 91
        4
176
     1
 64
     7
176
     1
 65
   257
176
     1
 75
     1
176
     1
175
     1
176
     1
 42
1.0
176
     1
 92
        0
176
     1
 66
   257
176
     1
 43
1.0
176
     1
 76
     1
176
     1
 77
     6
176
     1
 78
     2
176
     1
 67
     7
176
     1
 79
     5
176
     1
170
     0
176
     1
171
     0
176
     1
290
     0
176
     1
 93
       13
176
     1
 44
0.0
176
     1
173
     0
176
     1
  0
VISUALSTYLE
  5
2D
102
{ACAD_REACTORS
330
2A
102
}
330
2A
100
AcDbVisualStyle
  2
Gouraud
 70
     2
177
     2
291
     1
 71
     2
176
     1
 72
     2
176
     1
 73
     1
176
     1
 90
        2
176
     1
 40
-0.6
176
     1
 41
30.0
176
     1
 62
     5
 63
     7
421
 16777215
176
     1
 74
     0
176
     1
 91
        4
176
     1
 64
     7
176
     1
 65
   257
176
     1
 75
     1
176
     1
175
     1
176
     1
 42
1.0
176
     1
 92
        0
176
     1
 66
     7
176
     1
 43
1.0
176
     1
 76
     1
176
     1
 77
     6
176
     1
 78
     2
176
     1
 67
     7
176
     1
 79
     5
176
     1
170
     0
176
     1
171
     0
176
     1
290
     0
176
     1
 93
       13
176
     1
 44
0.0
176
     1
173
     0
176
     1
  0
VISUALSTYLE
  5
2E
102
{ACAD_REACTORS
330
2A
102
}
330
2A
100
AcDbVisualStyle
  2
GouraudWithEdges
 70
     3
177
     2
291
     1
 71
     2
176
     1
 72
     2
176
     1
 73
     1
176
     1
 90
        2
176
     1
 40
-0.6
176
     1
 41
30.0
176
     1
 62
     5
 63
     7
421
 16777215
176
     1
 74
     1
176
     1
 91
        4
176
     1
 64
     7
176
     1
 65
   257
176
     1
 75
     1
176
     1
175
     1
176
     1
 42
1.0
176
     1
 92
        0
176
     1
 66
   257
176
     1
 43
1.0
176
     1
 76
     1
176
     1
 77
     6
176
     1
 78
     2
176
     1
 67
     7
176
     1
 79
     5
176
     1
170
     0
176
     1
171
     0
176
     1
290
     0
176
     1
 93
       13
176
     1
 44
0.0
176
     1
173
     0
176
     1
  0
VISUALSTYLE
  5
38
102
{ACAD_REACTORS
330
2A
102
}
330
2A
100
AcDbVisualStyle
  2
Linepattern
 70
    14
177
     2
291
     1
 71
     2
176
     1
 72
     2
176
     1
 73
     0
176
     1
 90
        0
176
     1
 40
-0.6
176
     1
 41
-30.0
176
     1
 62
     5
 63
     7
421
 16777215
176
     1
 74
     1
176
     1
 91
        4
176
     1
 64
     7
176
     1
 65
   257
176
     1
 75
     7
176
     1
175
     7
176
     1
 42
1.0
176
     1
 92
        8
176
     1
 66
     7
176
     1
 43
1.0
176
     1
 76
     1
176
     1
 77
     6
176
     1
 78
     2
176
     1
 67
     7
176
     1
 79
     5
176
     1
170
     0
176
     1
171
     0
176
     1
290
     0
176
     1
 93
        1
176
     1
 44
0.0
176
     1
173
     0
176
     1
  0
VISUALSTYLE
  5
33
102
{ACAD_REACTORS
330
2A
102
}
330
2A
100
AcDbVisualStyle
  2
Realistic
 70
     8
177
     2
291
     0
 71
     2
176
     1
 72
     2
176
     1
 73
     0
176
     1
 90
        0
176
     1
 40
-0.6
176
     1
 41
-30.0
176
     1
 62
     5
 63
     7
421
 16777215
176
     1
 74
     1
176
     1
 91
        0
176
     1
 64
     7
176
     1
 65
   257
176
     1
 75
     1
176
     1
175
     1
176
     1
 42
1.0
176
     1
 92
        8
176
     1
 66
     8
424
  7895160
176
     1
 43
1.0
176
     1
 76
     1
176
     1
 77
     6
176
     1
 78
     2
176
     1
 67
     7
176
     1
 79
     5
176
     1
170
     0
176
     1
171
     0
176
     1
290
     0
176
     1
 93
       13
176
     1
 44
0.0
176
     1
173
     0
176
     1
  0
VISUALSTYLE
  5
37
102
{ACAD_REACTORS
330
2A
102
}
330
2A
100
AcDbVisualStyle
  2
Thicken
 70
    13
177
     2
291
     1
 71
     2
176
     1
 72
     2
176
     1
 73
     0
176
     1
 90
        0
176
     1
 40
-0.6
176
     1
 41
-30.0
176
     1
 62
     5
 63
     7
421
 16777215
176
     1
 74
     1
176
     1
 91
        4
176
     1
 64
     7
176
     1
 65
   257
176
     1
 75
     1
176
     1
175
     1
176
     1
 42
1.0
176
     1
 92
       12
176
     1
 66
     7
176
     1
 43
1.0
176
     1
 76
     1
176
     1
 77
     6
176
     1
 78
     2
176
     1
 67
     7
176
     1
 79
     5
176
     1
170
     0
176
     1
171
     0
176
     1
290
     0
176
     1
 93
        1
176
     1
 44
0.0
176
     1
173
     0
176
     1
  0
ENDSEC
  0
EOF
