  0
SECTION
  2
HEADER
  9
$ACADVER
  1
AC1024
  9
$ACADMAINTVER
 70
   226
  9
$DWGCODEPAGE
  3
ANSI_932
  9
$INSBASE
 10
0.0
 20
0.0
 30
0.0
  9
$EXTMIN
 10
1.000000000000000E+20
 20
1.000000000000000E+20
 30
1.000000000000000E+20
  9
$EXTMAX
 10
-1.000000000000000E+20
 20
-1.000000000000000E+20
 30
-1.000000000000000E+20
  9
$LIMMIN
 10
0.0
 20
0.0
  9
$LIMMAX
 10
12.0
 20
9.0
  9
$ORTHOMODE
 70
     0
  9
$REGENMODE
 70
     1
  9
$FILLMODE
 70
     1
  9
$QTEXTMODE
 70
     0
  9
$MIRRTEXT
 70
     0
  9
$LTSCALE
 40
1.0
  9
$ATTMODE
 70
     1
  9
$TEXTSIZE
 40
0.2
  9
$TRACEWID
 40
0.05
  9
$TEXTSTYLE
  7
Standard
  9
$CLAYER
  8
0
  9
$CELTYPE
  6
ByLayer
  9
$CECOLOR
 62
   256
  9
$CELTSCALE
 40
1.0
  9
$DISPSILH
 70
     0
  9
$DIMSCALE
 40
1.0
  9
$DIMASZ
 40
0.18
  9
$DIMEXO
 40
0.0625
  9
$DIMDLI
 40
0.38
  9
$DIMRND
 40
0.0
  9
$DIMDLE
 40
0.0
  9
$DIMEXE
 40
0.18
  9
$DIMTP
 40
0.0
  9
$DIMTM
 40
0.0
  9
$DIMTXT
 40
0.18
  9
$DIMCEN
 40
0.09
  9
$DIMTSZ
 40
0.0
  9
$DIMTOL
 70
     0
  9
$DIMLIM
 70
     0
  9
$DIMTIH
 70
     1
  9
$DIMTOH
 70
     1
  9
$DIMSE1
 70
     0
  9
$DIMSE2
 70
     0
  9
$DIMTAD
 70
     0
  9
$DIMZIN
 70
     0
  9
$DIMBLK
  1

  9
$DIMASO
 70
     1
  9
$DIMSHO
 70
     1
  9
$DIMPOST
  1

  9
$DIMAPOST
  1

  9
$DIMALT
 70
     0
  9
$DIMALTD
 70
     2
  9
$DIMALTF
 40
25.4
  9
$DIMLFAC
 40
1.0
  9
$DIMTOFL
 70
     0
  9
$DIMTVP
 40
0.0
  9
$DIMTIX
 70
     0
  9
$DIMSOXD
 70
     0
  9
$DIMSAH
 70
     0
  9
$DIMBLK1
  1

  9
$DIMBLK2
  1

  9
$DIMSTYLE
  2
Standard
  9
$DIMCLRD
 70
     0
  9
$DIMCLRE
 70
     0
  9
$DIMCLRT
 70
     0
  9
$DIMTFAC
 40
1.0
  9
$DIMGAP
 40
0.09
  9
$DIMJUST
 70
     0
  9
$DIMSD1
 70
     0
  9
$DIMSD2
 70
     0
  9
$DIMTOLJ
 70
     1
  9
$DIMTZIN
 70
     0
  9
$DIMALTZ
 70
     0
  9
$DIMALTTZ
 70
     0
  9
$DIMUPT
 70
     0
  9
$DIMDEC
 70
     4
  9
$DIMTDEC
 70
     4
  9
$DIMALTU
 70
     2
  9
$DIMALTTD
 70
     2
  9
$DIMTXSTY
  7
Standard
  9
$DIMAUNIT
 70
     0
  9
$DIMADEC
 70
     0
  9
$DIMALTRND
 40
0.0
  9
$DIMAZIN
 70
     0
  9
$DIMDSEP
 70
    46
  9
$DIMATFIT
 70
     3
  9
$DIMFRAC
 70
     0
  9
$DIMLDRBLK
  1

  9
$DIMLUNIT
 70
     2
  9
$DIMLWD
 70
    -2
  9
$DIMLWE
 70
    -2
  9
$DIMTMOVE
 70
     0
  9
$DIMFXL
 40
1.0
  9
$DIMFXLON
 70
     0
  9
$DIMJOGANG
 40
0.7853981633974483
  9
$DIMTFILL
 70
     0
  9
$DIMTFILLCLR
 70
     0
  9
$DIMARCSYM
 70
     0
  9
$DIMLTYPE
  6

  9
$DIMLTEX1
  6

  9
$DIMLTEX2
  6

  9
$DIMTXTDIRECTION
 70
     0
  9
$LUNITS
 70
     2
  9
$LUPREC
 70
     4
  9
$SKETCHINC
 40
0.1
  9
$FILLETRAD
 40
0.0
  9
$AUNITS
 70
     0
  9
$AUPREC
 70
     0
  9
$MENU
  1
.
  9
$ELEVATION
 40
0.0
  9
$PELEVATION
 40
0.0
  9
$THICKNESS
 40
0.0
  9
$LIMCHECK
 70
     0
  9
$CHAMFERA
 40
0.0
  9
$CHAMFERB
 40
0.0
  9
$CHAMFERC
 40
0.0
  9
$CHAMFERD
 40
0.0
  9
$SKPOLY
 70
     0
  9
$TDCREATE
 40
2459569.490405093
  9
$TDUCREATE
 40
2459569.115405093
  9
$TDUPDATE
 40
2459569.490405093
  9
$TDUUPDATE
 40
2459569.115405093
  9
$TDINDWG
 40
0.0000000000
  9
$TDUSRTIMER
 40
0.0000000000
  9
$USRTIMER
 70
     1
  9
$ANGBASE
 50
0.0
  9
$ANGDIR
 70
     0
  9
$PDMODE
 70
     0
  9
$PDSIZE
 40
0.0
  9
$PLINEWID
 40
0.0
  9
$SPLFRAME
 70
     0
  9
$SPLINETYPE
 70
     6
  9
$SPLINESEGS
 70
     8
  9
$HANDSEED
  5
150
  9
$SURFTAB1
 70
     6
  9
$SURFTAB2
 70
     6
  9
$SURFTYPE
 70
     6
  9
$SURFU
 70
     6
  9
$SURFV
 70
     6
  9
$UCSBASE
  2

  9
$UCSNAME
  2

  9
$UCSORG
 10
0.0
 20
0.0
 30
0.0
  9
$UCSXDIR
 10
1.0
 20
0.0
 30
0.0
  9
$UCSYDIR
 10
0.0
 20
1.0
 30
0.0
  9
$UCSORTHOREF
  2

  9
$UCSORTHOVIEW
 70
     0
  9
$UCSORGTOP
 10
0.0
 20
0.0
 30
0.0
  9
$UCSORGBOTTOM
 10
0.0
 20
0.0
 30
0.0
  9
$UCSORGLEFT
 10
0.0
 20
0.0
 30
0.0
  9
$UCSORGRIGHT
 10
0.0
 20
0.0
 30
0.0
  9
$UCSORGFRONT
 10
0.0
 20
0.0
 30
0.0
  9
$UCSORGBACK
 10
0.0
 20
0.0
 30
0.0
  9
$PUCSBASE
  2

  9
$PUCSNAME
  2

  9
$PUCSORG
 10
0.0
 20
0.0
 30
0.0
  9
$PUCSXDIR
 10
1.0
 20
0.0
 30
0.0
  9
$PUCSYDIR
 10
0.0
 20
1.0
 30
0.0
  9
$PUCSORTHOREF
  2

  9
$PUCSORTHOVIEW
 70
     0
  9
$PUCSORGTOP
 10
0.0
 20
0.0
 30
0.0
  9
$PUCSORGBOTTOM
 10
0.0
 20
0.0
 30
0.0
  9
$PUCSORGLEFT
 10
0.0
 20
0.0
 30
0.0
  9
$PUCSORGRIGHT
 10
0.0
 20
0.0
 30
0.0
  9
$PUCSORGFRONT
 10
0.0
 20
0.0
 30
0.0
  9
$PUCSORGBACK
 10
0.0
 20
0.0
 30
0.0
  9
$USERI1
 70
     0
  9
$USERI2
 70
     0
  9
$USERI3
 70
     0
  9
$USERI4
 70
     0
  9
$USERI5
 70
     0
  9
$USERR1
 40
0.0
  9
$USERR2
 40
0.0
  9
$USERR3
 40
0.0
  9
$USERR4
 40
0.0
  9
$USERR5
 40
0.0
  9
$WORLDVIEW
 70
     1
  9
$SHADEDGE
 70
     3
  9
$SHADEDIF
 70
    70
  9
$TILEMODE
 70
     1
  9
$MAXACTVP
 70
    64
  9
$PINSBASE
 10
0.0
 20
0.0
 30
0.0
  9
$PLIMCHECK
 70
     0
  9
$PEXTMIN
 10
1.000000000000000E+20
 20
1.000000000000000E+20
 30
1.000000000000000E+20
  9
$PEXTMAX
 10
-1.000000000000000E+20
 20
-1.000000000000000E+20
 30
-1.000000000000000E+20
  9
$PLIMMIN
 10
0.0
 20
0.0
  9
$PLIMMAX
 10
12.0
 20
9.0
  9
$UNITMODE
 70
     0
  9
$VISRETAIN
 70
     1
  9
$PLINEGEN
 70
     0
  9
$PSLTSCALE
 70
     1
  9
$TREEDEPTH
 70
  3020
  9
$CMLSTYLE
  2
Standard
  9
$CMLJUST
 70
     0
  9
$CMLSCALE
 40
1.0
  9
$PROXYGRAPHICS
 70
     1
  9
$MEASUREMENT
 70
     0
  9
$CELWEIGHT
370
    -1
  9
$ENDCAPS
280
     0
  9
$JOINSTYLE
280
     0
  9
$LWDISPLAY
290
     1
  9
$INSUNITS
 70
     4
  9
$HYPERLINKBASE
  1

  9
$STYLESHEET
  1

  9
$XEDIT
290
     1
  9
$CEPSNTYPE
380
     0
  9
$PSTYLEMODE
290
     1
  9
$FINGERPRINTGUID
  2
{E315E661-5648-0E4C-B82F-4A1404C30E7F}
  9
$VERSIONGUID
  2
{9C1DFB41-725A-0045-AB5E-55FEE06C3D2D}
  9
$EXTNAMES
290
     1
  9
$PSVPSCALE
 40
0.0
  9
$OLESTARTUP
290
     0
  9
$SORTENTS
280
   127
  9
$INDEXCTL
280
     0
  9
$HIDETEXT
280
     1
  9
$XCLIPFRAME
280
     2
  9
$HALOGAP
280
     0
  9
$OBSCOLOR
 70
   257
  9
$OBSLTYPE
280
     0
  9
$INTERSECTIONDISPLAY
280
     0
  9
$INTERSECTIONCOLOR
 70
   257
  9
$DIMASSOC
280
     2
  9
$PROJECTNAME
  1

  9
$CAMERADISPLAY
290
     0
  9
$LENSLENGTH
 40
50.0
  9
$CAMERAHEIGHT
 40
0.0
  9
$STEPSPERSEC
 40
2.0
  9
$STEPSIZE
 40
6.0
  9
$3DDWFPREC
 40
2.0
  9
$PSOLWIDTH
 40
0.25
  9
$PSOLHEIGHT
 40
4.0
  9
$LOFTANG1
 40
1.570796326794896
  9
$LOFTANG2
 40
1.570796326794896
  9
$LOFTMAG1
 40
0.0
  9
$LOFTMAG2
 40
0.0
  9
$LOFTPARAM
 70
     7
  9
$LOFTNORMALS
280
     1
  9
$LATITUDE
 40
37.795
  9
$LONGITUDE
 40
-122.394
  9
$NORTHDIRECTION
 40
0.0
  9
$TIMEZONE
 70
 -8000
  9
$LIGHTGLYPHDISPLAY
280
     1
  9
$TILEMODELIGHTSYNCH
280
     1
  9
$CMATERIAL
347
11
  9
$SOLIDHIST
280
     0
  9
$SHOWHIST
280
     1
  9
$DWFFRAME
280
     2
  9
$DGNFRAME
280
     0
  9
$REALWORLDSCALE
290
     1
  9
$INTERFERECOLOR
 62
     1
  9
$INTERFEREOBJVS
345
33
  9
$INTERFEREVPVS
346
30
  9
$CSHADOW
280
     0
  9
$SHADOWPLANELOCATION
 40
0.0
  0
ENDSEC
  0
SECTION
  2
CLASSES
  0
CLASS
  1
ACDBDICTIONARYWDFLT
  2
AcDbDictionaryWithDefault
  3
ObjectDBX Classes
 90
        0
 91
        1
280
     0
281
     0
  0
CLASS
  1
MATERIAL
  2
AcDbMaterial
  3
ObjectDBX Classes
 90
     1153
 91
        3
280
     0
281
     0
  0
CLASS
  1
VISUALSTYLE
  2
AcDbVisualStyle
  3
ObjectDBX Classes
 90
     4095
 91
       24
280
     0
281
     0
  0
CLASS
  1
SCALE
  2
AcDbScale
  3
ObjectDBX Classes
 90
     1153
 91
       17
280
     0
281
     0
  0
CLASS
  1
TABLESTYLE
  2
AcDbTableStyle
  3
ObjectDBX Classes
 90
     4095
 91
        1
280
     0
281
     0
  0
CLASS
  1
MLEADERSTYLE
  2
AcDbMLeaderStyle
  3
ACDB_MLEADERSTYLE_CLASS
 90
     4095
 91
        1
280
     0
281
     0
  0
CLASS
  1
ACDBSECTIONVIEWSTYLE
  2
AcDbSectionViewStyle
  3
ObjectDBX Classes
 90
     1025
 91
        1
280
     0
281
     0
  0
CLASS
  1
ACDBDETAILVIEWSTYLE
  2
AcDbDetailViewStyle
  3
ObjectDBX Classes
 90
     1025
 91
        1
280
     0
281
     0
  0
CLASS
  1
DICTIONARYVAR
  2
AcDbDictionaryVar
  3
ObjectDBX Classes
 90
        0
 91
        5
280
     0
281
     0
  0
CLASS
  1
CELLSTYLEMAP
  2
AcDbCellStyleMap
  3
ObjectDBX Classes
 90
     1152
 91
        1
280
     0
281
     0
  0
ENDSEC
  0
SECTION
  2
TABLES
  0
TABLE
  2
VPORT
  5
8
330
0
100
AcDbSymbolTable
 70
     1
  0
VPORT
  5
57
330
8
100
AcDbSymbolTableRecord
100
AcDbViewportTableRecord
  2
*Active
 70
     0
 10
0.0
 20
0.0
 11
1.0
 21
1.0
 12
0.0
 22
0.0
 13
0.0
 23
0.0
 14
1.0
 24
1.0
 15
0.0
 25
0.0
 16
0.0
 26
0.0
 36
1.0
 17
104.9999999737534
 27
-148.4999999628701
 37
0.0
 40
302.939999924255
 41
0.7070707070707534
 42
50.0
 43
0.0
 44
0.0
 50
0.0
 51
0.0
 71
     0
 72
   100
 73
     1
 74
     0
 75
     1
 76
     0
 77
     0
 78
     0
281
     0
 65
     1
110
0.0
120
0.0
130
0.0
111
1.0
121
0.0
131
0.0
112
0.0
122
1.0
132
0.0
 79
     0
146
0.0
 60
     3
 61
     5
292
     1
282
     1
141
0.0
142
0.0
 63
   250
421
  3355443
  0
ENDTAB
  0
TABLE
  2
LTYPE
  5
5
330
0
100
AcDbSymbolTable
 70
     1
  0
LTYPE
  5
5B
330
5
100
AcDbSymbolTableRecord
100
AcDbLinetypeTableRecord
  2
ByBlock
 70
     0
  3

 72
    65
 73
     0
 40
0.0
  0
LTYPE
  5
5C
330
5
100
AcDbSymbolTableRecord
100
AcDbLinetypeTableRecord
  2
ByLayer
 70
     0
  3

 72
    65
 73
     0
 40
0.0
  0
LTYPE
  5
5D
330
5
100
AcDbSymbolTableRecord
100
AcDbLinetypeTableRecord
  2
Continuous
 70
     0
  3
Solid line
 72
    65
 73
     0
 40
0.0
  0
ENDTAB
  0
TABLE
  2
LAYER
  5
2
330
0
100
AcDbSymbolTable
 70
     2
  0
LAYER
  5
54
330
2
100
AcDbSymbolTableRecord
100
AcDbLayerTableRecord
  2
0
 70
     0
 62
     7
  6
Continuous
370
    -3
390
F
347
21
  0
LAYER
  5
78
330
2
100
AcDbSymbolTableRecord
100
AcDbLayerTableRecord
  2
レイヤー 1
 70
     0
 62
     7
  6
Continuous
370
     0
390
F
347
21
  0
ENDTAB
  0
TABLE
  2
STYLE
  5
3
330
0
100
AcDbSymbolTable
 70
     2
  0
STYLE
  5
55
330
3
100
AcDbSymbolTableRecord
100
AcDbTextStyleTableRecord
  2
Standard
 70
     0
 40
0.0
 41
1.0
 50
0.0
 71
     0
 42
0.2
  3
txt
  4

  0
STYLE
  5
5A
330
3
100
AcDbSymbolTableRecord
100
AcDbTextStyleTableRecord
  2
Annotative
 70
     0
 40
0.0
 41
1.0
 50
0.0
 71
     0
 42
0.2
  3
txt
  4

1001
AcadAnnotative
1000
AnnotativeData
1002
{
1070
     1
1070
     1
1002
}
  0
ENDTAB
  0
TABLE
  2
VIEW
  5
6
330
0
100
AcDbSymbolTable
 70
     0
  0
ENDTAB
  0
TABLE
  2
UCS
  5
7
330
0
100
AcDbSymbolTable
 70
     0
  0
ENDTAB
  0
TABLE
  2
APPID
  5
9
330
0
100
AcDbSymbolTable
 70
     2
  0
APPID
  5
56
330
9
100
AcDbSymbolTableRecord
100
AcDbRegAppTableRecord
  2
ACAD
 70
     0
  0
APPID
  5
5E
330
9
100
AcDbSymbolTableRecord
100
AcDbRegAppTableRecord
  2
AcadAnnotative
 70
     0
  0
ENDTAB
  0
TABLE
  2
DIMSTYLE
  5
A
330
0
100
AcDbSymbolTable
 70
     2
100
AcDbDimStyleTable
 71
     0
  0
DIMSTYLE
105
58
330
A
100
AcDbSymbolTableRecord
100
AcDbDimStyleTableRecord
  2
Standard
 70
     0
340
55
  0
DIMSTYLE
105
59
330
A
100
AcDbSymbolTableRecord
100
AcDbDimStyleTableRecord
  2
Annotative
 70
     0
340
55
1001
AcadAnnotative
1000
AnnotativeData
1002
{
1070
     1
1070
     1
1002
}
  0
ENDTAB
  0
TABLE
  2
BLOCK_RECORD
  5
1
330
0
100
AcDbSymbolTable
 70
    17
  0
BLOCK_RECORD
  5
70
330
1
100
AcDbSymbolTableRecord
100
AcDbBlockTableRecord
  2
*Model_Space
340
73
 70
     0
280
     1
281
     0
  0
BLOCK_RECORD
  5
6C
330
1
100
AcDbSymbolTableRecord
100
AcDbBlockTableRecord
  2
*Paper_Space
340
6F
 70
     0
280
     1
281
     0
  0
BLOCK_RECORD
  5
74
330
1
100
AcDbSymbolTableRecord
100
AcDbBlockTableRecord
  2
*Paper_Space0
340
77
 70
     0
280
     1
281
     0
  0
BLOCK_RECORD
  5
A2
330
1
100
AcDbSymbolTableRecord
100
AcDbBlockTableRecord
  2
Block_0
340
0
102
{BLKREFS
331
A3
102
}
 70
     0
280
     1
281
     0
  0
BLOCK_RECORD
  5
AA
330
1
100
AcDbSymbolTableRecord
100
AcDbBlockTableRecord
  2
Block_1
340
0
102
{BLKREFS
331
AB
102
}
 70
     0
280
     1
281
     0
  0
BLOCK_RECORD
  5
B5
330
1
100
AcDbSymbolTableRecord
100
AcDbBlockTableRecord
  2
Block_2
340
0
102
{BLKREFS
331
B6
102
}
 70
     0
280
     1
281
     0
  0
BLOCK_RECORD
  5
B9
330
1
100
AcDbSymbolTableRecord
100
AcDbBlockTableRecord
  2
Block_3
340
0
102
{BLKREFS
331
BA
102
}
 70
     0
280
     1
281
     0
  0
BLOCK_RECORD
  5
C3
330
1
100
AcDbSymbolTableRecord
100
AcDbBlockTableRecord
  2
Block_4
340
0
102
{BLKREFS
331
C4
102
}
 70
     0
280
     1
281
     0
  0
BLOCK_RECORD
  5
C7
330
1
100
AcDbSymbolTableRecord
100
AcDbBlockTableRecord
  2
Block_5
340
0
102
{BLKREFS
331
C8
102
}
 70
     0
280
     1
281
     0
  0
BLOCK_RECORD
  5
D0
330
1
100
AcDbSymbolTableRecord
100
AcDbBlockTableRecord
  2
Block_6
340
0
102
{BLKREFS
331
D1
102
}
 70
     0
280
     1
281
     0
  0
BLOCK_RECORD
  5
D4
330
1
100
AcDbSymbolTableRecord
100
AcDbBlockTableRecord
  2
Block_7
340
0
102
{BLKREFS
331
D5
102
}
 70
     0
280
     1
281
     0
  0
BLOCK_RECORD
  5
E0
330
1
100
AcDbSymbolTableRecord
100
AcDbBlockTableRecord
  2
Block_8
340
0
102
{BLKREFS
331
E1
102
}
 70
     0
280
     1
281
     0
  0
BLOCK_RECORD
  5
E6
330
1
100
AcDbSymbolTableRecord
100
AcDbBlockTableRecord
  2
Block_9
340
0
102
{BLKREFS
331
E7
102
}
 70
     0
280
     1
281
     0
  0
BLOCK_RECORD
  5
EA
330
1
100
AcDbSymbolTableRecord
100
AcDbBlockTableRecord
  2
Block_10
340
0
102
{BLKREFS
331
EB
102
}
 70
     0
280
     1
281
     0
  0
BLOCK_RECORD
  5
F2
330
1
100
AcDbSymbolTableRecord
100
AcDbBlockTableRecord
  2
Block_11
340
0
102
{BLKREFS
331
F3
102
}
 70
     0
280
     1
281
     0
  0
BLOCK_RECORD
  5
F8
330
1
100
AcDbSymbolTableRecord
100
AcDbBlockTableRecord
  2
Block_12
340
0
102
{BLKREFS
331
F9
102
}
 70
     0
280
     1
281
     0
  0
BLOCK_RECORD
  5
FC
330
1
100
AcDbSymbolTableRecord
100
AcDbBlockTableRecord
  2
Block_13
340
0
102
{BLKREFS
331
FD
102
}
 70
     0
280
     1
281
     0
  0
BLOCK_RECORD
  5
105
330
1
100
AcDbSymbolTableRecord
100
AcDbBlockTableRecord
  2
Block_14
340
0
102
{BLKREFS
331
106
102
}
 70
     0
280
     1
281
     0
  0
BLOCK_RECORD
  5
109
330
1
100
AcDbSymbolTableRecord
100
AcDbBlockTableRecord
  2
Block_15
340
0
102
{BLKREFS
331
10A
102
}
 70
     0
280
     1
281
     0
  0
ENDTAB
  0
ENDSEC
  0
SECTION
  2
BLOCKS
  0
BLOCK
  5
71
330
70
100
AcDbEntity
  8
0
100
AcDbBlockBegin
  2
*Model_Space
 70
     0
 10
0.0
 20
0.0
 30
0.0
  3
*Model_Space
  1

  0
ENDBLK
  5
72
330
70
100
AcDbEntity
  8
0
100
AcDbBlockEnd
  0
BLOCK
  5
6D
330
6C
100
AcDbEntity
 67
     1
  8
0
100
AcDbBlockBegin
  2
*Paper_Space
 70
     0
 10
0.0
 20
0.0
 30
0.0
  3
*Paper_Space
  1

  0
ENDBLK
  5
6E
330
6C
100
AcDbEntity
 67
     1
  8
0
100
AcDbBlockEnd
  0
BLOCK
  5
75
330
74
100
AcDbEntity
 67
     1
  8
0
100
AcDbBlockBegin
  2
*Paper_Space0
 70
     0
 10
0.0
 20
0.0
 30
0.0
  3
*Paper_Space0
  1

  0
ENDBLK
  5
76
330
74
100
AcDbEntity
 67
     1
  8
0
100
AcDbBlockEnd
  0
BLOCK
  5
A4
330
A2
100
AcDbEntity
  8
0
100
AcDbBlockBegin
  2
Block_0
 70
     0
 10
0.0
 20
0.0
 30
0.0
  3
Block_0
  1

  0
SPLINE
  5
A6
330
A2
100
AcDbEntity
  8
レイヤー 1
 62
   250
420
  2299925
370
     9
100
AcDbSpline
210
0.0
220
0.0
230
1.0
 70
     9
 71
     3
 72
    17
 73
    13
 74
     0
 42
0.0000000001
 43
0.0000000001
 40
0.0
 40
0.0
 40
0.0
 40
0.0
 40
1.0
 40
1.0
 40
1.0
 40
2.0
 40
2.0
 40
2.0
 40
3.0
 40
3.0
 40
3.0
 40
4.0
 40
4.0
 40
4.0
 40
4.0
 10
88.5246741719847
 20
-159.9475298500592
 30
0.0
 10
88.5246741719847
 20
-159.8923906834068
 30
0.0
 10
88.56947694861947
 20
-159.8476231834182
 30
0.0
 10
88.62493361387132
 20
-159.8476231834182
 30
0.0
 10
88.68007445494596
 20
-159.8476231834182
 30
0.0
 10
88.72484027798947
 20
-159.8923906834068
 30
0.0
 10
88.72484027798947
 20
-159.9475298500592
 30
0.0
 10
88.72484027798947
 20
-160.0026337389348
 30
0.0
 10
88.68007445494596
 20
-160.0474365167015
 30
0.0
 10
88.62493361387132
 20
-160.0474365167015
 30
0.0
 10
88.56947694861947
 20
-160.0474365167015
 30
0.0
 10
88.5246741719847
 20
-160.0026337389348
 30
0.0
 10
88.5246741719847
 20
-159.9475298500592
 30
0.0
  0
LINE
  5
A7
330
A2
100
AcDbEntity
  8
レイヤー 1
 62
   250
420
  2299925
370
     9
100
AcDbLine
 10
90.08497496551145
 20
-159.9475298500592
 30
0.0
 11
87.62480863938662
 21
-159.9475298500592
 31
0.0
  0
ENDBLK
  5
A5
330
A2
100
AcDbEntity
  8
0
100
AcDbBlockEnd
  0
BLOCK
  5
AC
330
AA
100
AcDbEntity
  8
0
100
AcDbBlockBegin
  2
Block_1
 70
     0
 10
0.0
 20
0.0
 30
0.0
  3
Block_1
  1

  0
CIRCLE
  5
AE
330
AA
100
AcDbEntity
  8
レイヤー 1
 62
   250
420
  2299925
370
     9
100
AcDbCircle
 10
95.64295343482671
 20
-155.2390754067925
 30
0.0
 40
0.0999066653795761
  0
LINE
  5
AF
330
AA
100
AcDbEntity
  8
レイヤー 1
 62
   250
420
  2299925
370
     9
100
AcDbLine
 10
95.64295343482671
 20
-156.6991167953158
 30
0.0
 11
95.64295343482671
 21
-154.2393031848203
 31
0.0
  0
ENDBLK
  5
AD
330
AA
100
AcDbEntity
  8
0
100
AcDbBlockEnd
  0
BLOCK
  5
B7
330
B5
100
AcDbEntity
  8
0
100
AcDbBlockBegin
  2
Block_2
 70
     0
 10
0.0
 20
0.0
 30
0.0
  3
Block_2
  1

  0
INSERT
  5
BA
330
B5
100
AcDbEntity
  8
レイヤー 1
100
AcDbBlockReference
  2
Block_3
 10
0.0
 20
0.0
 30
0.0
  0
ENDBLK
  5
B8
330
B5
100
AcDbEntity
  8
0
100
AcDbBlockEnd
  0
BLOCK
  5
BB
330
B9
100
AcDbEntity
  8
0
100
AcDbBlockBegin
  2
Block_3
 70
     0
 10
0.0
 20
0.0
 30
0.0
  3
Block_3
  1

  0
SPLINE
  5
BD
330
B9
100
AcDbEntity
  8
レイヤー 1
100
AcDbSpline
210
0.0
220
0.0
230
1.0
 70
    11
 71
     3
 72
    26
 73
    22
 74
     0
 42
0.0000000001
 43
0.0000000001
 40
0.0
 40
0.0
 40
0.0
 40
0.0
 40
1.0
 40
1.0
 40
1.0
 40
2.0
 40
2.0
 40
2.0
 40
3.0
 40
3.0
 40
3.0
 40
4.0
 40
4.0
 40
4.0
 40
5.0
 40
5.0
 40
5.0
 40
6.0
 40
6.0
 40
6.0
 40
7.0
 40
7.0
 40
7.0
 40
7.0
 10
105.3384453404188
 20
-110.0168850093881
 30
0.0
 10
105.3384453404188
 20
-110.0168850093881
 30
0.0
 10
105.3384453404188
 20
-108.9125596515913
 30
0.0
 10
105.3384453404188
 20
-108.9125596515913
 30
0.0
 10
105.3384453404188
 20
-108.9125596515913
 30
0.0
 10
105.0084051929319
 20
-108.9125596515913
 30
0.0
 10
105.0084051929319
 20
-108.9125596515913
 30
0.0
 10
105.0084051929319
 20
-108.9125596515913
 30
0.0
 10
105.0084051929319
 20
-108.7645928004998
 30
0.0
 10
105.0084051929319
 20
-108.7645928004998
 30
0.0
 10
105.34051239771
 20
-108.7497788899132
 30
0.0
 10
105.3870211867609
 20
-108.5868258734609
 30
0.0
 10
105.416649007934
 20
-108.4726209581249
 30
0.0
 10
105.416649007934
 20
-108.4726209581249
 30
0.0
 10
105.5625488017343
 20
-108.4726209581249
 30
0.0
 10
105.5625488017343
 20
-108.4726209581249
 30
0.0
 10
105.5625488017343
 20
-108.4726209581249
 30
0.0
 10
105.5625488017343
 20
-110.0168850093881
 30
0.0
 10
105.5625488017343
 20
-110.0168850093881
 30
0.0
 10
105.5625488017343
 20
-110.0168850093881
 30
0.0
 10
105.3384453404188
 20
-110.0168850093881
 30
0.0
 10
105.3384453404188
 20
-110.0168850093881
 30
0.0
  0
HATCH
  5
BE
330
B9
100
AcDbEntity
  8
レイヤー 1
 62
   250
420
  2299925
440
 33554687
100
AcDbHatch
 10
0.0
 20
0.0
 30
0.0
210
0.0
220
0.0
230
1.0
  2
SOLID
 70
     1
 71
     1
 91
        1
 92
        1
 93
        1
 72
     4
 94
        3
 73
     0
 74
     0
 95
       26
 96
       22
 40
0.0
 40
0.0
 40
0.0
 40
0.0
 40
1.0
 40
1.0
 40
1.0
 40
2.0
 40
2.0
 40
2.0
 40
3.0
 40
3.0
 40
3.0
 40
4.0
 40
4.0
 40
4.0
 40
5.0
 40
5.0
 40
5.0
 40
6.0
 40
6.0
 40
6.0
 40
7.0
 40
7.0
 40
7.0
 40
7.0
 10
105.3384453404188
 20
-110.0168850093881
 10
105.3384453404188
 20
-110.0168850093881
 10
105.3384453404188
 20
-108.9125596515913
 10
105.3384453404188
 20
-108.9125596515913
 10
105.3384453404188
 20
-108.9125596515913
 10
105.0084051929319
 20
-108.9125596515913
 10
105.0084051929319
 20
-108.9125596515913
 10
105.0084051929319
 20
-108.9125596515913
 10
105.0084051929319
 20
-108.7645928004998
 10
105.0084051929319
 20
-108.7645928004998
 10
105.34051239771
 20
-108.7497788899132
 10
105.3870211867609
 20
-108.5868258734609
 10
105.416649007934
 20
-108.4726209581249
 10
105.416649007934
 20
-108.4726209581249
 10
105.5625488017343
 20
-108.4726209581249
 10
105.5625488017343
 20
-108.4726209581249
 10
105.5625488017343
 20
-108.4726209581249
 10
105.5625488017343
 20
-110.0168850093881
 10
105.5625488017343
 20
-110.0168850093881
 10
105.5625488017343
 20
-110.0168850093881
 10
105.3384453404188
 20
-110.0168850093881
 10
105.3384453404188
 20
-110.0168850093881
 97
        0
 97
        1
330
BD
 75
     2
 76
     1
 98
        1
 10
0.0
 20
0.0
450
        0
451
        0
460
0.0
461
0.0
452
        0
462
0.0
453
        0
470

  0
SPLINE
  5
BF
330
B9
100
AcDbEntity
  8
レイヤー 1
100
AcDbSpline
210
0.0
220
0.0
230
1.0
 70
    11
 71
     3
 72
    17
 73
    13
 74
     0
 42
0.0000000001
 43
0.0000000001
 40
0.0
 40
0.0
 40
0.0
 40
0.0
 40
1.0
 40
1.0
 40
1.0
 40
2.0
 40
2.0
 40
2.0
 40
3.0
 40
3.0
 40
3.0
 40
4.0
 40
4.0
 40
4.0
 40
4.0
 10
106.1237548562815
 20
-110.0168850093881
 30
0.0
 10
106.1237548562815
 20
-110.0168850093881
 30
0.0
 10
106.1237548562815
 20
-109.7652207841906
 30
0.0
 10
106.1237548562815
 20
-109.7652207841906
 30
0.0
 10
106.1237548562815
 20
-109.7652207841906
 30
0.0
 10
106.3755913362533
 20
-109.7652207841906
 30
0.0
 10
106.3755913362533
 20
-109.7652207841906
 30
0.0
 10
106.3755913362533
 20
-109.7652207841906
 30
0.0
 10
106.3755913362533
 20
-110.0168850093881
 30
0.0
 10
106.3755913362533
 20
-110.0168850093881
 30
0.0
 10
106.3755913362533
 20
-110.0168850093881
 30
0.0
 10
106.1237548562815
 20
-110.0168850093881
 30
0.0
 10
106.1237548562815
 20
-110.0168850093881
 30
0.0
  0
HATCH
  5
C0
330
B9
100
AcDbEntity
  8
レイヤー 1
 62
   250
420
  2299925
440
 33554687
100
AcDbHatch
 10
0.0
 20
0.0
 30
0.0
210
0.0
220
0.0
230
1.0
  2
SOLID
 70
     1
 71
     1
 91
        1
 92
        1
 93
        1
 72
     4
 94
        3
 73
     0
 74
     0
 95
       17
 96
       13
 40
0.0
 40
0.0
 40
0.0
 40
0.0
 40
1.0
 40
1.0
 40
1.0
 40
2.0
 40
2.0
 40
2.0
 40
3.0
 40
3.0
 40
3.0
 40
4.0
 40
4.0
 40
4.0
 40
4.0
 10
106.1237548562815
 20
-110.0168850093881
 10
106.1237548562815
 20
-110.0168850093881
 10
106.1237548562815
 20
-109.7652207841906
 10
106.1237548562815
 20
-109.7652207841906
 10
106.1237548562815
 20
-109.7652207841906
 10
106.3755913362533
 20
-109.7652207841906
 10
106.3755913362533
 20
-109.7652207841906
 10
106.3755913362533
 20
-109.7652207841906
 10
106.3755913362533
 20
-110.0168850093881
 10
106.3755913362533
 20
-110.0168850093881
 10
106.3755913362533
 20
-110.0168850093881
 10
106.1237548562815
 20
-110.0168850093881
 10
106.1237548562815
 20
-110.0168850093881
 97
        0
 97
        1
330
BF
 75
     2
 76
     1
 98
        1
 10
0.0
 20
0.0
450
        0
451
        0
460
0.0
461
0.0
452
        0
462
0.0
453
        0
470

  0
SPLINE
  5
C1
330
B9
100
AcDbEntity
  8
レイヤー 1
100
AcDbSpline
210
0.0
220
0.0
230
1.0
 70
     9
 71
     3
 72
    44
 73
    40
 74
     0
 42
0.0000000001
 43
0.0000000001
 40
0.0
 40
0.0
 40
0.0
 40
0.0
 40
1.0
 40
1.0
 40
1.0
 40
2.0
 40
2.0
 40
2.0
 40
3.0
 40
3.0
 40
3.0
 40
4.0
 40
4.0
 40
4.0
 40
5.0
 40
5.0
 40
5.0
 40
6.0
 40
6.0
 40
6.0
 40
7.0
 40
7.0
 40
7.0
 40
8.0
 40
8.0
 40
8.0
 40
9.0
 40
9.0
 40
9.0
 40
10.0
 40
10.0
 40
10.0
 40
11.0
 40
11.0
 40
11.0
 40
12.0
 40
12.0
 40
12.0
 40
13.0
 40
13.0
 40
13.0
 40
13.0
 10
107.2051703291015
 20
-109.4351806367037
 30
0.0
 10
106.9870957848851
 20
-109.5938272837994
 30
0.0
 10
106.8940782067834
 20
-109.6678968367323
 30
0.0
 10
106.8455023604414
 20
-109.8117295732415
 30
0.0
 10
106.8455023604414
 20
-109.8117295732415
 30
0.0
 10
107.6237494305593
 20
-109.8117295732415
 30
0.0
 10
107.6237494305593
 20
-109.8117295732415
 30
0.0
 10
107.6237494305593
 20
-109.8117295732415
 30
0.0
 10
107.6237494305593
 20
-110.0168850093881
 30
0.0
 10
107.6237494305593
 20
-110.0168850093881
 30
0.0
 10
107.6237494305593
 20
-110.0168850093881
 30
0.0
 10
106.5957329377608
 20
-110.0168850093881
 30
0.0
 10
106.5957329377608
 20
-110.0168850093881
 30
0.0
 10
106.6274278162251
 20
-109.6592840980192
 30
0.0
 10
106.6928846304448
 20
-109.581080430504
 30
0.0
 10
107.0780463056957
 20
-109.2827351614814
 30
0.0
 10
107.3340169002498
 20
-109.0839531519825
 30
0.0
 10
107.3994737144696
 20
-109.0162570256973
 30
0.0
 10
107.3994737144696
 20
-108.8787977158358
 30
0.0
 10
107.3994737144696
 20
-108.7602864311433
 30
0.0
 10
107.3278157283763
 20
-108.6292005479295
 30
0.0
 10
107.1311007761686
 20
-108.6292005479295
 30
0.0
 10
106.8706515574837
 20
-108.6292005479295
 30
0.0
 10
106.8623833283191
 20
-108.8596774358927
 30
0.0
 10
106.8579047041883
 20
-108.9761216632942
 30
0.0
 10
106.8579047041883
 20
-108.9761216632942
 30
0.0
 10
106.633973497647
 20
-108.9761216632942
 30
0.0
 10
106.633973497647
 20
-108.9761216632942
 30
0.0
 10
106.6422417268116
 20
-108.8491698946627
 30
0.0
 10
106.6529215228159
 20
-108.7370320366178
 30
0.0
 10
106.7331922476222
 20
-108.6185207519252
 30
0.0
 10
106.8430907936017
 20
-108.4578070475383
 30
0.0
 10
107.0294704593537
 20
-108.4238728570086
 30
0.0
 10
107.1459146867552
 20
-108.4238728570086
 30
0.0
 10
107.4229003637692
 20
-108.4238728570086
 30
0.0
 10
107.6302951119813
 20
-108.6080132106952
 30
0.0
 10
107.6302951119813
 20
-108.880864773127
 30
0.0
 10
107.6302951119813
 20
-109.1092746037991
 30
0.0
 10
107.5138508845798
 20
-109.2088378633228
 30
0.0
 10
107.2051703291015
 20
-109.4351806367037
 30
0.0
  0
HATCH
  5
C2
330
B9
100
AcDbEntity
  8
レイヤー 1
 62
   250
420
  2299925
440
 33554687
100
AcDbHatch
 10
0.0
 20
0.0
 30
0.0
210
0.0
220
0.0
230
1.0
  2
SOLID
 70
     1
 71
     1
 91
        1
 92
        1
 93
        1
 72
     4
 94
        3
 73
     0
 74
     0
 95
       44
 96
       40
 40
0.0
 40
0.0
 40
0.0
 40
0.0
 40
1.0
 40
1.0
 40
1.0
 40
2.0
 40
2.0
 40
2.0
 40
3.0
 40
3.0
 40
3.0
 40
4.0
 40
4.0
 40
4.0
 40
5.0
 40
5.0
 40
5.0
 40
6.0
 40
6.0
 40
6.0
 40
7.0
 40
7.0
 40
7.0
 40
8.0
 40
8.0
 40
8.0
 40
9.0
 40
9.0
 40
9.0
 40
10.0
 40
10.0
 40
10.0
 40
11.0
 40
11.0
 40
11.0
 40
12.0
 40
12.0
 40
12.0
 40
13.0
 40
13.0
 40
13.0
 40
13.0
 10
107.2051703291015
 20
-109.4351806367037
 10
106.9870957848851
 20
-109.5938272837994
 10
106.8940782067834
 20
-109.6678968367323
 10
106.8455023604414
 20
-109.8117295732415
 10
106.8455023604414
 20
-109.8117295732415
 10
107.6237494305593
 20
-109.8117295732415
 10
107.6237494305593
 20
-109.8117295732415
 10
107.6237494305593
 20
-109.8117295732415
 10
107.6237494305593
 20
-110.0168850093881
 10
107.6237494305593
 20
-110.0168850093881
 10
107.6237494305593
 20
-110.0168850093881
 10
106.5957329377608
 20
-110.0168850093881
 10
106.5957329377608
 20
-110.0168850093881
 10
106.6274278162251
 20
-109.6592840980192
 10
106.6928846304448
 20
-109.581080430504
 10
107.0780463056957
 20
-109.2827351614814
 10
107.3340169002498
 20
-109.0839531519825
 10
107.3994737144696
 20
-109.0162570256973
 10
107.3994737144696
 20
-108.8787977158358
 10
107.3994737144696
 20
-108.7602864311433
 10
107.3278157283763
 20
-108.6292005479295
 10
107.1311007761686
 20
-108.6292005479295
 10
106.8706515574837
 20
-108.6292005479295
 10
106.8623833283191
 20
-108.8596774358927
 10
106.8579047041883
 20
-108.9761216632942
 10
106.8579047041883
 20
-108.9761216632942
 10
106.633973497647
 20
-108.9761216632942
 10
106.633973497647
 20
-108.9761216632942
 10
106.6422417268116
 20
-108.8491698946627
 10
106.6529215228159
 20
-108.7370320366178
 10
106.7331922476222
 20
-108.6185207519252
 10
106.8430907936017
 20
-108.4578070475383
 10
107.0294704593537
 20
-108.4238728570086
 10
107.1459146867552
 20
-108.4238728570086
 10
107.4229003637692
 20
-108.4238728570086
 10
107.6302951119813
 20
-108.6080132106952
 10
107.6302951119813
 20
-108.880864773127
 10
107.6302951119813
 20
-109.1092746037991
 10
107.5138508845798
 20
-109.2088378633228
 10
107.2051703291015
 20
-109.4351806367037
 97
        0
 97
        1
330
C1
 75
     2
 76
     1
 98
        1
 10
0.0
 20
0.0
450
        0
451
        0
460
0.0
461
0.0
452
        0
462
0.0
453
        0
470

  0
ENDBLK
  5
BC
330
B9
100
AcDbEntity
  8
0
100
AcDbBlockEnd
  0
BLOCK
  5
C5
330
C3
100
AcDbEntity
  8
0
100
AcDbBlockBegin
  2
Block_4
 70
     0
 10
0.0
 20
0.0
 30
0.0
  3
Block_4
  1

  0
INSERT
  5
C8
330
C3
100
AcDbEntity
  8
レイヤー 1
100
AcDbBlockReference
  2
Block_5
 10
0.0
 20
0.0
 30
0.0
  0
ENDBLK
  5
C6
330
C3
100
AcDbEntity
  8
0
100
AcDbBlockEnd
  0
BLOCK
  5
C9
330
C7
100
AcDbEntity
  8
0
100
AcDbBlockBegin
  2
Block_5
 70
     0
 10
0.0
 20
0.0
 30
0.0
  3
Block_5
  1

  0
SPLINE
  5
CB
330
C7
100
AcDbEntity
  8
レイヤー 1
100
AcDbSpline
210
0.0
220
0.0
230
1.0
 70
     9
 71
     3
 72
    53
 73
    49
 74
     0
 42
0.0000000001
 43
0.0000000001
 40
0.0
 40
0.0
 40
0.0
 40
0.0
 40
1.0
 40
1.0
 40
1.0
 40
2.0
 40
2.0
 40
2.0
 40
3.0
 40
3.0
 40
3.0
 40
4.0
 40
4.0
 40
4.0
 40
5.0
 40
5.0
 40
5.0
 40
6.0
 40
6.0
 40
6.0
 40
7.0
 40
7.0
 40
7.0
 40
8.0
 40
8.0
 40
8.0
 40
9.0
 40
9.0
 40
9.0
 40
10.0
 40
10.0
 40
10.0
 40
11.0
 40
11.0
 40
11.0
 40
12.0
 40
12.0
 40
12.0
 40
13.0
 40
13.0
 40
13.0
 40
14.0
 40
14.0
 40
14.0
 40
15.0
 40
15.0
 40
15.0
 40
16.0
 40
16.0
 40
16.0
 40
16.0
 10
123.3774820655098
 20
-136.0592230562629
 30
0.0
 10
123.3774820655098
 20
-136.1374267237781
 30
0.0
 10
123.3606010976321
 20
-136.239057040593
 30
0.0
 10
123.2972113407035
 20
-136.3406873574079
 30
0.0
 10
123.187312794724
 20
-136.5139756603159
 30
0.0
 10
123.056054656736
 20
-136.5353352523245
 30
0.0
 10
122.9482231680476
 20
-136.5542832774933
 30
0.0
 10
122.9482231680476
 20
-136.5542832774933
 30
0.0
 10
122.9482231680476
 20
-136.3320746186948
 30
0.0
 10
122.9482231680476
 20
-136.3320746186948
 30
0.0
 10
123.1470051775466
 20
-136.2772976004793
 30
0.0
 10
123.1766329987197
 20
-136.1501735770736
 30
0.0
 10
123.1766329987197
 20
-136.0571559989718
 30
0.0
 10
123.1766329987197
 20
-135.9176296318192
 30
0.0
 10
123.077069739196
 20
-135.7653564113711
 30
0.0
 10
122.8445257939416
 20
-135.7653564113711
 30
0.0
 10
122.5885551993876
 20
-135.7653564113711
 30
0.0
 10
122.518619761037
 20
-135.9451903957012
 30
0.0
 10
122.518619761037
 20
-136.0657687376849
 30
0.0
 10
122.518619761037
 20
-136.0974636161492
 30
0.0
 10
122.518619761037
 20
-136.239057040593
 30
0.0
 10
122.6478108417339
 20
-136.3279405041124
 30
0.0
 10
122.6478108417339
 20
-136.3279405041124
 30
0.0
 10
122.628862816565
 20
-136.5036403738602
 30
0.0
 10
122.628862816565
 20
-136.5036403738602
 30
0.0
 10
122.628862816565
 20
-136.5036403738602
 30
0.0
 10
121.7824028558391
 20
-136.3830620318764
 30
0.0
 10
121.7824028558391
 20
-136.3830620318764
 30
0.0
 10
121.7824028558391
 20
-136.3830620318764
 30
0.0
 10
121.7824028558391
 20
-135.60447045221
 30
0.0
 10
121.7824028558391
 20
-135.60447045221
 30
0.0
 10
121.7824028558391
 20
-135.60447045221
 30
0.0
 10
121.9770507507557
 20
-135.60447045221
 30
0.0
 10
121.9770507507557
 20
-135.60447045221
 30
0.0
 10
121.9770507507557
 20
-135.60447045221
 30
0.0
 10
121.9770507507557
 20
-136.2201090154241
 30
0.0
 10
121.9770507507557
 20
-136.2201090154241
 30
0.0
 10
121.9770507507557
 20
-136.2201090154241
 30
0.0
 10
122.4001084763444
 20
-136.2855658296439
 30
0.0
 10
122.4001084763444
 20
-136.2855658296439
 30
0.0
 10
122.3663465405889
 20
-136.2242431300064
 30
0.0
 10
122.3260389234115
 20
-136.141905347909
 30
0.0
 10
122.3260389234115
 20
-136.0233940632164
 30
0.0
 10
122.3260389234115
 20
-135.7694905259535
 30
0.0
 10
122.5124185891635
 20
-135.5324679565683
 30
0.0
 10
122.8255777687728
 20
-135.5324679565683
 30
0.0
 10
123.1428710629643
 20
-135.5324679565683
 30
0.0
 10
123.3774820655098
 20
-135.756743672658
 30
0.0
 10
123.3774820655098
 20
-136.0592230562629
 30
0.0
  0
HATCH
  5
CC
330
C7
100
AcDbEntity
  8
レイヤー 1
 62
   250
420
  2299925
440
 33554687
100
AcDbHatch
 10
0.0
 20
0.0
 30
0.0
210
0.0
220
0.0
230
1.0
  2
SOLID
 70
     1
 71
     1
 91
        1
 92
        1
 93
        1
 72
     4
 94
        3
 73
     0
 74
     0
 95
       53
 96
       49
 40
0.0
 40
0.0
 40
0.0
 40
0.0
 40
1.0
 40
1.0
 40
1.0
 40
2.0
 40
2.0
 40
2.0
 40
3.0
 40
3.0
 40
3.0
 40
4.0
 40
4.0
 40
4.0
 40
5.0
 40
5.0
 40
5.0
 40
6.0
 40
6.0
 40
6.0
 40
7.0
 40
7.0
 40
7.0
 40
8.0
 40
8.0
 40
8.0
 40
9.0
 40
9.0
 40
9.0
 40
10.0
 40
10.0
 40
10.0
 40
11.0
 40
11.0
 40
11.0
 40
12.0
 40
12.0
 40
12.0
 40
13.0
 40
13.0
 40
13.0
 40
14.0
 40
14.0
 40
14.0
 40
15.0
 40
15.0
 40
15.0
 40
16.0
 40
16.0
 40
16.0
 40
16.0
 10
123.3774820655098
 20
-136.0592230562629
 10
123.3774820655098
 20
-136.1374267237781
 10
123.3606010976321
 20
-136.239057040593
 10
123.2972113407035
 20
-136.3406873574079
 10
123.187312794724
 20
-136.5139756603159
 10
123.056054656736
 20
-136.5353352523245
 10
122.9482231680476
 20
-136.5542832774933
 10
122.9482231680476
 20
-136.5542832774933
 10
122.9482231680476
 20
-136.3320746186948
 10
122.9482231680476
 20
-136.3320746186948
 10
123.1470051775466
 20
-136.2772976004793
 10
123.1766329987197
 20
-136.1501735770736
 10
123.1766329987197
 20
-136.0571559989718
 10
123.1766329987197
 20
-135.9176296318192
 10
123.077069739196
 20
-135.7653564113711
 10
122.8445257939416
 20
-135.7653564113711
 10
122.5885551993876
 20
-135.7653564113711
 10
122.518619761037
 20
-135.9451903957012
 10
122.518619761037
 20
-136.0657687376849
 10
122.518619761037
 20
-136.0974636161492
 10
122.518619761037
 20
-136.239057040593
 10
122.6478108417339
 20
-136.3279405041124
 10
122.6478108417339
 20
-136.3279405041124
 10
122.628862816565
 20
-136.5036403738602
 10
122.628862816565
 20
-136.5036403738602
 10
122.628862816565
 20
-136.5036403738602
 10
121.7824028558391
 20
-136.3830620318764
 10
121.7824028558391
 20
-136.3830620318764
 10
121.7824028558391
 20
-136.3830620318764
 10
121.7824028558391
 20
-135.60447045221
 10
121.7824028558391
 20
-135.60447045221
 10
121.7824028558391
 20
-135.60447045221
 10
121.9770507507557
 20
-135.60447045221
 10
121.9770507507557
 20
-135.60447045221
 10
121.9770507507557
 20
-135.60447045221
 10
121.9770507507557
 20
-136.2201090154241
 10
121.9770507507557
 20
-136.2201090154241
 10
121.9770507507557
 20
-136.2201090154241
 10
122.4001084763444
 20
-136.2855658296439
 10
122.4001084763444
 20
-136.2855658296439
 10
122.3663465405889
 20
-136.2242431300064
 10
122.3260389234115
 20
-136.141905347909
 10
122.3260389234115
 20
-136.0233940632164
 10
122.3260389234115
 20
-135.7694905259535
 10
122.5124185891635
 20
-135.5324679565683
 10
122.8255777687728
 20
-135.5324679565683
 10
123.1428710629643
 20
-135.5324679565683
 10
123.3774820655098
 20
-135.756743672658
 10
123.3774820655098
 20
-136.0592230562629
 97
        0
 97
        1
330
CB
 75
     2
 76
     1
 98
        1
 10
0.0
 20
0.0
450
        0
451
        0
460
0.0
461
0.0
452
        0
462
0.0
453
        0
470

  0
SPLINE
  5
CD
330
C7
100
AcDbEntity
  8
レイヤー 1
100
AcDbSpline
210
0.0
220
0.0
230
1.0
 70
     9
 71
     3
 72
    17
 73
    13
 74
     0
 42
0.0000000001
 43
0.0000000001
 40
0.0
 40
0.0
 40
0.0
 40
0.0
 40
1.0
 40
1.0
 40
1.0
 40
2.0
 40
2.0
 40
2.0
 40
3.0
 40
3.0
 40
3.0
 40
4.0
 40
4.0
 40
4.0
 40
4.0
 10
121.9264078471226
 20
-134.8634304133327
 30
0.0
 10
121.9264078471226
 20
-135.1131998360133
 30
0.0
 10
122.2099392055586
 20
-135.1597086250642
 30
0.0
 10
122.5547932636321
 20
-135.1597086250642
 30
0.0
 10
122.8741536151148
 20
-135.1597086250642
 30
0.0
 10
123.1828341705932
 20
-135.1235351224691
 30
0.0
 10
123.1828341705932
 20
-134.8634304133327
 30
0.0
 10
123.1828341705932
 20
-134.6157280479433
 30
0.0
 10
122.9017143789968
 20
-134.5671522016012
 30
0.0
 10
122.5547932636321
 20
-134.5671522016012
 30
0.0
 10
122.2350884026009
 20
-134.5671522016012
 30
0.0
 10
121.9264078471226
 20
-134.6053927614875
 30
0.0
 10
121.9264078471226
 20
-134.8634304133327
 30
0.0
  0
SPLINE
  5
CE
330
C7
100
AcDbEntity
  8
レイヤー 1
100
AcDbSpline
210
0.0
220
0.0
230
1.0
 70
     9
 71
     3
 72
    29
 73
    25
 74
     0
 42
0.0000000001
 43
0.0000000001
 40
0.0
 40
0.0
 40
0.0
 40
0.0
 40
1.0
 40
1.0
 40
1.0
 40
2.0
 40
2.0
 40
2.0
 40
3.0
 40
3.0
 40
3.0
 40
4.0
 40
4.0
 40
4.0
 40
5.0
 40
5.0
 40
5.0
 40
6.0
 40
6.0
 40
6.0
 40
7.0
 40
7.0
 40
7.0
 40
8.0
 40
8.0
 40
8.0
 40
8.0
 10
123.1490722348377
 20
-134.4655218847864
 30
0.0
 10
123.3585340403409
 20
-134.5736978830232
 30
0.0
 10
123.3774820655098
 20
-134.7469861859313
 30
0.0
 10
123.3774820655098
 20
-134.8634304133327
 30
0.0
 10
123.3774820655098
 20
-135.0243163724939
 30
0.0
 10
123.3309732764589
 20
-135.1659097969376
 30
0.0
 10
123.1490722348377
 20
-135.2609944323306
 30
0.0
 10
122.9544243399211
 20
-135.3646918064366
 30
0.0
 10
122.7174017705359
 20
-135.383984341154
 30
0.0
 10
122.5547932636321
 20
-135.383984341154
 30
0.0
 10
122.4107882723487
 20
-135.383984341154
 30
0.0
 10
122.1589517923769
 20
-135.3667588637277
 30
0.0
 10
121.960169782878
 20
-135.2609944323306
 30
0.0
 10
121.7572536587968
 20
-135.1531629436422
 30
0.0
 10
121.7338270094971
 20
-134.9922769844811
 30
0.0
 10
121.7338270094971
 20
-134.8634304133327
 30
0.0
 10
121.7338270094971
 20
-134.7046115114627
 30
0.0
 10
121.7782687412568
 20
-134.5609510297278
 30
0.0
 10
121.960169782878
 20
-134.4655218847864
 30
0.0
 10
122.1527506205035
 20
-134.3663031348112
 30
0.0
 10
122.3811604511755
 20
-134.3428764855115
 30
0.0
 10
122.5547932636321
 20
-134.3428764855115
 30
0.0
 10
122.726014509249
 20
-134.3428764855115
 30
0.0
 10
122.9564913972122
 20
-134.36423607752
 30
0.0
 10
123.1490722348377
 20
-134.4655218847864
 30
0.0
  0
HATCH
  5
CF
330
C7
100
AcDbEntity
  8
レイヤー 1
 62
   250
420
  2299925
440
 33554687
100
AcDbHatch
 10
0.0
 20
0.0
 30
0.0
210
0.0
220
0.0
230
1.0
  2
SOLID
 70
     1
 71
     1
 91
        2
 92
        1
 93
        1
 72
     4
 94
        3
 73
     0
 74
     0
 95
       17
 96
       13
 40
0.0
 40
0.0
 40
0.0
 40
0.0
 40
1.0
 40
1.0
 40
1.0
 40
2.0
 40
2.0
 40
2.0
 40
3.0
 40
3.0
 40
3.0
 40
4.0
 40
4.0
 40
4.0
 40
4.0
 10
121.9264078471226
 20
-134.8634304133327
 10
121.9264078471226
 20
-135.1131998360133
 10
122.2099392055586
 20
-135.1597086250642
 10
122.5547932636321
 20
-135.1597086250642
 10
122.8741536151148
 20
-135.1597086250642
 10
123.1828341705932
 20
-135.1235351224691
 10
123.1828341705932
 20
-134.8634304133327
 10
123.1828341705932
 20
-134.6157280479433
 10
122.9017143789968
 20
-134.5671522016012
 10
122.5547932636321
 20
-134.5671522016012
 10
122.2350884026009
 20
-134.5671522016012
 10
121.9264078471226
 20
-134.6053927614875
 10
121.9264078471226
 20
-134.8634304133327
 97
        0
 97
        1
330
CD
 92
        1
 93
        1
 72
     4
 94
        3
 73
     0
 74
     0
 95
       29
 96
       25
 40
0.0
 40
0.0
 40
0.0
 40
0.0
 40
1.0
 40
1.0
 40
1.0
 40
2.0
 40
2.0
 40
2.0
 40
3.0
 40
3.0
 40
3.0
 40
4.0
 40
4.0
 40
4.0
 40
5.0
 40
5.0
 40
5.0
 40
6.0
 40
6.0
 40
6.0
 40
7.0
 40
7.0
 40
7.0
 40
8.0
 40
8.0
 40
8.0
 40
8.0
 10
123.1490722348377
 20
-134.4655218847864
 10
123.3585340403409
 20
-134.5736978830232
 10
123.3774820655098
 20
-134.7469861859313
 10
123.3774820655098
 20
-134.8634304133327
 10
123.3774820655098
 20
-135.0243163724939
 10
123.3309732764589
 20
-135.1659097969376
 10
123.1490722348377
 20
-135.2609944323306
 10
122.9544243399211
 20
-135.3646918064366
 10
122.7174017705359
 20
-135.383984341154
 10
122.5547932636321
 20
-135.383984341154
 10
122.4107882723487
 20
-135.383984341154
 10
122.1589517923769
 20
-135.3667588637277
 10
121.960169782878
 20
-135.2609944323306
 10
121.7572536587968
 20
-135.1531629436422
 10
121.7338270094971
 20
-134.9922769844811
 10
121.7338270094971
 20
-134.8634304133327
 10
121.7338270094971
 20
-134.7046115114627
 10
121.7782687412568
 20
-134.5609510297278
 10
121.960169782878
 20
-134.4655218847864
 10
122.1527506205035
 20
-134.3663031348112
 10
122.3811604511755
 20
-134.3428764855115
 10
122.5547932636321
 20
-134.3428764855115
 10
122.726014509249
 20
-134.3428764855115
 10
122.9564913972122
 20
-134.36423607752
 10
123.1490722348377
 20
-134.4655218847864
 97
        0
 97
        1
330
CE
 75
     2
 76
     1
 98
        1
 10
0.0
 20
0.0
450
        0
451
        0
460
0.0
461
0.0
452
        0
462
0.0
453
        0
470

  0
ENDBLK
  5
CA
330
C7
100
AcDbEntity
  8
0
100
AcDbBlockEnd
  0
BLOCK
  5
D2
330
D0
100
AcDbEntity
  8
0
100
AcDbBlockBegin
  2
Block_6
 70
     0
 10
0.0
 20
0.0
 30
0.0
  3
Block_6
  1

  0
INSERT
  5
D5
330
D0
100
AcDbEntity
  8
レイヤー 1
100
AcDbBlockReference
  2
Block_7
 10
0.0
 20
0.0
 30
0.0
  0
ENDBLK
  5
D3
330
D0
100
AcDbEntity
  8
0
100
AcDbBlockEnd
  0
BLOCK
  5
D6
330
D4
100
AcDbEntity
  8
0
100
AcDbBlockBegin
  2
Block_7
 70
     0
 10
0.0
 20
0.0
 30
0.0
  3
Block_7
  1

  0
SPLINE
  5
D8
330
D4
100
AcDbEntity
  8
レイヤー 1
100
AcDbSpline
210
0.0
220
0.0
230
1.0
 70
    11
 71
     3
 72
    26
 73
    22
 74
     0
 42
0.0000000001
 43
0.0000000001
 40
0.0
 40
0.0
 40
0.0
 40
0.0
 40
1.0
 40
1.0
 40
1.0
 40
2.0
 40
2.0
 40
2.0
 40
3.0
 40
3.0
 40
3.0
 40
4.0
 40
4.0
 40
4.0
 40
5.0
 40
5.0
 40
5.0
 40
6.0
 40
6.0
 40
6.0
 40
7.0
 40
7.0
 40
7.0
 40
7.0
 10
123.3268391618766
 20
-174.0979003471005
 30
0.0
 10
123.3268391618766
 20
-174.0979003471005
 30
0.0
 10
122.222686058854
 20
-174.0979003471005
 30
0.0
 10
122.222686058854
 20
-174.0979003471005
 30
0.0
 10
122.222686058854
 20
-174.0979003471005
 30
0.0
 10
122.222686058854
 20
-174.4279404945874
 30
0.0
 10
122.222686058854
 20
-174.4279404945874
 30
0.0
 10
122.222686058854
 20
-174.4279404945874
 30
0.0
 10
122.0745469529883
 20
-174.4279404945874
 30
0.0
 10
122.0745469529883
 20
-174.4279404945874
 30
0.0
 10
122.0597330424017
 20
-174.0958332898093
 30
0.0
 10
121.8967800259494
 20
-174.0493245007585
 30
0.0
 10
121.7824028558391
 20
-174.0196966795853
 30
0.0
 10
121.7824028558391
 20
-174.0196966795853
 30
0.0
 10
121.7824028558391
 20
-173.8736246310107
 30
0.0
 10
121.7824028558391
 20
-173.8736246310107
 30
0.0
 10
121.7824028558391
 20
-173.8736246310107
 30
0.0
 10
123.3268391618766
 20
-173.8736246310107
 30
0.0
 10
123.3268391618766
 20
-173.8736246310107
 30
0.0
 10
123.3268391618766
 20
-173.8736246310107
 30
0.0
 10
123.3268391618766
 20
-174.0979003471005
 30
0.0
 10
123.3268391618766
 20
-174.0979003471005
 30
0.0
  0
HATCH
  5
D9
330
D4
100
AcDbEntity
  8
レイヤー 1
 62
   250
420
  2299925
440
 33554687
100
AcDbHatch
 10
0.0
 20
0.0
 30
0.0
210
0.0
220
0.0
230
1.0
  2
SOLID
 70
     1
 71
     1
 91
        1
 92
        1
 93
        1
 72
     4
 94
        3
 73
     0
 74
     0
 95
       26
 96
       22
 40
0.0
 40
0.0
 40
0.0
 40
0.0
 40
1.0
 40
1.0
 40
1.0
 40
2.0
 40
2.0
 40
2.0
 40
3.0
 40
3.0
 40
3.0
 40
4.0
 40
4.0
 40
4.0
 40
5.0
 40
5.0
 40
5.0
 40
6.0
 40
6.0
 40
6.0
 40
7.0
 40
7.0
 40
7.0
 40
7.0
 10
123.3268391618766
 20
-174.0979003471005
 10
123.3268391618766
 20
-174.0979003471005
 10
122.222686058854
 20
-174.0979003471005
 10
122.222686058854
 20
-174.0979003471005
 10
122.222686058854
 20
-174.0979003471005
 10
122.222686058854
 20
-174.4279404945874
 10
122.222686058854
 20
-174.4279404945874
 10
122.222686058854
 20
-174.4279404945874
 10
122.0745469529883
 20
-174.4279404945874
 10
122.0745469529883
 20
-174.4279404945874
 10
122.0597330424017
 20
-174.0958332898093
 10
121.8967800259494
 20
-174.0493245007585
 10
121.7824028558391
 20
-174.0196966795853
 10
121.7824028558391
 20
-174.0196966795853
 10
121.7824028558391
 20
-173.8736246310107
 10
121.7824028558391
 20
-173.8736246310107
 10
121.7824028558391
 20
-173.8736246310107
 10
123.3268391618766
 20
-173.8736246310107
 10
123.3268391618766
 20
-173.8736246310107
 10
123.3268391618766
 20
-173.8736246310107
 10
123.3268391618766
 20
-174.0979003471005
 10
123.3268391618766
 20
-174.0979003471005
 97
        0
 97
        1
330
D8
 75
     2
 76
     1
 98
        1
 10
0.0
 20
0.0
450
        0
451
        0
460
0.0
461
0.0
452
        0
462
0.0
453
        0
470

  0
SPLINE
  5
DA
330
D4
100
AcDbEntity
  8
レイヤー 1
100
AcDbSpline
210
0.0
220
0.0
230
1.0
 70
     9
 71
     3
 72
    53
 73
    49
 74
     0
 42
0.0000000001
 43
0.0000000001
 40
0.0
 40
0.0
 40
0.0
 40
0.0
 40
1.0
 40
1.0
 40
1.0
 40
2.0
 40
2.0
 40
2.0
 40
3.0
 40
3.0
 40
3.0
 40
4.0
 40
4.0
 40
4.0
 40
5.0
 40
5.0
 40
5.0
 40
6.0
 40
6.0
 40
6.0
 40
7.0
 40
7.0
 40
7.0
 40
8.0
 40
8.0
 40
8.0
 40
9.0
 40
9.0
 40
9.0
 40
10.0
 40
10.0
 40
10.0
 40
11.0
 40
11.0
 40
11.0
 40
12.0
 40
12.0
 40
12.0
 40
13.0
 40
13.0
 40
13.0
 40
14.0
 40
14.0
 40
14.0
 40
15.0
 40
15.0
 40
15.0
 40
16.0
 40
16.0
 40
16.0
 40
16.0
 10
123.3774820655098
 20
-172.891427908166
 30
0.0
 10
123.3774820655098
 20
-172.9696315756812
 30
0.0
 10
123.3606010976321
 20
-173.071261892496
 30
0.0
 10
123.2972113407035
 20
-173.1728922093109
 30
0.0
 10
123.187312794724
 20
-173.346180512219
 30
0.0
 10
123.056054656736
 20
-173.3675401042275
 30
0.0
 10
122.9482231680476
 20
-173.3864881293964
 30
0.0
 10
122.9482231680476
 20
-173.3864881293964
 30
0.0
 10
122.9482231680476
 20
-173.1642794705978
 30
0.0
 10
122.9482231680476
 20
-173.1642794705978
 30
0.0
 10
123.1470051775466
 20
-173.1095024523823
 30
0.0
 10
123.1766329987197
 20
-172.9823784289766
 30
0.0
 10
123.1766329987197
 20
-172.8893608508748
 30
0.0
 10
123.1766329987197
 20
-172.7498344837222
 30
0.0
 10
123.077069739196
 20
-172.5975612632742
 30
0.0
 10
122.8445257939416
 20
-172.5975612632742
 30
0.0
 10
122.5885551993876
 20
-172.5975612632742
 30
0.0
 10
122.518619761037
 20
-172.7773952476042
 30
0.0
 10
122.518619761037
 20
-172.897973589588
 30
0.0
 10
122.518619761037
 20
-172.9296684680523
 30
0.0
 10
122.518619761037
 20
-173.071261892496
 30
0.0
 10
122.6478108417339
 20
-173.1601453560155
 30
0.0
 10
122.6478108417339
 20
-173.1601453560155
 30
0.0
 10
122.628862816565
 20
-173.3358452257633
 30
0.0
 10
122.628862816565
 20
-173.3358452257633
 30
0.0
 10
122.628862816565
 20
-173.3358452257633
 30
0.0
 10
121.7824028558391
 20
-173.2152668837795
 30
0.0
 10
121.7824028558391
 20
-173.2152668837795
 30
0.0
 10
121.7824028558391
 20
-173.2152668837795
 30
0.0
 10
121.7824028558391
 20
-172.436675304113
 30
0.0
 10
121.7824028558391
 20
-172.436675304113
 30
0.0
 10
121.7824028558391
 20
-172.436675304113
 30
0.0
 10
121.9770507507557
 20
-172.436675304113
 30
0.0
 10
121.9770507507557
 20
-172.436675304113
 30
0.0
 10
121.9770507507557
 20
-172.436675304113
 30
0.0
 10
121.9770507507557
 20
-173.0523138673272
 30
0.0
 10
121.9770507507557
 20
-173.0523138673272
 30
0.0
 10
121.9770507507557
 20
-173.0523138673272
 30
0.0
 10
122.4001084763444
 20
-173.1177706815469
 30
0.0
 10
122.4001084763444
 20
-173.1177706815469
 30
0.0
 10
122.3663465405889
 20
-173.0564479819095
 30
0.0
 10
122.3260389234115
 20
-172.974110199812
 30
0.0
 10
122.3260389234115
 20
-172.8555989151194
 30
0.0
 10
122.3260389234115
 20
-172.6016953778565
 30
0.0
 10
122.5124185891635
 20
-172.3646728084713
 30
0.0
 10
122.8255777687728
 20
-172.3646728084713
 30
0.0
 10
123.1428710629643
 20
-172.3646728084713
 30
0.0
 10
123.3774820655098
 20
-172.5889485245611
 30
0.0
 10
123.3774820655098
 20
-172.891427908166
 30
0.0
  0
HATCH
  5
DB
330
D4
100
AcDbEntity
  8
レイヤー 1
 62
   250
420
  2299925
440
 33554687
100
AcDbHatch
 10
0.0
 20
0.0
 30
0.0
210
0.0
220
0.0
230
1.0
  2
SOLID
 70
     1
 71
     1
 91
        1
 92
        1
 93
        1
 72
     4
 94
        3
 73
     0
 74
     0
 95
       53
 96
       49
 40
0.0
 40
0.0
 40
0.0
 40
0.0
 40
1.0
 40
1.0
 40
1.0
 40
2.0
 40
2.0
 40
2.0
 40
3.0
 40
3.0
 40
3.0
 40
4.0
 40
4.0
 40
4.0
 40
5.0
 40
5.0
 40
5.0
 40
6.0
 40
6.0
 40
6.0
 40
7.0
 40
7.0
 40
7.0
 40
8.0
 40
8.0
 40
8.0
 40
9.0
 40
9.0
 40
9.0
 40
10.0
 40
10.0
 40
10.0
 40
11.0
 40
11.0
 40
11.0
 40
12.0
 40
12.0
 40
12.0
 40
13.0
 40
13.0
 40
13.0
 40
14.0
 40
14.0
 40
14.0
 40
15.0
 40
15.0
 40
15.0
 40
16.0
 40
16.0
 40
16.0
 40
16.0
 10
123.3774820655098
 20
-172.891427908166
 10
123.3774820655098
 20
-172.9696315756812
 10
123.3606010976321
 20
-173.071261892496
 10
123.2972113407035
 20
-173.1728922093109
 10
123.187312794724
 20
-173.346180512219
 10
123.056054656736
 20
-173.3675401042275
 10
122.9482231680476
 20
-173.3864881293964
 10
122.9482231680476
 20
-173.3864881293964
 10
122.9482231680476
 20
-173.1642794705978
 10
122.9482231680476
 20
-173.1642794705978
 10
123.1470051775466
 20
-173.1095024523823
 10
123.1766329987197
 20
-172.9823784289766
 10
123.1766329987197
 20
-172.8893608508748
 10
123.1766329987197
 20
-172.7498344837222
 10
123.077069739196
 20
-172.5975612632742
 10
122.8445257939416
 20
-172.5975612632742
 10
122.5885551993876
 20
-172.5975612632742
 10
122.518619761037
 20
-172.7773952476042
 10
122.518619761037
 20
-172.897973589588
 10
122.518619761037
 20
-172.9296684680523
 10
122.518619761037
 20
-173.071261892496
 10
122.6478108417339
 20
-173.1601453560155
 10
122.6478108417339
 20
-173.1601453560155
 10
122.628862816565
 20
-173.3358452257633
 10
122.628862816565
 20
-173.3358452257633
 10
122.628862816565
 20
-173.3358452257633
 10
121.7824028558391
 20
-173.2152668837795
 10
121.7824028558391
 20
-173.2152668837795
 10
121.7824028558391
 20
-173.2152668837795
 10
121.7824028558391
 20
-172.436675304113
 10
121.7824028558391
 20
-172.436675304113
 10
121.7824028558391
 20
-172.436675304113
 10
121.9770507507557
 20
-172.436675304113
 10
121.9770507507557
 20
-172.436675304113
 10
121.9770507507557
 20
-172.436675304113
 10
121.9770507507557
 20
-173.0523138673272
 10
121.9770507507557
 20
-173.0523138673272
 10
121.9770507507557
 20
-173.0523138673272
 10
122.4001084763444
 20
-173.1177706815469
 10
122.4001084763444
 20
-173.1177706815469
 10
122.3663465405889
 20
-173.0564479819095
 10
122.3260389234115
 20
-172.974110199812
 10
122.3260389234115
 20
-172.8555989151194
 10
122.3260389234115
 20
-172.6016953778565
 10
122.5124185891635
 20
-172.3646728084713
 10
122.8255777687728
 20
-172.3646728084713
 10
123.1428710629643
 20
-172.3646728084713
 10
123.3774820655098
 20
-172.5889485245611
 10
123.3774820655098
 20
-172.891427908166
 97
        0
 97
        1
330
DA
 75
     2
 76
     1
 98
        1
 10
0.0
 20
0.0
450
        0
451
        0
460
0.0
461
0.0
452
        0
462
0.0
453
        0
470

  0
SPLINE
  5
DC
330
D4
100
AcDbEntity
  8
レイヤー 1
100
AcDbSpline
210
0.0
220
0.0
230
1.0
 70
    11
 71
     3
 72
    17
 73
    13
 74
     0
 42
0.0000000001
 43
0.0000000001
 40
0.0
 40
0.0
 40
0.0
 40
0.0
 40
1.0
 40
1.0
 40
1.0
 40
2.0
 40
2.0
 40
2.0
 40
3.0
 40
3.0
 40
3.0
 40
4.0
 40
4.0
 40
4.0
 40
4.0
 10
123.3268391618766
 20
-172.1355739587022
 30
0.0
 10
123.3268391618766
 20
-172.1355739587022
 30
0.0
 10
123.0750026819048
 20
-172.1355739587022
 30
0.0
 10
123.0750026819048
 20
-172.1355739587022
 30
0.0
 10
123.0750026819048
 20
-172.1355739587022
 30
0.0
 10
123.0750026819048
 20
-171.8837374787304
 30
0.0
 10
123.0750026819048
 20
-171.8837374787304
 30
0.0
 10
123.0750026819048
 20
-171.8837374787304
 30
0.0
 10
123.3268391618766
 20
-171.8837374787304
 30
0.0
 10
123.3268391618766
 20
-171.8837374787304
 30
0.0
 10
123.3268391618766
 20
-171.8837374787304
 30
0.0
 10
123.3268391618766
 20
-172.1355739587022
 30
0.0
 10
123.3268391618766
 20
-172.1355739587022
 30
0.0
  0
HATCH
  5
DD
330
D4
100
AcDbEntity
  8
レイヤー 1
 62
   250
420
  2299925
440
 33554687
100
AcDbHatch
 10
0.0
 20
0.0
 30
0.0
210
0.0
220
0.0
230
1.0
  2
SOLID
 70
     1
 71
     1
 91
        1
 92
        1
 93
        1
 72
     4
 94
        3
 73
     0
 74
     0
 95
       17
 96
       13
 40
0.0
 40
0.0
 40
0.0
 40
0.0
 40
1.0
 40
1.0
 40
1.0
 40
2.0
 40
2.0
 40
2.0
 40
3.0
 40
3.0
 40
3.0
 40
4.0
 40
4.0
 40
4.0
 40
4.0
 10
123.3268391618766
 20
-172.1355739587022
 10
123.3268391618766
 20
-172.1355739587022
 10
123.0750026819048
 20
-172.1355739587022
 10
123.0750026819048
 20
-172.1355739587022
 10
123.0750026819048
 20
-172.1355739587022
 10
123.0750026819048
 20
-171.8837374787304
 10
123.0750026819048
 20
-171.8837374787304
 10
123.0750026819048
 20
-171.8837374787304
 10
123.3268391618766
 20
-171.8837374787304
 10
123.3268391618766
 20
-171.8837374787304
 10
123.3268391618766
 20
-171.8837374787304
 10
123.3268391618766
 20
-172.1355739587022
 10
123.3268391618766
 20
-172.1355739587022
 97
        0
 97
        1
330
DC
 75
     2
 76
     1
 98
        1
 10
0.0
 20
0.0
450
        0
451
        0
460
0.0
461
0.0
452
        0
462
0.0
453
        0
470

  0
SPLINE
  5
DE
330
D4
100
AcDbEntity
  8
レイヤー 1
100
AcDbSpline
210
0.0
220
0.0
230
1.0
 70
     9
 71
     3
 72
    53
 73
    49
 74
     0
 42
0.0000000001
 43
0.0000000001
 40
0.0
 40
0.0
 40
0.0
 40
0.0
 40
1.0
 40
1.0
 40
1.0
 40
2.0
 40
2.0
 40
2.0
 40
3.0
 40
3.0
 40
3.0
 40
4.0
 40
4.0
 40
4.0
 40
5.0
 40
5.0
 40
5.0
 40
6.0
 40
6.0
 40
6.0
 40
7.0
 40
7.0
 40
7.0
 40
8.0
 40
8.0
 40
8.0
 40
9.0
 40
9.0
 40
9.0
 40
10.0
 40
10.0
 40
10.0
 40
11.0
 40
11.0
 40
11.0
 40
12.0
 40
12.0
 40
12.0
 40
13.0
 40
13.0
 40
13.0
 40
14.0
 40
14.0
 40
14.0
 40
15.0
 40
15.0
 40
15.0
 40
16.0
 40
16.0
 40
16.0
 40
16.0
 10
123.3774820655098
 20
-171.1664685987014
 30
0.0
 10
123.3774820655098
 20
-171.2446722662166
 30
0.0
 10
123.3606010976321
 20
-171.3463025830315
 30
0.0
 10
123.2972113407035
 20
-171.4479328998463
 30
0.0
 10
123.187312794724
 20
-171.6212212027544
 30
0.0
 10
123.056054656736
 20
-171.6425807947629
 30
0.0
 10
122.9482231680476
 20
-171.6615288199318
 30
0.0
 10
122.9482231680476
 20
-171.6615288199318
 30
0.0
 10
122.9482231680476
 20
-171.4393201611332
 30
0.0
 10
122.9482231680476
 20
-171.4393201611332
 30
0.0
 10
123.1470051775466
 20
-171.3845431429177
 30
0.0
 10
123.1766329987197
 20
-171.257419119512
 30
0.0
 10
123.1766329987197
 20
-171.1644015414103
 30
0.0
 10
123.1766329987197
 20
-171.0248751742577
 30
0.0
 10
123.077069739196
 20
-170.8726019538096
 30
0.0
 10
122.8445257939416
 20
-170.8726019538096
 30
0.0
 10
122.5885551993876
 20
-170.8726019538096
 30
0.0
 10
122.518619761037
 20
-171.0524359381397
 30
0.0
 10
122.518619761037
 20
-171.1730142801234
 30
0.0
 10
122.518619761037
 20
-171.2047091585877
 30
0.0
 10
122.518619761037
 20
-171.3463025830315
 30
0.0
 10
122.6478108417339
 20
-171.4351860465509
 30
0.0
 10
122.6478108417339
 20
-171.4351860465509
 30
0.0
 10
122.628862816565
 20
-171.6108859162987
 30
0.0
 10
122.628862816565
 20
-171.6108859162987
 30
0.0
 10
122.628862816565
 20
-171.6108859162987
 30
0.0
 10
121.7824028558391
 20
-171.4903075743149
 30
0.0
 10
121.7824028558391
 20
-171.4903075743149
 30
0.0
 10
121.7824028558391
 20
-171.4903075743149
 30
0.0
 10
121.7824028558391
 20
-170.7117159946484
 30
0.0
 10
121.7824028558391
 20
-170.7117159946484
 30
0.0
 10
121.7824028558391
 20
-170.7117159946484
 30
0.0
 10
121.9770507507557
 20
-170.7117159946484
 30
0.0
 10
121.9770507507557
 20
-170.7117159946484
 30
0.0
 10
121.9770507507557
 20
-170.7117159946484
 30
0.0
 10
121.9770507507557
 20
-171.3273545578626
 30
0.0
 10
121.9770507507557
 20
-171.3273545578626
 30
0.0
 10
121.9770507507557
 20
-171.3273545578626
 30
0.0
 10
122.4001084763444
 20
-171.3928113720823
 30
0.0
 10
122.4001084763444
 20
-171.3928113720823
 30
0.0
 10
122.3663465405889
 20
-171.3314886724449
 30
0.0
 10
122.3260389234115
 20
-171.2491508903474
 30
0.0
 10
122.3260389234115
 20
-171.1306396056548
 30
0.0
 10
122.3260389234115
 20
-170.8767360683919
 30
0.0
 10
122.5124185891635
 20
-170.6397134990067
 30
0.0
 10
122.8255777687728
 20
-170.6397134990067
 30
0.0
 10
123.1428710629643
 20
-170.6397134990067
 30
0.0
 10
123.3774820655098
 20
-170.8639892150965
 30
0.0
 10
123.3774820655098
 20
-171.1664685987014
 30
0.0
  0
HATCH
  5
DF
330
D4
100
AcDbEntity
  8
レイヤー 1
 62
   250
420
  2299925
440
 33554687
100
AcDbHatch
 10
0.0
 20
0.0
 30
0.0
210
0.0
220
0.0
230
1.0
  2
SOLID
 70
     1
 71
     1
 91
        1
 92
        1
 93
        1
 72
     4
 94
        3
 73
     0
 74
     0
 95
       53
 96
       49
 40
0.0
 40
0.0
 40
0.0
 40
0.0
 40
1.0
 40
1.0
 40
1.0
 40
2.0
 40
2.0
 40
2.0
 40
3.0
 40
3.0
 40
3.0
 40
4.0
 40
4.0
 40
4.0
 40
5.0
 40
5.0
 40
5.0
 40
6.0
 40
6.0
 40
6.0
 40
7.0
 40
7.0
 40
7.0
 40
8.0
 40
8.0
 40
8.0
 40
9.0
 40
9.0
 40
9.0
 40
10.0
 40
10.0
 40
10.0
 40
11.0
 40
11.0
 40
11.0
 40
12.0
 40
12.0
 40
12.0
 40
13.0
 40
13.0
 40
13.0
 40
14.0
 40
14.0
 40
14.0
 40
15.0
 40
15.0
 40
15.0
 40
16.0
 40
16.0
 40
16.0
 40
16.0
 10
123.3774820655098
 20
-171.1664685987014
 10
123.3774820655098
 20
-171.2446722662166
 10
123.3606010976321
 20
-171.3463025830315
 10
123.2972113407035
 20
-171.4479328998463
 10
123.187312794724
 20
-171.6212212027544
 10
123.056054656736
 20
-171.6425807947629
 10
122.9482231680476
 20
-171.6615288199318
 10
122.9482231680476
 20
-171.6615288199318
 10
122.9482231680476
 20
-171.4393201611332
 10
122.9482231680476
 20
-171.4393201611332
 10
123.1470051775466
 20
-171.3845431429177
 10
123.1766329987197
 20
-171.257419119512
 10
123.1766329987197
 20
-171.1644015414103
 10
123.1766329987197
 20
-171.0248751742577
 10
123.077069739196
 20
-170.8726019538096
 10
122.8445257939416
 20
-170.8726019538096
 10
122.5885551993876
 20
-170.8726019538096
 10
122.518619761037
 20
-171.0524359381397
 10
122.518619761037
 20
-171.1730142801234
 10
122.518619761037
 20
-171.2047091585877
 10
122.518619761037
 20
-171.3463025830315
 10
122.6478108417339
 20
-171.4351860465509
 10
122.6478108417339
 20
-171.4351860465509
 10
122.628862816565
 20
-171.6108859162987
 10
122.628862816565
 20
-171.6108859162987
 10
122.628862816565
 20
-171.6108859162987
 10
121.7824028558391
 20
-171.4903075743149
 10
121.7824028558391
 20
-171.4903075743149
 10
121.7824028558391
 20
-171.4903075743149
 10
121.7824028558391
 20
-170.7117159946484
 10
121.7824028558391
 20
-170.7117159946484
 10
121.7824028558391
 20
-170.7117159946484
 10
121.9770507507557
 20
-170.7117159946484
 10
121.9770507507557
 20
-170.7117159946484
 10
121.9770507507557
 20
-170.7117159946484
 10
121.9770507507557
 20
-171.3273545578626
 10
121.9770507507557
 20
-171.3273545578626
 10
121.9770507507557
 20
-171.3273545578626
 10
122.4001084763444
 20
-171.3928113720823
 10
122.4001084763444
 20
-171.3928113720823
 10
122.3663465405889
 20
-171.3314886724449
 10
122.3260389234115
 20
-171.2491508903474
 10
122.3260389234115
 20
-171.1306396056548
 10
122.3260389234115
 20
-170.8767360683919
 10
122.5124185891635
 20
-170.6397134990067
 10
122.8255777687728
 20
-170.6397134990067
 10
123.1428710629643
 20
-170.6397134990067
 10
123.3774820655098
 20
-170.8639892150965
 10
123.3774820655098
 20
-171.1664685987014
 97
        0
 97
        1
330
DE
 75
     2
 76
     1
 98
        1
 10
0.0
 20
0.0
450
        0
451
        0
460
0.0
461
0.0
452
        0
462
0.0
453
        0
470

  0
ENDBLK
  5
D7
330
D4
100
AcDbEntity
  8
0
100
AcDbBlockEnd
  0
BLOCK
  5
E2
330
E0
100
AcDbEntity
  8
0
100
AcDbBlockBegin
  2
Block_8
 70
     0
 10
0.0
 20
0.0
 30
0.0
  3
Block_8
  1

  0
SPLINE
  5
E4
330
E0
100
AcDbEntity
  8
レイヤー 1
100
AcDbSpline
210
0.0
220
0.0
230
1.0
 70
     9
 71
     3
 72
    62
 73
    58
 74
     0
 42
0.0000000001
 43
0.0000000001
 40
0.0
 40
0.0
 40
0.0
 40
0.0
 40
1.0
 40
1.0
 40
1.0
 40
2.0
 40
2.0
 40
2.0
 40
3.0
 40
3.0
 40
3.0
 40
4.0
 40
4.0
 40
4.0
 40
5.0
 40
5.0
 40
5.0
 40
6.0
 40
6.0
 40
6.0
 40
7.0
 40
7.0
 40
7.0
 40
8.0
 40
8.0
 40
8.0
 40
9.0
 40
9.0
 40
9.0
 40
10.0
 40
10.0
 40
10.0
 40
11.0
 40
11.0
 40
11.0
 40
12.0
 40
12.0
 40
12.0
 40
13.0
 40
13.0
 40
13.0
 40
14.0
 40
14.0
 40
14.0
 40
15.0
 40
15.0
 40
15.0
 40
16.0
 40
16.0
 40
16.0
 40
17.0
 40
17.0
 40
17.0
 40
18.0
 40
18.0
 40
18.0
 40
19.0
 40
19.0
 40
19.0
 40
19.0
 10
123.3774820655098
 20
-182.957307896969
 30
0.0
 10
123.3774820655098
 20
-183.0527370419104
 30
0.0
 10
123.3564669830498
 20
-183.2704670765782
 30
0.0
 10
123.1704318268463
 20
-183.3955240426928
 30
0.0
 10
123.0581217140271
 20
-183.4692490860771
 30
0.0
 10
122.9589029640519
 20
-183.4737277102079
 30
0.0
 10
122.8741536151148
 20
-183.4778618247902
 30
0.0
 10
122.8741536151148
 20
-183.4778618247902
 30
0.0
 10
122.8741536151148
 20
-183.2577202232828
 30
0.0
 10
122.8741536151148
 20
-183.2577202232828
 30
0.0
 10
122.9482231680476
 20
-183.2556531659916
 30
0.0
 10
123.1828341705932
 20
-183.2453178795359
 30
0.0
 10
123.1828341705932
 20
-182.9617865210998
 30
0.0
 10
123.1828341705932
 20
-182.8243272112383
 30
0.0
 10
123.1132432417911
 20
-182.6717094812418
 30
0.0
 10
122.8848334111191
 20
-182.6717094812418
 30
0.0
 10
122.7683891837176
 20
-182.6717094812418
 30
0.0
 10
122.7198133373756
 20
-182.7099500411281
 30
0.0
 10
122.6881184589113
 20
-182.7416449195924
 30
0.0
 10
122.6140489059784
 20
-182.8157144725252
 30
0.0
 10
122.601302052683
 20
-182.9321586999267
 30
0.0
 10
122.601302052683
 20
-182.9869357181421
 30
0.0
 10
122.601302052683
 20
-183.0062282528595
 30
0.0
 10
122.6033691099742
 20
-183.0420572459061
 30
0.0
 10
122.6075032245564
 20
-183.0696180097882
 30
0.0
 10
122.6075032245564
 20
-183.0696180097882
 30
0.0
 10
122.4128553296398
 20
-183.0696180097882
 30
0.0
 10
122.4128553296398
 20
-183.0696180097882
 30
0.0
 10
122.4194010110618
 20
-183.0313774499019
 30
0.0
 10
122.4214680683529
 20
-182.9893472849818
 30
0.0
 10
122.4214680683529
 20
-182.9828016035598
 30
0.0
 10
122.4214680683529
 20
-182.9173447893401
 30
0.0
 10
122.4001084763444
 20
-182.7185627798412
 30
0.0
 10
122.1634304165077
 20
-182.7185627798412
 30
0.0
 10
121.9856634894688
 20
-182.7185627798412
 30
0.0
 10
121.9305419617048
 20
-182.8494764082807
 30
0.0
 10
121.9305419617048
 20
-182.9597194638087
 30
0.0
 10
121.9305419617048
 20
-183.2239582875273
 30
0.0
 10
122.1634304165077
 20
-183.2325710262404
 30
0.0
 10
122.2350884026009
 20
-183.2367051408228
 30
0.0
 10
122.2350884026009
 20
-183.2367051408228
 30
0.0
 10
122.2350884026009
 20
-183.4399657744525
 30
0.0
 10
122.2350884026009
 20
-183.4399657744525
 30
0.0
 10
122.1103759460349
 20
-183.4313530357394
 30
0.0
 10
121.7338270094971
 20
-183.4037922718574
 30
0.0
 10
121.7338270094971
 20
-182.9469726105132
 30
0.0
 10
121.7338270094971
 20
-182.7226968944235
 30
0.0
 10
121.8609510329028
 20
-182.481540210456
 30
0.0
 10
122.1568847350858
 20
-182.481540210456
 30
0.0
 10
122.3432644008378
 20
-182.481540210456
 30
0.0
 10
122.4256021829353
 20
-182.5766248458489
 30
0.0
 10
122.4869248825727
 20
-182.6761881053726
 30
0.0
 10
122.5144856464547
 20
-182.6148654057351
 30
0.0
 10
122.594756371261
 20
-182.432964364114
 30
0.0
 10
122.8720865578236
 20
-182.432964364114
 30
0.0
 10
123.2103949344752
 20
-182.432964364114
 30
0.0
 10
123.3774820655098
 20
-182.6803222199549
 30
0.0
 10
123.3774820655098
 20
-182.957307896969
 30
0.0
  0
HATCH
  5
E5
330
E0
100
AcDbEntity
  8
レイヤー 1
 62
   250
420
  2299925
440
 33554687
100
AcDbHatch
 10
0.0
 20
0.0
 30
0.0
210
0.0
220
0.0
230
1.0
  2
SOLID
 70
     1
 71
     1
 91
        1
 92
        1
 93
        1
 72
     4
 94
        3
 73
     0
 74
     0
 95
       62
 96
       58
 40
0.0
 40
0.0
 40
0.0
 40
0.0
 40
1.0
 40
1.0
 40
1.0
 40
2.0
 40
2.0
 40
2.0
 40
3.0
 40
3.0
 40
3.0
 40
4.0
 40
4.0
 40
4.0
 40
5.0
 40
5.0
 40
5.0
 40
6.0
 40
6.0
 40
6.0
 40
7.0
 40
7.0
 40
7.0
 40
8.0
 40
8.0
 40
8.0
 40
9.0
 40
9.0
 40
9.0
 40
10.0
 40
10.0
 40
10.0
 40
11.0
 40
11.0
 40
11.0
 40
12.0
 40
12.0
 40
12.0
 40
13.0
 40
13.0
 40
13.0
 40
14.0
 40
14.0
 40
14.0
 40
15.0
 40
15.0
 40
15.0
 40
16.0
 40
16.0
 40
16.0
 40
17.0
 40
17.0
 40
17.0
 40
18.0
 40
18.0
 40
18.0
 40
19.0
 40
19.0
 40
19.0
 40
19.0
 10
123.3774820655098
 20
-182.957307896969
 10
123.3774820655098
 20
-183.0527370419104
 10
123.3564669830498
 20
-183.2704670765782
 10
123.1704318268463
 20
-183.3955240426928
 10
123.0581217140271
 20
-183.4692490860771
 10
122.9589029640519
 20
-183.4737277102079
 10
122.8741536151148
 20
-183.4778618247902
 10
122.8741536151148
 20
-183.4778618247902
 10
122.8741536151148
 20
-183.2577202232828
 10
122.8741536151148
 20
-183.2577202232828
 10
122.9482231680476
 20
-183.2556531659916
 10
123.1828341705932
 20
-183.2453178795359
 10
123.1828341705932
 20
-182.9617865210998
 10
123.1828341705932
 20
-182.8243272112383
 10
123.1132432417911
 20
-182.6717094812418
 10
122.8848334111191
 20
-182.6717094812418
 10
122.7683891837176
 20
-182.6717094812418
 10
122.7198133373756
 20
-182.7099500411281
 10
122.6881184589113
 20
-182.7416449195924
 10
122.6140489059784
 20
-182.8157144725252
 10
122.601302052683
 20
-182.9321586999267
 10
122.601302052683
 20
-182.9869357181421
 10
122.601302052683
 20
-183.0062282528595
 10
122.6033691099742
 20
-183.0420572459061
 10
122.6075032245564
 20
-183.0696180097882
 10
122.6075032245564
 20
-183.0696180097882
 10
122.4128553296398
 20
-183.0696180097882
 10
122.4128553296398
 20
-183.0696180097882
 10
122.4194010110618
 20
-183.0313774499019
 10
122.4214680683529
 20
-182.9893472849818
 10
122.4214680683529
 20
-182.9828016035598
 10
122.4214680683529
 20
-182.9173447893401
 10
122.4001084763444
 20
-182.7185627798412
 10
122.1634304165077
 20
-182.7185627798412
 10
121.9856634894688
 20
-182.7185627798412
 10
121.9305419617048
 20
-182.8494764082807
 10
121.9305419617048
 20
-182.9597194638087
 10
121.9305419617048
 20
-183.2239582875273
 10
122.1634304165077
 20
-183.2325710262404
 10
122.2350884026009
 20
-183.2367051408228
 10
122.2350884026009
 20
-183.2367051408228
 10
122.2350884026009
 20
-183.4399657744525
 10
122.2350884026009
 20
-183.4399657744525
 10
122.1103759460349
 20
-183.4313530357394
 10
121.7338270094971
 20
-183.4037922718574
 10
121.7338270094971
 20
-182.9469726105132
 10
121.7338270094971
 20
-182.7226968944235
 10
121.8609510329028
 20
-182.481540210456
 10
122.1568847350858
 20
-182.481540210456
 10
122.3432644008378
 20
-182.481540210456
 10
122.4256021829353
 20
-182.5766248458489
 10
122.4869248825727
 20
-182.6761881053726
 10
122.5144856464547
 20
-182.6148654057351
 10
122.594756371261
 20
-182.432964364114
 10
122.8720865578236
 20
-182.432964364114
 10
123.2103949344752
 20
-182.432964364114
 10
123.3774820655098
 20
-182.6803222199549
 10
123.3774820655098
 20
-182.957307896969
 97
        0
 97
        1
330
E4
 75
     2
 76
     1
 98
        1
 10
0.0
 20
0.0
450
        0
451
        0
460
0.0
461
0.0
452
        0
462
0.0
453
        0
470

  0
ENDBLK
  5
E3
330
E0
100
AcDbEntity
  8
0
100
AcDbBlockEnd
  0
BLOCK
  5
E8
330
E6
100
AcDbEntity
  8
0
100
AcDbBlockBegin
  2
Block_9
 70
     0
 10
0.0
 20
0.0
 30
0.0
  3
Block_9
  1

  0
INSERT
  5
EB
330
E6
100
AcDbEntity
  8
レイヤー 1
100
AcDbBlockReference
  2
Block_10
 10
0.0
 20
0.0
 30
0.0
  0
ENDBLK
  5
E9
330
E6
100
AcDbEntity
  8
0
100
AcDbBlockEnd
  0
BLOCK
  5
EC
330
EA
100
AcDbEntity
  8
0
100
AcDbBlockBegin
  2
Block_10
 70
     0
 10
0.0
 20
0.0
 30
0.0
  3
Block_10
  1

  0
SPLINE
  5
EE
330
EA
100
AcDbEntity
  8
レイヤー 1
100
AcDbSpline
210
0.0
220
0.0
230
1.0
 70
     9
 71
     3
 72
    44
 73
    40
 74
     0
 42
0.0000000001
 43
0.0000000001
 40
0.0
 40
0.0
 40
0.0
 40
0.0
 40
1.0
 40
1.0
 40
1.0
 40
2.0
 40
2.0
 40
2.0
 40
3.0
 40
3.0
 40
3.0
 40
4.0
 40
4.0
 40
4.0
 40
5.0
 40
5.0
 40
5.0
 40
6.0
 40
6.0
 40
6.0
 40
7.0
 40
7.0
 40
7.0
 40
8.0
 40
8.0
 40
8.0
 40
9.0
 40
9.0
 40
9.0
 40
10.0
 40
10.0
 40
10.0
 40
11.0
 40
11.0
 40
11.0
 40
12.0
 40
12.0
 40
12.0
 40
13.0
 40
13.0
 40
13.0
 40
13.0
 10
87.3927707029782
 20
-173.339634830797
 30
0.0
 10
87.55158960484822
 20
-173.5573648654648
 30
0.0
 10
87.62565915778109
 20
-173.6503824435665
 30
0.0
 10
87.76931963951602
 20
-173.6993027994571
 30
0.0
 10
87.76931963951602
 20
-173.6993027994571
 30
0.0
 10
87.76931963951602
 20
-172.9207112197906
 30
0.0
 10
87.76931963951602
 20
-172.9207112197906
 30
0.0
 10
87.76931963951602
 20
-172.9207112197906
 30
0.0
 10
87.97464733043689
 20
-172.9207112197906
 30
0.0
 10
87.97464733043689
 20
-172.9207112197906
 30
0.0
 10
87.97464733043689
 20
-172.9207112197906
 30
0.0
 10
87.97464733043689
 20
-173.9487277125892
 30
0.0
 10
87.97464733043689
 20
-173.9487277125892
 30
0.0
 10
87.61704641906796
 20
-173.9170328341249
 30
0.0
 10
87.53884275155279
 20
-173.8515760199051
 30
0.0
 10
87.24049748253015
 20
-173.4664143446542
 30
0.0
 10
87.04171547303124
 20
-173.2104437501002
 30
0.0
 10
86.97384709197182
 20
-173.1449869358804
 30
0.0
 10
86.83638778211035
 20
-173.1449869358804
 30
0.0
 10
86.71787649741776
 20
-173.1449869358804
 30
0.0
 10
86.58696286897827
 20
-173.2169894315221
 30
0.0
 10
86.58696286897827
 20
-173.4137043837299
 30
0.0
 10
86.58696286897827
 20
-173.6738090928662
 30
0.0
 10
86.81743975694148
 20
-173.6824218315794
 30
0.0
 10
86.93388398434292
 20
-173.6865559461617
 30
0.0
 10
86.93388398434292
 20
-173.6865559461617
 30
0.0
 10
86.93388398434292
 20
-173.9108316622514
 30
0.0
 10
86.93388398434292
 20
-173.9108316622514
 30
0.0
 10
86.8067599609372
 20
-173.9022189235383
 30
0.0
 10
86.69479435766659
 20
-173.891539127534
 30
0.0
 10
86.57628307297398
 20
-173.8112684027277
 30
0.0
 10
86.41539711381282
 20
-173.7013698567482
 30
0.0
 10
86.38163517805738
 20
-173.5149901909962
 30
0.0
 10
86.38163517805738
 20
-173.3988904731433
 30
0.0
 10
86.38163517805738
 20
-173.1215602865807
 30
0.0
 10
86.5656032769697
 20
-172.9141655383687
 30
0.0
 10
86.83845483940151
 20
-172.9141655383687
 30
0.0
 10
87.0672091796221
 20
-172.9141655383687
 30
0.0
 10
87.1664279295973
 20
-173.0306097657701
 30
0.0
 10
87.3927707029782
 20
-173.339634830797
 30
0.0
  0
HATCH
  5
EF
330
EA
100
AcDbEntity
  8
レイヤー 1
 62
   250
420
  2299925
440
 33554687
100
AcDbHatch
 10
0.0
 20
0.0
 30
0.0
210
0.0
220
0.0
230
1.0
  2
SOLID
 70
     1
 71
     1
 91
        1
 92
        1
 93
        1
 72
     4
 94
        3
 73
     0
 74
     0
 95
       44
 96
       40
 40
0.0
 40
0.0
 40
0.0
 40
0.0
 40
1.0
 40
1.0
 40
1.0
 40
2.0
 40
2.0
 40
2.0
 40
3.0
 40
3.0
 40
3.0
 40
4.0
 40
4.0
 40
4.0
 40
5.0
 40
5.0
 40
5.0
 40
6.0
 40
6.0
 40
6.0
 40
7.0
 40
7.0
 40
7.0
 40
8.0
 40
8.0
 40
8.0
 40
9.0
 40
9.0
 40
9.0
 40
10.0
 40
10.0
 40
10.0
 40
11.0
 40
11.0
 40
11.0
 40
12.0
 40
12.0
 40
12.0
 40
13.0
 40
13.0
 40
13.0
 40
13.0
 10
87.3927707029782
 20
-173.339634830797
 10
87.55158960484822
 20
-173.5573648654648
 10
87.62565915778109
 20
-173.6503824435665
 10
87.76931963951602
 20
-173.6993027994571
 10
87.76931963951602
 20
-173.6993027994571
 10
87.76931963951602
 20
-172.9207112197906
 10
87.76931963951602
 20
-172.9207112197906
 10
87.76931963951602
 20
-172.9207112197906
 10
87.97464733043689
 20
-172.9207112197906
 10
87.97464733043689
 20
-172.9207112197906
 10
87.97464733043689
 20
-172.9207112197906
 10
87.97464733043689
 20
-173.9487277125892
 10
87.97464733043689
 20
-173.9487277125892
 10
87.61704641906796
 20
-173.9170328341249
 10
87.53884275155279
 20
-173.8515760199051
 10
87.24049748253015
 20
-173.4664143446542
 10
87.04171547303124
 20
-173.2104437501002
 10
86.97384709197182
 20
-173.1449869358804
 10
86.83638778211035
 20
-173.1449869358804
 10
86.71787649741776
 20
-173.1449869358804
 10
86.58696286897827
 20
-173.2169894315221
 10
86.58696286897827
 20
-173.4137043837299
 10
86.58696286897827
 20
-173.6738090928662
 10
86.81743975694148
 20
-173.6824218315794
 10
86.93388398434292
 20
-173.6865559461617
 10
86.93388398434292
 20
-173.6865559461617
 10
86.93388398434292
 20
-173.9108316622514
 10
86.93388398434292
 20
-173.9108316622514
 10
86.8067599609372
 20
-173.9022189235383
 10
86.69479435766659
 20
-173.891539127534
 10
86.57628307297398
 20
-173.8112684027277
 10
86.41539711381282
 20
-173.7013698567482
 10
86.38163517805738
 20
-173.5149901909962
 10
86.38163517805738
 20
-173.3988904731433
 10
86.38163517805738
 20
-173.1215602865807
 10
86.5656032769697
 20
-172.9141655383687
 10
86.83845483940151
 20
-172.9141655383687
 10
87.0672091796221
 20
-172.9141655383687
 10
87.1664279295973
 20
-173.0306097657701
 10
87.3927707029782
 20
-173.339634830797
 97
        0
 97
        1
330
EE
 75
     2
 76
     1
 98
        1
 10
0.0
 20
0.0
450
        0
451
        0
460
0.0
461
0.0
452
        0
462
0.0
453
        0
470

  0
SPLINE
  5
F0
330
EA
100
AcDbEntity
  8
レイヤー 1
100
AcDbSpline
210
0.0
220
0.0
230
1.0
 70
     9
 71
     3
 72
    53
 73
    49
 74
     0
 42
0.0000000001
 43
0.0000000001
 40
0.0
 40
0.0
 40
0.0
 40
0.0
 40
1.0
 40
1.0
 40
1.0
 40
2.0
 40
2.0
 40
2.0
 40
3.0
 40
3.0
 40
3.0
 40
4.0
 40
4.0
 40
4.0
 40
5.0
 40
5.0
 40
5.0
 40
6.0
 40
6.0
 40
6.0
 40
7.0
 40
7.0
 40
7.0
 40
8.0
 40
8.0
 40
8.0
 40
9.0
 40
9.0
 40
9.0
 40
10.0
 40
10.0
 40
10.0
 40
11.0
 40
11.0
 40
11.0
 40
12.0
 40
12.0
 40
12.0
 40
13.0
 40
13.0
 40
13.0
 40
14.0
 40
14.0
 40
14.0
 40
15.0
 40
15.0
 40
15.0
 40
16.0
 40
16.0
 40
16.0
 40
16.0
 10
88.02529023407007
 20
-172.2747558163063
 30
0.0
 10
88.02529023407007
 20
-172.3529594838215
 30
0.0
 10
88.00840926619235
 20
-172.4545898006363
 30
0.0
 10
87.94501950926374
 20
-172.5562201174512
 30
0.0
 10
87.83512096328427
 20
-172.7295084203593
 30
0.0
 10
87.70386282529626
 20
-172.7508680123678
 30
0.0
 10
87.59603133660794
 20
-172.7698160375367
 30
0.0
 10
87.59603133660794
 20
-172.7698160375367
 30
0.0
 10
87.59603133660794
 20
-172.5476073787381
 30
0.0
 10
87.59603133660794
 20
-172.5476073787381
 30
0.0
 10
87.79481334610684
 20
-172.4928303605226
 30
0.0
 10
87.82444116727999
 20
-172.3657063371169
 30
0.0
 10
87.82444116727999
 20
-172.2726887590152
 30
0.0
 10
87.82444116727999
 20
-172.1331623918625
 30
0.0
 10
87.72487790775628
 20
-171.9808891714145
 30
0.0
 10
87.49233396250192
 20
-171.9808891714145
 30
0.0
 10
87.23636336794786
 20
-171.9808891714145
 30
0.0
 10
87.1664279295973
 20
-172.1607231557445
 30
0.0
 10
87.1664279295973
 20
-172.2813014977283
 30
0.0
 10
87.1664279295973
 20
-172.3129963761926
 30
0.0
 10
87.1664279295973
 20
-172.4545898006363
 30
0.0
 10
87.29561901029416
 20
-172.5434732641558
 30
0.0
 10
87.29561901029416
 20
-172.5434732641558
 30
0.0
 10
87.27667098512528
 20
-172.7191731339035
 30
0.0
 10
87.27667098512528
 20
-172.7191731339035
 30
0.0
 10
87.27667098512528
 20
-172.7191731339035
 30
0.0
 10
86.4302110243994
 20
-172.5985947919198
 30
0.0
 10
86.4302110243994
 20
-172.5985947919198
 30
0.0
 10
86.4302110243994
 20
-172.5985947919198
 30
0.0
 10
86.4302110243994
 20
-171.8200032122533
 30
0.0
 10
86.4302110243994
 20
-171.8200032122533
 30
0.0
 10
86.4302110243994
 20
-171.8200032122533
 30
0.0
 10
86.624858919316
 20
-171.8200032122533
 30
0.0
 10
86.624858919316
 20
-171.8200032122533
 30
0.0
 10
86.624858919316
 20
-171.8200032122533
 30
0.0
 10
86.624858919316
 20
-172.4356417754675
 30
0.0
 10
86.624858919316
 20
-172.4356417754675
 30
0.0
 10
86.624858919316
 20
-172.4356417754675
 30
0.0
 10
87.04791664490469
 20
-172.5010985896872
 30
0.0
 10
87.04791664490469
 20
-172.5010985896872
 30
0.0
 10
87.01415470914923
 20
-172.4397758900498
 30
0.0
 10
86.97384709197182
 20
-172.3574381079523
 30
0.0
 10
86.97384709197182
 20
-172.2389268232597
 30
0.0
 10
86.97384709197182
 20
-171.9850232859968
 30
0.0
 10
87.16022675772384
 20
-171.7480007166116
 30
0.0
 10
87.47338593733305
 20
-171.7480007166116
 30
0.0
 10
87.79067923152455
 20
-171.7480007166116
 30
0.0
 10
88.02529023407007
 20
-171.9722764327014
 30
0.0
 10
88.02529023407007
 20
-172.2747558163063
 30
0.0
  0
HATCH
  5
F1
330
EA
100
AcDbEntity
  8
レイヤー 1
 62
   250
420
  2299925
440
 33554687
100
AcDbHatch
 10
0.0
 20
0.0
 30
0.0
210
0.0
220
0.0
230
1.0
  2
SOLID
 70
     1
 71
     1
 91
        1
 92
        1
 93
        1
 72
     4
 94
        3
 73
     0
 74
     0
 95
       53
 96
       49
 40
0.0
 40
0.0
 40
0.0
 40
0.0
 40
1.0
 40
1.0
 40
1.0
 40
2.0
 40
2.0
 40
2.0
 40
3.0
 40
3.0
 40
3.0
 40
4.0
 40
4.0
 40
4.0
 40
5.0
 40
5.0
 40
5.0
 40
6.0
 40
6.0
 40
6.0
 40
7.0
 40
7.0
 40
7.0
 40
8.0
 40
8.0
 40
8.0
 40
9.0
 40
9.0
 40
9.0
 40
10.0
 40
10.0
 40
10.0
 40
11.0
 40
11.0
 40
11.0
 40
12.0
 40
12.0
 40
12.0
 40
13.0
 40
13.0
 40
13.0
 40
14.0
 40
14.0
 40
14.0
 40
15.0
 40
15.0
 40
15.0
 40
16.0
 40
16.0
 40
16.0
 40
16.0
 10
88.02529023407007
 20
-172.2747558163063
 10
88.02529023407007
 20
-172.3529594838215
 10
88.00840926619235
 20
-172.4545898006363
 10
87.94501950926374
 20
-172.5562201174512
 10
87.83512096328427
 20
-172.7295084203593
 10
87.70386282529626
 20
-172.7508680123678
 10
87.59603133660794
 20
-172.7698160375367
 10
87.59603133660794
 20
-172.7698160375367
 10
87.59603133660794
 20
-172.5476073787381
 10
87.59603133660794
 20
-172.5476073787381
 10
87.79481334610684
 20
-172.4928303605226
 10
87.82444116727999
 20
-172.3657063371169
 10
87.82444116727999
 20
-172.2726887590152
 10
87.82444116727999
 20
-172.1331623918625
 10
87.72487790775628
 20
-171.9808891714145
 10
87.49233396250192
 20
-171.9808891714145
 10
87.23636336794786
 20
-171.9808891714145
 10
87.1664279295973
 20
-172.1607231557445
 10
87.1664279295973
 20
-172.2813014977283
 10
87.1664279295973
 20
-172.3129963761926
 10
87.1664279295973
 20
-172.4545898006363
 10
87.29561901029416
 20
-172.5434732641558
 10
87.29561901029416
 20
-172.5434732641558
 10
87.27667098512528
 20
-172.7191731339035
 10
87.27667098512528
 20
-172.7191731339035
 10
87.27667098512528
 20
-172.7191731339035
 10
86.4302110243994
 20
-172.5985947919198
 10
86.4302110243994
 20
-172.5985947919198
 10
86.4302110243994
 20
-172.5985947919198
 10
86.4302110243994
 20
-171.8200032122533
 10
86.4302110243994
 20
-171.8200032122533
 10
86.4302110243994
 20
-171.8200032122533
 10
86.624858919316
 20
-171.8200032122533
 10
86.624858919316
 20
-171.8200032122533
 10
86.624858919316
 20
-171.8200032122533
 10
86.624858919316
 20
-172.4356417754675
 10
86.624858919316
 20
-172.4356417754675
 10
86.624858919316
 20
-172.4356417754675
 10
87.04791664490469
 20
-172.5010985896872
 10
87.04791664490469
 20
-172.5010985896872
 10
87.01415470914923
 20
-172.4397758900498
 10
86.97384709197182
 20
-172.3574381079523
 10
86.97384709197182
 20
-172.2389268232597
 10
86.97384709197182
 20
-171.9850232859968
 10
87.16022675772384
 20
-171.7480007166116
 10
87.47338593733305
 20
-171.7480007166116
 10
87.79067923152455
 20
-171.7480007166116
 10
88.02529023407007
 20
-171.9722764327014
 10
88.02529023407007
 20
-172.2747558163063
 97
        0
 97
        1
330
F0
 75
     2
 76
     1
 98
        1
 10
0.0
 20
0.0
450
        0
451
        0
460
0.0
461
0.0
452
        0
462
0.0
453
        0
470

  0
ENDBLK
  5
ED
330
EA
100
AcDbEntity
  8
0
100
AcDbBlockEnd
  0
BLOCK
  5
F4
330
F2
100
AcDbEntity
  8
0
100
AcDbBlockBegin
  2
Block_11
 70
     0
 10
0.0
 20
0.0
 30
0.0
  3
Block_11
  1

  0
SPLINE
  5
F6
330
F2
100
AcDbEntity
  8
レイヤー 1
100
AcDbSpline
210
0.0
220
0.0
230
1.0
 70
     9
 71
     3
 72
    62
 73
    58
 74
     0
 42
0.0000000001
 43
0.0000000001
 40
0.0
 40
0.0
 40
0.0
 40
0.0
 40
1.0
 40
1.0
 40
1.0
 40
2.0
 40
2.0
 40
2.0
 40
3.0
 40
3.0
 40
3.0
 40
4.0
 40
4.0
 40
4.0
 40
5.0
 40
5.0
 40
5.0
 40
6.0
 40
6.0
 40
6.0
 40
7.0
 40
7.0
 40
7.0
 40
8.0
 40
8.0
 40
8.0
 40
9.0
 40
9.0
 40
9.0
 40
10.0
 40
10.0
 40
10.0
 40
11.0
 40
11.0
 40
11.0
 40
12.0
 40
12.0
 40
12.0
 40
13.0
 40
13.0
 40
13.0
 40
14.0
 40
14.0
 40
14.0
 40
15.0
 40
15.0
 40
15.0
 40
16.0
 40
16.0
 40
16.0
 40
17.0
 40
17.0
 40
17.0
 40
18.0
 40
18.0
 40
18.0
 40
19.0
 40
19.0
 40
19.0
 40
19.0
 10
94.11587454244324
 20
-154.9976019577784
 30
0.0
 10
94.02044539750184
 20
-154.9976019577784
 30
0.0
 10
93.80271536283405
 20
-154.9762423657698
 30
0.0
 10
93.67765839671948
 20
-154.7902072095663
 30
0.0
 10
93.60393335333514
 20
-154.6778970967472
 30
0.0
 10
93.59945472920431
 20
-154.578678346772
 30
0.0
 10
93.59532061462202
 20
-154.4939289978348
 30
0.0
 10
93.59532061462202
 20
-154.4939289978348
 30
0.0
 10
93.81546221612948
 20
-154.4939289978348
 30
0.0
 10
93.81546221612948
 20
-154.4939289978348
 30
0.0
 10
93.81752927342061
 20
-154.5679985507677
 30
0.0
 10
93.82786455987638
 20
-154.8029540628617
 30
0.0
 10
94.11139591831243
 20
-154.8029540628617
 30
0.0
 10
94.24885522817389
 20
-154.8029540628617
 30
0.0
 10
94.40147295817046
 20
-154.7330186245112
 30
0.0
 10
94.40147295817046
 20
-154.5046087938391
 30
0.0
 10
94.40147295817046
 20
-154.3881645664377
 30
0.0
 10
94.3632323982842
 20
-154.3395887200956
 30
0.0
 10
94.3315375198199
 20
-154.3078938416313
 30
0.0
 10
94.25746796688702
 20
-154.2338242886985
 30
0.0
 10
94.14102373948557
 20
-154.221077435403
 30
0.0
 10
94.08624672127011
 20
-154.221077435403
 30
0.0
 10
94.06695418655271
 20
-154.221077435403
 30
0.0
 10
94.03112519350612
 20
-154.2231444926942
 30
0.0
 10
94.00356442962412
 20
-154.2272786072765
 30
0.0
 10
94.00356442962412
 20
-154.2272786072765
 30
0.0
 10
94.00356442962412
 20
-154.0326307123599
 30
0.0
 10
94.00356442962412
 20
-154.0326307123599
 30
0.0
 10
94.04180498951038
 20
-154.0391763937819
 30
0.0
 10
94.08383515443043
 20
-154.041243451073
 30
0.0
 10
94.09038083585242
 20
-154.041243451073
 30
0.0
 10
94.15583765007216
 20
-154.041243451073
 30
0.0
 10
94.35461965957108
 20
-154.020228368613
 30
0.0
 10
94.35461965957108
 20
-153.7832057992278
 30
0.0
 10
94.35461965957108
 20
-153.6054388721889
 30
0.0
 10
94.22370603113158
 20
-153.5503173444249
 30
0.0
 10
94.11346297560358
 20
-153.5503173444249
 30
0.0
 10
93.84922415188492
 20
-153.5503173444249
 30
0.0
 10
93.84061141317181
 20
-153.7832057992278
 30
0.0
 10
93.8364772985895
 20
-153.8552082948695
 30
0.0
 10
93.8364772985895
 20
-153.8552082948695
 30
0.0
 10
93.63321666495975
 20
-153.8552082948695
 30
0.0
 10
93.63321666495975
 20
-153.8552082948695
 30
0.0
 10
93.64182940367289
 20
-153.730151328755
 30
0.0
 10
93.66939016755488
 20
-153.3536023922172
 30
0.0
 10
94.12620982889901
 20
-153.3536023922172
 30
0.0
 10
94.35048554498877
 20
-153.3536023922172
 30
0.0
 10
94.59164222895626
 20
-153.4807264156229
 30
0.0
 10
94.59164222895626
 20
-153.7766601178058
 30
0.0
 10
94.59164222895626
 20
-153.9630397835578
 30
0.0
 10
94.49655759356337
 20
-154.0453775656553
 30
0.0
 10
94.39699433403964
 20
-154.1067002652928
 30
0.0
 10
94.45831703367709
 20
-154.1342610291748
 30
0.0
 10
94.64021807529828
 20
-154.2148762635296
 30
0.0
 10
94.64021807529828
 20
-154.4918619405437
 30
0.0
 10
94.64021807529828
 20
-154.8305148267438
 30
0.0
 10
94.39286021945735
 20
-154.9976019577784
 30
0.0
 10
94.11587454244324
 20
-154.9976019577784
 30
0.0
  0
HATCH
  5
F7
330
F2
100
AcDbEntity
  8
レイヤー 1
 62
   250
420
  2299925
440
 33554687
100
AcDbHatch
 10
0.0
 20
0.0
 30
0.0
210
0.0
220
0.0
230
1.0
  2
SOLID
 70
     1
 71
     1
 91
        1
 92
        1
 93
        1
 72
     4
 94
        3
 73
     0
 74
     0
 95
       62
 96
       58
 40
0.0
 40
0.0
 40
0.0
 40
0.0
 40
1.0
 40
1.0
 40
1.0
 40
2.0
 40
2.0
 40
2.0
 40
3.0
 40
3.0
 40
3.0
 40
4.0
 40
4.0
 40
4.0
 40
5.0
 40
5.0
 40
5.0
 40
6.0
 40
6.0
 40
6.0
 40
7.0
 40
7.0
 40
7.0
 40
8.0
 40
8.0
 40
8.0
 40
9.0
 40
9.0
 40
9.0
 40
10.0
 40
10.0
 40
10.0
 40
11.0
 40
11.0
 40
11.0
 40
12.0
 40
12.0
 40
12.0
 40
13.0
 40
13.0
 40
13.0
 40
14.0
 40
14.0
 40
14.0
 40
15.0
 40
15.0
 40
15.0
 40
16.0
 40
16.0
 40
16.0
 40
17.0
 40
17.0
 40
17.0
 40
18.0
 40
18.0
 40
18.0
 40
19.0
 40
19.0
 40
19.0
 40
19.0
 10
94.11587454244324
 20
-154.9976019577784
 10
94.02044539750184
 20
-154.9976019577784
 10
93.80271536283405
 20
-154.9762423657698
 10
93.67765839671948
 20
-154.7902072095663
 10
93.60393335333514
 20
-154.6778970967472
 10
93.59945472920431
 20
-154.578678346772
 10
93.59532061462202
 20
-154.4939289978348
 10
93.59532061462202
 20
-154.4939289978348
 10
93.81546221612948
 20
-154.4939289978348
 10
93.81546221612948
 20
-154.4939289978348
 10
93.81752927342061
 20
-154.5679985507677
 10
93.82786455987638
 20
-154.8029540628617
 10
94.11139591831243
 20
-154.8029540628617
 10
94.24885522817389
 20
-154.8029540628617
 10
94.40147295817046
 20
-154.7330186245112
 10
94.40147295817046
 20
-154.5046087938391
 10
94.40147295817046
 20
-154.3881645664377
 10
94.3632323982842
 20
-154.3395887200956
 10
94.3315375198199
 20
-154.3078938416313
 10
94.25746796688702
 20
-154.2338242886985
 10
94.14102373948557
 20
-154.221077435403
 10
94.08624672127011
 20
-154.221077435403
 10
94.06695418655271
 20
-154.221077435403
 10
94.03112519350612
 20
-154.2231444926942
 10
94.00356442962412
 20
-154.2272786072765
 10
94.00356442962412
 20
-154.2272786072765
 10
94.00356442962412
 20
-154.0326307123599
 10
94.00356442962412
 20
-154.0326307123599
 10
94.04180498951038
 20
-154.0391763937819
 10
94.08383515443043
 20
-154.041243451073
 10
94.09038083585242
 20
-154.041243451073
 10
94.15583765007216
 20
-154.041243451073
 10
94.35461965957108
 20
-154.020228368613
 10
94.35461965957108
 20
-153.7832057992278
 10
94.35461965957108
 20
-153.6054388721889
 10
94.22370603113158
 20
-153.5503173444249
 10
94.11346297560358
 20
-153.5503173444249
 10
93.84922415188492
 20
-153.5503173444249
 10
93.84061141317181
 20
-153.7832057992278
 10
93.8364772985895
 20
-153.8552082948695
 10
93.8364772985895
 20
-153.8552082948695
 10
93.63321666495975
 20
-153.8552082948695
 10
93.63321666495975
 20
-153.8552082948695
 10
93.64182940367289
 20
-153.730151328755
 10
93.66939016755488
 20
-153.3536023922172
 10
94.12620982889901
 20
-153.3536023922172
 10
94.35048554498877
 20
-153.3536023922172
 10
94.59164222895626
 20
-153.4807264156229
 10
94.59164222895626
 20
-153.7766601178058
 10
94.59164222895626
 20
-153.9630397835578
 10
94.49655759356337
 20
-154.0453775656553
 10
94.39699433403964
 20
-154.1067002652928
 10
94.45831703367709
 20
-154.1342610291748
 10
94.64021807529828
 20
-154.2148762635296
 10
94.64021807529828
 20
-154.4918619405437
 10
94.64021807529828
 20
-154.8305148267438
 10
94.39286021945735
 20
-154.9976019577784
 10
94.11587454244324
 20
-154.9976019577784
 97
        0
 97
        1
330
F6
 75
     2
 76
     1
 98
        1
 10
0.0
 20
0.0
450
        0
451
        0
460
0.0
461
0.0
452
        0
462
0.0
453
        0
470

  0
ENDBLK
  5
F5
330
F2
100
AcDbEntity
  8
0
100
AcDbBlockEnd
  0
BLOCK
  5
FA
330
F8
100
AcDbEntity
  8
0
100
AcDbBlockBegin
  2
Block_12
 70
     0
 10
0.0
 20
0.0
 30
0.0
  3
Block_12
  1

  0
INSERT
  5
FD
330
F8
100
AcDbEntity
  8
レイヤー 1
100
AcDbBlockReference
  2
Block_13
 10
0.0
 20
0.0
 30
0.0
  0
ENDBLK
  5
FB
330
F8
100
AcDbEntity
  8
0
100
AcDbBlockEnd
  0
BLOCK
  5
FE
330
FC
100
AcDbEntity
  8
0
100
AcDbBlockBegin
  2
Block_13
 70
     0
 10
0.0
 20
0.0
 30
0.0
  3
Block_13
  1

  0
SPLINE
  5
100
330
FC
100
AcDbEntity
  8
レイヤー 1
100
AcDbSpline
210
0.0
220
0.0
230
1.0
 70
    11
 71
     3
 72
    26
 73
    22
 74
     0
 42
0.0000000001
 43
0.0000000001
 40
0.0
 40
0.0
 40
0.0
 40
0.0
 40
1.0
 40
1.0
 40
1.0
 40
2.0
 40
2.0
 40
2.0
 40
3.0
 40
3.0
 40
3.0
 40
4.0
 40
4.0
 40
4.0
 40
5.0
 40
5.0
 40
5.0
 40
6.0
 40
6.0
 40
6.0
 40
7.0
 40
7.0
 40
7.0
 40
7.0
 10
100.3127400465364
 20
-154.9466145445967
 30
0.0
 10
100.3127400465364
 20
-154.9466145445967
 30
0.0
 10
100.3127400465364
 20
-153.8424614415741
 30
0.0
 10
100.3127400465364
 20
-153.8424614415741
 30
0.0
 10
100.3127400465364
 20
-153.8424614415741
 30
0.0
 10
99.98269989904947
 20
-153.8424614415741
 30
0.0
 10
99.98269989904947
 20
-153.8424614415741
 30
0.0
 10
99.98269989904947
 20
-153.8424614415741
 30
0.0
 10
99.98269989904947
 20
-153.6943223357083
 30
0.0
 10
99.98269989904947
 20
-153.6943223357083
 30
0.0
 10
100.3148071038275
 20
-153.6795084251218
 30
0.0
 10
100.3613158928784
 20
-153.5165554086695
 30
0.0
 10
100.3909437140515
 20
-153.4025227481077
 30
0.0
 10
100.3909437140515
 20
-153.4025227481077
 30
0.0
 10
100.5370157626261
 20
-153.4025227481077
 30
0.0
 10
100.5370157626261
 20
-153.4025227481077
 30
0.0
 10
100.5370157626261
 20
-153.4025227481077
 30
0.0
 10
100.5370157626261
 20
-154.9466145445967
 30
0.0
 10
100.5370157626261
 20
-154.9466145445967
 30
0.0
 10
100.5370157626261
 20
-154.9466145445967
 30
0.0
 10
100.3127400465364
 20
-154.9466145445967
 30
0.0
 10
100.3127400465364
 20
-154.9466145445967
 30
0.0
  0
HATCH
  5
101
330
FC
100
AcDbEntity
  8
レイヤー 1
 62
   250
420
  2299925
440
 33554687
100
AcDbHatch
 10
0.0
 20
0.0
 30
0.0
210
0.0
220
0.0
230
1.0
  2
SOLID
 70
     1
 71
     1
 91
        1
 92
        1
 93
        1
 72
     4
 94
        3
 73
     0
 74
     0
 95
       26
 96
       22
 40
0.0
 40
0.0
 40
0.0
 40
0.0
 40
1.0
 40
1.0
 40
1.0
 40
2.0
 40
2.0
 40
2.0
 40
3.0
 40
3.0
 40
3.0
 40
4.0
 40
4.0
 40
4.0
 40
5.0
 40
5.0
 40
5.0
 40
6.0
 40
6.0
 40
6.0
 40
7.0
 40
7.0
 40
7.0
 40
7.0
 10
100.3127400465364
 20
-154.9466145445967
 10
100.3127400465364
 20
-154.9466145445967
 10
100.3127400465364
 20
-153.8424614415741
 10
100.3127400465364
 20
-153.8424614415741
 10
100.3127400465364
 20
-153.8424614415741
 10
99.98269989904947
 20
-153.8424614415741
 10
99.98269989904947
 20
-153.8424614415741
 10
99.98269989904947
 20
-153.8424614415741
 10
99.98269989904947
 20
-153.6943223357083
 10
99.98269989904947
 20
-153.6943223357083
 10
100.3148071038275
 20
-153.6795084251218
 10
100.3613158928784
 20
-153.5165554086695
 10
100.3909437140515
 20
-153.4025227481077
 10
100.3909437140515
 20
-153.4025227481077
 10
100.5370157626261
 20
-153.4025227481077
 10
100.5370157626261
 20
-153.4025227481077
 10
100.5370157626261
 20
-153.4025227481077
 10
100.5370157626261
 20
-154.9466145445967
 10
100.5370157626261
 20
-154.9466145445967
 10
100.5370157626261
 20
-154.9466145445967
 10
100.3127400465364
 20
-154.9466145445967
 10
100.3127400465364
 20
-154.9466145445967
 97
        0
 97
        1
330
100
 75
     2
 76
     1
 98
        1
 10
0.0
 20
0.0
450
        0
451
        0
460
0.0
461
0.0
452
        0
462
0.0
453
        0
470

  0
SPLINE
  5
102
330
FC
100
AcDbEntity
  8
レイヤー 1
100
AcDbSpline
210
0.0
220
0.0
230
1.0
 70
     9
 71
     3
 72
    17
 73
    13
 74
     0
 42
0.0000000001
 43
0.0000000001
 40
0.0
 40
0.0
 40
0.0
 40
0.0
 40
1.0
 40
1.0
 40
1.0
 40
2.0
 40
2.0
 40
2.0
 40
3.0
 40
3.0
 40
3.0
 40
4.0
 40
4.0
 40
4.0
 40
4.0
 10
101.5381605106397
 20
-153.5461832298426
 30
0.0
 10
101.2883910879591
 20
-153.5461832298426
 30
0.0
 10
101.2418822989083
 20
-153.8297145882786
 30
0.0
 10
101.2418822989083
 20
-154.1745686463522
 30
0.0
 10
101.2418822989083
 20
-154.4939289978348
 30
0.0
 10
101.2780558015034
 20
-154.8029540628617
 30
0.0
 10
101.5381605106397
 20
-154.8029540628617
 30
0.0
 10
101.7858628760292
 20
-154.8029540628617
 30
0.0
 10
101.8344387223712
 20
-154.5214897617168
 30
0.0
 10
101.8344387223712
 20
-154.1745686463522
 30
0.0
 10
101.8344387223712
 20
-153.8552082948695
 30
0.0
 10
101.796198162485
 20
-153.5461832298426
 30
0.0
 10
101.5381605106397
 20
-153.5461832298426
 30
0.0
  0
SPLINE
  5
103
330
FC
100
AcDbEntity
  8
レイヤー 1
100
AcDbSpline
210
0.0
220
0.0
230
1.0
 70
     9
 71
     3
 72
    29
 73
    25
 74
     0
 42
0.0000000001
 43
0.0000000001
 40
0.0
 40
0.0
 40
0.0
 40
0.0
 40
1.0
 40
1.0
 40
1.0
 40
2.0
 40
2.0
 40
2.0
 40
3.0
 40
3.0
 40
3.0
 40
4.0
 40
4.0
 40
4.0
 40
5.0
 40
5.0
 40
5.0
 40
6.0
 40
6.0
 40
6.0
 40
7.0
 40
7.0
 40
7.0
 40
8.0
 40
8.0
 40
8.0
 40
8.0
 10
101.9360690391861
 20
-154.7688476175578
 30
0.0
 10
101.8278930409493
 20
-154.978309423061
 30
0.0
 10
101.6546047380412
 20
-154.9976019577784
 30
0.0
 10
101.5381605106397
 20
-154.9976019577784
 30
0.0
 10
101.3772745514786
 20
-154.9976019577784
 30
0.0
 10
101.2356811270348
 20
-154.9510931687275
 30
0.0
 10
101.1405964916419
 20
-154.7688476175578
 30
0.0
 10
101.0368991175359
 20
-154.5741997226411
 30
0.0
 10
101.0176065828185
 20
-154.3375216628045
 30
0.0
 10
101.0176065828185
 20
-154.1745686463522
 30
0.0
 10
101.0176065828185
 20
-154.0305636550687
 30
0.0
 10
101.0348320602447
 20
-153.7790716846455
 30
0.0
 10
101.1405964916419
 20
-153.579945165598
 30
0.0
 10
101.2484279803302
 20
-153.3770290415168
 30
0.0
 10
101.4093139394914
 20
-153.3536023922172
 30
0.0
 10
101.5381605106397
 20
-153.3536023922172
 30
0.0
 10
101.6969794125098
 20
-153.3536023922172
 30
0.0
 10
101.8406398942447
 20
-153.3980441239769
 30
0.0
 10
101.9360690391861
 20
-153.579945165598
 30
0.0
 10
102.0352877891613
 20
-153.7725260032235
 30
0.0
 10
102.058714438461
 20
-154.0009358338956
 30
0.0
 10
102.058714438461
 20
-154.1745686463522
 30
0.0
 10
102.058714438461
 20
-154.3457898919691
 30
0.0
 10
102.0373548464524
 20
-154.5766112894808
 30
0.0
 10
101.9360690391861
 20
-154.7688476175578
 30
0.0
  0
HATCH
  5
104
330
FC
100
AcDbEntity
  8
レイヤー 1
 62
   250
420
  2299925
440
 33554687
100
AcDbHatch
 10
0.0
 20
0.0
 30
0.0
210
0.0
220
0.0
230
1.0
  2
SOLID
 70
     1
 71
     1
 91
        2
 92
        1
 93
        1
 72
     4
 94
        3
 73
     0
 74
     0
 95
       17
 96
       13
 40
0.0
 40
0.0
 40
0.0
 40
0.0
 40
1.0
 40
1.0
 40
1.0
 40
2.0
 40
2.0
 40
2.0
 40
3.0
 40
3.0
 40
3.0
 40
4.0
 40
4.0
 40
4.0
 40
4.0
 10
101.5381605106397
 20
-153.5461832298426
 10
101.2883910879591
 20
-153.5461832298426
 10
101.2418822989083
 20
-153.8297145882786
 10
101.2418822989083
 20
-154.1745686463522
 10
101.2418822989083
 20
-154.4939289978348
 10
101.2780558015034
 20
-154.8029540628617
 10
101.5381605106397
 20
-154.8029540628617
 10
101.7858628760292
 20
-154.8029540628617
 10
101.8344387223712
 20
-154.5214897617168
 10
101.8344387223712
 20
-154.1745686463522
 10
101.8344387223712
 20
-153.8552082948695
 10
101.796198162485
 20
-153.5461832298426
 10
101.5381605106397
 20
-153.5461832298426
 97
        0
 97
        1
330
102
 92
        1
 93
        1
 72
     4
 94
        3
 73
     0
 74
     0
 95
       29
 96
       25
 40
0.0
 40
0.0
 40
0.0
 40
0.0
 40
1.0
 40
1.0
 40
1.0
 40
2.0
 40
2.0
 40
2.0
 40
3.0
 40
3.0
 40
3.0
 40
4.0
 40
4.0
 40
4.0
 40
5.0
 40
5.0
 40
5.0
 40
6.0
 40
6.0
 40
6.0
 40
7.0
 40
7.0
 40
7.0
 40
8.0
 40
8.0
 40
8.0
 40
8.0
 10
101.9360690391861
 20
-154.7688476175578
 10
101.8278930409493
 20
-154.978309423061
 10
101.6546047380412
 20
-154.9976019577784
 10
101.5381605106397
 20
-154.9976019577784
 10
101.3772745514786
 20
-154.9976019577784
 10
101.2356811270348
 20
-154.9510931687275
 10
101.1405964916419
 20
-154.7688476175578
 10
101.0368991175359
 20
-154.5741997226411
 10
101.0176065828185
 20
-154.3375216628045
 10
101.0176065828185
 20
-154.1745686463522
 10
101.0176065828185
 20
-154.0305636550687
 10
101.0348320602447
 20
-153.7790716846455
 10
101.1405964916419
 20
-153.579945165598
 10
101.2484279803302
 20
-153.3770290415168
 10
101.4093139394914
 20
-153.3536023922172
 10
101.5381605106397
 20
-153.3536023922172
 10
101.6969794125098
 20
-153.3536023922172
 10
101.8406398942447
 20
-153.3980441239769
 10
101.9360690391861
 20
-153.579945165598
 10
102.0352877891613
 20
-153.7725260032235
 10
102.058714438461
 20
-154.0009358338956
 10
102.058714438461
 20
-154.1745686463522
 10
102.058714438461
 20
-154.3457898919691
 10
102.0373548464524
 20
-154.5766112894808
 10
101.9360690391861
 20
-154.7688476175578
 97
        0
 97
        1
330
103
 75
     2
 76
     1
 98
        1
 10
0.0
 20
0.0
450
        0
451
        0
460
0.0
461
0.0
452
        0
462
0.0
453
        0
470

  0
ENDBLK
  5
FF
330
FC
100
AcDbEntity
  8
0
100
AcDbBlockEnd
  0
BLOCK
  5
107
330
105
100
AcDbEntity
  8
0
100
AcDbBlockBegin
  2
Block_14
 70
     0
 10
0.0
 20
0.0
 30
0.0
  3
Block_14
  1

  0
INSERT
  5
10A
330
105
100
AcDbEntity
  8
レイヤー 1
100
AcDbBlockReference
  2
Block_15
 10
0.0
 20
0.0
 30
0.0
  0
ENDBLK
  5
108
330
105
100
AcDbEntity
  8
0
100
AcDbBlockEnd
  0
BLOCK
  5
10B
330
109
100
AcDbEntity
  8
0
100
AcDbBlockBegin
  2
Block_15
 70
     0
 10
0.0
 20
0.0
 30
0.0
  3
Block_15
  1

  0
SPLINE
  5
10D
330
109
100
AcDbEntity
  8
レイヤー 1
100
AcDbSpline
210
0.0
220
0.0
230
1.0
 70
     9
 71
     3
 72
    44
 73
    40
 74
     0
 42
0.0000000001
 43
0.0000000001
 40
0.0
 40
0.0
 40
0.0
 40
0.0
 40
1.0
 40
1.0
 40
1.0
 40
2.0
 40
2.0
 40
2.0
 40
3.0
 40
3.0
 40
3.0
 40
4.0
 40
4.0
 40
4.0
 40
5.0
 40
5.0
 40
5.0
 40
6.0
 40
6.0
 40
6.0
 40
7.0
 40
7.0
 40
7.0
 40
8.0
 40
8.0
 40
8.0
 40
9.0
 40
9.0
 40
9.0
 40
10.0
 40
10.0
 40
10.0
 40
11.0
 40
11.0
 40
11.0
 40
12.0
 40
12.0
 40
12.0
 40
13.0
 40
13.0
 40
13.0
 40
13.0
 10
104.6291001800059
 20
-187.7204969148754
 30
0.0
 10
104.4113701453381
 20
-187.8793158167454
 30
0.0
 10
104.3183525672364
 20
-187.9533853696783
 30
0.0
 10
104.2694322113458
 20
-188.0970458514132
 30
0.0
 10
104.2694322113458
 20
-188.0970458514132
 30
0.0
 10
105.0480237910123
 20
-188.0970458514132
 30
0.0
 10
105.0480237910123
 20
-188.0970458514132
 30
0.0
 10
105.0480237910123
 20
-188.0970458514132
 30
0.0
 10
105.0480237910123
 20
-188.3023735423341
 30
0.0
 10
105.0480237910123
 20
-188.3023735423341
 30
0.0
 10
105.0480237910123
 20
-188.3023735423341
 30
0.0
 10
104.0200072982137
 20
-188.3023735423341
 30
0.0
 10
104.0200072982137
 20
-188.3023735423341
 30
0.0
 10
104.051702176678
 20
-187.9447726309652
 30
0.0
 10
104.1171589908978
 20
-187.86656896345
 30
0.0
 10
104.5023206661487
 20
-187.5682236944274
 30
0.0
 10
104.7582912607028
 20
-187.3694416849285
 30
0.0
 10
104.8237480749225
 20
-187.301573303869
 30
0.0
 10
104.8237480749225
 20
-187.1641139940076
 30
0.0
 10
104.8237480749225
 20
-187.045602709315
 30
0.0
 10
104.7517455792808
 20
-186.9146890808755
 30
0.0
 10
104.555030627073
 20
-186.9146890808755
 30
0.0
 10
104.2949259179367
 20
-186.9146890808755
 30
0.0
 10
104.2866576887721
 20
-187.1451659688387
 30
0.0
 10
104.2821790646413
 20
-187.2616101962401
 30
0.0
 10
104.2821790646413
 20
-187.2616101962401
 30
0.0
 10
104.0579033485515
 20
-187.2616101962401
 30
0.0
 10
104.0579033485515
 20
-187.2616101962401
 30
0.0
 10
104.0665160872646
 20
-187.1344861728344
 30
0.0
 10
104.0771958832689
 20
-187.0225205695638
 30
0.0
 10
104.1574666080752
 20
-186.9040092848712
 30
0.0
 10
104.2673651540547
 20
-186.74312332571
 30
0.0
 10
104.4537448198067
 20
-186.7093613899546
 30
0.0
 10
104.5698445376596
 20
-186.7093613899546
 30
0.0
 10
104.8471747242222
 20
-186.7093613899546
 30
0.0
 10
105.0545694724343
 20
-186.8933294888669
 30
0.0
 10
105.0545694724343
 20
-187.1661810512987
 30
0.0
 10
105.0545694724343
 20
-187.3949353915193
 30
0.0
 10
104.9381252450328
 20
-187.4941541414945
 30
0.0
 10
104.6291001800059
 20
-187.7204969148754
 30
0.0
  0
HATCH
  5
10E
330
109
100
AcDbEntity
  8
レイヤー 1
 62
   250
420
  2299925
440
 33554687
100
AcDbHatch
 10
0.0
 20
0.0
 30
0.0
210
0.0
220
0.0
230
1.0
  2
SOLID
 70
     1
 71
     1
 91
        1
 92
        1
 93
        1
 72
     4
 94
        3
 73
     0
 74
     0
 95
       44
 96
       40
 40
0.0
 40
0.0
 40
0.0
 40
0.0
 40
1.0
 40
1.0
 40
1.0
 40
2.0
 40
2.0
 40
2.0
 40
3.0
 40
3.0
 40
3.0
 40
4.0
 40
4.0
 40
4.0
 40
5.0
 40
5.0
 40
5.0
 40
6.0
 40
6.0
 40
6.0
 40
7.0
 40
7.0
 40
7.0
 40
8.0
 40
8.0
 40
8.0
 40
9.0
 40
9.0
 40
9.0
 40
10.0
 40
10.0
 40
10.0
 40
11.0
 40
11.0
 40
11.0
 40
12.0
 40
12.0
 40
12.0
 40
13.0
 40
13.0
 40
13.0
 40
13.0
 10
104.6291001800059
 20
-187.7204969148754
 10
104.4113701453381
 20
-187.8793158167454
 10
104.3183525672364
 20
-187.9533853696783
 10
104.2694322113458
 20
-188.0970458514132
 10
104.2694322113458
 20
-188.0970458514132
 10
105.0480237910123
 20
-188.0970458514132
 10
105.0480237910123
 20
-188.0970458514132
 10
105.0480237910123
 20
-188.0970458514132
 10
105.0480237910123
 20
-188.3023735423341
 10
105.0480237910123
 20
-188.3023735423341
 10
105.0480237910123
 20
-188.3023735423341
 10
104.0200072982137
 20
-188.3023735423341
 10
104.0200072982137
 20
-188.3023735423341
 10
104.051702176678
 20
-187.9447726309652
 10
104.1171589908978
 20
-187.86656896345
 10
104.5023206661487
 20
-187.5682236944274
 10
104.7582912607028
 20
-187.3694416849285
 10
104.8237480749225
 20
-187.301573303869
 10
104.8237480749225
 20
-187.1641139940076
 10
104.8237480749225
 20
-187.045602709315
 10
104.7517455792808
 20
-186.9146890808755
 10
104.555030627073
 20
-186.9146890808755
 10
104.2949259179367
 20
-186.9146890808755
 10
104.2866576887721
 20
-187.1451659688387
 10
104.2821790646413
 20
-187.2616101962401
 10
104.2821790646413
 20
-187.2616101962401
 10
104.0579033485515
 20
-187.2616101962401
 10
104.0579033485515
 20
-187.2616101962401
 10
104.0665160872646
 20
-187.1344861728344
 10
104.0771958832689
 20
-187.0225205695638
 10
104.1574666080752
 20
-186.9040092848712
 10
104.2673651540547
 20
-186.74312332571
 10
104.4537448198067
 20
-186.7093613899546
 10
104.5698445376596
 20
-186.7093613899546
 10
104.8471747242222
 20
-186.7093613899546
 10
105.0545694724343
 20
-186.8933294888669
 10
105.0545694724343
 20
-187.1661810512987
 10
105.0545694724343
 20
-187.3949353915193
 10
104.9381252450328
 20
-187.4941541414945
 10
104.6291001800059
 20
-187.7204969148754
 97
        0
 97
        1
330
10D
 75
     2
 76
     1
 98
        1
 10
0.0
 20
0.0
450
        0
451
        0
460
0.0
461
0.0
452
        0
462
0.0
453
        0
470

  0
SPLINE
  5
10F
330
109
100
AcDbEntity
  8
レイヤー 1
100
AcDbSpline
210
0.0
220
0.0
230
1.0
 70
     9
 71
     3
 72
    53
 73
    49
 74
     0
 42
0.0000000001
 43
0.0000000001
 40
0.0
 40
0.0
 40
0.0
 40
0.0
 40
1.0
 40
1.0
 40
1.0
 40
2.0
 40
2.0
 40
2.0
 40
3.0
 40
3.0
 40
3.0
 40
4.0
 40
4.0
 40
4.0
 40
5.0
 40
5.0
 40
5.0
 40
6.0
 40
6.0
 40
6.0
 40
7.0
 40
7.0
 40
7.0
 40
8.0
 40
8.0
 40
8.0
 40
9.0
 40
9.0
 40
9.0
 40
10.0
 40
10.0
 40
10.0
 40
11.0
 40
11.0
 40
11.0
 40
12.0
 40
12.0
 40
12.0
 40
13.0
 40
13.0
 40
13.0
 40
14.0
 40
14.0
 40
14.0
 40
15.0
 40
15.0
 40
15.0
 40
16.0
 40
16.0
 40
16.0
 40
16.0
 10
105.6941514492709
 20
-188.3530164459673
 30
0.0
 10
105.6159477817557
 20
-188.3530164459673
 30
0.0
 10
105.5143174649408
 20
-188.3361354780896
 30
0.0
 10
105.4125148933517
 20
-188.272745721161
 30
0.0
 10
105.2392265904436
 20
-188.1628471751815
 30
0.0
 10
105.2178669984351
 20
-188.0315890371935
 30
0.0
 10
105.1989189732662
 20
-187.9237575485052
 30
0.0
 10
105.1989189732662
 20
-187.9237575485052
 30
0.0
 10
105.4211276320648
 20
-187.9237575485052
 30
0.0
 10
105.4211276320648
 20
-187.9237575485052
 30
0.0
 10
105.4759046502803
 20
-188.1225395580041
 30
0.0
 10
105.6032009284603
 20
-188.1521673791772
 30
0.0
 10
105.696218506562
 20
-188.1521673791772
 30
0.0
 10
105.8357448737146
 20
-188.1521673791772
 30
0.0
 10
105.9880180941627
 20
-188.0526041196535
 30
0.0
 10
105.9880180941627
 20
-187.8200601743992
 30
0.0
 10
105.9880180941627
 20
-187.5640895798451
 30
0.0
 10
105.8081841098327
 20
-187.4941541414945
 30
0.0
 10
105.6876057678489
 20
-187.4941541414945
 30
0.0
 10
105.6559108893846
 20
-187.4941541414945
 30
0.0
 10
105.5143174649408
 20
-187.4941541414945
 30
0.0
 10
105.4252617466471
 20
-187.6233452221914
 30
0.0
 10
105.4252617466471
 20
-187.6233452221914
 30
0.0
 10
105.2495618768994
 20
-187.6043971970225
 30
0.0
 10
105.2495618768994
 20
-187.6043971970225
 30
0.0
 10
105.2495618768994
 20
-187.6043971970225
 30
0.0
 10
105.3701402188831
 20
-186.7579372362966
 30
0.0
 10
105.3701402188831
 20
-186.7579372362966
 30
0.0
 10
105.3701402188831
 20
-186.7579372362966
 30
0.0
 10
106.1489040533239
 20
-186.7579372362966
 30
0.0
 10
106.1489040533239
 20
-186.7579372362966
 30
0.0
 10
106.1489040533239
 20
-186.7579372362966
 30
0.0
 10
106.1489040533239
 20
-186.9525851312132
 30
0.0
 10
106.1489040533239
 20
-186.9525851312132
 30
0.0
 10
106.1489040533239
 20
-186.9525851312132
 30
0.0
 10
105.5332654901097
 20
-186.9525851312132
 30
0.0
 10
105.5332654901097
 20
-186.9525851312132
 30
0.0
 10
105.5332654901097
 20
-186.9525851312132
 30
0.0
 10
105.4676364211157
 20
-187.3756428568019
 30
0.0
 10
105.4676364211157
 20
-187.3756428568019
 30
0.0
 10
105.5291313755274
 20
-187.3418809210465
 30
0.0
 10
105.6114691576249
 20
-187.301573303869
 30
0.0
 10
105.7299804423175
 20
-187.301573303869
 30
0.0
 10
105.9838839795804
 20
-187.301573303869
 30
0.0
 10
106.2209065489656
 20
-187.487952969621
 30
0.0
 10
106.2209065489656
 20
-187.8011121492303
 30
0.0
 10
106.2209065489656
 20
-188.1184054434218
 30
0.0
 10
105.9966308328758
 20
-188.3530164459673
 30
0.0
 10
105.6941514492709
 20
-188.3530164459673
 30
0.0
  0
HATCH
  5
110
330
109
100
AcDbEntity
  8
レイヤー 1
 62
   250
420
  2299925
440
 33554687
100
AcDbHatch
 10
0.0
 20
0.0
 30
0.0
210
0.0
220
0.0
230
1.0
  2
SOLID
 70
     1
 71
     1
 91
        1
 92
        1
 93
        1
 72
     4
 94
        3
 73
     0
 74
     0
 95
       53
 96
       49
 40
0.0
 40
0.0
 40
0.0
 40
0.0
 40
1.0
 40
1.0
 40
1.0
 40
2.0
 40
2.0
 40
2.0
 40
3.0
 40
3.0
 40
3.0
 40
4.0
 40
4.0
 40
4.0
 40
5.0
 40
5.0
 40
5.0
 40
6.0
 40
6.0
 40
6.0
 40
7.0
 40
7.0
 40
7.0
 40
8.0
 40
8.0
 40
8.0
 40
9.0
 40
9.0
 40
9.0
 40
10.0
 40
10.0
 40
10.0
 40
11.0
 40
11.0
 40
11.0
 40
12.0
 40
12.0
 40
12.0
 40
13.0
 40
13.0
 40
13.0
 40
14.0
 40
14.0
 40
14.0
 40
15.0
 40
15.0
 40
15.0
 40
16.0
 40
16.0
 40
16.0
 40
16.0
 10
105.6941514492709
 20
-188.3530164459673
 10
105.6159477817557
 20
-188.3530164459673
 10
105.5143174649408
 20
-188.3361354780896
 10
105.4125148933517
 20
-188.272745721161
 10
105.2392265904436
 20
-188.1628471751815
 10
105.2178669984351
 20
-188.0315890371935
 10
105.1989189732662
 20
-187.9237575485052
 10
105.1989189732662
 20
-187.9237575485052
 10
105.4211276320648
 20
-187.9237575485052
 10
105.4211276320648
 20
-187.9237575485052
 10
105.4759046502803
 20
-188.1225395580041
 10
105.6032009284603
 20
-188.1521673791772
 10
105.696218506562
 20
-188.1521673791772
 10
105.8357448737146
 20
-188.1521673791772
 10
105.9880180941627
 20
-188.0526041196535
 10
105.9880180941627
 20
-187.8200601743992
 10
105.9880180941627
 20
-187.5640895798451
 10
105.8081841098327
 20
-187.4941541414945
 10
105.6876057678489
 20
-187.4941541414945
 10
105.6559108893846
 20
-187.4941541414945
 10
105.5143174649408
 20
-187.4941541414945
 10
105.4252617466471
 20
-187.6233452221914
 10
105.4252617466471
 20
-187.6233452221914
 10
105.2495618768994
 20
-187.6043971970225
 10
105.2495618768994
 20
-187.6043971970225
 10
105.2495618768994
 20
-187.6043971970225
 10
105.3701402188831
 20
-186.7579372362966
 10
105.3701402188831
 20
-186.7579372362966
 10
105.3701402188831
 20
-186.7579372362966
 10
106.1489040533239
 20
-186.7579372362966
 10
106.1489040533239
 20
-186.7579372362966
 10
106.1489040533239
 20
-186.7579372362966
 10
106.1489040533239
 20
-186.9525851312132
 10
106.1489040533239
 20
-186.9525851312132
 10
106.1489040533239
 20
-186.9525851312132
 10
105.5332654901097
 20
-186.9525851312132
 10
105.5332654901097
 20
-186.9525851312132
 10
105.5332654901097
 20
-186.9525851312132
 10
105.4676364211157
 20
-187.3756428568019
 10
105.4676364211157
 20
-187.3756428568019
 10
105.5291313755274
 20
-187.3418809210465
 10
105.6114691576249
 20
-187.301573303869
 10
105.7299804423175
 20
-187.301573303869
 10
105.9838839795804
 20
-187.301573303869
 10
106.2209065489656
 20
-187.487952969621
 10
106.2209065489656
 20
-187.8011121492303
 10
106.2209065489656
 20
-188.1184054434218
 10
105.9966308328758
 20
-188.3530164459673
 10
105.6941514492709
 20
-188.3530164459673
 97
        0
 97
        1
330
10F
 75
     2
 76
     1
 98
        1
 10
0.0
 20
0.0
450
        0
451
        0
460
0.0
461
0.0
452
        0
462
0.0
453
        0
470

  0
ENDBLK
  5
10C
330
109
100
AcDbEntity
  8
0
100
AcDbBlockEnd
  0
ENDSEC
  0
SECTION
  2
ENTITIES
  0
LWPOLYLINE
  5
79
330
70
100
AcDbEntity
  8
レイヤー 1
100
AcDbPolyline
 90
       16
 70
     1
 43
0.0
 10
95.64295343482671
 20
-160.9378476275905
 10
93.62481765298031
 20
-160.9378476275905
 10
93.62481765298031
 20
-164.4478101267125
 10
105.7431926215922
 20
-164.4478101267125
 10
105.7431926215922
 20
-115.3476698612099
 10
106.9430956465357
 20
-115.3476698612099
 10
106.9430956465357
 20
-165.4475823486845
 10
93.62481765298031
 20
-165.4475823486845
 10
93.62481765298031
 20
-183.9477428996149
 10
116.6249403995313
 20
-183.9477428996149
 10
116.6249403995313
 20
-180.9474031781428
 10
117.6247125962472
 20
-180.9474031781428
 10
117.6247125962472
 20
-184.9475151215881
 10
92.62469267849562
 20
-184.9475151215881
 10
92.62469267849562
 20
-159.9380754056173
 10
95.64295343482671
 20
-159.9380754056173
  0
HATCH
  5
7A
330
70
100
AcDbEntity
  8
レイヤー 1
 62
   253
420
 11776947
440
 33554687
100
AcDbHatch
 10
0.0
 20
0.0
 30
0.0
210
0.0
220
0.0
230
1.0
  2
SOLID
 70
     1
 71
     1
 91
        1
 92
        1
 93
       16
 72
     1
 10
95.64295343482671
 20
-160.9378476275905
 11
93.62481765298031
 21
-160.9378476275905
 72
     1
 10
93.62481765298031
 20
-160.9378476275905
 11
93.62481765298031
 21
-164.4478101267125
 72
     1
 10
93.62481765298031
 20
-164.4478101267125
 11
105.7431926215922
 21
-164.4478101267125
 72
     1
 10
105.7431926215922
 20
-164.4478101267125
 11
105.7431926215922
 21
-115.3476698612099
 72
     1
 10
105.7431926215922
 20
-115.3476698612099
 11
106.9430956465357
 21
-115.3476698612099
 72
     1
 10
106.9430956465357
 20
-115.3476698612099
 11
106.9430956465357
 21
-165.4475823486845
 72
     1
 10
106.9430956465357
 20
-165.4475823486845
 11
93.62481765298031
 21
-165.4475823486845
 72
     1
 10
93.62481765298031
 20
-165.4475823486845
 11
93.62481765298031
 21
-183.9477428996149
 72
     1
 10
93.62481765298031
 20
-183.9477428996149
 11
116.6249403995313
 21
-183.9477428996149
 72
     1
 10
116.6249403995313
 20
-183.9477428996149
 11
116.6249403995313
 21
-180.9474031781428
 72
     1
 10
116.6249403995313
 20
-180.9474031781428
 11
117.6247125962472
 21
-180.9474031781428
 72
     1
 10
117.6247125962472
 20
-180.9474031781428
 11
117.6247125962472
 21
-184.9475151215881
 72
     1
 10
117.6247125962472
 20
-184.9475151215881
 11
92.62469267849562
 21
-184.9475151215881
 72
     1
 10
92.62469267849562
 20
-184.9475151215881
 11
92.62469267849562
 21
-159.9380754056173
 72
     1
 10
92.62469267849562
 20
-159.9380754056173
 11
95.64295343482671
 21
-159.9380754056173
 72
     1
 10
95.64295343482671
 20
-159.9380754056173
 11
95.64295343482671
 21
-160.9378476275905
 97
        1
330
79
 75
     2
 76
     1
 98
        1
 10
0.0
 20
0.0
450
        0
451
        0
460
0.0
461
0.0
452
        0
462
0.0
453
        0
470

  0
LINE
  5
7B
330
70
100
AcDbEntity
  8
レイヤー 1
 62
   250
420
  2299925
370
    25
100
AcDbLine
 10
105.7431926215922
 20
-115.3476698612099
 30
0.0
 11
105.7431926215922
 21
-164.4478101267125
 31
0.0
  0
LINE
  5
7C
330
70
100
AcDbEntity
  8
レイヤー 1
 62
   250
420
  2299925
370
    25
100
AcDbLine
 10
106.9430956465357
 20
-115.3476698612099
 30
0.0
 11
105.7431926215922
 21
-115.3476698612099
 31
0.0
  0
LINE
  5
7D
330
70
100
AcDbEntity
  8
レイヤー 1
 62
   250
420
  2299925
370
    25
100
AcDbLine
 10
106.9430956465357
 20
-115.3476698612099
 30
0.0
 11
106.9430956465357
 21
-165.4475823486845
 31
0.0
  0
LINE
  5
7E
330
70
100
AcDbEntity
  8
レイヤー 1
 62
   250
420
  2299925
370
    25
100
AcDbLine
 10
106.9430956465357
 20
-165.4475823486845
 30
0.0
 11
93.62481765298031
 21
-165.4475823486845
 31
0.0
  0
LINE
  5
7F
330
70
100
AcDbEntity
  8
レイヤー 1
 62
   250
420
  2299925
370
    25
100
AcDbLine
 10
95.64302399038046
 20
-159.9380754056173
 30
0.0
 11
95.64302399038046
 21
-160.9378476275905
 31
0.0
  0
LINE
  5
80
330
70
100
AcDbEntity
  8
レイヤー 1
 62
   250
420
  2299925
370
    25
100
AcDbLine
 10
92.62469267849562
 20
-159.9380754056173
 30
0.0
 11
92.62469267849562
 21
-184.9475151215881
 31
0.0
  0
LINE
  5
81
330
70
100
AcDbEntity
  8
レイヤー 1
 62
   250
420
  2299925
370
    25
100
AcDbLine
 10
117.6247125962472
 20
-180.9474031781428
 30
0.0
 11
116.6249403995313
 21
-180.9474031781428
 31
0.0
  0
LINE
  5
82
330
70
100
AcDbEntity
  8
レイヤー 1
 62
   250
420
  2299925
370
    25
100
AcDbLine
 10
117.6247125962472
 20
-184.9475151215881
 30
0.0
 11
92.62469267849562
 21
-184.9475151215881
 31
0.0
  0
LINE
  5
83
330
70
100
AcDbEntity
  8
レイヤー 1
 62
   250
420
  2299925
370
    25
100
AcDbLine
 10
95.64302399038046
 20
-159.9380754056173
 30
0.0
 11
92.62469267849562
 21
-159.9380754056173
 31
0.0
  0
LINE
  5
84
330
70
100
AcDbEntity
  8
レイヤー 1
 62
   250
420
  2299925
370
    25
100
AcDbLine
 10
117.6247125962472
 20
-180.9474031781428
 30
0.0
 11
117.6247125962472
 21
-184.9475151215881
 31
0.0
  0
LINE
  5
85
330
70
100
AcDbEntity
  8
レイヤー 1
 62
   250
420
  2299925
370
    25
100
AcDbLine
 10
105.7431926215922
 20
-164.4478101267125
 30
0.0
 11
93.62481765298031
 21
-164.4478101267125
 31
0.0
  0
LINE
  5
86
330
70
100
AcDbEntity
  8
レイヤー 1
 62
   250
420
  2299925
370
    25
100
AcDbLine
 10
93.62481765298031
 20
-160.9378476275905
 30
0.0
 11
93.62481765298031
 21
-164.4478101267125
 31
0.0
  0
LINE
  5
87
330
70
100
AcDbEntity
  8
レイヤー 1
 62
   250
420
  2299925
370
    25
100
AcDbLine
 10
95.64302399038046
 20
-160.9378476275905
 30
0.0
 11
93.62481765298031
 21
-160.9378476275905
 31
0.0
  0
LINE
  5
88
330
70
100
AcDbEntity
  8
レイヤー 1
 62
   250
420
  2299925
370
    25
100
AcDbLine
 10
116.6249403995313
 20
-183.9477428996149
 30
0.0
 11
93.62481765298031
 21
-183.9477428996149
 31
0.0
  0
LINE
  5
89
330
70
100
AcDbEntity
  8
レイヤー 1
 62
   250
420
  2299925
370
    25
100
AcDbLine
 10
116.6249403995313
 20
-180.9474031781428
 30
0.0
 11
116.6249403995313
 21
-183.9477428996149
 31
0.0
  0
LINE
  5
8A
330
70
100
AcDbEntity
  8
レイヤー 1
 62
   250
420
  2299925
370
    25
100
AcDbLine
 10
93.62481765298031
 20
-165.4475823486845
 30
0.0
 11
93.62481765298031
 21
-183.9477428996149
 31
0.0
  0
SPLINE
  5
8B
330
70
100
AcDbEntity
  8
レイヤー 1
 62
   250
420
  2299925
370
     9
100
AcDbSpline
210
0.0
220
0.0
230
1.0
 70
     9
 71
     3
 72
    17
 73
    13
 74
     0
 42
0.0000000001
 43
0.0000000001
 40
0.0
 40
0.0
 40
0.0
 40
0.0
 40
1.0
 40
1.0
 40
1.0
 40
2.0
 40
2.0
 40
2.0
 40
3.0
 40
3.0
 40
3.0
 40
4.0
 40
4.0
 40
4.0
 40
4.0
 10
105.7128911173541
 20
-111.3680190288713
 30
0.0
 10
105.7128911173541
 20
-111.3129151399963
 30
0.0
 10
105.7576565101121
 20
-111.2681123622296
 30
0.0
 10
105.8131484531409
 20
-111.2681123622296
 30
0.0
 10
105.8682523406239
 20
-111.2681123622296
 30
0.0
 10
105.9130551172587
 20
-111.3129151399963
 30
0.0
 10
105.9130551172587
 20
-111.3680190288713
 30
0.0
 10
105.9130551172587
 20
-111.4231581955243
 30
0.0
 10
105.8682523406239
 20
-111.4679256955129
 30
0.0
 10
105.8131484531409
 20
-111.4679256955129
 30
0.0
 10
105.7576565101121
 20
-111.4679256955129
 30
0.0
 10
105.7128911173541
 20
-111.4231581955243
 30
0.0
 10
105.7128911173541
 20
-111.3680190288713
 30
0.0
  0
CIRCLE
  5
8C
330
70
100
AcDbEntity
  8
レイヤー 1
 62
   250
420
  2299925
370
     9
100
AcDbCircle
 10
107.0130514780843
 20
-111.3680190288713
 30
0.0
 40
0.0999066653797365
  0
SPLINE
  5
8D
330
70
100
AcDbEntity
  8
レイヤー 1
 62
   250
420
  2299925
370
     9
100
AcDbSpline
210
0.0
220
0.0
230
1.0
 70
     9
 71
     3
 72
    17
 73
    13
 74
     0
 42
0.0000000001
 43
0.0000000001
 40
0.0
 40
0.0
 40
0.0
 40
0.0
 40
1.0
 40
1.0
 40
1.0
 40
2.0
 40
2.0
 40
2.0
 40
3.0
 40
3.0
 40
3.0
 40
4.0
 40
4.0
 40
4.0
 40
4.0
 10
92.52478601437811
 20
-155.2390754067921
 30
0.0
 10
92.52478601437811
 20
-155.1839362401397
 30
0.0
 10
92.56955351323567
 20
-155.1391687401512
 30
0.0
 10
92.62469267849562
 20
-155.1391687401512
 30
0.0
 10
92.68014934374747
 20
-155.1391687401512
 30
0.0
 10
92.72495212038224
 20
-155.1839362401397
 30
0.0
 10
92.72495212038224
 20
-155.2390754067921
 30
0.0
 10
92.72495212038224
 20
-155.2941792956677
 30
0.0
 10
92.68014934374747
 20
-155.3389820734344
 30
0.0
 10
92.62469267849562
 20
-155.3389820734344
 30
0.0
 10
92.56955351323567
 20
-155.3389820734344
 30
0.0
 10
92.52478601437811
 20
-155.2941792956677
 30
0.0
 10
92.52478601437811
 20
-155.2390754067921
 30
0.0
  0
SPLINE
  5
8E
330
70
100
AcDbEntity
  8
レイヤー 1
 62
   250
420
  2299925
370
     9
100
AcDbSpline
210
0.0
220
0.0
230
1.0
 70
     9
 71
     3
 72
    17
 73
    13
 74
     0
 42
0.0000000001
 43
0.0000000001
 40
0.0
 40
0.0
 40
0.0
 40
0.0
 40
1.0
 40
1.0
 40
1.0
 40
2.0
 40
2.0
 40
2.0
 40
3.0
 40
3.0
 40
3.0
 40
4.0
 40
4.0
 40
4.0
 40
4.0
 10
105.6429684574825
 20
-154.4473715181021
 30
0.0
 10
105.6429684574825
 20
-154.3922676292265
 30
0.0
 10
105.6877006785635
 20
-154.3474648514598
 30
0.0
 10
105.7431926215922
 20
-154.3474648514598
 30
0.0
 10
105.7982965090753
 20
-154.3474648514598
 30
0.0
 10
105.8430992857101
 20
-154.3922676292265
 30
0.0
 10
105.8430992857101
 20
-154.4473715181021
 30
0.0
 10
105.8430992857101
 20
-154.5025106847545
 30
0.0
 10
105.7982965090753
 20
-154.5472781847431
 30
0.0
 10
105.7431926215922
 20
-154.5472781847431
 30
0.0
 10
105.6877006785635
 20
-154.5472781847431
 30
0.0
 10
105.6429684574825
 20
-154.5025106847545
 30
0.0
 10
105.6429684574825
 20
-154.4473715181021
 30
0.0
  0
SPLINE
  5
8F
330
70
100
AcDbEntity
  8
レイヤー 1
 62
   250
420
  2299925
370
     9
100
AcDbSpline
210
0.0
220
0.0
230
1.0
 70
     9
 71
     3
 72
    17
 73
    13
 74
     0
 42
0.0000000001
 43
0.0000000001
 40
0.0
 40
0.0
 40
0.0
 40
0.0
 40
1.0
 40
1.0
 40
1.0
 40
2.0
 40
2.0
 40
2.0
 40
3.0
 40
3.0
 40
3.0
 40
4.0
 40
4.0
 40
4.0
 40
4.0
 10
88.5246741719847
 20
-184.9475151215881
 30
0.0
 10
88.5246741719847
 20
-184.8923759549343
 30
0.0
 10
88.56947694861947
 20
-184.8476084549458
 30
0.0
 10
88.62493361387132
 20
-184.8476084549458
 30
0.0
 10
88.68007445494596
 20
-184.8476084549458
 30
0.0
 10
88.72484027798947
 20
-184.8923759549343
 30
0.0
 10
88.72484027798947
 20
-184.9475151215881
 30
0.0
 10
88.72484027798947
 20
-185.0026190104623
 30
0.0
 10
88.68007445494596
 20
-185.047421788229
 30
0.0
 10
88.62493361387132
 20
-185.047421788229
 30
0.0
 10
88.56947694861947
 20
-185.047421788229
 30
0.0
 10
88.5246741719847
 20
-185.0026190104623
 30
0.0
 10
88.5246741719847
 20
-184.9475151215881
 30
0.0
  0
SPLINE
  5
90
330
70
100
AcDbEntity
  8
レイヤー 1
 62
   250
420
  2299925
370
     9
100
AcDbSpline
210
0.0
220
0.0
230
1.0
 70
     9
 71
     3
 72
    17
 73
    13
 74
     0
 42
0.0000000001
 43
0.0000000001
 40
0.0
 40
0.0
 40
0.0
 40
0.0
 40
1.0
 40
1.0
 40
1.0
 40
2.0
 40
2.0
 40
2.0
 40
3.0
 40
3.0
 40
3.0
 40
4.0
 40
4.0
 40
4.0
 40
4.0
 10
92.52478601437811
 20
-188.9479445650317
 30
0.0
 10
92.52478601437811
 20
-188.8921351206019
 30
0.0
 10
92.56955351323567
 20
-188.847367620612
 30
0.0
 10
92.62469267849562
 20
-188.847367620612
 30
0.0
 10
92.68014934374747
 20
-188.847367620612
 30
0.0
 10
92.72495212038224
 20
-188.8921351206019
 30
0.0
 10
92.72495212038224
 20
-188.9479445650317
 30
0.0
 10
92.72495212038224
 20
-189.0030837316854
 30
0.0
 10
92.68014934374747
 20
-189.0478512316739
 30
0.0
 10
92.62469267849562
 20
-189.0478512316739
 30
0.0
 10
92.56955351323567
 20
-189.0478512316739
 30
0.0
 10
92.52478601437811
 20
-189.0030837316854
 30
0.0
 10
92.52478601437811
 20
-188.9479445650317
 30
0.0
  0
SPLINE
  5
91
330
70
100
AcDbEntity
  8
レイヤー 1
 62
   250
420
  2299925
370
     9
100
AcDbSpline
210
0.0
220
0.0
230
1.0
 70
     9
 71
     3
 72
    17
 73
    13
 74
     0
 42
0.0000000001
 43
0.0000000001
 40
0.0
 40
0.0
 40
0.0
 40
0.0
 40
1.0
 40
1.0
 40
1.0
 40
2.0
 40
2.0
 40
2.0
 40
3.0
 40
3.0
 40
3.0
 40
4.0
 40
4.0
 40
4.0
 40
4.0
 10
124.0250185440729
 20
-184.9475151215881
 30
0.0
 10
124.0250185440729
 20
-184.8923759549343
 30
0.0
 10
124.0694685429389
 20
-184.8476084549458
 30
0.0
 10
124.1249252081907
 20
-184.8476084549458
 30
0.0
 10
124.1803818734426
 20
-184.8476084549458
 30
0.0
 10
124.2251846500773
 20
-184.8923759549343
 30
0.0
 10
124.2251846500773
 20
-184.9475151215881
 30
0.0
 10
124.2251846500773
 20
-185.0026190104623
 30
0.0
 10
124.1803818734426
 20
-185.047421788229
 30
0.0
 10
124.1249252081907
 20
-185.047421788229
 30
0.0
 10
124.0694685429389
 20
-185.047421788229
 30
0.0
 10
124.0250185440729
 20
-185.0026190104623
 30
0.0
 10
124.0250185440729
 20
-184.9475151215881
 30
0.0
  0
SPLINE
  5
92
330
70
100
AcDbEntity
  8
レイヤー 1
 62
   250
420
  2299925
370
     9
100
AcDbSpline
210
0.0
220
0.0
230
1.0
 70
     9
 71
     3
 72
    17
 73
    13
 74
     0
 42
0.0000000001
 43
0.0000000001
 40
0.0
 40
0.0
 40
0.0
 40
0.0
 40
1.0
 40
1.0
 40
1.0
 40
2.0
 40
2.0
 40
2.0
 40
3.0
 40
3.0
 40
3.0
 40
4.0
 40
4.0
 40
4.0
 40
4.0
 10
124.0250185440729
 20
-180.9474031781428
 30
0.0
 10
124.0250185440729
 20
-180.8922992892685
 30
0.0
 10
124.0694685429389
 20
-180.8474965115017
 30
0.0
 10
124.1249252081907
 20
-180.8474965115017
 30
0.0
 10
124.1803818734426
 20
-180.8474965115017
 30
0.0
 10
124.2251846500773
 20
-180.8922992892685
 30
0.0
 10
124.2251846500773
 20
-180.9474031781428
 30
0.0
 10
124.2251846500773
 20
-181.0032126225739
 30
0.0
 10
124.1803818734426
 20
-181.0480154003406
 30
0.0
 10
124.1249252081907
 20
-181.0480154003406
 30
0.0
 10
124.0694685429389
 20
-181.0480154003406
 30
0.0
 10
124.0250185440729
 20
-181.0032126225739
 30
0.0
 10
124.0250185440729
 20
-180.9474031781428
 30
0.0
  0
SPLINE
  5
93
330
70
100
AcDbEntity
  8
レイヤー 1
 62
   250
420
  2299925
370
     9
100
AcDbSpline
210
0.0
220
0.0
230
1.0
 70
     9
 71
     3
 72
    17
 73
    13
 74
     0
 42
0.0000000001
 43
0.0000000001
 40
0.0
 40
0.0
 40
0.0
 40
0.0
 40
1.0
 40
1.0
 40
1.0
 40
2.0
 40
2.0
 40
2.0
 40
3.0
 40
3.0
 40
3.0
 40
4.0
 40
4.0
 40
4.0
 40
4.0
 10
117.5248059321294
 20
-188.9479445650317
 30
0.0
 10
117.5248059321294
 20
-188.8921351206019
 30
0.0
 10
117.5696087087641
 20
-188.847367620612
 30
0.0
 10
117.6247125962472
 20
-188.847367620612
 30
0.0
 10
117.6798517615071
 20
-188.847367620612
 30
0.0
 10
117.7246216699064
 20
-188.8921351206019
 30
0.0
 10
117.7246216699064
 20
-188.9479445650317
 30
0.0
 10
117.7246216699064
 20
-189.0030837316854
 30
0.0
 10
117.6798517615071
 20
-189.0478512316739
 30
0.0
 10
117.6247125962472
 20
-189.0478512316739
 30
0.0
 10
117.5696087087641
 20
-189.0478512316739
 30
0.0
 10
117.5248059321294
 20
-189.0030837316854
 30
0.0
 10
117.5248059321294
 20
-188.9479445650317
 30
0.0
  0
SPLINE
  5
94
330
70
100
AcDbEntity
  8
レイヤー 1
 62
   250
420
  2299925
370
     9
100
AcDbSpline
210
0.0
220
0.0
230
1.0
 70
     9
 71
     3
 72
    17
 73
    13
 74
     0
 42
0.0000000001
 43
0.0000000001
 40
0.0
 40
0.0
 40
0.0
 40
0.0
 40
1.0
 40
1.0
 40
1.0
 40
2.0
 40
2.0
 40
2.0
 40
3.0
 40
3.0
 40
3.0
 40
4.0
 40
4.0
 40
4.0
 40
4.0
 10
124.0250185440729
 20
-165.4475823486845
 30
0.0
 10
124.0250185440729
 20
-165.392443182032
 30
0.0
 10
124.0694685429389
 20
-165.3476756820434
 30
0.0
 10
124.1249252081907
 20
-165.3476756820434
 30
0.0
 10
124.1803818734426
 20
-165.3476756820434
 30
0.0
 10
124.2251846500773
 20
-165.392443182032
 30
0.0
 10
124.2251846500773
 20
-165.4475823486845
 30
0.0
 10
124.2251846500773
 20
-165.50268623756
 30
0.0
 10
124.1803818734426
 20
-165.5474890153267
 30
0.0
 10
124.1249252081907
 20
-165.5474890153267
 30
0.0
 10
124.0694685429389
 20
-165.5474890153267
 30
0.0
 10
124.0250185440729
 20
-165.50268623756
 30
0.0
 10
124.0250185440729
 20
-165.4475823486845
 30
0.0
  0
LINE
  5
95
330
70
100
AcDbEntity
  8
レイヤー 1
 62
   250
420
  2299925
370
     9
100
AcDbLine
 10
107.0130514780843
 20
-111.3680190288713
 30
0.0
 11
112.2709571772773
 21
-111.3680190288713
 31
0.0
  0
LINE
  5
96
330
70
100
AcDbEntity
  8
レイヤー 1
 62
   250
420
  2299925
370
     9
100
AcDbLine
 10
107.0130514780843
 20
-111.3680190288713
 30
0.0
 11
104.8130234786565
 21
-111.3680190288713
 31
0.0
  0
LINE
  5
97
330
70
100
AcDbEntity
  8
レイヤー 1
 62
   250
420
  2299925
370
     9
100
AcDbLine
 10
107.0130514780843
 20
-112.8280604173953
 30
0.0
 11
107.0130514780843
 21
-110.368246806899
 31
0.0
  0
LINE
  5
98
330
70
100
AcDbEntity
  8
レイヤー 1
 62
   250
420
  2299925
370
     9
100
AcDbLine
 10
105.8131484531409
 20
-112.8280604173953
 30
0.0
 11
105.8131484531409
 21
-110.368246806899
 31
0.0
  0
LINE
  5
99
330
70
100
AcDbEntity
  8
レイヤー 1
 62
   250
420
  2299925
370
     9
100
AcDbLine
 10
124.1249252081907
 20
-165.4475823486845
 30
0.0
 11
124.1249252081907
 21
-115.4475765278516
 31
0.0
  0
LINE
  5
9A
330
70
100
AcDbEntity
  8
レイヤー 1
 62
   250
420
  2299925
370
     9
100
AcDbLine
 10
109.2145633387007
 20
-165.4475823486845
 30
0.0
 11
125.124873793791
 21
-165.4475823486845
 31
0.0
  0
SPLINE
  5
9B
330
70
100
AcDbEntity
  8
レイヤー 1
 62
   250
420
  2299925
370
     9
100
AcDbSpline
210
0.0
220
0.0
230
1.0
 70
     9
 71
     3
 72
    17
 73
    13
 74
     0
 42
0.0000000001
 43
0.0000000001
 40
0.0
 40
0.0
 40
0.0
 40
0.0
 40
1.0
 40
1.0
 40
1.0
 40
2.0
 40
2.0
 40
2.0
 40
3.0
 40
3.0
 40
3.0
 40
4.0
 40
4.0
 40
4.0
 40
4.0
 10
124.0250185440729
 20
-115.4475765278516
 30
0.0
 10
124.0250185440729
 20
-115.3924373611988
 30
0.0
 10
124.0694685429389
 20
-115.3476698612099
 30
0.0
 10
124.1249252081907
 20
-115.3476698612099
 30
0.0
 10
124.1803818734426
 20
-115.3476698612099
 30
0.0
 10
124.2251846500773
 20
-115.3924373611988
 30
0.0
 10
124.2251846500773
 20
-115.4475765278516
 30
0.0
 10
124.2251846500773
 20
-115.5026804167268
 30
0.0
 10
124.1803818734426
 20
-115.5474831944932
 30
0.0
 10
124.1249252081907
 20
-115.5474831944932
 30
0.0
 10
124.0694685429389
 20
-115.5474831944932
 30
0.0
 10
124.0250185440729
 20
-115.5026804167268
 30
0.0
 10
124.0250185440729
 20
-115.4475765278516
 30
0.0
  0
LINE
  5
9C
330
70
100
AcDbEntity
  8
レイヤー 1
 62
   250
420
  2299925
370
     9
100
AcDbLine
 10
109.2145633387007
 20
-115.4475765278516
 30
0.0
 11
125.124873793791
 21
-115.4475765278516
 31
0.0
  0
LINE
  5
9D
330
70
100
AcDbEntity
  8
レイヤー 1
 62
   250
420
  2299925
370
     9
100
AcDbLine
 10
124.1249252081907
 20
-180.9474031781428
 30
0.0
 11
124.1249252081907
 21
-165.4475823486845
 31
0.0
  0
LINE
  5
9E
330
70
100
AcDbEntity
  8
レイヤー 1
 62
   250
420
  2299925
370
     9
100
AcDbLine
 10
122.6648838565506
 20
-180.9474031781428
 30
0.0
 11
125.124873793791
 21
-180.9474031781428
 31
0.0
  0
LINE
  5
9F
330
70
100
AcDbEntity
  8
レイヤー 1
 62
   250
420
  2299925
370
     9
100
AcDbLine
 10
124.1249252081907
 20
-180.9474031781428
 30
0.0
 11
124.1249252081907
 21
-184.9475151215881
 31
0.0
  0
LINE
  5
A0
330
70
100
AcDbEntity
  8
レイヤー 1
 62
   250
420
  2299925
370
     9
100
AcDbLine
 10
122.6648838565506
 20
-184.9475151215881
 30
0.0
 11
125.124873793791
 21
-184.9475151215881
 31
0.0
  0
LINE
  5
A1
330
70
100
AcDbEntity
  8
レイヤー 1
 62
   250
420
  2299925
370
     9
100
AcDbLine
 10
88.62493361387132
 20
-159.9475298500592
 30
0.0
 11
88.62493361387132
 21
-184.9475151215881
 31
0.0
  0
INSERT
  5
A3
330
70
100
AcDbEntity
  8
レイヤー 1
100
AcDbBlockReference
  2
Block_0
 10
0.0
 20
0.0
 30
0.0
  0
LINE
  5
A8
330
70
100
AcDbEntity
  8
レイヤー 1
 62
   250
420
  2299925
370
     9
100
AcDbLine
 10
90.08497496551145
 20
-184.9475151215881
 30
0.0
 11
87.62480863938662
 21
-184.9475151215881
 31
0.0
  0
LINE
  5
A9
330
70
100
AcDbEntity
  8
レイヤー 1
 62
   250
420
  2299925
370
     9
100
AcDbLine
 10
96.62480452088871
 20
-155.2390754067921
 30
0.0
 11
92.62469267849562
 21
-155.2390754067921
 31
0.0
  0
INSERT
  5
AB
330
70
100
AcDbEntity
  8
レイヤー 1
100
AcDbBlockReference
  2
Block_1
 10
0.0
 20
0.0
 30
0.0
  0
LINE
  5
B0
330
70
100
AcDbEntity
  8
レイヤー 1
 62
   250
420
  2299925
370
     9
100
AcDbLine
 10
92.62469267849562
 20
-156.6991167953158
 30
0.0
 11
92.62469267849562
 21
-154.2393031848203
 31
0.0
  0
LINE
  5
B1
330
70
100
AcDbEntity
  8
レイヤー 1
 62
   250
420
  2299925
370
     9
100
AcDbLine
 10
96.62480452088871
 20
-155.2390754067921
 30
0.0
 11
105.6429684574825
 21
-155.2390754067921
 31
0.0
  0
LINE
  5
B2
330
70
100
AcDbEntity
  8
レイヤー 1
 62
   250
420
  2299925
370
     9
100
AcDbLine
 10
117.6247125962472
 20
-188.9479445650317
 30
0.0
 11
92.62469267849562
 21
-188.9479445650317
 31
0.0
  0
LINE
  5
B3
330
70
100
AcDbEntity
  8
レイヤー 1
 62
   250
420
  2299925
370
     9
100
AcDbLine
 10
117.6247125962472
 20
-187.487903176508
 30
0.0
 11
117.6247125962472
 21
-189.9477167870048
 31
0.0
  0
LINE
  5
B4
330
70
100
AcDbEntity
  8
レイヤー 1
 62
   250
420
  2299925
370
     9
100
AcDbLine
 10
92.62469267849562
 20
-187.487903176508
 30
0.0
 11
92.62469267849562
 21
-189.9477167870048
 31
0.0
  0
INSERT
  5
B6
330
70
100
AcDbEntity
  8
レイヤー 1
100
AcDbBlockReference
  2
Block_2
 10
0.0
 20
0.0
 30
0.0
  0
INSERT
  5
C4
330
70
100
AcDbEntity
  8
レイヤー 1
100
AcDbBlockReference
  2
Block_4
 10
0.0
 20
0.0
 30
0.0
  0
INSERT
  5
D1
330
70
100
AcDbEntity
  8
レイヤー 1
100
AcDbBlockReference
  2
Block_6
 10
0.0
 20
0.0
 30
0.0
  0
INSERT
  5
E1
330
70
100
AcDbEntity
  8
レイヤー 1
100
AcDbBlockReference
  2
Block_8
 10
0.0
 20
0.0
 30
0.0
  0
INSERT
  5
E7
330
70
100
AcDbEntity
  8
レイヤー 1
100
AcDbBlockReference
  2
Block_9
 10
0.0
 20
0.0
 30
0.0
  0
INSERT
  5
F3
330
70
100
AcDbEntity
  8
レイヤー 1
100
AcDbBlockReference
  2
Block_11
 10
0.0
 20
0.0
 30
0.0
  0
INSERT
  5
F9
330
70
100
AcDbEntity
  8
レイヤー 1
100
AcDbBlockReference
  2
Block_12
 10
0.0
 20
0.0
 30
0.0
  0
INSERT
  5
106
330
70
100
AcDbEntity
  8
レイヤー 1
100
AcDbBlockReference
  2
Block_14
 10
0.0
 20
0.0
 30
0.0
  0
ENDSEC
  0
SECTION
  2
OBJECTS
  0
DICTIONARY
  5
C
330
0
100
AcDbDictionary
281
     1
  3
ACAD_COLOR
350
63
  3
ACAD_DETAILVIEWSTYLE
350
6A
  3
ACAD_GROUP
350
D
  3
ACAD_LAYOUT
350
62
  3
ACAD_MATERIAL
350
10
  3
ACAD_MLEADERSTYLE
350
66
  3
ACAD_MLINESTYLE
350
5F
  3
ACAD_PLOTSETTINGS
350
61
  3
ACAD_PLOTSTYLENAME
350
E
  3
ACAD_SCALELIST
350
42
  3
ACAD_SECTIONVIEWSTYLE
350
68
  3
ACAD_TABLESTYLE
350
64
  3
ACAD_VISUALSTYLE
350
29
  3
ACDB_RECOMPOSE_DATA
350
119
  3
AcDbVariableDictionary
350
111
  0
DICTIONARY
  5
63
102
{ACAD_REACTORS
330
C
102
}
330
C
100
AcDbDictionary
281
     1
  0
DICTIONARY
  5
6A
102
{ACAD_REACTORS
330
C
102
}
330
C
100
AcDbDictionary
281
     1
  3
Imperial24
350
6B
  0
DICTIONARY
  5
D
102
{ACAD_REACTORS
330
C
102
}
330
C
100
AcDbDictionary
281
     1
  0
DICTIONARY
  5
62
102
{ACAD_REACTORS
330
C
102
}
330
C
100
AcDbDictionary
281
     1
  3
Layout1
350
6F
  3
Layout2
350
77
  3
Model
350
73
  0
DICTIONARY
  5
10
102
{ACAD_REACTORS
330
C
102
}
330
C
100
AcDbDictionary
281
     1
  3
ByBlock
350
19
  3
ByLayer
350
11
  3
Global
350
21
  0
DICTIONARY
  5
66
102
{ACAD_REACTORS
330
C
102
}
330
C
100
AcDbDictionary
281
     1
  3
Standard
350
67
  0
DICTIONARY
  5
5F
102
{ACAD_REACTORS
330
C
102
}
330
C
100
AcDbDictionary
281
     1
  3
Standard
350
60
  0
DICTIONARY
  5
61
102
{ACAD_REACTORS
330
C
102
}
330
C
100
AcDbDictionary
281
     1
  0
ACDBDICTIONARYWDFLT
  5
E
102
{ACAD_REACTORS
330
C
102
}
330
C
100
AcDbDictionary
281
     1
  3
Normal
350
F
100
AcDbDictionaryWithDefault
340
F
  0
DICTIONARY
  5
42
102
{ACAD_REACTORS
330
C
102
}
330
C
100
AcDbDictionary
281
     1
  3
A0
350
43
  3
A1
350
44
  3
A2
350
45
  3
A3
350
46
  3
A4
350
47
  3
A5
350
48
  3
A6
350
49
  3
A7
350
4A
  3
A8
350
4B
  3
A9
350
4C
  3
B0
350
4D
  3
B1
350
4E
  3
B2
350
4F
  3
B3
350
50
  3
B4
350
51
  3
B5
350
52
  3
B6
350
53
  0
DICTIONARY
  5
68
102
{ACAD_REACTORS
330
C
102
}
330
C
100
AcDbDictionary
281
     1
  3
Imperial24
350
69
  0
DICTIONARY
  5
64
102
{ACAD_REACTORS
330
C
102
}
330
C
100
AcDbDictionary
281
     1
  3
Standard
350
65
  0
DICTIONARY
  5
29
102
{ACAD_REACTORS
330
C
102
}
330
C
100
AcDbDictionary
281
     1
  3
2dWireframe
350
2F
  3
Basic
350
2E
  3
Brighten
350
35
  3
ColorChange
350
39
  3
Conceptual
350
32
  3
Dim
350
34
  3
EdgeColorOff
350
41
  3
Facepattern
350
38
  3
Flat
350
2A
  3
FlatWithEdges
350
2B
  3
Gouraud
350
2C
  3
GouraudWithEdges
350
2D
  3
Hidden
350
31
  3
JitterOff
350
3F
  3
Linepattern
350
37
  3
OverhangOff
350
40
  3
Realistic
350
33
  3
Shaded
350
3E
  3
Shaded with edges
350
3D
  3
Shades of Gray
350
3A
  3
Sketchy
350
3B
  3
Thicken
350
36
  3
Wireframe
350
30
  3
X-Ray
350
3C
  0
XRECORD
  5
119
102
{ACAD_REACTORS
330
C
102
}
330
C
100
AcDbXrecord
280
     1
 90
        1
330
65
  0
DICTIONARY
  5
111
102
{ACAD_REACTORS
330
C
102
}
330
C
100
AcDbDictionary
281
     1
  3
CANNOSCALE
350
116
  3
CMLEADERSTYLE
350
113
  3
CTABLESTYLE
350
112
  3
CVIEWDETAILSTYLE
350
114
  3
CVIEWSECTIONSTYLE
350
115
  0
ACDBDETAILVIEWSTYLE
  5
6B
102
{ACAD_XDICTIONARY
360
14E
102
}
102
{ACAD_REACTORS
330
6A
102
}
330
6A
100
AcDbModelDocViewStyle
 70
     0
  3
Imperial24
290
     0
100
AcDbDetailViewStyle
 70
     0
 71
     0
 90
        3
 71
     1
340
55
 62
   256
 40
0.24
340
0
 62
   256
 40
0.24
300

 40
0.36
280
     3
 71
     2
340
5D
 90
       25
 62
   256
 71
     3
340
55
 62
   256
 40
0.24
 90
        1
 40
0.75
 90
        1
300
%<\AcVar ViewType \f "%tc1">% %<\AcVar ViewDetailId>%\PSCALE %<\AcVar ViewScale \f "%sn">%
 71
     4
340
5D
 90
       25
 62
   256
340
5D
 90
       25
 62
   256
280
     0
  0
LAYOUT
  5
6F
102
{ACAD_REACTORS
330
62
102
}
330
62
100
AcDbPlotSettings
  1

  2

  4

  6

 40
0.0
 41
0.0
 42
0.0
 43
0.0
 44
0.0
 45
0.0
 46
0.0
 47
0.0
 48
0.0
 49
0.0
140
0.0
141
0.0
142
1.0
143
1.0
 70
   688
 72
     0
 73
     0
 74
     5
  7

 75
    16
147
1.0
 76
     0
 77
     2
 78
   300
148
0.0
149
0.0
100
AcDbLayout
  1
Layout1
 70
     1
 71
     1
 10
0.0
 20
0.0
 11
12.0
 21
9.0
 12
0.0
 22
0.0
 32
0.0
 14
0.0
 24
0.0
 34
0.0
 15
0.0
 25
0.0
 35
0.0
146
0.0
 13
0.0
 23
0.0
 33
0.0
 16
1.0
 26
0.0
 36
0.0
 17
0.0
 27
1.0
 37
0.0
 76
     0
330
6C
  0
LAYOUT
  5
77
102
{ACAD_REACTORS
330
62
102
}
330
62
100
AcDbPlotSettings
  1

  2

  4

  6

 40
0.0
 41
0.0
 42
0.0
 43
0.0
 44
0.0
 45
0.0
 46
0.0
 47
0.0
 48
0.0
 49
0.0
140
0.0
141
0.0
142
1.0
143
1.0
 70
   688
 72
     0
 73
     0
 74
     5
  7

 75
    16
147
1.0
 76
     0
 77
     2
 78
   300
148
0.0
149
0.0
100
AcDbLayout
  1
Layout2
 70
     1
 71
     2
 10
0.0
 20
0.0
 11
12.0
 21
9.0
 12
0.0
 22
0.0
 32
0.0
 14
0.0
 24
0.0
 34
0.0
 15
0.0
 25
0.0
 35
0.0
146
0.0
 13
0.0
 23
0.0
 33
0.0
 16
1.0
 26
0.0
 36
0.0
 17
0.0
 27
1.0
 37
0.0
 76
     0
330
74
  0
LAYOUT
  5
73
102
{ACAD_REACTORS
330
62
102
}
330
62
100
AcDbPlotSettings
  1

  2

  4

  6

 40
0.0
 41
0.0
 42
0.0
 43
0.0
 44
0.0
 45
0.0
 46
0.0
 47
0.0
 48
0.0
 49
0.0
140
0.0
141
0.0
142
1.0
143
1.0
 70
  1712
 72
     0
 73
     0
 74
     0
  7

 75
     0
147
1.0
 76
     0
 77
     2
 78
   300
148
0.0
149
0.0
100
AcDbLayout
  1
Model
 70
     1
 71
     0
 10
0.0
 20
0.0
 11
12.0
 21
9.0
 12
0.0
 22
0.0
 32
0.0
 14
0.0
 24
0.0
 34
0.0
 15
0.0
 25
0.0
 35
0.0
146
0.0
 13
0.0
 23
0.0
 33
0.0
 16
1.0
 26
0.0
 36
0.0
 17
0.0
 27
1.0
 37
0.0
 76
     0
330
70
  0
MATERIAL
  5
19
102
{ACAD_XDICTIONARY
360
1A
102
}
102
{ACAD_REACTORS
330
10
102
}
330
10
100
AcDbMaterial
  1
ByBlock
 72
     0
 43
0.0208333333333333
 43
0.0
 43
0.0
 43
0.0
 43
0.0
 43
0.0208333333333333
 43
0.0
 43
0.0
 43
0.0
 43
0.0
 43
1.0
 43
0.0
 43
0.0
 43
0.0
 43
0.0
 43
1.0
 77
     0
 47
0.0208333333333333
 47
0.0
 47
0.0
 47
0.0
 47
0.0
 47
0.0208333333333333
 47
0.0
 47
0.0
 47
0.0
 47
0.0
 47
1.0
 47
0.0
 47
0.0
 47
0.0
 47
0.0
 47
1.0
171
     0
 49
0.0208333333333333
 49
0.0
 49
0.0
 49
0.0
 49
0.0
 49
0.0208333333333333
 49
0.0
 49
0.0
 49
0.0
 49
0.0
 49
1.0
 49
0.0
 49
0.0
 49
0.0
 49
0.0
 49
1.0
175
     0
142
0.0208333333333333
142
0.0
142
0.0
142
0.0
142
0.0
142
0.0208333333333333
142
0.0
142
0.0
142
0.0
142
0.0
142
1.0
142
0.0
142
0.0
142
0.0
142
0.0
142
1.0
179
     0
144
0.0208333333333333
144
0.0
144
0.0
144
0.0
144
0.0
144
0.0208333333333333
144
0.0
144
0.0
144
0.0
144
0.0
144
1.0
144
0.0
144
0.0
144
0.0
144
0.0
144
1.0
147
0.0208333333333333
147
0.0
147
0.0
147
0.0
147
0.0
147
0.0208333333333333
147
0.0
147
0.0
147
0.0
147
0.0
147
1.0
147
0.0
147
0.0
147
0.0
147
0.0
147
1.0
  0
MATERIAL
  5
11
102
{ACAD_XDICTIONARY
360
12
102
}
102
{ACAD_REACTORS
330
10
102
}
330
10
100
AcDbMaterial
  1
ByLayer
 72
     0
 43
0.0208333333333333
 43
0.0
 43
0.0
 43
0.0
 43
0.0
 43
0.0208333333333333
 43
0.0
 43
0.0
 43
0.0
 43
0.0
 43
1.0
 43
0.0
 43
0.0
 43
0.0
 43
0.0
 43
1.0
 77
     0
 47
0.0208333333333333
 47
0.0
 47
0.0
 47
0.0
 47
0.0
 47
0.0208333333333333
 47
0.0
 47
0.0
 47
0.0
 47
0.0
 47
1.0
 47
0.0
 47
0.0
 47
0.0
 47
0.0
 47
1.0
171
     0
 49
0.0208333333333333
 49
0.0
 49
0.0
 49
0.0
 49
0.0
 49
0.0208333333333333
 49
0.0
 49
0.0
 49
0.0
 49
0.0
 49
1.0
 49
0.0
 49
0.0
 49
0.0
 49
0.0
 49
1.0
175
     0
142
0.0208333333333333
142
0.0
142
0.0
142
0.0
142
0.0
142
0.0208333333333333
142
0.0
142
0.0
142
0.0
142
0.0
142
1.0
142
0.0
142
0.0
142
0.0
142
0.0
142
1.0
179
     0
144
0.0208333333333333
144
0.0
144
0.0
144
0.0
144
0.0
144
0.0208333333333333
144
0.0
144
0.0
144
0.0
144
0.0
144
1.0
144
0.0
144
0.0
144
0.0
144
0.0
144
1.0
147
0.0208333333333333
147
0.0
147
0.0
147
0.0
147
0.0
147
0.0208333333333333
147
0.0
147
0.0
147
0.0
147
0.0
147
1.0
147
0.0
147
0.0
147
0.0
147
0.0
147
1.0
  0
MATERIAL
  5
21
102
{ACAD_XDICTIONARY
360
22
102
}
102
{ACAD_REACTORS
330
10
102
}
330
10
100
AcDbMaterial
  1
Global
 72
     0
 43
0.0208333333333333
 43
0.0
 43
0.0
 43
0.0
 43
0.0
 43
0.0208333333333333
 43
0.0
 43
0.0
 43
0.0
 43
0.0
 43
1.0
 43
0.0
 43
0.0
 43
0.0
 43
0.0
 43
1.0
 77
     0
 47
0.0208333333333333
 47
0.0
 47
0.0
 47
0.0
 47
0.0
 47
0.0208333333333333
 47
0.0
 47
0.0
 47
0.0
 47
0.0
 47
1.0
 47
0.0
 47
0.0
 47
0.0
 47
0.0
 47
1.0
171
     0
 49
0.0208333333333333
 49
0.0
 49
0.0
 49
0.0
 49
0.0
 49
0.0208333333333333
 49
0.0
 49
0.0
 49
0.0
 49
0.0
 49
1.0
 49
0.0
 49
0.0
 49
0.0
 49
0.0
 49
1.0
175
     0
142
0.0208333333333333
142
0.0
142
0.0
142
0.0
142
0.0
142
0.0208333333333333
142
0.0
142
0.0
142
0.0
142
0.0
142
1.0
142
0.0
142
0.0
142
0.0
142
0.0
142
1.0
179
     0
144
0.0208333333333333
144
0.0
144
0.0
144
0.0
144
0.0
144
0.0208333333333333
144
0.0
144
0.0
144
0.0
144
0.0
144
1.0
144
0.0
144
0.0
144
0.0
144
0.0
144
1.0
147
0.0208333333333333
147
0.0
147
0.0
147
0.0
147
0.0
147
0.0208333333333333
147
0.0
147
0.0
147
0.0
147
0.0
147
1.0
147
0.0
147
0.0
147
0.0
147
0.0
147
1.0
  0
MLEADERSTYLE
  5
67
102
{ACAD_XDICTIONARY
360
14A
102
}
102
{ACAD_REACTORS
330
66
102
}
330
66
100
AcDbMLeaderStyle
179
     2
170
     2
171
     1
172
     0
 90
        2
 40
0.0
 41
0.0
173
     1
 91
-1056964608
340
5B
 92
       -2
290
     1
 42
0.09
291
     1
 43
0.36
  3
Standard
 44
0.18
300

342
55
174
     1
178
     6
175
     1
176
     0
 93
-1056964608
 45
0.18
292
     0
297
     0
 46
0.18
 94
-1056964608
 47
1.0
 49
1.0
140
1.0
293
     1
141
0.0
294
     1
177
     0
142
1.0
295
     0
296
     0
143
0.125
271
     0
272
     9
273
     9
  0
MLINESTYLE
  5
60
102
{ACAD_REACTORS
330
5F
102
}
330
5F
100
AcDbMlineStyle
  2
STANDARD
 70
     0
  3

 62
   256
 51
90.0
 52
90.0
 71
     2
 49
0.5
 62
   256
  6
BYLAYER
 49
-0.5
 62
   256
  6
BYLAYER
  0
ACDBPLACEHOLDER
  5
F
102
{ACAD_REACTORS
330
E
102
}
330
E
  0
SCALE
  5
43
102
{ACAD_REACTORS
330
42
102
}
330
42
100
AcDbScale
 70
     0
300
1:1
140
1.0
141
1.0
290
     1
  0
SCALE
  5
44
102
{ACAD_REACTORS
330
42
102
}
330
42
100
AcDbScale
 70
     0
300
1/128" = 1'-0"
140
0.0078125
141
12.0
290
     0
  0
SCALE
  5
45
102
{ACAD_REACTORS
330
42
102
}
330
42
100
AcDbScale
 70
     0
300
1/64" = 1'-0"
140
0.015625
141
12.0
290
     0
  0
SCALE
  5
46
102
{ACAD_REACTORS
330
42
102
}
330
42
100
AcDbScale
 70
     0
300
1/32" = 1'-0"
140
0.03125
141
12.0
290
     0
  0
SCALE
  5
47
102
{ACAD_REACTORS
330
42
102
}
330
42
100
AcDbScale
 70
     0
300
1/16" = 1'-0"
140
0.0625
141
12.0
290
     0
  0
SCALE
  5
48
102
{ACAD_REACTORS
330
42
102
}
330
42
100
AcDbScale
 70
     0
300
3/32" = 1'-0"
140
0.09375
141
12.0
290
     0
  0
SCALE
  5
49
102
{ACAD_REACTORS
330
42
102
}
330
42
100
AcDbScale
 70
     0
300
1/8" = 1'-0"
140
0.125
141
12.0
290
     0
  0
SCALE
  5
4A
102
{ACAD_REACTORS
330
42
102
}
330
42
100
AcDbScale
 70
     0
300
3/16" = 1'-0"
140
0.1875
141
12.0
290
     0
  0
SCALE
  5
4B
102
{ACAD_REACTORS
330
42
102
}
330
42
100
AcDbScale
 70
     0
300
1/4" = 1'-0"
140
0.25
141
12.0
290
     0
  0
SCALE
  5
4C
102
{ACAD_REACTORS
330
42
102
}
330
42
100
AcDbScale
 70
     0
300
3/8" = 1'-0"
140
0.375
141
12.0
290
     0
  0
SCALE
  5
4D
102
{ACAD_REACTORS
330
42
102
}
330
42
100
AcDbScale
 70
     0
300
1/2" = 1'-0"
140
0.5
141
12.0
290
     0
  0
SCALE
  5
4E
102
{ACAD_REACTORS
330
42
102
}
330
42
100
AcDbScale
 70
     0
300
3/4" = 1'-0"
140
0.75
141
12.0
290
     0
  0
SCALE
  5
4F
102
{ACAD_REACTORS
330
42
102
}
330
42
100
AcDbScale
 70
     0
300
1" = 1'-0"
140
1.0
141
12.0
290
     0
  0
SCALE
  5
50
102
{ACAD_REACTORS
330
42
102
}
330
42
100
AcDbScale
 70
     0
300
1-1/2" = 1'-0"
140
1.5
141
12.0
290
     0
  0
SCALE
  5
51
102
{ACAD_REACTORS
330
42
102
}
330
42
100
AcDbScale
 70
     0
300
3" = 1'-0"
140
3.0
141
12.0
290
     0
  0
SCALE
  5
52
102
{ACAD_REACTORS
330
42
102
}
330
42
100
AcDbScale
 70
     0
300
6" = 1'-0"
140
6.0
141
12.0
290
     0
  0
SCALE
  5
53
102
{ACAD_REACTORS
330
42
102
}
330
42
100
AcDbScale
 70
     0
300
1'-0" = 1'-0"
140
12.0
141
12.0
290
     0
  0
ACDBSECTIONVIEWSTYLE
  5
69
102
{ACAD_XDICTIONARY
360
14C
102
}
102
{ACAD_REACTORS
330
68
102
}
330
68
100
AcDbModelDocViewStyle
 70
     0
  3
Imperial24
290
     0
100
AcDbSectionViewStyle
 70
     0
 71
     0
 90
       78
 71
     1
340
55
 62
   256
 40
0.24
340
0
340
0
 62
   256
 40
0.24
300
I, O, Q, S, X, Z
 40
0.48
 90
        3
 40
0.18
 90
        1
 71
     2
340
5D
 90
       25
 62
   256
340
5D
 90
       50
 62
   256
 40
0.24
 40
0.0
 40
0.24
 71
     3
340
55
 62
   256
 40
0.24
 90
        1
 40
0.75
 90
        1
300
%<\AcVar ViewType \f "%tc1">% %<\AcVar ViewSectionStartId>%-%<\AcVar ViewSectionEndId>%\PSCALE %<\AcVar ViewScale \f "%sn">%
 71
     4
 62
   256
 62
   257
300
ANSI31
 40
1.0
 90
        0
290
     0
290
     0
 90
        6
 40
0.0
 40
1.570796326794896
 40
0.2617993877991494
 40
1.308996938995747
 40
-0.2617993877991494
 40
1.832595714594046
  0
TABLESTYLE
  5
65
102
{ACAD_XDICTIONARY
360
117
102
}
102
{ACAD_REACTORS
330
64
102
}
330
64
100
AcDbTableStyle
280
     0
  3
Standard
 70
     0
 71
     0
 40
0.06
 41
0.06
280
     0
281
     0
  7
Standard
140
0.18
170
     2
 62
     0
 63
     7
283
     0
 90
      512
 91
        0
  1

274
    -2
284
     1
 64
     0
275
    -2
285
     1
 65
     0
276
    -2
286
     1
 66
     0
277
    -2
287
     1
 67
     0
278
    -2
288
     1
 68
     0
279
    -2
289
     1
 69
     0
  7
Standard
140
0.25
170
     5
 62
     0
 63
     7
283
     0
 90
      512
 91
        0
  1

274
    -2
284
     1
 64
     0
275
    -2
285
     1
 65
     0
276
    -2
286
     1
 66
     0
277
    -2
287
     1
 67
     0
278
    -2
288
     1
 68
     0
279
    -2
289
     1
 69
     0
  7
Standard
140
0.18
170
     5
 62
     0
 63
     7
283
     0
 90
      512
 91
        0
  1

274
    -2
284
     1
 64
     0
275
    -2
285
     1
 65
     0
276
    -2
286
     1
 66
     0
277
    -2
287
     1
 67
     0
278
    -2
288
     1
 68
     0
279
    -2
289
     1
 69
     0
  0
VISUALSTYLE
  5
2F
102
{ACAD_XDICTIONARY
360
124
102
}
102
{ACAD_REACTORS
330
29
102
}
330
29
100
AcDbVisualStyle
  2
2dWireframe
 70
     4
177
     2
291
     0
 71
     0
176
     1
 72
     2
176
     1
 73
     0
176
     1
 90
        0
176
     1
 40
0.6
176
     1
 41
30.0
176
     1
 63
     7
421
 16777215
176
     1
 74
     1
176
     1
 91
        4
176
     1
 64
     7
176
     1
 65
   257
176
     1
 75
     1
176
     1
175
     1
176
     1
 42
1.0
176
     1
 92
        0
176
     1
 66
   257
176
     1
 43
1.0
176
     1
 76
     1
176
     1
 77
     6
176
     1
 78
     2
176
     1
 67
     7
176
     1
 79
     5
176
     1
170
     0
176
     1
171
     0
176
     1
290
     0
176
     1
 93
        1
176
     1
 44
0.0
176
     1
173
     0
176
     1
1001
ACAD
1000
AcDbSavedByObjectVersion
1070
     0
  0
VISUALSTYLE
  5
2E
102
{ACAD_XDICTIONARY
360
122
102
}
102
{ACAD_REACTORS
330
29
102
}
330
29
100
AcDbVisualStyle
  2
Basic
 70
     7
177
     2
291
     1
 71
     1
176
     1
 72
     0
176
     1
 73
     1
176
     1
 90
        0
176
     1
 40
0.6
176
     1
 41
30.0
176
     1
 63
     7
421
 16777215
176
     1
 74
     0
176
     1
 91
        4
176
     1
 64
     7
176
     1
 65
   257
176
     1
 75
     1
176
     1
175
     1
176
     1
 42
1.0
176
     1
 92
        8
176
     1
 66
     7
176
     1
 43
1.0
176
     1
 76
     1
176
     1
 77
     6
176
     1
 78
     2
176
     1
 67
     7
176
     1
 79
     5
176
     1
170
     0
176
     1
171
     0
176
     1
290
     0
176
     1
 93
        1
176
     1
 44
0.0
176
     1
173
     0
176
     1
1001
ACAD
1000
AcDbSavedByObjectVersion
1070
     0
  0
VISUALSTYLE
  5
35
102
{ACAD_XDICTIONARY
360
130
102
}
102
{ACAD_REACTORS
330
29
102
}
330
29
100
AcDbVisualStyle
  2
Brighten
 70
    12
177
     2
291
     1
 71
     2
176
     1
 72
     2
176
     1
 73
     0
176
     1
 90
        0
176
     1
 40
0.6
176
     1
 41
30.0
176
     1
 63
     7
421
 16777215
176
     1
 74
     1
176
     1
 91
        4
176
     1
 64
     7
176
     1
 65
   257
176
     1
 75
     1
176
     1
175
     1
176
     1
 42
1.0
176
     1
 92
        8
176
     1
 66
     7
176
     1
 43
1.0
176
     1
 76
     1
176
     1
 77
     6
176
     1
 78
     2
176
     1
 67
     7
176
     1
 79
     5
176
     1
170
     0
176
     1
171
     0
176
     1
290
     0
176
     1
 93
        1
176
     1
 44
50.0
176
     1
173
     0
176
     1
1001
ACAD
1000
AcDbSavedByObjectVersion
1070
     0
  0
VISUALSTYLE
  5
39
102
{ACAD_XDICTIONARY
360
138
102
}
102
{ACAD_REACTORS
330
29
102
}
330
29
100
AcDbVisualStyle
  2
ColorChange
 70
    16
177
     2
291
     1
 71
     2
176
     1
 72
     2
176
     1
 73
     3
176
     1
 90
        0
176
     1
 40
0.6
176
     1
 41
30.0
176
     1
 63
     8
421
  8421504
176
     1
 74
     1
176
     1
 91
        4
176
     1
 64
     7
176
     1
 65
   257
176
     1
 75
     1
176
     1
175
     1
176
     1
 42
1.0
176
     1
 92
        8
176
     1
 66
     8
424
  8421504
176
     1
 43
1.0
176
     1
 76
     1
176
     1
 77
     6
176
     1
 78
     2
176
     1
 67
     7
176
     1
 79
     5
176
     1
170
     0
176
     1
171
     0
176
     1
290
     0
176
     1
 93
        1
176
     1
 44
0.0
176
     1
173
     0
176
     1
1001
ACAD
1000
AcDbSavedByObjectVersion
1070
     0
  0
VISUALSTYLE
  5
32
102
{ACAD_XDICTIONARY
360
12A
102
}
102
{ACAD_REACTORS
330
29
102
}
330
29
100
AcDbVisualStyle
  2
Conceptual
 70
     9
177
     2
291
     0
 71
     3
176
     1
 72
     2
176
     1
 73
     0
176
     1
 90
        0
176
     1
 40
0.6
176
     1
 41
30.0
176
     1
 63
     7
421
 16777215
176
     1
 74
     2
176
     1
 91
        2
176
     1
 64
     7
176
     1
 65
   257
176
     1
 75
     1
176
     1
175
     1
176
     1
 42
179.0
176
     1
 92
        8
176
     1
 66
     7
176
     1
 43
1.0
176
     1
 76
     1
176
     1
 77
     6
176
     1
 78
     2
176
     1
 67
     7
176
     1
 79
     3
176
     1
170
     0
176
     1
171
     0
176
     1
290
     0
176
     1
 93
        1
176
     1
 44
0.0
176
     1
173
     0
176
     1
1001
ACAD
1000
AcDbSavedByObjectVersion
1070
     0
  0
VISUALSTYLE
  5
34
102
{ACAD_XDICTIONARY
360
12E
102
}
102
{ACAD_REACTORS
330
29
102
}
330
29
100
AcDbVisualStyle
  2
Dim
 70
    11
177
     2
291
     1
 71
     2
176
     1
 72
     2
176
     1
 73
     0
176
     1
 90
        0
176
     1
 40
0.6
176
     1
 41
30.0
176
     1
 63
     7
421
 16777215
176
     1
 74
     1
176
     1
 91
        4
176
     1
 64
     7
176
     1
 65
   257
176
     1
 75
     1
176
     1
175
     1
176
     1
 42
1.0
176
     1
 92
        8
176
     1
 66
     7
176
     1
 43
1.0
176
     1
 76
     1
176
     1
 77
     6
176
     1
 78
     2
176
     1
 67
     7
176
     1
 79
     5
176
     1
170
     0
176
     1
171
     0
176
     1
290
     0
176
     1
 93
        1
176
     1
 44
-50.0
176
     1
173
     0
176
     1
1001
ACAD
1000
AcDbSavedByObjectVersion
1070
     0
  0
VISUALSTYLE
  5
41
102
{ACAD_XDICTIONARY
360
148
102
}
102
{ACAD_REACTORS
330
29
102
}
330
29
100
AcDbVisualStyle
  2
EdgeColorOff
 70
    22
177
     2
291
     1
 71
     2
176
     0
 72
     2
176
     0
 73
     0
176
     0
 90
        0
176
     0
 40
0.6
176
     0
 41
30.0
176
     0
 63
     7
421
 16777215
176
     0
 74
     1
176
     0
 91
        4
176
     0
 64
     7
176
     0
 65
   257
176
     0
 75
     1
176
     0
175
     1
176
     0
 42
1.0
176
     0
 92
        8
176
     2
 66
     7
176
     0
 43
1.0
176
     0
 76
     1
176
     0
 77
     6
176
     0
 78
     2
176
     0
 67
     7
176
     0
 79
     5
176
     0
170
     0
176
     0
171
     0
176
     0
290
     0
176
     0
 93
        1
176
     0
 44
0.0
176
     0
173
     0
176
     0
1001
ACAD
1000
AcDbSavedByObjectVersion
1070
     0
  0
VISUALSTYLE
  5
38
102
{ACAD_XDICTIONARY
360
136
102
}
102
{ACAD_REACTORS
330
29
102
}
330
29
100
AcDbVisualStyle
  2
Facepattern
 70
    15
177
     2
291
     1
 71
     2
176
     1
 72
     2
176
     1
 73
     0
176
     1
 90
        0
176
     1
 40
0.6
176
     1
 41
30.0
176
     1
 63
     7
421
 16777215
176
     1
 74
     1
176
     1
 91
        4
176
     1
 64
     7
176
     1
 65
   257
176
     1
 75
     1
176
     1
175
     1
176
     1
 42
1.0
176
     1
 92
        8
176
     1
 66
     7
176
     1
 43
1.0
176
     1
 76
     1
176
     1
 77
     6
176
     1
 78
     2
176
     1
 67
     7
176
     1
 79
     5
176
     1
170
     0
176
     1
171
     0
176
     1
290
     0
176
     1
 93
        1
176
     1
 44
0.0
176
     1
173
     0
176
     1
1001
ACAD
1000
AcDbSavedByObjectVersion
1070
     0
  0
VISUALSTYLE
  5
2A
102
{ACAD_XDICTIONARY
360
11A
102
}
102
{ACAD_REACTORS
330
29
102
}
330
29
100
AcDbVisualStyle
  2
Flat
 70
     0
177
     2
291
     1
 71
     2
176
     1
 72
     1
176
     1
 73
     1
176
     1
 90
        2
176
     1
 40
0.6
176
     1
 41
30.0
176
     1
 63
     7
421
 16777215
176
     1
 74
     0
176
     1
 91
        0
176
     1
 64
     7
176
     1
 65
   257
176
     1
 75
     1
176
     1
175
     1
176
     1
 42
1.0
176
     1
 92
        8
176
     1
 66
     7
176
     1
 43
1.0
176
     1
 76
     1
176
     1
 77
     6
176
     1
 78
     2
176
     1
 67
     7
176
     1
 79
     5
176
     1
170
     0
176
     1
171
     0
176
     1
290
     0
176
     1
 93
       13
176
     1
 44
0.0
176
     1
173
     0
176
     1
1001
ACAD
1000
AcDbSavedByObjectVersion
1070
     0
  0
VISUALSTYLE
  5
2B
102
{ACAD_XDICTIONARY
360
11C
102
}
102
{ACAD_REACTORS
330
29
102
}
330
29
100
AcDbVisualStyle
  2
FlatWithEdges
 70
     1
177
     2
291
     1
 71
     2
176
     1
 72
     1
176
     1
 73
     1
176
     1
 90
        2
176
     1
 40
0.6
176
     1
 41
30.0
176
     1
 63
     7
421
 16777215
176
     1
 74
     1
176
     1
 91
        0
176
     1
 64
     7
176
     1
 65
   257
176
     1
 75
     1
176
     1
175
     1
176
     1
 42
1.0
176
     1
 92
        0
176
     1
 66
   257
176
     1
 43
1.0
176
     1
 76
     1
176
     1
 77
     6
176
     1
 78
     2
176
     1
 67
     7
176
     1
 79
     5
176
     1
170
     0
176
     1
171
     0
176
     1
290
     0
176
     1
 93
       13
176
     1
 44
0.0
176
     1
173
     0
176
     1
1001
ACAD
1000
AcDbSavedByObjectVersion
1070
     0
  0
VISUALSTYLE
  5
2C
102
{ACAD_XDICTIONARY
360
11E
102
}
102
{ACAD_REACTORS
330
29
102
}
330
29
100
AcDbVisualStyle
  2
Gouraud
 70
     2
177
     2
291
     1
 71
     2
176
     1
 72
     2
176
     1
 73
     1
176
     1
 90
        2
176
     1
 40
0.6
176
     1
 41
30.0
176
     1
 63
     7
421
 16777215
176
     1
 74
     0
176
     1
 91
        0
176
     1
 64
     7
176
     1
 65
   257
176
     1
 75
     1
176
     1
175
     1
176
     1
 42
1.0
176
     1
 92
        0
176
     1
 66
     7
176
     1
 43
1.0
176
     1
 76
     1
176
     1
 77
     6
176
     1
 78
     2
176
     1
 67
     7
176
     1
 79
     5
176
     1
170
     0
176
     1
171
     0
176
     1
290
     0
176
     1
 93
       13
176
     1
 44
0.0
176
     1
173
     0
176
     1
1001
ACAD
1000
AcDbSavedByObjectVersion
1070
     0
  0
VISUALSTYLE
  5
2D
102
{ACAD_XDICTIONARY
360
120
102
}
102
{ACAD_REACTORS
330
29
102
}
330
29
100
AcDbVisualStyle
  2
GouraudWithEdges
 70
     3
177
     2
291
     1
 71
     2
176
     1
 72
     2
176
     1
 73
     1
176
     1
 90
        2
176
     1
 40
0.6
176
     1
 41
30.0
176
     1
 63
     7
421
 16777215
176
     1
 74
     1
176
     1
 91
        0
176
     1
 64
     7
176
     1
 65
   257
176
     1
 75
     1
176
     1
175
     1
176
     1
 42
1.0
176
     1
 92
        0
176
     1
 66
   257
176
     1
 43
1.0
176
     1
 76
     1
176
     1
 77
     6
176
     1
 78
     2
176
     1
 67
     7
176
     1
 79
     5
176
     1
170
     0
176
     1
171
     0
176
     1
290
     0
176
     1
 93
       13
176
     1
 44
0.0
176
     1
173
     0
176
     1
1001
ACAD
1000
AcDbSavedByObjectVersion
1070
     0
  0
VISUALSTYLE
  5
31
102
{ACAD_XDICTIONARY
360
128
102
}
102
{ACAD_REACTORS
330
29
102
}
330
29
100
AcDbVisualStyle
  2
Hidden
 70
     6
177
     2
291
     0
 71
     1
176
     1
 72
     2
176
     1
 73
     2
176
     1
 90
        0
176
     1
 40
0.6
176
     1
 41
30.0
176
     1
 63
     7
421
 16777215
176
     1
 74
     2
176
     1
 91
        2
176
     1
 64
     7
176
     1
 65
   257
176
     1
 75
     2
176
     1
175
     1
176
     1
 42
40.0
176
     1
 92
        0
176
     1
 66
   257
176
     1
 43
1.0
176
     1
 76
     1
176
     1
 77
     6
176
     1
 78
     2
176
     1
 67
     7
176
     1
 79
     3
176
     1
170
     0
176
     1
171
     0
176
     1
290
     0
176
     1
 93
        1
176
     1
 44
0.0
176
     1
173
     0
176
     1
1001
ACAD
1000
AcDbSavedByObjectVersion
1070
     0
  0
VISUALSTYLE
  5
3F
102
{ACAD_XDICTIONARY
360
144
102
}
102
{ACAD_REACTORS
330
29
102
}
330
29
100
AcDbVisualStyle
  2
JitterOff
 70
    20
177
     2
291
     1
 71
     2
176
     0
 72
     2
176
     0
 73
     0
176
     0
 90
        0
176
     0
 40
0.6
176
     0
 41
30.0
176
     0
 63
     7
421
 16777215
176
     0
 74
     1
176
     0
 91
        4
176
     0
 64
     7
176
     0
 65
   257
176
     0
 75
     1
176
     0
175
     1
176
     0
 42
1.0
176
     0
 92
       10
176
     2
 66
     7
176
     0
 43
1.0
176
     0
 76
     1
176
     0
 77
     6
176
     0
 78
     2
176
     0
 67
     7
176
     0
 79
     5
176
     0
170
     0
176
     0
171
     0
176
     0
290
     0
176
     0
 93
        1
176
     0
 44
0.0
176
     0
173
     0
176
     0
1001
ACAD
1000
AcDbSavedByObjectVersion
1070
     0
  0
VISUALSTYLE
  5
37
102
{ACAD_XDICTIONARY
360
134
102
}
102
{ACAD_REACTORS
330
29
102
}
330
29
100
AcDbVisualStyle
  2
Linepattern
 70
    14
177
     2
291
     1
 71
     2
176
     1
 72
     2
176
     1
 73
     0
176
     1
 90
        0
176
     1
 40
0.6
176
     1
 41
30.0
176
     1
 63
     7
421
 16777215
176
     1
 74
     1
176
     1
 91
        4
176
     1
 64
     7
176
     1
 65
   257
176
     1
 75
     7
176
     1
175
     7
176
     1
 42
1.0
176
     1
 92
        8
176
     1
 66
     7
176
     1
 43
1.0
176
     1
 76
     1
176
     1
 77
     6
176
     1
 78
     2
176
     1
 67
     7
176
     1
 79
     5
176
     1
170
     0
176
     1
171
     0
176
     1
290
     0
176
     1
 93
        1
176
     1
 44
0.0
176
     1
173
     0
176
     1
1001
ACAD
1000
AcDbSavedByObjectVersion
1070
     0
  0
VISUALSTYLE
  5
40
102
{ACAD_XDICTIONARY
360
146
102
}
102
{ACAD_REACTORS
330
29
102
}
330
29
100
AcDbVisualStyle
  2
OverhangOff
 70
    21
177
     2
291
     1
 71
     2
176
     0
 72
     2
176
     0
 73
     0
176
     0
 90
        0
176
     0
 40
0.6
176
     0
 41
30.0
176
     0
 63
     7
421
 16777215
176
     0
 74
     1
176
     0
 91
        4
176
     0
 64
     7
176
     0
 65
   257
176
     0
 75
     1
176
     0
175
     1
176
     0
 42
1.0
176
     0
 92
        9
176
     2
 66
     7
176
     0
 43
1.0
176
     0
 76
     1
176
     0
 77
     6
176
     0
 78
     2
176
     0
 67
     7
176
     0
 79
     5
176
     0
170
     0
176
     0
171
     0
176
     0
290
     0
176
     0
 93
        1
176
     0
 44
0.0
176
     0
173
     0
176
     0
1001
ACAD
1000
AcDbSavedByObjectVersion
1070
     0
  0
VISUALSTYLE
  5
33
102
{ACAD_XDICTIONARY
360
12C
102
}
102
{ACAD_REACTORS
330
29
102
}
330
29
100
AcDbVisualStyle
  2
Realistic
 70
     8
177
     2
291
     0
 71
     2
176
     1
 72
     3
176
     1
 73
     0
176
     1
 90
        2
176
     1
 40
0.6
176
     1
 41
30.0
176
     1
 63
     7
421
 16777215
176
     1
 74
     0
176
     1
 91
        0
176
     1
 64
     7
176
     1
 65
   257
176
     1
 75
     1
176
     1
175
     1
176
     1
 42
1.0
176
     1
 92
        8
176
     1
 66
   257
176
     1
 43
1.0
176
     1
 76
     1
176
     1
 77
     6
176
     1
 78
     2
176
     1
 67
     7
176
     1
 79
     3
176
     1
170
     0
176
     1
171
     0
176
     1
290
     0
176
     1
 93
       13
176
     1
 44
0.0
176
     1
173
     0
176
     1
1001
ACAD
1000
AcDbSavedByObjectVersion
1070
     0
  0
VISUALSTYLE
  5
3E
102
{ACAD_XDICTIONARY
360
142
102
}
102
{ACAD_REACTORS
330
29
102
}
330
29
100
AcDbVisualStyle
  2
Shaded
 70
    27
177
     2
291
     0
 71
     2
176
     1
 72
     2
176
     1
 73
     1
176
     1
 90
        2
176
     1
 40
0.6
176
     1
 41
30.0
176
     1
 63
     7
421
 16777215
176
     1
 74
     0
176
     1
 91
        4
176
     1
 64
     7
176
     1
 65
   257
176
     1
 75
     1
176
     1
175
     1
176
     1
 42
1.0
176
     1
 92
        8
176
     1
 66
   257
176
     1
 43
1.0
176
     1
 76
     1
176
     1
 77
     6
176
     1
 78
     2
176
     1
 67
     8
425
  7895160
176
     1
 79
     3
176
     1
170
     0
176
     1
171
     0
176
     1
290
     0
176
     1
 93
        5
176
     1
 44
0.0
176
     1
173
     0
176
     1
1001
ACAD
1000
AcDbSavedByObjectVersion
1070
     0
  0
VISUALSTYLE
  5
3D
102
{ACAD_XDICTIONARY
360
140
102
}
102
{ACAD_REACTORS
330
29
102
}
330
29
100
AcDbVisualStyle
  2
Shaded with edges
 70
    26
177
     2
291
     0
 71
     2
176
     1
 72
     2
176
     1
 73
     1
176
     1
 90
        2
176
     1
 40
0.6
176
     1
 41
30.0
176
     1
 63
     7
421
 16777215
176
     1
 74
     1
176
     1
 91
        2
176
     1
 64
     7
176
     1
 65
   257
176
     1
 75
     2
176
     1
175
     1
176
     1
 42
1.0
176
     1
 92
        8
176
     1
 66
   257
176
     1
 43
1.0
176
     1
 76
     1
176
     1
 77
     6
176
     1
 78
     2
176
     1
 67
     7
176
     1
 79
     3
176
     1
170
     0
176
     1
171
     0
176
     1
290
     0
176
     1
 93
        5
176
     1
 44
0.0
176
     1
173
     0
176
     1
1001
ACAD
1000
AcDbSavedByObjectVersion
1070
     0
  0
VISUALSTYLE
  5
3A
102
{ACAD_XDICTIONARY
360
13A
102
}
102
{ACAD_REACTORS
330
29
102
}
330
29
100
AcDbVisualStyle
  2
Shades of Gray
 70
    23
177
     2
291
     0
 71
     2
176
     1
 72
     2
176
     1
 73
     3
176
     1
 90
        0
176
     1
 40
0.6
176
     1
 41
30.0
176
     1
 63
     7
421
 16777215
176
     1
 74
     2
176
     1
 91
        2
176
     1
 64
     7
176
     1
 65
     7
176
     1
 75
     1
176
     1
175
     1
176
     1
 42
40.0
176
     1
 92
        8
176
     1
 66
     7
176
     1
 43
1.0
176
     1
 76
     1
176
     1
 77
     6
176
     1
 78
     2
176
     1
 67
     7
176
     1
 79
     3
176
     1
170
     0
176
     1
171
     0
176
     1
290
     0
176
     1
 93
        1
176
     1
 44
0.0
176
     1
173
     0
176
     1
1001
ACAD
1000
AcDbSavedByObjectVersion
1070
     0
  0
VISUALSTYLE
  5
3B
102
{ACAD_XDICTIONARY
360
13C
102
}
102
{ACAD_REACTORS
330
29
102
}
330
29
100
AcDbVisualStyle
  2
Sketchy
 70
    24
177
     2
291
     0
 71
     1
176
     1
 72
     2
176
     1
 73
     2
176
     1
 90
        0
176
     1
 40
0.6
176
     1
 41
30.0
176
     1
 63
     7
421
 16777215
176
     1
 74
     2
176
     1
 91
        2
176
     1
 64
     7
176
     1
 65
     7
176
     1
 75
     1
176
     1
175
     1
176
     1
 42
40.0
176
     1
 92
       11
176
     1
 66
     7
176
     1
 43
1.0
176
     1
 76
     1
176
     1
 77
     6
176
     1
 78
     2
176
     1
 67
     7
176
     1
 79
     6
176
     1
170
     0
176
     1
171
     0
176
     1
290
     0
176
     1
 93
        1
176
     1
 44
0.0
176
     1
173
     0
176
     1
1001
ACAD
1000
AcDbSavedByObjectVersion
1070
     0
  0
VISUALSTYLE
  5
36
102
{ACAD_XDICTIONARY
360
132
102
}
102
{ACAD_REACTORS
330
29
102
}
330
29
100
AcDbVisualStyle
  2
Thicken
 70
    13
177
     2
291
     1
 71
     2
176
     1
 72
     2
176
     1
 73
     0
176
     1
 90
        0
176
     1
 40
0.6
176
     1
 41
30.0
176
     1
 63
     7
421
 16777215
176
     1
 74
     1
176
     1
 91
        4
176
     1
 64
     7
176
     1
 65
   257
176
     1
 75
     1
176
     1
175
     1
176
     1
 42
1.0
176
     1
 92
       12
176
     1
 66
     7
176
     1
 43
1.0
176
     1
 76
     1
176
     1
 77
     6
176
     1
 78
     2
176
     1
 67
     7
176
     1
 79
     5
176
     1
170
     0
176
     1
171
     0
176
     1
290
     0
176
     1
 93
        1
176
     1
 44
0.0
176
     1
173
     0
176
     1
1001
ACAD
1000
AcDbSavedByObjectVersion
1070
     0
  0
VISUALSTYLE
  5
30
102
{ACAD_XDICTIONARY
360
126
102
}
102
{ACAD_REACTORS
330
29
102
}
330
29
100
AcDbVisualStyle
  2
Wireframe
 70
     5
177
     2
291
     0
 71
     0
176
     1
 72
     2
176
     1
 73
     0
176
     1
 90
        0
176
     1
 40
0.6
176
     1
 41
30.0
176
     1
 63
     7
421
 16777215
176
     1
 74
     1
176
     1
 91
        4
176
     1
 64
     7
176
     1
 65
   257
176
     1
 75
     1
176
     1
175
     1
176
     1
 42
1.0
176
     1
 92
        0
176
     1
 66
   257
176
     1
 43
1.0
176
     1
 76
     1
176
     1
 77
     6
176
     1
 78
     2
176
     1
 67
     7
176
     1
 79
     3
176
     1
170
     0
176
     1
171
     0
176
     1
290
     0
176
     1
 93
        1
176
     1
 44
0.0
176
     1
173
     0
176
     1
1001
ACAD
1000
AcDbSavedByObjectVersion
1070
     0
  0
VISUALSTYLE
  5
3C
102
{ACAD_XDICTIONARY
360
13E
102
}
102
{ACAD_REACTORS
330
29
102
}
330
29
100
AcDbVisualStyle
  2
X-Ray
 70
    25
177
     2
291
     0
 71
     2
176
     1
 72
     2
176
     1
 73
     1
176
     1
 90
        1
176
     1
 40
0.5
176
     1
 41
30.0
176
     1
 63
     7
421
 16777215
176
     1
 74
     1
176
     1
 91
        0
176
     1
 64
     7
176
     1
 65
   257
176
     1
 75
     1
176
     1
175
     1
176
     1
 42
1.0
176
     1
 92
        8
176
     1
 66
     7
176
     1
 43
1.0
176
     1
 76
     1
176
     1
 77
     6
176
     1
 78
     2
176
     1
 67
     7
176
     1
 79
     3
176
     1
170
     0
176
     1
171
     0
176
     1
290
     0
176
     1
 93
       13
176
     1
 44
0.0
176
     1
173
     0
176
     1
1001
ACAD
1000
AcDbSavedByObjectVersion
1070
     0
  0
DICTIONARYVAR
  5
116
102
{ACAD_REACTORS
330
111
102
}
330
111
100
DictionaryVariables
280
     0
  1
1:1
  0
DICTIONARYVAR
  5
113
102
{ACAD_REACTORS
330
111
102
}
330
111
100
DictionaryVariables
280
     0
  1
STANDARD
  0
DICTIONARYVAR
  5
112
102
{ACAD_REACTORS
330
111
102
}
330
111
100
DictionaryVariables
280
     0
  1
STANDARD
  0
DICTIONARYVAR
  5
114
102
{ACAD_REACTORS
330
111
102
}
330
111
100
DictionaryVariables
280
     0
  1
Imperial24
  0
DICTIONARYVAR
  5
115
102
{ACAD_REACTORS
330
111
102
}
330
111
100
DictionaryVariables
280
     0
  1
Imperial24
  0
DICTIONARY
  5
14E
330
6B
100
AcDbDictionary
280
     1
281
     1
  3
ACAD_XREC_ROUNDTRIP
360
14F
  0
DICTIONARY
  5
1A
330
19
100
AcDbDictionary
280
     1
281
     1
  3
BUMPTILE
360
1C
  3
DIFFUSETILE
360
1B
  3
OPACITYTILE
360
1F
  3
REFLECTIONTILE
360
1E
  3
REFRACTIONTILE
360
20
  3
SPECULARTILE
360
1D
  0
DICTIONARY
  5
12
330
11
100
AcDbDictionary
280
     1
281
     1
  3
BUMPTILE
360
14
  3
DIFFUSETILE
360
13
  3
OPACITYTILE
360
17
  3
REFLECTIONTILE
360
16
  3
REFRACTIONTILE
360
18
  3
SPECULARTILE
360
15
  0
DICTIONARY
  5
22
330
21
100
AcDbDictionary
280
     1
281
     1
  3
BUMPTILE
360
24
  3
DIFFUSETILE
360
23
  3
OPACITYTILE
360
27
  3
REFLECTIONTILE
360
26
  3
REFRACTIONTILE
360
28
  3
SPECULARTILE
360
25
  0
DICTIONARY
  5
14A
330
67
100
AcDbDictionary
280
     1
281
     1
  3
ACAD_XREC_ROUNDTRIP
360
14B
  0
DICTIONARY
  5
14C
330
69
100
AcDbDictionary
280
     1
281
     1
  3
ACAD_XREC_ROUNDTRIP
360
14D
  0
DICTIONARY
  5
117
330
65
100
AcDbDictionary
280
     1
281
     1
  3
ACAD_ROUNDTRIP_2008_TABLESTYLE_CELLSTYLEMAP
360
118
  0
DICTIONARY
  5
124
330
2F
100
AcDbDictionary
280
     1
281
     1
  3
ACAD_XREC_ROUNDTRIP
360
125
  0
DICTIONARY
  5
122
330
2E
100
AcDbDictionary
280
     1
281
     1
  3
ACAD_XREC_ROUNDTRIP
360
123
  0
DICTIONARY
  5
130
330
35
100
AcDbDictionary
280
     1
281
     1
  3
ACAD_XREC_ROUNDTRIP
360
131
  0
DICTIONARY
  5
138
330
39
100
AcDbDictionary
280
     1
281
     1
  3
ACAD_XREC_ROUNDTRIP
360
139
  0
DICTIONARY
  5
12A
330
32
100
AcDbDictionary
280
     1
281
     1
  3
ACAD_XREC_ROUNDTRIP
360
12B
  0
DICTIONARY
  5
12E
330
34
100
AcDbDictionary
280
     1
281
     1
  3
ACAD_XREC_ROUNDTRIP
360
12F
  0
DICTIONARY
  5
148
330
41
100
AcDbDictionary
280
     1
281
     1
  3
ACAD_XREC_ROUNDTRIP
360
149
  0
DICTIONARY
  5
136
330
38
100
AcDbDictionary
280
     1
281
     1
  3
ACAD_XREC_ROUNDTRIP
360
137
  0
DICTIONARY
  5
11A
330
2A
100
AcDbDictionary
280
     1
281
     1
  3
ACAD_XREC_ROUNDTRIP
360
11B
  0
DICTIONARY
  5
11C
330
2B
100
AcDbDictionary
280
     1
281
     1
  3
ACAD_XREC_ROUNDTRIP
360
11D
  0
DICTIONARY
  5
11E
330
2C
100
AcDbDictionary
280
     1
281
     1
  3
ACAD_XREC_ROUNDTRIP
360
11F
  0
DICTIONARY
  5
120
330
2D
100
AcDbDictionary
280
     1
281
     1
  3
ACAD_XREC_ROUNDTRIP
360
121
  0
DICTIONARY
  5
128
330
31
100
AcDbDictionary
280
     1
281
     1
  3
ACAD_XREC_ROUNDTRIP
360
129
  0
DICTIONARY
  5
144
330
3F
100
AcDbDictionary
280
     1
281
     1
  3
ACAD_XREC_ROUNDTRIP
360
145
  0
DICTIONARY
  5
134
330
37
100
AcDbDictionary
280
     1
281
     1
  3
ACAD_XREC_ROUNDTRIP
360
135
  0
DICTIONARY
  5
146
330
40
100
AcDbDictionary
280
     1
281
     1
  3
ACAD_XREC_ROUNDTRIP
360
147
  0
DICTIONARY
  5
12C
330
33
100
AcDbDictionary
280
     1
281
     1
  3
ACAD_XREC_ROUNDTRIP
360
12D
  0
DICTIONARY
  5
142
330
3E
100
AcDbDictionary
280
     1
281
     1
  3
ACAD_XREC_ROUNDTRIP
360
143
  0
DICTIONARY
  5
140
330
3D
100
AcDbDictionary
280
     1
281
     1
  3
ACAD_XREC_ROUNDTRIP
360
141
  0
DICTIONARY
  5
13A
330
3A
100
AcDbDictionary
280
     1
281
     1
  3
ACAD_XREC_ROUNDTRIP
360
13B
  0
DICTIONARY
  5
13C
330
3B
100
AcDbDictionary
280
     1
281
     1
  3
ACAD_XREC_ROUNDTRIP
360
13D
  0
DICTIONARY
  5
132
330
36
100
AcDbDictionary
280
     1
281
     1
  3
ACAD_XREC_ROUNDTRIP
360
133
  0
DICTIONARY
  5
126
330
30
100
AcDbDictionary
280
     1
281
     1
  3
ACAD_XREC_ROUNDTRIP
360
127
  0
DICTIONARY
  5
13E
330
3C
100
AcDbDictionary
280
     1
281
     1
  3
ACAD_XREC_ROUNDTRIP
360
13F
  0
XRECORD
  5
14F
102
{ACAD_REACTORS
330
14E
102
}
330
14E
100
AcDbXrecord
280
     1
102
DISPLAYNAME
  1
Imperial24
102
FLAGS
 90
        0
  0
XRECORD
  5
1C
102
{ACAD_REACTORS
330
1A
102
}
330
1A
100
AcDbXrecord
280
     1
270
     1
271
     1
  0
XRECORD
  5
1B
102
{ACAD_REACTORS
330
1A
102
}
330
1A
100
AcDbXrecord
280
     1
270
     1
271
     1
  0
XRECORD
  5
1F
102
{ACAD_REACTORS
330
1A
102
}
330
1A
100
AcDbXrecord
280
     1
270
     1
271
     1
  0
XRECORD
  5
1E
102
{ACAD_REACTORS
330
1A
102
}
330
1A
100
AcDbXrecord
280
     1
270
     1
271
     1
  0
XRECORD
  5
20
102
{ACAD_REACTORS
330
1A
102
}
330
1A
100
AcDbXrecord
280
     1
270
     1
271
     1
  0
XRECORD
  5
1D
102
{ACAD_REACTORS
330
1A
102
}
330
1A
100
AcDbXrecord
280
     1
270
     1
271
     1
  0
XRECORD
  5
14
102
{ACAD_REACTORS
330
12
102
}
330
12
100
AcDbXrecord
280
     1
270
     1
271
     1
  0
XRECORD
  5
13
102
{ACAD_REACTORS
330
12
102
}
330
12
100
AcDbXrecord
280
     1
270
     1
271
     1
  0
XRECORD
  5
17
102
{ACAD_REACTORS
330
12
102
}
330
12
100
AcDbXrecord
280
     1
270
     1
271
     1
  0
XRECORD
  5
16
102
{ACAD_REACTORS
330
12
102
}
330
12
100
AcDbXrecord
280
     1
270
     1
271
     1
  0
XRECORD
  5
18
102
{ACAD_REACTORS
330
12
102
}
330
12
100
AcDbXrecord
280
     1
270
     1
271
     1
  0
XRECORD
  5
15
102
{ACAD_REACTORS
330
12
102
}
330
12
100
AcDbXrecord
280
     1
270
     1
271
     1
  0
XRECORD
  5
24
102
{ACAD_REACTORS
330
22
102
}
330
22
100
AcDbXrecord
280
     1
270
     1
271
     1
  0
XRECORD
  5
23
102
{ACAD_REACTORS
330
22
102
}
330
22
100
AcDbXrecord
280
     1
270
     1
271
     1
  0
XRECORD
  5
27
102
{ACAD_REACTORS
330
22
102
}
330
22
100
AcDbXrecord
280
     1
270
     1
271
     1
  0
XRECORD
  5
26
102
{ACAD_REACTORS
330
22
102
}
330
22
100
AcDbXrecord
280
     1
270
     1
271
     1
  0
XRECORD
  5
28
102
{ACAD_REACTORS
330
22
102
}
330
22
100
AcDbXrecord
280
     1
270
     1
271
     1
  0
XRECORD
  5
25
102
{ACAD_REACTORS
330
22
102
}
330
22
100
AcDbXrecord
280
     1
270
     1
271
     1
  0
XRECORD
  5
14B
102
{ACAD_REACTORS
330
14A
102
}
330
14A
100
AcDbXrecord
280
     1
102
ACAD_ROUNDTRIP_2012_MLEADER_STYLE
298
     1
  0
XRECORD
  5
14D
102
{ACAD_REACTORS
330
14C
102
}
330
14C
100
AcDbXrecord
280
     1
102
DISPLAYNAME
  1
Imperial24
102
FLAGS
 90
        0
  0
CELLSTYLEMAP
  5
118
102
{ACAD_REACTORS
330
117
102
}
330
117
100
AcDbCellStyleMap
 90
        3
300
CELLSTYLE
  1
TABLEFORMAT_BEGIN
 90
        5
170
     1
 91
        0
 92
    32768
 62
   257
 93
        1
300
CONTENTFORMAT
  1
CONTENTFORMAT_BEGIN
 90
        0
 91
        0
 92
      512
 93
        0
300

 40
0.0
140
1.0
 94
        5
 62
     0
340
55
144
0.25
309
CONTENTFORMAT_END
171
     0
 94
        0
309
TABLEFORMAT_END
  1
CELLSTYLE_BEGIN
 90
        1
 91
        1
300
_TITLE
309
CELLSTYLE_END
300
CELLSTYLE
  1
TABLEFORMAT_BEGIN
 90
        5
170
     1
 91
        0
 92
        0
 62
   257
 93
        1
300
CONTENTFORMAT
  1
CONTENTFORMAT_BEGIN
 90
        0
 91
        0
 92
      512
 93
        0
300

 40
0.0
140
1.0
 94
        5
 62
     0
340
55
144
0.18
309
CONTENTFORMAT_END
171
     0
 94
        0
309
TABLEFORMAT_END
  1
CELLSTYLE_BEGIN
 90
        2
 91
        1
300
_HEADER
309
CELLSTYLE_END
300
CELLSTYLE
  1
TABLEFORMAT_BEGIN
 90
        5
170
     1
 91
        0
 92
        0
 62
   257
 93
        1
300
CONTENTFORMAT
  1
CONTENTFORMAT_BEGIN
 90
        0
 91
        0
 92
      512
 93
        0
300

 40
0.0
140
1.0
 94
        2
 62
     0
340
55
144
0.18
309
CONTENTFORMAT_END
171
     0
 94
        0
309
TABLEFORMAT_END
  1
CELLSTYLE_BEGIN
 90
        3
 91
        2
300
_DATA
309
CELLSTYLE_END
  0
XRECORD
  5
125
102
{ACAD_REACTORS
330
124
102
}
330
124
100
AcDbXrecord
280
     1
102
RTVSPost2010Prop28
280
     1
102
RTVSPost2010PropOp28
 70
     1
102
RTVSPost2010Prop29
280
     1
102
RTVSPost2010PropOp29
 70
     1
102
RTVSPost2010Prop30
280
     0
102
RTVSPost2010PropOp30
 70
     1
102
RTVSPost2010Prop31
280
     0
102
RTVSPost2010PropOp31
 70
     1
102
RTVSPost2010Prop32
280
     0
102
RTVSPost2010PropOp32
 70
     1
102
RTVSPost2010Prop33
280
     0
102
RTVSPost2010PropOp33
 70
     1
102
RTVSPost2010Prop34
280
     0
102
RTVSPost2010PropOp34
 70
     1
102
RTVSPost2010Prop35
280
     0
102
RTVSPost2010PropOp35
 70
     1
102
RTVSPost2010Prop36
280
     0
102
RTVSPost2010PropOp36
 70
     1
102
RTVSPost2010Prop37
 90
       50
102
RTVSPost2010PropOp37
 70
     1
102
RTVSPost2010Prop38
140
0.0
102
RTVSPost2010PropOp38
 70
     1
102
RTVSPost2010Prop39
140
1.0
102
RTVSPost2010PropOp39
 70
     1
102
RTVSPost2010Prop40
 90
        0
102
RTVSPost2010PropOp40
 70
     1
102
RTVSPost2010Prop41ColorIndex
 90
       18
102
RTVSPost2010Prop41ColorRGB
 90
        0
102
RTVSPost2010PropOp41
 70
     1
102
RTVSPost2010Prop42
 90
       50
102
RTVSPost2010PropOp42
 70
     1
102
RTVSPost2010Prop43
 90
        3
102
RTVSPost2010PropOp43
 70
     1
102
RTVSPost2010Prop44ColorIndex
 90
        5
102
RTVSPost2010Prop44ColorRGB
 90
      255
102
RTVSPost2010PropOp44
 70
     1
102
RTVSPost2010Prop45
280
     0
102
RTVSPost2010PropOp45
 70
     1
102
RTVSPost2010Prop46
 90
       50
102
RTVSPost2010PropOp46
 70
     1
102
RTVSPost2010Prop47
 90
       50
102
RTVSPost2010PropOp47
 70
     1
102
RTVSPost2010Prop48
 90
       50
102
RTVSPost2010PropOp48
 70
     1
102
RTVSPost2010Prop49
280
     0
102
RTVSPost2010PropOp49
 70
     1
102
RTVSPost2010Prop50
 90
       50
102
RTVSPost2010PropOp50
 70
     1
102
RTVSPost2010Prop51ColorIndex
 90
      256
102
RTVSPost2010Prop51ColorRGB
 90
-16777216
102
RTVSPost2010PropOp51
 70
     0
102
RTVSPost2010Prop52
140
1.0
102
RTVSPost2010PropOp52
 70
     0
102
RTVSPost2010Prop53
 90
        2
102
RTVSPost2010PropOp53
 70
     1
102
RTVSPost2010Prop54
  1
strokes_ogs.tif
102
RTVSPost2010PropOp54
 70
     1
102
RTVSPost2010Prop55
280
     0
102
RTVSPost2010PropOp55
 70
     1
102
RTVSPost2010Prop56
140
1.0
102
RTVSPost2010PropOp56
 70
     1
102
RTVSPost2010Prop57
140
1.0
102
RTVSPost2010PropOp57
 70
     1
  0
XRECORD
  5
123
102
{ACAD_REACTORS
330
122
102
}
330
122
100
AcDbXrecord
280
     1
102
RTVSPost2010Prop28
280
     0
102
RTVSPost2010PropOp28
 70
     1
102
RTVSPost2010Prop29
280
     1
102
RTVSPost2010PropOp29
 70
     1
102
RTVSPost2010Prop30
280
     1
102
RTVSPost2010PropOp30
 70
     1
102
RTVSPost2010Prop31
280
     0
102
RTVSPost2010PropOp31
 70
     1
102
RTVSPost2010Prop32
280
     0
102
RTVSPost2010PropOp32
 70
     1
102
RTVSPost2010Prop33
280
     0
102
RTVSPost2010PropOp33
 70
     1
102
RTVSPost2010Prop34
280
     0
102
RTVSPost2010PropOp34
 70
     1
102
RTVSPost2010Prop35
280
     0
102
RTVSPost2010PropOp35
 70
     1
102
RTVSPost2010Prop36
280
     0
102
RTVSPost2010PropOp36
 70
     1
102
RTVSPost2010Prop37
 90
       50
102
RTVSPost2010PropOp37
 70
     1
102
RTVSPost2010Prop38
140
0.0
102
RTVSPost2010PropOp38
 70
     1
102
RTVSPost2010Prop39
140
1.0
102
RTVSPost2010PropOp39
 70
     1
102
RTVSPost2010Prop40
 90
        0
102
RTVSPost2010PropOp40
 70
     1
102
RTVSPost2010Prop41ColorIndex
 90
       18
102
RTVSPost2010Prop41ColorRGB
 90
        0
102
RTVSPost2010PropOp41
 70
     1
102
RTVSPost2010Prop42
 90
       50
102
RTVSPost2010PropOp42
 70
     1
102
RTVSPost2010Prop43
 90
        3
102
RTVSPost2010PropOp43
 70
     1
102
RTVSPost2010Prop44ColorIndex
 90
        5
102
RTVSPost2010Prop44ColorRGB
 90
      255
102
RTVSPost2010PropOp44
 70
     1
102
RTVSPost2010Prop45
280
     0
102
RTVSPost2010PropOp45
 70
     1
102
RTVSPost2010Prop46
 90
       50
102
RTVSPost2010PropOp46
 70
     1
102
RTVSPost2010Prop47
 90
       50
102
RTVSPost2010PropOp47
 70
     1
102
RTVSPost2010Prop48
 90
       50
102
RTVSPost2010PropOp48
 70
     1
102
RTVSPost2010Prop49
280
     0
102
RTVSPost2010PropOp49
 70
     1
102
RTVSPost2010Prop50
 90
       50
102
RTVSPost2010PropOp50
 70
     1
102
RTVSPost2010Prop51ColorIndex
 90
      256
102
RTVSPost2010Prop51ColorRGB
 90
-16777216
102
RTVSPost2010PropOp51
 70
     0
102
RTVSPost2010Prop52
140
1.0
102
RTVSPost2010PropOp52
 70
     0
102
RTVSPost2010Prop53
 90
        2
102
RTVSPost2010PropOp53
 70
     1
102
RTVSPost2010Prop54
  1
strokes_ogs.tif
102
RTVSPost2010PropOp54
 70
     1
102
RTVSPost2010Prop55
280
     0
102
RTVSPost2010PropOp55
 70
     1
102
RTVSPost2010Prop56
140
1.0
102
RTVSPost2010PropOp56
 70
     1
102
RTVSPost2010Prop57
140
1.0
102
RTVSPost2010PropOp57
 70
     1
  0
XRECORD
  5
131
102
{ACAD_REACTORS
330
130
102
}
330
130
100
AcDbXrecord
280
     1
102
RTVSPost2010Prop28
280
     0
102
RTVSPost2010PropOp28
 70
     1
102
RTVSPost2010Prop29
280
     1
102
RTVSPost2010PropOp29
 70
     1
102
RTVSPost2010Prop30
280
     1
102
RTVSPost2010PropOp30
 70
     1
102
RTVSPost2010Prop31
280
     0
102
RTVSPost2010PropOp31
 70
     1
102
RTVSPost2010Prop32
280
     0
102
RTVSPost2010PropOp32
 70
     1
102
RTVSPost2010Prop33
280
     0
102
RTVSPost2010PropOp33
 70
     1
102
RTVSPost2010Prop34
280
     0
102
RTVSPost2010PropOp34
 70
     1
102
RTVSPost2010Prop35
280
     0
102
RTVSPost2010PropOp35
 70
     1
102
RTVSPost2010Prop36
280
     0
102
RTVSPost2010PropOp36
 70
     1
102
RTVSPost2010Prop37
 90
       50
102
RTVSPost2010PropOp37
 70
     1
102
RTVSPost2010Prop38
140
0.0
102
RTVSPost2010PropOp38
 70
     1
102
RTVSPost2010Prop39
140
1.0
102
RTVSPost2010PropOp39
 70
     1
102
RTVSPost2010Prop40
 90
        0
102
RTVSPost2010PropOp40
 70
     1
102
RTVSPost2010Prop41ColorIndex
 90
       18
102
RTVSPost2010Prop41ColorRGB
 90
        0
102
RTVSPost2010PropOp41
 70
     1
102
RTVSPost2010Prop42
 90
       50
102
RTVSPost2010PropOp42
 70
     1
102
RTVSPost2010Prop43
 90
        3
102
RTVSPost2010PropOp43
 70
     1
102
RTVSPost2010Prop44ColorIndex
 90
        5
102
RTVSPost2010Prop44ColorRGB
 90
      255
102
RTVSPost2010PropOp44
 70
     1
102
RTVSPost2010Prop45
280
     0
102
RTVSPost2010PropOp45
 70
     1
102
RTVSPost2010Prop46
 90
       50
102
RTVSPost2010PropOp46
 70
     1
102
RTVSPost2010Prop47
 90
       50
102
RTVSPost2010PropOp47
 70
     1
102
RTVSPost2010Prop48
 90
       50
102
RTVSPost2010PropOp48
 70
     1
102
RTVSPost2010Prop49
280
     0
102
RTVSPost2010PropOp49
 70
     1
102
RTVSPost2010Prop50
 90
       50
102
RTVSPost2010PropOp50
 70
     1
102
RTVSPost2010Prop51ColorIndex
 90
      256
102
RTVSPost2010Prop51ColorRGB
 90
-16777216
102
RTVSPost2010PropOp51
 70
     0
102
RTVSPost2010Prop52
140
1.0
102
RTVSPost2010PropOp52
 70
     0
102
RTVSPost2010Prop53
 90
        2
102
RTVSPost2010PropOp53
 70
     1
102
RTVSPost2010Prop54
  1
strokes_ogs.tif
102
RTVSPost2010PropOp54
 70
     1
102
RTVSPost2010Prop55
280
     0
102
RTVSPost2010PropOp55
 70
     1
102
RTVSPost2010Prop56
140
1.0
102
RTVSPost2010PropOp56
 70
     1
102
RTVSPost2010Prop57
140
1.0
102
RTVSPost2010PropOp57
 70
     1
  0
XRECORD
  5
139
102
{ACAD_REACTORS
330
138
102
}
330
138
100
AcDbXrecord
280
     1
102
RTVSPost2010Prop28
280
     0
102
RTVSPost2010PropOp28
 70
     1
102
RTVSPost2010Prop29
280
     1
102
RTVSPost2010PropOp29
 70
     1
102
RTVSPost2010Prop30
280
     1
102
RTVSPost2010PropOp30
 70
     1
102
RTVSPost2010Prop31
280
     0
102
RTVSPost2010PropOp31
 70
     1
102
RTVSPost2010Prop32
280
     0
102
RTVSPost2010PropOp32
 70
     1
102
RTVSPost2010Prop33
280
     0
102
RTVSPost2010PropOp33
 70
     1
102
RTVSPost2010Prop34
280
     0
102
RTVSPost2010PropOp34
 70
     1
102
RTVSPost2010Prop35
280
     0
102
RTVSPost2010PropOp35
 70
     1
102
RTVSPost2010Prop36
280
     0
102
RTVSPost2010PropOp36
 70
     1
102
RTVSPost2010Prop37
 90
       50
102
RTVSPost2010PropOp37
 70
     1
102
RTVSPost2010Prop38
140
0.0
102
RTVSPost2010PropOp38
 70
     1
102
RTVSPost2010Prop39
140
1.0
102
RTVSPost2010PropOp39
 70
     1
102
RTVSPost2010Prop40
 90
        0
102
RTVSPost2010PropOp40
 70
     1
102
RTVSPost2010Prop41ColorIndex
 90
       18
102
RTVSPost2010Prop41ColorRGB
 90
        0
102
RTVSPost2010PropOp41
 70
     1
102
RTVSPost2010Prop42
 90
       50
102
RTVSPost2010PropOp42
 70
     1
102
RTVSPost2010Prop43
 90
        3
102
RTVSPost2010PropOp43
 70
     1
102
RTVSPost2010Prop44ColorIndex
 90
        5
102
RTVSPost2010Prop44ColorRGB
 90
      255
102
RTVSPost2010PropOp44
 70
     1
102
RTVSPost2010Prop45
280
     0
102
RTVSPost2010PropOp45
 70
     1
102
RTVSPost2010Prop46
 90
       50
102
RTVSPost2010PropOp46
 70
     1
102
RTVSPost2010Prop47
 90
       50
102
RTVSPost2010PropOp47
 70
     1
102
RTVSPost2010Prop48
 90
       50
102
RTVSPost2010PropOp48
 70
     1
102
RTVSPost2010Prop49
280
     0
102
RTVSPost2010PropOp49
 70
     1
102
RTVSPost2010Prop50
 90
       50
102
RTVSPost2010PropOp50
 70
     1
102
RTVSPost2010Prop51ColorIndex
 90
      256
102
RTVSPost2010Prop51ColorRGB
 90
-16777216
102
RTVSPost2010PropOp51
 70
     0
102
RTVSPost2010Prop52
140
1.0
102
RTVSPost2010PropOp52
 70
     0
102
RTVSPost2010Prop53
 90
        2
102
RTVSPost2010PropOp53
 70
     1
102
RTVSPost2010Prop54
  1
strokes_ogs.tif
102
RTVSPost2010PropOp54
 70
     1
102
RTVSPost2010Prop55
280
     0
102
RTVSPost2010PropOp55
 70
     1
102
RTVSPost2010Prop56
140
1.0
102
RTVSPost2010PropOp56
 70
     1
102
RTVSPost2010Prop57
140
1.0
102
RTVSPost2010PropOp57
 70
     1
  0
XRECORD
  5
12B
102
{ACAD_REACTORS
330
12A
102
}
330
12A
100
AcDbXrecord
280
     1
102
RTVSPost2010Prop28
280
     0
102
RTVSPost2010PropOp28
 70
     1
102
RTVSPost2010Prop29
280
     1
102
RTVSPost2010PropOp29
 70
     1
102
RTVSPost2010Prop30
280
     1
102
RTVSPost2010PropOp30
 70
     1
102
RTVSPost2010Prop31
280
     0
102
RTVSPost2010PropOp31
 70
     1
102
RTVSPost2010Prop32
280
     0
102
RTVSPost2010PropOp32
 70
     1
102
RTVSPost2010Prop33
280
     0
102
RTVSPost2010PropOp33
 70
     1
102
RTVSPost2010Prop34
280
     0
102
RTVSPost2010PropOp34
 70
     1
102
RTVSPost2010Prop35
280
     0
102
RTVSPost2010PropOp35
 70
     1
102
RTVSPost2010Prop36
280
     0
102
RTVSPost2010PropOp36
 70
     1
102
RTVSPost2010Prop37
 90
       50
102
RTVSPost2010PropOp37
 70
     1
102
RTVSPost2010Prop38
140
0.0
102
RTVSPost2010PropOp38
 70
     1
102
RTVSPost2010Prop39
140
1.0
102
RTVSPost2010PropOp39
 70
     1
102
RTVSPost2010Prop40
 90
        0
102
RTVSPost2010PropOp40
 70
     1
102
RTVSPost2010Prop41ColorIndex
 90
       18
102
RTVSPost2010Prop41ColorRGB
 90
        0
102
RTVSPost2010PropOp41
 70
     1
102
RTVSPost2010Prop42
 90
       50
102
RTVSPost2010PropOp42
 70
     1
102
RTVSPost2010Prop43
 90
        3
102
RTVSPost2010PropOp43
 70
     1
102
RTVSPost2010Prop44ColorIndex
 90
        5
102
RTVSPost2010Prop44ColorRGB
 90
      255
102
RTVSPost2010PropOp44
 70
     1
102
RTVSPost2010Prop45
280
     0
102
RTVSPost2010PropOp45
 70
     1
102
RTVSPost2010Prop46
 90
       50
102
RTVSPost2010PropOp46
 70
     1
102
RTVSPost2010Prop47
 90
       50
102
RTVSPost2010PropOp47
 70
     1
102
RTVSPost2010Prop48
 90
       50
102
RTVSPost2010PropOp48
 70
     1
102
RTVSPost2010Prop49
280
     0
102
RTVSPost2010PropOp49
 70
     1
102
RTVSPost2010Prop50
 90
       50
102
RTVSPost2010PropOp50
 70
     1
102
RTVSPost2010Prop51ColorIndex
 90
      256
102
RTVSPost2010Prop51ColorRGB
 90
-16777216
102
RTVSPost2010PropOp51
 70
     0
102
RTVSPost2010Prop52
140
1.0
102
RTVSPost2010PropOp52
 70
     0
102
RTVSPost2010Prop53
 90
        2
102
RTVSPost2010PropOp53
 70
     1
102
RTVSPost2010Prop54
  1
strokes_ogs.tif
102
RTVSPost2010PropOp54
 70
     1
102
RTVSPost2010Prop55
280
     0
102
RTVSPost2010PropOp55
 70
     1
102
RTVSPost2010Prop56
140
1.0
102
RTVSPost2010PropOp56
 70
     1
102
RTVSPost2010Prop57
140
1.0
102
RTVSPost2010PropOp57
 70
     1
  0
XRECORD
  5
12F
102
{ACAD_REACTORS
330
12E
102
}
330
12E
100
AcDbXrecord
280
     1
102
RTVSPost2010Prop28
280
     0
102
RTVSPost2010PropOp28
 70
     1
102
RTVSPost2010Prop29
280
     1
102
RTVSPost2010PropOp29
 70
     1
102
RTVSPost2010Prop30
280
     1
102
RTVSPost2010PropOp30
 70
     1
102
RTVSPost2010Prop31
280
     0
102
RTVSPost2010PropOp31
 70
     1
102
RTVSPost2010Prop32
280
     0
102
RTVSPost2010PropOp32
 70
     1
102
RTVSPost2010Prop33
280
     0
102
RTVSPost2010PropOp33
 70
     1
102
RTVSPost2010Prop34
280
     0
102
RTVSPost2010PropOp34
 70
     1
102
RTVSPost2010Prop35
280
     0
102
RTVSPost2010PropOp35
 70
     1
102
RTVSPost2010Prop36
280
     0
102
RTVSPost2010PropOp36
 70
     1
102
RTVSPost2010Prop37
 90
       50
102
RTVSPost2010PropOp37
 70
     1
102
RTVSPost2010Prop38
140
0.0
102
RTVSPost2010PropOp38
 70
     1
102
RTVSPost2010Prop39
140
1.0
102
RTVSPost2010PropOp39
 70
     1
102
RTVSPost2010Prop40
 90
        0
102
RTVSPost2010PropOp40
 70
     1
102
RTVSPost2010Prop41ColorIndex
 90
       18
102
RTVSPost2010Prop41ColorRGB
 90
        0
102
RTVSPost2010PropOp41
 70
     1
102
RTVSPost2010Prop42
 90
       50
102
RTVSPost2010PropOp42
 70
     1
102
RTVSPost2010Prop43
 90
        3
102
RTVSPost2010PropOp43
 70
     1
102
RTVSPost2010Prop44ColorIndex
 90
        5
102
RTVSPost2010Prop44ColorRGB
 90
      255
102
RTVSPost2010PropOp44
 70
     1
102
RTVSPost2010Prop45
280
     0
102
RTVSPost2010PropOp45
 70
     1
102
RTVSPost2010Prop46
 90
       50
102
RTVSPost2010PropOp46
 70
     1
102
RTVSPost2010Prop47
 90
       50
102
RTVSPost2010PropOp47
 70
     1
102
RTVSPost2010Prop48
 90
       50
102
RTVSPost2010PropOp48
 70
     1
102
RTVSPost2010Prop49
280
     0
102
RTVSPost2010PropOp49
 70
     1
102
RTVSPost2010Prop50
 90
       50
102
RTVSPost2010PropOp50
 70
     1
102
RTVSPost2010Prop51ColorIndex
 90
      256
102
RTVSPost2010Prop51ColorRGB
 90
-16777216
102
RTVSPost2010PropOp51
 70
     0
102
RTVSPost2010Prop52
140
1.0
102
RTVSPost2010PropOp52
 70
     0
102
RTVSPost2010Prop53
 90
        2
102
RTVSPost2010PropOp53
 70
     1
102
RTVSPost2010Prop54
  1
strokes_ogs.tif
102
RTVSPost2010PropOp54
 70
     1
102
RTVSPost2010Prop55
280
     0
102
RTVSPost2010PropOp55
 70
     1
102
RTVSPost2010Prop56
140
1.0
102
RTVSPost2010PropOp56
 70
     1
102
RTVSPost2010Prop57
140
1.0
102
RTVSPost2010PropOp57
 70
     1
  0
XRECORD
  5
149
102
{ACAD_REACTORS
330
148
102
}
330
148
100
AcDbXrecord
280
     1
102
RTVSPost2010Prop28
280
     0
102
RTVSPost2010PropOp28
 70
     0
102
RTVSPost2010Prop29
280
     1
102
RTVSPost2010PropOp29
 70
     0
102
RTVSPost2010Prop30
280
     1
102
RTVSPost2010PropOp30
 70
     0
102
RTVSPost2010Prop31
280
     0
102
RTVSPost2010PropOp31
 70
     0
102
RTVSPost2010Prop32
280
     0
102
RTVSPost2010PropOp32
 70
     0
102
RTVSPost2010Prop33
280
     0
102
RTVSPost2010PropOp33
 70
     0
102
RTVSPost2010Prop34
280
     0
102
RTVSPost2010PropOp34
 70
     0
102
RTVSPost2010Prop35
280
     0
102
RTVSPost2010PropOp35
 70
     0
102
RTVSPost2010Prop36
280
     0
102
RTVSPost2010PropOp36
 70
     0
102
RTVSPost2010Prop37
 90
       50
102
RTVSPost2010PropOp37
 70
     0
102
RTVSPost2010Prop38
140
0.0
102
RTVSPost2010PropOp38
 70
     0
102
RTVSPost2010Prop39
140
1.0
102
RTVSPost2010PropOp39
 70
     0
102
RTVSPost2010Prop40
 90
        0
102
RTVSPost2010PropOp40
 70
     0
102
RTVSPost2010Prop41ColorIndex
 90
       18
102
RTVSPost2010Prop41ColorRGB
 90
        0
102
RTVSPost2010PropOp41
 70
     0
102
RTVSPost2010Prop42
 90
       50
102
RTVSPost2010PropOp42
 70
     0
102
RTVSPost2010Prop43
 90
        3
102
RTVSPost2010PropOp43
 70
     0
102
RTVSPost2010Prop44ColorIndex
 90
        5
102
RTVSPost2010Prop44ColorRGB
 90
      255
102
RTVSPost2010PropOp44
 70
     0
102
RTVSPost2010Prop45
280
     0
102
RTVSPost2010PropOp45
 70
     0
102
RTVSPost2010Prop46
 90
       50
102
RTVSPost2010PropOp46
 70
     0
102
RTVSPost2010Prop47
 90
       50
102
RTVSPost2010PropOp47
 70
     0
102
RTVSPost2010Prop48
 90
       50
102
RTVSPost2010PropOp48
 70
     0
102
RTVSPost2010Prop49
280
     0
102
RTVSPost2010PropOp49
 70
     0
102
RTVSPost2010Prop50
 90
       50
102
RTVSPost2010PropOp50
 70
     0
102
RTVSPost2010Prop51ColorIndex
 90
      256
102
RTVSPost2010Prop51ColorRGB
 90
-16777216
102
RTVSPost2010PropOp51
 70
     0
102
RTVSPost2010Prop52
140
1.0
102
RTVSPost2010PropOp52
 70
     0
102
RTVSPost2010Prop53
 90
        2
102
RTVSPost2010PropOp53
 70
     0
102
RTVSPost2010Prop54
  1
strokes_ogs.tif
102
RTVSPost2010PropOp54
 70
     0
102
RTVSPost2010Prop55
280
     0
102
RTVSPost2010PropOp55
 70
     0
102
RTVSPost2010Prop56
140
1.0
102
RTVSPost2010PropOp56
 70
     0
102
RTVSPost2010Prop57
140
1.0
102
RTVSPost2010PropOp57
 70
     0
  0
XRECORD
  5
137
102
{ACAD_REACTORS
330
136
102
}
330
136
100
AcDbXrecord
280
     1
102
RTVSPost2010Prop28
280
     0
102
RTVSPost2010PropOp28
 70
     1
102
RTVSPost2010Prop29
280
     1
102
RTVSPost2010PropOp29
 70
     1
102
RTVSPost2010Prop30
280
     1
102
RTVSPost2010PropOp30
 70
     1
102
RTVSPost2010Prop31
280
     0
102
RTVSPost2010PropOp31
 70
     1
102
RTVSPost2010Prop32
280
     0
102
RTVSPost2010PropOp32
 70
     1
102
RTVSPost2010Prop33
280
     0
102
RTVSPost2010PropOp33
 70
     1
102
RTVSPost2010Prop34
280
     0
102
RTVSPost2010PropOp34
 70
     1
102
RTVSPost2010Prop35
280
     0
102
RTVSPost2010PropOp35
 70
     1
102
RTVSPost2010Prop36
280
     0
102
RTVSPost2010PropOp36
 70
     1
102
RTVSPost2010Prop37
 90
       50
102
RTVSPost2010PropOp37
 70
     1
102
RTVSPost2010Prop38
140
0.0
102
RTVSPost2010PropOp38
 70
     1
102
RTVSPost2010Prop39
140
1.0
102
RTVSPost2010PropOp39
 70
     1
102
RTVSPost2010Prop40
 90
        0
102
RTVSPost2010PropOp40
 70
     1
102
RTVSPost2010Prop41ColorIndex
 90
       18
102
RTVSPost2010Prop41ColorRGB
 90
        0
102
RTVSPost2010PropOp41
 70
     1
102
RTVSPost2010Prop42
 90
       50
102
RTVSPost2010PropOp42
 70
     1
102
RTVSPost2010Prop43
 90
        3
102
RTVSPost2010PropOp43
 70
     1
102
RTVSPost2010Prop44ColorIndex
 90
        5
102
RTVSPost2010Prop44ColorRGB
 90
      255
102
RTVSPost2010PropOp44
 70
     1
102
RTVSPost2010Prop45
280
     0
102
RTVSPost2010PropOp45
 70
     1
102
RTVSPost2010Prop46
 90
       50
102
RTVSPost2010PropOp46
 70
     1
102
RTVSPost2010Prop47
 90
       50
102
RTVSPost2010PropOp47
 70
     1
102
RTVSPost2010Prop48
 90
       50
102
RTVSPost2010PropOp48
 70
     1
102
RTVSPost2010Prop49
280
     0
102
RTVSPost2010PropOp49
 70
     1
102
RTVSPost2010Prop50
 90
       50
102
RTVSPost2010PropOp50
 70
     1
102
RTVSPost2010Prop51ColorIndex
 90
      256
102
RTVSPost2010Prop51ColorRGB
 90
-16777216
102
RTVSPost2010PropOp51
 70
     0
102
RTVSPost2010Prop52
140
1.0
102
RTVSPost2010PropOp52
 70
     0
102
RTVSPost2010Prop53
 90
        2
102
RTVSPost2010PropOp53
 70
     1
102
RTVSPost2010Prop54
  1
strokes_ogs.tif
102
RTVSPost2010PropOp54
 70
     1
102
RTVSPost2010Prop55
280
     0
102
RTVSPost2010PropOp55
 70
     1
102
RTVSPost2010Prop56
140
1.0
102
RTVSPost2010PropOp56
 70
     1
102
RTVSPost2010Prop57
140
1.0
102
RTVSPost2010PropOp57
 70
     1
  0
XRECORD
  5
11B
102
{ACAD_REACTORS
330
11A
102
}
330
11A
100
AcDbXrecord
280
     1
102
RTVSPost2010Prop28
280
     0
102
RTVSPost2010PropOp28
 70
     1
102
RTVSPost2010Prop29
280
     1
102
RTVSPost2010PropOp29
 70
     1
102
RTVSPost2010Prop30
280
     1
102
RTVSPost2010PropOp30
 70
     1
102
RTVSPost2010Prop31
280
     0
102
RTVSPost2010PropOp31
 70
     1
102
RTVSPost2010Prop32
280
     0
102
RTVSPost2010PropOp32
 70
     1
102
RTVSPost2010Prop33
280
     0
102
RTVSPost2010PropOp33
 70
     1
102
RTVSPost2010Prop34
280
     0
102
RTVSPost2010PropOp34
 70
     1
102
RTVSPost2010Prop35
280
     0
102
RTVSPost2010PropOp35
 70
     1
102
RTVSPost2010Prop36
280
     0
102
RTVSPost2010PropOp36
 70
     1
102
RTVSPost2010Prop37
 90
       50
102
RTVSPost2010PropOp37
 70
     1
102
RTVSPost2010Prop38
140
0.0
102
RTVSPost2010PropOp38
 70
     1
102
RTVSPost2010Prop39
140
1.0
102
RTVSPost2010PropOp39
 70
     1
102
RTVSPost2010Prop40
 90
        0
102
RTVSPost2010PropOp40
 70
     1
102
RTVSPost2010Prop41ColorIndex
 90
       18
102
RTVSPost2010Prop41ColorRGB
 90
        0
102
RTVSPost2010PropOp41
 70
     1
102
RTVSPost2010Prop42
 90
       50
102
RTVSPost2010PropOp42
 70
     1
102
RTVSPost2010Prop43
 90
        3
102
RTVSPost2010PropOp43
 70
     1
102
RTVSPost2010Prop44ColorIndex
 90
        5
102
RTVSPost2010Prop44ColorRGB
 90
      255
102
RTVSPost2010PropOp44
 70
     1
102
RTVSPost2010Prop45
280
     0
102
RTVSPost2010PropOp45
 70
     1
102
RTVSPost2010Prop46
 90
       50
102
RTVSPost2010PropOp46
 70
     1
102
RTVSPost2010Prop47
 90
       50
102
RTVSPost2010PropOp47
 70
     1
102
RTVSPost2010Prop48
 90
       50
102
RTVSPost2010PropOp48
 70
     1
102
RTVSPost2010Prop49
280
     0
102
RTVSPost2010PropOp49
 70
     1
102
RTVSPost2010Prop50
 90
       50
102
RTVSPost2010PropOp50
 70
     1
102
RTVSPost2010Prop51ColorIndex
 90
      256
102
RTVSPost2010Prop51ColorRGB
 90
-16777216
102
RTVSPost2010PropOp51
 70
     0
102
RTVSPost2010Prop52
140
1.0
102
RTVSPost2010PropOp52
 70
     0
102
RTVSPost2010Prop53
 90
        2
102
RTVSPost2010PropOp53
 70
     1
102
RTVSPost2010Prop54
  1
strokes_ogs.tif
102
RTVSPost2010PropOp54
 70
     1
102
RTVSPost2010Prop55
280
     0
102
RTVSPost2010PropOp55
 70
     1
102
RTVSPost2010Prop56
140
1.0
102
RTVSPost2010PropOp56
 70
     1
102
RTVSPost2010Prop57
140
1.0
102
RTVSPost2010PropOp57
 70
     1
  0
XRECORD
  5
11D
102
{ACAD_REACTORS
330
11C
102
}
330
11C
100
AcDbXrecord
280
     1
102
RTVSPost2010Prop28
280
     0
102
RTVSPost2010PropOp28
 70
     1
102
RTVSPost2010Prop29
280
     1
102
RTVSPost2010PropOp29
 70
     1
102
RTVSPost2010Prop30
280
     1
102
RTVSPost2010PropOp30
 70
     1
102
RTVSPost2010Prop31
280
     0
102
RTVSPost2010PropOp31
 70
     1
102
RTVSPost2010Prop32
280
     0
102
RTVSPost2010PropOp32
 70
     1
102
RTVSPost2010Prop33
280
     0
102
RTVSPost2010PropOp33
 70
     1
102
RTVSPost2010Prop34
280
     0
102
RTVSPost2010PropOp34
 70
     1
102
RTVSPost2010Prop35
280
     0
102
RTVSPost2010PropOp35
 70
     1
102
RTVSPost2010Prop36
280
     0
102
RTVSPost2010PropOp36
 70
     1
102
RTVSPost2010Prop37
 90
       50
102
RTVSPost2010PropOp37
 70
     1
102
RTVSPost2010Prop38
140
0.0
102
RTVSPost2010PropOp38
 70
     1
102
RTVSPost2010Prop39
140
1.0
102
RTVSPost2010PropOp39
 70
     1
102
RTVSPost2010Prop40
 90
        0
102
RTVSPost2010PropOp40
 70
     1
102
RTVSPost2010Prop41ColorIndex
 90
       18
102
RTVSPost2010Prop41ColorRGB
 90
        0
102
RTVSPost2010PropOp41
 70
     1
102
RTVSPost2010Prop42
 90
       50
102
RTVSPost2010PropOp42
 70
     1
102
RTVSPost2010Prop43
 90
        3
102
RTVSPost2010PropOp43
 70
     1
102
RTVSPost2010Prop44ColorIndex
 90
        5
102
RTVSPost2010Prop44ColorRGB
 90
      255
102
RTVSPost2010PropOp44
 70
     1
102
RTVSPost2010Prop45
280
     0
102
RTVSPost2010PropOp45
 70
     1
102
RTVSPost2010Prop46
 90
       50
102
RTVSPost2010PropOp46
 70
     1
102
RTVSPost2010Prop47
 90
       50
102
RTVSPost2010PropOp47
 70
     1
102
RTVSPost2010Prop48
 90
       50
102
RTVSPost2010PropOp48
 70
     1
102
RTVSPost2010Prop49
280
     0
102
RTVSPost2010PropOp49
 70
     1
102
RTVSPost2010Prop50
 90
       50
102
RTVSPost2010PropOp50
 70
     1
102
RTVSPost2010Prop51ColorIndex
 90
      256
102
RTVSPost2010Prop51ColorRGB
 90
-16777216
102
RTVSPost2010PropOp51
 70
     0
102
RTVSPost2010Prop52
140
1.0
102
RTVSPost2010PropOp52
 70
     0
102
RTVSPost2010Prop53
 90
        2
102
RTVSPost2010PropOp53
 70
     1
102
RTVSPost2010Prop54
  1
strokes_ogs.tif
102
RTVSPost2010PropOp54
 70
     1
102
RTVSPost2010Prop55
280
     0
102
RTVSPost2010PropOp55
 70
     1
102
RTVSPost2010Prop56
140
1.0
102
RTVSPost2010PropOp56
 70
     1
102
RTVSPost2010Prop57
140
1.0
102
RTVSPost2010PropOp57
 70
     1
  0
XRECORD
  5
11F
102
{ACAD_REACTORS
330
11E
102
}
330
11E
100
AcDbXrecord
280
     1
102
RTVSPost2010Prop28
280
     0
102
RTVSPost2010PropOp28
 70
     1
102
RTVSPost2010Prop29
280
     1
102
RTVSPost2010PropOp29
 70
     1
102
RTVSPost2010Prop30
280
     1
102
RTVSPost2010PropOp30
 70
     1
102
RTVSPost2010Prop31
280
     0
102
RTVSPost2010PropOp31
 70
     1
102
RTVSPost2010Prop32
280
     0
102
RTVSPost2010PropOp32
 70
     1
102
RTVSPost2010Prop33
280
     0
102
RTVSPost2010PropOp33
 70
     1
102
RTVSPost2010Prop34
280
     0
102
RTVSPost2010PropOp34
 70
     1
102
RTVSPost2010Prop35
280
     0
102
RTVSPost2010PropOp35
 70
     1
102
RTVSPost2010Prop36
280
     0
102
RTVSPost2010PropOp36
 70
     1
102
RTVSPost2010Prop37
 90
       50
102
RTVSPost2010PropOp37
 70
     1
102
RTVSPost2010Prop38
140
0.0
102
RTVSPost2010PropOp38
 70
     1
102
RTVSPost2010Prop39
140
1.0
102
RTVSPost2010PropOp39
 70
     1
102
RTVSPost2010Prop40
 90
        0
102
RTVSPost2010PropOp40
 70
     1
102
RTVSPost2010Prop41ColorIndex
 90
       18
102
RTVSPost2010Prop41ColorRGB
 90
        0
102
RTVSPost2010PropOp41
 70
     1
102
RTVSPost2010Prop42
 90
       50
102
RTVSPost2010PropOp42
 70
     1
102
RTVSPost2010Prop43
 90
        3
102
RTVSPost2010PropOp43
 70
     1
102
RTVSPost2010Prop44ColorIndex
 90
        5
102
RTVSPost2010Prop44ColorRGB
 90
      255
102
RTVSPost2010PropOp44
 70
     1
102
RTVSPost2010Prop45
280
     0
102
RTVSPost2010PropOp45
 70
     1
102
RTVSPost2010Prop46
 90
       50
102
RTVSPost2010PropOp46
 70
     1
102
RTVSPost2010Prop47
 90
       50
102
RTVSPost2010PropOp47
 70
     1
102
RTVSPost2010Prop48
 90
       50
102
RTVSPost2010PropOp48
 70
     1
102
RTVSPost2010Prop49
280
     0
102
RTVSPost2010PropOp49
 70
     1
102
RTVSPost2010Prop50
 90
       50
102
RTVSPost2010PropOp50
 70
     1
102
RTVSPost2010Prop51ColorIndex
 90
      256
102
RTVSPost2010Prop51ColorRGB
 90
-16777216
102
RTVSPost2010PropOp51
 70
     0
102
RTVSPost2010Prop52
140
1.0
102
RTVSPost2010PropOp52
 70
     0
102
RTVSPost2010Prop53
 90
        2
102
RTVSPost2010PropOp53
 70
     1
102
RTVSPost2010Prop54
  1
strokes_ogs.tif
102
RTVSPost2010PropOp54
 70
     1
102
RTVSPost2010Prop55
280
     0
102
RTVSPost2010PropOp55
 70
     1
102
RTVSPost2010Prop56
140
1.0
102
RTVSPost2010PropOp56
 70
     1
102
RTVSPost2010Prop57
140
1.0
102
RTVSPost2010PropOp57
 70
     1
  0
XRECORD
  5
121
102
{ACAD_REACTORS
330
120
102
}
330
120
100
AcDbXrecord
280
     1
102
RTVSPost2010Prop28
280
     0
102
RTVSPost2010PropOp28
 70
     1
102
RTVSPost2010Prop29
280
     1
102
RTVSPost2010PropOp29
 70
     1
102
RTVSPost2010Prop30
280
     1
102
RTVSPost2010PropOp30
 70
     1
102
RTVSPost2010Prop31
280
     0
102
RTVSPost2010PropOp31
 70
     1
102
RTVSPost2010Prop32
280
     0
102
RTVSPost2010PropOp32
 70
     1
102
RTVSPost2010Prop33
280
     0
102
RTVSPost2010PropOp33
 70
     1
102
RTVSPost2010Prop34
280
     0
102
RTVSPost2010PropOp34
 70
     1
102
RTVSPost2010Prop35
280
     0
102
RTVSPost2010PropOp35
 70
     1
102
RTVSPost2010Prop36
280
     0
102
RTVSPost2010PropOp36
 70
     1
102
RTVSPost2010Prop37
 90
       50
102
RTVSPost2010PropOp37
 70
     1
102
RTVSPost2010Prop38
140
0.0
102
RTVSPost2010PropOp38
 70
     1
102
RTVSPost2010Prop39
140
1.0
102
RTVSPost2010PropOp39
 70
     1
102
RTVSPost2010Prop40
 90
        0
102
RTVSPost2010PropOp40
 70
     1
102
RTVSPost2010Prop41ColorIndex
 90
       18
102
RTVSPost2010Prop41ColorRGB
 90
        0
102
RTVSPost2010PropOp41
 70
     1
102
RTVSPost2010Prop42
 90
       50
102
RTVSPost2010PropOp42
 70
     1
102
RTVSPost2010Prop43
 90
        3
102
RTVSPost2010PropOp43
 70
     1
102
RTVSPost2010Prop44ColorIndex
 90
        5
102
RTVSPost2010Prop44ColorRGB
 90
      255
102
RTVSPost2010PropOp44
 70
     1
102
RTVSPost2010Prop45
280
     0
102
RTVSPost2010PropOp45
 70
     1
102
RTVSPost2010Prop46
 90
       50
102
RTVSPost2010PropOp46
 70
     1
102
RTVSPost2010Prop47
 90
       50
102
RTVSPost2010PropOp47
 70
     1
102
RTVSPost2010Prop48
 90
       50
102
RTVSPost2010PropOp48
 70
     1
102
RTVSPost2010Prop49
280
     0
102
RTVSPost2010PropOp49
 70
     1
102
RTVSPost2010Prop50
 90
       50
102
RTVSPost2010PropOp50
 70
     1
102
RTVSPost2010Prop51ColorIndex
 90
      256
102
RTVSPost2010Prop51ColorRGB
 90
-16777216
102
RTVSPost2010PropOp51
 70
     0
102
RTVSPost2010Prop52
140
1.0
102
RTVSPost2010PropOp52
 70
     0
102
RTVSPost2010Prop53
 90
        2
102
RTVSPost2010PropOp53
 70
     1
102
RTVSPost2010Prop54
  1
strokes_ogs.tif
102
RTVSPost2010PropOp54
 70
     1
102
RTVSPost2010Prop55
280
     0
102
RTVSPost2010PropOp55
 70
     1
102
RTVSPost2010Prop56
140
1.0
102
RTVSPost2010PropOp56
 70
     1
102
RTVSPost2010Prop57
140
1.0
102
RTVSPost2010PropOp57
 70
     1
  0
XRECORD
  5
129
102
{ACAD_REACTORS
330
128
102
}
330
128
100
AcDbXrecord
280
     1
102
RTVSPost2010Prop28
280
     0
102
RTVSPost2010PropOp28
 70
     1
102
RTVSPost2010Prop29
280
     1
102
RTVSPost2010PropOp29
 70
     1
102
RTVSPost2010Prop30
280
     1
102
RTVSPost2010PropOp30
 70
     1
102
RTVSPost2010Prop31
280
     0
102
RTVSPost2010PropOp31
 70
     1
102
RTVSPost2010Prop32
280
     0
102
RTVSPost2010PropOp32
 70
     1
102
RTVSPost2010Prop33
280
     0
102
RTVSPost2010PropOp33
 70
     1
102
RTVSPost2010Prop34
280
     0
102
RTVSPost2010PropOp34
 70
     1
102
RTVSPost2010Prop35
280
     0
102
RTVSPost2010PropOp35
 70
     1
102
RTVSPost2010Prop36
280
     0
102
RTVSPost2010PropOp36
 70
     1
102
RTVSPost2010Prop37
 90
       50
102
RTVSPost2010PropOp37
 70
     1
102
RTVSPost2010Prop38
140
0.0
102
RTVSPost2010PropOp38
 70
     1
102
RTVSPost2010Prop39
140
1.0
102
RTVSPost2010PropOp39
 70
     1
102
RTVSPost2010Prop40
 90
        0
102
RTVSPost2010PropOp40
 70
     1
102
RTVSPost2010Prop41ColorIndex
 90
       18
102
RTVSPost2010Prop41ColorRGB
 90
        0
102
RTVSPost2010PropOp41
 70
     1
102
RTVSPost2010Prop42
 90
       50
102
RTVSPost2010PropOp42
 70
     1
102
RTVSPost2010Prop43
 90
        3
102
RTVSPost2010PropOp43
 70
     1
102
RTVSPost2010Prop44ColorIndex
 90
        5
102
RTVSPost2010Prop44ColorRGB
 90
      255
102
RTVSPost2010PropOp44
 70
     1
102
RTVSPost2010Prop45
280
     0
102
RTVSPost2010PropOp45
 70
     1
102
RTVSPost2010Prop46
 90
       50
102
RTVSPost2010PropOp46
 70
     1
102
RTVSPost2010Prop47
 90
       50
102
RTVSPost2010PropOp47
 70
     1
102
RTVSPost2010Prop48
 90
       50
102
RTVSPost2010PropOp48
 70
     1
102
RTVSPost2010Prop49
280
     0
102
RTVSPost2010PropOp49
 70
     1
102
RTVSPost2010Prop50
 90
       50
102
RTVSPost2010PropOp50
 70
     1
102
RTVSPost2010Prop51ColorIndex
 90
      256
102
RTVSPost2010Prop51ColorRGB
 90
-16777216
102
RTVSPost2010PropOp51
 70
     0
102
RTVSPost2010Prop52
140
1.0
102
RTVSPost2010PropOp52
 70
     0
102
RTVSPost2010Prop53
 90
        2
102
RTVSPost2010PropOp53
 70
     1
102
RTVSPost2010Prop54
  1
strokes_ogs.tif
102
RTVSPost2010PropOp54
 70
     1
102
RTVSPost2010Prop55
280
     0
102
RTVSPost2010PropOp55
 70
     1
102
RTVSPost2010Prop56
140
1.0
102
RTVSPost2010PropOp56
 70
     1
102
RTVSPost2010Prop57
140
1.0
102
RTVSPost2010PropOp57
 70
     1
  0
XRECORD
  5
145
102
{ACAD_REACTORS
330
144
102
}
330
144
100
AcDbXrecord
280
     1
102
RTVSPost2010Prop28
280
     0
102
RTVSPost2010PropOp28
 70
     0
102
RTVSPost2010Prop29
280
     1
102
RTVSPost2010PropOp29
 70
     0
102
RTVSPost2010Prop30
280
     1
102
RTVSPost2010PropOp30
 70
     0
102
RTVSPost2010Prop31
280
     0
102
RTVSPost2010PropOp31
 70
     0
102
RTVSPost2010Prop32
280
     0
102
RTVSPost2010PropOp32
 70
     0
102
RTVSPost2010Prop33
280
     0
102
RTVSPost2010PropOp33
 70
     0
102
RTVSPost2010Prop34
280
     0
102
RTVSPost2010PropOp34
 70
     0
102
RTVSPost2010Prop35
280
     0
102
RTVSPost2010PropOp35
 70
     0
102
RTVSPost2010Prop36
280
     0
102
RTVSPost2010PropOp36
 70
     0
102
RTVSPost2010Prop37
 90
       50
102
RTVSPost2010PropOp37
 70
     0
102
RTVSPost2010Prop38
140
0.0
102
RTVSPost2010PropOp38
 70
     0
102
RTVSPost2010Prop39
140
1.0
102
RTVSPost2010PropOp39
 70
     0
102
RTVSPost2010Prop40
 90
        0
102
RTVSPost2010PropOp40
 70
     0
102
RTVSPost2010Prop41ColorIndex
 90
       18
102
RTVSPost2010Prop41ColorRGB
 90
        0
102
RTVSPost2010PropOp41
 70
     0
102
RTVSPost2010Prop42
 90
       50
102
RTVSPost2010PropOp42
 70
     0
102
RTVSPost2010Prop43
 90
        3
102
RTVSPost2010PropOp43
 70
     0
102
RTVSPost2010Prop44ColorIndex
 90
        5
102
RTVSPost2010Prop44ColorRGB
 90
      255
102
RTVSPost2010PropOp44
 70
     0
102
RTVSPost2010Prop45
280
     0
102
RTVSPost2010PropOp45
 70
     0
102
RTVSPost2010Prop46
 90
       50
102
RTVSPost2010PropOp46
 70
     0
102
RTVSPost2010Prop47
 90
       50
102
RTVSPost2010PropOp47
 70
     0
102
RTVSPost2010Prop48
 90
       50
102
RTVSPost2010PropOp48
 70
     0
102
RTVSPost2010Prop49
280
     0
102
RTVSPost2010PropOp49
 70
     0
102
RTVSPost2010Prop50
 90
       50
102
RTVSPost2010PropOp50
 70
     0
102
RTVSPost2010Prop51ColorIndex
 90
      256
102
RTVSPost2010Prop51ColorRGB
 90
-16777216
102
RTVSPost2010PropOp51
 70
     0
102
RTVSPost2010Prop52
140
1.0
102
RTVSPost2010PropOp52
 70
     0
102
RTVSPost2010Prop53
 90
        2
102
RTVSPost2010PropOp53
 70
     0
102
RTVSPost2010Prop54
  1
strokes_ogs.tif
102
RTVSPost2010PropOp54
 70
     0
102
RTVSPost2010Prop55
280
     0
102
RTVSPost2010PropOp55
 70
     0
102
RTVSPost2010Prop56
140
1.0
102
RTVSPost2010PropOp56
 70
     0
102
RTVSPost2010Prop57
140
1.0
102
RTVSPost2010PropOp57
 70
     0
  0
XRECORD
  5
135
102
{ACAD_REACTORS
330
134
102
}
330
134
100
AcDbXrecord
280
     1
102
RTVSPost2010Prop28
280
     0
102
RTVSPost2010PropOp28
 70
     1
102
RTVSPost2010Prop29
280
     1
102
RTVSPost2010PropOp29
 70
     1
102
RTVSPost2010Prop30
280
     1
102
RTVSPost2010PropOp30
 70
     1
102
RTVSPost2010Prop31
280
     0
102
RTVSPost2010PropOp31
 70
     1
102
RTVSPost2010Prop32
280
     0
102
RTVSPost2010PropOp32
 70
     1
102
RTVSPost2010Prop33
280
     0
102
RTVSPost2010PropOp33
 70
     1
102
RTVSPost2010Prop34
280
     0
102
RTVSPost2010PropOp34
 70
     1
102
RTVSPost2010Prop35
280
     0
102
RTVSPost2010PropOp35
 70
     1
102
RTVSPost2010Prop36
280
     0
102
RTVSPost2010PropOp36
 70
     1
102
RTVSPost2010Prop37
 90
       50
102
RTVSPost2010PropOp37
 70
     1
102
RTVSPost2010Prop38
140
0.0
102
RTVSPost2010PropOp38
 70
     1
102
RTVSPost2010Prop39
140
1.0
102
RTVSPost2010PropOp39
 70
     1
102
RTVSPost2010Prop40
 90
        0
102
RTVSPost2010PropOp40
 70
     1
102
RTVSPost2010Prop41ColorIndex
 90
       18
102
RTVSPost2010Prop41ColorRGB
 90
        0
102
RTVSPost2010PropOp41
 70
     1
102
RTVSPost2010Prop42
 90
       50
102
RTVSPost2010PropOp42
 70
     1
102
RTVSPost2010Prop43
 90
        3
102
RTVSPost2010PropOp43
 70
     1
102
RTVSPost2010Prop44ColorIndex
 90
        5
102
RTVSPost2010Prop44ColorRGB
 90
      255
102
RTVSPost2010PropOp44
 70
     1
102
RTVSPost2010Prop45
280
     0
102
RTVSPost2010PropOp45
 70
     1
102
RTVSPost2010Prop46
 90
       50
102
RTVSPost2010PropOp46
 70
     1
102
RTVSPost2010Prop47
 90
       50
102
RTVSPost2010PropOp47
 70
     1
102
RTVSPost2010Prop48
 90
       50
102
RTVSPost2010PropOp48
 70
     1
102
RTVSPost2010Prop49
280
     0
102
RTVSPost2010PropOp49
 70
     1
102
RTVSPost2010Prop50
 90
       50
102
RTVSPost2010PropOp50
 70
     1
102
RTVSPost2010Prop51ColorIndex
 90
      256
102
RTVSPost2010Prop51ColorRGB
 90
-16777216
102
RTVSPost2010PropOp51
 70
     0
102
RTVSPost2010Prop52
140
1.0
102
RTVSPost2010PropOp52
 70
     0
102
RTVSPost2010Prop53
 90
        2
102
RTVSPost2010PropOp53
 70
     1
102
RTVSPost2010Prop54
  1
strokes_ogs.tif
102
RTVSPost2010PropOp54
 70
     1
102
RTVSPost2010Prop55
280
     0
102
RTVSPost2010PropOp55
 70
     1
102
RTVSPost2010Prop56
140
1.0
102
RTVSPost2010PropOp56
 70
     1
102
RTVSPost2010Prop57
140
1.0
102
RTVSPost2010PropOp57
 70
     1
  0
XRECORD
  5
147
102
{ACAD_REACTORS
330
146
102
}
330
146
100
AcDbXrecord
280
     1
102
RTVSPost2010Prop28
280
     0
102
RTVSPost2010PropOp28
 70
     0
102
RTVSPost2010Prop29
280
     1
102
RTVSPost2010PropOp29
 70
     0
102
RTVSPost2010Prop30
280
     1
102
RTVSPost2010PropOp30
 70
     0
102
RTVSPost2010Prop31
280
     0
102
RTVSPost2010PropOp31
 70
     0
102
RTVSPost2010Prop32
280
     0
102
RTVSPost2010PropOp32
 70
     0
102
RTVSPost2010Prop33
280
     0
102
RTVSPost2010PropOp33
 70
     0
102
RTVSPost2010Prop34
280
     0
102
RTVSPost2010PropOp34
 70
     0
102
RTVSPost2010Prop35
280
     0
102
RTVSPost2010PropOp35
 70
     0
102
RTVSPost2010Prop36
280
     0
102
RTVSPost2010PropOp36
 70
     0
102
RTVSPost2010Prop37
 90
       50
102
RTVSPost2010PropOp37
 70
     0
102
RTVSPost2010Prop38
140
0.0
102
RTVSPost2010PropOp38
 70
     0
102
RTVSPost2010Prop39
140
1.0
102
RTVSPost2010PropOp39
 70
     0
102
RTVSPost2010Prop40
 90
        0
102
RTVSPost2010PropOp40
 70
     0
102
RTVSPost2010Prop41ColorIndex
 90
       18
102
RTVSPost2010Prop41ColorRGB
 90
        0
102
RTVSPost2010PropOp41
 70
     0
102
RTVSPost2010Prop42
 90
       50
102
RTVSPost2010PropOp42
 70
     0
102
RTVSPost2010Prop43
 90
        3
102
RTVSPost2010PropOp43
 70
     0
102
RTVSPost2010Prop44ColorIndex
 90
        5
102
RTVSPost2010Prop44ColorRGB
 90
      255
102
RTVSPost2010PropOp44
 70
     0
102
RTVSPost2010Prop45
280
     0
102
RTVSPost2010PropOp45
 70
     0
102
RTVSPost2010Prop46
 90
       50
102
RTVSPost2010PropOp46
 70
     0
102
RTVSPost2010Prop47
 90
       50
102
RTVSPost2010PropOp47
 70
     0
102
RTVSPost2010Prop48
 90
       50
102
RTVSPost2010PropOp48
 70
     0
102
RTVSPost2010Prop49
280
     0
102
RTVSPost2010PropOp49
 70
     0
102
RTVSPost2010Prop50
 90
       50
102
RTVSPost2010PropOp50
 70
     0
102
RTVSPost2010Prop51ColorIndex
 90
      256
102
RTVSPost2010Prop51ColorRGB
 90
-16777216
102
RTVSPost2010PropOp51
 70
     0
102
RTVSPost2010Prop52
140
1.0
102
RTVSPost2010PropOp52
 70
     0
102
RTVSPost2010Prop53
 90
        2
102
RTVSPost2010PropOp53
 70
     0
102
RTVSPost2010Prop54
  1
strokes_ogs.tif
102
RTVSPost2010PropOp54
 70
     0
102
RTVSPost2010Prop55
280
     0
102
RTVSPost2010PropOp55
 70
     0
102
RTVSPost2010Prop56
140
1.0
102
RTVSPost2010PropOp56
 70
     0
102
RTVSPost2010Prop57
140
1.0
102
RTVSPost2010PropOp57
 70
     0
  0
XRECORD
  5
12D
102
{ACAD_REACTORS
330
12C
102
}
330
12C
100
AcDbXrecord
280
     1
102
RTVSPost2010Prop28
280
     0
102
RTVSPost2010PropOp28
 70
     1
102
RTVSPost2010Prop29
280
     1
102
RTVSPost2010PropOp29
 70
     1
102
RTVSPost2010Prop30
280
     1
102
RTVSPost2010PropOp30
 70
     1
102
RTVSPost2010Prop31
280
     0
102
RTVSPost2010PropOp31
 70
     1
102
RTVSPost2010Prop32
280
     0
102
RTVSPost2010PropOp32
 70
     1
102
RTVSPost2010Prop33
280
     0
102
RTVSPost2010PropOp33
 70
     1
102
RTVSPost2010Prop34
280
     0
102
RTVSPost2010PropOp34
 70
     1
102
RTVSPost2010Prop35
280
     0
102
RTVSPost2010PropOp35
 70
     1
102
RTVSPost2010Prop36
280
     0
102
RTVSPost2010PropOp36
 70
     1
102
RTVSPost2010Prop37
 90
       50
102
RTVSPost2010PropOp37
 70
     1
102
RTVSPost2010Prop38
140
0.0
102
RTVSPost2010PropOp38
 70
     1
102
RTVSPost2010Prop39
140
1.0
102
RTVSPost2010PropOp39
 70
     1
102
RTVSPost2010Prop40
 90
        0
102
RTVSPost2010PropOp40
 70
     1
102
RTVSPost2010Prop41ColorIndex
 90
       18
102
RTVSPost2010Prop41ColorRGB
 90
        0
102
RTVSPost2010PropOp41
 70
     1
102
RTVSPost2010Prop42
 90
       50
102
RTVSPost2010PropOp42
 70
     1
102
RTVSPost2010Prop43
 90
        3
102
RTVSPost2010PropOp43
 70
     1
102
RTVSPost2010Prop44ColorIndex
 90
        5
102
RTVSPost2010Prop44ColorRGB
 90
      255
102
RTVSPost2010PropOp44
 70
     1
102
RTVSPost2010Prop45
280
     0
102
RTVSPost2010PropOp45
 70
     1
102
RTVSPost2010Prop46
 90
       50
102
RTVSPost2010PropOp46
 70
     1
102
RTVSPost2010Prop47
 90
       50
102
RTVSPost2010PropOp47
 70
     1
102
RTVSPost2010Prop48
 90
       50
102
RTVSPost2010PropOp48
 70
     1
102
RTVSPost2010Prop49
280
     0
102
RTVSPost2010PropOp49
 70
     1
102
RTVSPost2010Prop50
 90
       50
102
RTVSPost2010PropOp50
 70
     1
102
RTVSPost2010Prop51ColorIndex
 90
      256
102
RTVSPost2010Prop51ColorRGB
 90
-16777216
102
RTVSPost2010PropOp51
 70
     0
102
RTVSPost2010Prop52
140
1.0
102
RTVSPost2010PropOp52
 70
     0
102
RTVSPost2010Prop53
 90
        2
102
RTVSPost2010PropOp53
 70
     1
102
RTVSPost2010Prop54
  1
strokes_ogs.tif
102
RTVSPost2010PropOp54
 70
     1
102
RTVSPost2010Prop55
280
     0
102
RTVSPost2010PropOp55
 70
     1
102
RTVSPost2010Prop56
140
1.0
102
RTVSPost2010PropOp56
 70
     1
102
RTVSPost2010Prop57
140
1.0
102
RTVSPost2010PropOp57
 70
     1
  0
XRECORD
  5
143
102
{ACAD_REACTORS
330
142
102
}
330
142
100
AcDbXrecord
280
     1
102
RTVSPost2010Prop28
280
     0
102
RTVSPost2010PropOp28
 70
     1
102
RTVSPost2010Prop29
280
     1
102
RTVSPost2010PropOp29
 70
     1
102
RTVSPost2010Prop30
280
     1
102
RTVSPost2010PropOp30
 70
     1
102
RTVSPost2010Prop31
280
     0
102
RTVSPost2010PropOp31
 70
     1
102
RTVSPost2010Prop32
280
     0
102
RTVSPost2010PropOp32
 70
     1
102
RTVSPost2010Prop33
280
     0
102
RTVSPost2010PropOp33
 70
     1
102
RTVSPost2010Prop34
280
     0
102
RTVSPost2010PropOp34
 70
     1
102
RTVSPost2010Prop35
280
     0
102
RTVSPost2010PropOp35
 70
     1
102
RTVSPost2010Prop36
280
     0
102
RTVSPost2010PropOp36
 70
     1
102
RTVSPost2010Prop37
 90
       50
102
RTVSPost2010PropOp37
 70
     1
102
RTVSPost2010Prop38
140
0.0
102
RTVSPost2010PropOp38
 70
     1
102
RTVSPost2010Prop39
140
1.0
102
RTVSPost2010PropOp39
 70
     1
102
RTVSPost2010Prop40
 90
        0
102
RTVSPost2010PropOp40
 70
     1
102
RTVSPost2010Prop41ColorIndex
 90
       18
102
RTVSPost2010Prop41ColorRGB
 90
        0
102
RTVSPost2010PropOp41
 70
     1
102
RTVSPost2010Prop42
 90
       50
102
RTVSPost2010PropOp42
 70
     1
102
RTVSPost2010Prop43
 90
        3
102
RTVSPost2010PropOp43
 70
     1
102
RTVSPost2010Prop44ColorIndex
 90
        5
102
RTVSPost2010Prop44ColorRGB
 90
      255
102
RTVSPost2010PropOp44
 70
     1
102
RTVSPost2010Prop45
280
     0
102
RTVSPost2010PropOp45
 70
     1
102
RTVSPost2010Prop46
 90
       50
102
RTVSPost2010PropOp46
 70
     1
102
RTVSPost2010Prop47
 90
       50
102
RTVSPost2010PropOp47
 70
     1
102
RTVSPost2010Prop48
 90
       50
102
RTVSPost2010PropOp48
 70
     1
102
RTVSPost2010Prop49
280
     0
102
RTVSPost2010PropOp49
 70
     1
102
RTVSPost2010Prop50
 90
       50
102
RTVSPost2010PropOp50
 70
     1
102
RTVSPost2010Prop51ColorIndex
 90
      256
102
RTVSPost2010Prop51ColorRGB
 90
-16777216
102
RTVSPost2010PropOp51
 70
     0
102
RTVSPost2010Prop52
140
1.0
102
RTVSPost2010PropOp52
 70
     0
102
RTVSPost2010Prop53
 90
        2
102
RTVSPost2010PropOp53
 70
     1
102
RTVSPost2010Prop54
  1
strokes_ogs.tif
102
RTVSPost2010PropOp54
 70
     1
102
RTVSPost2010Prop55
280
     0
102
RTVSPost2010PropOp55
 70
     1
102
RTVSPost2010Prop56
140
1.0
102
RTVSPost2010PropOp56
 70
     1
102
RTVSPost2010Prop57
140
1.0
102
RTVSPost2010PropOp57
 70
     1
  0
XRECORD
  5
141
102
{ACAD_REACTORS
330
140
102
}
330
140
100
AcDbXrecord
280
     1
102
RTVSPost2010Prop28
280
     0
102
RTVSPost2010PropOp28
 70
     1
102
RTVSPost2010Prop29
280
     1
102
RTVSPost2010PropOp29
 70
     1
102
RTVSPost2010Prop30
280
     1
102
RTVSPost2010PropOp30
 70
     1
102
RTVSPost2010Prop31
280
     0
102
RTVSPost2010PropOp31
 70
     1
102
RTVSPost2010Prop32
280
     0
102
RTVSPost2010PropOp32
 70
     1
102
RTVSPost2010Prop33
280
     0
102
RTVSPost2010PropOp33
 70
     1
102
RTVSPost2010Prop34
280
     0
102
RTVSPost2010PropOp34
 70
     1
102
RTVSPost2010Prop35
280
     0
102
RTVSPost2010PropOp35
 70
     1
102
RTVSPost2010Prop36
280
     0
102
RTVSPost2010PropOp36
 70
     1
102
RTVSPost2010Prop37
 90
       50
102
RTVSPost2010PropOp37
 70
     1
102
RTVSPost2010Prop38
140
0.0
102
RTVSPost2010PropOp38
 70
     1
102
RTVSPost2010Prop39
140
1.0
102
RTVSPost2010PropOp39
 70
     1
102
RTVSPost2010Prop40
 90
        0
102
RTVSPost2010PropOp40
 70
     1
102
RTVSPost2010Prop41ColorIndex
 90
       18
102
RTVSPost2010Prop41ColorRGB
 90
        0
102
RTVSPost2010PropOp41
 70
     1
102
RTVSPost2010Prop42
 90
       50
102
RTVSPost2010PropOp42
 70
     1
102
RTVSPost2010Prop43
 90
        3
102
RTVSPost2010PropOp43
 70
     1
102
RTVSPost2010Prop44ColorIndex
 90
        5
102
RTVSPost2010Prop44ColorRGB
 90
      255
102
RTVSPost2010PropOp44
 70
     1
102
RTVSPost2010Prop45
280
     0
102
RTVSPost2010PropOp45
 70
     1
102
RTVSPost2010Prop46
 90
       50
102
RTVSPost2010PropOp46
 70
     1
102
RTVSPost2010Prop47
 90
       50
102
RTVSPost2010PropOp47
 70
     1
102
RTVSPost2010Prop48
 90
       50
102
RTVSPost2010PropOp48
 70
     1
102
RTVSPost2010Prop49
280
     0
102
RTVSPost2010PropOp49
 70
     1
102
RTVSPost2010Prop50
 90
       50
102
RTVSPost2010PropOp50
 70
     1
102
RTVSPost2010Prop51ColorIndex
 90
      256
102
RTVSPost2010Prop51ColorRGB
 90
-16777216
102
RTVSPost2010PropOp51
 70
     0
102
RTVSPost2010Prop52
140
1.0
102
RTVSPost2010PropOp52
 70
     0
102
RTVSPost2010Prop53
 90
        2
102
RTVSPost2010PropOp53
 70
     1
102
RTVSPost2010Prop54
  1
strokes_ogs.tif
102
RTVSPost2010PropOp54
 70
     1
102
RTVSPost2010Prop55
280
     0
102
RTVSPost2010PropOp55
 70
     1
102
RTVSPost2010Prop56
140
1.0
102
RTVSPost2010PropOp56
 70
     1
102
RTVSPost2010Prop57
140
1.0
102
RTVSPost2010PropOp57
 70
     1
  0
XRECORD
  5
13B
102
{ACAD_REACTORS
330
13A
102
}
330
13A
100
AcDbXrecord
280
     1
102
RTVSPost2010Prop28
280
     0
102
RTVSPost2010PropOp28
 70
     1
102
RTVSPost2010Prop29
280
     1
102
RTVSPost2010PropOp29
 70
     1
102
RTVSPost2010Prop30
280
     1
102
RTVSPost2010PropOp30
 70
     1
102
RTVSPost2010Prop31
280
     0
102
RTVSPost2010PropOp31
 70
     1
102
RTVSPost2010Prop32
280
     0
102
RTVSPost2010PropOp32
 70
     1
102
RTVSPost2010Prop33
280
     0
102
RTVSPost2010PropOp33
 70
     1
102
RTVSPost2010Prop34
280
     0
102
RTVSPost2010PropOp34
 70
     1
102
RTVSPost2010Prop35
280
     0
102
RTVSPost2010PropOp35
 70
     1
102
RTVSPost2010Prop36
280
     0
102
RTVSPost2010PropOp36
 70
     1
102
RTVSPost2010Prop37
 90
       50
102
RTVSPost2010PropOp37
 70
     1
102
RTVSPost2010Prop38
140
0.0
102
RTVSPost2010PropOp38
 70
     1
102
RTVSPost2010Prop39
140
1.0
102
RTVSPost2010PropOp39
 70
     1
102
RTVSPost2010Prop40
 90
        0
102
RTVSPost2010PropOp40
 70
     1
102
RTVSPost2010Prop41ColorIndex
 90
       18
102
RTVSPost2010Prop41ColorRGB
 90
        0
102
RTVSPost2010PropOp41
 70
     1
102
RTVSPost2010Prop42
 90
       50
102
RTVSPost2010PropOp42
 70
     1
102
RTVSPost2010Prop43
 90
        3
102
RTVSPost2010PropOp43
 70
     1
102
RTVSPost2010Prop44ColorIndex
 90
        5
102
RTVSPost2010Prop44ColorRGB
 90
      255
102
RTVSPost2010PropOp44
 70
     1
102
RTVSPost2010Prop45
280
     0
102
RTVSPost2010PropOp45
 70
     1
102
RTVSPost2010Prop46
 90
       50
102
RTVSPost2010PropOp46
 70
     1
102
RTVSPost2010Prop47
 90
       50
102
RTVSPost2010PropOp47
 70
     1
102
RTVSPost2010Prop48
 90
       50
102
RTVSPost2010PropOp48
 70
     1
102
RTVSPost2010Prop49
280
     0
102
RTVSPost2010PropOp49
 70
     1
102
RTVSPost2010Prop50
 90
       50
102
RTVSPost2010PropOp50
 70
     1
102
RTVSPost2010Prop51ColorIndex
 90
      256
102
RTVSPost2010Prop51ColorRGB
 90
-16777216
102
RTVSPost2010PropOp51
 70
     0
102
RTVSPost2010Prop52
140
1.0
102
RTVSPost2010PropOp52
 70
     0
102
RTVSPost2010Prop53
 90
        2
102
RTVSPost2010PropOp53
 70
     1
102
RTVSPost2010Prop54
  1
strokes_ogs.tif
102
RTVSPost2010PropOp54
 70
     1
102
RTVSPost2010Prop55
280
     0
102
RTVSPost2010PropOp55
 70
     1
102
RTVSPost2010Prop56
140
1.0
102
RTVSPost2010PropOp56
 70
     1
102
RTVSPost2010Prop57
140
1.0
102
RTVSPost2010PropOp57
 70
     1
  0
XRECORD
  5
13D
102
{ACAD_REACTORS
330
13C
102
}
330
13C
100
AcDbXrecord
280
     1
102
RTVSPost2010Prop28
280
     0
102
RTVSPost2010PropOp28
 70
     1
102
RTVSPost2010Prop29
280
     1
102
RTVSPost2010PropOp29
 70
     1
102
RTVSPost2010Prop30
280
     1
102
RTVSPost2010PropOp30
 70
     1
102
RTVSPost2010Prop31
280
     0
102
RTVSPost2010PropOp31
 70
     1
102
RTVSPost2010Prop32
280
     0
102
RTVSPost2010PropOp32
 70
     1
102
RTVSPost2010Prop33
280
     0
102
RTVSPost2010PropOp33
 70
     1
102
RTVSPost2010Prop34
280
     0
102
RTVSPost2010PropOp34
 70
     1
102
RTVSPost2010Prop35
280
     0
102
RTVSPost2010PropOp35
 70
     1
102
RTVSPost2010Prop36
280
     0
102
RTVSPost2010PropOp36
 70
     1
102
RTVSPost2010Prop37
 90
       50
102
RTVSPost2010PropOp37
 70
     1
102
RTVSPost2010Prop38
140
0.0
102
RTVSPost2010PropOp38
 70
     1
102
RTVSPost2010Prop39
140
1.0
102
RTVSPost2010PropOp39
 70
     1
102
RTVSPost2010Prop40
 90
        0
102
RTVSPost2010PropOp40
 70
     1
102
RTVSPost2010Prop41ColorIndex
 90
       18
102
RTVSPost2010Prop41ColorRGB
 90
        0
102
RTVSPost2010PropOp41
 70
     1
102
RTVSPost2010Prop42
 90
       50
102
RTVSPost2010PropOp42
 70
     1
102
RTVSPost2010Prop43
 90
        3
102
RTVSPost2010PropOp43
 70
     1
102
RTVSPost2010Prop44ColorIndex
 90
        5
102
RTVSPost2010Prop44ColorRGB
 90
      255
102
RTVSPost2010PropOp44
 70
     1
102
RTVSPost2010Prop45
280
     0
102
RTVSPost2010PropOp45
 70
     1
102
RTVSPost2010Prop46
 90
       50
102
RTVSPost2010PropOp46
 70
     1
102
RTVSPost2010Prop47
 90
       50
102
RTVSPost2010PropOp47
 70
     1
102
RTVSPost2010Prop48
 90
       50
102
RTVSPost2010PropOp48
 70
     1
102
RTVSPost2010Prop49
280
     0
102
RTVSPost2010PropOp49
 70
     1
102
RTVSPost2010Prop50
 90
       50
102
RTVSPost2010PropOp50
 70
     1
102
RTVSPost2010Prop51ColorIndex
 90
      256
102
RTVSPost2010Prop51ColorRGB
 90
-16777216
102
RTVSPost2010PropOp51
 70
     0
102
RTVSPost2010Prop52
140
1.0
102
RTVSPost2010PropOp52
 70
     0
102
RTVSPost2010Prop53
 90
        2
102
RTVSPost2010PropOp53
 70
     1
102
RTVSPost2010Prop54
  1
strokes_ogs.tif
102
RTVSPost2010PropOp54
 70
     1
102
RTVSPost2010Prop55
280
     0
102
RTVSPost2010PropOp55
 70
     1
102
RTVSPost2010Prop56
140
1.0
102
RTVSPost2010PropOp56
 70
     1
102
RTVSPost2010Prop57
140
1.0
102
RTVSPost2010PropOp57
 70
     1
  0
XRECORD
  5
133
102
{ACAD_REACTORS
330
132
102
}
330
132
100
AcDbXrecord
280
     1
102
RTVSPost2010Prop28
280
     0
102
RTVSPost2010PropOp28
 70
     1
102
RTVSPost2010Prop29
280
     1
102
RTVSPost2010PropOp29
 70
     1
102
RTVSPost2010Prop30
280
     1
102
RTVSPost2010PropOp30
 70
     1
102
RTVSPost2010Prop31
280
     0
102
RTVSPost2010PropOp31
 70
     1
102
RTVSPost2010Prop32
280
     0
102
RTVSPost2010PropOp32
 70
     1
102
RTVSPost2010Prop33
280
     0
102
RTVSPost2010PropOp33
 70
     1
102
RTVSPost2010Prop34
280
     0
102
RTVSPost2010PropOp34
 70
     1
102
RTVSPost2010Prop35
280
     0
102
RTVSPost2010PropOp35
 70
     1
102
RTVSPost2010Prop36
280
     0
102
RTVSPost2010PropOp36
 70
     1
102
RTVSPost2010Prop37
 90
       50
102
RTVSPost2010PropOp37
 70
     1
102
RTVSPost2010Prop38
140
0.0
102
RTVSPost2010PropOp38
 70
     1
102
RTVSPost2010Prop39
140
1.0
102
RTVSPost2010PropOp39
 70
     1
102
RTVSPost2010Prop40
 90
        0
102
RTVSPost2010PropOp40
 70
     1
102
RTVSPost2010Prop41ColorIndex
 90
       18
102
RTVSPost2010Prop41ColorRGB
 90
        0
102
RTVSPost2010PropOp41
 70
     1
102
RTVSPost2010Prop42
 90
       50
102
RTVSPost2010PropOp42
 70
     1
102
RTVSPost2010Prop43
 90
        3
102
RTVSPost2010PropOp43
 70
     1
102
RTVSPost2010Prop44ColorIndex
 90
        5
102
RTVSPost2010Prop44ColorRGB
 90
      255
102
RTVSPost2010PropOp44
 70
     1
102
RTVSPost2010Prop45
280
     0
102
RTVSPost2010PropOp45
 70
     1
102
RTVSPost2010Prop46
 90
       50
102
RTVSPost2010PropOp46
 70
     1
102
RTVSPost2010Prop47
 90
       50
102
RTVSPost2010PropOp47
 70
     1
102
RTVSPost2010Prop48
 90
       50
102
RTVSPost2010PropOp48
 70
     1
102
RTVSPost2010Prop49
280
     0
102
RTVSPost2010PropOp49
 70
     1
102
RTVSPost2010Prop50
 90
       50
102
RTVSPost2010PropOp50
 70
     1
102
RTVSPost2010Prop51ColorIndex
 90
      256
102
RTVSPost2010Prop51ColorRGB
 90
-16777216
102
RTVSPost2010PropOp51
 70
     0
102
RTVSPost2010Prop52
140
1.0
102
RTVSPost2010PropOp52
 70
     0
102
RTVSPost2010Prop53
 90
        2
102
RTVSPost2010PropOp53
 70
     1
102
RTVSPost2010Prop54
  1
strokes_ogs.tif
102
RTVSPost2010PropOp54
 70
     1
102
RTVSPost2010Prop55
280
     0
102
RTVSPost2010PropOp55
 70
     1
102
RTVSPost2010Prop56
140
1.0
102
RTVSPost2010PropOp56
 70
     1
102
RTVSPost2010Prop57
140
1.0
102
RTVSPost2010PropOp57
 70
     1
  0
XRECORD
  5
127
102
{ACAD_REACTORS
330
126
102
}
330
126
100
AcDbXrecord
280
     1
102
RTVSPost2010Prop28
280
     0
102
RTVSPost2010PropOp28
 70
     1
102
RTVSPost2010Prop29
280
     1
102
RTVSPost2010PropOp29
 70
     1
102
RTVSPost2010Prop30
280
     1
102
RTVSPost2010PropOp30
 70
     1
102
RTVSPost2010Prop31
280
     0
102
RTVSPost2010PropOp31
 70
     1
102
RTVSPost2010Prop32
280
     0
102
RTVSPost2010PropOp32
 70
     1
102
RTVSPost2010Prop33
280
     0
102
RTVSPost2010PropOp33
 70
     1
102
RTVSPost2010Prop34
280
     0
102
RTVSPost2010PropOp34
 70
     1
102
RTVSPost2010Prop35
280
     0
102
RTVSPost2010PropOp35
 70
     1
102
RTVSPost2010Prop36
280
     0
102
RTVSPost2010PropOp36
 70
     1
102
RTVSPost2010Prop37
 90
       50
102
RTVSPost2010PropOp37
 70
     1
102
RTVSPost2010Prop38
140
0.0
102
RTVSPost2010PropOp38
 70
     1
102
RTVSPost2010Prop39
140
1.0
102
RTVSPost2010PropOp39
 70
     1
102
RTVSPost2010Prop40
 90
        0
102
RTVSPost2010PropOp40
 70
     1
102
RTVSPost2010Prop41ColorIndex
 90
       18
102
RTVSPost2010Prop41ColorRGB
 90
        0
102
RTVSPost2010PropOp41
 70
     1
102
RTVSPost2010Prop42
 90
       50
102
RTVSPost2010PropOp42
 70
     1
102
RTVSPost2010Prop43
 90
        3
102
RTVSPost2010PropOp43
 70
     1
102
RTVSPost2010Prop44ColorIndex
 90
        5
102
RTVSPost2010Prop44ColorRGB
 90
      255
102
RTVSPost2010PropOp44
 70
     1
102
RTVSPost2010Prop45
280
     0
102
RTVSPost2010PropOp45
 70
     1
102
RTVSPost2010Prop46
 90
       50
102
RTVSPost2010PropOp46
 70
     1
102
RTVSPost2010Prop47
 90
       50
102
RTVSPost2010PropOp47
 70
     1
102
RTVSPost2010Prop48
 90
       50
102
RTVSPost2010PropOp48
 70
     1
102
RTVSPost2010Prop49
280
     0
102
RTVSPost2010PropOp49
 70
     1
102
RTVSPost2010Prop50
 90
       50
102
RTVSPost2010PropOp50
 70
     1
102
RTVSPost2010Prop51ColorIndex
 90
      256
102
RTVSPost2010Prop51ColorRGB
 90
-16777216
102
RTVSPost2010PropOp51
 70
     0
102
RTVSPost2010Prop52
140
1.0
102
RTVSPost2010PropOp52
 70
     0
102
RTVSPost2010Prop53
 90
        2
102
RTVSPost2010PropOp53
 70
     1
102
RTVSPost2010Prop54
  1
strokes_ogs.tif
102
RTVSPost2010PropOp54
 70
     1
102
RTVSPost2010Prop55
280
     0
102
RTVSPost2010PropOp55
 70
     1
102
RTVSPost2010Prop56
140
1.0
102
RTVSPost2010PropOp56
 70
     1
102
RTVSPost2010Prop57
140
1.0
102
RTVSPost2010PropOp57
 70
     1
  0
XRECORD
  5
13F
102
{ACAD_REACTORS
330
13E
102
}
330
13E
100
AcDbXrecord
280
     1
102
RTVSPost2010Prop28
280
     0
102
RTVSPost2010PropOp28
 70
     1
102
RTVSPost2010Prop29
280
     1
102
RTVSPost2010PropOp29
 70
     1
102
RTVSPost2010Prop30
280
     1
102
RTVSPost2010PropOp30
 70
     1
102
RTVSPost2010Prop31
280
     0
102
RTVSPost2010PropOp31
 70
     1
102
RTVSPost2010Prop32
280
     0
102
RTVSPost2010PropOp32
 70
     1
102
RTVSPost2010Prop33
280
     0
102
RTVSPost2010PropOp33
 70
     1
102
RTVSPost2010Prop34
280
     0
102
RTVSPost2010PropOp34
 70
     1
102
RTVSPost2010Prop35
280
     0
102
RTVSPost2010PropOp35
 70
     1
102
RTVSPost2010Prop36
280
     0
102
RTVSPost2010PropOp36
 70
     1
102
RTVSPost2010Prop37
 90
       50
102
RTVSPost2010PropOp37
 70
     1
102
RTVSPost2010Prop38
140
0.0
102
RTVSPost2010PropOp38
 70
     1
102
RTVSPost2010Prop39
140
1.0
102
RTVSPost2010PropOp39
 70
     1
102
RTVSPost2010Prop40
 90
        0
102
RTVSPost2010PropOp40
 70
     1
102
RTVSPost2010Prop41ColorIndex
 90
       18
102
RTVSPost2010Prop41ColorRGB
 90
        0
102
RTVSPost2010PropOp41
 70
     1
102
RTVSPost2010Prop42
 90
       50
102
RTVSPost2010PropOp42
 70
     1
102
RTVSPost2010Prop43
 90
        3
102
RTVSPost2010PropOp43
 70
     1
102
RTVSPost2010Prop44ColorIndex
 90
        5
102
RTVSPost2010Prop44ColorRGB
 90
      255
102
RTVSPost2010PropOp44
 70
     1
102
RTVSPost2010Prop45
280
     0
102
RTVSPost2010PropOp45
 70
     1
102
RTVSPost2010Prop46
 90
       50
102
RTVSPost2010PropOp46
 70
     1
102
RTVSPost2010Prop47
 90
       50
102
RTVSPost2010PropOp47
 70
     1
102
RTVSPost2010Prop48
 90
       50
102
RTVSPost2010PropOp48
 70
     1
102
RTVSPost2010Prop49
280
     0
102
RTVSPost2010PropOp49
 70
     1
102
RTVSPost2010Prop50
 90
       50
102
RTVSPost2010PropOp50
 70
     1
102
RTVSPost2010Prop51ColorIndex
 90
      256
102
RTVSPost2010Prop51ColorRGB
 90
-16777216
102
RTVSPost2010PropOp51
 70
     0
102
RTVSPost2010Prop52
140
1.0
102
RTVSPost2010PropOp52
 70
     0
102
RTVSPost2010Prop53
 90
        2
102
RTVSPost2010PropOp53
 70
     1
102
RTVSPost2010Prop54
  1
strokes_ogs.tif
102
RTVSPost2010PropOp54
 70
     1
102
RTVSPost2010Prop55
280
     0
102
RTVSPost2010PropOp55
 70
     1
102
RTVSPost2010Prop56
140
1.0
102
RTVSPost2010PropOp56
 70
     1
102
RTVSPost2010Prop57
140
1.0
102
RTVSPost2010PropOp57
 70
     1
  0
ENDSEC
  0
EOF
