  0
SECTION
  2
HEADER
  9
$ACADVER
  1
AC1024
  9
$ACADMAINTVER
 70
     6
  9
$DWGCODEPAGE
  3
UNDEFINED
  9
$INSBASE
 10
0.0
 20
0.0
 30
0.0
  9
$EXTMIN
 10
1.000000000000000E+20
 20
1.000000000000000E+20
 30
1.000000000000000E+20
  9
$EXTMAX
 10
-1.000000000000000E+20
 20
-1.000000000000000E+20
 30
-1.000000000000000E+20
  9
$LIMMIN
 10
0.0
 20
0.0
  9
$LIMMAX
 10
12.0
 20
9.0
  9
$ORTHOMODE
 70
     0
  9
$REGENMODE
 70
     1
  9
$FILLMODE
 70
     1
  9
$QTEXTMODE
 70
     0
  9
$MIRRTEXT
 70
     1
  9
$LTSCALE
 40
1.0
  9
$ATTMODE
 70
     1
  9
$TEXTSIZE
 40
0.2
  9
$TRACEWID
 40
0.05
  9
$TEXTSTYLE
  7
Standard
  9
$CLAYER
  8
0
  9
$CELTYPE
  6
ByLayer
  9
$CECOLOR
 62
   256
  9
$CELTSCALE
 40
1.0
  9
$DISPSILH
 70
     0
  9
$DIMSCALE
 40
1.0
  9
$DIMASZ
 40
0.18
  9
$DIMEXO
 40
0.0625
  9
$DIMDLI
 40
0.38
  9
$DIMRND
 40
0.0
  9
$DIMDLE
 40
0.0
  9
$DIMEXE
 40
0.18
  9
$DIMTP
 40
0.0
  9
$DIMTM
 40
0.0
  9
$DIMTXT
 40
0.18
  9
$DIMCEN
 40
0.09
  9
$DIMTSZ
 40
0.0
  9
$DIMTOL
 70
     0
  9
$DIMLIM
 70
     0
  9
$DIMTIH
 70
     1
  9
$DIMTOH
 70
     1
  9
$DIMSE1
 70
     0
  9
$DIMSE2
 70
     0
  9
$DIMTAD
 70
     0
  9
$DIMZIN
 70
     0
  9
$DIMBLK
  1

  9
$DIMASO
 70
     1
  9
$DIMSHO
 70
     1
  9
$DIMPOST
  1

  9
$DIMAPOST
  1

  9
$DIMALT
 70
     0
  9
$DIMALTD
 70
     2
  9
$DIMALTF
 40
25.4
  9
$DIMLFAC
 40
1.0
  9
$DIMTOFL
 70
     0
  9
$DIMTVP
 40
0.0
  9
$DIMTIX
 70
     0
  9
$DIMSOXD
 70
     0
  9
$DIMSAH
 70
     0
  9
$DIMBLK1
  1

  9
$DIMBLK2
  1

  9
$DIMSTYLE
  2
Standard
  9
$DIMCLRD
 70
     0
  9
$DIMCLRE
 70
     0
  9
$DIMCLRT
 70
     0
  9
$DIMTFAC
 40
1.0
  9
$DIMGAP
 40
0.09
  9
$DIMJUST
 70
     0
  9
$DIMSD1
 70
     0
  9
$DIMSD2
 70
     0
  9
$DIMTOLJ
 70
     1
  9
$DIMTZIN
 70
     0
  9
$DIMALTZ
 70
     0
  9
$DIMALTTZ
 70
     0
  9
$DIMUPT
 70
     0
  9
$DIMDEC
 70
     4
  9
$DIMTDEC
 70
     4
  9
$DIMALTU
 70
     2
  9
$DIMALTTD
 70
     2
  9
$DIMTXSTY
  7
Standard
  9
$DIMAUNIT
 70
     0
  9
$DIMADEC
 70
     0
  9
$DIMALTRND
 40
0.0
  9
$DIMAZIN
 70
     0
  9
$DIMDSEP
 70
    46
  9
$DIMATFIT
 70
     3
  9
$DIMFRAC
 70
     0
  9
$DIMLDRBLK
  1

  9
$DIMLUNIT
 70
     2
  9
$DIMLWD
 70
    -2
  9
$DIMLWE
 70
    -2
  9
$DIMTMOVE
 70
     0
  9
$DIMFXL
 40
1.0
  9
$DIMFXLON
 70
     0
  9
$DIMJOGANG
 40
0.7853981633974483
  9
$DIMTFILL
 70
     0
  9
$DIMTFILLCLR
 70
     0
  9
$DIMARCSYM
 70
     0
  9
$DIMLTYPE
  6

  9
$DIMLTEX1
  6

  9
$DIMLTEX2
  6

  9
$DIMTXTDIRECTION
 70
     0
  9
$LUNITS
 70
     2
  9
$LUPREC
 70
     4
  9
$SKETCHINC
 40
0.1
  9
$FILLETRAD
 40
0.5
  9
$AUNITS
 70
     0
  9
$AUPREC
 70
     0
  9
$MENU
  1
.
  9
$ELEVATION
 40
0.0
  9
$PELEVATION
 40
0.0
  9
$THICKNESS
 40
0.0
  9
$LIMCHECK
 70
     0
  9
$CHAMFERA
 40
0.5
  9
$CHAMFERB
 40
0.5
  9
$CHAMFERC
 40
1.0
  9
$CHAMFERD
 40
0.0
  9
$SKPOLY
 70
     0
  9
$TDCREATE
 40
2458263.580370359
  9
$TDUCREATE
 40
2458263.20537037
  9
$TDUPDATE
 40
2458263.580370359
  9
$TDUUPDATE
 40
2458263.20537037
  9
$TDINDWG
 40
0.0000000116
  9
$TDUSRTIMER
 40
0.0000000116
  9
$USRTIMER
 70
     1
  9
$ANGBASE
 50
0.0
  9
$ANGDIR
 70
     0
  9
$PDMODE
 70
     0
  9
$PDSIZE
 40
0.0
  9
$PLINEWID
 40
0.0
  9
$SPLFRAME
 70
     0
  9
$SPLINETYPE
 70
     6
  9
$SPLINESEGS
 70
     8
  9
$HANDSEED
  5
195
  9
$SURFTAB1
 70
     6
  9
$SURFTAB2
 70
     6
  9
$SURFTYPE
 70
     6
  9
$SURFU
 70
     6
  9
$SURFV
 70
     6
  9
$UCSBASE
  2

  9
$UCSNAME
  2

  9
$UCSORG
 10
0.0
 20
0.0
 30
0.0
  9
$UCSXDIR
 10
1.0
 20
0.0
 30
0.0
  9
$UCSYDIR
 10
0.0
 20
1.0
 30
0.0
  9
$UCSORTHOREF
  2

  9
$UCSORTHOVIEW
 70
     0
  9
$UCSORGTOP
 10
0.0
 20
0.0
 30
0.0
  9
$UCSORGBOTTOM
 10
0.0
 20
0.0
 30
0.0
  9
$UCSORGLEFT
 10
0.0
 20
0.0
 30
0.0
  9
$UCSORGRIGHT
 10
0.0
 20
0.0
 30
0.0
  9
$UCSORGFRONT
 10
0.0
 20
0.0
 30
0.0
  9
$UCSORGBACK
 10
0.0
 20
0.0
 30
0.0
  9
$PUCSBASE
  2

  9
$PUCSNAME
  2

  9
$PUCSORG
 10
0.0
 20
0.0
 30
0.0
  9
$PUCSXDIR
 10
1.0
 20
0.0
 30
0.0
  9
$PUCSYDIR
 10
0.0
 20
1.0
 30
0.0
  9
$PUCSORTHOREF
  2

  9
$PUCSORTHOVIEW
 70
     0
  9
$PUCSORGTOP
 10
0.0
 20
0.0
 30
0.0
  9
$PUCSORGBOTTOM
 10
0.0
 20
0.0
 30
0.0
  9
$PUCSORGLEFT
 10
0.0
 20
0.0
 30
0.0
  9
$PUCSORGRIGHT
 10
0.0
 20
0.0
 30
0.0
  9
$PUCSORGFRONT
 10
0.0
 20
0.0
 30
0.0
  9
$PUCSORGBACK
 10
0.0
 20
0.0
 30
0.0
  9
$USERI1
 70
     0
  9
$USERI2
 70
     0
  9
$USERI3
 70
     0
  9
$USERI4
 70
     0
  9
$USERI5
 70
     0
  9
$USERR1
 40
0.0
  9
$USERR2
 40
0.0
  9
$USERR3
 40
0.0
  9
$USERR4
 40
0.0
  9
$USERR5
 40
0.0
  9
$WORLDVIEW
 70
     1
  9
$SHADEDGE
 70
     3
  9
$SHADEDIF
 70
    70
  9
$TILEMODE
 70
     1
  9
$MAXACTVP
 70
    64
  9
$PINSBASE
 10
0.0
 20
0.0
 30
0.0
  9
$PLIMCHECK
 70
     0
  9
$PEXTMIN
 10
1.000000000000000E+20
 20
1.000000000000000E+20
 30
1.000000000000000E+20
  9
$PEXTMAX
 10
-1.000000000000000E+20
 20
-1.000000000000000E+20
 30
-1.000000000000000E+20
  9
$PLIMMIN
 10
0.0
 20
0.0
  9
$PLIMMAX
 10
12.0
 20
9.0
  9
$UNITMODE
 70
     0
  9
$VISRETAIN
 70
     1
  9
$PLINEGEN
 70
     0
  9
$PSLTSCALE
 70
     1
  9
$TREEDEPTH
 70
  3020
  9
$CMLSTYLE
  2
Standard
  9
$CMLJUST
 70
     0
  9
$CMLSCALE
 40
1.0
  9
$PROXYGRAPHICS
 70
     1
  9
$MEASUREMENT
 70
     0
  9
$CELWEIGHT
370
    -1
  9
$ENDCAPS
280
     0
  9
$JOINSTYLE
280
     0
  9
$LWDISPLAY
290
     1
  9
$INSUNITS
 70
     1
  9
$HYPERLINKBASE
  1

  9
$STYLESHEET
  1

  9
$XEDIT
290
     1
  9
$CEPSNTYPE
380
     0
  9
$PSTYLEMODE
290
     1
  9
$FINGERPRINTGUID
  2
{64B23F33-BABD-3F77-BD77-283146CCD875}
  9
$VERSIONGUID
  2
{FAEB1C32-E019-11D5-929B-00C0DF256EC4}
  9
$EXTNAMES
290
     1
  9
$PSVPSCALE
 40
0.0
  9
$OLESTARTUP
290
     0
  9
$SORTENTS
280
   127
  9
$INDEXCTL
280
     0
  9
$HIDETEXT
280
     1
  9
$XCLIPFRAME
280
     2
  9
$HALOGAP
280
     0
  9
$OBSCOLOR
 70
   257
  9
$OBSLTYPE
280
     0
  9
$INTERSECTIONDISPLAY
280
     0
  9
$INTERSECTIONCOLOR
 70
   257
  9
$DIMASSOC
280
     2
  9
$PROJECTNAME
  1

  9
$CAMERADISPLAY
290
     0
  9
$LENSLENGTH
 40
50.0
  9
$CAMERAHEIGHT
 40
0.0
  9
$STEPSPERSEC
 40
2.0
  9
$STEPSIZE
 40
6.0
  9
$3DDWFPREC
 40
2.0
  9
$PSOLWIDTH
 40
0.25
  9
$PSOLHEIGHT
 40
4.0
  9
$LOFTANG1
 40
1.570796326794897
  9
$LOFTANG2
 40
1.570796326794897
  9
$LOFTMAG1
 40
0.0
  9
$LOFTMAG2
 40
0.0
  9
$LOFTPARAM
 70
     7
  9
$LOFTNORMALS
280
     1
  9
$LATITUDE
 40
37.795
  9
$LONGITUDE
 40
-122.394
  9
$NORTHDIRECTION
 40
0.0
  9
$TIMEZONE
 70
 -8000
  9
$LIGHTGLYPHDISPLAY
280
     1
  9
$TILEMODELIGHTSYNCH
280
     1
  9
$CMATERIAL
347
3C
  9
$SOLIDHIST
280
     1
  9
$SHOWHIST
280
     1
  9
$DWFFRAME
280
     2
  9
$DGNFRAME
280
     2
  9
$REALWORLDSCALE
290
     1
  9
$INTERFERECOLOR
 62
   256
  9
$CSHADOW
280
     0
  9
$SHADOWPLANELOCATION
 40
0.0
  0
ENDSEC
  0
SECTION
  2
CLASSES
  0
CLASS
  1
ACDBDICTIONARYWDFLT
  2
AcDbDictionaryWithDefault
  3
ObjectDBX Classes
 90
        0
 91
        4
280
     0
281
     0
  0
CLASS
  1
VISUALSTYLE
  2
AcDbVisualStyle
  3
ObjectDBX Classes
 90
     4095
 91
        4
280
     0
281
     0
  0
CLASS
  1
MATERIAL
  2
AcDbMaterial
  3
ObjectDBX Classes
 90
     1153
 91
        4
280
     0
281
     0
  0
CLASS
  1
SUN
  2
AcDbSun
  3
SCENEOE
 90
     1024
 91
        4
280
     0
281
     0
  0
ENDSEC
  0
SECTION
  2
TABLES
  0
TABLE
  2
VPORT
  5
8
330
0
100
AcDbSymbolTable
 70
     1
  0
VPORT
  5
29
330
8
100
AcDbSymbolTableRecord
100
AcDbViewportTableRecord
  2
*Active
 70
     0
 10
0.0
 20
0.0
 11
1.0
 21
1.0
 12
0.0
 22
0.0
 13
0.0
 23
0.0
 14
0.5
 24
0.5
 15
0.5
 25
0.5
 16
0.0
 26
0.0
 36
1.0
 17
105.0007777515277
 27
-148.5000416295416
 37
0.0
 40
297.0000832590831
 41
0.7070757462376333
 42
50.0
 43
0.0
 44
0.0
 50
0.0
 51
0.0
 71
     0
 72
   100
 73
     1
 74
     3
 75
     0
 76
     0
 77
     0
 78
     0
281
     0
 65
     1
110
0.0
120
0.0
130
0.0
111
1.0
121
0.0
131
0.0
112
0.0
122
1.0
132
0.0
 79
     0
146
0.0
 60
     3
 61
     5
292
     1
282
     1
141
0.0
142
0.0
 63
   250
361
3F
  0
ENDTAB
  0
TABLE
  2
LTYPE
  5
5
330
0
100
AcDbSymbolTable
 70
     1
  0
LTYPE
  5
14
330
5
100
AcDbSymbolTableRecord
100
AcDbLinetypeTableRecord
  2
ByBlock
 70
     0
  3

 72
    65
 73
     0
 40
0.0
  0
LTYPE
  5
15
330
5
100
AcDbSymbolTableRecord
100
AcDbLinetypeTableRecord
  2
ByLayer
 70
     0
  3

 72
    65
 73
     0
 40
0.0
  0
LTYPE
  5
16
330
5
100
AcDbSymbolTableRecord
100
AcDbLinetypeTableRecord
  2
Continuous
 70
     0
  3
Solid line
 72
    65
 73
     0
 40
0.0
  0
ENDTAB
  0
TABLE
  2
LAYER
  5
2
330
0
100
AcDbSymbolTable
 70
     2
  0
LAYER
  5
10
330
2
100
AcDbSymbolTableRecord
100
AcDbLayerTableRecord
  2
0
 70
     0
 62
     7
  6
Continuous
370
    -3
390
F
347
3E
  0
LAYER
  5
40
330
2
100
AcDbSymbolTableRecord
100
AcDbLayerTableRecord
  2
_U+30EC_U+30A4_U+30E4_U+30FC 1
 70
     0
 62
     7
  6
Continuous
370
    -3
390
F
347
3E
  0
ENDTAB
  0
TABLE
  2
STYLE
  5
3
330
0
100
AcDbSymbolTable
 70
     1
  0
STYLE
  5
11
330
3
100
AcDbSymbolTableRecord
100
AcDbTextStyleTableRecord
  2
Standard
 70
     0
 40
0.0
 41
1.0
 50
0.0
 71
     0
 42
0.2
  3
txt
  4

  0
ENDTAB
  0
TABLE
  2
VIEW
  5
6
330
0
100
AcDbSymbolTable
 70
     0
  0
ENDTAB
  0
TABLE
  2
UCS
  5
7
330
0
100
AcDbSymbolTable
 70
     0
  0
ENDTAB
  0
TABLE
  2
APPID
  5
9
330
0
100
AcDbSymbolTable
 70
     1
  0
APPID
  5
12
330
9
100
AcDbSymbolTableRecord
100
AcDbRegAppTableRecord
  2
ACAD
 70
     0
  0
ENDTAB
  0
TABLE
  2
DIMSTYLE
  5
A
330
0
100
AcDbSymbolTable
 70
     1
100
AcDbDimStyleTable
  0
DIMSTYLE
105
27
330
A
100
AcDbSymbolTableRecord
100
AcDbDimStyleTableRecord
  2
Standard
 70
     0
178
     0
340
11
  0
ENDTAB
  0
TABLE
  2
BLOCK_RECORD
  5
1
330
0
100
AcDbSymbolTable
 70
    10
  0
BLOCK_RECORD
  5
1F
330
1
100
AcDbSymbolTableRecord
100
AcDbBlockTableRecord
  2
*Model_Space
340
22
 70
     0
280
     1
281
     0
  0
BLOCK_RECORD
  5
1B
330
1
100
AcDbSymbolTableRecord
100
AcDbBlockTableRecord
  2
*Paper_Space
340
1E
 70
     0
280
     1
281
     0
  0
BLOCK_RECORD
  5
23
330
1
100
AcDbSymbolTableRecord
100
AcDbBlockTableRecord
  2
*Paper_Space0
340
26
 70
     0
280
     1
281
     0
  0
BLOCK_RECORD
  5
FF
330
1
100
AcDbSymbolTableRecord
100
AcDbBlockTableRecord
  2
block 2
340
0
102
{BLKREFS
331
100
102
}
 70
     0
280
     1
281
     0
  0
BLOCK_RECORD
  5
10F
330
1
100
AcDbSymbolTableRecord
100
AcDbBlockTableRecord
  2
block 3
340
0
102
{BLKREFS
331
110
102
}
 70
     0
280
     1
281
     0
  0
BLOCK_RECORD
  5
118
330
1
100
AcDbSymbolTableRecord
100
AcDbBlockTableRecord
  2
block 4
340
0
102
{BLKREFS
331
119
102
}
 70
     0
280
     1
281
     0
  0
BLOCK_RECORD
  5
13F
330
1
100
AcDbSymbolTableRecord
100
AcDbBlockTableRecord
  2
block 5
340
0
102
{BLKREFS
331
140
102
}
 70
     0
280
     1
281
     0
  0
BLOCK_RECORD
  5
14F
330
1
100
AcDbSymbolTableRecord
100
AcDbBlockTableRecord
  2
block 6
340
0
102
{BLKREFS
331
150
102
}
 70
     0
280
     1
281
     0
  0
BLOCK_RECORD
  5
158
330
1
100
AcDbSymbolTableRecord
100
AcDbBlockTableRecord
  2
block 7
340
0
102
{BLKREFS
331
159
102
}
 70
     0
280
     1
281
     0
  0
BLOCK_RECORD
  5
168
330
1
100
AcDbSymbolTableRecord
100
AcDbBlockTableRecord
  2
block 8
340
0
102
{BLKREFS
331
169
102
}
 70
     0
280
     1
281
     0
  0
BLOCK_RECORD
  5
178
330
1
100
AcDbSymbolTableRecord
100
AcDbBlockTableRecord
  2
block 9
340
0
102
{BLKREFS
331
179
102
}
 70
     0
280
     1
281
     0
  0
BLOCK_RECORD
  5
181
330
1
100
AcDbSymbolTableRecord
100
AcDbBlockTableRecord
  2
block 10
340
0
102
{BLKREFS
331
182
102
}
 70
     0
280
     1
281
     0
  0
ENDTAB
  0
ENDSEC
  0
SECTION
  2
BLOCKS
  0
BLOCK
  5
20
330
1F
100
AcDbEntity
  8
0
100
AcDbBlockBegin
  2
*Model_Space
 70
     0
 10
0.0
 20
0.0
 30
0.0
  3
*Model_Space
  1

  0
ENDBLK
  5
21
330
1F
100
AcDbEntity
  8
0
100
AcDbBlockEnd
  0
BLOCK
  5
1C
330
1B
100
AcDbEntity
 67
     1
  8
0
100
AcDbBlockBegin
  2
*Paper_Space
 70
     0
 10
0.0
 20
0.0
 30
0.0
  3
*Paper_Space
  1

  0
ENDBLK
  5
1D
330
1B
100
AcDbEntity
 67
     1
  8
0
100
AcDbBlockEnd
  0
BLOCK
  5
24
330
23
100
AcDbEntity
  8
0
100
AcDbBlockBegin
  2
*Paper_Space0
 70
     0
 10
0.0
 20
0.0
 30
0.0
  3
*Paper_Space0
  1

  0
ENDBLK
  5
25
330
23
100
AcDbEntity
  8
0
100
AcDbBlockEnd
  0
BLOCK
  5
101
330
FF
100
AcDbEntity
  8
0
100
AcDbBlockBegin
  2
block 2
 70
     0
 10
0.0
 20
0.0
 30
0.0
  3
block 2
  1

  0
SPLINE
  5
103
330
FF
100
AcDbEntity
  8
_U+30EC_U+30A4_U+30E4_U+30FC 1
370
     0
100
AcDbSpline
210
0.0
220
0.0
230
1.0
 70
    11
 71
     3
 72
    62
 73
    58
 74
     0
 42
0.0000000001
 43
0.0000000001
 12
1.0
 22
0.0
 32
0.0
 13
1.0
 23
0.0
 33
0.0
 40
0.0
 40
0.0
 40
0.0
 40
0.0
 40
1.0
 40
1.0
 40
1.0
 40
2.0
 40
2.0
 40
2.0
 40
3.0
 40
3.0
 40
3.0
 40
4.0
 40
4.0
 40
4.0
 40
5.0
 40
5.0
 40
5.0
 40
6.0
 40
6.0
 40
6.0
 40
7.0
 40
7.0
 40
7.0
 40
8.0
 40
8.0
 40
8.0
 40
9.0
 40
9.0
 40
9.0
 40
10.0
 40
10.0
 40
10.0
 40
11.0
 40
11.0
 40
11.0
 40
12.0
 40
12.0
 40
12.0
 40
13.0
 40
13.0
 40
13.0
 40
14.0
 40
14.0
 40
14.0
 40
15.0
 40
15.0
 40
15.0
 40
16.0
 40
16.0
 40
16.0
 40
17.0
 40
17.0
 40
17.0
 40
18.0
 40
18.0
 40
18.0
 40
19.0
 40
19.0
 40
19.0
 40
19.0
 10
81.82411836062036
 20
-120.2271144990231
 30
0.0
 10
81.74005803078026
 20
-120.2271144990231
 30
0.0
 10
81.54764944792906
 20
-120.2059271617888
 30
0.0
 10
81.43757864717533
 20
-120.019719750811
 30
0.0
 10
81.37212183295559
 20
-119.9075818927662
 30
0.0
 10
81.36833222792181
 20
-119.8081908880167
 30
0.0
 10
81.3647148776623
 20
-119.7236137938538
 30
0.0
 10
81.3647148776623
 20
-119.7236137938538
 30
0.0
 10
81.55884600825613
 20
-119.7236137938538
 30
0.0
 10
81.55884600825613
 20
-119.7236137938538
 30
0.0
 10
81.56074081077301
 20
-119.7976833467867
 30
0.0
 10
81.57004256858319
 20
-120.0324666041065
 30
0.0
 10
81.82032875558659
 20
-120.0324666041065
 30
0.0
 10
81.94176837144164
 20
-120.0324666041065
 30
0.0
 10
82.07629935014064
 20
-119.9627034205302
 30
0.0
 10
82.07629935014064
 20
-119.7341213350838
 30
0.0
 10
82.07629935014064
 20
-119.6178493624567
 30
0.0
 10
82.04270966915946
 20
-119.5691012613404
 30
0.0
 10
82.01463214095467
 20
-119.5374063828761
 30
0.0
 10
81.9493475815092
 20
-119.4633368299432
 30
0.0
 10
81.84651148127449
 20
-119.450762231422
 30
0.0
 10
81.79793563493246
 20
-119.450762231422
 30
0.0
 10
81.781226921829
 20
-119.450762231422
 30
0.0
 10
81.74935978859044
 20
-119.4528292887132
 30
0.0
 10
81.72507186541944
 20
-119.4569634032955
 30
0.0
 10
81.72507186541944
 20
-119.4569634032955
 30
0.0
 10
81.72507186541944
 20
-119.2624877631531
 30
0.0
 10
81.72507186541944
 20
-119.2624877631531
 30
0.0
 10
81.75883380117487
 20
-119.2686889350266
 30
0.0
 10
81.79621308718984
 20
-119.270928247092
 30
0.0
 10
81.80172523996625
 20
-119.270928247092
 30
0.0
 10
81.85960284411844
 20
-119.270928247092
 30
0.0
 10
82.03530271386617
 20
-119.2497409098577
 30
0.0
 10
82.03530271386617
 20
-119.0127183404725
 30
0.0
 10
82.03530271386617
 20
-118.8351236682079
 30
0.0
 10
81.91937525078752
 20
-118.7800021404439
 30
0.0
 10
81.82222355810347
 20
-118.7800021404439
 30
0.0
 10
81.5888183389778
 20
-118.7800021404439
 30
0.0
 10
81.58123912891025
 20
-119.0127183404725
 30
0.0
 10
81.57762177865074
 20
-119.0847208361142
 30
0.0
 10
81.57762177865074
 20
-119.0847208361142
 30
0.0
 10
81.39830455864349
 20
-119.0847208361142
 30
0.0
 10
81.39830455864349
 20
-119.0847208361142
 30
0.0
 10
81.40571151393677
 20
-118.9598361247739
 30
0.0
 10
81.42999943710778
 20
-118.5832871882361
 30
0.0
 10
81.83342011843054
 20
-118.5832871882361
 30
0.0
 10
82.0315131088324
 20
-118.5832871882361
 30
0.0
 10
82.24442000982084
 20
-118.7102389568676
 30
0.0
 10
82.24442000982084
 20
-119.0063449138248
 30
0.0
 10
82.24442000982084
 20
-119.1925523248026
 30
0.0
 10
82.16035967998074
 20
-119.2750623616743
 30
0.0
 10
82.07250974510687
 20
-119.3363850613117
 30
0.0
 10
82.12676999899956
 20
-119.3639458251937
 30
0.0
 10
82.2873114486122
 20
-119.4443888047743
 30
0.0
 10
82.2873114486122
 20
-119.7215467365627
 30
0.0
 10
82.2873114486122
 20
-120.0600273679885
 30
0.0
 10
82.06889239484737
 20
-120.2271144990231
 30
0.0
 10
81.82411836062036
 20
-120.2271144990231
 30
0.0
  0
HATCH
  5
104
330
FF
100
AcDbEntity
  8
_U+30EC_U+30A4_U+30E4_U+30FC 1
 62
   179
420
  2234388
100
AcDbHatch
 10
0.0
 20
0.0
 30
0.0
210
0.0
220
0.0
230
1.0
  2
SOLID
 70
     1
 71
     0
 91
        1
 92
        1
 93
        1
 72
     4
 94
        3
 73
     0
 74
     1
 95
       62
 96
       58
 40
0.0
 40
0.0
 40
0.0
 40
0.0
 40
1.0
 40
1.0
 40
1.0
 40
2.0
 40
2.0
 40
2.0
 40
3.0
 40
3.0
 40
3.0
 40
4.0
 40
4.0
 40
4.0
 40
5.0
 40
5.0
 40
5.0
 40
6.0
 40
6.0
 40
6.0
 40
7.0
 40
7.0
 40
7.0
 40
8.0
 40
8.0
 40
8.0
 40
9.0
 40
9.0
 40
9.0
 40
10.0
 40
10.0
 40
10.0
 40
11.0
 40
11.0
 40
11.0
 40
12.0
 40
12.0
 40
12.0
 40
13.0
 40
13.0
 40
13.0
 40
14.0
 40
14.0
 40
14.0
 40
15.0
 40
15.0
 40
15.0
 40
16.0
 40
16.0
 40
16.0
 40
17.0
 40
17.0
 40
17.0
 40
18.0
 40
18.0
 40
18.0
 40
19.0
 40
19.0
 40
19.0
 40
19.0
 10
81.82411836062036
 20
-120.2271144990231
 10
81.74005803078026
 20
-120.2271144990231
 10
81.54764944792906
 20
-120.2059271617888
 10
81.43757864717533
 20
-120.019719750811
 10
81.37212183295559
 20
-119.9075818927662
 10
81.36833222792181
 20
-119.8081908880167
 10
81.3647148776623
 20
-119.7236137938538
 10
81.3647148776623
 20
-119.7236137938538
 10
81.55884600825613
 20
-119.7236137938538
 10
81.55884600825613
 20
-119.7236137938538
 10
81.56074081077301
 20
-119.7976833467867
 10
81.57004256858319
 20
-120.0324666041065
 10
81.82032875558659
 20
-120.0324666041065
 10
81.94176837144164
 20
-120.0324666041065
 10
82.07629935014064
 20
-119.9627034205302
 10
82.07629935014064
 20
-119.7341213350838
 10
82.07629935014064
 20
-119.6178493624567
 10
82.04270966915946
 20
-119.5691012613404
 10
82.01463214095467
 20
-119.5374063828761
 10
81.9493475815092
 20
-119.4633368299432
 10
81.84651148127449
 20
-119.450762231422
 10
81.79793563493246
 20
-119.450762231422
 10
81.781226921829
 20
-119.450762231422
 10
81.74935978859044
 20
-119.4528292887132
 10
81.72507186541944
 20
-119.4569634032955
 10
81.72507186541944
 20
-119.4569634032955
 10
81.72507186541944
 20
-119.2624877631531
 10
81.72507186541944
 20
-119.2624877631531
 10
81.75883380117487
 20
-119.2686889350266
 10
81.79621308718984
 20
-119.270928247092
 10
81.80172523996625
 20
-119.270928247092
 10
81.85960284411844
 20
-119.270928247092
 10
82.03530271386617
 20
-119.2497409098577
 10
82.03530271386617
 20
-119.0127183404725
 10
82.03530271386617
 20
-118.8351236682079
 10
81.91937525078752
 20
-118.7800021404439
 10
81.82222355810347
 20
-118.7800021404439
 10
81.5888183389778
 20
-118.7800021404439
 10
81.58123912891025
 20
-119.0127183404725
 10
81.57762177865074
 20
-119.0847208361142
 10
81.57762177865074
 20
-119.0847208361142
 10
81.39830455864349
 20
-119.0847208361142
 10
81.39830455864349
 20
-119.0847208361142
 10
81.40571151393677
 20
-118.9598361247739
 10
81.42999943710778
 20
-118.5832871882361
 10
81.83342011843054
 20
-118.5832871882361
 10
82.0315131088324
 20
-118.5832871882361
 10
82.24442000982084
 20
-118.7102389568676
 10
82.24442000982084
 20
-119.0063449138248
 10
82.24442000982084
 20
-119.1925523248026
 10
82.16035967998074
 20
-119.2750623616743
 10
82.07250974510687
 20
-119.3363850613117
 10
82.12676999899956
 20
-119.3639458251937
 10
82.2873114486122
 20
-119.4443888047743
 10
82.2873114486122
 20
-119.7215467365627
 10
82.2873114486122
 20
-120.0600273679885
 10
82.06889239484737
 20
-120.2271144990231
 10
81.82411836062036
 20
-120.2271144990231
 97
        0
 97
        0
 75
     2
 76
     1
 98
        0
  0
POLYLINE
  5
105
330
FF
100
AcDbEntity
  8
_U+30EC_U+30A4_U+30E4_U+30FC 1
370
     0
100
AcDb2dPolyline
 66
     1
 10
0.0
 20
0.0
 30
0.0
  0
VERTEX
  5
106
330
105
100
AcDbEntity
  8
_U+30EC_U+30A4_U+30E4_U+30FC 1
370
     0
100
AcDbVertex
100
AcDb2dVertex
 10
82.48282061740014
 20
-120.1762993406157
 30
0.0
  0
VERTEX
  5
107
330
105
100
AcDbEntity
  8
_U+30EC_U+30A4_U+30E4_U+30FC 1
370
     0
100
AcDbVertex
100
AcDb2dVertex
 10
82.48282061740014
 20
-119.9246351154182
 30
0.0
  0
VERTEX
  5
108
330
105
100
AcDbEntity
  8
_U+30EC_U+30A4_U+30E4_U+30FC 1
370
     0
100
AcDbVertex
100
AcDb2dVertex
 10
82.70502927619874
 20
-119.9246351154182
 30
0.0
  0
VERTEX
  5
109
330
105
100
AcDbEntity
  8
_U+30EC_U+30A4_U+30E4_U+30FC 1
370
     0
100
AcDbVertex
100
AcDb2dVertex
 10
82.70502927619874
 20
-120.1762993406157
 30
0.0
  0
VERTEX
  5
10A
330
105
100
AcDbEntity
  8
_U+30EC_U+30A4_U+30E4_U+30FC 1
370
     0
100
AcDbVertex
100
AcDb2dVertex
 10
82.48282061740014
 20
-120.1762993406157
 30
0.0
  0
SEQEND
  5
10B
330
105
100
AcDbEntity
  8
_U+30EC_U+30A4_U+30E4_U+30FC 1
370
     0
  0
HATCH
  5
10C
330
FF
100
AcDbEntity
  8
_U+30EC_U+30A4_U+30E4_U+30FC 1
 62
   179
420
  2234388
100
AcDbHatch
 10
0.0
 20
0.0
 30
0.0
210
0.0
220
0.0
230
1.0
  2
SOLID
 70
     1
 71
     0
 91
        1
 92
        1
 93
        4
 72
     1
 10
82.48282061740014
 20
-120.1762993406157
 11
82.48282061740014
 21
-119.9246351154182
 72
     1
 10
82.48282061740014
 20
-119.9246351154182
 11
82.70502927619874
 21
-119.9246351154182
 72
     1
 10
82.70502927619874
 20
-119.9246351154182
 11
82.70502927619874
 21
-120.1762993406157
 72
     1
 10
82.70502927619874
 20
-120.1762993406157
 11
82.48282061740014
 21
-120.1762993406157
 97
        0
 75
     2
 76
     1
 98
        0
  0
SPLINE
  5
10D
330
FF
100
AcDbEntity
  8
_U+30EC_U+30A4_U+30E4_U+30FC 1
370
     0
100
AcDbSpline
210
0.0
220
0.0
230
1.0
 70
    11
 71
     3
 72
    53
 73
    49
 74
     0
 42
0.0000000001
 43
0.0000000001
 12
1.0
 22
0.0
 32
0.0
 13
1.0
 23
0.0
 33
0.0
 40
0.0
 40
0.0
 40
0.0
 40
0.0
 40
1.0
 40
1.0
 40
1.0
 40
2.0
 40
2.0
 40
2.0
 40
3.0
 40
3.0
 40
3.0
 40
4.0
 40
4.0
 40
4.0
 40
5.0
 40
5.0
 40
5.0
 40
6.0
 40
6.0
 40
6.0
 40
7.0
 40
7.0
 40
7.0
 40
8.0
 40
8.0
 40
8.0
 40
9.0
 40
9.0
 40
9.0
 40
10.0
 40
10.0
 40
10.0
 40
11.0
 40
11.0
 40
11.0
 40
12.0
 40
12.0
 40
12.0
 40
13.0
 40
13.0
 40
13.0
 40
14.0
 40
14.0
 40
14.0
 40
15.0
 40
15.0
 40
15.0
 40
16.0
 40
16.0
 40
16.0
 40
16.0
 10
83.33892684548472
 20
-120.2271144990231
 30
0.0
 10
83.26985268100546
 20
-120.2271144990231
 30
0.0
 10
83.1801079436147
 20
-120.2102335311454
 30
0.0
 10
83.0905354609982
 20
-120.1466715194425
 30
0.0
 10
82.93740096667885
 20
-120.0366007186888
 30
0.0
 10
82.91862519628424
 20
-119.905514835475
 30
0.0
 10
82.90191648318077
 20
-119.7976833467867
 30
0.0
 10
82.90191648318077
 20
-119.7976833467867
 30
0.0
 10
83.09794241629149
 20
-119.7976833467867
 30
0.0
 10
83.09794241629149
 20
-119.7976833467867
 30
0.0
 10
83.1465182626335
 20
-119.9964653562856
 30
0.0
 10
83.2586561206784
 20
-120.0260931774588
 30
0.0
 10
83.34082164800161
 20
-120.0260931774588
 30
0.0
 10
83.46398381159929
 20
-120.0260931774588
 30
0.0
 10
83.5985147902983
 20
-119.9267021727093
 30
0.0
 10
83.5985147902983
 20
-119.6939859726807
 30
0.0
 10
83.5985147902983
 20
-119.4380153781266
 30
0.0
 10
83.43986814320253
 20
-119.3682521945503
 30
0.0
 10
83.33324243793406
 20
-119.3682521945503
 30
0.0
 10
83.30533716450353
 20
-119.3682521945503
 30
0.0
 10
83.1801079436147
 20
-119.3682521945503
 30
0.0
 10
83.10173202132526
 20
-119.4972710204729
 30
0.0
 10
83.10173202132526
 20
-119.4972710204729
 30
0.0
 10
82.94670272448903
 20
-119.4781507405298
 30
0.0
 10
82.94670272448903
 20
-119.4781507405298
 30
0.0
 10
82.94670272448903
 20
-119.4781507405298
 30
0.0
 10
83.05315617498324
 20
-118.6320352893524
 30
0.0
 10
83.05315617498324
 20
-118.6320352893524
 30
0.0
 10
83.05315617498324
 20
-118.6320352893524
 30
0.0
 10
83.74045272429059
 20
-118.6320352893524
 30
0.0
 10
83.74045272429059
 20
-118.6320352893524
 30
0.0
 10
83.74045272429059
 20
-118.6320352893524
 30
0.0
 10
83.74045272429059
 20
-118.826683184269
 30
0.0
 10
83.74045272429059
 20
-118.826683184269
 30
0.0
 10
83.74045272429059
 20
-118.826683184269
 30
0.0
 10
83.19698891149243
 20
-118.826683184269
 30
0.0
 10
83.19698891149243
 20
-118.826683184269
 30
0.0
 10
83.19698891149243
 20
-118.826683184269
 30
0.0
 10
83.13911130734023
 20
-119.2497409098577
 30
0.0
 10
83.13911130734023
 20
-119.2497409098577
 30
0.0
 10
83.19319930645865
 20
-119.215806719328
 30
0.0
 10
83.26606307597169
 20
-119.1756713569248
 30
0.0
 10
83.37062172394901
 20
-119.1756713569248
 30
0.0
 10
83.59489744003878
 20
-119.1756713569248
 30
0.0
 10
83.80401473599345
 20
-119.3618787679026
 30
0.0
 10
83.80401473599345
 20
-119.6748656927375
 30
0.0
 10
83.80401473599345
 20
-119.9923312417033
 30
0.0
 10
83.60609400036584
 20
-120.2271144990231
 30
0.0
 10
83.33892684548472
 20
-120.2271144990231
 30
0.0
  0
HATCH
  5
10E
330
FF
100
AcDbEntity
  8
_U+30EC_U+30A4_U+30E4_U+30FC 1
 62
   179
420
  2234388
100
AcDbHatch
 10
0.0
 20
0.0
 30
0.0
210
0.0
220
0.0
230
1.0
  2
SOLID
 70
     1
 71
     0
 91
        1
 92
        1
 93
        1
 72
     4
 94
        3
 73
     0
 74
     1
 95
       53
 96
       49
 40
0.0
 40
0.0
 40
0.0
 40
0.0
 40
1.0
 40
1.0
 40
1.0
 40
2.0
 40
2.0
 40
2.0
 40
3.0
 40
3.0
 40
3.0
 40
4.0
 40
4.0
 40
4.0
 40
5.0
 40
5.0
 40
5.0
 40
6.0
 40
6.0
 40
6.0
 40
7.0
 40
7.0
 40
7.0
 40
8.0
 40
8.0
 40
8.0
 40
9.0
 40
9.0
 40
9.0
 40
10.0
 40
10.0
 40
10.0
 40
11.0
 40
11.0
 40
11.0
 40
12.0
 40
12.0
 40
12.0
 40
13.0
 40
13.0
 40
13.0
 40
14.0
 40
14.0
 40
14.0
 40
15.0
 40
15.0
 40
15.0
 40
16.0
 40
16.0
 40
16.0
 40
16.0
 10
83.33892684548472
 20
-120.2271144990231
 10
83.26985268100546
 20
-120.2271144990231
 10
83.1801079436147
 20
-120.2102335311454
 10
83.0905354609982
 20
-120.1466715194425
 10
82.93740096667885
 20
-120.0366007186888
 10
82.91862519628424
 20
-119.905514835475
 10
82.90191648318077
 20
-119.7976833467867
 10
82.90191648318077
 20
-119.7976833467867
 10
83.09794241629149
 20
-119.7976833467867
 10
83.09794241629149
 20
-119.7976833467867
 10
83.1465182626335
 20
-119.9964653562856
 10
83.2586561206784
 20
-120.0260931774588
 10
83.34082164800161
 20
-120.0260931774588
 10
83.46398381159929
 20
-120.0260931774588
 10
83.5985147902983
 20
-119.9267021727093
 10
83.5985147902983
 20
-119.6939859726807
 10
83.5985147902983
 20
-119.4380153781266
 10
83.43986814320253
 20
-119.3682521945503
 10
83.33324243793406
 20
-119.3682521945503
 10
83.30533716450353
 20
-119.3682521945503
 10
83.1801079436147
 20
-119.3682521945503
 10
83.10173202132526
 20
-119.4972710204729
 10
83.10173202132526
 20
-119.4972710204729
 10
82.94670272448903
 20
-119.4781507405298
 10
82.94670272448903
 20
-119.4781507405298
 10
82.94670272448903
 20
-119.4781507405298
 10
83.05315617498324
 20
-118.6320352893524
 10
83.05315617498324
 20
-118.6320352893524
 10
83.05315617498324
 20
-118.6320352893524
 10
83.74045272429059
 20
-118.6320352893524
 10
83.74045272429059
 20
-118.6320352893524
 10
83.74045272429059
 20
-118.6320352893524
 10
83.74045272429059
 20
-118.826683184269
 10
83.74045272429059
 20
-118.826683184269
 10
83.74045272429059
 20
-118.826683184269
 10
83.19698891149243
 20
-118.826683184269
 10
83.19698891149243
 20
-118.826683184269
 10
83.19698891149243
 20
-118.826683184269
 10
83.13911130734023
 20
-119.2497409098577
 10
83.13911130734023
 20
-119.2497409098577
 10
83.19319930645865
 20
-119.215806719328
 10
83.26606307597169
 20
-119.1756713569248
 10
83.37062172394901
 20
-119.1756713569248
 10
83.59489744003878
 20
-119.1756713569248
 10
83.80401473599345
 20
-119.3618787679026
 10
83.80401473599345
 20
-119.6748656927375
 10
83.80401473599345
 20
-119.9923312417033
 10
83.60609400036584
 20
-120.2271144990231
 10
83.33892684548472
 20
-120.2271144990231
 97
        0
 97
        0
 75
     2
 76
     1
 98
        0
  0
ENDBLK
  5
102
330
FF
100
AcDbEntity
  8
0
100
AcDbBlockEnd
  0
BLOCK
  5
111
330
10F
100
AcDbEntity
  8
0
100
AcDbBlockBegin
  2
block 3
 70
     0
 10
0.0
 20
0.0
 30
0.0
  3
block 3
  1

  0
SPLINE
  5
113
330
10F
100
AcDbEntity
  8
_U+30EC_U+30A4_U+30E4_U+30FC 1
370
     0
100
AcDbSpline
210
0.0
220
0.0
230
1.0
 70
    11
 71
     3
 72
    26
 73
    22
 74
     0
 42
0.0000000001
 43
0.0000000001
 12
1.0
 22
0.0
 32
0.0
 13
1.0
 23
0.0
 33
0.0
 40
0.0
 40
0.0
 40
0.0
 40
0.0
 40
1.0
 40
1.0
 40
1.0
 40
2.0
 40
2.0
 40
2.0
 40
3.0
 40
3.0
 40
3.0
 40
4.0
 40
4.0
 40
4.0
 40
5.0
 40
5.0
 40
5.0
 40
6.0
 40
6.0
 40
6.0
 40
7.0
 40
7.0
 40
7.0
 40
7.0
 10
88.89483233454713
 20
-120.1762993406157
 30
0.0
 10
88.89483233454713
 20
-120.1762993406157
 30
0.0
 10
88.89483233454713
 20
-119.0719739828188
 30
0.0
 10
88.89483233454713
 20
-119.0719739828188
 30
0.0
 10
88.89483233454713
 20
-119.0719739828188
 30
0.0
 10
88.60354951126925
 20
-119.0719739828188
 30
0.0
 10
88.60354951126925
 20
-119.0719739828188
 30
0.0
 10
88.60354951126925
 20
-119.0719739828188
 30
0.0
 10
88.60354951126925
 20
-118.9238348769531
 30
0.0
 10
88.60354951126925
 20
-118.9238348769531
 30
0.0
 10
88.89672713706402
 20
-118.9091932211408
 30
0.0
 10
88.93789602811275
 20
-118.7462402046884
 30
0.0
 10
88.9639064990264
 20
-118.6320352893524
 30
0.0
 10
88.9639064990264
 20
-118.6320352893524
 30
0.0
 10
89.092925324949
 20
-118.6320352893524
 30
0.0
 10
89.092925324949
 20
-118.6320352893524
 30
0.0
 10
89.092925324949
 20
-118.6320352893524
 30
0.0
 10
89.092925324949
 20
-120.1762993406157
 30
0.0
 10
89.092925324949
 20
-120.1762993406157
 30
0.0
 10
89.092925324949
 20
-120.1762993406157
 30
0.0
 10
88.89483233454713
 20
-120.1762993406157
 30
0.0
 10
88.89483233454713
 20
-120.1762993406157
 30
0.0
  0
HATCH
  5
114
330
10F
100
AcDbEntity
  8
_U+30EC_U+30A4_U+30E4_U+30FC 1
 62
   179
420
  2234388
100
AcDbHatch
 10
0.0
 20
0.0
 30
0.0
210
0.0
220
0.0
230
1.0
  2
SOLID
 70
     1
 71
     0
 91
        1
 92
        1
 93
        1
 72
     4
 94
        3
 73
     0
 74
     1
 95
       26
 96
       22
 40
0.0
 40
0.0
 40
0.0
 40
0.0
 40
1.0
 40
1.0
 40
1.0
 40
2.0
 40
2.0
 40
2.0
 40
3.0
 40
3.0
 40
3.0
 40
4.0
 40
4.0
 40
4.0
 40
5.0
 40
5.0
 40
5.0
 40
6.0
 40
6.0
 40
6.0
 40
7.0
 40
7.0
 40
7.0
 40
7.0
 10
88.89483233454713
 20
-120.1762993406157
 10
88.89483233454713
 20
-120.1762993406157
 10
88.89483233454713
 20
-119.0719739828188
 10
88.89483233454713
 20
-119.0719739828188
 10
88.89483233454713
 20
-119.0719739828188
 10
88.60354951126925
 20
-119.0719739828188
 10
88.60354951126925
 20
-119.0719739828188
 10
88.60354951126925
 20
-119.0719739828188
 10
88.60354951126925
 20
-118.9238348769531
 10
88.60354951126925
 20
-118.9238348769531
 10
88.89672713706402
 20
-118.9091932211408
 10
88.93789602811275
 20
-118.7462402046884
 10
88.9639064990264
 20
-118.6320352893524
 10
88.9639064990264
 20
-118.6320352893524
 10
89.092925324949
 20
-118.6320352893524
 10
89.092925324949
 20
-118.6320352893524
 10
89.092925324949
 20
-118.6320352893524
 10
89.092925324949
 20
-120.1762993406157
 10
89.092925324949
 20
-120.1762993406157
 10
89.092925324949
 20
-120.1762993406157
 10
88.89483233454713
 20
-120.1762993406157
 10
88.89483233454713
 20
-120.1762993406157
 97
        0
 97
        0
 75
     2
 76
     1
 98
        0
  0
SPLINE
  5
115
330
10F
100
AcDbEntity
  8
_U+30EC_U+30A4_U+30E4_U+30FC 1
370
     0
100
AcDbSpline
210
0.0
220
0.0
230
1.0
 70
    11
 71
     3
 72
    29
 73
    25
 74
     0
 42
0.0000000001
 43
0.0000000001
 12
1.0
 22
0.0
 32
0.0
 13
1.0
 23
0.0
 33
0.0
 40
0.0
 40
0.0
 40
0.0
 40
0.0
 40
1.0
 40
1.0
 40
1.0
 40
2.0
 40
2.0
 40
2.0
 40
3.0
 40
3.0
 40
3.0
 40
4.0
 40
4.0
 40
4.0
 40
5.0
 40
5.0
 40
5.0
 40
6.0
 40
6.0
 40
6.0
 40
7.0
 40
7.0
 40
7.0
 40
8.0
 40
8.0
 40
8.0
 40
8.0
 10
90.32868107550811
 20
-119.9985324135768
 30
0.0
 10
90.23342418534095
 20
-120.2079942190799
 30
0.0
 10
90.0802896910216
 20
-120.2271144990231
 30
0.0
 10
89.97762584556115
 20
-120.2271144990231
 30
0.0
 10
89.8355156567946
 20
-120.2271144990231
 30
0.0
 10
89.71045869068003
 20
-120.1806057099722
 30
0.0
 10
89.62639836083993
 20
-119.9985324135768
 30
0.0
 10
89.53493107570655
 20
-119.8040567734344
 30
0.0
 10
89.51805010782883
 20
-119.5670342040492
 30
0.0
 10
89.51805010782883
 20
-119.4040811875969
 30
0.0
 10
89.51805010782883
 20
-119.2602484510877
 30
0.0
 10
89.53303627318967
 20
-119.0085842258902
 30
0.0
 10
89.62639836083993
 20
-118.809629961617
 30
0.0
 10
89.72165525100709
 20
-118.6065415827616
 30
0.0
 10
89.86359318499939
 20
-118.5832871882361
 30
0.0
 10
89.97762584556115
 20
-118.5832871882361
 30
0.0
 10
90.11766897703656
 20
-118.5832871882361
 30
0.0
 10
90.24462074566802
 20
-118.6277289199958
 30
0.0
 10
90.32868107550811
 20
-118.809629961617
 30
0.0
 10
90.41653101038199
 20
-119.0022107992425
 30
0.0
 10
90.43702932851922
 20
-119.2306206299146
 30
0.0
 10
90.43702932851922
 20
-119.4040811875969
 30
0.0
 10
90.43702932851922
 20
-119.5754746879881
 30
0.0
 10
90.41842581289887
 20
-119.8061238307256
 30
0.0
 10
90.32868107550811
 20
-119.9985324135768
 30
0.0
  0
SPLINE
  5
116
330
10F
100
AcDbEntity
  8
_U+30EC_U+30A4_U+30E4_U+30FC 1
370
     0
100
AcDbSpline
210
0.0
220
0.0
230
1.0
 70
    11
 71
     3
 72
    17
 73
    13
 74
     0
 42
0.0000000001
 43
0.0000000001
 12
1.0
 22
0.0
 32
0.0
 13
1.0
 23
0.0
 33
0.0
 40
0.0
 40
0.0
 40
0.0
 40
0.0
 40
1.0
 40
1.0
 40
1.0
 40
2.0
 40
2.0
 40
2.0
 40
3.0
 40
3.0
 40
3.0
 40
4.0
 40
4.0
 40
4.0
 40
4.0
 10
89.97762584556115
 20
-118.7758680258616
 30
0.0
 10
89.75713973450516
 20
-118.7758680258616
 30
0.0
 10
89.71597084345643
 20
-119.0592271295234
 30
0.0
 10
89.71597084345643
 20
-119.4040811875969
 30
0.0
 10
89.71597084345643
 20
-119.7236137938538
 30
0.0
 10
89.747837976695
 20
-120.0324666041065
 30
0.0
 10
89.97762584556115
 20
-120.0324666041065
 30
0.0
 10
90.196044899326
 20
-120.0324666041065
 30
0.0
 10
90.23910859289161
 20
-119.7510023029616
 30
0.0
 10
90.23910859289161
 20
-119.4040811875969
 30
0.0
 10
90.23910859289161
 20
-119.0847208361142
 30
0.0
 10
90.20534665713616
 20
-118.7758680258616
 30
0.0
 10
89.97762584556115
 20
-118.7758680258616
 30
0.0
  0
HATCH
  5
117
330
10F
100
AcDbEntity
  8
_U+30EC_U+30A4_U+30E4_U+30FC 1
 62
   179
420
  2234388
100
AcDbHatch
 10
0.0
 20
0.0
 30
0.0
210
0.0
220
0.0
230
1.0
  2
SOLID
 70
     1
 71
     0
 91
        2
 92
        1
 93
        1
 72
     4
 94
        3
 73
     0
 74
     1
 95
       29
 96
       25
 40
0.0
 40
0.0
 40
0.0
 40
0.0
 40
1.0
 40
1.0
 40
1.0
 40
2.0
 40
2.0
 40
2.0
 40
3.0
 40
3.0
 40
3.0
 40
4.0
 40
4.0
 40
4.0
 40
5.0
 40
5.0
 40
5.0
 40
6.0
 40
6.0
 40
6.0
 40
7.0
 40
7.0
 40
7.0
 40
8.0
 40
8.0
 40
8.0
 40
8.0
 10
90.32868107550811
 20
-119.9985324135768
 10
90.23342418534095
 20
-120.2079942190799
 10
90.0802896910216
 20
-120.2271144990231
 10
89.97762584556115
 20
-120.2271144990231
 10
89.8355156567946
 20
-120.2271144990231
 10
89.71045869068003
 20
-120.1806057099722
 10
89.62639836083993
 20
-119.9985324135768
 10
89.53493107570655
 20
-119.8040567734344
 10
89.51805010782883
 20
-119.5670342040492
 10
89.51805010782883
 20
-119.4040811875969
 10
89.51805010782883
 20
-119.2602484510877
 10
89.53303627318967
 20
-119.0085842258902
 10
89.62639836083993
 20
-118.809629961617
 10
89.72165525100709
 20
-118.6065415827616
 10
89.86359318499939
 20
-118.5832871882361
 10
89.97762584556115
 20
-118.5832871882361
 10
90.11766897703656
 20
-118.5832871882361
 10
90.24462074566802
 20
-118.6277289199958
 10
90.32868107550811
 20
-118.809629961617
 10
90.41653101038199
 20
-119.0022107992425
 10
90.43702932851922
 20
-119.2306206299146
 10
90.43702932851922
 20
-119.4040811875969
 10
90.43702932851922
 20
-119.5754746879881
 10
90.41842581289887
 20
-119.8061238307256
 10
90.32868107550811
 20
-119.9985324135768
 97
        0
 97
        0
 92
        1
 93
        1
 72
     4
 94
        3
 73
     0
 74
     1
 95
       17
 96
       13
 40
0.0
 40
0.0
 40
0.0
 40
0.0
 40
1.0
 40
1.0
 40
1.0
 40
2.0
 40
2.0
 40
2.0
 40
3.0
 40
3.0
 40
3.0
 40
4.0
 40
4.0
 40
4.0
 40
4.0
 10
89.97762584556115
 20
-118.7758680258616
 10
89.75713973450516
 20
-118.7758680258616
 10
89.71597084345643
 20
-119.0592271295234
 10
89.71597084345643
 20
-119.4040811875969
 10
89.71597084345643
 20
-119.7236137938538
 10
89.747837976695
 20
-120.0324666041065
 10
89.97762584556115
 20
-120.0324666041065
 10
90.196044899326
 20
-120.0324666041065
 10
90.23910859289161
 20
-119.7510023029616
 10
90.23910859289161
 20
-119.4040811875969
 10
90.23910859289161
 20
-119.0847208361142
 10
90.20534665713616
 20
-118.7758680258616
 10
89.97762584556115
 20
-118.7758680258616
 97
        0
 97
        0
 75
     2
 76
     1
 98
        0
  0
ENDBLK
  5
112
330
10F
100
AcDbEntity
  8
0
100
AcDbBlockEnd
  0
BLOCK
  5
11A
330
118
100
AcDbEntity
  8
0
100
AcDbBlockBegin
  2
block 4
 70
     0
 10
0.0
 20
0.0
 30
0.0
  3
block 4
  1

  0
SPLINE
  5
11C
330
118
100
AcDbEntity
  8
_U+30EC_U+30A4_U+30E4_U+30FC 1
370
     0
100
AcDbSpline
210
0.0
220
0.0
230
1.0
 70
    11
 71
     3
 72
    62
 73
    58
 74
     0
 42
0.0000000001
 43
0.0000000001
 12
1.0
 22
0.0
 32
0.0
 13
1.0
 23
0.0
 33
0.0
 40
0.0
 40
0.0
 40
0.0
 40
0.0
 40
1.0
 40
1.0
 40
1.0
 40
2.0
 40
2.0
 40
2.0
 40
3.0
 40
3.0
 40
3.0
 40
4.0
 40
4.0
 40
4.0
 40
5.0
 40
5.0
 40
5.0
 40
6.0
 40
6.0
 40
6.0
 40
7.0
 40
7.0
 40
7.0
 40
8.0
 40
8.0
 40
8.0
 40
9.0
 40
9.0
 40
9.0
 40
10.0
 40
10.0
 40
10.0
 40
11.0
 40
11.0
 40
11.0
 40
12.0
 40
12.0
 40
12.0
 40
13.0
 40
13.0
 40
13.0
 40
14.0
 40
14.0
 40
14.0
 40
15.0
 40
15.0
 40
15.0
 40
16.0
 40
16.0
 40
16.0
 40
17.0
 40
17.0
 40
17.0
 40
18.0
 40
18.0
 40
18.0
 40
19.0
 40
19.0
 40
19.0
 40
19.0
 10
111.8811984312311
 20
-120.2271144990231
 30
0.0
 10
111.797138101391
 20
-120.2271144990231
 30
0.0
 10
111.6045572637655
 20
-120.2059271617888
 30
0.0
 10
111.4946587177861
 20
-120.019719750811
 30
0.0
 10
111.4292019035663
 20
-119.9075818927662
 30
0.0
 10
111.4254122985325
 20
-119.8081908880167
 30
0.0
 10
111.4219672030473
 20
-119.7236137938538
 30
0.0
 10
111.4219672030473
 20
-119.7236137938538
 30
0.0
 10
111.6159260788669
 20
-119.7236137938538
 30
0.0
 10
111.6159260788669
 20
-119.7236137938538
 30
0.0
 10
111.6176486266095
 20
-119.7976833467867
 30
0.0
 10
111.6272948939682
 20
-120.0324666041065
 30
0.0
 10
111.8774088261973
 20
-120.0324666041065
 30
0.0
 10
111.9986761872781
 20
-120.0324666041065
 30
0.0
 10
112.1333794207514
 20
-119.9627034205302
 30
0.0
 10
112.1333794207514
 20
-119.7341213350838
 30
0.0
 10
112.1333794207514
 20
-119.6178493624567
 30
0.0
 10
112.0999619945445
 20
-119.5691012613404
 30
0.0
 10
112.0717122115654
 20
-119.5374063828761
 30
0.0
 10
112.0062553973457
 20
-119.4633368299432
 30
0.0
 10
111.9035915518852
 20
-119.450762231422
 30
0.0
 10
111.8550157055432
 20
-119.450762231422
 30
0.0
 10
111.8381347376655
 20
-119.450762231422
 30
0.0
 10
111.8064398592012
 20
-119.4528292887132
 30
0.0
 10
111.7823241908044
 20
-119.4569634032955
 30
0.0
 10
111.7823241908044
 20
-119.4569634032955
 30
0.0
 10
111.7823241908044
 20
-119.2624877631531
 30
0.0
 10
111.7823241908044
 20
-119.2624877631531
 30
0.0
 10
111.8160861265599
 20
-119.2686889350266
 30
0.0
 10
111.8532931578006
 20
-119.270928247092
 30
0.0
 10
111.858805310577
 20
-119.270928247092
 30
0.0
 10
111.9166829147292
 20
-119.270928247092
 30
0.0
 10
112.0923827844769
 20
-119.2497409098577
 30
0.0
 10
112.0923827844769
 20
-119.0127183404725
 30
0.0
 10
112.0923827844769
 20
-118.8351236682079
 30
0.0
 10
111.9766275761725
 20
-118.7800021404439
 30
0.0
 10
111.8794758834885
 20
-118.7800021404439
 30
0.0
 10
111.6458984095885
 20
-118.7800021404439
 30
0.0
 10
111.638319199521
 20
-119.0127183404725
 30
0.0
 10
111.6348741040357
 20
-119.0847208361142
 30
0.0
 10
111.6348741040357
 20
-119.0847208361142
 30
0.0
 10
111.4553846292542
 20
-119.0847208361142
 30
0.0
 10
111.4553846292542
 20
-119.0847208361142
 30
0.0
 10
111.4626193297732
 20
-118.9598361247739
 30
0.0
 10
111.4870795077185
 20
-118.5832871882361
 30
0.0
 10
111.8905001890413
 20
-118.5832871882361
 30
0.0
 10
112.0885931794431
 20
-118.5832871882361
 30
0.0
 10
112.3015000804316
 20
-118.7102389568676
 30
0.0
 10
112.3015000804316
 20
-119.0063449138248
 30
0.0
 10
112.3015000804316
 20
-119.1925523248026
 30
0.0
 10
112.2174397505915
 20
-119.2750623616743
 30
0.0
 10
112.1295898157176
 20
-119.3363850613117
 30
0.0
 10
112.1840223243846
 20
-119.3639458251937
 30
0.0
 10
112.3445637739972
 20
-119.4443888047743
 30
0.0
 10
112.3445637739972
 20
-119.7215467365627
 30
0.0
 10
112.3445637739972
 20
-120.0600273679885
 30
0.0
 10
112.1261447202324
 20
-120.2271144990231
 30
0.0
 10
111.8811984312311
 20
-120.2271144990231
 30
0.0
  0
HATCH
  5
11D
330
118
100
AcDbEntity
  8
_U+30EC_U+30A4_U+30E4_U+30FC 1
 62
   179
420
  2234388
100
AcDbHatch
 10
0.0
 20
0.0
 30
0.0
210
0.0
220
0.0
230
1.0
  2
SOLID
 70
     1
 71
     0
 91
        1
 92
        1
 93
        1
 72
     4
 94
        3
 73
     0
 74
     1
 95
       62
 96
       58
 40
0.0
 40
0.0
 40
0.0
 40
0.0
 40
1.0
 40
1.0
 40
1.0
 40
2.0
 40
2.0
 40
2.0
 40
3.0
 40
3.0
 40
3.0
 40
4.0
 40
4.0
 40
4.0
 40
5.0
 40
5.0
 40
5.0
 40
6.0
 40
6.0
 40
6.0
 40
7.0
 40
7.0
 40
7.0
 40
8.0
 40
8.0
 40
8.0
 40
9.0
 40
9.0
 40
9.0
 40
10.0
 40
10.0
 40
10.0
 40
11.0
 40
11.0
 40
11.0
 40
12.0
 40
12.0
 40
12.0
 40
13.0
 40
13.0
 40
13.0
 40
14.0
 40
14.0
 40
14.0
 40
15.0
 40
15.0
 40
15.0
 40
16.0
 40
16.0
 40
16.0
 40
17.0
 40
17.0
 40
17.0
 40
18.0
 40
18.0
 40
18.0
 40
19.0
 40
19.0
 40
19.0
 40
19.0
 10
111.8811984312311
 20
-120.2271144990231
 10
111.797138101391
 20
-120.2271144990231
 10
111.6045572637655
 20
-120.2059271617888
 10
111.4946587177861
 20
-120.019719750811
 10
111.4292019035663
 20
-119.9075818927662
 10
111.4254122985325
 20
-119.8081908880167
 10
111.4219672030473
 20
-119.7236137938538
 10
111.4219672030473
 20
-119.7236137938538
 10
111.6159260788669
 20
-119.7236137938538
 10
111.6159260788669
 20
-119.7236137938538
 10
111.6176486266095
 20
-119.7976833467867
 10
111.6272948939682
 20
-120.0324666041065
 10
111.8774088261973
 20
-120.0324666041065
 10
111.9986761872781
 20
-120.0324666041065
 10
112.1333794207514
 20
-119.9627034205302
 10
112.1333794207514
 20
-119.7341213350838
 10
112.1333794207514
 20
-119.6178493624567
 10
112.0999619945445
 20
-119.5691012613404
 10
112.0717122115654
 20
-119.5374063828761
 10
112.0062553973457
 20
-119.4633368299432
 10
111.9035915518852
 20
-119.450762231422
 10
111.8550157055432
 20
-119.450762231422
 10
111.8381347376655
 20
-119.450762231422
 10
111.8064398592012
 20
-119.4528292887132
 10
111.7823241908044
 20
-119.4569634032955
 10
111.7823241908044
 20
-119.4569634032955
 10
111.7823241908044
 20
-119.2624877631531
 10
111.7823241908044
 20
-119.2624877631531
 10
111.8160861265599
 20
-119.2686889350266
 10
111.8532931578006
 20
-119.270928247092
 10
111.858805310577
 20
-119.270928247092
 10
111.9166829147292
 20
-119.270928247092
 10
112.0923827844769
 20
-119.2497409098577
 10
112.0923827844769
 20
-119.0127183404725
 10
112.0923827844769
 20
-118.8351236682079
 10
111.9766275761725
 20
-118.7800021404439
 10
111.8794758834885
 20
-118.7800021404439
 10
111.6458984095885
 20
-118.7800021404439
 10
111.638319199521
 20
-119.0127183404725
 10
111.6348741040357
 20
-119.0847208361142
 10
111.6348741040357
 20
-119.0847208361142
 10
111.4553846292542
 20
-119.0847208361142
 10
111.4553846292542
 20
-119.0847208361142
 10
111.4626193297732
 20
-118.9598361247739
 10
111.4870795077185
 20
-118.5832871882361
 10
111.8905001890413
 20
-118.5832871882361
 10
112.0885931794431
 20
-118.5832871882361
 10
112.3015000804316
 20
-118.7102389568676
 10
112.3015000804316
 20
-119.0063449138248
 10
112.3015000804316
 20
-119.1925523248026
 10
112.2174397505915
 20
-119.2750623616743
 10
112.1295898157176
 20
-119.3363850613117
 10
112.1840223243846
 20
-119.3639458251937
 10
112.3445637739972
 20
-119.4443888047743
 10
112.3445637739972
 20
-119.7215467365627
 10
112.3445637739972
 20
-120.0600273679885
 10
112.1261447202324
 20
-120.2271144990231
 10
111.8811984312311
 20
-120.2271144990231
 97
        0
 97
        0
 75
     2
 76
     1
 98
        0
  0
POLYLINE
  5
11E
330
118
100
AcDbEntity
  8
_U+30EC_U+30A4_U+30E4_U+30FC 1
370
     0
100
AcDb2dPolyline
 66
     1
 10
0.0
 20
0.0
 30
0.0
  0
VERTEX
  5
11F
330
11E
100
AcDbEntity
  8
_U+30EC_U+30A4_U+30E4_U+30FC 1
370
     0
100
AcDbVertex
100
AcDb2dVertex
 10
113.2216850845418
 20
-119.829378225251
 30
0.0
  0
VERTEX
  5
120
330
11E
100
AcDbEntity
  8
_U+30EC_U+30A4_U+30E4_U+30FC 1
370
     0
100
AcDbVertex
100
AcDb2dVertex
 10
113.2216850845418
 20
-120.1762993406157
 30
0.0
  0
VERTEX
  5
121
330
11E
100
AcDbEntity
  8
_U+30EC_U+30A4_U+30E4_U+30FC 1
370
     0
100
AcDbVertex
100
AcDb2dVertex
 10
113.0294487564649
 20
-120.1762993406157
 30
0.0
  0
VERTEX
  5
122
330
11E
100
AcDbEntity
  8
_U+30EC_U+30A4_U+30E4_U+30FC 1
370
     0
100
AcDbVertex
100
AcDb2dVertex
 10
113.0294487564649
 20
-119.829378225251
 30
0.0
  0
VERTEX
  5
123
330
11E
100
AcDbEntity
  8
_U+30EC_U+30A4_U+30E4_U+30FC 1
370
     0
100
AcDbVertex
100
AcDb2dVertex
 10
112.4503282053944
 20
-119.829378225251
 30
0.0
  0
VERTEX
  5
124
330
11E
100
AcDbEntity
  8
_U+30EC_U+30A4_U+30E4_U+30FC 1
370
     0
100
AcDbVertex
100
AcDb2dVertex
 10
112.4503282053944
 20
-119.6051025091612
 30
0.0
  0
VERTEX
  5
125
330
11E
100
AcDbEntity
  8
_U+30EC_U+30A4_U+30E4_U+30FC 1
370
     0
100
AcDbVertex
100
AcDb2dVertex
 10
113.0497748198278
 20
-118.6320352893524
 30
0.0
  0
VERTEX
  5
126
330
11E
100
AcDbEntity
  8
_U+30EC_U+30A4_U+30E4_U+30FC 1
370
     0
100
AcDbVertex
100
AcDb2dVertex
 10
113.2216850845418
 20
-118.6320352893524
 30
0.0
  0
VERTEX
  5
127
330
11E
100
AcDbEntity
  8
_U+30EC_U+30A4_U+30E4_U+30FC 1
370
     0
100
AcDbVertex
100
AcDb2dVertex
 10
113.2216850845418
 20
-119.6304239609778
 30
0.0
  0
VERTEX
  5
128
330
11E
100
AcDbEntity
  8
_U+30EC_U+30A4_U+30E4_U+30FC 1
370
     0
100
AcDbVertex
100
AcDb2dVertex
 10
113.4049641643571
 20
-119.6304239609778
 30
0.0
  0
VERTEX
  5
129
330
11E
100
AcDbEntity
  8
_U+30EC_U+30A4_U+30E4_U+30FC 1
370
     0
100
AcDbVertex
100
AcDb2dVertex
 10
113.4049641643571
 20
-119.829378225251
 30
0.0
  0
VERTEX
  5
12A
330
11E
100
AcDbEntity
  8
_U+30EC_U+30A4_U+30E4_U+30FC 1
370
     0
100
AcDbVertex
100
AcDb2dVertex
 10
113.2216850845418
 20
-119.829378225251
 30
0.0
  0
SEQEND
  5
12B
330
11E
100
AcDbEntity
  8
_U+30EC_U+30A4_U+30E4_U+30FC 1
370
     0
  0
POLYLINE
  5
12C
330
118
100
AcDbEntity
  8
_U+30EC_U+30A4_U+30E4_U+30FC 1
370
     0
100
AcDb2dPolyline
 66
     1
 10
0.0
 20
0.0
 30
0.0
  0
VERTEX
  5
12D
330
12C
100
AcDbEntity
  8
_U+30EC_U+30A4_U+30E4_U+30FC 1
370
     0
100
AcDbVertex
100
AcDb2dVertex
 10
113.0294487564649
 20
-118.9746500353605
 30
0.0
  0
VERTEX
  5
12E
330
12C
100
AcDbEntity
  8
_U+30EC_U+30A4_U+30E4_U+30FC 1
370
     0
100
AcDbVertex
100
AcDb2dVertex
 10
112.6256835655936
 20
-119.6304239609778
 30
0.0
  0
VERTEX
  5
12F
330
12C
100
AcDbEntity
  8
_U+30EC_U+30A4_U+30E4_U+30FC 1
370
     0
100
AcDbVertex
100
AcDb2dVertex
 10
113.0294487564649
 20
-119.6304239609778
 30
0.0
  0
VERTEX
  5
130
330
12C
100
AcDbEntity
  8
_U+30EC_U+30A4_U+30E4_U+30FC 1
370
     0
100
AcDbVertex
100
AcDb2dVertex
 10
113.0294487564649
 20
-118.9746500353605
 30
0.0
  0
SEQEND
  5
131
330
12C
100
AcDbEntity
  8
_U+30EC_U+30A4_U+30E4_U+30FC 1
370
     0
  0
HATCH
  5
132
330
118
100
AcDbEntity
  8
_U+30EC_U+30A4_U+30E4_U+30FC 1
 62
   179
420
  2234388
100
AcDbHatch
 10
0.0
 20
0.0
 30
0.0
210
0.0
220
0.0
230
1.0
  2
SOLID
 70
     1
 71
     0
 91
        2
 92
        1
 93
       11
 72
     1
 10
113.2216850845418
 20
-119.829378225251
 11
113.2216850845418
 21
-120.1762993406157
 72
     1
 10
113.2216850845418
 20
-120.1762993406157
 11
113.0294487564649
 21
-120.1762993406157
 72
     1
 10
113.0294487564649
 20
-120.1762993406157
 11
113.0294487564649
 21
-119.829378225251
 72
     1
 10
113.0294487564649
 20
-119.829378225251
 11
112.4503282053944
 21
-119.829378225251
 72
     1
 10
112.4503282053944
 20
-119.829378225251
 11
112.4503282053944
 21
-119.6051025091612
 72
     1
 10
112.4503282053944
 20
-119.6051025091612
 11
113.0497748198278
 21
-118.6320352893524
 72
     1
 10
113.0497748198278
 20
-118.6320352893524
 11
113.2216850845418
 21
-118.6320352893524
 72
     1
 10
113.2216850845418
 20
-118.6320352893524
 11
113.2216850845418
 21
-119.6304239609778
 72
     1
 10
113.2216850845418
 20
-119.6304239609778
 11
113.4049641643571
 21
-119.6304239609778
 72
     1
 10
113.4049641643571
 20
-119.6304239609778
 11
113.4049641643571
 21
-119.829378225251
 72
     1
 10
113.4049641643571
 20
-119.829378225251
 11
113.2216850845418
 21
-119.829378225251
 97
        0
 92
        1
 93
        3
 72
     1
 10
113.0294487564649
 20
-118.9746500353605
 11
112.6256835655936
 21
-119.6304239609778
 72
     1
 10
112.6256835655936
 20
-119.6304239609778
 11
113.0294487564649
 21
-119.6304239609778
 72
     1
 10
113.0294487564649
 20
-119.6304239609778
 11
113.0294487564649
 21
-118.9746500353605
 97
        0
 75
     2
 76
     1
 98
        0
  0
POLYLINE
  5
133
330
118
100
AcDbEntity
  8
_U+30EC_U+30A4_U+30E4_U+30FC 1
370
     0
100
AcDb2dPolyline
 66
     1
 10
0.0
 20
0.0
 30
0.0
  0
VERTEX
  5
134
330
133
100
AcDbEntity
  8
_U+30EC_U+30A4_U+30E4_U+30FC 1
370
     0
100
AcDbVertex
100
AcDb2dVertex
 10
113.5796305054593
 20
-120.1762993406157
 30
0.0
  0
VERTEX
  5
135
330
133
100
AcDbEntity
  8
_U+30EC_U+30A4_U+30E4_U+30FC 1
370
     0
100
AcDbVertex
100
AcDb2dVertex
 10
113.5796305054593
 20
-119.9246351154182
 30
0.0
  0
VERTEX
  5
136
330
133
100
AcDbEntity
  8
_U+30EC_U+30A4_U+30E4_U+30FC 1
370
     0
100
AcDbVertex
100
AcDb2dVertex
 10
113.8018391642579
 20
-119.9246351154182
 30
0.0
  0
VERTEX
  5
137
330
133
100
AcDbEntity
  8
_U+30EC_U+30A4_U+30E4_U+30FC 1
370
     0
100
AcDbVertex
100
AcDb2dVertex
 10
113.8018391642579
 20
-120.1762993406157
 30
0.0
  0
VERTEX
  5
138
330
133
100
AcDbEntity
  8
_U+30EC_U+30A4_U+30E4_U+30FC 1
370
     0
100
AcDbVertex
100
AcDb2dVertex
 10
113.5796305054593
 20
-120.1762993406157
 30
0.0
  0
SEQEND
  5
139
330
133
100
AcDbEntity
  8
_U+30EC_U+30A4_U+30E4_U+30FC 1
370
     0
  0
HATCH
  5
13A
330
118
100
AcDbEntity
  8
_U+30EC_U+30A4_U+30E4_U+30FC 1
 62
   179
420
  2234388
100
AcDbHatch
 10
0.0
 20
0.0
 30
0.0
210
0.0
220
0.0
230
1.0
  2
SOLID
 70
     1
 71
     0
 91
        1
 92
        1
 93
        4
 72
     1
 10
113.5796305054593
 20
-120.1762993406157
 11
113.5796305054593
 21
-119.9246351154182
 72
     1
 10
113.5796305054593
 20
-119.9246351154182
 11
113.8018391642579
 21
-119.9246351154182
 72
     1
 10
113.8018391642579
 20
-119.9246351154182
 11
113.8018391642579
 21
-120.1762993406157
 72
     1
 10
113.8018391642579
 20
-120.1762993406157
 11
113.5796305054593
 21
-120.1762993406157
 97
        0
 75
     2
 76
     1
 98
        0
  0
SPLINE
  5
13B
330
118
100
AcDbEntity
  8
_U+30EC_U+30A4_U+30E4_U+30FC 1
370
     0
100
AcDbSpline
210
0.0
220
0.0
230
1.0
 70
    11
 71
     3
 72
    29
 73
    25
 74
     0
 42
0.0000000001
 43
0.0000000001
 12
1.0
 22
0.0
 32
0.0
 13
1.0
 23
0.0
 33
0.0
 40
0.0
 40
0.0
 40
0.0
 40
0.0
 40
1.0
 40
1.0
 40
1.0
 40
2.0
 40
2.0
 40
2.0
 40
3.0
 40
3.0
 40
3.0
 40
4.0
 40
4.0
 40
4.0
 40
5.0
 40
5.0
 40
5.0
 40
6.0
 40
6.0
 40
6.0
 40
7.0
 40
7.0
 40
7.0
 40
8.0
 40
8.0
 40
8.0
 40
8.0
 10
114.4526177014216
 20
-120.2271144990231
 30
0.0
 10
114.217317679779
 20
-120.2271144990231
 30
0.0
 10
113.9930419636893
 20
-120.0894829343874
 30
0.0
 10
113.9930419636893
 20
-119.7404947617316
 30
0.0
 10
113.9930419636893
 20
-119.4845241671775
 30
0.0
 10
114.1180989298038
 20
-119.3892672770103
 30
0.0
 10
114.2118055270026
 20
-119.3279445773729
 30
0.0
 10
114.1015624714746
 20
-119.2686889350266
 30
0.0
 10
114.0340385999637
 20
-119.1544840196906
 30
0.0
 10
114.0340385999637
 20
-118.9937703153036
 30
0.0
 10
114.0340385999637
 20
-118.7186794408064
 30
0.0
 10
114.2097384697115
 20
-118.5832871882361
 30
0.0
 10
114.4526177014216
 20
-118.5832871882361
 30
0.0
 10
114.7030761431992
 20
-118.5832871882361
 30
0.0
 10
114.8711968028794
 20
-118.7271199247453
 30
0.0
 10
114.8711968028794
 20
-118.9937703153036
 30
0.0
 10
114.8711968028794
 20
-119.1544840196906
 30
0.0
 10
114.8016058740774
 20
-119.2686889350266
 30
0.0
 10
114.6917073280979
 20
-119.3279445773729
 30
0.0
 10
114.7699109956131
 20
-119.3787597357803
 30
0.0
 10
114.9101263818628
 20
-119.4740166259475
 30
0.0
 10
114.9101263818628
 20
-119.736188392375
 30
0.0
 10
114.9101263818628
 20
-120.1106702716216
 30
0.0
 10
114.6638020546674
 20
-120.2271144990231
 30
0.0
 10
114.4526177014216
 20
-120.2271144990231
 30
0.0
  0
SPLINE
  5
13C
330
118
100
AcDbEntity
  8
_U+30EC_U+30A4_U+30E4_U+30FC 1
370
     0
100
AcDbSpline
210
0.0
220
0.0
230
1.0
 70
    11
 71
     3
 72
    17
 73
    13
 74
     0
 42
0.0000000001
 43
0.0000000001
 12
1.0
 22
0.0
 32
0.0
 13
1.0
 23
0.0
 33
0.0
 40
0.0
 40
0.0
 40
0.0
 40
0.0
 40
1.0
 40
1.0
 40
1.0
 40
2.0
 40
2.0
 40
2.0
 40
3.0
 40
3.0
 40
3.0
 40
4.0
 40
4.0
 40
4.0
 40
4.0
 10
114.4526177014216
 20
-119.4359483208355
 30
0.0
 10
114.3254936780159
 20
-119.4359483208355
 30
0.0
 10
114.1911349540911
 20
-119.5225924722895
 30
0.0
 10
114.1911349540911
 20
-119.725680851145
 30
0.0
 10
114.1911349540911
 20
-119.9308362872916
 30
0.0
 10
114.3031005573617
 20
-120.0324666041065
 30
0.0
 10
114.4526177014216
 20
-120.0324666041065
 30
0.0
 10
114.616948756068
 20
-120.0324666041065
 30
0.0
 10
114.714100448752
 20
-119.9098212048316
 30
0.0
 10
114.714100448752
 20
-119.7320542777927
 30
0.0
 10
114.714100448752
 20
-119.5098456189941
 30
0.0
 10
114.5700954574686
 20
-119.4359483208355
 30
0.0
 10
114.4526177014216
 20
-119.4359483208355
 30
0.0
  0
SPLINE
  5
13D
330
118
100
AcDbEntity
  8
_U+30EC_U+30A4_U+30E4_U+30FC 1
370
     0
100
AcDbSpline
210
0.0
220
0.0
230
1.0
 70
    11
 71
     3
 72
    17
 73
    13
 74
     0
 42
0.0000000001
 43
0.0000000001
 12
1.0
 22
0.0
 32
0.0
 13
1.0
 23
0.0
 33
0.0
 40
0.0
 40
0.0
 40
0.0
 40
0.0
 40
1.0
 40
1.0
 40
1.0
 40
2.0
 40
2.0
 40
2.0
 40
3.0
 40
3.0
 40
3.0
 40
4.0
 40
4.0
 40
4.0
 40
4.0
 10
114.4526177014216
 20
-118.7758680258616
 30
0.0
 10
114.3068901623955
 20
-118.7758680258616
 30
0.0
 10
114.2321315903656
 20
-118.8709526612545
 30
0.0
 10
114.2321315903656
 20
-119.0063449138248
 30
0.0
 10
114.2321315903656
 20
-119.129162567874
 30
0.0
 10
114.2958658568427
 20
-119.2476738525666
 30
0.0
 10
114.4526177014216
 20
-119.2476738525666
 30
0.0
 10
114.6093695460004
 20
-119.2476738525666
 30
0.0
 10
114.672759302929
 20
-119.129162567874
 30
0.0
 10
114.672759302929
 20
-119.0063449138248
 30
0.0
 10
114.672759302929
 20
-118.8709526612545
 30
0.0
 10
114.5962781831565
 20
-118.7758680258616
 30
0.0
 10
114.4526177014216
 20
-118.7758680258616
 30
0.0
  0
HATCH
  5
13E
330
118
100
AcDbEntity
  8
_U+30EC_U+30A4_U+30E4_U+30FC 1
 62
   179
420
  2234388
100
AcDbHatch
 10
0.0
 20
0.0
 30
0.0
210
0.0
220
0.0
230
1.0
  2
SOLID
 70
     1
 71
     0
 91
        3
 92
        1
 93
        1
 72
     4
 94
        3
 73
     0
 74
     1
 95
       29
 96
       25
 40
0.0
 40
0.0
 40
0.0
 40
0.0
 40
1.0
 40
1.0
 40
1.0
 40
2.0
 40
2.0
 40
2.0
 40
3.0
 40
3.0
 40
3.0
 40
4.0
 40
4.0
 40
4.0
 40
5.0
 40
5.0
 40
5.0
 40
6.0
 40
6.0
 40
6.0
 40
7.0
 40
7.0
 40
7.0
 40
8.0
 40
8.0
 40
8.0
 40
8.0
 10
114.4526177014216
 20
-120.2271144990231
 10
114.217317679779
 20
-120.2271144990231
 10
113.9930419636893
 20
-120.0894829343874
 10
113.9930419636893
 20
-119.7404947617316
 10
113.9930419636893
 20
-119.4845241671775
 10
114.1180989298038
 20
-119.3892672770103
 10
114.2118055270026
 20
-119.3279445773729
 10
114.1015624714746
 20
-119.2686889350266
 10
114.0340385999637
 20
-119.1544840196906
 10
114.0340385999637
 20
-118.9937703153036
 10
114.0340385999637
 20
-118.7186794408064
 10
114.2097384697115
 20
-118.5832871882361
 10
114.4526177014216
 20
-118.5832871882361
 10
114.7030761431992
 20
-118.5832871882361
 10
114.8711968028794
 20
-118.7271199247453
 10
114.8711968028794
 20
-118.9937703153036
 10
114.8711968028794
 20
-119.1544840196906
 10
114.8016058740774
 20
-119.2686889350266
 10
114.6917073280979
 20
-119.3279445773729
 10
114.7699109956131
 20
-119.3787597357803
 10
114.9101263818628
 20
-119.4740166259475
 10
114.9101263818628
 20
-119.736188392375
 10
114.9101263818628
 20
-120.1106702716216
 10
114.6638020546674
 20
-120.2271144990231
 10
114.4526177014216
 20
-120.2271144990231
 97
        0
 97
        0
 92
        1
 93
        1
 72
     4
 94
        3
 73
     0
 74
     1
 95
       17
 96
       13
 40
0.0
 40
0.0
 40
0.0
 40
0.0
 40
1.0
 40
1.0
 40
1.0
 40
2.0
 40
2.0
 40
2.0
 40
3.0
 40
3.0
 40
3.0
 40
4.0
 40
4.0
 40
4.0
 40
4.0
 10
114.4526177014216
 20
-119.4359483208355
 10
114.3254936780159
 20
-119.4359483208355
 10
114.1911349540911
 20
-119.5225924722895
 10
114.1911349540911
 20
-119.725680851145
 10
114.1911349540911
 20
-119.9308362872916
 10
114.3031005573617
 20
-120.0324666041065
 10
114.4526177014216
 20
-120.0324666041065
 10
114.616948756068
 20
-120.0324666041065
 10
114.714100448752
 20
-119.9098212048316
 10
114.714100448752
 20
-119.7320542777927
 10
114.714100448752
 20
-119.5098456189941
 10
114.5700954574686
 20
-119.4359483208355
 10
114.4526177014216
 20
-119.4359483208355
 97
        0
 97
        0
 92
        1
 93
        1
 72
     4
 94
        3
 73
     0
 74
     1
 95
       17
 96
       13
 40
0.0
 40
0.0
 40
0.0
 40
0.0
 40
1.0
 40
1.0
 40
1.0
 40
2.0
 40
2.0
 40
2.0
 40
3.0
 40
3.0
 40
3.0
 40
4.0
 40
4.0
 40
4.0
 40
4.0
 10
114.4526177014216
 20
-118.7758680258616
 10
114.3068901623955
 20
-118.7758680258616
 10
114.2321315903656
 20
-118.8709526612545
 10
114.2321315903656
 20
-119.0063449138248
 10
114.2321315903656
 20
-119.129162567874
 10
114.2958658568427
 20
-119.2476738525666
 10
114.4526177014216
 20
-119.2476738525666
 10
114.6093695460004
 20
-119.2476738525666
 10
114.672759302929
 20
-119.129162567874
 10
114.672759302929
 20
-119.0063449138248
 10
114.672759302929
 20
-118.8709526612545
 10
114.5962781831565
 20
-118.7758680258616
 10
114.4526177014216
 20
-118.7758680258616
 97
        0
 97
        0
 75
     2
 76
     1
 98
        0
  0
ENDBLK
  5
11B
330
118
100
AcDbEntity
  8
0
100
AcDbBlockEnd
  0
BLOCK
  5
141
330
13F
100
AcDbEntity
  8
0
100
AcDbBlockBegin
  2
block 5
 70
     0
 10
0.0
 20
0.0
 30
0.0
  3
block 5
  1

  0
SPLINE
  5
143
330
13F
100
AcDbEntity
  8
_U+30EC_U+30A4_U+30E4_U+30FC 1
370
     0
100
AcDbSpline
210
0.0
220
0.0
230
1.0
 70
    11
 71
     3
 72
    26
 73
    22
 74
     0
 42
0.0000000001
 43
0.0000000001
 12
1.0
 22
0.0
 32
0.0
 13
1.0
 23
0.0
 33
0.0
 40
0.0
 40
0.0
 40
0.0
 40
0.0
 40
1.0
 40
1.0
 40
1.0
 40
2.0
 40
2.0
 40
2.0
 40
3.0
 40
3.0
 40
3.0
 40
4.0
 40
4.0
 40
4.0
 40
5.0
 40
5.0
 40
5.0
 40
6.0
 40
6.0
 40
6.0
 40
7.0
 40
7.0
 40
7.0
 40
7.0
 10
83.61884085366127
 20
-178.1762043825393
 30
0.0
 10
83.61884085366127
 20
-178.1762043825393
 30
0.0
 10
83.38199053905034
 20
-178.1762043825393
 30
0.0
 10
83.38199053905034
 20
-178.1762043825393
 30
0.0
 10
83.40731199086693
 20
-177.8671793175124
 30
0.0
 10
83.59989282849239
 20
-177.3490369565308
 30
0.0
 10
84.00606958620335
 20
-176.8432969392961
 30
0.0
 10
84.00606958620335
 20
-176.8432969392961
 30
0.0
 10
83.16822236419058
 20
-176.8432969392961
 30
0.0
 10
83.16822236419058
 20
-176.8432969392961
 30
0.0
 10
83.16822236419058
 20
-176.8432969392961
 30
0.0
 10
83.16822236419058
 20
-176.6317680765018
 30
0.0
 10
83.16822236419058
 20
-176.6317680765018
 30
0.0
 10
83.16822236419058
 20
-176.6317680765018
 30
0.0
 10
84.24291990081427
 20
-176.6317680765018
 30
0.0
 10
84.24291990081427
 20
-176.6317680765018
 30
0.0
 10
84.24291990081427
 20
-176.6317680765018
 30
0.0
 10
84.24291990081427
 20
-176.8432969392961
 30
0.0
 10
84.24291990081427
 20
-176.8432969392961
 30
0.0
 10
83.91925317997506
 20
-177.1333739791542
 30
0.0
 10
83.65277504419097
 20
-177.7255858930686
 30
0.0
 10
83.61884085366127
 20
-178.1762043825393
 30
0.0
  0
HATCH
  5
144
330
13F
100
AcDbEntity
  8
_U+30EC_U+30A4_U+30E4_U+30FC 1
 62
   179
420
  2234388
100
AcDbHatch
 10
0.0
 20
0.0
 30
0.0
210
0.0
220
0.0
230
1.0
  2
SOLID
 70
     1
 71
     0
 91
        1
 92
        1
 93
        1
 72
     4
 94
        3
 73
     0
 74
     1
 95
       26
 96
       22
 40
0.0
 40
0.0
 40
0.0
 40
0.0
 40
1.0
 40
1.0
 40
1.0
 40
2.0
 40
2.0
 40
2.0
 40
3.0
 40
3.0
 40
3.0
 40
4.0
 40
4.0
 40
4.0
 40
5.0
 40
5.0
 40
5.0
 40
6.0
 40
6.0
 40
6.0
 40
7.0
 40
7.0
 40
7.0
 40
7.0
 10
83.61884085366127
 20
-178.1762043825393
 10
83.61884085366127
 20
-178.1762043825393
 10
83.38199053905034
 20
-178.1762043825393
 10
83.38199053905034
 20
-178.1762043825393
 10
83.40731199086693
 20
-177.8671793175124
 10
83.59989282849239
 20
-177.3490369565308
 10
84.00606958620335
 20
-176.8432969392961
 10
84.00606958620335
 20
-176.8432969392961
 10
83.16822236419058
 20
-176.8432969392961
 10
83.16822236419058
 20
-176.8432969392961
 10
83.16822236419058
 20
-176.8432969392961
 10
83.16822236419058
 20
-176.6317680765018
 10
83.16822236419058
 20
-176.6317680765018
 10
83.16822236419058
 20
-176.6317680765018
 10
84.24291990081427
 20
-176.6317680765018
 10
84.24291990081427
 20
-176.6317680765018
 10
84.24291990081427
 20
-176.6317680765018
 10
84.24291990081427
 20
-176.8432969392961
 10
84.24291990081427
 20
-176.8432969392961
 10
83.91925317997506
 20
-177.1333739791542
 10
83.65277504419097
 20
-177.7255858930686
 10
83.61884085366127
 20
-178.1762043825393
 97
        0
 97
        0
 75
     2
 76
     1
 98
        0
  0
POLYLINE
  5
145
330
13F
100
AcDbEntity
  8
_U+30EC_U+30A4_U+30E4_U+30FC 1
370
     0
100
AcDb2dPolyline
 66
     1
 10
0.0
 20
0.0
 30
0.0
  0
VERTEX
  5
146
330
145
100
AcDbEntity
  8
_U+30EC_U+30A4_U+30E4_U+30FC 1
370
     0
100
AcDbVertex
100
AcDb2dVertex
 10
84.44463024147565
 20
-178.1762043825393
 30
0.0
  0
VERTEX
  5
147
330
145
100
AcDbEntity
  8
_U+30EC_U+30A4_U+30E4_U+30FC 1
370
     0
100
AcDbVertex
100
AcDb2dVertex
 10
84.44463024147565
 20
-177.9243679025675
 30
0.0
  0
VERTEX
  5
148
330
145
100
AcDbEntity
  8
_U+30EC_U+30A4_U+30E4_U+30FC 1
370
     0
100
AcDbVertex
100
AcDb2dVertex
 10
84.69629446667315
 20
-177.9243679025675
 30
0.0
  0
VERTEX
  5
149
330
145
100
AcDbEntity
  8
_U+30EC_U+30A4_U+30E4_U+30FC 1
370
     0
100
AcDbVertex
100
AcDb2dVertex
 10
84.69629446667315
 20
-178.1762043825393
 30
0.0
  0
VERTEX
  5
14A
330
145
100
AcDbEntity
  8
_U+30EC_U+30A4_U+30E4_U+30FC 1
370
     0
100
AcDbVertex
100
AcDb2dVertex
 10
84.44463024147565
 20
-178.1762043825393
 30
0.0
  0
SEQEND
  5
14B
330
145
100
AcDbEntity
  8
_U+30EC_U+30A4_U+30E4_U+30FC 1
370
     0
  0
HATCH
  5
14C
330
13F
100
AcDbEntity
  8
_U+30EC_U+30A4_U+30E4_U+30FC 1
 62
   179
420
  2234388
100
AcDbHatch
 10
0.0
 20
0.0
 30
0.0
210
0.0
220
0.0
230
1.0
  2
SOLID
 70
     1
 71
     0
 91
        1
 92
        1
 93
        4
 72
     1
 10
84.44463024147565
 20
-178.1762043825393
 11
84.44463024147565
 21
-177.9243679025675
 72
     1
 10
84.44463024147565
 20
-177.9243679025675
 11
84.69629446667315
 21
-177.9243679025675
 72
     1
 10
84.69629446667315
 20
-177.9243679025675
 11
84.69629446667315
 21
-178.1762043825393
 72
     1
 10
84.69629446667315
 20
-178.1762043825393
 11
84.44463024147565
 21
-178.1762043825393
 97
        0
 75
     2
 76
     1
 98
        0
  0
SPLINE
  5
14D
330
13F
100
AcDbEntity
  8
_U+30EC_U+30A4_U+30E4_U+30FC 1
370
     0
100
AcDbSpline
210
0.0
220
0.0
230
1.0
 70
    11
 71
     3
 72
    53
 73
    49
 74
     0
 42
0.0000000001
 43
0.0000000001
 12
1.0
 22
0.0
 32
0.0
 13
1.0
 23
0.0
 33
0.0
 40
0.0
 40
0.0
 40
0.0
 40
0.0
 40
1.0
 40
1.0
 40
1.0
 40
2.0
 40
2.0
 40
2.0
 40
3.0
 40
3.0
 40
3.0
 40
4.0
 40
4.0
 40
4.0
 40
5.0
 40
5.0
 40
5.0
 40
6.0
 40
6.0
 40
6.0
 40
7.0
 40
7.0
 40
7.0
 40
8.0
 40
8.0
 40
8.0
 40
9.0
 40
9.0
 40
9.0
 40
10.0
 40
10.0
 40
10.0
 40
11.0
 40
11.0
 40
11.0
 40
12.0
 40
12.0
 40
12.0
 40
13.0
 40
13.0
 40
13.0
 40
14.0
 40
14.0
 40
14.0
 40
15.0
 40
15.0
 40
15.0
 40
16.0
 40
16.0
 40
16.0
 40
16.0
 10
85.41390785625069
 20
-178.2268472861725
 30
0.0
 10
85.33553193396126
 20
-178.2268472861725
 30
0.0
 10
85.23407387192066
 20
-178.2099663182947
 30
0.0
 10
85.13244355510578
 20
-178.1465765613661
 30
0.0
 10
84.95898299742345
 20
-178.0366780153867
 30
0.0
 10
84.93779566018917
 20
-177.9054198773987
 30
0.0
 10
84.9188476350203
 20
-177.7975883887103
 30
0.0
 10
84.9188476350203
 20
-177.7975883887103
 30
0.0
 10
85.14088403904465
 20
-177.7975883887103
 30
0.0
 10
85.14088403904465
 20
-177.7975883887103
 30
0.0
 10
85.19600556680864
 20
-177.9963703982093
 30
0.0
 10
85.3229573354401
 20
-178.0259982193824
 30
0.0
 10
85.41597491354185
 20
-178.0259982193824
 30
0.0
 10
85.55550128069446
 20
-178.0259982193824
 30
0.0
 10
85.70794675591677
 20
-177.9264349598587
 30
0.0
 10
85.70794675591677
 20
-177.6938910146043
 30
0.0
 10
85.70794675591677
 20
-177.4379204200503
 30
0.0
 10
85.52811277158672
 20
-177.3679849816997
 30
0.0
 10
85.40753442960298
 20
-177.3679849816997
 30
0.0
 10
85.37583955113868
 20
-177.3679849816997
 30
0.0
 10
85.23407387192066
 20
-177.3679849816997
 30
0.0
 10
85.1451904084012
 20
-177.4971760623965
 30
0.0
 10
85.1451904084012
 20
-177.4971760623965
 30
0.0
 10
84.96966279342773
 20
-177.4782280372277
 30
0.0
 10
84.96966279342773
 20
-177.4782280372277
 30
0.0
 10
84.96966279342773
 20
-177.4782280372277
 30
0.0
 10
85.09024113541147
 20
-176.6317680765018
 30
0.0
 10
85.09024113541147
 20
-176.6317680765018
 30
0.0
 10
85.09024113541147
 20
-176.6317680765018
 30
0.0
 10
85.86866046030367
 20
-176.6317680765018
 30
0.0
 10
85.86866046030367
 20
-176.6317680765018
 30
0.0
 10
85.86866046030367
 20
-176.6317680765018
 30
0.0
 10
85.86866046030367
 20
-176.8264159714184
 30
0.0
 10
85.86866046030367
 20
-176.8264159714184
 30
0.0
 10
85.86866046030367
 20
-176.8264159714184
 30
0.0
 10
85.25302189708952
 20
-176.8264159714184
 30
0.0
 10
85.25302189708952
 20
-176.8264159714184
 30
0.0
 10
85.25302189708952
 20
-176.8264159714184
 30
0.0
 10
85.18756508286978
 20
-177.2494736970071
 30
0.0
 10
85.18756508286978
 20
-177.2494736970071
 30
0.0
 10
85.24888778250723
 20
-177.2157117612516
 30
0.0
 10
85.33139781937896
 20
-177.1754041440742
 30
0.0
 10
85.4497368492973
 20
-177.1754041440742
 30
0.0
 10
85.70364038656021
 20
-177.1754041440742
 30
0.0
 10
85.9406629559454
 20
-177.3617838098262
 30
0.0
 10
85.9406629559454
 20
-177.6749429894354
 30
0.0
 10
85.9406629559454
 20
-177.9922362836269
 30
0.0
 10
85.71638723985564
 20
-178.2268472861725
 30
0.0
 10
85.41390785625069
 20
-178.2268472861725
 30
0.0
  0
HATCH
  5
14E
330
13F
100
AcDbEntity
  8
_U+30EC_U+30A4_U+30E4_U+30FC 1
 62
   179
420
  2234388
100
AcDbHatch
 10
0.0
 20
0.0
 30
0.0
210
0.0
220
0.0
230
1.0
  2
SOLID
 70
     1
 71
     0
 91
        1
 92
        1
 93
        1
 72
     4
 94
        3
 73
     0
 74
     1
 95
       53
 96
       49
 40
0.0
 40
0.0
 40
0.0
 40
0.0
 40
1.0
 40
1.0
 40
1.0
 40
2.0
 40
2.0
 40
2.0
 40
3.0
 40
3.0
 40
3.0
 40
4.0
 40
4.0
 40
4.0
 40
5.0
 40
5.0
 40
5.0
 40
6.0
 40
6.0
 40
6.0
 40
7.0
 40
7.0
 40
7.0
 40
8.0
 40
8.0
 40
8.0
 40
9.0
 40
9.0
 40
9.0
 40
10.0
 40
10.0
 40
10.0
 40
11.0
 40
11.0
 40
11.0
 40
12.0
 40
12.0
 40
12.0
 40
13.0
 40
13.0
 40
13.0
 40
14.0
 40
14.0
 40
14.0
 40
15.0
 40
15.0
 40
15.0
 40
16.0
 40
16.0
 40
16.0
 40
16.0
 10
85.41390785625069
 20
-178.2268472861725
 10
85.33553193396126
 20
-178.2268472861725
 10
85.23407387192066
 20
-178.2099663182947
 10
85.13244355510578
 20
-178.1465765613661
 10
84.95898299742345
 20
-178.0366780153867
 10
84.93779566018917
 20
-177.9054198773987
 10
84.9188476350203
 20
-177.7975883887103
 10
84.9188476350203
 20
-177.7975883887103
 10
85.14088403904465
 20
-177.7975883887103
 10
85.14088403904465
 20
-177.7975883887103
 10
85.19600556680864
 20
-177.9963703982093
 10
85.3229573354401
 20
-178.0259982193824
 10
85.41597491354185
 20
-178.0259982193824
 10
85.55550128069446
 20
-178.0259982193824
 10
85.70794675591677
 20
-177.9264349598587
 10
85.70794675591677
 20
-177.6938910146043
 10
85.70794675591677
 20
-177.4379204200503
 10
85.52811277158672
 20
-177.3679849816997
 10
85.40753442960298
 20
-177.3679849816997
 10
85.37583955113868
 20
-177.3679849816997
 10
85.23407387192066
 20
-177.3679849816997
 10
85.1451904084012
 20
-177.4971760623965
 10
85.1451904084012
 20
-177.4971760623965
 10
84.96966279342773
 20
-177.4782280372277
 10
84.96966279342773
 20
-177.4782280372277
 10
84.96966279342773
 20
-177.4782280372277
 10
85.09024113541147
 20
-176.6317680765018
 10
85.09024113541147
 20
-176.6317680765018
 10
85.09024113541147
 20
-176.6317680765018
 10
85.86866046030367
 20
-176.6317680765018
 10
85.86866046030367
 20
-176.6317680765018
 10
85.86866046030367
 20
-176.6317680765018
 10
85.86866046030367
 20
-176.8264159714184
 10
85.86866046030367
 20
-176.8264159714184
 10
85.86866046030367
 20
-176.8264159714184
 10
85.25302189708952
 20
-176.8264159714184
 10
85.25302189708952
 20
-176.8264159714184
 10
85.25302189708952
 20
-176.8264159714184
 10
85.18756508286978
 20
-177.2494736970071
 10
85.18756508286978
 20
-177.2494736970071
 10
85.24888778250723
 20
-177.2157117612516
 10
85.33139781937896
 20
-177.1754041440742
 10
85.4497368492973
 20
-177.1754041440742
 10
85.70364038656021
 20
-177.1754041440742
 10
85.9406629559454
 20
-177.3617838098262
 10
85.9406629559454
 20
-177.6749429894354
 10
85.9406629559454
 20
-177.9922362836269
 10
85.71638723985564
 20
-178.2268472861725
 10
85.41390785625069
 20
-178.2268472861725
 97
        0
 97
        0
 75
     2
 76
     1
 98
        0
  0
ENDBLK
  5
142
330
13F
100
AcDbEntity
  8
0
100
AcDbBlockEnd
  0
BLOCK
  5
151
330
14F
100
AcDbEntity
  8
0
100
AcDbBlockBegin
  2
block 6
 70
     0
 10
0.0
 20
0.0
 30
0.0
  3
block 6
  1

  0
SPLINE
  5
153
330
14F
100
AcDbEntity
  8
_U+30EC_U+30A4_U+30E4_U+30FC 1
370
     0
100
AcDbSpline
210
0.0
220
0.0
230
1.0
 70
    11
 71
     3
 72
    62
 73
    58
 74
     0
 42
0.0000000001
 43
0.0000000001
 12
1.0
 22
0.0
 32
0.0
 13
1.0
 23
0.0
 33
0.0
 40
0.0
 40
0.0
 40
0.0
 40
0.0
 40
1.0
 40
1.0
 40
1.0
 40
2.0
 40
2.0
 40
2.0
 40
3.0
 40
3.0
 40
3.0
 40
4.0
 40
4.0
 40
4.0
 40
5.0
 40
5.0
 40
5.0
 40
6.0
 40
6.0
 40
6.0
 40
7.0
 40
7.0
 40
7.0
 40
8.0
 40
8.0
 40
8.0
 40
9.0
 40
9.0
 40
9.0
 40
10.0
 40
10.0
 40
10.0
 40
11.0
 40
11.0
 40
11.0
 40
12.0
 40
12.0
 40
12.0
 40
13.0
 40
13.0
 40
13.0
 40
14.0
 40
14.0
 40
14.0
 40
15.0
 40
15.0
 40
15.0
 40
16.0
 40
16.0
 40
16.0
 40
17.0
 40
17.0
 40
17.0
 40
18.0
 40
18.0
 40
18.0
 40
19.0
 40
19.0
 40
19.0
 40
19.0
 10
76.24082436245021
 20
-160.0002251119097
 30
0.0
 10
76.24082436245021
 20
-160.0842854417498
 30
0.0
 10
76.21980927999019
 20
-160.2768662793752
 30
0.0
 10
76.0337741237867
 20
-160.3867648253547
 30
0.0
 10
75.92146401096755
 20
-160.4522216395744
 30
0.0
 10
75.82224526099236
 20
-160.4560112446082
 30
0.0
 10
75.73749591205521
 20
-160.4594563400935
 30
0.0
 10
75.73749591205521
 20
-160.4594563400935
 30
0.0
 10
75.73749591205521
 20
-160.2654974642739
 30
0.0
 10
75.73749591205521
 20
-160.2654974642739
 30
0.0
 10
75.81156546498808
 20
-160.2637749165313
 30
0.0
 10
76.0461764675336
 20
-160.2541286491726
 30
0.0
 10
76.0461764675336
 20
-160.0040147169435
 30
0.0
 10
76.0461764675336
 20
-159.8827473558626
 30
0.0
 10
75.97658553873156
 20
-159.7480441223894
 30
0.0
 10
75.74817570805949
 20
-159.7480441223894
 30
0.0
 10
75.63173148065805
 20
-159.7480441223894
 30
0.0
 10
75.58315563431601
 20
-159.7814615485963
 30
0.0
 10
75.55146075585172
 20
-159.8097113315754
 30
0.0
 10
75.47739120291885
 20
-159.8751681457951
 30
0.0
 10
75.46464434962343
 20
-159.9778319912556
 30
0.0
 10
75.46464434962343
 20
-160.0264078375976
 30
0.0
 10
75.46464434962343
 20
-160.0432888054753
 30
0.0
 10
75.46671140691457
 20
-160.0749836839396
 30
0.0
 10
75.47084552149687
 20
-160.0990993523363
 30
0.0
 10
75.47084552149687
 20
-160.0990993523363
 30
0.0
 10
75.27619762658026
 20
-160.0990993523363
 30
0.0
 10
75.27619762658026
 20
-160.0990993523363
 30
0.0
 10
75.28274330800224
 20
-160.0653374165809
 30
0.0
 10
75.28481036529338
 20
-160.0281303853402
 30
0.0
 10
75.28481036529338
 20
-160.0226182325638
 30
0.0
 10
75.28481036529338
 20
-159.9647406284116
 30
0.0
 10
75.26345077328483
 20
-159.7890407586638
 30
0.0
 10
75.02677271344817
 20
-159.7890407586638
 30
0.0
 10
74.84900578640928
 20
-159.7890407586638
 30
0.0
 10
74.79388425864528
 20
-159.9047959669683
 30
0.0
 10
74.79388425864528
 20
-160.0019476596523
 30
0.0
 10
74.79388425864528
 20
-160.2355251335522
 30
0.0
 10
75.02677271344817
 20
-160.2431043436198
 30
0.0
 10
75.09843069954137
 20
-160.246549439105
 30
0.0
 10
75.09843069954137
 20
-160.246549439105
 30
0.0
 10
75.09843069954137
 20
-160.4260389138865
 30
0.0
 10
75.09843069954137
 20
-160.4260389138865
 30
0.0
 10
74.97371824297532
 20
-160.4188042133675
 30
0.0
 10
74.59716930643752
 20
-160.3943440354223
 30
0.0
 10
74.59716930643752
 20
-159.9909233540995
 30
0.0
 10
74.59716930643752
 20
-159.7928303636976
 30
0.0
 10
74.72429332984323
 20
-159.5799234627092
 30
0.0
 10
75.0202270320262
 20
-159.5799234627092
 30
0.0
 10
75.20660669777821
 20
-159.5799234627092
 30
0.0
 10
75.28894447987568
 20
-159.6639837925493
 30
0.0
 10
75.35026717951312
 20
-159.7518337274232
 30
0.0
 10
75.37782794339513
 20
-159.6974012187562
 30
0.0
 10
75.45809866820144
 20
-159.5368597691436
 30
0.0
 10
75.73542885476407
 20
-159.5368597691436
 30
0.0
 10
76.07373723141559
 20
-159.5368597691436
 30
0.0
 10
76.24082436245021
 20
-159.7552788229084
 30
0.0
 10
76.24082436245021
 20
-160.0002251119097
 30
0.0
  0
HATCH
  5
154
330
14F
100
AcDbEntity
  8
_U+30EC_U+30A4_U+30E4_U+30FC 1
 62
   179
420
  2234388
100
AcDbHatch
 10
0.0
 20
0.0
 30
0.0
210
0.0
220
0.0
230
1.0
  2
SOLID
 70
     1
 71
     0
 91
        1
 92
        1
 93
        1
 72
     4
 94
        3
 73
     0
 74
     1
 95
       62
 96
       58
 40
0.0
 40
0.0
 40
0.0
 40
0.0
 40
1.0
 40
1.0
 40
1.0
 40
2.0
 40
2.0
 40
2.0
 40
3.0
 40
3.0
 40
3.0
 40
4.0
 40
4.0
 40
4.0
 40
5.0
 40
5.0
 40
5.0
 40
6.0
 40
6.0
 40
6.0
 40
7.0
 40
7.0
 40
7.0
 40
8.0
 40
8.0
 40
8.0
 40
9.0
 40
9.0
 40
9.0
 40
10.0
 40
10.0
 40
10.0
 40
11.0
 40
11.0
 40
11.0
 40
12.0
 40
12.0
 40
12.0
 40
13.0
 40
13.0
 40
13.0
 40
14.0
 40
14.0
 40
14.0
 40
15.0
 40
15.0
 40
15.0
 40
16.0
 40
16.0
 40
16.0
 40
17.0
 40
17.0
 40
17.0
 40
18.0
 40
18.0
 40
18.0
 40
19.0
 40
19.0
 40
19.0
 40
19.0
 10
76.24082436245021
 20
-160.0002251119097
 10
76.24082436245021
 20
-160.0842854417498
 10
76.21980927999019
 20
-160.2768662793752
 10
76.0337741237867
 20
-160.3867648253547
 10
75.92146401096755
 20
-160.4522216395744
 10
75.82224526099236
 20
-160.4560112446082
 10
75.73749591205521
 20
-160.4594563400935
 10
75.73749591205521
 20
-160.4594563400935
 10
75.73749591205521
 20
-160.2654974642739
 10
75.73749591205521
 20
-160.2654974642739
 10
75.81156546498808
 20
-160.2637749165313
 10
76.0461764675336
 20
-160.2541286491726
 10
76.0461764675336
 20
-160.0040147169435
 10
76.0461764675336
 20
-159.8827473558626
 10
75.97658553873156
 20
-159.7480441223894
 10
75.74817570805949
 20
-159.7480441223894
 10
75.63173148065805
 20
-159.7480441223894
 10
75.58315563431601
 20
-159.7814615485963
 10
75.55146075585172
 20
-159.8097113315754
 10
75.47739120291885
 20
-159.8751681457951
 10
75.46464434962343
 20
-159.9778319912556
 10
75.46464434962343
 20
-160.0264078375976
 10
75.46464434962343
 20
-160.0432888054753
 10
75.46671140691457
 20
-160.0749836839396
 10
75.47084552149687
 20
-160.0990993523363
 10
75.47084552149687
 20
-160.0990993523363
 10
75.27619762658026
 20
-160.0990993523363
 10
75.27619762658026
 20
-160.0990993523363
 10
75.28274330800224
 20
-160.0653374165809
 10
75.28481036529338
 20
-160.0281303853402
 10
75.28481036529338
 20
-160.0226182325638
 10
75.28481036529338
 20
-159.9647406284116
 10
75.26345077328483
 20
-159.7890407586638
 10
75.02677271344817
 20
-159.7890407586638
 10
74.84900578640928
 20
-159.7890407586638
 10
74.79388425864528
 20
-159.9047959669683
 10
74.79388425864528
 20
-160.0019476596523
 10
74.79388425864528
 20
-160.2355251335522
 10
75.02677271344817
 20
-160.2431043436198
 10
75.09843069954137
 20
-160.246549439105
 10
75.09843069954137
 20
-160.246549439105
 10
75.09843069954137
 20
-160.4260389138865
 10
75.09843069954137
 20
-160.4260389138865
 10
74.97371824297532
 20
-160.4188042133675
 10
74.59716930643752
 20
-160.3943440354223
 10
74.59716930643752
 20
-159.9909233540995
 10
74.59716930643752
 20
-159.7928303636976
 10
74.72429332984323
 20
-159.5799234627092
 10
75.0202270320262
 20
-159.5799234627092
 10
75.20660669777821
 20
-159.5799234627092
 10
75.28894447987568
 20
-159.6639837925493
 10
75.35026717951312
 20
-159.7518337274232
 10
75.37782794339513
 20
-159.6974012187562
 10
75.45809866820144
 20
-159.5368597691436
 10
75.73542885476407
 20
-159.5368597691436
 10
76.07373723141559
 20
-159.5368597691436
 10
76.24082436245021
 20
-159.7552788229084
 10
76.24082436245021
 20
-160.0002251119097
 97
        0
 97
        0
 75
     2
 76
     1
 98
        0
  0
SPLINE
  5
155
330
14F
100
AcDbEntity
  8
_U+30EC_U+30A4_U+30E4_U+30FC 1
370
     0
100
AcDbSpline
210
0.0
220
0.0
230
1.0
 70
    11
 71
     3
 72
    29
 73
    25
 74
     0
 42
0.0000000001
 43
0.0000000001
 12
1.0
 22
0.0
 32
0.0
 13
1.0
 23
0.0
 33
0.0
 40
0.0
 40
0.0
 40
0.0
 40
0.0
 40
1.0
 40
1.0
 40
1.0
 40
2.0
 40
2.0
 40
2.0
 40
3.0
 40
3.0
 40
3.0
 40
4.0
 40
4.0
 40
4.0
 40
5.0
 40
5.0
 40
5.0
 40
6.0
 40
6.0
 40
6.0
 40
7.0
 40
7.0
 40
7.0
 40
8.0
 40
8.0
 40
8.0
 40
8.0
 10
76.01241453177815
 20
-158.6018608544468
 30
0.0
 10
76.22187633728134
 20
-158.6969454898397
 30
0.0
 10
76.24082436245021
 20
-158.8502522389333
 30
0.0
 10
76.24082436245021
 20
-158.9529160843937
 30
0.0
 10
76.24082436245021
 20
-159.0951985279345
 30
0.0
 10
76.19431557339934
 20
-159.2199109845006
 30
0.0
 10
76.01241453177815
 20
-159.3039713143407
 30
0.0
 10
75.81776663686153
 20
-159.3956108542483
 30
0.0
 10
75.58074406747635
 20
-159.412491822126
 30
0.0
 10
75.41813556057255
 20
-159.412491822126
 30
0.0
 10
75.27413056928911
 20
-159.412491822126
 30
0.0
 10
75.02229408931734
 20
-159.3976779115395
 30
0.0
 10
74.82351207981843
 20
-159.3039713143407
 30
0.0
 10
74.62059595573722
 20
-159.2088866789478
 30
0.0
 10
74.59716930643752
 20
-159.0669487449555
 30
0.0
 10
74.59716930643752
 20
-158.9529160843937
 30
0.0
 10
74.59716930643752
 20
-158.8127006981441
 30
0.0
 10
74.64161103819724
 20
-158.6859211842869
 30
0.0
 10
74.82351207981843
 20
-158.6018608544468
 30
0.0
 10
75.0160929174439
 20
-158.5140109195729
 30
0.0
 10
75.24450274811596
 20
-158.4936848562099
 30
0.0
 10
75.41813556057255
 20
-158.4936848562099
 30
0.0
 10
75.58935680618947
 20
-158.4936848562099
 30
0.0
 10
75.81983369415268
 20
-158.5122883718303
 30
0.0
 10
76.01241453177815
 20
-158.6018608544468
 30
0.0
  0
SPLINE
  5
156
330
14F
100
AcDbEntity
  8
_U+30EC_U+30A4_U+30E4_U+30FC 1
370
     0
100
AcDbSpline
210
0.0
220
0.0
230
1.0
 70
    11
 71
     3
 72
    17
 73
    13
 74
     0
 42
0.0000000001
 43
0.0000000001
 12
1.0
 22
0.0
 32
0.0
 13
1.0
 23
0.0
 33
0.0
 40
0.0
 40
0.0
 40
0.0
 40
0.0
 40
1.0
 40
1.0
 40
1.0
 40
2.0
 40
2.0
 40
2.0
 40
3.0
 40
3.0
 40
3.0
 40
4.0
 40
4.0
 40
4.0
 40
4.0
 10
74.78975014406298
 20
-158.9529160843937
 30
0.0
 10
74.78975014406298
 20
-159.1734021954497
 30
0.0
 10
75.07328150249904
 20
-159.2143988317242
 30
0.0
 10
75.41813556057255
 20
-159.2143988317242
 30
0.0
 10
75.73749591205521
 20
-159.2143988317242
 30
0.0
 10
76.0461764675336
 20
-159.1827039532599
 30
0.0
 10
76.0461764675336
 20
-158.9529160843937
 30
0.0
 10
76.0461764675336
 20
-158.7344970306289
 30
0.0
 10
75.76505667593722
 20
-158.6914333370633
 30
0.0
 10
75.41813556057255
 20
-158.6914333370633
 30
0.0
 10
75.09843069954137
 20
-158.6914333370633
 30
0.0
 10
74.78975014406298
 20
-158.7251952728187
 30
0.0
 10
74.78975014406298
 20
-158.9529160843937
 30
0.0
  0
HATCH
  5
157
330
14F
100
AcDbEntity
  8
_U+30EC_U+30A4_U+30E4_U+30FC 1
 62
   179
420
  2234388
100
AcDbHatch
 10
0.0
 20
0.0
 30
0.0
210
0.0
220
0.0
230
1.0
  2
SOLID
 70
     1
 71
     0
 91
        2
 92
        1
 93
        1
 72
     4
 94
        3
 73
     0
 74
     1
 95
       29
 96
       25
 40
0.0
 40
0.0
 40
0.0
 40
0.0
 40
1.0
 40
1.0
 40
1.0
 40
2.0
 40
2.0
 40
2.0
 40
3.0
 40
3.0
 40
3.0
 40
4.0
 40
4.0
 40
4.0
 40
5.0
 40
5.0
 40
5.0
 40
6.0
 40
6.0
 40
6.0
 40
7.0
 40
7.0
 40
7.0
 40
8.0
 40
8.0
 40
8.0
 40
8.0
 10
76.01241453177815
 20
-158.6018608544468
 10
76.22187633728134
 20
-158.6969454898397
 10
76.24082436245021
 20
-158.8502522389333
 10
76.24082436245021
 20
-158.9529160843937
 10
76.24082436245021
 20
-159.0951985279345
 10
76.19431557339934
 20
-159.2199109845006
 10
76.01241453177815
 20
-159.3039713143407
 10
75.81776663686153
 20
-159.3956108542483
 10
75.58074406747635
 20
-159.412491822126
 10
75.41813556057255
 20
-159.412491822126
 10
75.27413056928911
 20
-159.412491822126
 10
75.02229408931734
 20
-159.3976779115395
 10
74.82351207981843
 20
-159.3039713143407
 10
74.62059595573722
 20
-159.2088866789478
 10
74.59716930643752
 20
-159.0669487449555
 10
74.59716930643752
 20
-158.9529160843937
 10
74.59716930643752
 20
-158.8127006981441
 10
74.64161103819724
 20
-158.6859211842869
 10
74.82351207981843
 20
-158.6018608544468
 10
75.0160929174439
 20
-158.5140109195729
 10
75.24450274811596
 20
-158.4936848562099
 10
75.41813556057255
 20
-158.4936848562099
 10
75.58935680618947
 20
-158.4936848562099
 10
75.81983369415268
 20
-158.5122883718303
 10
76.01241453177815
 20
-158.6018608544468
 97
        0
 97
        0
 92
        1
 93
        1
 72
     4
 94
        3
 73
     0
 74
     1
 95
       17
 96
       13
 40
0.0
 40
0.0
 40
0.0
 40
0.0
 40
1.0
 40
1.0
 40
1.0
 40
2.0
 40
2.0
 40
2.0
 40
3.0
 40
3.0
 40
3.0
 40
4.0
 40
4.0
 40
4.0
 40
4.0
 10
74.78975014406298
 20
-158.9529160843937
 10
74.78975014406298
 20
-159.1734021954497
 10
75.07328150249904
 20
-159.2143988317242
 10
75.41813556057255
 20
-159.2143988317242
 10
75.73749591205521
 20
-159.2143988317242
 10
76.0461764675336
 20
-159.1827039532599
 10
76.0461764675336
 20
-158.9529160843937
 10
76.0461764675336
 20
-158.7344970306289
 10
75.76505667593722
 20
-158.6914333370633
 10
75.41813556057255
 20
-158.6914333370633
 10
75.09843069954137
 20
-158.6914333370633
 10
74.78975014406298
 20
-158.7251952728187
 10
74.78975014406298
 20
-158.9529160843937
 97
        0
 97
        0
 75
     2
 76
     1
 98
        0
  0
ENDBLK
  5
152
330
14F
100
AcDbEntity
  8
0
100
AcDbBlockEnd
  0
BLOCK
  5
15A
330
158
100
AcDbEntity
  8
0
100
AcDbBlockBegin
  2
block 7
 70
     0
 10
0.0
 20
0.0
 30
0.0
  3
block 7
  1

  0
SPLINE
  5
15C
330
158
100
AcDbEntity
  8
_U+30EC_U+30A4_U+30E4_U+30FC 1
370
     0
100
AcDbSpline
210
0.0
220
0.0
230
1.0
 70
    11
 71
     3
 72
    62
 73
    58
 74
     0
 42
0.0000000001
 43
0.0000000001
 12
1.0
 22
0.0
 32
0.0
 13
1.0
 23
0.0
 33
0.0
 40
0.0
 40
0.0
 40
0.0
 40
0.0
 40
1.0
 40
1.0
 40
1.0
 40
2.0
 40
2.0
 40
2.0
 40
3.0
 40
3.0
 40
3.0
 40
4.0
 40
4.0
 40
4.0
 40
5.0
 40
5.0
 40
5.0
 40
6.0
 40
6.0
 40
6.0
 40
7.0
 40
7.0
 40
7.0
 40
8.0
 40
8.0
 40
8.0
 40
9.0
 40
9.0
 40
9.0
 40
10.0
 40
10.0
 40
10.0
 40
11.0
 40
11.0
 40
11.0
 40
12.0
 40
12.0
 40
12.0
 40
13.0
 40
13.0
 40
13.0
 40
14.0
 40
14.0
 40
14.0
 40
15.0
 40
15.0
 40
15.0
 40
16.0
 40
16.0
 40
16.0
 40
17.0
 40
17.0
 40
17.0
 40
18.0
 40
18.0
 40
18.0
 40
19.0
 40
19.0
 40
19.0
 40
19.0
 10
134.2502034169583
 20
-173.7919758680104
 30
0.0
 10
134.2502034169583
 20
-173.8760361978505
 30
0.0
 10
134.2291883344983
 20
-174.0686170354759
 30
0.0
 10
134.0431531782948
 20
-174.1785155814554
 30
0.0
 10
133.9308430654756
 20
-174.2439723956751
 30
0.0
 10
133.8316243155004
 20
-174.2481065102574
 30
0.0
 10
133.7468749665633
 20
-174.2515516057427
 30
0.0
 10
133.7468749665633
 20
-174.2515516057427
 30
0.0
 10
133.7468749665633
 20
-174.0572482203746
 30
0.0
 10
133.7468749665633
 20
-174.0572482203746
 30
0.0
 10
133.8209445194962
 20
-174.055525672632
 30
0.0
 10
134.0555555220417
 20
-174.0462239148218
 30
0.0
 10
134.0555555220417
 20
-173.7957654730441
 30
0.0
 10
134.0555555220417
 20
-173.6744981119633
 30
0.0
 10
133.9859645932396
 20
-173.5397948784901
 30
0.0
 10
133.7575547625676
 20
-173.5397948784901
 30
0.0
 10
133.6411105351661
 20
-173.5397948784901
 30
0.0
 10
133.5925346888241
 20
-173.5735568142455
 30
0.0
 10
133.5608398103598
 20
-173.6018065972246
 30
0.0
 10
133.4867702574269
 20
-173.6669189018958
 30
0.0
 10
133.4740234041315
 20
-173.7699272569047
 30
0.0
 10
133.4740234041315
 20
-173.8181585936983
 30
0.0
 10
133.4740234041315
 20
-173.835039561576
 30
0.0
 10
133.4760904614226
 20
-173.8670789495888
 30
0.0
 10
133.480224576005
 20
-173.8911946179855
 30
0.0
 10
133.480224576005
 20
-173.8911946179855
 30
0.0
 10
133.2855766810883
 20
-173.8911946179855
 30
0.0
 10
133.2855766810883
 20
-173.8911946179855
 30
0.0
 10
133.2921223625103
 20
-173.8574326822301
 30
0.0
 10
133.2941894198015
 20
-173.8202256509894
 30
0.0
 10
133.2941894198015
 20
-173.814713498213
 30
0.0
 10
133.2941894198015
 20
-173.7568358940608
 30
0.0
 10
133.2728298277929
 20
-173.5811360243131
 30
0.0
 10
133.0361517679563
 20
-173.5811360243131
 30
0.0
 10
132.8583848409174
 20
-173.5811360243131
 30
0.0
 10
132.8032633131534
 20
-173.6968912326174
 30
0.0
 10
132.8032633131534
 20
-173.7940429253015
 30
0.0
 10
132.8032633131534
 20
-174.0276203992014
 30
0.0
 10
133.0361517679563
 20
-174.0348550997205
 30
0.0
 10
133.1078097540494
 20
-174.0386447047542
 30
0.0
 10
133.1078097540494
 20
-174.0386447047542
 30
0.0
 10
133.1078097540494
 20
-174.2177896699872
 30
0.0
 10
133.1078097540494
 20
-174.2177896699872
 30
0.0
 10
132.9830972974834
 20
-174.2105549694682
 30
0.0
 10
132.6065483609456
 20
-174.1860947915229
 30
0.0
 10
132.6065483609456
 20
-173.7830186197487
 30
0.0
 10
132.6065483609456
 20
-173.5845811197983
 30
0.0
 10
132.7336723843513
 20
-173.3716742188099
 30
0.0
 10
133.0296060865343
 20
-173.3716742188099
 30
0.0
 10
133.2159857522863
 20
-173.3716742188099
 30
0.0
 10
133.2983235343838
 20
-173.45573454865
 30
0.0
 10
133.3596462340212
 20
-173.5439289930724
 30
0.0
 10
133.3872069979032
 20
-173.4894964844054
 30
0.0
 10
133.4674777227095
 20
-173.3289550347928
 30
0.0
 10
133.7448079092721
 20
-173.3289550347928
 30
0.0
 10
134.0831162859237
 20
-173.3289550347928
 30
0.0
 10
134.2502034169583
 20
-173.5473740885576
 30
0.0
 10
134.2502034169583
 20
-173.7919758680104
 30
0.0
  0
HATCH
  5
15D
330
158
100
AcDbEntity
  8
_U+30EC_U+30A4_U+30E4_U+30FC 1
 62
   179
420
  2234388
100
AcDbHatch
 10
0.0
 20
0.0
 30
0.0
210
0.0
220
0.0
230
1.0
  2
SOLID
 70
     1
 71
     0
 91
        1
 92
        1
 93
        1
 72
     4
 94
        3
 73
     0
 74
     1
 95
       62
 96
       58
 40
0.0
 40
0.0
 40
0.0
 40
0.0
 40
1.0
 40
1.0
 40
1.0
 40
2.0
 40
2.0
 40
2.0
 40
3.0
 40
3.0
 40
3.0
 40
4.0
 40
4.0
 40
4.0
 40
5.0
 40
5.0
 40
5.0
 40
6.0
 40
6.0
 40
6.0
 40
7.0
 40
7.0
 40
7.0
 40
8.0
 40
8.0
 40
8.0
 40
9.0
 40
9.0
 40
9.0
 40
10.0
 40
10.0
 40
10.0
 40
11.0
 40
11.0
 40
11.0
 40
12.0
 40
12.0
 40
12.0
 40
13.0
 40
13.0
 40
13.0
 40
14.0
 40
14.0
 40
14.0
 40
15.0
 40
15.0
 40
15.0
 40
16.0
 40
16.0
 40
16.0
 40
17.0
 40
17.0
 40
17.0
 40
18.0
 40
18.0
 40
18.0
 40
19.0
 40
19.0
 40
19.0
 40
19.0
 10
134.2502034169583
 20
-173.7919758680104
 10
134.2502034169583
 20
-173.8760361978505
 10
134.2291883344983
 20
-174.0686170354759
 10
134.0431531782948
 20
-174.1785155814554
 10
133.9308430654756
 20
-174.2439723956751
 10
133.8316243155004
 20
-174.2481065102574
 10
133.7468749665633
 20
-174.2515516057427
 10
133.7468749665633
 20
-174.2515516057427
 10
133.7468749665633
 20
-174.0572482203746
 10
133.7468749665633
 20
-174.0572482203746
 10
133.8209445194962
 20
-174.055525672632
 10
134.0555555220417
 20
-174.0462239148218
 10
134.0555555220417
 20
-173.7957654730441
 10
134.0555555220417
 20
-173.6744981119633
 10
133.9859645932396
 20
-173.5397948784901
 10
133.7575547625676
 20
-173.5397948784901
 10
133.6411105351661
 20
-173.5397948784901
 10
133.5925346888241
 20
-173.5735568142455
 10
133.5608398103598
 20
-173.6018065972246
 10
133.4867702574269
 20
-173.6669189018958
 10
133.4740234041315
 20
-173.7699272569047
 10
133.4740234041315
 20
-173.8181585936983
 10
133.4740234041315
 20
-173.835039561576
 10
133.4760904614226
 20
-173.8670789495888
 10
133.480224576005
 20
-173.8911946179855
 10
133.480224576005
 20
-173.8911946179855
 10
133.2855766810883
 20
-173.8911946179855
 10
133.2855766810883
 20
-173.8911946179855
 10
133.2921223625103
 20
-173.8574326822301
 10
133.2941894198015
 20
-173.8202256509894
 10
133.2941894198015
 20
-173.814713498213
 10
133.2941894198015
 20
-173.7568358940608
 10
133.2728298277929
 20
-173.5811360243131
 10
133.0361517679563
 20
-173.5811360243131
 10
132.8583848409174
 20
-173.5811360243131
 10
132.8032633131534
 20
-173.6968912326174
 10
132.8032633131534
 20
-173.7940429253015
 10
132.8032633131534
 20
-174.0276203992014
 10
133.0361517679563
 20
-174.0348550997205
 10
133.1078097540494
 20
-174.0386447047542
 10
133.1078097540494
 20
-174.0386447047542
 10
133.1078097540494
 20
-174.2177896699872
 10
133.1078097540494
 20
-174.2177896699872
 10
132.9830972974834
 20
-174.2105549694682
 10
132.6065483609456
 20
-174.1860947915229
 10
132.6065483609456
 20
-173.7830186197487
 10
132.6065483609456
 20
-173.5845811197983
 10
132.7336723843513
 20
-173.3716742188099
 10
133.0296060865343
 20
-173.3716742188099
 10
133.2159857522863
 20
-173.3716742188099
 10
133.2983235343838
 20
-173.45573454865
 10
133.3596462340212
 20
-173.5439289930724
 10
133.3872069979032
 20
-173.4894964844054
 10
133.4674777227095
 20
-173.3289550347928
 10
133.7448079092721
 20
-173.3289550347928
 10
134.0831162859237
 20
-173.3289550347928
 10
134.2502034169583
 20
-173.5473740885576
 10
134.2502034169583
 20
-173.7919758680104
 97
        0
 97
        0
 75
     2
 76
     1
 98
        0
  0
POLYLINE
  5
15E
330
158
100
AcDbEntity
  8
_U+30EC_U+30A4_U+30E4_U+30FC 1
370
     0
100
AcDb2dPolyline
 66
     1
 10
0.0
 20
0.0
 30
0.0
  0
VERTEX
  5
15F
330
15E
100
AcDbEntity
  8
_U+30EC_U+30A4_U+30E4_U+30FC 1
370
     0
100
AcDbVertex
100
AcDb2dVertex
 10
134.1995605133251
 20
-173.1332736112306
 30
0.0
  0
VERTEX
  5
160
330
15E
100
AcDbEntity
  8
_U+30EC_U+30A4_U+30E4_U+30FC 1
370
     0
100
AcDbVertex
100
AcDb2dVertex
 10
133.9477240333534
 20
-173.1332736112306
 30
0.0
  0
VERTEX
  5
161
330
15E
100
AcDbEntity
  8
_U+30EC_U+30A4_U+30E4_U+30FC 1
370
     0
100
AcDbVertex
100
AcDb2dVertex
 10
133.9477240333534
 20
-172.9114094619805
 30
0.0
  0
VERTEX
  5
162
330
15E
100
AcDbEntity
  8
_U+30EC_U+30A4_U+30E4_U+30FC 1
370
     0
100
AcDbVertex
100
AcDb2dVertex
 10
134.1995605133251
 20
-172.9114094619805
 30
0.0
  0
VERTEX
  5
163
330
15E
100
AcDbEntity
  8
_U+30EC_U+30A4_U+30E4_U+30FC 1
370
     0
100
AcDbVertex
100
AcDb2dVertex
 10
134.1995605133251
 20
-173.1332736112306
 30
0.0
  0
SEQEND
  5
164
330
15E
100
AcDbEntity
  8
_U+30EC_U+30A4_U+30E4_U+30FC 1
370
     0
  0
HATCH
  5
165
330
158
100
AcDbEntity
  8
_U+30EC_U+30A4_U+30E4_U+30FC 1
 62
   179
420
  2234388
100
AcDbHatch
 10
0.0
 20
0.0
 30
0.0
210
0.0
220
0.0
230
1.0
  2
SOLID
 70
     1
 71
     0
 91
        1
 92
        1
 93
        4
 72
     1
 10
134.1995605133251
 20
-173.1332736112306
 11
133.9477240333534
 21
-173.1332736112306
 72
     1
 10
133.9477240333534
 20
-173.1332736112306
 11
133.9477240333534
 21
-172.9114094619805
 72
     1
 10
133.9477240333534
 20
-172.9114094619805
 11
134.1995605133251
 21
-172.9114094619805
 72
     1
 10
134.1995605133251
 20
-172.9114094619805
 11
134.1995605133251
 21
-173.1332736112306
 97
        0
 75
     2
 76
     1
 98
        0
  0
SPLINE
  5
166
330
158
100
AcDbEntity
  8
_U+30EC_U+30A4_U+30E4_U+30FC 1
370
     0
100
AcDbSpline
210
0.0
220
0.0
230
1.0
 70
    11
 71
     3
 72
    53
 73
    49
 74
     0
 42
0.0000000001
 43
0.0000000001
 12
1.0
 22
0.0
 32
0.0
 13
1.0
 23
0.0
 33
0.0
 40
0.0
 40
0.0
 40
0.0
 40
0.0
 40
1.0
 40
1.0
 40
1.0
 40
2.0
 40
2.0
 40
2.0
 40
3.0
 40
3.0
 40
3.0
 40
4.0
 40
4.0
 40
4.0
 40
5.0
 40
5.0
 40
5.0
 40
6.0
 40
6.0
 40
6.0
 40
7.0
 40
7.0
 40
7.0
 40
8.0
 40
8.0
 40
8.0
 40
9.0
 40
9.0
 40
9.0
 40
10.0
 40
10.0
 40
10.0
 40
11.0
 40
11.0
 40
11.0
 40
12.0
 40
12.0
 40
12.0
 40
13.0
 40
13.0
 40
13.0
 40
14.0
 40
14.0
 40
14.0
 40
15.0
 40
15.0
 40
15.0
 40
16.0
 40
16.0
 40
16.0
 40
16.0
 10
134.2502034169583
 20
-172.2775118926945
 30
0.0
 10
134.2502034169583
 20
-172.3464138023995
 30
0.0
 10
134.2333224490806
 20
-172.435986285016
 30
0.0
 10
134.169932692152
 20
-172.5255587676325
 30
0.0
 10
134.0600341461725
 20
-172.6788655167261
 30
0.0
 10
133.9287760081845
 20
-172.697813541895
 30
0.0
 10
133.8209445194962
 20
-172.7143500002242
 30
0.0
 10
133.8209445194962
 20
-172.7143500002242
 30
0.0
 10
133.8209445194962
 20
-172.5183240671135
 30
0.0
 10
133.8209445194962
 20
-172.5183240671135
 30
0.0
 10
134.0197265289951
 20
-172.4697482207715
 30
0.0
 10
134.0493543501682
 20
-172.3574381079523
 30
0.0
 10
134.0493543501682
 20
-172.2754448354034
 30
0.0
 10
134.0493543501682
 20
-172.1521104170314
 30
0.0
 10
133.9497910906445
 20
-172.0177516931067
 30
0.0
 10
133.7172471453901
 20
-172.0177516931067
 30
0.0
 10
133.4612765508361
 20
-172.0177516931067
 30
0.0
 10
133.3913411124855
 20
-172.1762260854282
 30
0.0
 10
133.3913411124855
 20
-172.2830240454709
 30
0.0
 10
133.3913411124855
 20
-172.3109293189014
 30
0.0
 10
133.3913411124855
 20
-172.435986285016
 30
0.0
 10
133.5205321931824
 20
-172.5145344620797
 30
0.0
 10
133.5205321931824
 20
-172.5145344620797
 30
0.0
 10
133.5015841680135
 20
-172.669563758916
 30
0.0
 10
133.5015841680135
 20
-172.669563758916
 30
0.0
 10
133.5015841680135
 20
-172.669563758916
 30
0.0
 10
132.6551242072876
 20
-172.5631103084217
 30
0.0
 10
132.6551242072876
 20
-172.5631103084217
 30
0.0
 10
132.6551242072876
 20
-172.5631103084217
 30
0.0
 10
132.6551242072876
 20
-171.8758137591144
 30
0.0
 10
132.6551242072876
 20
-171.8758137591144
 30
0.0
 10
132.6551242072876
 20
-171.8758137591144
 30
0.0
 10
132.8497721022042
 20
-171.8758137591144
 30
0.0
 10
132.8497721022042
 20
-171.8758137591144
 30
0.0
 10
132.8497721022042
 20
-171.8758137591144
 30
0.0
 10
132.8497721022042
 20
-172.4194498266868
 30
0.0
 10
132.8497721022042
 20
-172.4194498266868
 30
0.0
 10
132.8497721022042
 20
-172.4194498266868
 30
0.0
 10
133.2728298277929
 20
-172.477327430839
 30
0.0
 10
133.2728298277929
 20
-172.477327430839
 30
0.0
 10
133.2390678920375
 20
-172.422894922172
 30
0.0
 10
133.19876027486
 20
-172.3502034074333
 30
0.0
 10
133.19876027486
 20
-172.2458170142302
 30
0.0
 10
133.19876027486
 20
-172.0211967885919
 30
0.0
 10
133.385139940612
 20
-171.8124240021858
 30
0.0
 10
133.6982991202213
 20
-171.8124240021858
 30
0.0
 10
134.0155924144128
 20
-171.8124240021858
 30
0.0
 10
134.2502034169583
 20
-172.0101724830391
 30
0.0
 10
134.2502034169583
 20
-172.2775118926945
 30
0.0
  0
HATCH
  5
167
330
158
100
AcDbEntity
  8
_U+30EC_U+30A4_U+30E4_U+30FC 1
 62
   179
420
  2234388
100
AcDbHatch
 10
0.0
 20
0.0
 30
0.0
210
0.0
220
0.0
230
1.0
  2
SOLID
 70
     1
 71
     0
 91
        1
 92
        1
 93
        1
 72
     4
 94
        3
 73
     0
 74
     1
 95
       53
 96
       49
 40
0.0
 40
0.0
 40
0.0
 40
0.0
 40
1.0
 40
1.0
 40
1.0
 40
2.0
 40
2.0
 40
2.0
 40
3.0
 40
3.0
 40
3.0
 40
4.0
 40
4.0
 40
4.0
 40
5.0
 40
5.0
 40
5.0
 40
6.0
 40
6.0
 40
6.0
 40
7.0
 40
7.0
 40
7.0
 40
8.0
 40
8.0
 40
8.0
 40
9.0
 40
9.0
 40
9.0
 40
10.0
 40
10.0
 40
10.0
 40
11.0
 40
11.0
 40
11.0
 40
12.0
 40
12.0
 40
12.0
 40
13.0
 40
13.0
 40
13.0
 40
14.0
 40
14.0
 40
14.0
 40
15.0
 40
15.0
 40
15.0
 40
16.0
 40
16.0
 40
16.0
 40
16.0
 10
134.2502034169583
 20
-172.2775118926945
 10
134.2502034169583
 20
-172.3464138023995
 10
134.2333224490806
 20
-172.435986285016
 10
134.169932692152
 20
-172.5255587676325
 10
134.0600341461725
 20
-172.6788655167261
 10
133.9287760081845
 20
-172.697813541895
 10
133.8209445194962
 20
-172.7143500002242
 10
133.8209445194962
 20
-172.7143500002242
 10
133.8209445194962
 20
-172.5183240671135
 10
133.8209445194962
 20
-172.5183240671135
 10
134.0197265289951
 20
-172.4697482207715
 10
134.0493543501682
 20
-172.3574381079523
 10
134.0493543501682
 20
-172.2754448354034
 10
134.0493543501682
 20
-172.1521104170314
 10
133.9497910906445
 20
-172.0177516931067
 10
133.7172471453901
 20
-172.0177516931067
 10
133.4612765508361
 20
-172.0177516931067
 10
133.3913411124855
 20
-172.1762260854282
 10
133.3913411124855
 20
-172.2830240454709
 10
133.3913411124855
 20
-172.3109293189014
 10
133.3913411124855
 20
-172.435986285016
 10
133.5205321931824
 20
-172.5145344620797
 10
133.5205321931824
 20
-172.5145344620797
 10
133.5015841680135
 20
-172.669563758916
 10
133.5015841680135
 20
-172.669563758916
 10
133.5015841680135
 20
-172.669563758916
 10
132.6551242072876
 20
-172.5631103084217
 10
132.6551242072876
 20
-172.5631103084217
 10
132.6551242072876
 20
-172.5631103084217
 10
132.6551242072876
 20
-171.8758137591144
 10
132.6551242072876
 20
-171.8758137591144
 10
132.6551242072876
 20
-171.8758137591144
 10
132.8497721022042
 20
-171.8758137591144
 10
132.8497721022042
 20
-171.8758137591144
 10
132.8497721022042
 20
-171.8758137591144
 10
132.8497721022042
 20
-172.4194498266868
 10
132.8497721022042
 20
-172.4194498266868
 10
132.8497721022042
 20
-172.4194498266868
 10
133.2728298277929
 20
-172.477327430839
 10
133.2728298277929
 20
-172.477327430839
 10
133.2390678920375
 20
-172.422894922172
 10
133.19876027486
 20
-172.3502034074333
 10
133.19876027486
 20
-172.2458170142302
 10
133.19876027486
 20
-172.0211967885919
 10
133.385139940612
 20
-171.8124240021858
 10
133.6982991202213
 20
-171.8124240021858
 10
134.0155924144128
 20
-171.8124240021858
 10
134.2502034169583
 20
-172.0101724830391
 10
134.2502034169583
 20
-172.2775118926945
 97
        0
 97
        0
 75
     2
 76
     1
 98
        0
  0
ENDBLK
  5
15B
330
158
100
AcDbEntity
  8
0
100
AcDbBlockEnd
  0
BLOCK
  5
16A
330
168
100
AcDbEntity
  8
0
100
AcDbBlockBegin
  2
block 8
 70
     0
 10
0.0
 20
0.0
 30
0.0
  3
block 8
  1

  0
SPLINE
  5
16C
330
168
100
AcDbEntity
  8
_U+30EC_U+30A4_U+30E4_U+30FC 1
370
     0
100
AcDbSpline
210
0.0
220
0.0
230
1.0
 70
    11
 71
     3
 72
    26
 73
    22
 74
     0
 42
0.0000000001
 43
0.0000000001
 12
1.0
 22
0.0
 32
0.0
 13
1.0
 23
0.0
 33
0.0
 40
0.0
 40
0.0
 40
0.0
 40
0.0
 40
1.0
 40
1.0
 40
1.0
 40
2.0
 40
2.0
 40
2.0
 40
3.0
 40
3.0
 40
3.0
 40
4.0
 40
4.0
 40
4.0
 40
5.0
 40
5.0
 40
5.0
 40
6.0
 40
6.0
 40
6.0
 40
7.0
 40
7.0
 40
7.0
 40
7.0
 10
133.2724853182444
 20
-161.6273437095932
 30
0.0
 10
133.2724853182444
 20
-161.6273437095932
 30
0.0
 10
132.1683322152218
 20
-161.6273437095932
 30
0.0
 10
132.1683322152218
 20
-161.6273437095932
 30
0.0
 10
132.1683322152218
 20
-161.6273437095932
 30
0.0
 10
132.1683322152218
 20
-161.9187987876453
 30
0.0
 10
132.1683322152218
 20
-161.9187987876453
 30
0.0
 10
132.1683322152218
 20
-161.9187987876453
 30
0.0
 10
132.0201931093561
 20
-161.9187987876453
 30
0.0
 10
132.0201931093561
 20
-161.9187987876453
 30
0.0
 10
132.0053791987695
 20
-161.6256211618505
 30
0.0
 10
131.8424261823172
 20
-161.5846245255761
 30
0.0
 10
131.7280490122069
 20
-161.5584417998882
 30
0.0
 10
131.7280490122069
 20
-161.5584417998882
 30
0.0
 10
131.7280490122069
 20
-161.4295952287398
 30
0.0
 10
131.7280490122069
 20
-161.4295952287398
 30
0.0
 10
131.7280490122069
 20
-161.4295952287398
 30
0.0
 10
133.2724853182444
 20
-161.4295952287398
 30
0.0
 10
133.2724853182444
 20
-161.4295952287398
 30
0.0
 10
133.2724853182444
 20
-161.4295952287398
 30
0.0
 10
133.2724853182444
 20
-161.6273437095932
 30
0.0
 10
133.2724853182444
 20
-161.6273437095932
 30
0.0
  0
HATCH
  5
16D
330
168
100
AcDbEntity
  8
_U+30EC_U+30A4_U+30E4_U+30FC 1
 62
   179
420
  2234388
100
AcDbHatch
 10
0.0
 20
0.0
 30
0.0
210
0.0
220
0.0
230
1.0
  2
SOLID
 70
     1
 71
     0
 91
        1
 92
        1
 93
        1
 72
     4
 94
        3
 73
     0
 74
     1
 95
       26
 96
       22
 40
0.0
 40
0.0
 40
0.0
 40
0.0
 40
1.0
 40
1.0
 40
1.0
 40
2.0
 40
2.0
 40
2.0
 40
3.0
 40
3.0
 40
3.0
 40
4.0
 40
4.0
 40
4.0
 40
5.0
 40
5.0
 40
5.0
 40
6.0
 40
6.0
 40
6.0
 40
7.0
 40
7.0
 40
7.0
 40
7.0
 10
133.2724853182444
 20
-161.6273437095932
 10
133.2724853182444
 20
-161.6273437095932
 10
132.1683322152218
 20
-161.6273437095932
 10
132.1683322152218
 20
-161.6273437095932
 10
132.1683322152218
 20
-161.6273437095932
 10
132.1683322152218
 20
-161.9187987876453
 10
132.1683322152218
 20
-161.9187987876453
 10
132.1683322152218
 20
-161.9187987876453
 10
132.0201931093561
 20
-161.9187987876453
 10
132.0201931093561
 20
-161.9187987876453
 10
132.0053791987695
 20
-161.6256211618505
 10
131.8424261823172
 20
-161.5846245255761
 10
131.7280490122069
 20
-161.5584417998882
 10
131.7280490122069
 20
-161.5584417998882
 10
131.7280490122069
 20
-161.4295952287398
 10
131.7280490122069
 20
-161.4295952287398
 10
131.7280490122069
 20
-161.4295952287398
 10
133.2724853182444
 20
-161.4295952287398
 10
133.2724853182444
 20
-161.4295952287398
 10
133.2724853182444
 20
-161.4295952287398
 10
133.2724853182444
 20
-161.6273437095932
 10
133.2724853182444
 20
-161.6273437095932
 97
        0
 97
        0
 75
     2
 76
     1
 98
        0
  0
POLYLINE
  5
16E
330
168
100
AcDbEntity
  8
_U+30EC_U+30A4_U+30E4_U+30FC 1
370
     0
100
AcDb2dPolyline
 66
     1
 10
0.0
 20
0.0
 30
0.0
  0
VERTEX
  5
16F
330
16E
100
AcDbEntity
  8
_U+30EC_U+30A4_U+30E4_U+30FC 1
370
     0
100
AcDbVertex
100
AcDb2dVertex
 10
133.2724853182444
 20
-160.9335014788639
 30
0.0
  0
VERTEX
  5
170
330
16E
100
AcDbEntity
  8
_U+30EC_U+30A4_U+30E4_U+30FC 1
370
     0
100
AcDbVertex
100
AcDb2dVertex
 10
133.0206488382726
 20
-160.9335014788639
 30
0.0
  0
VERTEX
  5
171
330
16E
100
AcDbEntity
  8
_U+30EC_U+30A4_U+30E4_U+30FC 1
370
     0
100
AcDbVertex
100
AcDb2dVertex
 10
133.0206488382726
 20
-160.7109483105167
 30
0.0
  0
VERTEX
  5
172
330
16E
100
AcDbEntity
  8
_U+30EC_U+30A4_U+30E4_U+30FC 1
370
     0
100
AcDbVertex
100
AcDb2dVertex
 10
133.2724853182444
 20
-160.7109483105167
 30
0.0
  0
VERTEX
  5
173
330
16E
100
AcDbEntity
  8
_U+30EC_U+30A4_U+30E4_U+30FC 1
370
     0
100
AcDbVertex
100
AcDb2dVertex
 10
133.2724853182444
 20
-160.9335014788639
 30
0.0
  0
SEQEND
  5
174
330
16E
100
AcDbEntity
  8
_U+30EC_U+30A4_U+30E4_U+30FC 1
370
     0
  0
HATCH
  5
175
330
168
100
AcDbEntity
  8
_U+30EC_U+30A4_U+30E4_U+30FC 1
 62
   179
420
  2234388
100
AcDbHatch
 10
0.0
 20
0.0
 30
0.0
210
0.0
220
0.0
230
1.0
  2
SOLID
 70
     1
 71
     0
 91
        1
 92
        1
 93
        4
 72
     1
 10
133.2724853182444
 20
-160.9335014788639
 11
133.0206488382726
 21
-160.9335014788639
 72
     1
 10
133.0206488382726
 20
-160.9335014788639
 11
133.0206488382726
 21
-160.7109483105167
 72
     1
 10
133.0206488382726
 20
-160.7109483105167
 11
133.2724853182444
 21
-160.7109483105167
 72
     1
 10
133.2724853182444
 20
-160.7109483105167
 11
133.2724853182444
 21
-160.9335014788639
 97
        0
 75
     2
 76
     1
 98
        0
  0
SPLINE
  5
176
330
168
100
AcDbEntity
  8
_U+30EC_U+30A4_U+30E4_U+30FC 1
370
     0
100
AcDbSpline
210
0.0
220
0.0
230
1.0
 70
    11
 71
     3
 72
    44
 73
    40
 74
     0
 42
0.0000000001
 43
0.0000000001
 12
1.0
 22
0.0
 32
0.0
 13
1.0
 23
0.0
 33
0.0
 40
0.0
 40
0.0
 40
0.0
 40
0.0
 40
1.0
 40
1.0
 40
1.0
 40
2.0
 40
2.0
 40
2.0
 40
3.0
 40
3.0
 40
3.0
 40
4.0
 40
4.0
 40
4.0
 40
5.0
 40
5.0
 40
5.0
 40
6.0
 40
6.0
 40
6.0
 40
7.0
 40
7.0
 40
7.0
 40
8.0
 40
8.0
 40
8.0
 40
9.0
 40
9.0
 40
9.0
 40
10.0
 40
10.0
 40
10.0
 40
11.0
 40
11.0
 40
11.0
 40
12.0
 40
12.0
 40
12.0
 40
13.0
 40
13.0
 40
13.0
 40
13.0
 10
132.6906086907857
 20
-159.9781765008041
 30
0.0
 10
132.8494275926557
 20
-160.1707573384296
 30
0.0
 10
132.9234971455886
 20
-160.2527506109785
 30
0.0
 10
133.0671576273235
 20
-160.2958143045441
 30
0.0
 10
133.0671576273235
 20
-160.2958143045441
 30
0.0
 10
133.0671576273235
 20
-159.6085177552368
 30
0.0
 10
133.0671576273235
 20
-159.6085177552368
 30
0.0
 10
133.0671576273235
 20
-159.6085177552368
 30
0.0
 10
133.2724853182444
 20
-159.6085177552368
 30
0.0
 10
133.2724853182444
 20
-159.6085177552368
 30
0.0
 10
133.2724853182444
 20
-159.6085177552368
 30
0.0
 10
133.2724853182444
 20
-160.5159559060516
 30
0.0
 10
133.2724853182444
 20
-160.5159559060516
 30
0.0
 10
132.9148844068754
 20
-160.4883951421696
 30
0.0
 10
132.8366807393603
 20
-160.4301730284689
 30
0.0
 10
132.5383354703376
 20
-160.0901421040747
 30
0.0
 10
132.3395534608387
 20
-159.8641438402423
 30
0.0
 10
132.2716850797793
 20
-159.8062662360901
 30
0.0
 10
132.1342257699178
 20
-159.8062662360901
 30
0.0
 10
132.0157144852252
 20
-159.8062662360901
 30
0.0
 10
131.8848008567857
 20
-159.8696559930187
 30
0.0
 10
131.8848008567857
 20
-160.0436333150238
 30
0.0
 10
131.8848008567857
 20
-160.27342118389
 30
0.0
 10
132.115277744749
 20
-160.2810003939575
 30
0.0
 10
132.2317219721504
 20
-160.2844454894428
 30
0.0
 10
132.2317219721504
 20
-160.2844454894428
 30
0.0
 10
132.2317219721504
 20
-160.4825384798447
 30
0.0
 10
132.2317219721504
 20
-160.4825384798447
 30
0.0
 10
132.1045979487447
 20
-160.4753037793256
 30
0.0
 10
131.9926323454741
 20
-160.4656575119669
 30
0.0
 10
131.8741210607815
 20
-160.3946885449708
 30
0.0
 10
131.7132351016203
 20
-160.2975368522867
 30
0.0
 10
131.6794731658649
 20
-160.1332057976403
 30
0.0
 10
131.6794731658649
 20
-160.0305419521799
 30
0.0
 10
131.6794731658649
 20
-159.7855956631786
 30
0.0
 10
131.8634412647772
 20
-159.6030056024604
 30
0.0
 10
132.136292827209
 20
-159.6030056024604
 30
0.0
 10
132.3650471674296
 20
-159.6030056024604
 30
0.0
 10
132.4642659174048
 20
-159.7056694479208
 30
0.0
 10
132.6906086907857
 20
-159.9781765008041
 30
0.0
  0
HATCH
  5
177
330
168
100
AcDbEntity
  8
_U+30EC_U+30A4_U+30E4_U+30FC 1
 62
   179
420
  2234388
100
AcDbHatch
 10
0.0
 20
0.0
 30
0.0
210
0.0
220
0.0
230
1.0
  2
SOLID
 70
     1
 71
     0
 91
        1
 92
        1
 93
        1
 72
     4
 94
        3
 73
     0
 74
     1
 95
       44
 96
       40
 40
0.0
 40
0.0
 40
0.0
 40
0.0
 40
1.0
 40
1.0
 40
1.0
 40
2.0
 40
2.0
 40
2.0
 40
3.0
 40
3.0
 40
3.0
 40
4.0
 40
4.0
 40
4.0
 40
5.0
 40
5.0
 40
5.0
 40
6.0
 40
6.0
 40
6.0
 40
7.0
 40
7.0
 40
7.0
 40
8.0
 40
8.0
 40
8.0
 40
9.0
 40
9.0
 40
9.0
 40
10.0
 40
10.0
 40
10.0
 40
11.0
 40
11.0
 40
11.0
 40
12.0
 40
12.0
 40
12.0
 40
13.0
 40
13.0
 40
13.0
 40
13.0
 10
132.6906086907857
 20
-159.9781765008041
 10
132.8494275926557
 20
-160.1707573384296
 10
132.9234971455886
 20
-160.2527506109785
 10
133.0671576273235
 20
-160.2958143045441
 10
133.0671576273235
 20
-160.2958143045441
 10
133.0671576273235
 20
-159.6085177552368
 10
133.0671576273235
 20
-159.6085177552368
 10
133.0671576273235
 20
-159.6085177552368
 10
133.2724853182444
 20
-159.6085177552368
 10
133.2724853182444
 20
-159.6085177552368
 10
133.2724853182444
 20
-159.6085177552368
 10
133.2724853182444
 20
-160.5159559060516
 10
133.2724853182444
 20
-160.5159559060516
 10
132.9148844068754
 20
-160.4883951421696
 10
132.8366807393603
 20
-160.4301730284689
 10
132.5383354703376
 20
-160.0901421040747
 10
132.3395534608387
 20
-159.8641438402423
 10
132.2716850797793
 20
-159.8062662360901
 10
132.1342257699178
 20
-159.8062662360901
 10
132.0157144852252
 20
-159.8062662360901
 10
131.8848008567857
 20
-159.8696559930187
 10
131.8848008567857
 20
-160.0436333150238
 10
131.8848008567857
 20
-160.27342118389
 10
132.115277744749
 20
-160.2810003939575
 10
132.2317219721504
 20
-160.2844454894428
 10
132.2317219721504
 20
-160.2844454894428
 10
132.2317219721504
 20
-160.4825384798447
 10
132.2317219721504
 20
-160.4825384798447
 10
132.1045979487447
 20
-160.4753037793256
 10
131.9926323454741
 20
-160.4656575119669
 10
131.8741210607815
 20
-160.3946885449708
 10
131.7132351016203
 20
-160.2975368522867
 10
131.6794731658649
 20
-160.1332057976403
 10
131.6794731658649
 20
-160.0305419521799
 10
131.6794731658649
 20
-159.7855956631786
 10
131.8634412647772
 20
-159.6030056024604
 10
132.136292827209
 20
-159.6030056024604
 10
132.3650471674296
 20
-159.6030056024604
 10
132.4642659174048
 20
-159.7056694479208
 10
132.6906086907857
 20
-159.9781765008041
 97
        0
 97
        0
 75
     2
 76
     1
 98
        0
  0
ENDBLK
  5
16B
330
168
100
AcDbEntity
  8
0
100
AcDbBlockEnd
  0
BLOCK
  5
17A
330
178
100
AcDbEntity
  8
0
100
AcDbBlockBegin
  2
block 9
 70
     0
 10
0.0
 20
0.0
 30
0.0
  3
block 9
  1

  0
SPLINE
  5
17C
330
178
100
AcDbEntity
  8
_U+30EC_U+30A4_U+30E4_U+30FC 1
370
     0
100
AcDbSpline
210
0.0
220
0.0
230
1.0
 70
    11
 71
     3
 72
    26
 73
    22
 74
     0
 42
0.0000000001
 43
0.0000000001
 12
1.0
 22
0.0
 32
0.0
 13
1.0
 23
0.0
 33
0.0
 40
0.0
 40
0.0
 40
0.0
 40
0.0
 40
1.0
 40
1.0
 40
1.0
 40
2.0
 40
2.0
 40
2.0
 40
3.0
 40
3.0
 40
3.0
 40
4.0
 40
4.0
 40
4.0
 40
5.0
 40
5.0
 40
5.0
 40
6.0
 40
6.0
 40
6.0
 40
7.0
 40
7.0
 40
7.0
 40
7.0
 10
134.197493456034
 20
-166.8859374582785
 30
0.0
 10
134.197493456034
 20
-166.8859374582785
 30
0.0
 10
133.0933403530114
 20
-166.8859374582785
 30
0.0
 10
133.0933403530114
 20
-166.8859374582785
 30
0.0
 10
133.0933403530114
 20
-166.8859374582785
 30
0.0
 10
133.0933403530114
 20
-167.1770480267821
 30
0.0
 10
133.0933403530114
 20
-167.1770480267821
 30
0.0
 10
133.0933403530114
 20
-167.1770480267821
 30
0.0
 10
132.9452012471457
 20
-167.1770480267821
 30
0.0
 10
132.9452012471457
 20
-167.1770480267821
 30
0.0
 10
132.9303873365591
 20
-166.8838704009874
 30
0.0
 10
132.7674343201068
 20
-166.8425292551644
 30
0.0
 10
132.6530571499965
 20
-166.816691039025
 30
0.0
 10
132.6530571499965
 20
-166.816691039025
 30
0.0
 10
132.6530571499965
 20
-166.6874999583281
 30
0.0
 10
132.6530571499965
 20
-166.6874999583281
 30
0.0
 10
132.6530571499965
 20
-166.6874999583281
 30
0.0
 10
134.197493456034
 20
-166.6874999583281
 30
0.0
 10
134.197493456034
 20
-166.6874999583281
 30
0.0
 10
134.197493456034
 20
-166.6874999583281
 30
0.0
 10
134.197493456034
 20
-166.8859374582785
 30
0.0
 10
134.197493456034
 20
-166.8859374582785
 30
0.0
  0
HATCH
  5
17D
330
178
100
AcDbEntity
  8
_U+30EC_U+30A4_U+30E4_U+30FC 1
 62
   179
420
  2234388
100
AcDbHatch
 10
0.0
 20
0.0
 30
0.0
210
0.0
220
0.0
230
1.0
  2
SOLID
 70
     1
 71
     0
 91
        1
 92
        1
 93
        1
 72
     4
 94
        3
 73
     0
 74
     1
 95
       26
 96
       22
 40
0.0
 40
0.0
 40
0.0
 40
0.0
 40
1.0
 40
1.0
 40
1.0
 40
2.0
 40
2.0
 40
2.0
 40
3.0
 40
3.0
 40
3.0
 40
4.0
 40
4.0
 40
4.0
 40
5.0
 40
5.0
 40
5.0
 40
6.0
 40
6.0
 40
6.0
 40
7.0
 40
7.0
 40
7.0
 40
7.0
 10
134.197493456034
 20
-166.8859374582785
 10
134.197493456034
 20
-166.8859374582785
 10
133.0933403530114
 20
-166.8859374582785
 10
133.0933403530114
 20
-166.8859374582785
 10
133.0933403530114
 20
-166.8859374582785
 10
133.0933403530114
 20
-167.1770480267821
 10
133.0933403530114
 20
-167.1770480267821
 10
133.0933403530114
 20
-167.1770480267821
 10
132.9452012471457
 20
-167.1770480267821
 10
132.9452012471457
 20
-167.1770480267821
 10
132.9303873365591
 20
-166.8838704009874
 10
132.7674343201068
 20
-166.8425292551644
 10
132.6530571499965
 20
-166.816691039025
 10
132.6530571499965
 20
-166.816691039025
 10
132.6530571499965
 20
-166.6874999583281
 10
132.6530571499965
 20
-166.6874999583281
 10
132.6530571499965
 20
-166.6874999583281
 10
134.197493456034
 20
-166.6874999583281
 10
134.197493456034
 20
-166.6874999583281
 10
134.197493456034
 20
-166.6874999583281
 10
134.197493456034
 20
-166.8859374582785
 10
134.197493456034
 20
-166.8859374582785
 97
        0
 97
        0
 75
     2
 76
     1
 98
        0
  0
SPLINE
  5
17E
330
178
100
AcDbEntity
  8
_U+30EC_U+30A4_U+30E4_U+30FC 1
370
     0
100
AcDbSpline
210
0.0
220
0.0
230
1.0
 70
    11
 71
     3
 72
    29
 73
    25
 74
     0
 42
0.0000000001
 43
0.0000000001
 12
1.0
 22
0.0
 32
0.0
 13
1.0
 23
0.0
 33
0.0
 40
0.0
 40
0.0
 40
0.0
 40
0.0
 40
1.0
 40
1.0
 40
1.0
 40
2.0
 40
2.0
 40
2.0
 40
3.0
 40
3.0
 40
3.0
 40
4.0
 40
4.0
 40
4.0
 40
5.0
 40
5.0
 40
5.0
 40
6.0
 40
6.0
 40
6.0
 40
7.0
 40
7.0
 40
7.0
 40
8.0
 40
8.0
 40
8.0
 40
8.0
 10
134.0197265289951
 20
-165.4520887173175
 30
0.0
 10
134.2291883344983
 20
-165.5471733527104
 30
0.0
 10
134.2481363596671
 20
-165.7001355922555
 30
0.0
 10
134.2481363596671
 20
-165.802799437716
 30
0.0
 10
134.2481363596671
 20
-165.9450818812568
 30
0.0
 10
134.2016275706163
 20
-166.0701388473714
 30
0.0
 10
134.0197265289951
 20
-166.1541991772115
 30
0.0
 10
133.8250786340785
 20
-166.2458387171191
 30
0.0
 10
133.5884005742418
 20
-166.2623751754483
 30
0.0
 10
133.4254475577895
 20
-166.2623751754483
 30
0.0
 10
133.281442566506
 20
-166.2623751754483
 30
0.0
 10
133.0296060865343
 20
-166.2475612648617
 30
0.0
 10
132.8308240770353
 20
-166.1541991772115
 30
0.0
 10
132.6279079529541
 20
-166.0591145418186
 30
0.0
 10
132.6044813036544
 20
-165.9171766078263
 30
0.0
 10
132.6044813036544
 20
-165.802799437716
 30
0.0
 10
132.6044813036544
 20
-165.6629285610148
 30
0.0
 10
132.6489230354142
 20
-165.5361490471576
 30
0.0
 10
132.8308240770353
 20
-165.4520887173175
 30
0.0
 10
133.0234049146608
 20
-165.3638942728952
 30
0.0
 10
133.2518147453329
 20
-165.3435682095322
 30
0.0
 10
133.4254475577895
 20
-165.3435682095322
 30
0.0
 10
133.5966688034064
 20
-165.3435682095322
 30
0.0
 10
133.8271456913696
 20
-165.3621717251525
 30
0.0
 10
134.0197265289951
 20
-165.4520887173175
 30
0.0
  0
SPLINE
  5
17F
330
178
100
AcDbEntity
  8
_U+30EC_U+30A4_U+30E4_U+30FC 1
370
     0
100
AcDbSpline
210
0.0
220
0.0
230
1.0
 70
    11
 71
     3
 72
    17
 73
    13
 74
     0
 42
0.0000000001
 43
0.0000000001
 12
1.0
 22
0.0
 32
0.0
 13
1.0
 23
0.0
 33
0.0
 40
0.0
 40
0.0
 40
0.0
 40
0.0
 40
1.0
 40
1.0
 40
1.0
 40
2.0
 40
2.0
 40
2.0
 40
3.0
 40
3.0
 40
3.0
 40
4.0
 40
4.0
 40
4.0
 40
4.0
 10
132.7970621412799
 20
-165.802799437716
 30
0.0
 10
132.7970621412799
 20
-166.023285548772
 30
0.0
 10
133.080593499716
 20
-166.0646266945949
 30
0.0
 10
133.4254475577895
 20
-166.0646266945949
 30
0.0
 10
133.7448079092721
 20
-166.0646266945949
 30
0.0
 10
134.0534884647505
 20
-166.0329318161307
 30
0.0
 10
134.0534884647505
 20
-165.802799437716
 30
0.0
 10
134.0534884647505
 20
-165.5843803839511
 30
0.0
 10
133.7723686731541
 20
-165.541661199934
 30
0.0
 10
133.4254475577895
 20
-165.541661199934
 30
0.0
 10
133.1057426967583
 20
-165.541661199934
 30
0.0
 10
132.7970621412799
 20
-165.575078626141
 30
0.0
 10
132.7970621412799
 20
-165.802799437716
 30
0.0
  0
HATCH
  5
180
330
178
100
AcDbEntity
  8
_U+30EC_U+30A4_U+30E4_U+30FC 1
 62
   179
420
  2234388
100
AcDbHatch
 10
0.0
 20
0.0
 30
0.0
210
0.0
220
0.0
230
1.0
  2
SOLID
 70
     1
 71
     0
 91
        2
 92
        1
 93
        1
 72
     4
 94
        3
 73
     0
 74
     1
 95
       29
 96
       25
 40
0.0
 40
0.0
 40
0.0
 40
0.0
 40
1.0
 40
1.0
 40
1.0
 40
2.0
 40
2.0
 40
2.0
 40
3.0
 40
3.0
 40
3.0
 40
4.0
 40
4.0
 40
4.0
 40
5.0
 40
5.0
 40
5.0
 40
6.0
 40
6.0
 40
6.0
 40
7.0
 40
7.0
 40
7.0
 40
8.0
 40
8.0
 40
8.0
 40
8.0
 10
134.0197265289951
 20
-165.4520887173175
 10
134.2291883344983
 20
-165.5471733527104
 10
134.2481363596671
 20
-165.7001355922555
 10
134.2481363596671
 20
-165.802799437716
 10
134.2481363596671
 20
-165.9450818812568
 10
134.2016275706163
 20
-166.0701388473714
 10
134.0197265289951
 20
-166.1541991772115
 10
133.8250786340785
 20
-166.2458387171191
 10
133.5884005742418
 20
-166.2623751754483
 10
133.4254475577895
 20
-166.2623751754483
 10
133.281442566506
 20
-166.2623751754483
 10
133.0296060865343
 20
-166.2475612648617
 10
132.8308240770353
 20
-166.1541991772115
 10
132.6279079529541
 20
-166.0591145418186
 10
132.6044813036544
 20
-165.9171766078263
 10
132.6044813036544
 20
-165.802799437716
 10
132.6044813036544
 20
-165.6629285610148
 10
132.6489230354142
 20
-165.5361490471576
 10
132.8308240770353
 20
-165.4520887173175
 10
133.0234049146608
 20
-165.3638942728952
 10
133.2518147453329
 20
-165.3435682095322
 10
133.4254475577895
 20
-165.3435682095322
 10
133.5966688034064
 20
-165.3435682095322
 10
133.8271456913696
 20
-165.3621717251525
 10
134.0197265289951
 20
-165.4520887173175
 97
        0
 97
        0
 92
        1
 93
        1
 72
     4
 94
        3
 73
     0
 74
     1
 95
       17
 96
       13
 40
0.0
 40
0.0
 40
0.0
 40
0.0
 40
1.0
 40
1.0
 40
1.0
 40
2.0
 40
2.0
 40
2.0
 40
3.0
 40
3.0
 40
3.0
 40
4.0
 40
4.0
 40
4.0
 40
4.0
 10
132.7970621412799
 20
-165.802799437716
 10
132.7970621412799
 20
-166.023285548772
 10
133.080593499716
 20
-166.0646266945949
 10
133.4254475577895
 20
-166.0646266945949
 10
133.7448079092721
 20
-166.0646266945949
 10
134.0534884647505
 20
-166.0329318161307
 10
134.0534884647505
 20
-165.802799437716
 10
134.0534884647505
 20
-165.5843803839511
 10
133.7723686731541
 20
-165.541661199934
 10
133.4254475577895
 20
-165.541661199934
 10
133.1057426967583
 20
-165.541661199934
 10
132.7970621412799
 20
-165.575078626141
 10
132.7970621412799
 20
-165.802799437716
 97
        0
 97
        0
 75
     2
 76
     1
 98
        0
  0
ENDBLK
  5
17B
330
178
100
AcDbEntity
  8
0
100
AcDbBlockEnd
  0
BLOCK
  5
183
330
181
100
AcDbEntity
  8
0
100
AcDbBlockBegin
  2
block 10
 70
     0
 10
0.0
 20
0.0
 30
0.0
  3
block 10
  1

  0
SPLINE
  5
185
330
181
100
AcDbEntity
  8
_U+30EC_U+30A4_U+30E4_U+30FC 1
370
     0
100
AcDbSpline
210
0.0
220
0.0
230
1.0
 70
    11
 71
     3
 72
    62
 73
    58
 74
     0
 42
0.0000000001
 43
0.0000000001
 12
1.0
 22
0.0
 32
0.0
 13
1.0
 23
0.0
 33
0.0
 40
0.0
 40
0.0
 40
0.0
 40
0.0
 40
1.0
 40
1.0
 40
1.0
 40
2.0
 40
2.0
 40
2.0
 40
3.0
 40
3.0
 40
3.0
 40
4.0
 40
4.0
 40
4.0
 40
5.0
 40
5.0
 40
5.0
 40
6.0
 40
6.0
 40
6.0
 40
7.0
 40
7.0
 40
7.0
 40
8.0
 40
8.0
 40
8.0
 40
9.0
 40
9.0
 40
9.0
 40
10.0
 40
10.0
 40
10.0
 40
11.0
 40
11.0
 40
11.0
 40
12.0
 40
12.0
 40
12.0
 40
13.0
 40
13.0
 40
13.0
 40
14.0
 40
14.0
 40
14.0
 40
15.0
 40
15.0
 40
15.0
 40
16.0
 40
16.0
 40
16.0
 40
17.0
 40
17.0
 40
17.0
 40
18.0
 40
18.0
 40
18.0
 40
19.0
 40
19.0
 40
19.0
 40
19.0
 10
134.2502034169583
 20
-142.7866332650846
 30
0.0
 10
134.2502034169583
 20
-142.8706935949247
 30
0.0
 10
134.2291883344983
 20
-143.0631021777759
 30
0.0
 10
134.0431531782948
 20
-143.1731729785296
 30
0.0
 10
133.9308430654756
 20
-143.2386297927494
 30
0.0
 10
133.8316243155004
 20
-143.2424193977832
 30
0.0
 10
133.7468749665633
 20
-143.2460367480427
 30
0.0
 10
133.7468749665633
 20
-143.2460367480427
 30
0.0
 10
133.7468749665633
 20
-143.0519056174488
 30
0.0
 10
133.7468749665633
 20
-143.0519056174488
 30
0.0
 10
133.8209445194962
 20
-143.0500108149319
 30
0.0
 10
134.0555555220417
 20
-143.0407090571218
 30
0.0
 10
134.0555555220417
 20
-142.7902506153441
 30
0.0
 10
134.0555555220417
 20
-142.6689832542633
 30
0.0
 10
133.9859645932396
 20
-142.5344522755643
 30
0.0
 10
133.7575547625676
 20
-142.5344522755643
 30
0.0
 10
133.6411105351661
 20
-142.5344522755643
 30
0.0
 10
133.5925346888241
 20
-142.5680419565455
 30
0.0
 10
133.5608398103598
 20
-142.5961194847503
 30
0.0
 10
133.4867702574269
 20
-142.6614040441958
 30
0.0
 10
133.4740234041315
 20
-142.7642401444305
 30
0.0
 10
133.4740234041315
 20
-142.8128159907725
 30
0.0
 10
133.4740234041315
 20
-142.829524703876
 30
0.0
 10
133.4760904614226
 20
-142.8613918371145
 30
0.0
 10
133.480224576005
 20
-142.8856797602855
 30
0.0
 10
133.480224576005
 20
-142.8856797602855
 30
0.0
 10
133.2855766810883
 20
-142.8856797602855
 30
0.0
 10
133.2855766810883
 20
-142.8856797602855
 30
0.0
 10
133.2921223625103
 20
-142.8519178245301
 30
0.0
 10
133.2941894198015
 20
-142.8145385385151
 30
0.0
 10
133.2941894198015
 20
-142.8090263857387
 30
0.0
 10
133.2941894198015
 20
-142.7511487815865
 30
0.0
 10
133.2728298277929
 20
-142.5754489118388
 30
0.0
 10
133.0361517679563
 20
-142.5754489118388
 30
0.0
 10
132.8583848409174
 20
-142.5754489118388
 30
0.0
 10
132.8032633131534
 20
-142.6913763749174
 30
0.0
 10
132.8032633131534
 20
-142.7885280676015
 30
0.0
 10
132.8032633131534
 20
-143.0219332867272
 30
0.0
 10
133.0361517679563
 20
-143.0293402420205
 30
0.0
 10
133.1078097540494
 20
-143.0331298470542
 30
0.0
 10
133.1078097540494
 20
-143.0331298470542
 30
0.0
 10
133.1078097540494
 20
-143.2124470670615
 30
0.0
 10
133.1078097540494
 20
-143.2124470670615
 30
0.0
 10
132.9830972974834
 20
-143.2050401117682
 30
0.0
 10
132.6065483609456
 20
-143.1807521885972
 30
0.0
 10
132.6065483609456
 20
-142.7773315072744
 30
0.0
 10
132.6065483609456
 20
-142.5792385168726
 30
0.0
 10
132.7336723843513
 20
-142.3663316158841
 30
0.0
 10
133.0296060865343
 20
-142.3663316158841
 30
0.0
 10
133.2159857522863
 20
-142.3663316158841
 30
0.0
 10
133.2983235343838
 20
-142.4503919457242
 30
0.0
 10
133.3596462340212
 20
-142.5382418805981
 30
0.0
 10
133.3872069979032
 20
-142.4839816267054
 30
0.0
 10
133.4674777227095
 20
-142.3234401770927
 30
0.0
 10
133.7448079092721
 20
-142.3234401770927
 30
0.0
 10
134.0831162859237
 20
-142.3234401770927
 30
0.0
 10
134.2502034169583
 20
-142.5418592308576
 30
0.0
 10
134.2502034169583
 20
-142.7866332650846
 30
0.0
  0
HATCH
  5
186
330
181
100
AcDbEntity
  8
_U+30EC_U+30A4_U+30E4_U+30FC 1
 62
   179
420
  2234388
100
AcDbHatch
 10
0.0
 20
0.0
 30
0.0
210
0.0
220
0.0
230
1.0
  2
SOLID
 70
     1
 71
     0
 91
        1
 92
        1
 93
        1
 72
     4
 94
        3
 73
     0
 74
     1
 95
       62
 96
       58
 40
0.0
 40
0.0
 40
0.0
 40
0.0
 40
1.0
 40
1.0
 40
1.0
 40
2.0
 40
2.0
 40
2.0
 40
3.0
 40
3.0
 40
3.0
 40
4.0
 40
4.0
 40
4.0
 40
5.0
 40
5.0
 40
5.0
 40
6.0
 40
6.0
 40
6.0
 40
7.0
 40
7.0
 40
7.0
 40
8.0
 40
8.0
 40
8.0
 40
9.0
 40
9.0
 40
9.0
 40
10.0
 40
10.0
 40
10.0
 40
11.0
 40
11.0
 40
11.0
 40
12.0
 40
12.0
 40
12.0
 40
13.0
 40
13.0
 40
13.0
 40
14.0
 40
14.0
 40
14.0
 40
15.0
 40
15.0
 40
15.0
 40
16.0
 40
16.0
 40
16.0
 40
17.0
 40
17.0
 40
17.0
 40
18.0
 40
18.0
 40
18.0
 40
19.0
 40
19.0
 40
19.0
 40
19.0
 10
134.2502034169583
 20
-142.7866332650846
 10
134.2502034169583
 20
-142.8706935949247
 10
134.2291883344983
 20
-143.0631021777759
 10
134.0431531782948
 20
-143.1731729785296
 10
133.9308430654756
 20
-143.2386297927494
 10
133.8316243155004
 20
-143.2424193977832
 10
133.7468749665633
 20
-143.2460367480427
 10
133.7468749665633
 20
-143.2460367480427
 10
133.7468749665633
 20
-143.0519056174488
 10
133.7468749665633
 20
-143.0519056174488
 10
133.8209445194962
 20
-143.0500108149319
 10
134.0555555220417
 20
-143.0407090571218
 10
134.0555555220417
 20
-142.7902506153441
 10
134.0555555220417
 20
-142.6689832542633
 10
133.9859645932396
 20
-142.5344522755643
 10
133.7575547625676
 20
-142.5344522755643
 10
133.6411105351661
 20
-142.5344522755643
 10
133.5925346888241
 20
-142.5680419565455
 10
133.5608398103598
 20
-142.5961194847503
 10
133.4867702574269
 20
-142.6614040441958
 10
133.4740234041315
 20
-142.7642401444305
 10
133.4740234041315
 20
-142.8128159907725
 10
133.4740234041315
 20
-142.829524703876
 10
133.4760904614226
 20
-142.8613918371145
 10
133.480224576005
 20
-142.8856797602855
 10
133.480224576005
 20
-142.8856797602855
 10
133.2855766810883
 20
-142.8856797602855
 10
133.2855766810883
 20
-142.8856797602855
 10
133.2921223625103
 20
-142.8519178245301
 10
133.2941894198015
 20
-142.8145385385151
 10
133.2941894198015
 20
-142.8090263857387
 10
133.2941894198015
 20
-142.7511487815865
 10
133.2728298277929
 20
-142.5754489118388
 10
133.0361517679563
 20
-142.5754489118388
 10
132.8583848409174
 20
-142.5754489118388
 10
132.8032633131534
 20
-142.6913763749174
 10
132.8032633131534
 20
-142.7885280676015
 10
132.8032633131534
 20
-143.0219332867272
 10
133.0361517679563
 20
-143.0293402420205
 10
133.1078097540494
 20
-143.0331298470542
 10
133.1078097540494
 20
-143.0331298470542
 10
133.1078097540494
 20
-143.2124470670615
 10
133.1078097540494
 20
-143.2124470670615
 10
132.9830972974834
 20
-143.2050401117682
 10
132.6065483609456
 20
-143.1807521885972
 10
132.6065483609456
 20
-142.7773315072744
 10
132.6065483609456
 20
-142.5792385168726
 10
132.7336723843513
 20
-142.3663316158841
 10
133.0296060865343
 20
-142.3663316158841
 10
133.2159857522863
 20
-142.3663316158841
 10
133.2983235343838
 20
-142.4503919457242
 10
133.3596462340212
 20
-142.5382418805981
 10
133.3872069979032
 20
-142.4839816267054
 10
133.4674777227095
 20
-142.3234401770927
 10
133.7448079092721
 20
-142.3234401770927
 10
134.0831162859237
 20
-142.3234401770927
 10
134.2502034169583
 20
-142.5418592308576
 10
134.2502034169583
 20
-142.7866332650846
 97
        0
 97
        0
 75
     2
 76
     1
 98
        0
  0
SPLINE
  5
187
330
181
100
AcDbEntity
  8
_U+30EC_U+30A4_U+30E4_U+30FC 1
370
     0
100
AcDbSpline
210
0.0
220
0.0
230
1.0
 70
    11
 71
     3
 72
    53
 73
    49
 74
     0
 42
0.0000000001
 43
0.0000000001
 12
1.0
 22
0.0
 32
0.0
 13
1.0
 23
0.0
 33
0.0
 40
0.0
 40
0.0
 40
0.0
 40
0.0
 40
1.0
 40
1.0
 40
1.0
 40
2.0
 40
2.0
 40
2.0
 40
3.0
 40
3.0
 40
3.0
 40
4.0
 40
4.0
 40
4.0
 40
5.0
 40
5.0
 40
5.0
 40
6.0
 40
6.0
 40
6.0
 40
7.0
 40
7.0
 40
7.0
 40
8.0
 40
8.0
 40
8.0
 40
9.0
 40
9.0
 40
9.0
 40
10.0
 40
10.0
 40
10.0
 40
11.0
 40
11.0
 40
11.0
 40
12.0
 40
12.0
 40
12.0
 40
13.0
 40
13.0
 40
13.0
 40
14.0
 40
14.0
 40
14.0
 40
15.0
 40
15.0
 40
15.0
 40
16.0
 40
16.0
 40
16.0
 40
16.0
 10
134.2502034169583
 20
-141.7562052054464
 30
0.0
 10
134.2502034169583
 20
-141.8252793699256
 30
0.0
 10
134.2333224490806
 20
-141.9150241073164
 30
0.0
 10
134.169932692152
 20
-142.0045965899329
 30
0.0
 10
134.0600341461725
 20
-142.1577310842522
 30
0.0
 10
133.9287760081845
 20
-142.1765068546468
 30
0.0
 10
133.8209445194962
 20
-142.1932155677503
 30
0.0
 10
133.8209445194962
 20
-142.1932155677503
 30
0.0
 10
133.8209445194962
 20
-141.9971896346396
 30
0.0
 10
133.8209445194962
 20
-141.9971896346396
 30
0.0
 10
134.0197265289951
 20
-141.9486137882976
 30
0.0
 10
134.0493543501682
 20
-141.8364759302527
 30
0.0
 10
134.0493543501682
 20
-141.7543104029295
 30
0.0
 10
134.0493543501682
 20
-141.6309759845576
 30
0.0
 10
133.9497910906445
 20
-141.4966172606328
 30
0.0
 10
133.7172471453901
 20
-141.4966172606328
 30
0.0
 10
133.4612765508361
 20
-141.4966172606328
 30
0.0
 10
133.3913411124855
 20
-141.6552639077285
 30
0.0
 10
133.3913411124855
 20
-141.761889612997
 30
0.0
 10
133.3913411124855
 20
-141.7897948864276
 30
0.0
 10
133.3913411124855
 20
-141.9150241073164
 30
0.0
 10
133.5205321931824
 20
-141.9934000296058
 30
0.0
 10
133.5205321931824
 20
-141.9934000296058
 30
0.0
 10
133.5015841680135
 20
-142.1484293264421
 30
0.0
 10
133.5015841680135
 20
-142.1484293264421
 30
0.0
 10
133.5015841680135
 20
-142.1484293264421
 30
0.0
 10
132.6551242072876
 20
-142.0419758759479
 30
0.0
 10
132.6551242072876
 20
-142.0419758759479
 30
0.0
 10
132.6551242072876
 20
-142.0419758759479
 30
0.0
 10
132.6551242072876
 20
-141.3546793266405
 30
0.0
 10
132.6551242072876
 20
-141.3546793266405
 30
0.0
 10
132.6551242072876
 20
-141.3546793266405
 30
0.0
 10
132.8497721022042
 20
-141.3546793266405
 30
0.0
 10
132.8497721022042
 20
-141.3546793266405
 30
0.0
 10
132.8497721022042
 20
-141.3546793266405
 30
0.0
 10
132.8497721022042
 20
-141.8981431394387
 30
0.0
 10
132.8497721022042
 20
-141.8981431394387
 30
0.0
 10
132.8497721022042
 20
-141.8981431394387
 30
0.0
 10
133.2728298277929
 20
-141.9560207435909
 30
0.0
 10
133.2728298277929
 20
-141.9560207435909
 30
0.0
 10
133.2390678920375
 20
-141.9019327444724
 30
0.0
 10
133.19876027486
 20
-141.8290689749594
 30
0.0
 10
133.19876027486
 20
-141.7245103269821
 30
0.0
 10
133.19876027486
 20
-141.5002346108923
 30
0.0
 10
133.385139940612
 20
-141.2911173149377
 30
0.0
 10
133.6982991202213
 20
-141.2911173149377
 30
0.0
 10
134.0155924144128
 20
-141.2911173149377
 30
0.0
 10
134.2502034169583
 20
-141.4890380505653
 30
0.0
 10
134.2502034169583
 20
-141.7562052054464
 30
0.0
  0
HATCH
  5
188
330
181
100
AcDbEntity
  8
_U+30EC_U+30A4_U+30E4_U+30FC 1
 62
   179
420
  2234388
100
AcDbHatch
 10
0.0
 20
0.0
 30
0.0
210
0.0
220
0.0
230
1.0
  2
SOLID
 70
     1
 71
     0
 91
        1
 92
        1
 93
        1
 72
     4
 94
        3
 73
     0
 74
     1
 95
       53
 96
       49
 40
0.0
 40
0.0
 40
0.0
 40
0.0
 40
1.0
 40
1.0
 40
1.0
 40
2.0
 40
2.0
 40
2.0
 40
3.0
 40
3.0
 40
3.0
 40
4.0
 40
4.0
 40
4.0
 40
5.0
 40
5.0
 40
5.0
 40
6.0
 40
6.0
 40
6.0
 40
7.0
 40
7.0
 40
7.0
 40
8.0
 40
8.0
 40
8.0
 40
9.0
 40
9.0
 40
9.0
 40
10.0
 40
10.0
 40
10.0
 40
11.0
 40
11.0
 40
11.0
 40
12.0
 40
12.0
 40
12.0
 40
13.0
 40
13.0
 40
13.0
 40
14.0
 40
14.0
 40
14.0
 40
15.0
 40
15.0
 40
15.0
 40
16.0
 40
16.0
 40
16.0
 40
16.0
 10
134.2502034169583
 20
-141.7562052054464
 10
134.2502034169583
 20
-141.8252793699256
 10
134.2333224490806
 20
-141.9150241073164
 10
134.169932692152
 20
-142.0045965899329
 10
134.0600341461725
 20
-142.1577310842522
 10
133.9287760081845
 20
-142.1765068546468
 10
133.8209445194962
 20
-142.1932155677503
 10
133.8209445194962
 20
-142.1932155677503
 10
133.8209445194962
 20
-141.9971896346396
 10
133.8209445194962
 20
-141.9971896346396
 10
134.0197265289951
 20
-141.9486137882976
 10
134.0493543501682
 20
-141.8364759302527
 10
134.0493543501682
 20
-141.7543104029295
 10
134.0493543501682
 20
-141.6309759845576
 10
133.9497910906445
 20
-141.4966172606328
 10
133.7172471453901
 20
-141.4966172606328
 10
133.4612765508361
 20
-141.4966172606328
 10
133.3913411124855
 20
-141.6552639077285
 10
133.3913411124855
 20
-141.761889612997
 10
133.3913411124855
 20
-141.7897948864276
 10
133.3913411124855
 20
-141.9150241073164
 10
133.5205321931824
 20
-141.9934000296058
 10
133.5205321931824
 20
-141.9934000296058
 10
133.5015841680135
 20
-142.1484293264421
 10
133.5015841680135
 20
-142.1484293264421
 10
133.5015841680135
 20
-142.1484293264421
 10
132.6551242072876
 20
-142.0419758759479
 10
132.6551242072876
 20
-142.0419758759479
 10
132.6551242072876
 20
-142.0419758759479
 10
132.6551242072876
 20
-141.3546793266405
 10
132.6551242072876
 20
-141.3546793266405
 10
132.6551242072876
 20
-141.3546793266405
 10
132.8497721022042
 20
-141.3546793266405
 10
132.8497721022042
 20
-141.3546793266405
 10
132.8497721022042
 20
-141.3546793266405
 10
132.8497721022042
 20
-141.8981431394387
 10
132.8497721022042
 20
-141.8981431394387
 10
132.8497721022042
 20
-141.8981431394387
 10
133.2728298277929
 20
-141.9560207435909
 10
133.2728298277929
 20
-141.9560207435909
 10
133.2390678920375
 20
-141.9019327444724
 10
133.19876027486
 20
-141.8290689749594
 10
133.19876027486
 20
-141.7245103269821
 10
133.19876027486
 20
-141.5002346108923
 10
133.385139940612
 20
-141.2911173149377
 10
133.6982991202213
 20
-141.2911173149377
 10
134.0155924144128
 20
-141.2911173149377
 10
134.2502034169583
 20
-141.4890380505653
 10
134.2502034169583
 20
-141.7562052054464
 97
        0
 97
        0
 75
     2
 76
     1
 98
        0
  0
POLYLINE
  5
189
330
181
100
AcDbEntity
  8
_U+30EC_U+30A4_U+30E4_U+30FC 1
370
     0
100
AcDb2dPolyline
 66
     1
 10
0.0
 20
0.0
 30
0.0
  0
VERTEX
  5
18A
330
189
100
AcDbEntity
  8
_U+30EC_U+30A4_U+30E4_U+30FC 1
370
     0
100
AcDbVertex
100
AcDb2dVertex
 10
134.1995605133251
 20
-141.0882011908564
 30
0.0
  0
VERTEX
  5
18B
330
189
100
AcDbEntity
  8
_U+30EC_U+30A4_U+30E4_U+30FC 1
370
     0
100
AcDbVertex
100
AcDb2dVertex
 10
133.9477240333534
 20
-141.0882011908564
 30
0.0
  0
VERTEX
  5
18C
330
189
100
AcDbEntity
  8
_U+30EC_U+30A4_U+30E4_U+30FC 1
370
     0
100
AcDbVertex
100
AcDb2dVertex
 10
133.9477240333534
 20
-140.8659925320578
 30
0.0
  0
VERTEX
  5
18D
330
189
100
AcDbEntity
  8
_U+30EC_U+30A4_U+30E4_U+30FC 1
370
     0
100
AcDbVertex
100
AcDb2dVertex
 10
134.1995605133251
 20
-140.8659925320578
 30
0.0
  0
VERTEX
  5
18E
330
189
100
AcDbEntity
  8
_U+30EC_U+30A4_U+30E4_U+30FC 1
370
     0
100
AcDbVertex
100
AcDb2dVertex
 10
134.1995605133251
 20
-141.0882011908564
 30
0.0
  0
SEQEND
  5
18F
330
189
100
AcDbEntity
  8
_U+30EC_U+30A4_U+30E4_U+30FC 1
370
     0
  0
HATCH
  5
190
330
181
100
AcDbEntity
  8
_U+30EC_U+30A4_U+30E4_U+30FC 1
 62
   179
420
  2234388
100
AcDbHatch
 10
0.0
 20
0.0
 30
0.0
210
0.0
220
0.0
230
1.0
  2
SOLID
 70
     1
 71
     0
 91
        1
 92
        1
 93
        4
 72
     1
 10
134.1995605133251
 20
-141.0882011908564
 11
133.9477240333534
 21
-141.0882011908564
 72
     1
 10
133.9477240333534
 20
-141.0882011908564
 11
133.9477240333534
 21
-140.8659925320578
 72
     1
 10
133.9477240333534
 20
-140.8659925320578
 11
134.1995605133251
 21
-140.8659925320578
 72
     1
 10
134.1995605133251
 20
-140.8659925320578
 11
134.1995605133251
 21
-141.0882011908564
 97
        0
 75
     2
 76
     1
 98
        0
  0
SPLINE
  5
191
330
181
100
AcDbEntity
  8
_U+30EC_U+30A4_U+30E4_U+30FC 1
370
     0
100
AcDbSpline
210
0.0
220
0.0
230
1.0
 70
    11
 71
     3
 72
    62
 73
    58
 74
     0
 42
0.0000000001
 43
0.0000000001
 12
1.0
 22
0.0
 32
0.0
 13
1.0
 23
0.0
 33
0.0
 40
0.0
 40
0.0
 40
0.0
 40
0.0
 40
1.0
 40
1.0
 40
1.0
 40
2.0
 40
2.0
 40
2.0
 40
3.0
 40
3.0
 40
3.0
 40
4.0
 40
4.0
 40
4.0
 40
5.0
 40
5.0
 40
5.0
 40
6.0
 40
6.0
 40
6.0
 40
7.0
 40
7.0
 40
7.0
 40
8.0
 40
8.0
 40
8.0
 40
9.0
 40
9.0
 40
9.0
 40
10.0
 40
10.0
 40
10.0
 40
11.0
 40
11.0
 40
11.0
 40
12.0
 40
12.0
 40
12.0
 40
13.0
 40
13.0
 40
13.0
 40
14.0
 40
14.0
 40
14.0
 40
15.0
 40
15.0
 40
15.0
 40
16.0
 40
16.0
 40
16.0
 40
17.0
 40
17.0
 40
17.0
 40
18.0
 40
18.0
 40
18.0
 40
19.0
 40
19.0
 40
19.0
 40
19.0
 10
134.2502034169583
 20
-140.2227932049617
 30
0.0
 10
134.2502034169583
 20
-140.3068535348018
 30
0.0
 10
134.2291883344983
 20
-140.499262117653
 30
0.0
 10
134.0431531782948
 20
-140.6093329184067
 30
0.0
 10
133.9308430654756
 20
-140.6747897326264
 30
0.0
 10
133.8316243155004
 20
-140.6785793376602
 30
0.0
 10
133.7468749665633
 20
-140.6821966879197
 30
0.0
 10
133.7468749665633
 20
-140.6821966879197
 30
0.0
 10
133.7468749665633
 20
-140.4880655573259
 30
0.0
 10
133.7468749665633
 20
-140.4880655573259
 30
0.0
 10
133.8209445194962
 20
-140.486170754809
 30
0.0
 10
134.0555555220417
 20
-140.4768689969988
 30
0.0
 10
134.0555555220417
 20
-140.2264105552212
 30
0.0
 10
134.0555555220417
 20
-140.1051431941404
 30
0.0
 10
133.9859645932396
 20
-139.9706122154414
 30
0.0
 10
133.7575547625676
 20
-139.9706122154414
 30
0.0
 10
133.6411105351661
 20
-139.9706122154414
 30
0.0
 10
133.5925346888241
 20
-140.0042018964226
 30
0.0
 10
133.5608398103598
 20
-140.0322794246273
 30
0.0
 10
133.4867702574269
 20
-140.0975639840728
 30
0.0
 10
133.4740234041315
 20
-140.2004000843075
 30
0.0
 10
133.4740234041315
 20
-140.2489759306496
 30
0.0
 10
133.4740234041315
 20
-140.265684643753
 30
0.0
 10
133.4760904614226
 20
-140.2975517769916
 30
0.0
 10
133.480224576005
 20
-140.3218397001626
 30
0.0
 10
133.480224576005
 20
-140.3218397001626
 30
0.0
 10
133.2855766810883
 20
-140.3218397001626
 30
0.0
 10
133.2855766810883
 20
-140.3218397001626
 30
0.0
 10
133.2921223625103
 20
-140.2880777644071
 30
0.0
 10
133.2941894198015
 20
-140.2506984783922
 30
0.0
 10
133.2941894198015
 20
-140.2451863256158
 30
0.0
 10
133.2941894198015
 20
-140.1873087214636
 30
0.0
 10
133.2728298277929
 20
-140.0116088517159
 30
0.0
 10
133.0361517679563
 20
-140.0116088517159
 30
0.0
 10
132.8583848409174
 20
-140.0116088517159
 30
0.0
 10
132.8032633131534
 20
-140.1275363147945
 30
0.0
 10
132.8032633131534
 20
-140.2246880074786
 30
0.0
 10
132.8032633131534
 20
-140.4580932266042
 30
0.0
 10
133.0361517679563
 20
-140.4655001818975
 30
0.0
 10
133.1078097540494
 20
-140.4692897869313
 30
0.0
 10
133.1078097540494
 20
-140.4692897869313
 30
0.0
 10
133.1078097540494
 20
-140.6486070069386
 30
0.0
 10
133.1078097540494
 20
-140.6486070069386
 30
0.0
 10
132.9830972974834
 20
-140.6412000516453
 30
0.0
 10
132.6065483609456
 20
-140.6169121284742
 30
0.0
 10
132.6065483609456
 20
-140.2134914471515
 30
0.0
 10
132.6065483609456
 20
-140.0153984567496
 30
0.0
 10
132.7336723843513
 20
-139.8024915557612
 30
0.0
 10
133.0296060865343
 20
-139.8024915557612
 30
0.0
 10
133.2159857522863
 20
-139.8024915557612
 30
0.0
 10
133.2983235343838
 20
-139.8865518856013
 30
0.0
 10
133.3596462340212
 20
-139.9744018204752
 30
0.0
 10
133.3872069979032
 20
-139.9201415665825
 30
0.0
 10
133.4674777227095
 20
-139.7596001169698
 30
0.0
 10
133.7448079092721
 20
-139.7596001169698
 30
0.0
 10
134.0831162859237
 20
-139.7596001169698
 30
0.0
 10
134.2502034169583
 20
-139.9780191707347
 30
0.0
 10
134.2502034169583
 20
-140.2227932049617
 30
0.0
  0
HATCH
  5
192
330
181
100
AcDbEntity
  8
_U+30EC_U+30A4_U+30E4_U+30FC 1
 62
   179
420
  2234388
100
AcDbHatch
 10
0.0
 20
0.0
 30
0.0
210
0.0
220
0.0
230
1.0
  2
SOLID
 70
     1
 71
     0
 91
        1
 92
        1
 93
        1
 72
     4
 94
        3
 73
     0
 74
     1
 95
       62
 96
       58
 40
0.0
 40
0.0
 40
0.0
 40
0.0
 40
1.0
 40
1.0
 40
1.0
 40
2.0
 40
2.0
 40
2.0
 40
3.0
 40
3.0
 40
3.0
 40
4.0
 40
4.0
 40
4.0
 40
5.0
 40
5.0
 40
5.0
 40
6.0
 40
6.0
 40
6.0
 40
7.0
 40
7.0
 40
7.0
 40
8.0
 40
8.0
 40
8.0
 40
9.0
 40
9.0
 40
9.0
 40
10.0
 40
10.0
 40
10.0
 40
11.0
 40
11.0
 40
11.0
 40
12.0
 40
12.0
 40
12.0
 40
13.0
 40
13.0
 40
13.0
 40
14.0
 40
14.0
 40
14.0
 40
15.0
 40
15.0
 40
15.0
 40
16.0
 40
16.0
 40
16.0
 40
17.0
 40
17.0
 40
17.0
 40
18.0
 40
18.0
 40
18.0
 40
19.0
 40
19.0
 40
19.0
 40
19.0
 10
134.2502034169583
 20
-140.2227932049617
 10
134.2502034169583
 20
-140.3068535348018
 10
134.2291883344983
 20
-140.499262117653
 10
134.0431531782948
 20
-140.6093329184067
 10
133.9308430654756
 20
-140.6747897326264
 10
133.8316243155004
 20
-140.6785793376602
 10
133.7468749665633
 20
-140.6821966879197
 10
133.7468749665633
 20
-140.6821966879197
 10
133.7468749665633
 20
-140.4880655573259
 10
133.7468749665633
 20
-140.4880655573259
 10
133.8209445194962
 20
-140.486170754809
 10
134.0555555220417
 20
-140.4768689969988
 10
134.0555555220417
 20
-140.2264105552212
 10
134.0555555220417
 20
-140.1051431941404
 10
133.9859645932396
 20
-139.9706122154414
 10
133.7575547625676
 20
-139.9706122154414
 10
133.6411105351661
 20
-139.9706122154414
 10
133.5925346888241
 20
-140.0042018964226
 10
133.5608398103598
 20
-140.0322794246273
 10
133.4867702574269
 20
-140.0975639840728
 10
133.4740234041315
 20
-140.2004000843075
 10
133.4740234041315
 20
-140.2489759306496
 10
133.4740234041315
 20
-140.265684643753
 10
133.4760904614226
 20
-140.2975517769916
 10
133.480224576005
 20
-140.3218397001626
 10
133.480224576005
 20
-140.3218397001626
 10
133.2855766810883
 20
-140.3218397001626
 10
133.2855766810883
 20
-140.3218397001626
 10
133.2921223625103
 20
-140.2880777644071
 10
133.2941894198015
 20
-140.2506984783922
 10
133.2941894198015
 20
-140.2451863256158
 10
133.2941894198015
 20
-140.1873087214636
 10
133.2728298277929
 20
-140.0116088517159
 10
133.0361517679563
 20
-140.0116088517159
 10
132.8583848409174
 20
-140.0116088517159
 10
132.8032633131534
 20
-140.1275363147945
 10
132.8032633131534
 20
-140.2246880074786
 10
132.8032633131534
 20
-140.4580932266042
 10
133.0361517679563
 20
-140.4655001818975
 10
133.1078097540494
 20
-140.4692897869313
 10
133.1078097540494
 20
-140.4692897869313
 10
133.1078097540494
 20
-140.6486070069386
 10
133.1078097540494
 20
-140.6486070069386
 10
132.9830972974834
 20
-140.6412000516453
 10
132.6065483609456
 20
-140.6169121284742
 10
132.6065483609456
 20
-140.2134914471515
 10
132.6065483609456
 20
-140.0153984567496
 10
132.7336723843513
 20
-139.8024915557612
 10
133.0296060865343
 20
-139.8024915557612
 10
133.2159857522863
 20
-139.8024915557612
 10
133.2983235343838
 20
-139.8865518856013
 10
133.3596462340212
 20
-139.9744018204752
 10
133.3872069979032
 20
-139.9201415665825
 10
133.4674777227095
 20
-139.7596001169698
 10
133.7448079092721
 20
-139.7596001169698
 10
134.0831162859237
 20
-139.7596001169698
 10
134.2502034169583
 20
-139.9780191707347
 10
134.2502034169583
 20
-140.2227932049617
 97
        0
 97
        0
 75
     2
 76
     1
 98
        0
  0
ENDBLK
  5
184
330
181
100
AcDbEntity
  8
0
100
AcDbBlockEnd
  0
ENDSEC
  0
SECTION
  2
ENTITIES
  0
POLYLINE
  5
41
330
1F
100
AcDbEntity
  8
_U+30EC_U+30A4_U+30E4_U+30FC 1
370
     0
100
AcDb2dPolyline
 66
     1
 10
0.0
 20
0.0
 30
0.0
  0
VERTEX
  5
42
330
41
100
AcDbEntity
  8
_U+30EC_U+30A4_U+30E4_U+30FC 1
370
     0
100
AcDbVertex
100
AcDb2dVertex
 10
84.34450984541643
 20
-146.0142678637514
 30
0.0
  0
VERTEX
  5
43
330
41
100
AcDbEntity
  8
_U+30EC_U+30A4_U+30E4_U+30FC 1
370
     0
100
AcDbVertex
100
AcDb2dVertex
 10
82.03381432495732
 20
-146.0142678637514
 30
0.0
  0
VERTEX
  5
44
330
41
100
AcDbEntity
  8
_U+30EC_U+30A4_U+30E4_U+30FC 1
370
     0
100
AcDbVertex
100
AcDb2dVertex
 10
82.03381432495732
 20
-160.1380827609366
 30
0.0
  0
VERTEX
  5
45
330
41
100
AcDbEntity
  8
_U+30EC_U+30A4_U+30E4_U+30FC 1
370
     0
100
AcDbVertex
100
AcDb2dVertex
 10
94.57047642356876
 20
-160.1380827609366
 30
0.0
  0
VERTEX
  5
46
330
41
100
AcDbEntity
  8
_U+30EC_U+30A4_U+30E4_U+30FC 1
370
     0
100
AcDbVertex
100
AcDb2dVertex
 10
94.57047642356876
 20
-124.8218491136242
 30
0.0
  0
VERTEX
  5
47
330
41
100
AcDbEntity
  8
_U+30EC_U+30A4_U+30E4_U+30FC 1
370
     0
100
AcDbVertex
100
AcDb2dVertex
 10
95.7706292654725
 20
-124.8218491136242
 30
0.0
  0
VERTEX
  5
48
330
41
100
AcDbEntity
  8
_U+30EC_U+30A4_U+30E4_U+30FC 1
370
     0
100
AcDbVertex
100
AcDb2dVertex
 10
95.7706292654725
 20
-160.1384380364085
 30
0.0
  0
VERTEX
  5
49
330
41
100
AcDbEntity
  8
_U+30EC_U+30A4_U+30E4_U+30FC 1
370
     0
100
AcDbVertex
100
AcDb2dVertex
 10
130.5707445454009
 20
-160.1225582994062
 30
0.0
  0
VERTEX
  5
4A
330
41
100
AcDbEntity
  8
_U+30EC_U+30A4_U+30E4_U+30FC 1
370
     0
100
AcDbVertex
100
AcDb2dVertex
 10
130.5707445454009
 20
-161.32271114131
 30
0.0
  0
VERTEX
  5
4B
330
41
100
AcDbEntity
  8
_U+30EC_U+30A4_U+30E4_U+30FC 1
370
     0
100
AcDbVertex
100
AcDb2dVertex
 10
82.04474981164213
 20
-161.32271114131
 30
0.0
  0
VERTEX
  5
4C
330
41
100
AcDbEntity
  8
_U+30EC_U+30A4_U+30E4_U+30FC 1
370
     0
100
AcDbVertex
100
AcDb2dVertex
 10
82.04474981164213
 20
-173.6208945793975
 30
0.0
  0
VERTEX
  5
4D
330
41
100
AcDbEntity
  8
_U+30EC_U+30A4_U+30E4_U+30FC 1
370
     0
100
AcDbVertex
100
AcDb2dVertex
 10
87.12933663203304
 20
-173.6208945793975
 30
0.0
  0
VERTEX
  5
4E
330
41
100
AcDbEntity
  8
_U+30EC_U+30A4_U+30E4_U+30FC 1
370
     0
100
AcDbVertex
100
AcDb2dVertex
 10
87.12933663203304
 20
-171.3228974655786
 30
0.0
  0
VERTEX
  5
4F
330
41
100
AcDbEntity
  8
_U+30EC_U+30A4_U+30E4_U+30FC 1
370
     0
100
AcDbVertex
100
AcDb2dVertex
 10
88.34395080053228
 20
-171.3228974655786
 30
0.0
  0
VERTEX
  5
50
330
41
100
AcDbEntity
  8
_U+30EC_U+30A4_U+30E4_U+30FC 1
370
     0
100
AcDbVertex
100
AcDb2dVertex
 10
88.34395080053228
 20
-174.8228130327375
 30
0.0
  0
VERTEX
  5
51
330
41
100
AcDbEntity
  8
_U+30EC_U+30A4_U+30E4_U+30FC 1
370
     0
100
AcDbVertex
100
AcDb2dVertex
 10
80.84459966121925
 20
-174.8228130327375
 30
0.0
  0
VERTEX
  5
52
330
41
100
AcDbEntity
  8
_U+30EC_U+30A4_U+30E4_U+30FC 1
370
     0
100
AcDbVertex
100
AcDb2dVertex
 10
80.84459966121925
 20
-144.8225878035567
 30
0.0
  0
VERTEX
  5
53
330
41
100
AcDbEntity
  8
_U+30EC_U+30A4_U+30E4_U+30FC 1
370
     0
100
AcDbVertex
100
AcDb2dVertex
 10
84.34450984541643
 20
-144.8225878035567
 30
0.0
  0
VERTEX
  5
54
330
41
100
AcDbEntity
  8
_U+30EC_U+30A4_U+30E4_U+30FC 1
370
     0
100
AcDbVertex
100
AcDb2dVertex
 10
84.34450984541643
 20
-146.0142678637514
 30
0.0
  0
SEQEND
  5
56
330
41
100
AcDbEntity
  8
_U+30EC_U+30A4_U+30E4_U+30FC 1
370
     0
  0
HATCH
  5
55
330
1F
100
AcDbEntity
  8
_U+30EC_U+30A4_U+30E4_U+30FC 1
 62
     9
420
 13224394
100
AcDbHatch
 10
0.0
 20
0.0
 30
0.0
210
0.0
220
0.0
230
1.0
  2
SOLID
 70
     1
 71
     0
 91
        1
 92
        1
 93
       18
 72
     1
 10
84.34450984541643
 20
-146.0142678637514
 11
82.03381432495732
 21
-146.0142678637514
 72
     1
 10
82.03381432495732
 20
-146.0142678637514
 11
82.03381432495732
 21
-160.1380827609366
 72
     1
 10
82.03381432495732
 20
-160.1380827609366
 11
94.57047642356876
 21
-160.1380827609366
 72
     1
 10
94.57047642356876
 20
-160.1380827609366
 11
94.57047642356876
 21
-124.8218491136242
 72
     1
 10
94.57047642356876
 20
-124.8218491136242
 11
95.7706292654725
 21
-124.8218491136242
 72
     1
 10
95.7706292654725
 20
-124.8218491136242
 11
95.7706292654725
 21
-160.1384380364085
 72
     1
 10
95.7706292654725
 20
-160.1384380364085
 11
130.5707445454009
 21
-160.1225582994062
 72
     1
 10
130.5707445454009
 20
-160.1225582994062
 11
130.5707445454009
 21
-161.32271114131
 72
     1
 10
130.5707445454009
 20
-161.32271114131
 11
82.04474981164213
 21
-161.32271114131
 72
     1
 10
82.04474981164213
 20
-161.32271114131
 11
82.04474981164213
 21
-173.6208945793975
 72
     1
 10
82.04474981164213
 20
-173.6208945793975
 11
87.12933663203304
 21
-173.6208945793975
 72
     1
 10
87.12933663203304
 20
-173.6208945793975
 11
87.12933663203304
 21
-171.3228974655786
 72
     1
 10
87.12933663203304
 20
-171.3228974655786
 11
88.34395080053228
 21
-171.3228974655786
 72
     1
 10
88.34395080053228
 20
-171.3228974655786
 11
88.34395080053228
 21
-174.8228130327375
 72
     1
 10
88.34395080053228
 20
-174.8228130327375
 11
80.84459966121925
 21
-174.8228130327375
 72
     1
 10
80.84459966121925
 20
-174.8228130327375
 11
80.84459966121925
 21
-144.8225878035567
 72
     1
 10
80.84459966121925
 20
-144.8225878035567
 11
84.34450984541643
 21
-144.8225878035567
 72
     1
 10
84.34450984541643
 20
-144.8225878035567
 11
84.34450984541643
 21
-146.0142678637514
 97
        0
 75
     2
 76
     1
 98
        0
  0
POLYLINE
  5
57
330
1F
100
AcDbEntity
  8
_U+30EC_U+30A4_U+30E4_U+30FC 1
 62
   179
420
  2234388
370
    25
100
AcDb2dPolyline
 66
     1
 10
0.0
 20
0.0
 30
0.0
  0
VERTEX
  5
58
330
57
100
AcDbEntity
  8
_U+30EC_U+30A4_U+30E4_U+30FC 1
 62
   179
420
  2234388
370
    25
100
AcDbVertex
100
AcDb2dVertex
 10
94.570584082803
 20
-124.8219244750879
 30
0.0
  0
VERTEX
  5
59
330
57
100
AcDbEntity
  8
_U+30EC_U+30A4_U+30E4_U+30FC 1
 62
   179
420
  2234388
370
    25
100
AcDbVertex
100
AcDb2dVertex
 10
94.570584082803
 20
-160.1381581224004
 30
0.0
  0
SEQEND
  5
5A
330
57
100
AcDbEntity
  8
_U+30EC_U+30A4_U+30E4_U+30FC 1
 62
   179
420
  2234388
370
    25
  0
POLYLINE
  5
5B
330
1F
100
AcDbEntity
  8
_U+30EC_U+30A4_U+30E4_U+30FC 1
 62
   179
420
  2234388
370
    25
100
AcDb2dPolyline
 66
     1
 10
0.0
 20
0.0
 30
0.0
  0
VERTEX
  5
5C
330
5B
100
AcDbEntity
  8
_U+30EC_U+30A4_U+30E4_U+30FC 1
 62
   179
420
  2234388
370
    25
100
AcDbVertex
100
AcDb2dVertex
 10
95.77069924397453
 20
-124.8219244750879
 30
0.0
  0
VERTEX
  5
5D
330
5B
100
AcDbEntity
  8
_U+30EC_U+30A4_U+30E4_U+30FC 1
 62
   179
420
  2234388
370
    25
100
AcDbVertex
100
AcDb2dVertex
 10
94.5705464020708
 20
-124.8219244750879
 30
0.0
  0
SEQEND
  5
5E
330
5B
100
AcDbEntity
  8
_U+30EC_U+30A4_U+30E4_U+30FC 1
 62
   179
420
  2234388
370
    25
  0
POLYLINE
  5
5F
330
1F
100
AcDbEntity
  8
_U+30EC_U+30A4_U+30E4_U+30FC 1
 62
   179
420
  2234388
370
    25
100
AcDb2dPolyline
 66
     1
 10
0.0
 20
0.0
 30
0.0
  0
VERTEX
  5
60
330
5F
100
AcDbEntity
  8
_U+30EC_U+30A4_U+30E4_U+30FC 1
 62
   179
420
  2234388
370
    25
100
AcDbVertex
100
AcDb2dVertex
 10
95.77069924397453
 20
-124.8219244750879
 30
0.0
  0
VERTEX
  5
61
330
5F
100
AcDbEntity
  8
_U+30EC_U+30A4_U+30E4_U+30FC 1
 62
   179
420
  2234388
370
    25
100
AcDbVertex
100
AcDb2dVertex
 10
95.77069924397453
 20
-160.1385133978723
 30
0.0
  0
VERTEX
  5
62
330
5F
100
AcDbEntity
  8
_U+30EC_U+30A4_U+30E4_U+30FC 1
 62
   179
420
  2234388
370
    25
100
AcDbVertex
100
AcDb2dVertex
 10
130.570814523903
 20
-160.12263366087
 30
0.0
  0
VERTEX
  5
63
330
5F
100
AcDbEntity
  8
_U+30EC_U+30A4_U+30E4_U+30FC 1
 62
   179
420
  2234388
370
    25
100
AcDbVertex
100
AcDb2dVertex
 10
130.570814523903
 20
-161.3224312273018
 30
0.0
  0
VERTEX
  5
64
330
5F
100
AcDbEntity
  8
_U+30EC_U+30A4_U+30E4_U+30FC 1
 62
   179
420
  2234388
370
    25
100
AcDbVertex
100
AcDb2dVertex
 10
82.0448197901445
 20
-161.3224312273018
 30
0.0
  0
SEQEND
  5
65
330
5F
100
AcDbEntity
  8
_U+30EC_U+30A4_U+30E4_U+30FC 1
 62
   179
420
  2234388
370
    25
  0
POLYLINE
  5
66
330
1F
100
AcDbEntity
  8
_U+30EC_U+30A4_U+30E4_U+30FC 1
 62
   179
420
  2234388
370
    25
100
AcDb2dPolyline
 66
     1
 10
0.0
 20
0.0
 30
0.0
  0
VERTEX
  5
67
330
66
100
AcDbEntity
  8
_U+30EC_U+30A4_U+30E4_U+30FC 1
 62
   179
420
  2234388
370
    25
100
AcDbVertex
100
AcDb2dVertex
 10
88.3440907575367
 20
-171.3229728270423
 30
0.0
  0
VERTEX
  5
68
330
66
100
AcDbEntity
  8
_U+30EC_U+30A4_U+30E4_U+30FC 1
 62
   179
420
  2234388
370
    25
100
AcDbVertex
100
AcDb2dVertex
 10
87.12947658903714
 20
-171.3229728270423
 30
0.0
  0
SEQEND
  5
69
330
66
100
AcDbEntity
  8
_U+30EC_U+30A4_U+30E4_U+30FC 1
 62
   179
420
  2234388
370
    25
  0
POLYLINE
  5
6A
330
1F
100
AcDbEntity
  8
_U+30EC_U+30A4_U+30E4_U+30FC 1
 62
   179
420
  2234388
370
    25
100
AcDb2dPolyline
 66
     1
 10
0.0
 20
0.0
 30
0.0
  0
VERTEX
  5
6B
330
6A
100
AcDbEntity
  8
_U+30EC_U+30A4_U+30E4_U+30FC 1
 62
   179
420
  2234388
370
    25
100
AcDbVertex
100
AcDb2dVertex
 10
88.3440907575367
 20
-174.8228453305076
 30
0.0
  0
VERTEX
  5
6C
330
6A
100
AcDbEntity
  8
_U+30EC_U+30A4_U+30E4_U+30FC 1
 62
   179
420
  2234388
370
    25
100
AcDbVertex
100
AcDb2dVertex
 10
80.84438703423227
 20
-174.8228453305076
 30
0.0
  0
SEQEND
  5
6D
330
6A
100
AcDbEntity
  8
_U+30EC_U+30A4_U+30E4_U+30FC 1
 62
   179
420
  2234388
370
    25
  0
POLYLINE
  5
6E
330
1F
100
AcDbEntity
  8
_U+30EC_U+30A4_U+30E4_U+30FC 1
 62
   179
420
  2234388
370
    25
100
AcDb2dPolyline
 66
     1
 10
0.0
 20
0.0
 30
0.0
  0
VERTEX
  5
6F
330
6E
100
AcDbEntity
  8
_U+30EC_U+30A4_U+30E4_U+30FC 1
 62
   179
420
  2234388
370
    25
100
AcDbVertex
100
AcDb2dVertex
 10
84.34450984541643
 20
-144.8226201013269
 30
0.0
  0
VERTEX
  5
70
330
6E
100
AcDbEntity
  8
_U+30EC_U+30A4_U+30E4_U+30FC 1
 62
   179
420
  2234388
370
    25
100
AcDbVertex
100
AcDb2dVertex
 10
84.34450984541643
 20
-146.014310927445
 30
0.0
  0
SEQEND
  5
71
330
6E
100
AcDbEntity
  8
_U+30EC_U+30A4_U+30E4_U+30FC 1
 62
   179
420
  2234388
370
    25
  0
POLYLINE
  5
72
330
1F
100
AcDbEntity
  8
_U+30EC_U+30A4_U+30E4_U+30FC 1
 62
   179
420
  2234388
370
    25
100
AcDb2dPolyline
 66
     1
 10
0.0
 20
0.0
 30
0.0
  0
VERTEX
  5
73
330
72
100
AcDbEntity
  8
_U+30EC_U+30A4_U+30E4_U+30FC 1
 62
   179
420
  2234388
370
    25
100
AcDbVertex
100
AcDb2dVertex
 10
80.84445970421515
 20
-144.8226201013269
 30
0.0
  0
VERTEX
  5
74
330
72
100
AcDbEntity
  8
_U+30EC_U+30A4_U+30E4_U+30FC 1
 62
   179
420
  2234388
370
    25
100
AcDbVertex
100
AcDb2dVertex
 10
80.84445970421515
 20
-174.8228453305076
 30
0.0
  0
SEQEND
  5
75
330
72
100
AcDbEntity
  8
_U+30EC_U+30A4_U+30E4_U+30FC 1
 62
   179
420
  2234388
370
    25
  0
POLYLINE
  5
76
330
1F
100
AcDbEntity
  8
_U+30EC_U+30A4_U+30E4_U+30FC 1
 62
   179
420
  2234388
370
    25
100
AcDb2dPolyline
 66
     1
 10
0.0
 20
0.0
 30
0.0
  0
VERTEX
  5
77
330
76
100
AcDbEntity
  8
_U+30EC_U+30A4_U+30E4_U+30FC 1
 62
   179
420
  2234388
370
    25
100
AcDbVertex
100
AcDb2dVertex
 10
84.34450984541643
 20
-144.8226201013269
 30
0.0
  0
VERTEX
  5
78
330
76
100
AcDbEntity
  8
_U+30EC_U+30A4_U+30E4_U+30FC 1
 62
   179
420
  2234388
370
    25
100
AcDbVertex
100
AcDb2dVertex
 10
80.84459966121925
 20
-144.8226201013269
 30
0.0
  0
SEQEND
  5
79
330
76
100
AcDbEntity
  8
_U+30EC_U+30A4_U+30E4_U+30FC 1
 62
   179
420
  2234388
370
    25
  0
POLYLINE
  5
7A
330
1F
100
AcDbEntity
  8
_U+30EC_U+30A4_U+30E4_U+30FC 1
 62
   179
420
  2234388
370
    25
100
AcDb2dPolyline
 66
     1
 10
0.0
 20
0.0
 30
0.0
  0
VERTEX
  5
7B
330
7A
100
AcDbEntity
  8
_U+30EC_U+30A4_U+30E4_U+30FC 1
 62
   179
420
  2234388
370
    25
100
AcDbVertex
100
AcDb2dVertex
 10
88.3440907575367
 20
-171.3229728270423
 30
0.0
  0
VERTEX
  5
7C
330
7A
100
AcDbEntity
  8
_U+30EC_U+30A4_U+30E4_U+30FC 1
 62
   179
420
  2234388
370
    25
100
AcDbVertex
100
AcDb2dVertex
 10
88.3440907575367
 20
-174.8228883942012
 30
0.0
  0
SEQEND
  5
7D
330
7A
100
AcDbEntity
  8
_U+30EC_U+30A4_U+30E4_U+30FC 1
 62
   179
420
  2234388
370
    25
  0
POLYLINE
  5
7E
330
1F
100
AcDbEntity
  8
_U+30EC_U+30A4_U+30E4_U+30FC 1
 62
   179
420
  2234388
370
    25
100
AcDb2dPolyline
 66
     1
 10
0.0
 20
0.0
 30
0.0
  0
VERTEX
  5
7F
330
7E
100
AcDbEntity
  8
_U+30EC_U+30A4_U+30E4_U+30FC 1
 62
   179
420
  2234388
370
    25
100
AcDbVertex
100
AcDb2dVertex
 10
82.03370935720457
 20
-146.0142678637514
 30
0.0
  0
VERTEX
  5
80
330
7E
100
AcDbEntity
  8
_U+30EC_U+30A4_U+30E4_U+30FC 1
 62
   179
420
  2234388
370
    25
100
AcDbVertex
100
AcDb2dVertex
 10
82.03370935720457
 20
-160.1380827609366
 30
0.0
  0
SEQEND
  5
81
330
7E
100
AcDbEntity
  8
_U+30EC_U+30A4_U+30E4_U+30FC 1
 62
   179
420
  2234388
370
    25
  0
POLYLINE
  5
82
330
1F
100
AcDbEntity
  8
_U+30EC_U+30A4_U+30E4_U+30FC 1
 62
   179
420
  2234388
370
    25
100
AcDb2dPolyline
 66
     1
 10
0.0
 20
0.0
 30
0.0
  0
VERTEX
  5
83
330
82
100
AcDbEntity
  8
_U+30EC_U+30A4_U+30E4_U+30FC 1
 62
   179
420
  2234388
370
    25
100
AcDbVertex
100
AcDb2dVertex
 10
94.570584082803
 20
-160.1381150587068
 30
0.0
  0
VERTEX
  5
84
330
82
100
AcDbEntity
  8
_U+30EC_U+30A4_U+30E4_U+30FC 1
 62
   179
420
  2234388
370
    25
100
AcDbVertex
100
AcDb2dVertex
 10
82.03356670871932
 20
-160.1381150587068
 30
0.0
  0
SEQEND
  5
85
330
82
100
AcDbEntity
  8
_U+30EC_U+30A4_U+30E4_U+30FC 1
 62
   179
420
  2234388
370
    25
  0
POLYLINE
  5
86
330
1F
100
AcDbEntity
  8
_U+30EC_U+30A4_U+30E4_U+30FC 1
 62
   179
420
  2234388
370
    25
100
AcDb2dPolyline
 66
     1
 10
0.0
 20
0.0
 30
0.0
  0
VERTEX
  5
87
330
86
100
AcDbEntity
  8
_U+30EC_U+30A4_U+30E4_U+30FC 1
 62
   179
420
  2234388
370
    25
100
AcDbVertex
100
AcDb2dVertex
 10
84.34450984541643
 20
-146.0139233542029
 30
0.0
  0
VERTEX
  5
88
330
86
100
AcDbEntity
  8
_U+30EC_U+30A4_U+30E4_U+30FC 1
 62
   179
420
  2234388
370
    25
100
AcDbVertex
100
AcDb2dVertex
 10
82.03381432495732
 20
-146.0139233542029
 30
0.0
  0
SEQEND
  5
89
330
86
100
AcDbEntity
  8
_U+30EC_U+30A4_U+30E4_U+30FC 1
 62
   179
420
  2234388
370
    25
  0
POLYLINE
  5
8A
330
1F
100
AcDbEntity
  8
_U+30EC_U+30A4_U+30E4_U+30FC 1
 62
   179
420
  2234388
370
    25
100
AcDb2dPolyline
 66
     1
 10
0.0
 20
0.0
 30
0.0
  0
VERTEX
  5
8B
330
8A
100
AcDbEntity
  8
_U+30EC_U+30A4_U+30E4_U+30FC 1
 62
   179
420
  2234388
370
    25
100
AcDbVertex
100
AcDb2dVertex
 10
87.12937431276491
 20
-171.3229728270423
 30
0.0
  0
VERTEX
  5
8C
330
8A
100
AcDbEntity
  8
_U+30EC_U+30A4_U+30E4_U+30FC 1
 62
   179
420
  2234388
370
    25
100
AcDbVertex
100
AcDb2dVertex
 10
87.12937431276491
 20
-173.6209699408613
 30
0.0
  0
SEQEND
  5
8D
330
8A
100
AcDbEntity
  8
_U+30EC_U+30A4_U+30E4_U+30FC 1
 62
   179
420
  2234388
370
    25
  0
POLYLINE
  5
8E
330
1F
100
AcDbEntity
  8
_U+30EC_U+30A4_U+30E4_U+30FC 1
 62
   179
420
  2234388
370
    25
100
AcDb2dPolyline
 66
     1
 10
0.0
 20
0.0
 30
0.0
  0
VERTEX
  5
8F
330
8E
100
AcDbEntity
  8
_U+30EC_U+30A4_U+30E4_U+30FC 1
 62
   179
420
  2234388
370
    25
100
AcDbVertex
100
AcDb2dVertex
 10
87.12937431276491
 20
-173.6208622816274
 30
0.0
  0
VERTEX
  5
90
330
8E
100
AcDbEntity
  8
_U+30EC_U+30A4_U+30E4_U+30FC 1
 62
   179
420
  2234388
370
    25
100
AcDbVertex
100
AcDb2dVertex
 10
82.04478749237401
 20
-173.6208622816274
 30
0.0
  0
SEQEND
  5
91
330
8E
100
AcDbEntity
  8
_U+30EC_U+30A4_U+30E4_U+30FC 1
 62
   179
420
  2234388
370
    25
  0
POLYLINE
  5
92
330
1F
100
AcDbEntity
  8
_U+30EC_U+30A4_U+30E4_U+30FC 1
 62
   179
420
  2234388
370
    25
100
AcDb2dPolyline
 66
     1
 10
0.0
 20
0.0
 30
0.0
  0
VERTEX
  5
93
330
92
100
AcDbEntity
  8
_U+30EC_U+30A4_U+30E4_U+30FC 1
 62
   179
420
  2234388
370
    25
100
AcDbVertex
100
AcDb2dVertex
 10
82.05007894372088
 20
-161.3225711843059
 30
0.0
  0
VERTEX
  5
94
330
92
100
AcDbEntity
  8
_U+30EC_U+30A4_U+30E4_U+30FC 1
 62
   179
420
  2234388
370
    25
100
AcDbVertex
100
AcDb2dVertex
 10
82.05007894372088
 20
-173.6207653883168
 30
0.0
  0
SEQEND
  5
95
330
92
100
AcDbEntity
  8
_U+30EC_U+30A4_U+30E4_U+30FC 1
 62
   179
420
  2234388
370
    25
  0
SPLINE
  5
96
330
1F
100
AcDbEntity
  8
_U+30EC_U+30A4_U+30E4_U+30FC 1
 62
   179
420
  2234388
370
     9
100
AcDbSpline
210
0.0
220
0.0
230
1.0
 70
    11
 71
     3
 72
    17
 73
    13
 74
     0
 42
0.0000000001
 43
0.0000000001
 12
1.0
 22
0.0
 32
0.0
 13
1.0
 23
0.0
 33
0.0
 40
0.0
 40
0.0
 40
0.0
 40
0.0
 40
1.0
 40
1.0
 40
1.0
 40
2.0
 40
2.0
 40
2.0
 40
3.0
 40
3.0
 40
3.0
 40
4.0
 40
4.0
 40
4.0
 40
4.0
 10
94.47032642122021
 20
-120.822200914483
 30
0.0
 10
94.47032642122021
 20
-120.7671762800299
 30
0.0
 10
94.51512881141355
 20
-120.7223685068745
 30
0.0
 10
94.57051410430063
 20
-120.7223685068745
 30
0.0
 10
94.62554412171579
 20
-120.7223685068745
 30
0.0
 10
94.67034651190913
 20
-120.7671762800299
 30
0.0
 10
94.67034651190913
 20
-120.822200914483
 30
0.0
 10
94.67034651190913
 20
-120.8772363148599
 30
0.0
 10
94.62554412171579
 20
-120.9220440880149
 30
0.0
 10
94.57051410430063
 20
-120.9220440880149
 30
0.0
 10
94.51512881141355
 20
-120.9220440880149
 30
0.0
 10
94.47032642122021
 20
-120.8772363148599
 30
0.0
 10
94.47032642122021
 20
-120.822200914483
 30
0.0
  0
SPLINE
  5
97
330
1F
100
AcDbEntity
  8
_U+30EC_U+30A4_U+30E4_U+30FC 1
 62
   179
420
  2234388
370
     9
100
AcDbSpline
210
0.0
220
0.0
230
1.0
 70
    11
 71
     3
 72
    17
 73
    13
 74
     0
 42
0.0000000001
 43
0.0000000001
 12
1.0
 22
0.0
 32
0.0
 13
1.0
 23
0.0
 33
0.0
 40
0.0
 40
0.0
 40
0.0
 40
0.0
 40
1.0
 40
1.0
 40
1.0
 40
2.0
 40
2.0
 40
2.0
 40
3.0
 40
3.0
 40
3.0
 40
4.0
 40
4.0
 40
4.0
 40
4.0
 10
95.67079147490229
 20
-120.822200914483
 30
0.0
 10
95.67079147490229
 20
-120.7671762800299
 30
0.0
 10
95.71559386509563
 20
-120.7223685068745
 30
0.0
 10
95.7706238825108
 20
-120.7223685068745
 30
0.0
 10
95.82565928288767
 20
-120.7223685068745
 30
0.0
 10
95.870461673081
 20
-120.7671762800299
 30
0.0
 10
95.870461673081
 20
-120.822200914483
 30
0.0
 10
95.870461673081
 20
-120.8772363148599
 30
0.0
 10
95.82565928288767
 20
-120.9220440880149
 30
0.0
 10
95.7706238825108
 20
-120.9220440880149
 30
0.0
 10
95.71559386509563
 20
-120.9220440880149
 30
0.0
 10
95.67079147490229
 20
-120.8772363148599
 30
0.0
 10
95.67079147490229
 20
-120.822200914483
 30
0.0
  0
SPLINE
  5
98
330
1F
100
AcDbEntity
  8
_U+30EC_U+30A4_U+30E4_U+30FC 1
 62
   179
420
  2234388
370
     9
100
AcDbSpline
210
0.0
220
0.0
230
1.0
 70
    11
 71
     3
 72
    17
 73
    13
 74
     0
 42
0.0000000001
 43
0.0000000001
 12
1.0
 22
0.0
 32
0.0
 13
1.0
 23
0.0
 33
0.0
 40
0.0
 40
0.0
 40
0.0
 40
0.0
 40
1.0
 40
1.0
 40
1.0
 40
2.0
 40
2.0
 40
2.0
 40
3.0
 40
3.0
 40
3.0
 40
4.0
 40
4.0
 40
4.0
 40
4.0
 10
134.8900868396499
 20
-124.8219244750879
 30
0.0
 10
134.8900868396499
 20
-124.7668998406345
 30
0.0
 10
134.9348838468815
 20
-124.7220920674794
 30
0.0
 10
134.9899192472584
 20
-124.7220920674794
 30
0.0
 10
135.0449546476353
 20
-124.7220920674794
 30
0.0
 10
135.0897516548669
 20
-124.7668998406345
 30
0.0
 10
135.0897516548669
 20
-124.8219244750879
 30
0.0
 10
135.0897516548669
 20
-124.8776704264086
 30
0.0
 10
135.0449546476353
 20
-124.9224674336403
 30
0.0
 10
134.9899192472584
 20
-124.9224674336403
 30
0.0
 10
134.9348838468815
 20
-124.9224674336403
 30
0.0
 10
134.8900868396499
 20
-124.8776704264086
 30
0.0
 10
134.8900868396499
 20
-124.8219244750879
 30
0.0
  0
SPLINE
  5
99
330
1F
100
AcDbEntity
  8
_U+30EC_U+30A4_U+30E4_U+30FC 1
 62
   179
420
  2234388
370
     9
100
AcDbSpline
210
0.0
220
0.0
230
1.0
 70
    11
 71
     3
 72
    17
 73
    13
 74
     0
 42
0.0000000001
 43
0.0000000001
 12
1.0
 22
0.0
 32
0.0
 13
1.0
 23
0.0
 33
0.0
 40
0.0
 40
0.0
 40
0.0
 40
0.0
 40
1.0
 40
1.0
 40
1.0
 40
2.0
 40
2.0
 40
2.0
 40
3.0
 40
3.0
 40
3.0
 40
4.0
 40
4.0
 40
4.0
 40
4.0
 10
76.74412320655588
 20
-144.8226201013269
 30
0.0
 10
76.74412320655588
 20
-144.7675954668734
 30
0.0
 10
76.78892559674922
 20
-144.7227876937184
 30
0.0
 10
76.84395830564524
 20
-144.7227876937184
 30
0.0
 10
76.89899101454127
 20
-144.7227876937184
 30
0.0
 10
76.94379340473459
 20
-144.7675954668734
 30
0.0
 10
76.94379340473459
 20
-144.8226201013269
 30
0.0
 10
76.94379340473459
 20
-144.8776555017038
 30
0.0
 10
76.89899101454127
 20
-144.9224632748591
 30
0.0
 10
76.84395830564524
 20
-144.9224632748591
 30
0.0
 10
76.78892559674922
 20
-144.9224632748591
 30
0.0
 10
76.74412320655588
 20
-144.8776555017038
 30
0.0
 10
76.74412320655588
 20
-144.8226201013269
 30
0.0
  0
SPLINE
  5
9A
330
1F
100
AcDbEntity
  8
_U+30EC_U+30A4_U+30E4_U+30FC 1
 62
   179
420
  2234388
370
     9
100
AcDbSpline
210
0.0
220
0.0
230
1.0
 70
    11
 71
     3
 72
    17
 73
    13
 74
     0
 42
0.0000000001
 43
0.0000000001
 12
1.0
 22
0.0
 32
0.0
 13
1.0
 23
0.0
 33
0.0
 40
0.0
 40
0.0
 40
0.0
 40
0.0
 40
1.0
 40
1.0
 40
1.0
 40
2.0
 40
2.0
 40
2.0
 40
3.0
 40
3.0
 40
3.0
 40
4.0
 40
4.0
 40
4.0
 40
4.0
 10
80.74388444789264
 20
-120.8220178937854
 30
0.0
 10
80.74388444789264
 20
-120.7669932593319
 30
0.0
 10
80.78868683808598
 20
-120.7221854861769
 30
0.0
 10
80.84442471496413
 20
-120.7221854861769
 30
0.0
 10
80.89945742386016
 20
-120.7221854861769
 30
0.0
 10
80.9442598140535
 20
-120.7669932593319
 30
0.0
 10
80.9442598140535
 20
-120.8220178937854
 30
0.0
 10
80.9442598140535
 20
-120.8770532941623
 30
0.0
 10
80.89945742386016
 20
-120.9218610673176
 30
0.0
 10
80.84442471496413
 20
-120.9218610673176
 30
0.0
 10
80.78868683808598
 20
-120.9218610673176
 30
0.0
 10
80.74388444789264
 20
-120.8770532941623
 30
0.0
 10
80.74388444789264
 20
-120.8220178937854
 30
0.0
  0
SPLINE
  5
9B
330
1F
100
AcDbEntity
  8
_U+30EC_U+30A4_U+30E4_U+30FC 1
 62
   179
420
  2234388
370
     9
100
AcDbSpline
210
0.0
220
0.0
230
1.0
 70
    11
 71
     3
 72
    17
 73
    13
 74
     0
 42
0.0000000001
 43
0.0000000001
 12
1.0
 22
0.0
 32
0.0
 13
1.0
 23
0.0
 33
0.0
 40
0.0
 40
0.0
 40
0.0
 40
0.0
 40
1.0
 40
1.0
 40
1.0
 40
2.0
 40
2.0
 40
2.0
 40
3.0
 40
3.0
 40
3.0
 40
4.0
 40
4.0
 40
4.0
 40
4.0
 10
84.2442494923531
 20
-120.8220178937854
 30
0.0
 10
84.2442494923531
 20
-120.7669932593319
 30
0.0
 10
84.28905188254645
 20
-120.7221854861769
 30
0.0
 10
84.34443717543354
 20
-120.7221854861769
 30
0.0
 10
84.39946988432955
 20
-120.7221854861769
 30
0.0
 10
84.44427227452289
 20
-120.7669932593319
 30
0.0
 10
84.44427227452289
 20
-120.8220178937854
 30
0.0
 10
84.44427227452289
 20
-120.8770532941623
 30
0.0
 10
84.39946988432955
 20
-120.9218610673176
 30
0.0
 10
84.34443717543354
 20
-120.9218610673176
 30
0.0
 10
84.28905188254645
 20
-120.9218610673176
 30
0.0
 10
84.2442494923531
 20
-120.8770532941623
 30
0.0
 10
84.2442494923531
 20
-120.8220178937854
 30
0.0
  0
SPLINE
  5
9C
330
1F
100
AcDbEntity
  8
_U+30EC_U+30A4_U+30E4_U+30FC 1
 62
   179
420
  2234388
370
     9
100
AcDbSpline
210
0.0
220
0.0
230
1.0
 70
    11
 71
     3
 72
    17
 73
    13
 74
     0
 42
0.0000000001
 43
0.0000000001
 12
1.0
 22
0.0
 32
0.0
 13
1.0
 23
0.0
 33
0.0
 40
0.0
 40
0.0
 40
0.0
 40
0.0
 40
1.0
 40
1.0
 40
1.0
 40
2.0
 40
2.0
 40
2.0
 40
3.0
 40
3.0
 40
3.0
 40
4.0
 40
4.0
 40
4.0
 40
4.0
 10
94.47032642122021
 20
-148.3228155824939
 30
0.0
 10
94.47032642122021
 20
-148.2677909480405
 30
0.0
 10
94.51512881141355
 20
-148.2229831748855
 30
0.0
 10
94.57051410430063
 20
-148.2229831748855
 30
0.0
 10
94.62554412171579
 20
-148.2229831748855
 30
0.0
 10
94.67034651190913
 20
-148.2677909480405
 30
0.0
 10
94.67034651190913
 20
-148.3228155824939
 30
0.0
 10
94.67034651190913
 20
-148.3778509828708
 30
0.0
 10
94.62554412171579
 20
-148.4226587560258
 30
0.0
 10
94.57051410430063
 20
-148.4226587560258
 30
0.0
 10
94.51512881141355
 20
-148.4226587560258
 30
0.0
 10
94.47032642122021
 20
-148.3778509828708
 30
0.0
 10
94.47032642122021
 20
-148.3228155824939
 30
0.0
  0
SPLINE
  5
9D
330
1F
100
AcDbEntity
  8
_U+30EC_U+30A4_U+30E4_U+30FC 1
 62
   179
420
  2234388
370
     9
100
AcDbSpline
210
0.0
220
0.0
230
1.0
 70
    11
 71
     3
 72
    17
 73
    13
 74
     0
 42
0.0000000001
 43
0.0000000001
 12
1.0
 22
0.0
 32
0.0
 13
1.0
 23
0.0
 33
0.0
 40
0.0
 40
0.0
 40
0.0
 40
0.0
 40
1.0
 40
1.0
 40
1.0
 40
2.0
 40
2.0
 40
2.0
 40
3.0
 40
3.0
 40
3.0
 40
4.0
 40
4.0
 40
4.0
 40
4.0
 10
134.8900868396499
 20
-161.3225711843059
 30
0.0
 10
134.8900868396499
 20
-161.2675465498524
 30
0.0
 10
134.9348838468815
 20
-161.2227387766974
 30
0.0
 10
134.9899192472584
 20
-161.2227387766974
 30
0.0
 10
135.0449546476353
 20
-161.2227387766974
 30
0.0
 10
135.0897516548669
 20
-161.2675465498524
 30
0.0
 10
135.0897516548669
 20
-161.3225711843059
 30
0.0
 10
135.0897516548669
 20
-161.3783171356266
 30
0.0
 10
135.0449546476353
 20
-161.4224143578378
 30
0.0
 10
134.9899192472584
 20
-161.4224143578378
 30
0.0
 10
134.9348838468815
 20
-161.4224143578378
 30
0.0
 10
134.8900868396499
 20
-161.3783171356266
 30
0.0
 10
134.8900868396499
 20
-161.3225711843059
 30
0.0
  0
SPLINE
  5
9E
330
1F
100
AcDbEntity
  8
_U+30EC_U+30A4_U+30E4_U+30FC 1
 62
   179
420
  2234388
370
     9
100
AcDbSpline
210
0.0
220
0.0
230
1.0
 70
    11
 71
     3
 72
    17
 73
    13
 74
     0
 42
0.0000000001
 43
0.0000000001
 12
1.0
 22
0.0
 32
0.0
 13
1.0
 23
0.0
 33
0.0
 40
0.0
 40
0.0
 40
0.0
 40
0.0
 40
1.0
 40
1.0
 40
1.0
 40
2.0
 40
2.0
 40
2.0
 40
3.0
 40
3.0
 40
3.0
 40
4.0
 40
4.0
 40
4.0
 40
4.0
 10
88.24418837142582
 20
-178.8226011888827
 30
0.0
 10
88.24418837142582
 20
-178.7675765544292
 30
0.0
 10
88.28899076161916
 20
-178.7227687812742
 30
0.0
 10
88.34402077903434
 20
-178.7227687812742
 30
0.0
 10
88.3990561794112
 20
-178.7227687812742
 30
0.0
 10
88.44385856960453
 20
-178.7675765544292
 30
0.0
 10
88.44385856960453
 20
-178.8226011888827
 30
0.0
 10
88.44385856960453
 20
-178.8776365892595
 30
0.0
 10
88.3990561794112
 20
-178.9224443624146
 30
0.0
 10
88.34402077903434
 20
-178.9224443624146
 30
0.0
 10
88.28899076161916
 20
-178.9224443624146
 30
0.0
 10
88.24418837142582
 20
-178.8776365892595
 30
0.0
 10
88.24418837142582
 20
-178.8226011888827
 30
0.0
  0
SPLINE
  5
9F
330
1F
100
AcDbEntity
  8
_U+30EC_U+30A4_U+30E4_U+30FC 1
 62
   179
420
  2234388
370
     9
100
AcDbSpline
210
0.0
220
0.0
230
1.0
 70
    11
 71
     3
 72
    17
 73
    13
 74
     0
 42
0.0000000001
 43
0.0000000001
 12
1.0
 22
0.0
 32
0.0
 13
1.0
 23
0.0
 33
0.0
 40
0.0
 40
0.0
 40
0.0
 40
0.0
 40
1.0
 40
1.0
 40
1.0
 40
2.0
 40
2.0
 40
2.0
 40
3.0
 40
3.0
 40
3.0
 40
4.0
 40
4.0
 40
4.0
 40
4.0
 10
134.8900868396499
 20
-174.8228453305076
 30
0.0
 10
134.8900868396499
 20
-174.7671101451103
 30
0.0
 10
134.9348838468815
 20
-174.7230129228991
 30
0.0
 10
134.9899192472584
 20
-174.7230129228991
 30
0.0
 10
135.0449546476353
 20
-174.7230129228991
 30
0.0
 10
135.0897516548669
 20
-174.7671101451103
 30
0.0
 10
135.0897516548669
 20
-174.8228453305076
 30
0.0
 10
135.0897516548669
 20
-174.8778807308845
 30
0.0
 10
135.0449546476353
 20
-174.9226885040395
 30
0.0
 10
134.9899192472584
 20
-174.9226885040395
 30
0.0
 10
134.9348838468815
 20
-174.9226885040395
 30
0.0
 10
134.8900868396499
 20
-174.8778807308845
 30
0.0
 10
134.8900868396499
 20
-174.8228453305076
 30
0.0
  0
SPLINE
  5
A0
330
1F
100
AcDbEntity
  8
_U+30EC_U+30A4_U+30E4_U+30FC 1
 62
   179
420
  2234388
370
     9
100
AcDbSpline
210
0.0
220
0.0
230
1.0
 70
    11
 71
     3
 72
    17
 73
    13
 74
     0
 42
0.0000000001
 43
0.0000000001
 12
1.0
 22
0.0
 32
0.0
 13
1.0
 23
0.0
 33
0.0
 40
0.0
 40
0.0
 40
0.0
 40
0.0
 40
1.0
 40
1.0
 40
1.0
 40
2.0
 40
2.0
 40
2.0
 40
3.0
 40
3.0
 40
3.0
 40
4.0
 40
4.0
 40
4.0
 40
4.0
 10
134.8900868396499
 20
-171.3229728270423
 30
0.0
 10
134.8900868396499
 20
-171.267237641645
 30
0.0
 10
134.9348838468815
 20
-171.2224406344134
 30
0.0
 10
134.9899192472584
 20
-171.2224406344134
 30
0.0
 10
135.0449546476353
 20
-171.2224406344134
 30
0.0
 10
135.0897516548669
 20
-171.267237641645
 30
0.0
 10
135.0897516548669
 20
-171.3229728270423
 30
0.0
 10
135.0897516548669
 20
-171.3780082274192
 30
0.0
 10
135.0449546476353
 20
-171.4228160005742
 30
0.0
 10
134.9899192472584
 20
-171.4228160005742
 30
0.0
 10
134.9348838468815
 20
-171.4228160005742
 30
0.0
 10
134.8900868396499
 20
-171.3780082274192
 30
0.0
 10
134.8900868396499
 20
-171.3229728270423
 30
0.0
  0
SPLINE
  5
A1
330
1F
100
AcDbEntity
  8
_U+30EC_U+30A4_U+30E4_U+30FC 1
 62
   179
420
  2234388
370
     9
100
AcDbSpline
210
0.0
220
0.0
230
1.0
 70
    11
 71
     3
 72
    17
 73
    13
 74
     0
 42
0.0000000001
 43
0.0000000001
 12
1.0
 22
0.0
 32
0.0
 13
1.0
 23
0.0
 33
0.0
 40
0.0
 40
0.0
 40
0.0
 40
0.0
 40
1.0
 40
1.0
 40
1.0
 40
2.0
 40
2.0
 40
2.0
 40
3.0
 40
3.0
 40
3.0
 40
4.0
 40
4.0
 40
4.0
 40
4.0
 10
76.74412320655588
 20
-174.8228453305076
 30
0.0
 10
76.74412320655588
 20
-174.7671101451103
 30
0.0
 10
76.78892559674922
 20
-174.7230129228991
 30
0.0
 10
76.84395830564524
 20
-174.7230129228991
 30
0.0
 10
76.89899101454127
 20
-174.7230129228991
 30
0.0
 10
76.94379340473459
 20
-174.7671101451103
 30
0.0
 10
76.94379340473459
 20
-174.8228453305076
 30
0.0
 10
76.94379340473459
 20
-174.8778807308845
 30
0.0
 10
76.89899101454127
 20
-174.9226885040395
 30
0.0
 10
76.84395830564524
 20
-174.9226885040395
 30
0.0
 10
76.78892559674922
 20
-174.9226885040395
 30
0.0
 10
76.74412320655588
 20
-174.8778807308845
 30
0.0
 10
76.74412320655588
 20
-174.8228453305076
 30
0.0
  0
SPLINE
  5
A2
330
1F
100
AcDbEntity
  8
_U+30EC_U+30A4_U+30E4_U+30FC 1
 62
   179
420
  2234388
370
     9
100
AcDbSpline
210
0.0
220
0.0
230
1.0
 70
    11
 71
     3
 72
    17
 73
    13
 74
     0
 42
0.0000000001
 43
0.0000000001
 12
1.0
 22
0.0
 32
0.0
 13
1.0
 23
0.0
 33
0.0
 40
0.0
 40
0.0
 40
0.0
 40
0.0
 40
1.0
 40
1.0
 40
1.0
 40
2.0
 40
2.0
 40
2.0
 40
3.0
 40
3.0
 40
3.0
 40
4.0
 40
4.0
 40
4.0
 40
4.0
 10
80.74388444789264
 20
-178.8226011888827
 30
0.0
 10
80.74388444789264
 20
-178.7675765544292
 30
0.0
 10
80.78868683808598
 20
-178.7227687812742
 30
0.0
 10
80.84442471496413
 20
-178.7227687812742
 30
0.0
 10
80.89945742386016
 20
-178.7227687812742
 30
0.0
 10
80.9442598140535
 20
-178.7675765544292
 30
0.0
 10
80.9442598140535
 20
-178.8226011888827
 30
0.0
 10
80.9442598140535
 20
-178.8776365892595
 30
0.0
 10
80.89945742386016
 20
-178.9224443624146
 30
0.0
 10
80.84442471496413
 20
-178.9224443624146
 30
0.0
 10
80.78868683808598
 20
-178.9224443624146
 30
0.0
 10
80.74388444789264
 20
-178.8776365892595
 30
0.0
 10
80.74388444789264
 20
-178.8226011888827
 30
0.0
  0
POLYLINE
  5
A3
330
1F
100
AcDbEntity
  8
_U+30EC_U+30A4_U+30E4_U+30FC 1
 62
   179
420
  2234388
370
     9
100
AcDb2dPolyline
 66
     1
 10
0.0
 20
0.0
 30
0.0
  0
VERTEX
  5
A4
330
A3
100
AcDbEntity
  8
_U+30EC_U+30A4_U+30E4_U+30FC 1
 62
   179
420
  2234388
370
     9
100
AcDbVertex
100
AcDb2dVertex
 10
95.77069924397453
 20
-120.822200914483
 30
0.0
  0
VERTEX
  5
A5
330
A3
100
AcDbEntity
  8
_U+30EC_U+30A4_U+30E4_U+30FC 1
 62
   179
420
  2234388
370
     9
100
AcDbVertex
100
AcDb2dVertex
 10
130.570814523903
 20
-120.822200914483
 30
0.0
  0
SEQEND
  5
A6
330
A3
100
AcDbEntity
  8
_U+30EC_U+30A4_U+30E4_U+30FC 1
 62
   179
420
  2234388
370
     9
  0
POLYLINE
  5
A7
330
1F
100
AcDbEntity
  8
_U+30EC_U+30A4_U+30E4_U+30FC 1
 62
   179
420
  2234388
370
     9
100
AcDb2dPolyline
 66
     1
 10
0.0
 20
0.0
 30
0.0
  0
VERTEX
  5
A8
330
A7
100
AcDbEntity
  8
_U+30EC_U+30A4_U+30E4_U+30FC 1
 62
   179
420
  2234388
370
     9
100
AcDbVertex
100
AcDb2dVertex
 10
95.77069924397453
 20
-122.2822000833617
 30
0.0
  0
VERTEX
  5
A9
330
A7
100
AcDbEntity
  8
_U+30EC_U+30A4_U+30E4_U+30FC 1
 62
   179
420
  2234388
370
     9
100
AcDbVertex
100
AcDb2dVertex
 10
95.77069924397453
 20
-119.8222834817361
 30
0.0
  0
SEQEND
  5
AA
330
A7
100
AcDbEntity
  8
_U+30EC_U+30A4_U+30E4_U+30FC 1
 62
   179
420
  2234388
370
     9
  0
POLYLINE
  5
AB
330
1F
100
AcDbEntity
  8
_U+30EC_U+30A4_U+30E4_U+30FC 1
 62
   179
420
  2234388
370
     9
100
AcDb2dPolyline
 66
     1
 10
0.0
 20
0.0
 30
0.0
  0
VERTEX
  5
AC
330
AB
100
AcDbEntity
  8
_U+30EC_U+30A4_U+30E4_U+30FC 1
 62
   179
420
  2234388
370
     9
100
AcDbVertex
100
AcDb2dVertex
 10
130.5706422691287
 20
-158.2505472423384
 30
0.0
  0
VERTEX
  5
AD
330
AB
100
AcDbEntity
  8
_U+30EC_U+30A4_U+30E4_U+30FC 1
 62
   179
420
  2234388
370
     9
100
AcDbVertex
100
AcDb2dVertex
 10
130.5706422691287
 20
-119.8224665024337
 30
0.0
  0
SEQEND
  5
AE
330
AB
100
AcDbEntity
  8
_U+30EC_U+30A4_U+30E4_U+30FC 1
 62
   179
420
  2234388
370
     9
  0
POLYLINE
  5
AF
330
1F
100
AcDbEntity
  8
_U+30EC_U+30A4_U+30E4_U+30FC 1
 62
   179
420
  2234388
370
     9
100
AcDb2dPolyline
 66
     1
 10
0.0
 20
0.0
 30
0.0
  0
VERTEX
  5
B0
330
AF
100
AcDbEntity
  8
_U+30EC_U+30A4_U+30E4_U+30FC 1
 62
   179
420
  2234388
370
     9
100
AcDbVertex
100
AcDb2dVertex
 10
94.570584082803
 20
-122.2822000833617
 30
0.0
  0
VERTEX
  5
B1
330
AF
100
AcDbEntity
  8
_U+30EC_U+30A4_U+30E4_U+30FC 1
 62
   179
420
  2234388
370
     9
100
AcDbVertex
100
AcDb2dVertex
 10
94.570584082803
 20
-119.8222834817361
 30
0.0
  0
SEQEND
  5
B2
330
AF
100
AcDbEntity
  8
_U+30EC_U+30A4_U+30E4_U+30FC 1
 62
   179
420
  2234388
370
     9
  0
POLYLINE
  5
B3
330
1F
100
AcDbEntity
  8
_U+30EC_U+30A4_U+30E4_U+30FC 1
 62
   179
420
  2234388
370
     9
100
AcDb2dPolyline
 66
     1
 10
0.0
 20
0.0
 30
0.0
  0
VERTEX
  5
B4
330
B3
100
AcDbEntity
  8
_U+30EC_U+30A4_U+30E4_U+30FC 1
 62
   179
420
  2234388
370
     9
100
AcDbVertex
100
AcDb2dVertex
 10
84.34450984541643
 20
-120.8220178937854
 30
0.0
  0
VERTEX
  5
B5
330
B3
100
AcDbEntity
  8
_U+30EC_U+30A4_U+30E4_U+30FC 1
 62
   179
420
  2234388
370
     9
100
AcDbVertex
100
AcDb2dVertex
 10
80.84459966121925
 20
-120.8220178937854
 30
0.0
  0
SEQEND
  5
B6
330
B3
100
AcDbEntity
  8
_U+30EC_U+30A4_U+30E4_U+30FC 1
 62
   179
420
  2234388
370
     9
  0
POLYLINE
  5
B7
330
1F
100
AcDbEntity
  8
_U+30EC_U+30A4_U+30E4_U+30FC 1
 62
   179
420
  2234388
370
     9
100
AcDb2dPolyline
 66
     1
 10
0.0
 20
0.0
 30
0.0
  0
VERTEX
  5
B8
330
B7
100
AcDbEntity
  8
_U+30EC_U+30A4_U+30E4_U+30FC 1
 62
   179
420
  2234388
370
     9
100
AcDbVertex
100
AcDb2dVertex
 10
84.34450984541643
 20
-142.2828311140607
 30
0.0
  0
VERTEX
  5
B9
330
B7
100
AcDbEntity
  8
_U+30EC_U+30A4_U+30E4_U+30FC 1
 62
   179
420
  2234388
370
     9
100
AcDbVertex
100
AcDb2dVertex
 10
84.34450984541643
 20
-119.8221758225021
 30
0.0
  0
SEQEND
  5
BA
330
B7
100
AcDbEntity
  8
_U+30EC_U+30A4_U+30E4_U+30FC 1
 62
   179
420
  2234388
370
     9
  0
POLYLINE
  5
BB
330
1F
100
AcDbEntity
  8
_U+30EC_U+30A4_U+30E4_U+30FC 1
 62
   179
420
  2234388
370
     9
100
AcDb2dPolyline
 66
     1
 10
0.0
 20
0.0
 30
0.0
  0
VERTEX
  5
BC
330
BB
100
AcDbEntity
  8
_U+30EC_U+30A4_U+30E4_U+30FC 1
 62
   179
420
  2234388
370
     9
100
AcDbVertex
100
AcDb2dVertex
 10
80.84445970421515
 20
-142.2828311140607
 30
0.0
  0
VERTEX
  5
BD
330
BB
100
AcDbEntity
  8
_U+30EC_U+30A4_U+30E4_U+30FC 1
 62
   179
420
  2234388
370
     9
100
AcDbVertex
100
AcDb2dVertex
 10
80.84445970421515
 20
-119.8221758225021
 30
0.0
  0
SEQEND
  5
BE
330
BB
100
AcDbEntity
  8
_U+30EC_U+30A4_U+30E4_U+30FC 1
 62
   179
420
  2234388
370
     9
  0
POLYLINE
  5
BF
330
1F
100
AcDbEntity
  8
_U+30EC_U+30A4_U+30E4_U+30FC 1
 62
   179
420
  2234388
370
     9
100
AcDb2dPolyline
 66
     1
 10
0.0
 20
0.0
 30
0.0
  0
VERTEX
  5
C0
330
BF
100
AcDbEntity
  8
_U+30EC_U+30A4_U+30E4_U+30FC 1
 62
   179
420
  2234388
370
     9
100
AcDbVertex
100
AcDb2dVertex
 10
84.34450984541643
 20
-120.8220178937854
 30
0.0
  0
VERTEX
  5
C1
330
BF
100
AcDbEntity
  8
_U+30EC_U+30A4_U+30E4_U+30FC 1
 62
   179
420
  2234388
370
     9
100
AcDbVertex
100
AcDb2dVertex
 10
94.57047642356876
 20
-120.8220178937854
 30
0.0
  0
SEQEND
  5
C2
330
BF
100
AcDbEntity
  8
_U+30EC_U+30A4_U+30E4_U+30FC 1
 62
   179
420
  2234388
370
     9
  0
POLYLINE
  5
C3
330
1F
100
AcDbEntity
  8
_U+30EC_U+30A4_U+30E4_U+30FC 1
 62
   179
420
  2234388
370
     9
100
AcDb2dPolyline
 66
     1
 10
0.0
 20
0.0
 30
0.0
  0
VERTEX
  5
C4
330
C3
100
AcDbEntity
  8
_U+30EC_U+30A4_U+30E4_U+30FC 1
 62
   179
420
  2234388
370
     9
100
AcDbVertex
100
AcDb2dVertex
 10
88.3440907575367
 20
-178.8226011888827
 30
0.0
  0
VERTEX
  5
C5
330
C3
100
AcDbEntity
  8
_U+30EC_U+30A4_U+30E4_U+30FC 1
 62
   179
420
  2234388
370
     9
100
AcDbVertex
100
AcDb2dVertex
 10
80.84438703423227
 20
-178.8226011888827
 30
0.0
  0
SEQEND
  5
C6
330
C3
100
AcDbEntity
  8
_U+30EC_U+30A4_U+30E4_U+30FC 1
 62
   179
420
  2234388
370
     9
  0
POLYLINE
  5
C7
330
1F
100
AcDbEntity
  8
_U+30EC_U+30A4_U+30E4_U+30FC 1
 62
   179
420
  2234388
370
     9
100
AcDb2dPolyline
 66
     1
 10
0.0
 20
0.0
 30
0.0
  0
VERTEX
  5
C8
330
C7
100
AcDbEntity
  8
_U+30EC_U+30A4_U+30E4_U+30FC 1
 62
   179
420
  2234388
370
     9
100
AcDbVertex
100
AcDb2dVertex
 10
88.3440907575367
 20
-177.3625589563104
 30
0.0
  0
VERTEX
  5
C9
330
C7
100
AcDbEntity
  8
_U+30EC_U+30A4_U+30E4_U+30FC 1
 62
   179
420
  2234388
370
     9
100
AcDbVertex
100
AcDb2dVertex
 10
88.3440907575367
 20
-179.8224863238595
 30
0.0
  0
SEQEND
  5
CA
330
C7
100
AcDbEntity
  8
_U+30EC_U+30A4_U+30E4_U+30FC 1
 62
   179
420
  2234388
370
     9
  0
POLYLINE
  5
CB
330
1F
100
AcDbEntity
  8
_U+30EC_U+30A4_U+30E4_U+30FC 1
 62
   179
420
  2234388
370
     9
100
AcDb2dPolyline
 66
     1
 10
0.0
 20
0.0
 30
0.0
  0
VERTEX
  5
CC
330
CB
100
AcDbEntity
  8
_U+30EC_U+30A4_U+30E4_U+30FC 1
 62
   179
420
  2234388
370
     9
100
AcDbVertex
100
AcDb2dVertex
 10
80.84445970421515
 20
-177.3625589563104
 30
0.0
  0
VERTEX
  5
CD
330
CB
100
AcDbEntity
  8
_U+30EC_U+30A4_U+30E4_U+30FC 1
 62
   179
420
  2234388
370
     9
100
AcDbVertex
100
AcDb2dVertex
 10
80.84445970421515
 20
-179.8224863238595
 30
0.0
  0
SEQEND
  5
CE
330
CB
100
AcDbEntity
  8
_U+30EC_U+30A4_U+30E4_U+30FC 1
 62
   179
420
  2234388
370
     9
  0
POLYLINE
  5
CF
330
1F
100
AcDbEntity
  8
_U+30EC_U+30A4_U+30E4_U+30FC 1
 62
   179
420
  2234388
370
     9
100
AcDb2dPolyline
 66
     1
 10
0.0
 20
0.0
 30
0.0
  0
VERTEX
  5
D0
330
CF
100
AcDbEntity
  8
_U+30EC_U+30A4_U+30E4_U+30FC 1
 62
   179
420
  2234388
370
     9
100
AcDbVertex
100
AcDb2dVertex
 10
76.84403097562813
 20
-174.8228453305076
 30
0.0
  0
VERTEX
  5
D1
330
CF
100
AcDbEntity
  8
_U+30EC_U+30A4_U+30E4_U+30FC 1
 62
   179
420
  2234388
370
     9
100
AcDbVertex
100
AcDb2dVertex
 10
76.84403097562813
 20
-144.8226308672503
 30
0.0
  0
SEQEND
  5
D2
330
CF
100
AcDbEntity
  8
_U+30EC_U+30A4_U+30E4_U+30FC 1
 62
   179
420
  2234388
370
     9
  0
POLYLINE
  5
D3
330
1F
100
AcDbEntity
  8
_U+30EC_U+30A4_U+30E4_U+30FC 1
 62
   179
420
  2234388
370
     9
100
AcDb2dPolyline
 66
     1
 10
0.0
 20
0.0
 30
0.0
  0
VERTEX
  5
D4
330
D3
100
AcDbEntity
  8
_U+30EC_U+30A4_U+30E4_U+30FC 1
 62
   179
420
  2234388
370
     9
100
AcDbVertex
100
AcDb2dVertex
 10
78.3040732082004
 20
-174.8228453305076
 30
0.0
  0
VERTEX
  5
D5
330
D3
100
AcDbEntity
  8
_U+30EC_U+30A4_U+30E4_U+30FC 1
 62
   179
420
  2234388
370
     9
100
AcDbVertex
100
AcDb2dVertex
 10
75.84415122361303
 20
-174.8228453305076
 30
0.0
  0
SEQEND
  5
D6
330
D3
100
AcDbEntity
  8
_U+30EC_U+30A4_U+30E4_U+30FC 1
 62
   179
420
  2234388
370
     9
  0
POLYLINE
  5
D7
330
1F
100
AcDbEntity
  8
_U+30EC_U+30A4_U+30E4_U+30FC 1
 62
   179
420
  2234388
370
     9
100
AcDb2dPolyline
 66
     1
 10
0.0
 20
0.0
 30
0.0
  0
VERTEX
  5
D8
330
D7
100
AcDbEntity
  8
_U+30EC_U+30A4_U+30E4_U+30FC 1
 62
   179
420
  2234388
370
     9
100
AcDbVertex
100
AcDb2dVertex
 10
78.3040732082004
 20
-144.8226201013269
 30
0.0
  0
VERTEX
  5
D9
330
D7
100
AcDbEntity
  8
_U+30EC_U+30A4_U+30E4_U+30FC 1
 62
   179
420
  2234388
370
     9
100
AcDbVertex
100
AcDb2dVertex
 10
75.84415122361303
 20
-144.8226201013269
 30
0.0
  0
SEQEND
  5
DA
330
D7
100
AcDbEntity
  8
_U+30EC_U+30A4_U+30E4_U+30FC 1
 62
   179
420
  2234388
370
     9
  0
POLYLINE
  5
DB
330
1F
100
AcDbEntity
  8
_U+30EC_U+30A4_U+30E4_U+30FC 1
 62
   179
420
  2234388
370
     9
100
AcDb2dPolyline
 66
     1
 10
0.0
 20
0.0
 30
0.0
  0
VERTEX
  5
DC
330
DB
100
AcDbEntity
  8
_U+30EC_U+30A4_U+30E4_U+30FC 1
 62
   179
420
  2234388
370
     9
100
AcDbVertex
100
AcDb2dVertex
 10
134.9899946087221
 20
-171.3229728270423
 30
0.0
  0
VERTEX
  5
DD
330
DB
100
AcDbEntity
  8
_U+30EC_U+30A4_U+30E4_U+30FC 1
 62
   179
420
  2234388
370
     9
100
AcDbVertex
100
AcDb2dVertex
 10
134.9899946087221
 20
-174.8228883942012
 30
0.0
  0
SEQEND
  5
DE
330
DB
100
AcDbEntity
  8
_U+30EC_U+30A4_U+30E4_U+30FC 1
 62
   179
420
  2234388
370
     9
  0
POLYLINE
  5
DF
330
1F
100
AcDbEntity
  8
_U+30EC_U+30A4_U+30E4_U+30FC 1
 62
   179
420
  2234388
370
     9
100
AcDb2dPolyline
 66
     1
 10
0.0
 20
0.0
 30
0.0
  0
VERTEX
  5
E0
330
DF
100
AcDbEntity
  8
_U+30EC_U+30A4_U+30E4_U+30FC 1
 62
   179
420
  2234388
370
     9
100
AcDbVertex
100
AcDb2dVertex
 10
133.52998467392
 20
-171.3229728270423
 30
0.0
  0
VERTEX
  5
E1
330
DF
100
AcDbEntity
  8
_U+30EC_U+30A4_U+30E4_U+30FC 1
 62
   179
420
  2234388
370
     9
100
AcDbVertex
100
AcDb2dVertex
 10
135.9906010605661
 20
-171.3229728270423
 30
0.0
  0
SEQEND
  5
E2
330
DF
100
AcDbEntity
  8
_U+30EC_U+30A4_U+30E4_U+30FC 1
 62
   179
420
  2234388
370
     9
  0
POLYLINE
  5
E3
330
1F
100
AcDbEntity
  8
_U+30EC_U+30A4_U+30E4_U+30FC 1
 62
   179
420
  2234388
370
     9
100
AcDb2dPolyline
 66
     1
 10
0.0
 20
0.0
 30
0.0
  0
VERTEX
  5
E4
330
E3
100
AcDbEntity
  8
_U+30EC_U+30A4_U+30E4_U+30FC 1
 62
   179
420
  2234388
370
     9
100
AcDbVertex
100
AcDb2dVertex
 10
133.52998467392
 20
-174.8228453305076
 30
0.0
  0
VERTEX
  5
E5
330
E3
100
AcDbEntity
  8
_U+30EC_U+30A4_U+30E4_U+30FC 1
 62
   179
420
  2234388
370
     9
100
AcDbVertex
100
AcDb2dVertex
 10
135.9906010605661
 20
-174.8228453305076
 30
0.0
  0
SEQEND
  5
E6
330
E3
100
AcDbEntity
  8
_U+30EC_U+30A4_U+30E4_U+30FC 1
 62
   179
420
  2234388
370
     9
  0
POLYLINE
  5
E7
330
1F
100
AcDbEntity
  8
_U+30EC_U+30A4_U+30E4_U+30FC 1
 62
   179
420
  2234388
370
     9
100
AcDb2dPolyline
 66
     1
 10
0.0
 20
0.0
 30
0.0
  0
VERTEX
  5
E8
330
E7
100
AcDbEntity
  8
_U+30EC_U+30A4_U+30E4_U+30FC 1
 62
   179
420
  2234388
370
     9
100
AcDbVertex
100
AcDb2dVertex
 10
134.9899946087221
 20
-171.3229728270423
 30
0.0
  0
VERTEX
  5
E9
330
E7
100
AcDbEntity
  8
_U+30EC_U+30A4_U+30E4_U+30FC 1
 62
   179
420
  2234388
370
     9
100
AcDbVertex
100
AcDb2dVertex
 10
134.9899946087221
 20
-161.3224312273018
 30
0.0
  0
SEQEND
  5
EA
330
E7
100
AcDbEntity
  8
_U+30EC_U+30A4_U+30E4_U+30FC 1
 62
   179
420
  2234388
370
     9
  0
POLYLINE
  5
EB
330
1F
100
AcDbEntity
  8
_U+30EC_U+30A4_U+30E4_U+30FC 1
 62
   179
420
  2234388
370
     9
100
AcDb2dPolyline
 66
     1
 10
0.0
 20
0.0
 30
0.0
  0
VERTEX
  5
EC
330
EB
100
AcDbEntity
  8
_U+30EC_U+30A4_U+30E4_U+30FC 1
 62
   179
420
  2234388
370
     9
100
AcDbVertex
100
AcDb2dVertex
 10
134.9899946087221
 20
-161.3228833960842
 30
0.0
  0
VERTEX
  5
ED
330
EB
100
AcDbEntity
  8
_U+30EC_U+30A4_U+30E4_U+30FC 1
 62
   179
420
  2234388
370
     9
100
AcDbVertex
100
AcDb2dVertex
 10
134.9899946087221
 20
-160.1230965955758
 30
0.0
  0
SEQEND
  5
EE
330
EB
100
AcDbEntity
  8
_U+30EC_U+30A4_U+30E4_U+30FC 1
 62
   179
420
  2234388
370
     9
  0
POLYLINE
  5
EF
330
1F
100
AcDbEntity
  8
_U+30EC_U+30A4_U+30E4_U+30FC 1
 62
   179
420
  2234388
370
     9
100
AcDb2dPolyline
 66
     1
 10
0.0
 20
0.0
 30
0.0
  0
VERTEX
  5
F0
330
EF
100
AcDbEntity
  8
_U+30EC_U+30A4_U+30E4_U+30FC 1
 62
   179
420
  2234388
370
     9
100
AcDbVertex
100
AcDb2dVertex
 10
133.6141957266876
 20
-161.3225711843059
 30
0.0
  0
VERTEX
  5
F1
330
EF
100
AcDbEntity
  8
_U+30EC_U+30A4_U+30E4_U+30FC 1
 62
   179
420
  2234388
370
     9
100
AcDbVertex
100
AcDb2dVertex
 10
135.9905041672556
 20
-161.3225711843059
 30
0.0
  0
SEQEND
  5
F2
330
EF
100
AcDbEntity
  8
_U+30EC_U+30A4_U+30E4_U+30FC 1
 62
   179
420
  2234388
370
     9
  0
POLYLINE
  5
F3
330
1F
100
AcDbEntity
  8
_U+30EC_U+30A4_U+30E4_U+30FC 1
 62
   179
420
  2234388
370
     9
100
AcDb2dPolyline
 66
     1
 10
0.0
 20
0.0
 30
0.0
  0
VERTEX
  5
F4
330
F3
100
AcDbEntity
  8
_U+30EC_U+30A4_U+30E4_U+30FC 1
 62
   179
420
  2234388
370
     9
100
AcDbVertex
100
AcDb2dVertex
 10
133.6141957266876
 20
-160.12263366087
 30
0.0
  0
VERTEX
  5
F5
330
F3
100
AcDbEntity
  8
_U+30EC_U+30A4_U+30E4_U+30FC 1
 62
   179
420
  2234388
370
     9
100
AcDbVertex
100
AcDb2dVertex
 10
135.9905041672556
 20
-160.12263366087
 30
0.0
  0
SEQEND
  5
F6
330
F3
100
AcDbEntity
  8
_U+30EC_U+30A4_U+30E4_U+30FC 1
 62
   179
420
  2234388
370
     9
  0
POLYLINE
  5
F7
330
1F
100
AcDbEntity
  8
_U+30EC_U+30A4_U+30E4_U+30FC 1
 62
   179
420
  2234388
370
     9
100
AcDb2dPolyline
 66
     1
 10
0.0
 20
0.0
 30
0.0
  0
VERTEX
  5
F8
330
F7
100
AcDbEntity
  8
_U+30EC_U+30A4_U+30E4_U+30FC 1
 62
   179
420
  2234388
370
     9
100
AcDbVertex
100
AcDb2dVertex
 10
134.9899946087221
 20
-160.12263366087
 30
0.0
  0
VERTEX
  5
F9
330
F7
100
AcDbEntity
  8
_U+30EC_U+30A4_U+30E4_U+30FC 1
 62
   179
420
  2234388
370
     9
100
AcDbVertex
100
AcDb2dVertex
 10
134.9899946087221
 20
-124.8219244750879
 30
0.0
  0
SEQEND
  5
FA
330
F7
100
AcDbEntity
  8
_U+30EC_U+30A4_U+30E4_U+30FC 1
 62
   179
420
  2234388
370
     9
  0
POLYLINE
  5
FB
330
1F
100
AcDbEntity
  8
_U+30EC_U+30A4_U+30E4_U+30FC 1
 62
   179
420
  2234388
370
     9
100
AcDb2dPolyline
 66
     1
 10
0.0
 20
0.0
 30
0.0
  0
VERTEX
  5
FC
330
FB
100
AcDbEntity
  8
_U+30EC_U+30A4_U+30E4_U+30FC 1
 62
   179
420
  2234388
370
     9
100
AcDbVertex
100
AcDb2dVertex
 10
97.77038338654103
 20
-124.8219244750879
 30
0.0
  0
VERTEX
  5
FD
330
FB
100
AcDbEntity
  8
_U+30EC_U+30A4_U+30E4_U+30FC 1
 62
   179
420
  2234388
370
     9
100
AcDbVertex
100
AcDb2dVertex
 10
135.990321146558
 20
-124.8219244750879
 30
0.0
  0
SEQEND
  5
FE
330
FB
100
AcDbEntity
  8
_U+30EC_U+30A4_U+30E4_U+30FC 1
 62
   179
420
  2234388
370
     9
  0
INSERT
  5
100
330
1F
100
AcDbEntity
  8
_U+30EC_U+30A4_U+30E4_U+30FC 1
100
AcDbBlockReference
  2
block 2
 10
0.0
 20
0.0
 30
0.0
  0
INSERT
  5
110
330
1F
100
AcDbEntity
  8
_U+30EC_U+30A4_U+30E4_U+30FC 1
100
AcDbBlockReference
  2
block 3
 10
0.0
 20
0.0
 30
0.0
  0
INSERT
  5
119
330
1F
100
AcDbEntity
  8
_U+30EC_U+30A4_U+30E4_U+30FC 1
100
AcDbBlockReference
  2
block 4
 10
0.0
 20
0.0
 30
0.0
  0
INSERT
  5
140
330
1F
100
AcDbEntity
  8
_U+30EC_U+30A4_U+30E4_U+30FC 1
100
AcDbBlockReference
  2
block 5
 10
0.0
 20
0.0
 30
0.0
  0
INSERT
  5
150
330
1F
100
AcDbEntity
  8
_U+30EC_U+30A4_U+30E4_U+30FC 1
100
AcDbBlockReference
  2
block 6
 10
0.0
 20
0.0
 30
0.0
  0
INSERT
  5
159
330
1F
100
AcDbEntity
  8
_U+30EC_U+30A4_U+30E4_U+30FC 1
100
AcDbBlockReference
  2
block 7
 10
0.0
 20
0.0
 30
0.0
  0
INSERT
  5
169
330
1F
100
AcDbEntity
  8
_U+30EC_U+30A4_U+30E4_U+30FC 1
100
AcDbBlockReference
  2
block 8
 10
0.0
 20
0.0
 30
0.0
  0
INSERT
  5
179
330
1F
100
AcDbEntity
  8
_U+30EC_U+30A4_U+30E4_U+30FC 1
100
AcDbBlockReference
  2
block 9
 10
0.0
 20
0.0
 30
0.0
  0
INSERT
  5
182
330
1F
100
AcDbEntity
  8
_U+30EC_U+30A4_U+30E4_U+30FC 1
100
AcDbBlockReference
  2
block 10
 10
0.0
 20
0.0
 30
0.0
  0
ENDSEC
  0
SECTION
  2
OBJECTS
  0
DICTIONARY
  5
C
330
0
100
AcDbDictionary
281
     1
  3
ACAD_GROUP
350
D
  3
ACAD_LAYOUT
350
1A
  3
ACAD_MATERIAL
350
3B
  3
ACAD_MLEADERSTYLE
350
194
  3
ACAD_MLINESTYLE
350
17
  3
ACAD_PLOTSETTINGS
350
19
  3
ACAD_PLOTSTYLENAME
350
E
  3
ACAD_TABLESTYLE
350
193
  3
ACAD_VISUALSTYLE
350
2A
  0
SUN
  5
3F
330
29
100
AcDbSun
 90
        1
290
     0
 63
     7
421
 16777215
 40
1.0
291
     1
 91
  2455826
 92
 54000000
292
     0
 70
     2
 71
   256
280
     1
  0
DICTIONARY
  5
D
102
{ACAD_REACTORS
330
C
102
}
330
C
100
AcDbDictionary
281
     1
  0
DICTIONARY
  5
1A
102
{ACAD_REACTORS
330
C
102
}
330
C
100
AcDbDictionary
281
     1
  3
Layout1
350
1E
  3
Layout2
350
26
  3
Model
350
22
  0
DICTIONARY
  5
3B
102
{ACAD_REACTORS
330
C
102
}
330
C
100
AcDbDictionary
281
     1
  3
ByBlock
350
3D
  3
ByLayer
350
3C
  3
Global
350
3E
  0
DICTIONARY
  5
194
102
{ACAD_REACTORS
330
C
102
}
330
C
100
AcDbDictionary
281
     1
  0
DICTIONARY
  5
17
102
{ACAD_REACTORS
330
C
102
}
330
C
100
AcDbDictionary
281
     1
  3
Standard
350
18
  0
DICTIONARY
  5
19
102
{ACAD_REACTORS
330
C
102
}
330
C
100
AcDbDictionary
281
     1
  0
ACDBDICTIONARYWDFLT
  5
E
102
{ACAD_REACTORS
330
C
102
}
330
C
100
AcDbDictionary
281
     1
  3
Normal
350
F
100
AcDbDictionaryWithDefault
340
F
  0
DICTIONARY
  5
193
102
{ACAD_REACTORS
330
C
102
}
330
C
100
AcDbDictionary
281
     1
  0
DICTIONARY
  5
2A
102
{ACAD_REACTORS
330
C
102
}
330
C
100
AcDbDictionary
281
     1
  3
2dWireframe
350
2F
  3
3D Hidden
350
31
  3
3dWireframe
350
30
  3
Basic
350
32
  3
Brighten
350
36
  3
ColorChange
350
3A
  3
Conceptual
350
34
  3
Dim
350
35
  3
Facepattern
350
39
  3
Flat
350
2B
  3
FlatWithEdges
350
2C
  3
Gouraud
350
2D
  3
GouraudWithEdges
350
2E
  3
Linepattern
350
38
  3
Realistic
350
33
  3
Thicken
350
37
  0
LAYOUT
  5
1E
102
{ACAD_REACTORS
330
1A
102
}
330
1A
100
AcDbPlotSettings
  1

  2
none_device
  4

  6

 40
0.0
 41
0.0
 42
0.0
 43
0.0
 44
0.0
 45
0.0
 46
0.0
 47
0.0
 48
0.0
 49
0.0
140
0.0
141
0.0
142
1.0
143
1.0
 70
   688
 72
     0
 73
     0
 74
     5
  7

 75
    16
 76
     0
 77
     2
 78
   300
147
1.0
148
0.0
149
0.0
100
AcDbLayout
  1
Layout1
 70
     1
 71
     1
 10
0.0
 20
0.0
 11
12.0
 21
9.0
 12
0.0
 22
0.0
 32
0.0
 14
1.000000000000000E+20
 24
1.000000000000000E+20
 34
1.000000000000000E+20
 15
-1.000000000000000E+20
 25
-1.000000000000000E+20
 35
-1.000000000000000E+20
146
0.0
 13
0.0
 23
0.0
 33
0.0
 16
1.0
 26
0.0
 36
0.0
 17
0.0
 27
1.0
 37
0.0
 76
     0
330
1B
  0
LAYOUT
  5
26
102
{ACAD_REACTORS
330
1A
102
}
330
1A
100
AcDbPlotSettings
  1

  2
none_device
  4

  6

 40
0.0
 41
0.0
 42
0.0
 43
0.0
 44
0.0
 45
0.0
 46
0.0
 47
0.0
 48
0.0
 49
0.0
140
0.0
141
0.0
142
1.0
143
1.0
 70
   688
 72
     0
 73
     0
 74
     5
  7

 75
    16
 76
     0
 77
     2
 78
   300
147
1.0
148
0.0
149
0.0
100
AcDbLayout
  1
Layout2
 70
     1
 71
     2
 10
0.0
 20
0.0
 11
0.0
 21
0.0
 12
0.0
 22
0.0
 32
0.0
 14
0.0
 24
0.0
 34
0.0
 15
0.0
 25
0.0
 35
0.0
146
0.0
 13
0.0
 23
0.0
 33
0.0
 16
1.0
 26
0.0
 36
0.0
 17
0.0
 27
1.0
 37
0.0
 76
     0
330
23
  0
LAYOUT
  5
22
102
{ACAD_REACTORS
330
1A
102
}
330
1A
100
AcDbPlotSettings
  1

  2
none_device
  4

  6

 40
0.0
 41
0.0
 42
0.0
 43
0.0
 44
0.0
 45
0.0
 46
0.0
 47
0.0
 48
0.0
 49
0.0
140
0.0
141
0.0
142
1.0
143
1.0
 70
  1712
 72
     0
 73
     0
 74
     0
  7

 75
     0
 76
     0
 77
     2
 78
   300
147
1.0
148
0.0
149
0.0
100
AcDbLayout
  1
Model
 70
     1
 71
     0
 10
0.0
 20
0.0
 11
12.0
 21
9.0
 12
0.0
 22
0.0
 32
0.0
 14
1.000000000000000E+20
 24
1.000000000000000E+20
 34
1.000000000000000E+20
 15
-1.000000000000000E+20
 25
-1.000000000000000E+20
 35
-1.000000000000000E+20
146
0.0
 13
0.0
 23
0.0
 33
0.0
 16
1.0
 26
0.0
 36
0.0
 17
0.0
 27
1.0
 37
0.0
 76
     0
330
1F
331
29
  0
MATERIAL
  5
3D
102
{ACAD_REACTORS
330
3B
102
}
330
3B
100
AcDbMaterial
  1
ByBlock
 72
     1
 94
      127
  0
MATERIAL
  5
3C
102
{ACAD_REACTORS
330
3B
102
}
330
3B
100
AcDbMaterial
  1
ByLayer
 72
     1
 94
      127
  0
MATERIAL
  5
3E
102
{ACAD_REACTORS
330
3B
102
}
330
3B
100
AcDbMaterial
  1
Global
 72
     1
 94
      127
  0
MLINESTYLE
  5
18
102
{ACAD_REACTORS
330
17
102
}
330
17
100
AcDbMlineStyle
  2
Standard
 70
     0
  3

 62
   256
 51
90.0
 52
90.0
 71
     2
 49
0.5
 62
   256
  6
BYLAYER
 49
-0.5
 62
   256
  6
BYLAYER
  0
ACDBPLACEHOLDER
  5
F
102
{ACAD_REACTORS
330
E
102
}
330
E
  0
VISUALSTYLE
  5
2F
102
{ACAD_REACTORS
330
2A
102
}
330
2A
100
AcDbVisualStyle
  2
2dWireframe
 70
     4
177
     2
291
     0
 71
     0
176
     1
 72
     2
176
     1
 73
     0
176
     1
 90
        0
176
     1
 40
-0.6
176
     1
 41
-30.0
176
     1
 62
     5
 63
     7
421
 16777215
176
     1
 74
     1
176
     1
 91
        4
176
     1
 64
     7
176
     1
 65
   257
176
     1
 75
     1
176
     1
175
     1
176
     1
 42
1.0
176
     1
 92
        0
176
     1
 66
   257
176
     1
 43
1.0
176
     1
 76
     1
176
     1
 77
     6
176
     1
 78
     2
176
     1
 67
     7
176
     1
 79
     5
176
     1
170
     0
176
     1
171
     0
176
     1
290
     0
176
     1
 93
        1
176
     1
 44
0.0
176
     1
173
     0
176
     1
  0
VISUALSTYLE
  5
31
102
{ACAD_REACTORS
330
2A
102
}
330
2A
100
AcDbVisualStyle
  2
3D Hidden
 70
     6
177
     2
291
     0
 71
     1
176
     1
 72
     2
176
     1
 73
     2
176
     1
 90
        0
176
     1
 40
-0.6
176
     1
 41
-30.0
176
     1
 62
     5
 63
     7
421
 16777215
176
     1
 74
     2
176
     1
 91
        2
176
     1
 64
     7
176
     1
 65
   257
176
     1
 75
     2
176
     1
175
     1
176
     1
 42
40.0
176
     1
 92
        0
176
     1
 66
   257
176
     1
 43
1.0
176
     1
 76
     1
176
     1
 77
     6
176
     1
 78
     2
176
     1
 67
     7
176
     1
 79
     3
176
     1
170
     0
176
     1
171
     0
176
     1
290
     0
176
     1
 93
        1
176
     1
 44
0.0
176
     1
173
     0
176
     1
  0
VISUALSTYLE
  5
30
102
{ACAD_REACTORS
330
2A
102
}
330
2A
100
AcDbVisualStyle
  2
3dWireframe
 70
     5
177
     2
291
     0
 71
     0
176
     1
 72
     2
176
     1
 73
     0
176
     1
 90
        0
176
     1
 40
-0.6
176
     1
 41
-30.0
176
     1
 62
     5
 63
     7
421
 16777215
176
     1
 74
     1
176
     1
 91
        4
176
     1
 64
     7
176
     1
 65
   257
176
     1
 75
     1
176
     1
175
     1
176
     1
 42
1.0
176
     1
 92
        0
176
     1
 66
   257
176
     1
 43
1.0
176
     1
 76
     1
176
     1
 77
     6
176
     1
 78
     2
176
     1
 67
     7
176
     1
 79
     5
176
     1
170
     0
176
     1
171
     0
176
     1
290
     0
176
     1
 93
        1
176
     1
 44
0.0
176
     1
173
     0
176
     1
  0
VISUALSTYLE
  5
32
102
{ACAD_REACTORS
330
2A
102
}
330
2A
100
AcDbVisualStyle
  2
Basic
 70
     7
177
     2
291
     1
 71
     1
176
     1
 72
     0
176
     1
 73
     1
176
     1
 90
        0
176
     1
 40
-0.6
176
     1
 41
-30.0
176
     1
 62
     5
 63
     7
421
 16777215
176
     1
 74
     0
176
     1
 91
        4
176
     1
 64
     7
176
     1
 65
   257
176
     1
 75
     1
176
     1
175
     1
176
     1
 42
1.0
176
     1
 92
        8
176
     1
 66
     7
176
     1
 43
1.0
176
     1
 76
     1
176
     1
 77
     6
176
     1
 78
     2
176
     1
 67
     7
176
     1
 79
     5
176
     1
170
     0
176
     1
171
     0
176
     1
290
     0
176
     1
 93
        1
176
     1
 44
0.0
176
     1
173
     0
176
     1
  0
VISUALSTYLE
  5
36
102
{ACAD_REACTORS
330
2A
102
}
330
2A
100
AcDbVisualStyle
  2
Brighten
 70
    12
177
     2
291
     1
 71
     2
176
     1
 72
     2
176
     1
 73
     0
176
     1
 90
        0
176
     1
 40
-0.6
176
     1
 41
-30.0
176
     1
 62
     5
 63
     7
421
 16777215
176
     1
 74
     1
176
     1
 91
        4
176
     1
 64
     7
176
     1
 65
   257
176
     1
 75
     1
176
     1
175
     1
176
     1
 42
1.0
176
     1
 92
        8
176
     1
 66
     7
176
     1
 43
1.0
176
     1
 76
     1
176
     1
 77
     6
176
     1
 78
     2
176
     1
 67
     7
176
     1
 79
     5
176
     1
170
     0
176
     1
171
     0
176
     1
290
     0
176
     1
 93
        1
176
     1
 44
50.0
176
     1
173
     0
176
     1
  0
VISUALSTYLE
  5
3A
102
{ACAD_REACTORS
330
2A
102
}
330
2A
100
AcDbVisualStyle
  2
ColorChange
 70
    16
177
     2
291
     1
 71
     2
176
     1
 72
     2
176
     1
 73
     3
176
     1
 90
        0
176
     1
 40
-0.6
176
     1
 41
-30.0
176
     1
 62
     5
 63
     8
421
  8421504
176
     1
 74
     1
176
     1
 91
        4
176
     1
 64
     7
176
     1
 65
   257
176
     1
 75
     1
176
     1
175
     1
176
     1
 42
1.0
176
     1
 92
        8
176
     1
 66
     8
424
  8421504
176
     1
 43
1.0
176
     1
 76
     1
176
     1
 77
     6
176
     1
 78
     2
176
     1
 67
     7
176
     1
 79
     5
176
     1
170
     0
176
     1
171
     0
176
     1
290
     0
176
     1
 93
        1
176
     1
 44
0.0
176
     1
173
     0
176
     1
  0
VISUALSTYLE
  5
34
102
{ACAD_REACTORS
330
2A
102
}
330
2A
100
AcDbVisualStyle
  2
Conceptual
 70
     9
177
     2
291
     0
 71
     3
176
     1
 72
     2
176
     1
 73
     0
176
     1
 90
        0
176
     1
 40
-0.6
176
     1
 41
-30.0
176
     1
 62
     5
 63
     7
421
 16777215
176
     1
 74
     2
176
     1
 91
        2
176
     1
 64
     7
176
     1
 65
   257
176
     1
 75
     1
176
     1
175
     1
176
     1
 42
40.0
176
     1
 92
        8
176
     1
 66
     7
176
     1
 43
1.0
176
     1
 76
     1
176
     1
 77
     6
176
     1
 78
     2
176
     1
 67
     7
176
     1
 79
     3
176
     1
170
     0
176
     1
171
     0
176
     1
290
     0
176
     1
 93
        1
176
     1
 44
0.0
176
     1
173
     0
176
     1
  0
VISUALSTYLE
  5
35
102
{ACAD_REACTORS
330
2A
102
}
330
2A
100
AcDbVisualStyle
  2
Dim
 70
    11
177
     2
291
     1
 71
     2
176
     1
 72
     2
176
     1
 73
     0
176
     1
 90
        0
176
     1
 40
-0.6
176
     1
 41
-30.0
176
     1
 62
     5
 63
     7
421
 16777215
176
     1
 74
     1
176
     1
 91
        4
176
     1
 64
     7
176
     1
 65
   257
176
     1
 75
     1
176
     1
175
     1
176
     1
 42
1.0
176
     1
 92
        8
176
     1
 66
     7
176
     1
 43
1.0
176
     1
 76
     1
176
     1
 77
     6
176
     1
 78
     2
176
     1
 67
     7
176
     1
 79
     5
176
     1
170
     0
176
     1
171
     0
176
     1
290
     0
176
     1
 93
        1
176
     1
 44
-50.0
176
     1
173
     0
176
     1
  0
VISUALSTYLE
  5
39
102
{ACAD_REACTORS
330
2A
102
}
330
2A
100
AcDbVisualStyle
  2
Facepattern
 70
    15
177
     2
291
     1
 71
     2
176
     1
 72
     2
176
     1
 73
     0
176
     1
 90
        0
176
     1
 40
-0.6
176
     1
 41
-30.0
176
     1
 62
     5
 63
     7
421
 16777215
176
     1
 74
     1
176
     1
 91
        4
176
     1
 64
     7
176
     1
 65
   257
176
     1
 75
     1
176
     1
175
     1
176
     1
 42
1.0
176
     1
 92
        8
176
     1
 66
     7
176
     1
 43
1.0
176
     1
 76
     1
176
     1
 77
     6
176
     1
 78
     2
176
     1
 67
     7
176
     1
 79
     5
176
     1
170
     0
176
     1
171
     0
176
     1
290
     0
176
     1
 93
        1
176
     1
 44
0.0
176
     1
173
     0
176
     1
  0
VISUALSTYLE
  5
2B
102
{ACAD_REACTORS
330
2A
102
}
330
2A
100
AcDbVisualStyle
  2
Flat
 70
     0
177
     2
291
     1
 71
     2
176
     1
 72
     1
176
     1
 73
     1
176
     1
 90
        2
176
     1
 40
-0.6
176
     1
 41
30.0
176
     1
 62
     5
 63
     7
421
 16777215
176
     1
 74
     0
176
     1
 91
        4
176
     1
 64
     7
176
     1
 65
   257
176
     1
 75
     1
176
     1
175
     1
176
     1
 42
1.0
176
     1
 92
        8
176
     1
 66
     7
176
     1
 43
1.0
176
     1
 76
     1
176
     1
 77
     6
176
     1
 78
     2
176
     1
 67
     7
176
     1
 79
     5
176
     1
170
     0
176
     1
171
     0
176
     1
290
     0
176
     1
 93
       13
176
     1
 44
0.0
176
     1
173
     0
176
     1
  0
VISUALSTYLE
  5
2C
102
{ACAD_REACTORS
330
2A
102
}
330
2A
100
AcDbVisualStyle
  2
FlatWithEdges
 70
     1
177
     2
291
     1
 71
     2
176
     1
 72
     1
176
     1
 73
     1
176
     1
 90
        2
176
     1
 40
-0.6
176
     1
 41
30.0
176
     1
 62
     5
 63
     7
421
 16777215
176
     1
 74
     1
176
     1
 91
        4
176
     1
 64
     7
176
     1
 65
   257
176
     1
 75
     1
176
     1
175
     1
176
     1
 42
1.0
176
     1
 92
        0
176
     1
 66
   257
176
     1
 43
1.0
176
     1
 76
     1
176
     1
 77
     6
176
     1
 78
     2
176
     1
 67
     7
176
     1
 79
     5
176
     1
170
     0
176
     1
171
     0
176
     1
290
     0
176
     1
 93
       13
176
     1
 44
0.0
176
     1
173
     0
176
     1
  0
VISUALSTYLE
  5
2D
102
{ACAD_REACTORS
330
2A
102
}
330
2A
100
AcDbVisualStyle
  2
Gouraud
 70
     2
177
     2
291
     1
 71
     2
176
     1
 72
     2
176
     1
 73
     1
176
     1
 90
        2
176
     1
 40
-0.6
176
     1
 41
30.0
176
     1
 62
     5
 63
     7
421
 16777215
176
     1
 74
     0
176
     1
 91
        4
176
     1
 64
     7
176
     1
 65
   257
176
     1
 75
     1
176
     1
175
     1
176
     1
 42
1.0
176
     1
 92
        0
176
     1
 66
     7
176
     1
 43
1.0
176
     1
 76
     1
176
     1
 77
     6
176
     1
 78
     2
176
     1
 67
     7
176
     1
 79
     5
176
     1
170
     0
176
     1
171
     0
176
     1
290
     0
176
     1
 93
       13
176
     1
 44
0.0
176
     1
173
     0
176
     1
  0
VISUALSTYLE
  5
2E
102
{ACAD_REACTORS
330
2A
102
}
330
2A
100
AcDbVisualStyle
  2
GouraudWithEdges
 70
     3
177
     2
291
     1
 71
     2
176
     1
 72
     2
176
     1
 73
     1
176
     1
 90
        2
176
     1
 40
-0.6
176
     1
 41
30.0
176
     1
 62
     5
 63
     7
421
 16777215
176
     1
 74
     1
176
     1
 91
        4
176
     1
 64
     7
176
     1
 65
   257
176
     1
 75
     1
176
     1
175
     1
176
     1
 42
1.0
176
     1
 92
        0
176
     1
 66
   257
176
     1
 43
1.0
176
     1
 76
     1
176
     1
 77
     6
176
     1
 78
     2
176
     1
 67
     7
176
     1
 79
     5
176
     1
170
     0
176
     1
171
     0
176
     1
290
     0
176
     1
 93
       13
176
     1
 44
0.0
176
     1
173
     0
176
     1
  0
VISUALSTYLE
  5
38
102
{ACAD_REACTORS
330
2A
102
}
330
2A
100
AcDbVisualStyle
  2
Linepattern
 70
    14
177
     2
291
     1
 71
     2
176
     1
 72
     2
176
     1
 73
     0
176
     1
 90
        0
176
     1
 40
-0.6
176
     1
 41
-30.0
176
     1
 62
     5
 63
     7
421
 16777215
176
     1
 74
     1
176
     1
 91
        4
176
     1
 64
     7
176
     1
 65
   257
176
     1
 75
     7
176
     1
175
     7
176
     1
 42
1.0
176
     1
 92
        8
176
     1
 66
     7
176
     1
 43
1.0
176
     1
 76
     1
176
     1
 77
     6
176
     1
 78
     2
176
     1
 67
     7
176
     1
 79
     5
176
     1
170
     0
176
     1
171
     0
176
     1
290
     0
176
     1
 93
        1
176
     1
 44
0.0
176
     1
173
     0
176
     1
  0
VISUALSTYLE
  5
33
102
{ACAD_REACTORS
330
2A
102
}
330
2A
100
AcDbVisualStyle
  2
Realistic
 70
     8
177
     2
291
     0
 71
     2
176
     1
 72
     2
176
     1
 73
     0
176
     1
 90
        0
176
     1
 40
-0.6
176
     1
 41
-30.0
176
     1
 62
     5
 63
     7
421
 16777215
176
     1
 74
     1
176
     1
 91
        0
176
     1
 64
     7
176
     1
 65
   257
176
     1
 75
     1
176
     1
175
     1
176
     1
 42
1.0
176
     1
 92
        8
176
     1
 66
     8
424
  7895160
176
     1
 43
1.0
176
     1
 76
     1
176
     1
 77
     6
176
     1
 78
     2
176
     1
 67
     7
176
     1
 79
     5
176
     1
170
     0
176
     1
171
     0
176
     1
290
     0
176
     1
 93
       13
176
     1
 44
0.0
176
     1
173
     0
176
     1
  0
VISUALSTYLE
  5
37
102
{ACAD_REACTORS
330
2A
102
}
330
2A
100
AcDbVisualStyle
  2
Thicken
 70
    13
177
     2
291
     1
 71
     2
176
     1
 72
     2
176
     1
 73
     0
176
     1
 90
        0
176
     1
 40
-0.6
176
     1
 41
-30.0
176
     1
 62
     5
 63
     7
421
 16777215
176
     1
 74
     1
176
     1
 91
        4
176
     1
 64
     7
176
     1
 65
   257
176
     1
 75
     1
176
     1
175
     1
176
     1
 42
1.0
176
     1
 92
       12
176
     1
 66
     7
176
     1
 43
1.0
176
     1
 76
     1
176
     1
 77
     6
176
     1
 78
     2
176
     1
 67
     7
176
     1
 79
     5
176
     1
170
     0
176
     1
171
     0
176
     1
290
     0
176
     1
 93
        1
176
     1
 44
0.0
176
     1
173
     0
176
     1
  0
ENDSEC
  0
EOF
