  0
SECTION
  2
HEADER
  9
$ACADVER
  1
AC1024
  9
$ACADMAINTVER
 70
     6
  9
$DWGCODEPAGE
  3
UNDEFINED
  9
$INSBASE
 10
0.0
 20
0.0
 30
0.0
  9
$EXTMIN
 10
1.000000000000000E+20
 20
1.000000000000000E+20
 30
1.000000000000000E+20
  9
$EXTMAX
 10
-1.000000000000000E+20
 20
-1.000000000000000E+20
 30
-1.000000000000000E+20
  9
$LIMMIN
 10
0.0
 20
0.0
  9
$LIMMAX
 10
12.0
 20
9.0
  9
$ORTHOMODE
 70
     0
  9
$REGENMODE
 70
     1
  9
$FILLMODE
 70
     1
  9
$QTEXTMODE
 70
     0
  9
$MIRRTEXT
 70
     1
  9
$LTSCALE
 40
1.0
  9
$ATTMODE
 70
     1
  9
$TEXTSIZE
 40
0.2
  9
$TRACEWID
 40
0.05
  9
$TEXTSTYLE
  7
Standard
  9
$CLAYER
  8
0
  9
$CELTYPE
  6
ByLayer
  9
$CECOLOR
 62
   256
  9
$CELTSCALE
 40
1.0
  9
$DISPSILH
 70
     0
  9
$DIMSCALE
 40
1.0
  9
$DIMASZ
 40
0.18
  9
$DIMEXO
 40
0.0625
  9
$DIMDLI
 40
0.38
  9
$DIMRND
 40
0.0
  9
$DIMDLE
 40
0.0
  9
$DIMEXE
 40
0.18
  9
$DIMTP
 40
0.0
  9
$DIMTM
 40
0.0
  9
$DIMTXT
 40
0.18
  9
$DIMCEN
 40
0.09
  9
$DIMTSZ
 40
0.0
  9
$DIMTOL
 70
     0
  9
$DIMLIM
 70
     0
  9
$DIMTIH
 70
     1
  9
$DIMTOH
 70
     1
  9
$DIMSE1
 70
     0
  9
$DIMSE2
 70
     0
  9
$DIMTAD
 70
     0
  9
$DIMZIN
 70
     0
  9
$DIMBLK
  1

  9
$DIMASO
 70
     1
  9
$DIMSHO
 70
     1
  9
$DIMPOST
  1

  9
$DIMAPOST
  1

  9
$DIMALT
 70
     0
  9
$DIMALTD
 70
     2
  9
$DIMALTF
 40
25.4
  9
$DIMLFAC
 40
1.0
  9
$DIMTOFL
 70
     0
  9
$DIMTVP
 40
0.0
  9
$DIMTIX
 70
     0
  9
$DIMSOXD
 70
     0
  9
$DIMSAH
 70
     0
  9
$DIMBLK1
  1

  9
$DIMBLK2
  1

  9
$DIMSTYLE
  2
Standard
  9
$DIMCLRD
 70
     0
  9
$DIMCLRE
 70
     0
  9
$DIMCLRT
 70
     0
  9
$DIMTFAC
 40
1.0
  9
$DIMGAP
 40
0.09
  9
$DIMJUST
 70
     0
  9
$DIMSD1
 70
     0
  9
$DIMSD2
 70
     0
  9
$DIMTOLJ
 70
     1
  9
$DIMTZIN
 70
     0
  9
$DIMALTZ
 70
     0
  9
$DIMALTTZ
 70
     0
  9
$DIMUPT
 70
     0
  9
$DIMDEC
 70
     4
  9
$DIMTDEC
 70
     4
  9
$DIMALTU
 70
     2
  9
$DIMALTTD
 70
     2
  9
$DIMTXSTY
  7
Standard
  9
$DIMAUNIT
 70
     0
  9
$DIMADEC
 70
     0
  9
$DIMALTRND
 40
0.0
  9
$DIMAZIN
 70
     0
  9
$DIMDSEP
 70
    46
  9
$DIMATFIT
 70
     3
  9
$DIMFRAC
 70
     0
  9
$DIMLDRBLK
  1

  9
$DIMLUNIT
 70
     2
  9
$DIMLWD
 70
    -2
  9
$DIMLWE
 70
    -2
  9
$DIMTMOVE
 70
     0
  9
$DIMFXL
 40
1.0
  9
$DIMFXLON
 70
     0
  9
$DIMJOGANG
 40
0.7853981633974483
  9
$DIMTFILL
 70
     0
  9
$DIMTFILLCLR
 70
     0
  9
$DIMARCSYM
 70
     0
  9
$DIMLTYPE
  6

  9
$DIMLTEX1
  6

  9
$DIMLTEX2
  6

  9
$DIMTXTDIRECTION
 70
     0
  9
$LUNITS
 70
     2
  9
$LUPREC
 70
     4
  9
$SKETCHINC
 40
0.1
  9
$FILLETRAD
 40
0.5
  9
$AUNITS
 70
     0
  9
$AUPREC
 70
     0
  9
$MENU
  1
.
  9
$ELEVATION
 40
0.0
  9
$PELEVATION
 40
0.0
  9
$THICKNESS
 40
0.0
  9
$LIMCHECK
 70
     0
  9
$CHAMFERA
 40
0.5
  9
$CHAMFERB
 40
0.5
  9
$CHAMFERC
 40
1.0
  9
$CHAMFERD
 40
0.0
  9
$SKPOLY
 70
     0
  9
$TDCREATE
 40
2458263.580312489
  9
$TDUCREATE
 40
2458263.2053125
  9
$TDUPDATE
 40
2458263.580312489
  9
$TDUUPDATE
 40
2458263.2053125
  9
$TDINDWG
 40
0.0000000116
  9
$TDUSRTIMER
 40
0.0000000116
  9
$USRTIMER
 70
     1
  9
$ANGBASE
 50
0.0
  9
$ANGDIR
 70
     0
  9
$PDMODE
 70
     0
  9
$PDSIZE
 40
0.0
  9
$PLINEWID
 40
0.0
  9
$SPLFRAME
 70
     0
  9
$SPLINETYPE
 70
     6
  9
$SPLINESEGS
 70
     8
  9
$HANDSEED
  5
140
  9
$SURFTAB1
 70
     6
  9
$SURFTAB2
 70
     6
  9
$SURFTYPE
 70
     6
  9
$SURFU
 70
     6
  9
$SURFV
 70
     6
  9
$UCSBASE
  2

  9
$UCSNAME
  2

  9
$UCSORG
 10
0.0
 20
0.0
 30
0.0
  9
$UCSXDIR
 10
1.0
 20
0.0
 30
0.0
  9
$UCSYDIR
 10
0.0
 20
1.0
 30
0.0
  9
$UCSORTHOREF
  2

  9
$UCSORTHOVIEW
 70
     0
  9
$UCSORGTOP
 10
0.0
 20
0.0
 30
0.0
  9
$UCSORGBOTTOM
 10
0.0
 20
0.0
 30
0.0
  9
$UCSORGLEFT
 10
0.0
 20
0.0
 30
0.0
  9
$UCSORGRIGHT
 10
0.0
 20
0.0
 30
0.0
  9
$UCSORGFRONT
 10
0.0
 20
0.0
 30
0.0
  9
$UCSORGBACK
 10
0.0
 20
0.0
 30
0.0
  9
$PUCSBASE
  2

  9
$PUCSNAME
  2

  9
$PUCSORG
 10
0.0
 20
0.0
 30
0.0
  9
$PUCSXDIR
 10
1.0
 20
0.0
 30
0.0
  9
$PUCSYDIR
 10
0.0
 20
1.0
 30
0.0
  9
$PUCSORTHOREF
  2

  9
$PUCSORTHOVIEW
 70
     0
  9
$PUCSORGTOP
 10
0.0
 20
0.0
 30
0.0
  9
$PUCSORGBOTTOM
 10
0.0
 20
0.0
 30
0.0
  9
$PUCSORGLEFT
 10
0.0
 20
0.0
 30
0.0
  9
$PUCSORGRIGHT
 10
0.0
 20
0.0
 30
0.0
  9
$PUCSORGFRONT
 10
0.0
 20
0.0
 30
0.0
  9
$PUCSORGBACK
 10
0.0
 20
0.0
 30
0.0
  9
$USERI1
 70
     0
  9
$USERI2
 70
     0
  9
$USERI3
 70
     0
  9
$USERI4
 70
     0
  9
$USERI5
 70
     0
  9
$USERR1
 40
0.0
  9
$USERR2
 40
0.0
  9
$USERR3
 40
0.0
  9
$USERR4
 40
0.0
  9
$USERR5
 40
0.0
  9
$WORLDVIEW
 70
     1
  9
$SHADEDGE
 70
     3
  9
$SHADEDIF
 70
    70
  9
$TILEMODE
 70
     1
  9
$MAXACTVP
 70
    64
  9
$PINSBASE
 10
0.0
 20
0.0
 30
0.0
  9
$PLIMCHECK
 70
     0
  9
$PEXTMIN
 10
1.000000000000000E+20
 20
1.000000000000000E+20
 30
1.000000000000000E+20
  9
$PEXTMAX
 10
-1.000000000000000E+20
 20
-1.000000000000000E+20
 30
-1.000000000000000E+20
  9
$PLIMMIN
 10
0.0
 20
0.0
  9
$PLIMMAX
 10
12.0
 20
9.0
  9
$UNITMODE
 70
     0
  9
$VISRETAIN
 70
     1
  9
$PLINEGEN
 70
     0
  9
$PSLTSCALE
 70
     1
  9
$TREEDEPTH
 70
  3020
  9
$CMLSTYLE
  2
Standard
  9
$CMLJUST
 70
     0
  9
$CMLSCALE
 40
1.0
  9
$PROXYGRAPHICS
 70
     1
  9
$MEASUREMENT
 70
     0
  9
$CELWEIGHT
370
    -1
  9
$ENDCAPS
280
     0
  9
$JOINSTYLE
280
     0
  9
$LWDISPLAY
290
     1
  9
$INSUNITS
 70
     1
  9
$HYPERLINKBASE
  1

  9
$STYLESHEET
  1

  9
$XEDIT
290
     1
  9
$CEPSNTYPE
380
     0
  9
$PSTYLEMODE
290
     1
  9
$FINGERPRINTGUID
  2
{20F1F620-115D-E46D-AED3-527D00B81906}
  9
$VERSIONGUID
  2
{FAEB1C32-E019-11D5-929B-00C0DF256EC4}
  9
$EXTNAMES
290
     1
  9
$PSVPSCALE
 40
0.0
  9
$OLESTARTUP
290
     0
  9
$SORTENTS
280
   127
  9
$INDEXCTL
280
     0
  9
$HIDETEXT
280
     1
  9
$XCLIPFRAME
280
     2
  9
$HALOGAP
280
     0
  9
$OBSCOLOR
 70
   257
  9
$OBSLTYPE
280
     0
  9
$INTERSECTIONDISPLAY
280
     0
  9
$INTERSECTIONCOLOR
 70
   257
  9
$DIMASSOC
280
     2
  9
$PROJECTNAME
  1

  9
$CAMERADISPLAY
290
     0
  9
$LENSLENGTH
 40
50.0
  9
$CAMERAHEIGHT
 40
0.0
  9
$STEPSPERSEC
 40
2.0
  9
$STEPSIZE
 40
6.0
  9
$3DDWFPREC
 40
2.0
  9
$PSOLWIDTH
 40
0.25
  9
$PSOLHEIGHT
 40
4.0
  9
$LOFTANG1
 40
1.570796326794897
  9
$LOFTANG2
 40
1.570796326794897
  9
$LOFTMAG1
 40
0.0
  9
$LOFTMAG2
 40
0.0
  9
$LOFTPARAM
 70
     7
  9
$LOFTNORMALS
280
     1
  9
$LATITUDE
 40
37.795
  9
$LONGITUDE
 40
-122.394
  9
$NORTHDIRECTION
 40
0.0
  9
$TIMEZONE
 70
 -8000
  9
$LIGHTGLYPHDISPLAY
280
     1
  9
$TILEMODELIGHTSYNCH
280
     1
  9
$CMATERIAL
347
3C
  9
$SOLIDHIST
280
     1
  9
$SHOWHIST
280
     1
  9
$DWFFRAME
280
     2
  9
$DGNFRAME
280
     2
  9
$REALWORLDSCALE
290
     1
  9
$INTERFERECOLOR
 62
   256
  9
$CSHADOW
280
     0
  9
$SHADOWPLANELOCATION
 40
0.0
  0
ENDSEC
  0
SECTION
  2
CLASSES
  0
CLASS
  1
ACDBDICTIONARYWDFLT
  2
AcDbDictionaryWithDefault
  3
ObjectDBX Classes
 90
        0
 91
        4
280
     0
281
     0
  0
CLASS
  1
VISUALSTYLE
  2
AcDbVisualStyle
  3
ObjectDBX Classes
 90
     4095
 91
        4
280
     0
281
     0
  0
CLASS
  1
MATERIAL
  2
AcDbMaterial
  3
ObjectDBX Classes
 90
     1153
 91
        4
280
     0
281
     0
  0
CLASS
  1
SUN
  2
AcDbSun
  3
SCENEOE
 90
     1024
 91
        4
280
     0
281
     0
  0
ENDSEC
  0
SECTION
  2
TABLES
  0
TABLE
  2
VPORT
  5
8
330
0
100
AcDbSymbolTable
 70
     1
  0
VPORT
  5
29
330
8
100
AcDbSymbolTableRecord
100
AcDbViewportTableRecord
  2
*Active
 70
     0
 10
0.0
 20
0.0
 11
1.0
 21
1.0
 12
0.0
 22
0.0
 13
0.0
 23
0.0
 14
0.5
 24
0.5
 15
0.5
 25
0.5
 16
0.0
 26
0.0
 36
1.0
 17
105.0007777515277
 27
-148.5000416295416
 37
0.0
 40
297.0000832590831
 41
0.7070757462376333
 42
50.0
 43
0.0
 44
0.0
 50
0.0
 51
0.0
 71
     0
 72
   100
 73
     1
 74
     3
 75
     0
 76
     0
 77
     0
 78
     0
281
     0
 65
     1
110
0.0
120
0.0
130
0.0
111
1.0
121
0.0
131
0.0
112
0.0
122
1.0
132
0.0
 79
     0
146
0.0
 60
     3
 61
     5
292
     1
282
     1
141
0.0
142
0.0
 63
   250
361
3F
  0
ENDTAB
  0
TABLE
  2
LTYPE
  5
5
330
0
100
AcDbSymbolTable
 70
     1
  0
LTYPE
  5
14
330
5
100
AcDbSymbolTableRecord
100
AcDbLinetypeTableRecord
  2
ByBlock
 70
     0
  3

 72
    65
 73
     0
 40
0.0
  0
LTYPE
  5
15
330
5
100
AcDbSymbolTableRecord
100
AcDbLinetypeTableRecord
  2
ByLayer
 70
     0
  3

 72
    65
 73
     0
 40
0.0
  0
LTYPE
  5
16
330
5
100
AcDbSymbolTableRecord
100
AcDbLinetypeTableRecord
  2
Continuous
 70
     0
  3
Solid line
 72
    65
 73
     0
 40
0.0
  0
ENDTAB
  0
TABLE
  2
LAYER
  5
2
330
0
100
AcDbSymbolTable
 70
     2
  0
LAYER
  5
10
330
2
100
AcDbSymbolTableRecord
100
AcDbLayerTableRecord
  2
0
 70
     0
 62
     7
  6
Continuous
370
    -3
390
F
347
3E
  0
LAYER
  5
40
330
2
100
AcDbSymbolTableRecord
100
AcDbLayerTableRecord
  2
_U+30EC_U+30A4_U+30E4_U+30FC 1
 70
     0
 62
     7
  6
Continuous
370
    -3
390
F
347
3E
  0
ENDTAB
  0
TABLE
  2
STYLE
  5
3
330
0
100
AcDbSymbolTable
 70
     1
  0
STYLE
  5
11
330
3
100
AcDbSymbolTableRecord
100
AcDbTextStyleTableRecord
  2
Standard
 70
     0
 40
0.0
 41
1.0
 50
0.0
 71
     0
 42
0.2
  3
txt
  4

  0
ENDTAB
  0
TABLE
  2
VIEW
  5
6
330
0
100
AcDbSymbolTable
 70
     0
  0
ENDTAB
  0
TABLE
  2
UCS
  5
7
330
0
100
AcDbSymbolTable
 70
     0
  0
ENDTAB
  0
TABLE
  2
APPID
  5
9
330
0
100
AcDbSymbolTable
 70
     1
  0
APPID
  5
12
330
9
100
AcDbSymbolTableRecord
100
AcDbRegAppTableRecord
  2
ACAD
 70
     0
  0
ENDTAB
  0
TABLE
  2
DIMSTYLE
  5
A
330
0
100
AcDbSymbolTable
 70
     1
100
AcDbDimStyleTable
  0
DIMSTYLE
105
27
330
A
100
AcDbSymbolTableRecord
100
AcDbDimStyleTableRecord
  2
Standard
 70
     0
178
     0
340
11
  0
ENDTAB
  0
TABLE
  2
BLOCK_RECORD
  5
1
330
0
100
AcDbSymbolTable
 70
     9
  0
BLOCK_RECORD
  5
1F
330
1
100
AcDbSymbolTableRecord
100
AcDbBlockTableRecord
  2
*Model_Space
340
22
 70
     0
280
     1
281
     0
  0
BLOCK_RECORD
  5
1B
330
1
100
AcDbSymbolTableRecord
100
AcDbBlockTableRecord
  2
*Paper_Space
340
1E
 70
     0
280
     1
281
     0
  0
BLOCK_RECORD
  5
23
330
1
100
AcDbSymbolTableRecord
100
AcDbBlockTableRecord
  2
*Paper_Space0
340
26
 70
     0
280
     1
281
     0
  0
BLOCK_RECORD
  5
92
330
1
100
AcDbSymbolTableRecord
100
AcDbBlockTableRecord
  2
block 2
340
0
102
{BLKREFS
331
93
102
}
 70
     0
280
     1
281
     0
  0
BLOCK_RECORD
  5
A4
330
1
100
AcDbSymbolTableRecord
100
AcDbBlockTableRecord
  2
block 3
340
0
102
{BLKREFS
331
A5
102
}
 70
     0
280
     1
281
     0
  0
BLOCK_RECORD
  5
D3
330
1
100
AcDbSymbolTableRecord
100
AcDbBlockTableRecord
  2
block 4
340
0
102
{BLKREFS
331
D4
102
}
 70
     0
280
     1
281
     0
  0
BLOCK_RECORD
  5
E8
330
1
100
AcDbSymbolTableRecord
100
AcDbBlockTableRecord
  2
block 5
340
0
102
{BLKREFS
331
E9
102
}
 70
     0
280
     1
281
     0
  0
BLOCK_RECORD
  5
FC
330
1
100
AcDbSymbolTableRecord
100
AcDbBlockTableRecord
  2
block 6
340
0
102
{BLKREFS
331
FD
102
}
 70
     0
280
     1
281
     0
  0
BLOCK_RECORD
  5
111
330
1
100
AcDbSymbolTableRecord
100
AcDbBlockTableRecord
  2
block 7
340
0
102
{BLKREFS
331
112
102
}
 70
     0
280
     1
281
     0
  0
BLOCK_RECORD
  5
119
330
1
100
AcDbSymbolTableRecord
100
AcDbBlockTableRecord
  2
block 8
340
0
102
{BLKREFS
331
11A
102
}
 70
     0
280
     1
281
     0
  0
BLOCK_RECORD
  5
138
330
1
100
AcDbSymbolTableRecord
100
AcDbBlockTableRecord
  2
block 9
340
0
102
{BLKREFS
331
139
102
}
 70
     0
280
     1
281
     0
  0
ENDTAB
  0
ENDSEC
  0
SECTION
  2
BLOCKS
  0
BLOCK
  5
20
330
1F
100
AcDbEntity
  8
0
100
AcDbBlockBegin
  2
*Model_Space
 70
     0
 10
0.0
 20
0.0
 30
0.0
  3
*Model_Space
  1

  0
ENDBLK
  5
21
330
1F
100
AcDbEntity
  8
0
100
AcDbBlockEnd
  0
BLOCK
  5
1C
330
1B
100
AcDbEntity
 67
     1
  8
0
100
AcDbBlockBegin
  2
*Paper_Space
 70
     0
 10
0.0
 20
0.0
 30
0.0
  3
*Paper_Space
  1

  0
ENDBLK
  5
1D
330
1B
100
AcDbEntity
 67
     1
  8
0
100
AcDbBlockEnd
  0
BLOCK
  5
24
330
23
100
AcDbEntity
  8
0
100
AcDbBlockBegin
  2
*Paper_Space0
 70
     0
 10
0.0
 20
0.0
 30
0.0
  3
*Paper_Space0
  1

  0
ENDBLK
  5
25
330
23
100
AcDbEntity
  8
0
100
AcDbBlockEnd
  0
BLOCK
  5
94
330
92
100
AcDbEntity
  8
0
100
AcDbBlockBegin
  2
block 2
 70
     0
 10
0.0
 20
0.0
 30
0.0
  3
block 2
  1

  0
SPLINE
  5
96
330
92
100
AcDbEntity
  8
_U+30EC_U+30A4_U+30E4_U+30FC 1
370
     0
100
AcDbSpline
210
0.0
220
0.0
230
1.0
 70
    11
 71
     3
 72
    62
 73
    58
 74
     0
 42
0.0000000001
 43
0.0000000001
 12
1.0
 22
0.0
 32
0.0
 13
1.0
 23
0.0
 33
0.0
 40
0.0
 40
0.0
 40
0.0
 40
0.0
 40
1.0
 40
1.0
 40
1.0
 40
2.0
 40
2.0
 40
2.0
 40
3.0
 40
3.0
 40
3.0
 40
4.0
 40
4.0
 40
4.0
 40
5.0
 40
5.0
 40
5.0
 40
6.0
 40
6.0
 40
6.0
 40
7.0
 40
7.0
 40
7.0
 40
8.0
 40
8.0
 40
8.0
 40
9.0
 40
9.0
 40
9.0
 40
10.0
 40
10.0
 40
10.0
 40
11.0
 40
11.0
 40
11.0
 40
12.0
 40
12.0
 40
12.0
 40
13.0
 40
13.0
 40
13.0
 40
14.0
 40
14.0
 40
14.0
 40
15.0
 40
15.0
 40
15.0
 40
16.0
 40
16.0
 40
16.0
 40
17.0
 40
17.0
 40
17.0
 40
18.0
 40
18.0
 40
18.0
 40
19.0
 40
19.0
 40
19.0
 40
19.0
 10
134.4641438465923
 20
-197.587250384631
 30
0.0
 10
134.4641438465923
 20
-197.6888807014458
 30
0.0
 10
134.4427842545838
 20
-197.9217691562487
 30
0.0
 10
134.2567490983803
 20
-198.0550943515279
 30
0.0
 10
134.1444389855611
 20
-198.1343315476886
 30
0.0
 10
134.0452202355859
 20
-198.1388101718195
 30
0.0
 10
133.9604708866488
 20
-198.1432887959503
 30
0.0
 10
133.9604708866488
 20
-198.1432887959503
 30
0.0
 10
133.9604708866488
 20
-197.9083332838563
 30
0.0
 10
133.9604708866488
 20
-197.9083332838563
 30
0.0
 10
134.0348849491302
 20
-197.9059217170166
 30
0.0
 10
134.2691514421272
 20
-197.8945529019153
 30
0.0
 10
134.2691514421272
 20
-197.5917290087618
 30
0.0
 10
134.2691514421272
 20
-197.4446234315416
 30
0.0
 10
134.1995605133251
 20
-197.2820149246378
 30
0.0
 10
133.9714951922016
 20
-197.2820149246378
 30
0.0
 10
133.8550509648001
 20
-197.2820149246378
 30
0.0
 10
133.8061306089096
 20
-197.3226670513638
 30
0.0
 10
133.7744357304453
 20
-197.3564289871192
 30
0.0
 10
133.7007106870609
 20
-197.43566618328
 30
0.0
 10
133.687619324217
 20
-197.5600341302975
 30
0.0
 10
133.687619324217
 20
-197.6189452630953
 30
0.0
 10
133.687619324217
 20
-197.6392713264582
 30
0.0
 10
133.6896863815082
 20
-197.6775118863445
 30
0.0
 10
133.6938204960904
 20
-197.7071397075177
 30
0.0
 10
133.6938204960904
 20
-197.7071397075177
 30
0.0
 10
133.4995171107223
 20
-197.7071397075177
 30
0.0
 10
133.4995171107223
 20
-197.7071397075177
 30
0.0
 10
133.5057182825958
 20
-197.6664875807917
 30
0.0
 10
133.5077853398869
 20
-197.6210123203864
 30
0.0
 10
133.5077853398869
 20
-197.6144666389644
 30
0.0
 10
133.5077853398869
 20
-197.5441866910654
 30
0.0
 10
133.4864257478784
 20
-197.3316242996254
 30
0.0
 10
133.2500921975902
 20
-197.3316242996254
 30
0.0
 10
133.0723252705514
 20
-197.3316242996254
 30
0.0
 10
133.0172037427874
 20
-197.4718396858751
 30
0.0
 10
133.0172037427874
 20
-197.5893174419221
 30
0.0
 10
133.0172037427874
 20
-197.8721597812611
 30
0.0
 10
133.2500921975902
 20
-197.8811170295228
 30
0.0
 10
133.3217501836835
 20
-197.8855956536536
 30
0.0
 10
133.3217501836835
 20
-197.8855956536536
 30
0.0
 10
133.3217501836835
 20
-198.1026366692244
 30
0.0
 10
133.3217501836835
 20
-198.1026366692244
 30
0.0
 10
133.1970377271174
 20
-198.0936794209627
 30
0.0
 10
132.8201442810311
 20
-198.0643961093381
 30
0.0
 10
132.8201442810311
 20
-197.5758815695297
 30
0.0
 10
132.8201442810311
 20
-197.3361029237563
 30
0.0
 10
132.9476128139853
 20
-197.0784097814596
 30
0.0
 10
133.2432020066198
 20
-197.0784097814596
 30
0.0
 10
133.4299261819203
 20
-197.0784097814596
 30
0.0
 10
133.5119194544693
 20
-197.180384607823
 30
0.0
 10
133.5732421541067
 20
-197.2864935487687
 30
0.0
 10
133.6008029179887
 20
-197.2210367345489
 30
0.0
 10
133.6814181523436
 20
-197.0263888396323
 30
0.0
 10
133.9584038293576
 20
-197.0263888396323
 30
0.0
 10
134.2967122060092
 20
-197.0263888396323
 30
0.0
 10
134.4641438465923
 20
-197.2909721728995
 30
0.0
 10
134.4641438465923
 20
-197.587250384631
 30
0.0
  0
HATCH
  5
97
330
92
100
AcDbEntity
  8
_U+30EC_U+30A4_U+30E4_U+30FC 1
 62
   179
420
  2234388
100
AcDbHatch
 10
0.0
 20
0.0
 30
0.0
210
0.0
220
0.0
230
1.0
  2
SOLID
 70
     1
 71
     0
 91
        1
 92
        1
 93
        1
 72
     4
 94
        3
 73
     0
 74
     1
 95
       62
 96
       58
 40
0.0
 40
0.0
 40
0.0
 40
0.0
 40
1.0
 40
1.0
 40
1.0
 40
2.0
 40
2.0
 40
2.0
 40
3.0
 40
3.0
 40
3.0
 40
4.0
 40
4.0
 40
4.0
 40
5.0
 40
5.0
 40
5.0
 40
6.0
 40
6.0
 40
6.0
 40
7.0
 40
7.0
 40
7.0
 40
8.0
 40
8.0
 40
8.0
 40
9.0
 40
9.0
 40
9.0
 40
10.0
 40
10.0
 40
10.0
 40
11.0
 40
11.0
 40
11.0
 40
12.0
 40
12.0
 40
12.0
 40
13.0
 40
13.0
 40
13.0
 40
14.0
 40
14.0
 40
14.0
 40
15.0
 40
15.0
 40
15.0
 40
16.0
 40
16.0
 40
16.0
 40
17.0
 40
17.0
 40
17.0
 40
18.0
 40
18.0
 40
18.0
 40
19.0
 40
19.0
 40
19.0
 40
19.0
 10
134.4641438465923
 20
-197.587250384631
 10
134.4641438465923
 20
-197.6888807014458
 10
134.4427842545838
 20
-197.9217691562487
 10
134.2567490983803
 20
-198.0550943515279
 10
134.1444389855611
 20
-198.1343315476886
 10
134.0452202355859
 20
-198.1388101718195
 10
133.9604708866488
 20
-198.1432887959503
 10
133.9604708866488
 20
-198.1432887959503
 10
133.9604708866488
 20
-197.9083332838563
 10
133.9604708866488
 20
-197.9083332838563
 10
134.0348849491302
 20
-197.9059217170166
 10
134.2691514421272
 20
-197.8945529019153
 10
134.2691514421272
 20
-197.5917290087618
 10
134.2691514421272
 20
-197.4446234315416
 10
134.1995605133251
 20
-197.2820149246378
 10
133.9714951922016
 20
-197.2820149246378
 10
133.8550509648001
 20
-197.2820149246378
 10
133.8061306089096
 20
-197.3226670513638
 10
133.7744357304453
 20
-197.3564289871192
 10
133.7007106870609
 20
-197.43566618328
 10
133.687619324217
 20
-197.5600341302975
 10
133.687619324217
 20
-197.6189452630953
 10
133.687619324217
 20
-197.6392713264582
 10
133.6896863815082
 20
-197.6775118863445
 10
133.6938204960904
 20
-197.7071397075177
 10
133.6938204960904
 20
-197.7071397075177
 10
133.4995171107223
 20
-197.7071397075177
 10
133.4995171107223
 20
-197.7071397075177
 10
133.5057182825958
 20
-197.6664875807917
 10
133.5077853398869
 20
-197.6210123203864
 10
133.5077853398869
 20
-197.6144666389644
 10
133.5077853398869
 20
-197.5441866910654
 10
133.4864257478784
 20
-197.3316242996254
 10
133.2500921975902
 20
-197.3316242996254
 10
133.0723252705514
 20
-197.3316242996254
 10
133.0172037427874
 20
-197.4718396858751
 10
133.0172037427874
 20
-197.5893174419221
 10
133.0172037427874
 20
-197.8721597812611
 10
133.2500921975902
 20
-197.8811170295228
 10
133.3217501836835
 20
-197.8855956536536
 10
133.3217501836835
 20
-197.8855956536536
 10
133.3217501836835
 20
-198.1026366692244
 10
133.3217501836835
 20
-198.1026366692244
 10
133.1970377271174
 20
-198.0936794209627
 10
132.8201442810311
 20
-198.0643961093381
 10
132.8201442810311
 20
-197.5758815695297
 10
132.8201442810311
 20
-197.3361029237563
 10
132.9476128139853
 20
-197.0784097814596
 10
133.2432020066198
 20
-197.0784097814596
 10
133.4299261819203
 20
-197.0784097814596
 10
133.5119194544693
 20
-197.180384607823
 10
133.5732421541067
 20
-197.2864935487687
 10
133.6008029179887
 20
-197.2210367345489
 10
133.6814181523436
 20
-197.0263888396323
 10
133.9584038293576
 20
-197.0263888396323
 10
134.2967122060092
 20
-197.0263888396323
 10
134.4641438465923
 20
-197.2909721728995
 10
134.4641438465923
 20
-197.587250384631
 97
        0
 97
        0
 75
     2
 76
     1
 98
        0
  0
ENDBLK
  5
95
330
92
100
AcDbEntity
  8
0
100
AcDbBlockEnd
  0
BLOCK
  5
A6
330
A4
100
AcDbEntity
  8
0
100
AcDbBlockBegin
  2
block 3
 70
     0
 10
0.0
 20
0.0
 30
0.0
  3
block 3
  1

  0
SPLINE
  5
A8
330
A4
100
AcDbEntity
  8
_U+30EC_U+30A4_U+30E4_U+30FC 1
370
     0
100
AcDbSpline
210
0.0
220
0.0
230
1.0
 70
    11
 71
     3
 72
    44
 73
    40
 74
     0
 42
0.0000000001
 43
0.0000000001
 12
1.0
 22
0.0
 32
0.0
 13
1.0
 23
0.0
 33
0.0
 40
0.0
 40
0.0
 40
0.0
 40
0.0
 40
1.0
 40
1.0
 40
1.0
 40
2.0
 40
2.0
 40
2.0
 40
3.0
 40
3.0
 40
3.0
 40
4.0
 40
4.0
 40
4.0
 40
5.0
 40
5.0
 40
5.0
 40
6.0
 40
6.0
 40
6.0
 40
7.0
 40
7.0
 40
7.0
 40
8.0
 40
8.0
 40
8.0
 40
9.0
 40
9.0
 40
9.0
 40
10.0
 40
10.0
 40
10.0
 40
11.0
 40
11.0
 40
11.0
 40
12.0
 40
12.0
 40
12.0
 40
13.0
 40
13.0
 40
13.0
 40
13.0
 10
82.21685924593885
 20
-98.26842038558915
 30
0.0
 10
81.98397079113596
 20
-98.42723928745917
 30
0.0
 10
81.8845797863865
 20
-98.50130884039204
 30
0.0
 10
81.83255884455923
 20
-98.64496932212695
 30
0.0
 10
81.83255884455923
 20
-98.64496932212695
 30
0.0
 10
82.66454940424705
 20
-98.64496932212695
 30
0.0
 10
82.66454940424705
 20
-98.64496932212695
 30
0.0
 10
82.66454940424705
 20
-98.64496932212695
 30
0.0
 10
82.66454940424705
 20
-98.85029701304785
 30
0.0
 10
82.66454940424705
 20
-98.85029701304785
 30
0.0
 10
82.66454940424705
 20
-98.85029701304785
 30
0.0
 10
81.56573619922662
 20
-98.85029701304785
 30
0.0
 10
81.56573619922662
 20
-98.85029701304785
 30
0.0
 10
81.59967038975634
 20
-98.49269610167892
 30
0.0
 10
81.66977808288117
 20
-98.41449243416375
 30
0.0
 10
82.08129473859427
 20
-98.1161471651411
 30
0.0
 10
82.3548353201231
 20
-97.91736515564219
 30
0.0
 10
82.42494301324794
 20
-97.84949677458278
 30
0.0
 10
82.42494301324794
 20
-97.7120374647213
 30
0.0
 10
82.42494301324794
 20
-97.5935261800287
 30
0.0
 10
82.34811738392686
 20
-97.46261255158922
 30
0.0
 10
82.13779430455236
 20
-97.46261255158922
 30
0.0
 10
81.85960284411844
 20
-97.46261255158922
 30
0.0
 10
81.85064559585679
 20
-97.69308943955242
 30
0.0
 10
81.84616697172596
 20
-97.80953366695387
 30
0.0
 10
81.84616697172596
 20
-97.80953366695387
 30
0.0
 10
81.60638832595258
 20
-97.80953366695387
 30
0.0
 10
81.60638832595258
 20
-97.80953366695387
 30
0.0
 10
81.61551782898849
 20
-97.68240964354816
 30
0.0
 10
81.62688664408981
 20
-97.57044404027754
 30
0.0
 10
81.71266952167252
 20
-97.45193275558493
 30
0.0
 10
81.83031953249382
 20
-97.29104679642377
 30
0.0
 10
82.02927379676699
 20
-97.25728486066832
 30
0.0
 10
82.1536417437845
 20
-97.25728486066832
 30
0.0
 10
82.44974770074174
 20
-97.25728486066832
 30
0.0
 10
82.6712673404433
 20
-97.44125295958067
 30
0.0
 10
82.6712673404433
 20
-97.71410452201245
 30
0.0
 10
82.6712673404433
 20
-97.94285886223304
 30
0.0
 10
82.54689939342578
 20
-98.04207761220823
 30
0.0
 10
82.21685924593885
 20
-98.26842038558915
 30
0.0
  0
HATCH
  5
A9
330
A4
100
AcDbEntity
  8
_U+30EC_U+30A4_U+30E4_U+30FC 1
 62
   179
420
  2234388
100
AcDbHatch
 10
0.0
 20
0.0
 30
0.0
210
0.0
220
0.0
230
1.0
  2
SOLID
 70
     1
 71
     0
 91
        1
 92
        1
 93
        1
 72
     4
 94
        3
 73
     0
 74
     1
 95
       44
 96
       40
 40
0.0
 40
0.0
 40
0.0
 40
0.0
 40
1.0
 40
1.0
 40
1.0
 40
2.0
 40
2.0
 40
2.0
 40
3.0
 40
3.0
 40
3.0
 40
4.0
 40
4.0
 40
4.0
 40
5.0
 40
5.0
 40
5.0
 40
6.0
 40
6.0
 40
6.0
 40
7.0
 40
7.0
 40
7.0
 40
8.0
 40
8.0
 40
8.0
 40
9.0
 40
9.0
 40
9.0
 40
10.0
 40
10.0
 40
10.0
 40
11.0
 40
11.0
 40
11.0
 40
12.0
 40
12.0
 40
12.0
 40
13.0
 40
13.0
 40
13.0
 40
13.0
 10
82.21685924593885
 20
-98.26842038558915
 10
81.98397079113596
 20
-98.42723928745917
 10
81.8845797863865
 20
-98.50130884039204
 10
81.83255884455923
 20
-98.64496932212695
 10
81.83255884455923
 20
-98.64496932212695
 10
82.66454940424705
 20
-98.64496932212695
 10
82.66454940424705
 20
-98.64496932212695
 10
82.66454940424705
 20
-98.64496932212695
 10
82.66454940424705
 20
-98.85029701304785
 10
82.66454940424705
 20
-98.85029701304785
 10
82.66454940424705
 20
-98.85029701304785
 10
81.56573619922662
 20
-98.85029701304785
 10
81.56573619922662
 20
-98.85029701304785
 10
81.59967038975634
 20
-98.49269610167892
 10
81.66977808288117
 20
-98.41449243416375
 10
82.08129473859427
 20
-98.1161471651411
 10
82.3548353201231
 20
-97.91736515564219
 10
82.42494301324794
 20
-97.84949677458278
 10
82.42494301324794
 20
-97.7120374647213
 10
82.42494301324794
 20
-97.5935261800287
 10
82.34811738392686
 20
-97.46261255158922
 10
82.13779430455236
 20
-97.46261255158922
 10
81.85960284411844
 20
-97.46261255158922
 10
81.85064559585679
 20
-97.69308943955242
 10
81.84616697172596
 20
-97.80953366695387
 10
81.84616697172596
 20
-97.80953366695387
 10
81.60638832595258
 20
-97.80953366695387
 10
81.60638832595258
 20
-97.80953366695387
 10
81.61551782898849
 20
-97.68240964354816
 10
81.62688664408981
 20
-97.57044404027754
 10
81.71266952167252
 20
-97.45193275558493
 10
81.83031953249382
 20
-97.29104679642377
 10
82.02927379676699
 20
-97.25728486066832
 10
82.1536417437845
 20
-97.25728486066832
 10
82.44974770074174
 20
-97.25728486066832
 10
82.6712673404433
 20
-97.44125295958067
 10
82.6712673404433
 20
-97.71410452201245
 10
82.6712673404433
 20
-97.94285886223304
 10
82.54689939342578
 20
-98.04207761220823
 10
82.21685924593885
 20
-98.26842038558915
 97
        0
 97
        0
 75
     2
 76
     1
 98
        0
  0
POLYLINE
  5
AA
330
A4
100
AcDbEntity
  8
_U+30EC_U+30A4_U+30E4_U+30FC 1
370
     0
100
AcDb2dPolyline
 66
     1
 10
0.0
 20
0.0
 30
0.0
  0
VERTEX
  5
AB
330
AA
100
AcDbEntity
  8
_U+30EC_U+30A4_U+30E4_U+30FC 1
370
     0
100
AcDbVertex
100
AcDb2dVertex
 10
82.9050170691175
 20
-98.85029701304785
 30
0.0
  0
VERTEX
  5
AC
330
AA
100
AcDbEntity
  8
_U+30EC_U+30A4_U+30E4_U+30FC 1
370
     0
100
AcDbVertex
100
AcDb2dVertex
 10
82.9050170691175
 20
-98.59846053307608
 30
0.0
  0
VERTEX
  5
AD
330
AA
100
AcDbEntity
  8
_U+30EC_U+30A4_U+30E4_U+30FC 1
370
     0
100
AcDbVertex
100
AcDb2dVertex
 10
83.17407902651551
 20
-98.59846053307608
 30
0.0
  0
VERTEX
  5
AE
330
AA
100
AcDbEntity
  8
_U+30EC_U+30A4_U+30E4_U+30FC 1
370
     0
100
AcDbVertex
100
AcDb2dVertex
 10
83.17407902651551
 20
-98.85029701304785
 30
0.0
  0
VERTEX
  5
AF
330
AA
100
AcDbEntity
  8
_U+30EC_U+30A4_U+30E4_U+30FC 1
370
     0
100
AcDbVertex
100
AcDb2dVertex
 10
82.9050170691175
 20
-98.85029701304785
 30
0.0
  0
SEQEND
  5
B0
330
AA
100
AcDbEntity
  8
_U+30EC_U+30A4_U+30E4_U+30FC 1
370
     0
  0
HATCH
  5
B1
330
A4
100
AcDbEntity
  8
_U+30EC_U+30A4_U+30E4_U+30FC 1
 62
   179
420
  2234388
100
AcDbHatch
 10
0.0
 20
0.0
 30
0.0
210
0.0
220
0.0
230
1.0
  2
SOLID
 70
     1
 71
     0
 91
        1
 92
        1
 93
        4
 72
     1
 10
82.9050170691175
 20
-98.85029701304785
 11
82.9050170691175
 21
-98.59846053307608
 72
     1
 10
82.9050170691175
 20
-98.59846053307608
 11
83.17407902651551
 21
-98.59846053307608
 72
     1
 10
83.17407902651551
 20
-98.59846053307608
 11
83.17407902651551
 21
-98.85029701304785
 72
     1
 10
83.17407902651551
 20
-98.85029701304785
 11
82.9050170691175
 21
-98.85029701304785
 97
        0
 75
     2
 76
     1
 98
        0
  0
POLYLINE
  5
B2
330
A4
100
AcDbEntity
  8
_U+30EC_U+30A4_U+30E4_U+30FC 1
370
     0
100
AcDb2dPolyline
 66
     1
 10
0.0
 20
0.0
 30
0.0
  0
VERTEX
  5
B3
330
B2
100
AcDbEntity
  8
_U+30EC_U+30A4_U+30E4_U+30FC 1
370
     0
100
AcDbVertex
100
AcDb2dVertex
 10
84.31595592510158
 20
-98.50337589768318
 30
0.0
  0
VERTEX
  5
B4
330
B2
100
AcDbEntity
  8
_U+30EC_U+30A4_U+30E4_U+30FC 1
370
     0
100
AcDbVertex
100
AcDb2dVertex
 10
84.31595592510158
 20
-98.85029701304785
 30
0.0
  0
VERTEX
  5
B5
330
B2
100
AcDbEntity
  8
_U+30EC_U+30A4_U+30E4_U+30FC 1
370
     0
100
AcDbVertex
100
AcDb2dVertex
 10
84.08306747029869
 20
-98.85029701304785
 30
0.0
  0
VERTEX
  5
B6
330
B2
100
AcDbEntity
  8
_U+30EC_U+30A4_U+30E4_U+30FC 1
370
     0
100
AcDbVertex
100
AcDb2dVertex
 10
84.08306747029869
 20
-98.50337589768318
 30
0.0
  0
VERTEX
  5
B7
330
B2
100
AcDbEntity
  8
_U+30EC_U+30A4_U+30E4_U+30FC 1
370
     0
100
AcDbVertex
100
AcDb2dVertex
 10
83.38233504859886
 20
-98.50337589768318
 30
0.0
  0
VERTEX
  5
B8
330
B2
100
AcDbEntity
  8
_U+30EC_U+30A4_U+30E4_U+30FC 1
370
     0
100
AcDbVertex
100
AcDb2dVertex
 10
83.38233504859886
 20
-98.27910018159342
 30
0.0
  0
VERTEX
  5
B9
330
B2
100
AcDbEntity
  8
_U+30EC_U+30A4_U+30E4_U+30FC 1
370
     0
100
AcDbVertex
100
AcDb2dVertex
 10
84.10804441256674
 20
-97.30586070701034
 30
0.0
  0
VERTEX
  5
BA
330
B2
100
AcDbEntity
  8
_U+30EC_U+30A4_U+30E4_U+30FC 1
370
     0
100
AcDbVertex
100
AcDb2dVertex
 10
84.31595592510158
 20
-97.30586070701034
 30
0.0
  0
VERTEX
  5
BB
330
B2
100
AcDbEntity
  8
_U+30EC_U+30A4_U+30E4_U+30FC 1
370
     0
100
AcDbVertex
100
AcDb2dVertex
 10
84.31595592510158
 20
-98.30459388818427
 30
0.0
  0
VERTEX
  5
BC
330
B2
100
AcDbEntity
  8
_U+30EC_U+30A4_U+30E4_U+30FC 1
370
     0
100
AcDbVertex
100
AcDb2dVertex
 10
84.5376478195774
 20
-98.30459388818427
 30
0.0
  0
VERTEX
  5
BD
330
B2
100
AcDbEntity
  8
_U+30EC_U+30A4_U+30E4_U+30FC 1
370
     0
100
AcDbVertex
100
AcDb2dVertex
 10
84.5376478195774
 20
-98.50337589768318
 30
0.0
  0
VERTEX
  5
BE
330
B2
100
AcDbEntity
  8
_U+30EC_U+30A4_U+30E4_U+30FC 1
370
     0
100
AcDbVertex
100
AcDb2dVertex
 10
84.31595592510158
 20
-98.50337589768318
 30
0.0
  0
SEQEND
  5
BF
330
B2
100
AcDbEntity
  8
_U+30EC_U+30A4_U+30E4_U+30FC 1
370
     0
  0
POLYLINE
  5
C0
330
A4
100
AcDbEntity
  8
_U+30EC_U+30A4_U+30E4_U+30FC 1
370
     0
100
AcDb2dPolyline
 66
     1
 10
0.0
 20
0.0
 30
0.0
  0
VERTEX
  5
C1
330
C0
100
AcDbEntity
  8
_U+30EC_U+30A4_U+30E4_U+30FC 1
370
     0
100
AcDbVertex
100
AcDb2dVertex
 10
84.08306747029869
 20
-97.6486477077927
 30
0.0
  0
VERTEX
  5
C2
330
C0
100
AcDbEntity
  8
_U+30EC_U+30A4_U+30E4_U+30FC 1
370
     0
100
AcDbVertex
100
AcDb2dVertex
 10
83.59489744003878
 20
-98.30459388818427
 30
0.0
  0
VERTEX
  5
C3
330
C0
100
AcDbEntity
  8
_U+30EC_U+30A4_U+30E4_U+30FC 1
370
     0
100
AcDbVertex
100
AcDb2dVertex
 10
84.08306747029869
 20
-98.30459388818427
 30
0.0
  0
VERTEX
  5
C4
330
C0
100
AcDbEntity
  8
_U+30EC_U+30A4_U+30E4_U+30FC 1
370
     0
100
AcDbVertex
100
AcDb2dVertex
 10
84.08306747029869
 20
-97.6486477077927
 30
0.0
  0
SEQEND
  5
C5
330
C0
100
AcDbEntity
  8
_U+30EC_U+30A4_U+30E4_U+30FC 1
370
     0
  0
HATCH
  5
C6
330
A4
100
AcDbEntity
  8
_U+30EC_U+30A4_U+30E4_U+30FC 1
 62
   179
420
  2234388
100
AcDbHatch
 10
0.0
 20
0.0
 30
0.0
210
0.0
220
0.0
230
1.0
  2
SOLID
 70
     1
 71
     0
 91
        2
 92
        1
 93
       11
 72
     1
 10
84.31595592510158
 20
-98.50337589768318
 11
84.31595592510158
 21
-98.85029701304785
 72
     1
 10
84.31595592510158
 20
-98.85029701304785
 11
84.08306747029869
 21
-98.85029701304785
 72
     1
 10
84.08306747029869
 20
-98.85029701304785
 11
84.08306747029869
 21
-98.50337589768318
 72
     1
 10
84.08306747029869
 20
-98.50337589768318
 11
83.38233504859886
 21
-98.50337589768318
 72
     1
 10
83.38233504859886
 20
-98.50337589768318
 11
83.38233504859886
 21
-98.27910018159342
 72
     1
 10
83.38233504859886
 20
-98.27910018159342
 11
84.10804441256674
 21
-97.30586070701034
 72
     1
 10
84.10804441256674
 20
-97.30586070701034
 11
84.31595592510158
 21
-97.30586070701034
 72
     1
 10
84.31595592510158
 20
-97.30586070701034
 11
84.31595592510158
 21
-98.30459388818427
 72
     1
 10
84.31595592510158
 20
-98.30459388818427
 11
84.5376478195774
 21
-98.30459388818427
 72
     1
 10
84.5376478195774
 20
-98.30459388818427
 11
84.5376478195774
 21
-98.50337589768318
 72
     1
 10
84.5376478195774
 20
-98.50337589768318
 11
84.31595592510158
 21
-98.50337589768318
 97
        0
 92
        1
 93
        3
 72
     1
 10
84.08306747029869
 20
-97.6486477077927
 11
83.59489744003878
 21
-98.30459388818427
 72
     1
 10
83.59489744003878
 20
-98.30459388818427
 11
84.08306747029869
 21
-98.30459388818427
 72
     1
 10
84.08306747029869
 20
-98.30459388818427
 11
84.08306747029869
 21
-97.6486477077927
 97
        0
 75
     2
 76
     1
 98
        0
  0
ENDBLK
  5
A7
330
A4
100
AcDbEntity
  8
0
100
AcDbBlockEnd
  0
BLOCK
  5
D5
330
D3
100
AcDbEntity
  8
0
100
AcDbBlockBegin
  2
block 4
 70
     0
 10
0.0
 20
0.0
 30
0.0
  3
block 4
  1

  0
SPLINE
  5
D7
330
D3
100
AcDbEntity
  8
_U+30EC_U+30A4_U+30E4_U+30FC 1
370
     0
100
AcDbSpline
210
0.0
220
0.0
230
1.0
 70
    11
 71
     3
 72
    53
 73
    49
 74
     0
 42
0.0000000001
 43
0.0000000001
 12
1.0
 22
0.0
 32
0.0
 13
1.0
 23
0.0
 33
0.0
 40
0.0
 40
0.0
 40
0.0
 40
0.0
 40
1.0
 40
1.0
 40
1.0
 40
2.0
 40
2.0
 40
2.0
 40
3.0
 40
3.0
 40
3.0
 40
4.0
 40
4.0
 40
4.0
 40
5.0
 40
5.0
 40
5.0
 40
6.0
 40
6.0
 40
6.0
 40
7.0
 40
7.0
 40
7.0
 40
8.0
 40
8.0
 40
8.0
 40
9.0
 40
9.0
 40
9.0
 40
10.0
 40
10.0
 40
10.0
 40
11.0
 40
11.0
 40
11.0
 40
12.0
 40
12.0
 40
12.0
 40
13.0
 40
13.0
 40
13.0
 40
14.0
 40
14.0
 40
14.0
 40
15.0
 40
15.0
 40
15.0
 40
16.0
 40
16.0
 40
16.0
 40
16.0
 10
105.4088975430922
 20
-95.48340519531318
 30
0.0
 10
105.3255262323492
 20
-95.48340519531318
 30
0.0
 10
105.2166612150153
 20
-95.46652422743546
 30
0.0
 10
105.1084852167784
 20
-95.4029622157326
 30
0.0
 10
104.9227945701235
 20
-95.29289141497887
 30
0.0
 10
104.9004014494693
 20
-95.16180553176511
 30
0.0
 10
104.8800753861064
 20
-95.05397404307679
 30
0.0
 10
104.8800753861064
 20
-95.05397404307679
 30
0.0
 10
105.1174424650401
 20
-95.05397404307679
 30
0.0
 10
105.1174424650401
 20
-95.05397404307679
 30
0.0
 10
105.1760090882893
 20
-95.2527560525757
 30
0.0
 10
105.3117458504082
 20
-95.28238387374886
 30
0.0
 10
105.4113091099319
 20
-95.28238387374886
 30
0.0
 10
105.5604817444432
 20
-95.28238387374886
 30
0.0
 10
105.723090251347
 20
-95.18299286899939
 30
0.0
 10
105.723090251347
 20
-94.95027666897077
 30
0.0
 10
105.723090251347
 20
-94.6943060744167
 30
0.0
 10
105.5311984328186
 20
-94.6245428908404
 30
0.0
 10
105.4023518616703
 20
-94.6245428908404
 30
0.0
 10
105.3682454163663
 20
-94.6245428908404
 30
0.0
 10
105.2166612150153
 20
-94.6245428908404
 30
0.0
 10
105.1219210891709
 20
-94.753561716763
 30
0.0
 10
105.1219210891709
 20
-94.753561716763
 30
0.0
 10
104.9341633852248
 20
-94.73444143681986
 30
0.0
 10
104.9341633852248
 20
-94.73444143681986
 30
0.0
 10
104.9341633852248
 20
-94.73444143681986
 30
0.0
 10
105.0630099563731
 20
-93.88832598564251
 30
0.0
 10
105.0630099563731
 20
-93.88832598564251
 30
0.0
 10
105.0630099563731
 20
-93.88832598564251
 30
0.0
 10
105.895000516061
 20
-93.88832598564251
 30
0.0
 10
105.895000516061
 20
-93.88832598564251
 30
0.0
 10
105.895000516061
 20
-93.88832598564251
 30
0.0
 10
105.895000516061
 20
-94.08297388055912
 30
0.0
 10
105.895000516061
 20
-94.08297388055912
 30
0.0
 10
105.895000516061
 20
-94.08297388055912
 30
0.0
 10
105.2373317879268
 20
-94.08297388055912
 30
0.0
 10
105.2373317879268
 20
-94.08297388055912
 30
0.0
 10
105.2373317879268
 20
-94.08297388055912
 30
0.0
 10
105.1670518400277
 20
-94.5060316061478
 30
0.0
 10
105.1670518400277
 20
-94.5060316061478
 30
0.0
 10
105.2325086542474
 20
-94.4720974156181
 30
0.0
 10
105.3207030986698
 20
-94.43196205321493
 30
0.0
 10
105.447482612527
 20
-94.43196205321493
 30
0.0
 10
105.7186116272162
 20
-94.43196205321493
 30
0.0
 10
105.9718261453821
 20
-94.61816946419269
 30
0.0
 10
105.9718261453821
 20
-94.93115638902763
 30
0.0
 10
105.9718261453821
 20
-95.2486219379934
 30
0.0
 10
105.7323920091572
 20
-95.48340519531318
 30
0.0
 10
105.4088975430922
 20
-95.48340519531318
 30
0.0
  0
HATCH
  5
D8
330
D3
100
AcDbEntity
  8
_U+30EC_U+30A4_U+30E4_U+30FC 1
 62
   179
420
  2234388
100
AcDbHatch
 10
0.0
 20
0.0
 30
0.0
210
0.0
220
0.0
230
1.0
  2
SOLID
 70
     1
 71
     0
 91
        1
 92
        1
 93
        1
 72
     4
 94
        3
 73
     0
 74
     1
 95
       53
 96
       49
 40
0.0
 40
0.0
 40
0.0
 40
0.0
 40
1.0
 40
1.0
 40
1.0
 40
2.0
 40
2.0
 40
2.0
 40
3.0
 40
3.0
 40
3.0
 40
4.0
 40
4.0
 40
4.0
 40
5.0
 40
5.0
 40
5.0
 40
6.0
 40
6.0
 40
6.0
 40
7.0
 40
7.0
 40
7.0
 40
8.0
 40
8.0
 40
8.0
 40
9.0
 40
9.0
 40
9.0
 40
10.0
 40
10.0
 40
10.0
 40
11.0
 40
11.0
 40
11.0
 40
12.0
 40
12.0
 40
12.0
 40
13.0
 40
13.0
 40
13.0
 40
14.0
 40
14.0
 40
14.0
 40
15.0
 40
15.0
 40
15.0
 40
16.0
 40
16.0
 40
16.0
 40
16.0
 10
105.4088975430922
 20
-95.48340519531318
 10
105.3255262323492
 20
-95.48340519531318
 10
105.2166612150153
 20
-95.46652422743546
 10
105.1084852167784
 20
-95.4029622157326
 10
104.9227945701235
 20
-95.29289141497887
 10
104.9004014494693
 20
-95.16180553176511
 10
104.8800753861064
 20
-95.05397404307679
 10
104.8800753861064
 20
-95.05397404307679
 10
105.1174424650401
 20
-95.05397404307679
 10
105.1174424650401
 20
-95.05397404307679
 10
105.1760090882893
 20
-95.2527560525757
 10
105.3117458504082
 20
-95.28238387374886
 10
105.4113091099319
 20
-95.28238387374886
 10
105.5604817444432
 20
-95.28238387374886
 10
105.723090251347
 20
-95.18299286899939
 10
105.723090251347
 20
-94.95027666897077
 10
105.723090251347
 20
-94.6943060744167
 10
105.5311984328186
 20
-94.6245428908404
 10
105.4023518616703
 20
-94.6245428908404
 10
105.3682454163663
 20
-94.6245428908404
 10
105.2166612150153
 20
-94.6245428908404
 10
105.1219210891709
 20
-94.753561716763
 10
105.1219210891709
 20
-94.753561716763
 10
104.9341633852248
 20
-94.73444143681986
 10
104.9341633852248
 20
-94.73444143681986
 10
104.9341633852248
 20
-94.73444143681986
 10
105.0630099563731
 20
-93.88832598564251
 10
105.0630099563731
 20
-93.88832598564251
 10
105.0630099563731
 20
-93.88832598564251
 10
105.895000516061
 20
-93.88832598564251
 10
105.895000516061
 20
-93.88832598564251
 10
105.895000516061
 20
-93.88832598564251
 10
105.895000516061
 20
-94.08297388055912
 10
105.895000516061
 20
-94.08297388055912
 10
105.895000516061
 20
-94.08297388055912
 10
105.2373317879268
 20
-94.08297388055912
 10
105.2373317879268
 20
-94.08297388055912
 10
105.2373317879268
 20
-94.08297388055912
 10
105.1670518400277
 20
-94.5060316061478
 10
105.1670518400277
 20
-94.5060316061478
 10
105.2325086542474
 20
-94.4720974156181
 10
105.3207030986698
 20
-94.43196205321493
 10
105.447482612527
 20
-94.43196205321493
 10
105.7186116272162
 20
-94.43196205321493
 10
105.9718261453821
 20
-94.61816946419269
 10
105.9718261453821
 20
-94.93115638902763
 10
105.9718261453821
 20
-95.2486219379934
 10
105.7323920091572
 20
-95.48340519531318
 10
105.4088975430922
 20
-95.48340519531318
 97
        0
 97
        0
 75
     2
 76
     1
 98
        0
  0
SPLINE
  5
D9
330
D3
100
AcDbEntity
  8
_U+30EC_U+30A4_U+30E4_U+30FC 1
370
     0
100
AcDbSpline
210
0.0
220
0.0
230
1.0
 70
    11
 71
     3
 72
    29
 73
    25
 74
     0
 42
0.0000000001
 43
0.0000000001
 12
1.0
 22
0.0
 32
0.0
 13
1.0
 23
0.0
 33
0.0
 40
0.0
 40
0.0
 40
0.0
 40
0.0
 40
1.0
 40
1.0
 40
1.0
 40
2.0
 40
2.0
 40
2.0
 40
3.0
 40
3.0
 40
3.0
 40
4.0
 40
4.0
 40
4.0
 40
5.0
 40
5.0
 40
5.0
 40
6.0
 40
6.0
 40
6.0
 40
7.0
 40
7.0
 40
7.0
 40
8.0
 40
8.0
 40
8.0
 40
8.0
 10
107.1121527509997
 20
-95.25482310986685
 30
0.0
 10
106.9967420522439
 20
-95.4644571701443
 30
0.0
 10
106.8113959151374
 20
-95.48340519531318
 30
0.0
 10
106.6870279681199
 20
-95.48340519531318
 30
0.0
 10
106.5154622129545
 20
-95.48340519531318
 30
0.0
 10
106.3638780116035
 20
-95.4368964062623
 30
0.0
 10
106.2622476947886
 20
-95.25482310986685
 30
0.0
 10
106.1513156201636
 20
-95.0603474697245
 30
0.0
 10
106.1309895568006
 20
-94.82332490033932
 30
0.0
 10
106.1309895568006
 20
-94.660371883887
 30
0.0
 10
106.1309895568006
 20
-94.51653914737781
 30
0.0
 10
106.1489040533239
 20
-94.26487492218031
 30
0.0
 10
106.2622476947886
 20
-94.06592065790714
 30
0.0
 10
106.377313883996
 20
-93.86283227905166
 30
0.0
 10
106.5492241487099
 20
-93.83957788452622
 30
0.0
 10
106.6870279681199
 20
-93.83957788452622
 30
0.0
 10
106.8568711755427
 20
-93.83957788452622
 30
0.0
 10
107.0105224341849
 20
-93.88401961628594
 30
0.0
 10
107.1121527509997
 20
-94.06592065790714
 30
0.0
 10
107.218606201494
 20
-94.2585014955326
 30
0.0
 10
107.2434108889878
 20
-94.48691132620466
 30
0.0
 10
107.2434108889878
 20
-94.660371883887
 30
0.0
 10
107.2434108889878
 20
-94.83176538427817
 30
0.0
 10
107.2206732587851
 20
-95.06241452701565
 30
0.0
 10
107.1121527509997
 20
-95.25482310986685
 30
0.0
  0
SPLINE
  5
DA
330
D3
100
AcDbEntity
  8
_U+30EC_U+30A4_U+30E4_U+30FC 1
370
     0
100
AcDbSpline
210
0.0
220
0.0
230
1.0
 70
    11
 71
     3
 72
    17
 73
    13
 74
     0
 42
0.0000000001
 43
0.0000000001
 12
1.0
 22
0.0
 32
0.0
 13
1.0
 23
0.0
 33
0.0
 40
0.0
 40
0.0
 40
0.0
 40
0.0
 40
1.0
 40
1.0
 40
1.0
 40
2.0
 40
2.0
 40
2.0
 40
3.0
 40
3.0
 40
3.0
 40
4.0
 40
4.0
 40
4.0
 40
4.0
 10
106.6870279681199
 20
-94.03215872215169
 30
0.0
 10
106.4203775775616
 20
-94.03215872215169
 30
0.0
 10
106.370768202574
 20
-94.31551782581349
 30
0.0
 10
106.370768202574
 20
-94.660371883887
 30
0.0
 10
106.370768202574
 20
-94.97990449014392
 30
0.0
 10
106.4090087624602
 20
-95.28875730039657
 30
0.0
 10
106.6870279681199
 20
-95.28875730039657
 30
0.0
 10
106.9516113013871
 20
-95.28875730039657
 30
0.0
 10
107.0036322432144
 20
-95.00729299925165
 30
0.0
 10
107.0036322432144
 20
-94.660371883887
 30
0.0
 10
107.0036322432144
 20
-94.34101153240434
 30
0.0
 10
106.9629801164884
 20
-94.03215872215169
 30
0.0
 10
106.6870279681199
 20
-94.03215872215169
 30
0.0
  0
HATCH
  5
DB
330
D3
100
AcDbEntity
  8
_U+30EC_U+30A4_U+30E4_U+30FC 1
 62
   179
420
  2234388
100
AcDbHatch
 10
0.0
 20
0.0
 30
0.0
210
0.0
220
0.0
230
1.0
  2
SOLID
 70
     1
 71
     0
 91
        2
 92
        1
 93
        1
 72
     4
 94
        3
 73
     0
 74
     1
 95
       29
 96
       25
 40
0.0
 40
0.0
 40
0.0
 40
0.0
 40
1.0
 40
1.0
 40
1.0
 40
2.0
 40
2.0
 40
2.0
 40
3.0
 40
3.0
 40
3.0
 40
4.0
 40
4.0
 40
4.0
 40
5.0
 40
5.0
 40
5.0
 40
6.0
 40
6.0
 40
6.0
 40
7.0
 40
7.0
 40
7.0
 40
8.0
 40
8.0
 40
8.0
 40
8.0
 10
107.1121527509997
 20
-95.25482310986685
 10
106.9967420522439
 20
-95.4644571701443
 10
106.8113959151374
 20
-95.48340519531318
 10
106.6870279681199
 20
-95.48340519531318
 10
106.5154622129545
 20
-95.48340519531318
 10
106.3638780116035
 20
-95.4368964062623
 10
106.2622476947886
 20
-95.25482310986685
 10
106.1513156201636
 20
-95.0603474697245
 10
106.1309895568006
 20
-94.82332490033932
 10
106.1309895568006
 20
-94.660371883887
 10
106.1309895568006
 20
-94.51653914737781
 10
106.1489040533239
 20
-94.26487492218031
 10
106.2622476947886
 20
-94.06592065790714
 10
106.377313883996
 20
-93.86283227905166
 10
106.5492241487099
 20
-93.83957788452622
 10
106.6870279681199
 20
-93.83957788452622
 10
106.8568711755427
 20
-93.83957788452622
 10
107.0105224341849
 20
-93.88401961628594
 10
107.1121527509997
 20
-94.06592065790714
 10
107.218606201494
 20
-94.2585014955326
 10
107.2434108889878
 20
-94.48691132620466
 10
107.2434108889878
 20
-94.660371883887
 10
107.2434108889878
 20
-94.83176538427817
 10
107.2206732587851
 20
-95.06241452701565
 10
107.1121527509997
 20
-95.25482310986685
 97
        0
 97
        0
 92
        1
 93
        1
 72
     4
 94
        3
 73
     0
 74
     1
 95
       17
 96
       13
 40
0.0
 40
0.0
 40
0.0
 40
0.0
 40
1.0
 40
1.0
 40
1.0
 40
2.0
 40
2.0
 40
2.0
 40
3.0
 40
3.0
 40
3.0
 40
4.0
 40
4.0
 40
4.0
 40
4.0
 10
106.6870279681199
 20
-94.03215872215169
 10
106.4203775775616
 20
-94.03215872215169
 10
106.370768202574
 20
-94.31551782581349
 10
106.370768202574
 20
-94.660371883887
 10
106.370768202574
 20
-94.97990449014392
 10
106.4090087624602
 20
-95.28875730039657
 10
106.6870279681199
 20
-95.28875730039657
 10
106.9516113013871
 20
-95.28875730039657
 10
107.0036322432144
 20
-95.00729299925165
 10
107.0036322432144
 20
-94.660371883887
 10
107.0036322432144
 20
-94.34101153240434
 10
106.9629801164884
 20
-94.03215872215169
 10
106.6870279681199
 20
-94.03215872215169
 97
        0
 97
        0
 75
     2
 76
     1
 98
        0
  0
ENDBLK
  5
D6
330
D3
100
AcDbEntity
  8
0
100
AcDbBlockEnd
  0
BLOCK
  5
EA
330
E8
100
AcDbEntity
  8
0
100
AcDbBlockBegin
  2
block 5
 70
     0
 10
0.0
 20
0.0
 30
0.0
  3
block 5
  1

  0
SPLINE
  5
EC
330
E8
100
AcDbEntity
  8
_U+30EC_U+30A4_U+30E4_U+30FC 1
370
     0
100
AcDbSpline
210
0.0
220
0.0
230
1.0
 70
    11
 71
     3
 72
    26
 73
    22
 74
     0
 42
0.0000000001
 43
0.0000000001
 12
1.0
 22
0.0
 32
0.0
 13
1.0
 23
0.0
 33
0.0
 40
0.0
 40
0.0
 40
0.0
 40
0.0
 40
1.0
 40
1.0
 40
1.0
 40
2.0
 40
2.0
 40
2.0
 40
3.0
 40
3.0
 40
3.0
 40
4.0
 40
4.0
 40
4.0
 40
5.0
 40
5.0
 40
5.0
 40
6.0
 40
6.0
 40
6.0
 40
7.0
 40
7.0
 40
7.0
 40
7.0
 10
87.87852916639842
 20
-202.4320881655378
 30
0.0
 10
87.87852916639842
 20
-202.4320881655378
 30
0.0
 10
87.87852916639842
 20
-201.3279350625153
 30
0.0
 10
87.87852916639842
 20
-201.3279350625153
 30
0.0
 10
87.87852916639842
 20
-201.3279350625153
 30
0.0
 10
87.52575138870884
 20
-201.3279350625153
 30
0.0
 10
87.52575138870884
 20
-201.3279350625153
 30
0.0
 10
87.52575138870884
 20
-201.3279350625153
 30
0.0
 10
87.52575138870884
 20
-201.1797959566495
 30
0.0
 10
87.52575138870884
 20
-201.1797959566495
 30
0.0
 10
87.88076847846384
 20
-201.1649820460629
 30
0.0
 10
87.9305501082257
 20
-201.0020290296106
 30
0.0
 10
87.96224498669
 20
-200.8876518595003
 30
0.0
 10
87.96224498669
 20
-200.8876518595003
 30
0.0
 10
88.11813555739755
 20
-200.8876518595003
 30
0.0
 10
88.11813555739755
 20
-200.8876518595003
 30
0.0
 10
88.11813555739755
 20
-200.8876518595003
 30
0.0
 10
88.11813555739755
 20
-202.4320881655378
 30
0.0
 10
88.11813555739755
 20
-202.4320881655378
 30
0.0
 10
88.11813555739755
 20
-202.4320881655378
 30
0.0
 10
87.87852916639842
 20
-202.4320881655378
 30
0.0
 10
87.87852916639842
 20
-202.4320881655378
 30
0.0
  0
HATCH
  5
ED
330
E8
100
AcDbEntity
  8
_U+30EC_U+30A4_U+30E4_U+30FC 1
 62
   179
420
  2234388
100
AcDbHatch
 10
0.0
 20
0.0
 30
0.0
210
0.0
220
0.0
230
1.0
  2
SOLID
 70
     1
 71
     0
 91
        1
 92
        1
 93
        1
 72
     4
 94
        3
 73
     0
 74
     1
 95
       26
 96
       22
 40
0.0
 40
0.0
 40
0.0
 40
0.0
 40
1.0
 40
1.0
 40
1.0
 40
2.0
 40
2.0
 40
2.0
 40
3.0
 40
3.0
 40
3.0
 40
4.0
 40
4.0
 40
4.0
 40
5.0
 40
5.0
 40
5.0
 40
6.0
 40
6.0
 40
6.0
 40
7.0
 40
7.0
 40
7.0
 40
7.0
 10
87.87852916639842
 20
-202.4320881655378
 10
87.87852916639842
 20
-202.4320881655378
 10
87.87852916639842
 20
-201.3279350625153
 10
87.87852916639842
 20
-201.3279350625153
 10
87.87852916639842
 20
-201.3279350625153
 10
87.52575138870884
 20
-201.3279350625153
 10
87.52575138870884
 20
-201.3279350625153
 10
87.52575138870884
 20
-201.3279350625153
 10
87.52575138870884
 20
-201.1797959566495
 10
87.52575138870884
 20
-201.1797959566495
 10
87.88076847846384
 20
-201.1649820460629
 10
87.9305501082257
 20
-201.0020290296106
 10
87.96224498669
 20
-200.8876518595003
 10
87.96224498669
 20
-200.8876518595003
 10
88.11813555739755
 20
-200.8876518595003
 10
88.11813555739755
 20
-200.8876518595003
 10
88.11813555739755
 20
-200.8876518595003
 10
88.11813555739755
 20
-202.4320881655378
 10
88.11813555739755
 20
-202.4320881655378
 10
88.11813555739755
 20
-202.4320881655378
 10
87.87852916639842
 20
-202.4320881655378
 10
87.87852916639842
 20
-202.4320881655378
 97
        0
 97
        0
 75
     2
 76
     1
 98
        0
  0
SPLINE
  5
EE
330
E8
100
AcDbEntity
  8
_U+30EC_U+30A4_U+30E4_U+30FC 1
370
     0
100
AcDbSpline
210
0.0
220
0.0
230
1.0
 70
    11
 71
     3
 72
    53
 73
    49
 74
     0
 42
0.0000000001
 43
0.0000000001
 12
1.0
 22
0.0
 32
0.0
 13
1.0
 23
0.0
 33
0.0
 40
0.0
 40
0.0
 40
0.0
 40
0.0
 40
1.0
 40
1.0
 40
1.0
 40
2.0
 40
2.0
 40
2.0
 40
3.0
 40
3.0
 40
3.0
 40
4.0
 40
4.0
 40
4.0
 40
5.0
 40
5.0
 40
5.0
 40
6.0
 40
6.0
 40
6.0
 40
7.0
 40
7.0
 40
7.0
 40
8.0
 40
8.0
 40
8.0
 40
9.0
 40
9.0
 40
9.0
 40
10.0
 40
10.0
 40
10.0
 40
11.0
 40
11.0
 40
11.0
 40
12.0
 40
12.0
 40
12.0
 40
13.0
 40
13.0
 40
13.0
 40
14.0
 40
14.0
 40
14.0
 40
15.0
 40
15.0
 40
15.0
 40
16.0
 40
16.0
 40
16.0
 40
16.0
 10
89.16802840652744
 20
-202.482731069171
 30
0.0
 10
89.08431258623587
 20
-202.482731069171
 30
0.0
 10
88.9757920784505
 20
-202.4658501012933
 30
0.0
 10
88.86727157066512
 20
-202.4024603443647
 30
0.0
 10
88.68192543355869
 20
-202.2925617983852
 30
0.0
 10
88.65918780335603
 20
-202.1613036603972
 30
0.0
 10
88.63886173999306
 20
-202.0534721717089
 30
0.0
 10
88.63886173999306
 20
-202.0534721717089
 30
0.0
 10
88.87622881892678
 20
-202.0534721717089
 30
0.0
 10
88.87622881892678
 20
-202.0534721717089
 30
0.0
 10
88.93513995172455
 20
-202.2522541812078
 30
0.0
 10
89.07070445906913
 20
-202.2818820023809
 30
0.0
 10
89.17026771859285
 20
-202.2818820023809
 30
0.0
 10
89.31944035310417
 20
-202.2818820023809
 30
0.0
 10
89.48222111478222
 20
-202.1823187428572
 30
0.0
 10
89.48222111478222
 20
-201.9497747976029
 30
0.0
 10
89.48222111478222
 20
-201.6938042030488
 30
0.0
 10
89.28998478670529
 20
-201.6238687646982
 30
0.0
 10
89.16113821555695
 20
-201.6238687646982
 30
0.0
 10
89.12720402502723
 20
-201.6238687646982
 30
0.0
 10
88.9757920784505
 20
-201.6238687646982
 30
0.0
 10
88.88087969783187
 20
-201.7530598453951
 30
0.0
 10
88.88087969783187
 20
-201.7530598453951
 30
0.0
 10
88.69312199388575
 20
-201.7341118202262
 30
0.0
 10
88.69312199388575
 20
-201.7341118202262
 30
0.0
 10
88.69312199388575
 20
-201.7341118202262
 30
0.0
 10
88.82214081980835
 20
-200.8876518595003
 30
0.0
 10
88.82214081980835
 20
-200.8876518595003
 30
0.0
 10
88.82214081980835
 20
-200.8876518595003
 30
0.0
 10
89.65413137949619
 20
-200.8876518595003
 30
0.0
 10
89.65413137949619
 20
-200.8876518595003
 30
0.0
 10
89.65413137949619
 20
-200.8876518595003
 30
0.0
 10
89.65413137949619
 20
-201.0822997544169
 30
0.0
 10
89.65413137949619
 20
-201.0822997544169
 30
0.0
 10
89.65413137949619
 20
-201.0822997544169
 30
0.0
 10
88.99611814181347
 20
-201.0822997544169
 30
0.0
 10
88.99611814181347
 20
-201.0822997544169
 30
0.0
 10
88.99611814181347
 20
-201.0822997544169
 30
0.0
 10
88.92601044868864
 20
-201.5053574800056
 30
0.0
 10
88.92601044868864
 20
-201.5053574800056
 30
0.0
 10
88.99163951768264
 20
-201.4715955442502
 30
0.0
 10
89.07983396210504
 20
-201.4312879270727
 30
0.0
 10
89.20644122118797
 20
-201.4312879270727
 30
0.0
 10
89.47774249065141
 20
-201.4312879270727
 30
0.0
 10
89.73095700881727
 20
-201.6176675928247
 30
0.0
 10
89.73095700881727
 20
-201.930826772434
 30
0.0
 10
89.73095700881727
 20
-202.2481200666255
 30
0.0
 10
89.49117836304387
 20
-202.482731069171
 30
0.0
 10
89.16802840652744
 20
-202.482731069171
 30
0.0
  0
HATCH
  5
EF
330
E8
100
AcDbEntity
  8
_U+30EC_U+30A4_U+30E4_U+30FC 1
 62
   179
420
  2234388
100
AcDbHatch
 10
0.0
 20
0.0
 30
0.0
210
0.0
220
0.0
230
1.0
  2
SOLID
 70
     1
 71
     0
 91
        1
 92
        1
 93
        1
 72
     4
 94
        3
 73
     0
 74
     1
 95
       53
 96
       49
 40
0.0
 40
0.0
 40
0.0
 40
0.0
 40
1.0
 40
1.0
 40
1.0
 40
2.0
 40
2.0
 40
2.0
 40
3.0
 40
3.0
 40
3.0
 40
4.0
 40
4.0
 40
4.0
 40
5.0
 40
5.0
 40
5.0
 40
6.0
 40
6.0
 40
6.0
 40
7.0
 40
7.0
 40
7.0
 40
8.0
 40
8.0
 40
8.0
 40
9.0
 40
9.0
 40
9.0
 40
10.0
 40
10.0
 40
10.0
 40
11.0
 40
11.0
 40
11.0
 40
12.0
 40
12.0
 40
12.0
 40
13.0
 40
13.0
 40
13.0
 40
14.0
 40
14.0
 40
14.0
 40
15.0
 40
15.0
 40
15.0
 40
16.0
 40
16.0
 40
16.0
 40
16.0
 10
89.16802840652744
 20
-202.482731069171
 10
89.08431258623587
 20
-202.482731069171
 10
88.9757920784505
 20
-202.4658501012933
 10
88.86727157066512
 20
-202.4024603443647
 10
88.68192543355869
 20
-202.2925617983852
 10
88.65918780335603
 20
-202.1613036603972
 10
88.63886173999306
 20
-202.0534721717089
 10
88.63886173999306
 20
-202.0534721717089
 10
88.87622881892678
 20
-202.0534721717089
 10
88.87622881892678
 20
-202.0534721717089
 10
88.93513995172455
 20
-202.2522541812078
 10
89.07070445906913
 20
-202.2818820023809
 10
89.17026771859285
 20
-202.2818820023809
 10
89.31944035310417
 20
-202.2818820023809
 10
89.48222111478222
 20
-202.1823187428572
 10
89.48222111478222
 20
-201.9497747976029
 10
89.48222111478222
 20
-201.6938042030488
 10
89.28998478670529
 20
-201.6238687646982
 10
89.16113821555695
 20
-201.6238687646982
 10
89.12720402502723
 20
-201.6238687646982
 10
88.9757920784505
 20
-201.6238687646982
 10
88.88087969783187
 20
-201.7530598453951
 10
88.88087969783187
 20
-201.7530598453951
 10
88.69312199388575
 20
-201.7341118202262
 10
88.69312199388575
 20
-201.7341118202262
 10
88.69312199388575
 20
-201.7341118202262
 10
88.82214081980835
 20
-200.8876518595003
 10
88.82214081980835
 20
-200.8876518595003
 10
88.82214081980835
 20
-200.8876518595003
 10
89.65413137949619
 20
-200.8876518595003
 10
89.65413137949619
 20
-200.8876518595003
 10
89.65413137949619
 20
-200.8876518595003
 10
89.65413137949619
 20
-201.0822997544169
 10
89.65413137949619
 20
-201.0822997544169
 10
89.65413137949619
 20
-201.0822997544169
 10
88.99611814181347
 20
-201.0822997544169
 10
88.99611814181347
 20
-201.0822997544169
 10
88.99611814181347
 20
-201.0822997544169
 10
88.92601044868864
 20
-201.5053574800056
 10
88.92601044868864
 20
-201.5053574800056
 10
88.99163951768264
 20
-201.4715955442502
 10
89.07983396210504
 20
-201.4312879270727
 10
89.20644122118797
 20
-201.4312879270727
 10
89.47774249065141
 20
-201.4312879270727
 10
89.73095700881727
 20
-201.6176675928247
 10
89.73095700881727
 20
-201.930826772434
 10
89.73095700881727
 20
-202.2481200666255
 10
89.49117836304387
 20
-202.482731069171
 10
89.16802840652744
 20
-202.482731069171
 97
        0
 97
        0
 75
     2
 76
     1
 98
        0
  0
ENDBLK
  5
EB
330
E8
100
AcDbEntity
  8
0
100
AcDbBlockEnd
  0
BLOCK
  5
FE
330
FC
100
AcDbEntity
  8
0
100
AcDbBlockBegin
  2
block 6
 70
     0
 10
0.0
 20
0.0
 30
0.0
  3
block 6
  1

  0
SPLINE
  5
100
330
FC
100
AcDbEntity
  8
_U+30EC_U+30A4_U+30E4_U+30FC 1
370
     0
100
AcDbSpline
210
0.0
220
0.0
230
1.0
 70
    11
 71
     3
 72
    32
 73
    28
 74
     0
 42
0.0000000001
 43
0.0000000001
 12
1.0
 22
0.0
 32
0.0
 13
1.0
 23
0.0
 33
0.0
 40
0.0
 40
0.0
 40
0.0
 40
0.0
 40
1.0
 40
1.0
 40
1.0
 40
2.0
 40
2.0
 40
2.0
 40
3.0
 40
3.0
 40
3.0
 40
4.0
 40
4.0
 40
4.0
 40
5.0
 40
5.0
 40
5.0
 40
6.0
 40
6.0
 40
6.0
 40
7.0
 40
7.0
 40
7.0
 40
8.0
 40
8.0
 40
8.0
 40
9.0
 40
9.0
 40
9.0
 40
9.0
 10
76.4640665498944
 20
-152.2525498751313
 30
0.0
 10
76.4640665498944
 20
-152.4378960122378
 30
0.0
 10
76.39447562109235
 20
-152.7000677786653
 30
0.0
 10
76.06236841631427
 20
-152.7407199053912
 30
0.0
 10
76.06236841631427
 20
-152.7407199053912
 30
0.0
 10
76.06236841631427
 20
-152.5123100747192
 30
0.0
 10
76.06236841631427
 20
-152.5123100747192
 30
0.0
 10
76.12162405866057
 20
-152.5009412596178
 30
0.0
 10
76.26941865497778
 20
-152.4671793238624
 30
0.0
 10
76.26941865497778
 20
-152.2501383082916
 30
0.0
 10
76.26941865497778
 20
-151.938012657328
 30
0.0
 10
75.93972301703938
 20
-151.897360530602
 30
0.0
 10
75.73439532611849
 20
-151.8839246582096
 30
0.0
 10
75.81466605092481
 20
-151.9810763508936
 30
0.0
 10
75.87185463597996
 20
-152.0534233560839
 30
0.0
 10
75.87185463597996
 20
-152.247726741452
 30
0.0
 10
75.87185463597996
 20
-152.4399630695289
 30
0.0
 10
75.76609020458278
 20
-152.7631130260453
 30
0.0
 10
75.35991344687183
 20
-152.7631130260453
 30
0.0
 10
75.04055309538917
 20
-152.7631130260453
 30
0.0
 10
74.8204114938817
 20
-152.5508951441539
 30
0.0
 10
74.8204114938817
 20
-152.2115532388569
 30
0.0
 10
74.8204114938817
 20
-151.6620605089595
 30
0.0
 10
75.37472735745841
 20
-151.6510362034067
 30
0.0
 10
75.58832327754389
 20
-151.6510362034067
 30
0.0
 10
75.81880016550711
 20
-151.6510362034067
 30
0.0
 10
76.4640665498944
 20
-151.6713622667697
 30
0.0
 10
76.4640665498944
 20
-152.2525498751313
 30
0.0
  0
SPLINE
  5
101
330
FC
100
AcDbEntity
  8
_U+30EC_U+30A4_U+30E4_U+30FC 1
370
     0
100
AcDbSpline
210
0.0
220
0.0
230
1.0
 70
    11
 71
     3
 72
    17
 73
    13
 74
     0
 42
0.0000000001
 43
0.0000000001
 12
1.0
 22
0.0
 32
0.0
 13
1.0
 23
0.0
 33
0.0
 40
0.0
 40
0.0
 40
0.0
 40
0.0
 40
1.0
 40
1.0
 40
1.0
 40
2.0
 40
2.0
 40
2.0
 40
3.0
 40
3.0
 40
3.0
 40
4.0
 40
4.0
 40
4.0
 40
4.0
 10
75.01299233150718
 20
-152.2091416720172
 30
0.0
 10
75.01299233150718
 20
-152.3359211858744
 30
0.0
 10
75.07018091656232
 20
-152.5236788898205
 30
0.0
 10
75.35577933228953
 20
-152.5236788898205
 30
0.0
 10
75.58212210567045
 20
-152.5236788898205
 30
0.0
 10
75.67720674106334
 20
-152.3745062553092
 30
0.0
 10
75.67720674106334
 20
-152.2298122449287
 30
0.0
 10
75.67720674106334
 20
-151.9493814724293
 30
0.0
 10
75.46774493556015
 20
-151.9087293457034
 30
0.0
 10
75.3513007081587
 20
-151.9087293457034
 30
0.0
 10
75.17594534795948
 20
-151.9087293457034
 30
0.0
 10
75.01299233150718
 20
-152.0103596625183
 30
0.0
 10
75.01299233150718
 20
-152.2091416720172
 30
0.0
  0
HATCH
  5
102
330
FC
100
AcDbEntity
  8
_U+30EC_U+30A4_U+30E4_U+30FC 1
 62
   179
420
  2234388
100
AcDbHatch
 10
0.0
 20
0.0
 30
0.0
210
0.0
220
0.0
230
1.0
  2
SOLID
 70
     1
 71
     0
 91
        2
 92
        1
 93
        1
 72
     4
 94
        3
 73
     0
 74
     1
 95
       32
 96
       28
 40
0.0
 40
0.0
 40
0.0
 40
0.0
 40
1.0
 40
1.0
 40
1.0
 40
2.0
 40
2.0
 40
2.0
 40
3.0
 40
3.0
 40
3.0
 40
4.0
 40
4.0
 40
4.0
 40
5.0
 40
5.0
 40
5.0
 40
6.0
 40
6.0
 40
6.0
 40
7.0
 40
7.0
 40
7.0
 40
8.0
 40
8.0
 40
8.0
 40
9.0
 40
9.0
 40
9.0
 40
9.0
 10
76.4640665498944
 20
-152.2525498751313
 10
76.4640665498944
 20
-152.4378960122378
 10
76.39447562109235
 20
-152.7000677786653
 10
76.06236841631427
 20
-152.7407199053912
 10
76.06236841631427
 20
-152.7407199053912
 10
76.06236841631427
 20
-152.5123100747192
 10
76.06236841631427
 20
-152.5123100747192
 10
76.12162405866057
 20
-152.5009412596178
 10
76.26941865497778
 20
-152.4671793238624
 10
76.26941865497778
 20
-152.2501383082916
 10
76.26941865497778
 20
-151.938012657328
 10
75.93972301703938
 20
-151.897360530602
 10
75.73439532611849
 20
-151.8839246582096
 10
75.81466605092481
 20
-151.9810763508936
 10
75.87185463597996
 20
-152.0534233560839
 10
75.87185463597996
 20
-152.247726741452
 10
75.87185463597996
 20
-152.4399630695289
 10
75.76609020458278
 20
-152.7631130260453
 10
75.35991344687183
 20
-152.7631130260453
 10
75.04055309538917
 20
-152.7631130260453
 10
74.8204114938817
 20
-152.5508951441539
 10
74.8204114938817
 20
-152.2115532388569
 10
74.8204114938817
 20
-151.6620605089595
 10
75.37472735745841
 20
-151.6510362034067
 10
75.58832327754389
 20
-151.6510362034067
 10
75.81880016550711
 20
-151.6510362034067
 10
76.4640665498944
 20
-151.6713622667697
 10
76.4640665498944
 20
-152.2525498751313
 97
        0
 97
        0
 92
        1
 93
        1
 72
     4
 94
        3
 73
     0
 74
     1
 95
       17
 96
       13
 40
0.0
 40
0.0
 40
0.0
 40
0.0
 40
1.0
 40
1.0
 40
1.0
 40
2.0
 40
2.0
 40
2.0
 40
3.0
 40
3.0
 40
3.0
 40
4.0
 40
4.0
 40
4.0
 40
4.0
 10
75.01299233150718
 20
-152.2091416720172
 10
75.01299233150718
 20
-152.3359211858744
 10
75.07018091656232
 20
-152.5236788898205
 10
75.35577933228953
 20
-152.5236788898205
 10
75.58212210567045
 20
-152.5236788898205
 10
75.67720674106334
 20
-152.3745062553092
 10
75.67720674106334
 20
-152.2298122449287
 10
75.67720674106334
 20
-151.9493814724293
 10
75.46774493556015
 20
-151.9087293457034
 10
75.3513007081587
 20
-151.9087293457034
 10
75.17594534795948
 20
-151.9087293457034
 10
75.01299233150718
 20
-152.0103596625183
 10
75.01299233150718
 20
-152.2091416720172
 97
        0
 97
        0
 75
     2
 76
     1
 98
        0
  0
SPLINE
  5
103
330
FC
100
AcDbEntity
  8
_U+30EC_U+30A4_U+30E4_U+30FC 1
370
     0
100
AcDbSpline
210
0.0
220
0.0
230
1.0
 70
    11
 71
     3
 72
    53
 73
    49
 74
     0
 42
0.0000000001
 43
0.0000000001
 12
1.0
 22
0.0
 32
0.0
 13
1.0
 23
0.0
 33
0.0
 40
0.0
 40
0.0
 40
0.0
 40
0.0
 40
1.0
 40
1.0
 40
1.0
 40
2.0
 40
2.0
 40
2.0
 40
3.0
 40
3.0
 40
3.0
 40
4.0
 40
4.0
 40
4.0
 40
5.0
 40
5.0
 40
5.0
 40
6.0
 40
6.0
 40
6.0
 40
7.0
 40
7.0
 40
7.0
 40
8.0
 40
8.0
 40
8.0
 40
9.0
 40
9.0
 40
9.0
 40
10.0
 40
10.0
 40
10.0
 40
11.0
 40
11.0
 40
11.0
 40
12.0
 40
12.0
 40
12.0
 40
13.0
 40
13.0
 40
13.0
 40
14.0
 40
14.0
 40
14.0
 40
15.0
 40
15.0
 40
15.0
 40
16.0
 40
16.0
 40
16.0
 40
16.0
 10
76.4640665498944
 20
-150.9695963164243
 30
0.0
 10
76.4640665498944
 20
-151.0533121367158
 30
0.0
 10
76.44718558201667
 20
-151.1618326445012
 30
0.0
 10
76.38379582508809
 20
-151.2703531522866
 30
0.0
 10
76.27389727910861
 20
-151.455699289393
 30
0.0
 10
76.1426391411206
 20
-151.4784369195957
 30
0.0
 10
76.03480765243228
 20
-151.4987629829587
 30
0.0
 10
76.03480765243228
 20
-151.4987629829587
 30
0.0
 10
76.03480765243228
 20
-151.2613959040249
 30
0.0
 10
76.03480765243228
 20
-151.2613959040249
 30
0.0
 10
76.23358966193119
 20
-151.2024847712272
 30
0.0
 10
76.26321748310434
 20
-151.0667480091083
 30
0.0
 10
76.26321748310434
 20
-150.9675292591331
 30
0.0
 10
76.26321748310434
 20
-150.8180121150733
 30
0.0
 10
76.16365422358062
 20
-150.6554036081695
 30
0.0
 10
75.93111027832626
 20
-150.6554036081695
 30
0.0
 10
75.67513968377219
 20
-150.6554036081695
 30
0.0
 10
75.60520424542162
 20
-150.8476399362464
 30
0.0
 10
75.60520424542162
 20
-150.9764865073948
 30
0.0
 10
75.60520424542162
 20
-151.0102484431502
 30
0.0
 10
75.60520424542162
 20
-151.1618326445012
 30
0.0
 10
75.73439532611849
 20
-151.2569172798941
 30
0.0
 10
75.73439532611849
 20
-151.2569172798941
 30
0.0
 10
75.71544730094962
 20
-151.4443304742917
 30
0.0
 10
75.71544730094962
 20
-151.4443304742917
 30
0.0
 10
75.71544730094962
 20
-151.4443304742917
 30
0.0
 10
74.86898734022373
 20
-151.3154839031434
 30
0.0
 10
74.86898734022373
 20
-151.3154839031434
 30
0.0
 10
74.86898734022373
 20
-151.3154839031434
 30
0.0
 10
74.86898734022373
 20
-150.4834933434555
 30
0.0
 10
74.86898734022373
 20
-150.4834933434555
 30
0.0
 10
74.86898734022373
 20
-150.4834933434555
 30
0.0
 10
75.06363523514034
 20
-150.4834933434555
 30
0.0
 10
75.06363523514034
 20
-150.4834933434555
 30
0.0
 10
75.06363523514034
 20
-150.4834933434555
 30
0.0
 10
75.06363523514034
 20
-151.1415065811382
 30
0.0
 10
75.06363523514034
 20
-151.1415065811382
 30
0.0
 10
75.06363523514034
 20
-151.1415065811382
 30
0.0
 10
75.48669296072903
 20
-151.2114420194888
 30
0.0
 10
75.48669296072903
 20
-151.2114420194888
 30
0.0
 10
75.45293102497358
 20
-151.1459852052691
 30
0.0
 10
75.41262340779615
 20
-151.0577907608467
 30
0.0
 10
75.41262340779615
 20
-150.9310112469895
 30
0.0
 10
75.41262340779615
 20
-150.6598822323003
 30
0.0
 10
75.59900307354818
 20
-150.4066677141344
 30
0.0
 10
75.91216225315738
 20
-150.4066677141344
 30
0.0
 10
76.22945554734889
 20
-150.4066677141344
 30
0.0
 10
76.4640665498944
 20
-150.6464463599078
 30
0.0
 10
76.4640665498944
 20
-150.9695963164243
 30
0.0
  0
HATCH
  5
104
330
FC
100
AcDbEntity
  8
_U+30EC_U+30A4_U+30E4_U+30FC 1
 62
   179
420
  2234388
100
AcDbHatch
 10
0.0
 20
0.0
 30
0.0
210
0.0
220
0.0
230
1.0
  2
SOLID
 70
     1
 71
     0
 91
        1
 92
        1
 93
        1
 72
     4
 94
        3
 73
     0
 74
     1
 95
       53
 96
       49
 40
0.0
 40
0.0
 40
0.0
 40
0.0
 40
1.0
 40
1.0
 40
1.0
 40
2.0
 40
2.0
 40
2.0
 40
3.0
 40
3.0
 40
3.0
 40
4.0
 40
4.0
 40
4.0
 40
5.0
 40
5.0
 40
5.0
 40
6.0
 40
6.0
 40
6.0
 40
7.0
 40
7.0
 40
7.0
 40
8.0
 40
8.0
 40
8.0
 40
9.0
 40
9.0
 40
9.0
 40
10.0
 40
10.0
 40
10.0
 40
11.0
 40
11.0
 40
11.0
 40
12.0
 40
12.0
 40
12.0
 40
13.0
 40
13.0
 40
13.0
 40
14.0
 40
14.0
 40
14.0
 40
15.0
 40
15.0
 40
15.0
 40
16.0
 40
16.0
 40
16.0
 40
16.0
 10
76.4640665498944
 20
-150.9695963164243
 10
76.4640665498944
 20
-151.0533121367158
 10
76.44718558201667
 20
-151.1618326445012
 10
76.38379582508809
 20
-151.2703531522866
 10
76.27389727910861
 20
-151.455699289393
 10
76.1426391411206
 20
-151.4784369195957
 10
76.03480765243228
 20
-151.4987629829587
 10
76.03480765243228
 20
-151.4987629829587
 10
76.03480765243228
 20
-151.2613959040249
 10
76.03480765243228
 20
-151.2613959040249
 10
76.23358966193119
 20
-151.2024847712272
 10
76.26321748310434
 20
-151.0667480091083
 10
76.26321748310434
 20
-150.9675292591331
 10
76.26321748310434
 20
-150.8180121150733
 10
76.16365422358062
 20
-150.6554036081695
 10
75.93111027832626
 20
-150.6554036081695
 10
75.67513968377219
 20
-150.6554036081695
 10
75.60520424542162
 20
-150.8476399362464
 10
75.60520424542162
 20
-150.9764865073948
 10
75.60520424542162
 20
-151.0102484431502
 10
75.60520424542162
 20
-151.1618326445012
 10
75.73439532611849
 20
-151.2569172798941
 10
75.73439532611849
 20
-151.2569172798941
 10
75.71544730094962
 20
-151.4443304742917
 10
75.71544730094962
 20
-151.4443304742917
 10
75.71544730094962
 20
-151.4443304742917
 10
74.86898734022373
 20
-151.3154839031434
 10
74.86898734022373
 20
-151.3154839031434
 10
74.86898734022373
 20
-151.3154839031434
 10
74.86898734022373
 20
-150.4834933434555
 10
74.86898734022373
 20
-150.4834933434555
 10
74.86898734022373
 20
-150.4834933434555
 10
75.06363523514034
 20
-150.4834933434555
 10
75.06363523514034
 20
-150.4834933434555
 10
75.06363523514034
 20
-150.4834933434555
 10
75.06363523514034
 20
-151.1415065811382
 10
75.06363523514034
 20
-151.1415065811382
 10
75.06363523514034
 20
-151.1415065811382
 10
75.48669296072903
 20
-151.2114420194888
 10
75.48669296072903
 20
-151.2114420194888
 10
75.45293102497358
 20
-151.1459852052691
 10
75.41262340779615
 20
-151.0577907608467
 10
75.41262340779615
 20
-150.9310112469895
 10
75.41262340779615
 20
-150.6598822323003
 10
75.59900307354818
 20
-150.4066677141344
 10
75.91216225315738
 20
-150.4066677141344
 10
76.22945554734889
 20
-150.4066677141344
 10
76.4640665498944
 20
-150.6464463599078
 10
76.4640665498944
 20
-150.9695963164243
 97
        0
 97
        0
 75
     2
 76
     1
 98
        0
  0
ENDBLK
  5
FF
330
FC
100
AcDbEntity
  8
0
100
AcDbBlockEnd
  0
BLOCK
  5
113
330
111
100
AcDbEntity
  8
0
100
AcDbBlockBegin
  2
block 7
 70
     0
 10
0.0
 20
0.0
 30
0.0
  3
block 7
  1

  0
SPLINE
  5
115
330
111
100
AcDbEntity
  8
_U+30EC_U+30A4_U+30E4_U+30FC 1
370
     0
100
AcDbSpline
210
0.0
220
0.0
230
1.0
 70
    11
 71
     3
 72
    26
 73
    22
 74
     0
 42
0.0000000001
 43
0.0000000001
 12
1.0
 22
0.0
 32
0.0
 13
1.0
 23
0.0
 33
0.0
 40
0.0
 40
0.0
 40
0.0
 40
0.0
 40
1.0
 40
1.0
 40
1.0
 40
2.0
 40
2.0
 40
2.0
 40
3.0
 40
3.0
 40
3.0
 40
4.0
 40
4.0
 40
4.0
 40
5.0
 40
5.0
 40
5.0
 40
6.0
 40
6.0
 40
6.0
 40
7.0
 40
7.0
 40
7.0
 40
7.0
 10
134.4131564334106
 20
-190.2598767970531
 30
0.0
 10
134.4131564334106
 20
-190.2598767970531
 30
0.0
 10
133.3093478399365
 20
-190.2598767970531
 30
0.0
 10
133.3093478399365
 20
-190.2598767970531
 30
0.0
 10
133.3093478399365
 20
-190.2598767970531
 30
0.0
 10
133.3093478399365
 20
-190.6123100651942
 30
0.0
 10
133.3093478399365
 20
-190.6123100651942
 30
0.0
 10
133.3093478399365
 20
-190.6123100651942
 30
0.0
 10
133.1612087340708
 20
-190.6123100651942
 30
0.0
 10
133.1612087340708
 20
-190.6123100651942
 30
0.0
 10
133.1460503139357
 20
-190.2574652302134
 30
0.0
 10
132.9834418070319
 20
-190.2078558552258
 30
0.0
 10
132.8690646369216
 20
-190.1761609767615
 30
0.0
 10
132.8690646369216
 20
-190.1761609767615
 30
0.0
 10
132.8690646369216
 20
-190.0200981512797
 30
0.0
 10
132.8690646369216
 20
-190.0200981512797
 30
0.0
 10
132.8690646369216
 20
-190.0200981512797
 30
0.0
 10
134.4131564334106
 20
-190.0200981512797
 30
0.0
 10
134.4131564334106
 20
-190.0200981512797
 30
0.0
 10
134.4131564334106
 20
-190.0200981512797
 30
0.0
 10
134.4131564334106
 20
-190.2598767970531
 30
0.0
 10
134.4131564334106
 20
-190.2598767970531
 30
0.0
  0
HATCH
  5
116
330
111
100
AcDbEntity
  8
_U+30EC_U+30A4_U+30E4_U+30FC 1
 62
   179
420
  2234388
100
AcDbHatch
 10
0.0
 20
0.0
 30
0.0
210
0.0
220
0.0
230
1.0
  2
SOLID
 70
     1
 71
     0
 91
        1
 92
        1
 93
        1
 72
     4
 94
        3
 73
     0
 74
     1
 95
       26
 96
       22
 40
0.0
 40
0.0
 40
0.0
 40
0.0
 40
1.0
 40
1.0
 40
1.0
 40
2.0
 40
2.0
 40
2.0
 40
3.0
 40
3.0
 40
3.0
 40
4.0
 40
4.0
 40
4.0
 40
5.0
 40
5.0
 40
5.0
 40
6.0
 40
6.0
 40
6.0
 40
7.0
 40
7.0
 40
7.0
 40
7.0
 10
134.4131564334106
 20
-190.2598767970531
 10
134.4131564334106
 20
-190.2598767970531
 10
133.3093478399365
 20
-190.2598767970531
 10
133.3093478399365
 20
-190.2598767970531
 10
133.3093478399365
 20
-190.2598767970531
 10
133.3093478399365
 20
-190.6123100651942
 10
133.3093478399365
 20
-190.6123100651942
 10
133.3093478399365
 20
-190.6123100651942
 10
133.1612087340708
 20
-190.6123100651942
 10
133.1612087340708
 20
-190.6123100651942
 10
133.1460503139357
 20
-190.2574652302134
 10
132.9834418070319
 20
-190.2078558552258
 10
132.8690646369216
 20
-190.1761609767615
 10
132.8690646369216
 20
-190.1761609767615
 10
132.8690646369216
 20
-190.0200981512797
 10
132.8690646369216
 20
-190.0200981512797
 10
132.8690646369216
 20
-190.0200981512797
 10
134.4131564334106
 20
-190.0200981512797
 10
134.4131564334106
 20
-190.0200981512797
 10
134.4131564334106
 20
-190.0200981512797
 10
134.4131564334106
 20
-190.2598767970531
 10
134.4131564334106
 20
-190.2598767970531
 97
        0
 97
        0
 75
     2
 76
     1
 98
        0
  0
SPLINE
  5
117
330
111
100
AcDbEntity
  8
_U+30EC_U+30A4_U+30E4_U+30FC 1
370
     0
100
AcDbSpline
210
0.0
220
0.0
230
1.0
 70
    11
 71
     3
 72
    62
 73
    58
 74
     0
 42
0.0000000001
 43
0.0000000001
 12
1.0
 22
0.0
 32
0.0
 13
1.0
 23
0.0
 33
0.0
 40
0.0
 40
0.0
 40
0.0
 40
0.0
 40
1.0
 40
1.0
 40
1.0
 40
2.0
 40
2.0
 40
2.0
 40
3.0
 40
3.0
 40
3.0
 40
4.0
 40
4.0
 40
4.0
 40
5.0
 40
5.0
 40
5.0
 40
6.0
 40
6.0
 40
6.0
 40
7.0
 40
7.0
 40
7.0
 40
8.0
 40
8.0
 40
8.0
 40
9.0
 40
9.0
 40
9.0
 40
10.0
 40
10.0
 40
10.0
 40
11.0
 40
11.0
 40
11.0
 40
12.0
 40
12.0
 40
12.0
 40
13.0
 40
13.0
 40
13.0
 40
14.0
 40
14.0
 40
14.0
 40
15.0
 40
15.0
 40
15.0
 40
16.0
 40
16.0
 40
16.0
 40
17.0
 40
17.0
 40
17.0
 40
18.0
 40
18.0
 40
18.0
 40
19.0
 40
19.0
 40
19.0
 40
19.0
 10
134.4641438465923
 20
-188.9590087418227
 30
0.0
 10
134.4641438465923
 20
-189.0606390586376
 30
0.0
 10
134.4427842545838
 20
-189.2935275134405
 30
0.0
 10
134.2567490983803
 20
-189.4268527087197
 30
0.0
 10
134.1444389855611
 20
-189.5060899048804
 30
0.0
 10
134.0452202355859
 20
-189.5105685290113
 30
0.0
 10
133.9604708866488
 20
-189.5150471531421
 30
0.0
 10
133.9604708866488
 20
-189.5150471531421
 30
0.0
 10
133.9604708866488
 20
-189.280091641048
 30
0.0
 10
133.9604708866488
 20
-189.280091641048
 30
0.0
 10
134.0348849491302
 20
-189.2776800742084
 30
0.0
 10
134.2691514421272
 20
-189.2663112591071
 30
0.0
 10
134.2691514421272
 20
-188.9634873659536
 30
0.0
 10
134.2691514421272
 20
-188.8163817887334
 30
0.0
 10
134.1995605133251
 20
-188.6537732818296
 30
0.0
 10
133.9714951922016
 20
-188.6537732818296
 30
0.0
 10
133.8550509648001
 20
-188.6537732818296
 30
0.0
 10
133.8061306089096
 20
-188.6944254085556
 30
0.0
 10
133.7744357304453
 20
-188.7285318538596
 30
0.0
 10
133.7007106870609
 20
-188.8074245404718
 30
0.0
 10
133.687619324217
 20
-188.9317924874893
 30
0.0
 10
133.687619324217
 20
-188.9907036202871
 30
0.0
 10
133.687619324217
 20
-189.01102968365
 30
0.0
 10
133.6896863815082
 20
-189.0492702435363
 30
0.0
 10
133.6938204960904
 20
-189.0788980647094
 30
0.0
 10
133.6938204960904
 20
-189.0788980647094
 30
0.0
 10
133.4995171107223
 20
-189.0788980647094
 30
0.0
 10
133.4995171107223
 20
-189.0788980647094
 30
0.0
 10
133.5057182825958
 20
-189.0382459379835
 30
0.0
 10
133.5077853398869
 20
-188.9927706775782
 30
0.0
 10
133.5077853398869
 20
-188.9862249961562
 30
0.0
 10
133.5077853398869
 20
-188.9159450482571
 30
0.0
 10
133.4864257478784
 20
-188.7033826568172
 30
0.0
 10
133.2500921975902
 20
-188.7033826568172
 30
0.0
 10
133.0723252705514
 20
-188.7033826568172
 30
0.0
 10
133.0172037427874
 20
-188.8435980430669
 30
0.0
 10
133.0172037427874
 20
-188.9610757991139
 30
0.0
 10
133.0172037427874
 20
-189.2439181384529
 30
0.0
 10
133.2500921975902
 20
-189.2528753867146
 30
0.0
 10
133.3217501836835
 20
-189.2573540108454
 30
0.0
 10
133.3217501836835
 20
-189.2573540108454
 30
0.0
 10
133.3217501836835
 20
-189.4743950264161
 30
0.0
 10
133.3217501836835
 20
-189.4743950264161
 30
0.0
 10
133.1970377271174
 20
-189.4654377781545
 30
0.0
 10
132.8201442810311
 20
-189.4361544665299
 30
0.0
 10
132.8201442810311
 20
-188.9476399267214
 30
0.0
 10
132.8201442810311
 20
-188.707861280948
 30
0.0
 10
132.9476128139853
 20
-188.4501681386513
 30
0.0
 10
133.2432020066198
 20
-188.4501681386513
 30
0.0
 10
133.4299261819203
 20
-188.4501681386513
 30
0.0
 10
133.5119194544693
 20
-188.5521429650148
 30
0.0
 10
133.5732421541067
 20
-188.6582519059604
 30
0.0
 10
133.6008029179887
 20
-188.5927950917407
 30
0.0
 10
133.6814181523436
 20
-188.3981471968241
 30
0.0
 10
133.9584038293576
 20
-188.3981471968241
 30
0.0
 10
134.2967122060092
 20
-188.3981471968241
 30
0.0
 10
134.4641438465923
 20
-188.6627305300913
 30
0.0
 10
134.4641438465923
 20
-188.9590087418227
 30
0.0
  0
HATCH
  5
118
330
111
100
AcDbEntity
  8
_U+30EC_U+30A4_U+30E4_U+30FC 1
 62
   179
420
  2234388
100
AcDbHatch
 10
0.0
 20
0.0
 30
0.0
210
0.0
220
0.0
230
1.0
  2
SOLID
 70
     1
 71
     0
 91
        1
 92
        1
 93
        1
 72
     4
 94
        3
 73
     0
 74
     1
 95
       62
 96
       58
 40
0.0
 40
0.0
 40
0.0
 40
0.0
 40
1.0
 40
1.0
 40
1.0
 40
2.0
 40
2.0
 40
2.0
 40
3.0
 40
3.0
 40
3.0
 40
4.0
 40
4.0
 40
4.0
 40
5.0
 40
5.0
 40
5.0
 40
6.0
 40
6.0
 40
6.0
 40
7.0
 40
7.0
 40
7.0
 40
8.0
 40
8.0
 40
8.0
 40
9.0
 40
9.0
 40
9.0
 40
10.0
 40
10.0
 40
10.0
 40
11.0
 40
11.0
 40
11.0
 40
12.0
 40
12.0
 40
12.0
 40
13.0
 40
13.0
 40
13.0
 40
14.0
 40
14.0
 40
14.0
 40
15.0
 40
15.0
 40
15.0
 40
16.0
 40
16.0
 40
16.0
 40
17.0
 40
17.0
 40
17.0
 40
18.0
 40
18.0
 40
18.0
 40
19.0
 40
19.0
 40
19.0
 40
19.0
 10
134.4641438465923
 20
-188.9590087418227
 10
134.4641438465923
 20
-189.0606390586376
 10
134.4427842545838
 20
-189.2935275134405
 10
134.2567490983803
 20
-189.4268527087197
 10
134.1444389855611
 20
-189.5060899048804
 10
134.0452202355859
 20
-189.5105685290113
 10
133.9604708866488
 20
-189.5150471531421
 10
133.9604708866488
 20
-189.5150471531421
 10
133.9604708866488
 20
-189.280091641048
 10
133.9604708866488
 20
-189.280091641048
 10
134.0348849491302
 20
-189.2776800742084
 10
134.2691514421272
 20
-189.2663112591071
 10
134.2691514421272
 20
-188.9634873659536
 10
134.2691514421272
 20
-188.8163817887334
 10
134.1995605133251
 20
-188.6537732818296
 10
133.9714951922016
 20
-188.6537732818296
 10
133.8550509648001
 20
-188.6537732818296
 10
133.8061306089096
 20
-188.6944254085556
 10
133.7744357304453
 20
-188.7285318538596
 10
133.7007106870609
 20
-188.8074245404718
 10
133.687619324217
 20
-188.9317924874893
 10
133.687619324217
 20
-188.9907036202871
 10
133.687619324217
 20
-189.01102968365
 10
133.6896863815082
 20
-189.0492702435363
 10
133.6938204960904
 20
-189.0788980647094
 10
133.6938204960904
 20
-189.0788980647094
 10
133.4995171107223
 20
-189.0788980647094
 10
133.4995171107223
 20
-189.0788980647094
 10
133.5057182825958
 20
-189.0382459379835
 10
133.5077853398869
 20
-188.9927706775782
 10
133.5077853398869
 20
-188.9862249961562
 10
133.5077853398869
 20
-188.9159450482571
 10
133.4864257478784
 20
-188.7033826568172
 10
133.2500921975902
 20
-188.7033826568172
 10
133.0723252705514
 20
-188.7033826568172
 10
133.0172037427874
 20
-188.8435980430669
 10
133.0172037427874
 20
-188.9610757991139
 10
133.0172037427874
 20
-189.2439181384529
 10
133.2500921975902
 20
-189.2528753867146
 10
133.3217501836835
 20
-189.2573540108454
 10
133.3217501836835
 20
-189.2573540108454
 10
133.3217501836835
 20
-189.4743950264161
 10
133.3217501836835
 20
-189.4743950264161
 10
133.1970377271174
 20
-189.4654377781545
 10
132.8201442810311
 20
-189.4361544665299
 10
132.8201442810311
 20
-188.9476399267214
 10
132.8201442810311
 20
-188.707861280948
 10
132.9476128139853
 20
-188.4501681386513
 10
133.2432020066198
 20
-188.4501681386513
 10
133.4299261819203
 20
-188.4501681386513
 10
133.5119194544693
 20
-188.5521429650148
 10
133.5732421541067
 20
-188.6582519059604
 10
133.6008029179887
 20
-188.5927950917407
 10
133.6814181523436
 20
-188.3981471968241
 10
133.9584038293576
 20
-188.3981471968241
 10
134.2967122060092
 20
-188.3981471968241
 10
134.4641438465923
 20
-188.6627305300913
 10
134.4641438465923
 20
-188.9590087418227
 97
        0
 97
        0
 75
     2
 76
     1
 98
        0
  0
ENDBLK
  5
114
330
111
100
AcDbEntity
  8
0
100
AcDbBlockEnd
  0
BLOCK
  5
11B
330
119
100
AcDbEntity
  8
0
100
AcDbBlockBegin
  2
block 8
 70
     0
 10
0.0
 20
0.0
 30
0.0
  3
block 8
  1

  0
SPLINE
  5
11D
330
119
100
AcDbEntity
  8
_U+30EC_U+30A4_U+30E4_U+30FC 1
370
     0
100
AcDbSpline
210
0.0
220
0.0
230
1.0
 70
    11
 71
     3
 72
    26
 73
    22
 74
     0
 42
0.0000000001
 43
0.0000000001
 12
1.0
 22
0.0
 32
0.0
 13
1.0
 23
0.0
 33
0.0
 40
0.0
 40
0.0
 40
0.0
 40
0.0
 40
1.0
 40
1.0
 40
1.0
 40
2.0
 40
2.0
 40
2.0
 40
3.0
 40
3.0
 40
3.0
 40
4.0
 40
4.0
 40
4.0
 40
5.0
 40
5.0
 40
5.0
 40
6.0
 40
6.0
 40
6.0
 40
7.0
 40
7.0
 40
7.0
 40
7.0
 10
134.4131564334106
 20
-180.826516339342
 30
0.0
 10
134.4131564334106
 20
-180.826516339342
 30
0.0
 10
133.309003330388
 20
-180.826516339342
 30
0.0
 10
133.309003330388
 20
-180.826516339342
 30
0.0
 10
133.309003330388
 20
-180.826516339342
 30
0.0
 10
133.309003330388
 20
-181.178949607483
 30
0.0
 10
133.309003330388
 20
-181.178949607483
 30
0.0
 10
133.309003330388
 20
-181.178949607483
 30
0.0
 10
133.1608642245223
 20
-181.178949607483
 30
0.0
 10
133.1608642245223
 20
-181.178949607483
 30
0.0
 10
133.1460503139357
 20
-180.8241047725023
 30
0.0
 10
132.9830972974834
 20
-180.7744953975147
 30
0.0
 10
132.8687201273731
 20
-180.7428005190504
 30
0.0
 10
132.8687201273731
 20
-180.7428005190504
 30
0.0
 10
132.8687201273731
 20
-180.5867376935686
 30
0.0
 10
132.8687201273731
 20
-180.5867376935686
 30
0.0
 10
132.8687201273731
 20
-180.5867376935686
 30
0.0
 10
134.4131564334106
 20
-180.5867376935686
 30
0.0
 10
134.4131564334106
 20
-180.5867376935686
 30
0.0
 10
134.4131564334106
 20
-180.5867376935686
 30
0.0
 10
134.4131564334106
 20
-180.826516339342
 30
0.0
 10
134.4131564334106
 20
-180.826516339342
 30
0.0
  0
HATCH
  5
11E
330
119
100
AcDbEntity
  8
_U+30EC_U+30A4_U+30E4_U+30FC 1
 62
   179
420
  2234388
100
AcDbHatch
 10
0.0
 20
0.0
 30
0.0
210
0.0
220
0.0
230
1.0
  2
SOLID
 70
     1
 71
     0
 91
        1
 92
        1
 93
        1
 72
     4
 94
        3
 73
     0
 74
     1
 95
       26
 96
       22
 40
0.0
 40
0.0
 40
0.0
 40
0.0
 40
1.0
 40
1.0
 40
1.0
 40
2.0
 40
2.0
 40
2.0
 40
3.0
 40
3.0
 40
3.0
 40
4.0
 40
4.0
 40
4.0
 40
5.0
 40
5.0
 40
5.0
 40
6.0
 40
6.0
 40
6.0
 40
7.0
 40
7.0
 40
7.0
 40
7.0
 10
134.4131564334106
 20
-180.826516339342
 10
134.4131564334106
 20
-180.826516339342
 10
133.309003330388
 20
-180.826516339342
 10
133.309003330388
 20
-180.826516339342
 10
133.309003330388
 20
-180.826516339342
 10
133.309003330388
 20
-181.178949607483
 10
133.309003330388
 20
-181.178949607483
 10
133.309003330388
 20
-181.178949607483
 10
133.1608642245223
 20
-181.178949607483
 10
133.1608642245223
 20
-181.178949607483
 10
133.1460503139357
 20
-180.8241047725023
 10
132.9830972974834
 20
-180.7744953975147
 10
132.8687201273731
 20
-180.7428005190504
 10
132.8687201273731
 20
-180.7428005190504
 10
132.8687201273731
 20
-180.5867376935686
 10
132.8687201273731
 20
-180.5867376935686
 10
132.8687201273731
 20
-180.5867376935686
 10
134.4131564334106
 20
-180.5867376935686
 10
134.4131564334106
 20
-180.5867376935686
 10
134.4131564334106
 20
-180.5867376935686
 10
134.4131564334106
 20
-180.826516339342
 10
134.4131564334106
 20
-180.826516339342
 97
        0
 97
        0
 75
     2
 76
     1
 98
        0
  0
POLYLINE
  5
11F
330
119
100
AcDbEntity
  8
_U+30EC_U+30A4_U+30E4_U+30FC 1
370
     0
100
AcDb2dPolyline
 66
     1
 10
0.0
 20
0.0
 30
0.0
  0
VERTEX
  5
120
330
11F
100
AcDbEntity
  8
_U+30EC_U+30A4_U+30E4_U+30FC 1
370
     0
100
AcDbVertex
100
AcDb2dVertex
 10
134.4131564334106
 20
-179.9869465695866
 30
0.0
  0
VERTEX
  5
121
330
11F
100
AcDbEntity
  8
_U+30EC_U+30A4_U+30E4_U+30FC 1
370
     0
100
AcDbVertex
100
AcDb2dVertex
 10
134.1613199534388
 20
-179.9869465695866
 30
0.0
  0
VERTEX
  5
122
330
11F
100
AcDbEntity
  8
_U+30EC_U+30A4_U+30E4_U+30FC 1
370
     0
100
AcDbVertex
100
AcDb2dVertex
 10
134.1613199534388
 20
-179.7178846121886
 30
0.0
  0
VERTEX
  5
123
330
11F
100
AcDbEntity
  8
_U+30EC_U+30A4_U+30E4_U+30FC 1
370
     0
100
AcDbVertex
100
AcDb2dVertex
 10
134.4131564334106
 20
-179.7178846121886
 30
0.0
  0
VERTEX
  5
124
330
11F
100
AcDbEntity
  8
_U+30EC_U+30A4_U+30E4_U+30FC 1
370
     0
100
AcDbVertex
100
AcDb2dVertex
 10
134.4131564334106
 20
-179.9869465695866
 30
0.0
  0
SEQEND
  5
125
330
11F
100
AcDbEntity
  8
_U+30EC_U+30A4_U+30E4_U+30FC 1
370
     0
  0
HATCH
  5
126
330
119
100
AcDbEntity
  8
_U+30EC_U+30A4_U+30E4_U+30FC 1
 62
   179
420
  2234388
100
AcDbHatch
 10
0.0
 20
0.0
 30
0.0
210
0.0
220
0.0
230
1.0
  2
SOLID
 70
     1
 71
     0
 91
        1
 92
        1
 93
        4
 72
     1
 10
134.4131564334106
 20
-179.9869465695866
 11
134.1613199534388
 21
-179.9869465695866
 72
     1
 10
134.1613199534388
 20
-179.9869465695866
 11
134.1613199534388
 21
-179.7178846121886
 72
     1
 10
134.1613199534388
 20
-179.7178846121886
 11
134.4131564334106
 21
-179.7178846121886
 72
     1
 10
134.4131564334106
 20
-179.7178846121886
 11
134.4131564334106
 21
-179.9869465695866
 97
        0
 75
     2
 76
     1
 98
        0
  0
SPLINE
  5
127
330
119
100
AcDbEntity
  8
_U+30EC_U+30A4_U+30E4_U+30FC 1
370
     0
100
AcDbSpline
210
0.0
220
0.0
230
1.0
 70
    11
 71
     3
 72
    44
 73
    40
 74
     0
 42
0.0000000001
 43
0.0000000001
 12
1.0
 22
0.0
 32
0.0
 13
1.0
 23
0.0
 33
0.0
 40
0.0
 40
0.0
 40
0.0
 40
0.0
 40
1.0
 40
1.0
 40
1.0
 40
2.0
 40
2.0
 40
2.0
 40
3.0
 40
3.0
 40
3.0
 40
4.0
 40
4.0
 40
4.0
 40
5.0
 40
5.0
 40
5.0
 40
6.0
 40
6.0
 40
6.0
 40
7.0
 40
7.0
 40
7.0
 40
8.0
 40
8.0
 40
8.0
 40
9.0
 40
9.0
 40
9.0
 40
10.0
 40
10.0
 40
10.0
 40
11.0
 40
11.0
 40
11.0
 40
12.0
 40
12.0
 40
12.0
 40
13.0
 40
13.0
 40
13.0
 40
13.0
 10
133.8312798059519
 20
-178.8311170342853
 30
0.0
 10
133.9900987078219
 20
-179.0640054890882
 30
0.0
 10
134.0641682607548
 20
-179.1635687486119
 30
0.0
 10
134.2078287424897
 20
-179.2152451808906
 30
0.0
 10
134.2078287424897
 20
-179.2152451808906
 30
0.0
 10
134.2078287424897
 20
-178.3835991307513
 30
0.0
 10
134.2078287424897
 20
-178.3835991307513
 30
0.0
 10
134.2078287424897
 20
-178.3835991307513
 30
0.0
 10
134.4131564334106
 20
-178.3835991307513
 30
0.0
 10
134.4131564334106
 20
-178.3835991307513
 30
0.0
 10
134.4131564334106
 20
-178.3835991307513
 30
0.0
 10
134.4131564334106
 20
-179.4822400809975
 30
0.0
 10
134.4131564334106
 20
-179.4822400809975
 30
0.0
 10
134.0555555220417
 20
-179.4481336356935
 30
0.0
 10
133.9773518545265
 20
-179.378198197343
 30
0.0
 10
133.6790065855039
 20
-178.9668537964041
 30
0.0
 10
133.480224576005
 20
-178.6933132148753
 30
0.0
 10
133.4123561949455
 20
-178.6230332669762
 30
0.0
 10
133.274896885084
 20
-178.6230332669762
 30
0.0
 10
133.1563856003915
 20
-178.6230332669762
 30
0.0
 10
133.025471971952
 20
-178.6998588962973
 30
0.0
 10
133.025471971952
 20
-178.910354230446
 30
0.0
 10
133.025471971952
 20
-179.1883734361057
 30
0.0
 10
133.2559488599152
 20
-179.1973306843673
 30
0.0
 10
133.3723930873166
 20
-179.2018093084982
 30
0.0
 10
133.3723930873166
 20
-179.2018093084982
 30
0.0
 10
133.3723930873166
 20
-179.4415879542716
 30
0.0
 10
133.3723930873166
 20
-179.4415879542716
 30
0.0
 10
133.2452690639109
 20
-179.4322861964614
 30
0.0
 10
133.1333034606403
 20
-179.4212618909086
 30
0.0
 10
133.0147921759477
 20
-179.3351345037773
 30
0.0
 10
132.8539062167865
 20
-179.2176567477303
 30
0.0
 10
132.8201442810311
 20
-179.0188747382314
 30
0.0
 10
132.8201442810311
 20
-178.8945067912139
 30
0.0
 10
132.8201442810311
 20
-178.5982285794824
 30
0.0
 10
133.0041123799434
 20
-178.3767089397808
 30
0.0
 10
133.2769639423752
 20
-178.3767089397808
 30
0.0
 10
133.5057182825958
 20
-178.3767089397808
 30
0.0
 10
133.604937032571
 20
-178.5010768867984
 30
0.0
 10
133.8312798059519
 20
-178.8311170342853
 30
0.0
  0
HATCH
  5
128
330
119
100
AcDbEntity
  8
_U+30EC_U+30A4_U+30E4_U+30FC 1
 62
   179
420
  2234388
100
AcDbHatch
 10
0.0
 20
0.0
 30
0.0
210
0.0
220
0.0
230
1.0
  2
SOLID
 70
     1
 71
     0
 91
        1
 92
        1
 93
        1
 72
     4
 94
        3
 73
     0
 74
     1
 95
       44
 96
       40
 40
0.0
 40
0.0
 40
0.0
 40
0.0
 40
1.0
 40
1.0
 40
1.0
 40
2.0
 40
2.0
 40
2.0
 40
3.0
 40
3.0
 40
3.0
 40
4.0
 40
4.0
 40
4.0
 40
5.0
 40
5.0
 40
5.0
 40
6.0
 40
6.0
 40
6.0
 40
7.0
 40
7.0
 40
7.0
 40
8.0
 40
8.0
 40
8.0
 40
9.0
 40
9.0
 40
9.0
 40
10.0
 40
10.0
 40
10.0
 40
11.0
 40
11.0
 40
11.0
 40
12.0
 40
12.0
 40
12.0
 40
13.0
 40
13.0
 40
13.0
 40
13.0
 10
133.8312798059519
 20
-178.8311170342853
 10
133.9900987078219
 20
-179.0640054890882
 10
134.0641682607548
 20
-179.1635687486119
 10
134.2078287424897
 20
-179.2152451808906
 10
134.2078287424897
 20
-179.2152451808906
 10
134.2078287424897
 20
-178.3835991307513
 10
134.2078287424897
 20
-178.3835991307513
 10
134.2078287424897
 20
-178.3835991307513
 10
134.4131564334106
 20
-178.3835991307513
 10
134.4131564334106
 20
-178.3835991307513
 10
134.4131564334106
 20
-178.3835991307513
 10
134.4131564334106
 20
-179.4822400809975
 10
134.4131564334106
 20
-179.4822400809975
 10
134.0555555220417
 20
-179.4481336356935
 10
133.9773518545265
 20
-179.378198197343
 10
133.6790065855039
 20
-178.9668537964041
 10
133.480224576005
 20
-178.6933132148753
 10
133.4123561949455
 20
-178.6230332669762
 10
133.274896885084
 20
-178.6230332669762
 10
133.1563856003915
 20
-178.6230332669762
 10
133.025471971952
 20
-178.6998588962973
 10
133.025471971952
 20
-178.910354230446
 10
133.025471971952
 20
-179.1883734361057
 10
133.2559488599152
 20
-179.1973306843673
 10
133.3723930873166
 20
-179.2018093084982
 10
133.3723930873166
 20
-179.2018093084982
 10
133.3723930873166
 20
-179.4415879542716
 10
133.3723930873166
 20
-179.4415879542716
 10
133.2452690639109
 20
-179.4322861964614
 10
133.1333034606403
 20
-179.4212618909086
 10
133.0147921759477
 20
-179.3351345037773
 10
132.8539062167865
 20
-179.2176567477303
 10
132.8201442810311
 20
-179.0188747382314
 10
132.8201442810311
 20
-178.8945067912139
 10
132.8201442810311
 20
-178.5982285794824
 10
133.0041123799434
 20
-178.3767089397808
 10
133.2769639423752
 20
-178.3767089397808
 10
133.5057182825958
 20
-178.3767089397808
 10
133.604937032571
 20
-178.5010768867984
 10
133.8312798059519
 20
-178.8311170342853
 97
        0
 97
        0
 75
     2
 76
     1
 98
        0
  0
ENDBLK
  5
11C
330
119
100
AcDbEntity
  8
0
100
AcDbBlockEnd
  0
BLOCK
  5
13A
330
138
100
AcDbEntity
  8
0
100
AcDbBlockBegin
  2
block 9
 70
     0
 10
0.0
 20
0.0
 30
0.0
  3
block 9
  1

  0
SPLINE
  5
13C
330
138
100
AcDbEntity
  8
_U+30EC_U+30A4_U+30E4_U+30FC 1
370
     0
100
AcDbSpline
210
0.0
220
0.0
230
1.0
 70
    11
 71
     3
 72
    62
 73
    58
 74
     0
 42
0.0000000001
 43
0.0000000001
 12
1.0
 22
0.0
 32
0.0
 13
1.0
 23
0.0
 33
0.0
 40
0.0
 40
0.0
 40
0.0
 40
0.0
 40
1.0
 40
1.0
 40
1.0
 40
2.0
 40
2.0
 40
2.0
 40
3.0
 40
3.0
 40
3.0
 40
4.0
 40
4.0
 40
4.0
 40
5.0
 40
5.0
 40
5.0
 40
6.0
 40
6.0
 40
6.0
 40
7.0
 40
7.0
 40
7.0
 40
8.0
 40
8.0
 40
8.0
 40
9.0
 40
9.0
 40
9.0
 40
10.0
 40
10.0
 40
10.0
 40
11.0
 40
11.0
 40
11.0
 40
12.0
 40
12.0
 40
12.0
 40
13.0
 40
13.0
 40
13.0
 40
14.0
 40
14.0
 40
14.0
 40
15.0
 40
15.0
 40
15.0
 40
16.0
 40
16.0
 40
16.0
 40
17.0
 40
17.0
 40
17.0
 40
18.0
 40
18.0
 40
18.0
 40
19.0
 40
19.0
 40
19.0
 40
19.0
 10
86.50703665372046
 20
-105.5895928012936
 30
0.0
 10
86.50703665372046
 20
-105.6848496914607
 30
0.0
 10
86.48602157126044
 20
-105.9027519809028
 30
0.0
 10
86.29998641505695
 20
-106.0274644374688
 30
0.0
 10
86.1876763022378
 20
-106.1015339904017
 30
0.0
 10
86.08845755226261
 20
-106.1058403597583
 30
0.0
 10
86.00370820332546
 20
-106.1099744743406
 30
0.0
 10
86.00370820332546
 20
-106.1099744743406
 30
0.0
 10
86.00370820332546
 20
-105.8900051276074
 30
0.0
 10
86.00370820332546
 20
-105.8900051276074
 30
0.0
 10
86.07777775625834
 20
-105.8879380703162
 30
0.0
 10
86.31238875880385
 20
-105.8772582743119
 30
0.0
 10
86.31238875880385
 20
-105.5938991706501
 30
0.0
 10
86.31238875880385
 20
-105.4562676060144
 30
0.0
 10
86.2427978300018
 20
-105.3039943855664
 30
0.0
 10
86.01438799932974
 20
-105.3039943855664
 30
0.0
 10
85.8979437719283
 20
-105.3039943855664
 30
0.0
 10
85.84936792558628
 20
-105.3420626906784
 30
0.0
 10
85.81767304712197
 20
-105.3737575691427
 30
0.0
 10
85.7436034941891
 20
-105.4478271220756
 30
0.0
 10
85.73085664089368
 20
-105.564271349477
 30
0.0
 10
85.73085664089368
 20
-105.6192206224667
 30
0.0
 10
85.73085664089368
 20
-105.6381686476356
 30
0.0
 10
85.73292369818483
 20
-105.6741698954565
 30
0.0
 10
85.73705781276713
 20
-105.7017306593385
 30
0.0
 10
85.73705781276713
 20
-105.7017306593385
 30
0.0
 10
85.5424099178505
 20
-105.7017306593385
 30
0.0
 10
85.5424099178505
 20
-105.7017306593385
 30
0.0
 10
85.54895559927249
 20
-105.6636623542264
 30
0.0
 10
85.55102265656363
 20
-105.6212876797579
 30
0.0
 10
85.55102265656363
 20
-105.6149142531102
 30
0.0
 10
85.55102265656363
 20
-105.5494574388904
 30
0.0
 10
85.5296630645551
 20
-105.3505031746172
 30
0.0
 10
85.29298500471842
 20
-105.3505031746172
 30
0.0
 10
85.11521807767953
 20
-105.3505031746172
 30
0.0
 10
85.06009654991554
 20
-105.4817613126053
 30
0.0
 10
85.06009654991554
 20
-105.5916598585847
 30
0.0
 10
85.06009654991554
 20
-105.8560709370777
 30
0.0
 10
85.29298500471842
 20
-105.8646836757908
 30
0.0
 10
85.36464299081162
 20
-105.8688177903731
 30
0.0
 10
85.36464299081162
 20
-105.8688177903731
 30
0.0
 10
85.36464299081162
 20
-106.0719061692286
 30
0.0
 10
85.36464299081162
 20
-106.0719061692286
 30
0.0
 10
85.23993053424557
 20
-106.0634656852897
 30
0.0
 10
84.86338159770777
 20
-106.0359049214077
 30
0.0
 10
84.86338159770777
 20
-105.5790852600636
 30
0.0
 10
84.86338159770777
 20
-105.3548095439738
 30
0.0
 10
84.99050562111348
 20
-105.1136528600063
 30
0.0
 10
85.28643932329645
 20
-105.1136528600063
 30
0.0
 10
85.47281898904846
 20
-105.1136528600063
 30
0.0
 10
85.55515677114593
 20
-105.2087374953992
 30
0.0
 10
85.61647947078339
 20
-105.3083007549229
 30
0.0
 10
85.64404023466538
 20
-105.2468058005112
 30
0.0
 10
85.72431095947171
 20
-105.06490475889
 30
0.0
 10
86.00164114603432
 20
-105.06490475889
 30
0.0
 10
86.33994952268586
 20
-105.06490475889
 30
0.0
 10
86.50703665372046
 20
-105.3124348695052
 30
0.0
 10
86.50703665372046
 20
-105.5895928012936
 30
0.0
  0
HATCH
  5
13D
330
138
100
AcDbEntity
  8
_U+30EC_U+30A4_U+30E4_U+30FC 1
 62
   179
420
  2234388
100
AcDbHatch
 10
0.0
 20
0.0
 30
0.0
210
0.0
220
0.0
230
1.0
  2
SOLID
 70
     1
 71
     0
 91
        1
 92
        1
 93
        1
 72
     4
 94
        3
 73
     0
 74
     1
 95
       62
 96
       58
 40
0.0
 40
0.0
 40
0.0
 40
0.0
 40
1.0
 40
1.0
 40
1.0
 40
2.0
 40
2.0
 40
2.0
 40
3.0
 40
3.0
 40
3.0
 40
4.0
 40
4.0
 40
4.0
 40
5.0
 40
5.0
 40
5.0
 40
6.0
 40
6.0
 40
6.0
 40
7.0
 40
7.0
 40
7.0
 40
8.0
 40
8.0
 40
8.0
 40
9.0
 40
9.0
 40
9.0
 40
10.0
 40
10.0
 40
10.0
 40
11.0
 40
11.0
 40
11.0
 40
12.0
 40
12.0
 40
12.0
 40
13.0
 40
13.0
 40
13.0
 40
14.0
 40
14.0
 40
14.0
 40
15.0
 40
15.0
 40
15.0
 40
16.0
 40
16.0
 40
16.0
 40
17.0
 40
17.0
 40
17.0
 40
18.0
 40
18.0
 40
18.0
 40
19.0
 40
19.0
 40
19.0
 40
19.0
 10
86.50703665372046
 20
-105.5895928012936
 10
86.50703665372046
 20
-105.6848496914607
 10
86.48602157126044
 20
-105.9027519809028
 10
86.29998641505695
 20
-106.0274644374688
 10
86.1876763022378
 20
-106.1015339904017
 10
86.08845755226261
 20
-106.1058403597583
 10
86.00370820332546
 20
-106.1099744743406
 10
86.00370820332546
 20
-106.1099744743406
 10
86.00370820332546
 20
-105.8900051276074
 10
86.00370820332546
 20
-105.8900051276074
 10
86.07777775625834
 20
-105.8879380703162
 10
86.31238875880385
 20
-105.8772582743119
 10
86.31238875880385
 20
-105.5938991706501
 10
86.31238875880385
 20
-105.4562676060144
 10
86.2427978300018
 20
-105.3039943855664
 10
86.01438799932974
 20
-105.3039943855664
 10
85.8979437719283
 20
-105.3039943855664
 10
85.84936792558628
 20
-105.3420626906784
 10
85.81767304712197
 20
-105.3737575691427
 10
85.7436034941891
 20
-105.4478271220756
 10
85.73085664089368
 20
-105.564271349477
 10
85.73085664089368
 20
-105.6192206224667
 10
85.73085664089368
 20
-105.6381686476356
 10
85.73292369818483
 20
-105.6741698954565
 10
85.73705781276713
 20
-105.7017306593385
 10
85.73705781276713
 20
-105.7017306593385
 10
85.5424099178505
 20
-105.7017306593385
 10
85.5424099178505
 20
-105.7017306593385
 10
85.54895559927249
 20
-105.6636623542264
 10
85.55102265656363
 20
-105.6212876797579
 10
85.55102265656363
 20
-105.6149142531102
 10
85.55102265656363
 20
-105.5494574388904
 10
85.5296630645551
 20
-105.3505031746172
 10
85.29298500471842
 20
-105.3505031746172
 10
85.11521807767953
 20
-105.3505031746172
 10
85.06009654991554
 20
-105.4817613126053
 10
85.06009654991554
 20
-105.5916598585847
 10
85.06009654991554
 20
-105.8560709370777
 10
85.29298500471842
 20
-105.8646836757908
 10
85.36464299081162
 20
-105.8688177903731
 10
85.36464299081162
 20
-105.8688177903731
 10
85.36464299081162
 20
-106.0719061692286
 10
85.36464299081162
 20
-106.0719061692286
 10
85.23993053424557
 20
-106.0634656852897
 10
84.86338159770777
 20
-106.0359049214077
 10
84.86338159770777
 20
-105.5790852600636
 10
84.86338159770777
 20
-105.3548095439738
 10
84.99050562111348
 20
-105.1136528600063
 10
85.28643932329645
 20
-105.1136528600063
 10
85.47281898904846
 20
-105.1136528600063
 10
85.55515677114593
 20
-105.2087374953992
 10
85.61647947078339
 20
-105.3083007549229
 10
85.64404023466538
 20
-105.2468058005112
 10
85.72431095947171
 20
-105.06490475889
 10
86.00164114603432
 20
-105.06490475889
 10
86.33994952268586
 20
-105.06490475889
 10
86.50703665372046
 20
-105.3124348695052
 10
86.50703665372046
 20
-105.5895928012936
 97
        0
 97
        0
 75
     2
 76
     1
 98
        0
  0
ENDBLK
  5
13B
330
138
100
AcDbEntity
  8
0
100
AcDbBlockEnd
  0
ENDSEC
  0
SECTION
  2
ENTITIES
  0
SPLINE
  5
41
330
1F
100
AcDbEntity
  8
_U+30EC_U+30A4_U+30E4_U+30FC 1
370
     0
100
AcDbSpline
210
0.0
220
0.0
230
1.0
 70
    11
 71
     3
 72
    71
 73
    67
 74
     0
 42
0.0000000001
 43
0.0000000001
 12
1.0
 22
0.0
 32
0.0
 13
1.0
 23
0.0
 33
0.0
 40
0.0
 40
0.0
 40
0.0
 40
0.0
 40
1.0
 40
1.0
 40
1.0
 40
2.0
 40
2.0
 40
2.0
 40
3.0
 40
3.0
 40
3.0
 40
4.0
 40
4.0
 40
4.0
 40
5.0
 40
5.0
 40
5.0
 40
6.0
 40
6.0
 40
6.0
 40
7.0
 40
7.0
 40
7.0
 40
8.0
 40
8.0
 40
8.0
 40
9.0
 40
9.0
 40
9.0
 40
10.0
 40
10.0
 40
10.0
 40
11.0
 40
11.0
 40
11.0
 40
12.0
 40
12.0
 40
12.0
 40
13.0
 40
13.0
 40
13.0
 40
14.0
 40
14.0
 40
14.0
 40
15.0
 40
15.0
 40
15.0
 40
16.0
 40
16.0
 40
16.0
 40
17.0
 40
17.0
 40
17.0
 40
18.0
 40
18.0
 40
18.0
 40
19.0
 40
19.0
 40
19.0
 40
20.0
 40
20.0
 40
20.0
 40
21.0
 40
21.0
 40
21.0
 40
22.0
 40
22.0
 40
22.0
 40
22.0
 10
81.9594890813439
 20
-107.0777986894578
 30
0.0
 10
81.9594890813439
 20
-107.0777986894578
 30
0.0
 10
83.45913914607316
 20
-107.0777986894578
 30
0.0
 10
83.45913914607316
 20
-107.0777986894578
 30
0.0
 10
83.45913914607316
 20
-107.0777986894578
 30
0.0
 10
83.45913914607316
 20
-104.5780158735137
 30
0.0
 10
83.45913914607316
 20
-104.5780158735137
 30
0.0
 10
83.45913914607316
 20
-104.5780158735137
 30
0.0
 10
83.45843936105271
 20
-104.078132518604
 30
0.0
 10
82.25441078672807
 20
-104.078132518604
 30
0.0
 10
81.05072672195195
 20
-104.078132518604
 30
0.0
 10
81.05919950366099
 20
-104.5780158735137
 30
0.0
 10
81.05919950366099
 20
-104.5780158735137
 30
0.0
 10
81.05919950366099
 20
-104.5780158735137
 30
0.0
 10
81.05919950366099
 20
-199.0780077966389
 30
0.0
 10
81.05919950366099
 20
-199.0780077966389
 30
0.0
 10
81.05919950366099
 20
-199.0780077966389
 30
0.0
 10
96.05930673528965
 20
-199.0780077966389
 30
0.0
 10
96.05930673528965
 20
-199.0780077966389
 30
0.0
 10
96.05930673528965
 20
-199.0780077966389
 30
0.0
 10
96.05930673528965
 20
-196.0779863503132
 30
0.0
 10
96.05930673528965
 20
-196.0779863503132
 30
0.0
 10
96.05930673528965
 20
-196.0779863503132
 30
0.0
 10
95.0588294745263
 20
-196.0779863503132
 30
0.0
 10
95.0588294745263
 20
-196.0779863503132
 30
0.0
 10
95.0588294745263
 20
-196.0779863503132
 30
0.0
 10
95.0588294745263
 20
-197.0777584430944
 30
0.0
 10
95.0588294745263
 20
-197.0777584430944
 30
0.0
 10
95.0588294745263
 20
-197.0777584430944
 30
0.0
 10
95.0588294745263
 20
-198.0782410868194
 30
0.0
 10
95.0588294745263
 20
-198.0782410868194
 30
0.0
 10
95.0588294745263
 20
-198.0782410868194
 30
0.0
 10
81.9594890813439
 20
-198.0782410868194
 30
0.0
 10
81.9594890813439
 20
-198.0782410868194
 30
0.0
 10
81.9594890813439
 20
-198.0782410868194
 30
0.0
 10
81.9594890813439
 20
-183.0788336402112
 30
0.0
 10
81.9594890813439
 20
-183.0788336402112
 30
0.0
 10
81.9594890813439
 20
-183.0788336402112
 30
0.0
 10
110.8540970419208
 20
-183.0788336402112
 30
0.0
 10
110.8540970419208
 20
-183.0788336402112
 30
0.0
 10
110.8540970419208
 20
-183.0788336402112
 30
0.0
 10
111.1042217400733
 20
-182.8788081665606
 30
0.0
 10
111.1042217400733
 20
-182.8788081665606
 30
0.0
 10
111.1042217400733
 20
-182.8788081665606
 30
0.0
 10
111.3543356723025
 20
-183.0788336402112
 30
0.0
 10
111.3543356723025
 20
-183.0788336402112
 30
0.0
 10
111.3543356723025
 20
-183.0788336402112
 30
0.0
 10
125.5603483945811
 20
-183.0788336402112
 30
0.0
 10
125.5603483945811
 20
-183.0788336402112
 30
0.0
 10
125.5603483945811
 20
-183.0788336402112
 30
0.0
 10
125.8104730927336
 20
-182.8784528910887
 30
0.0
 10
125.8104730927336
 20
-182.8784528910887
 30
0.0
 10
125.8104730927336
 20
-182.8784528910887
 30
0.0
 10
126.0602317494908
 20
-183.0788336402112
 30
0.0
 10
126.0602317494908
 20
-183.0788336402112
 30
0.0
 10
126.0602317494908
 20
-183.0788336402112
 30
0.0
 10
131.0587423208866
 20
-183.0788336402112
 30
0.0
 10
131.0587423208866
 20
-183.0788336402112
 30
0.0
 10
131.0587423208866
 20
-183.0788336402112
 30
0.0
 10
131.0587423208866
 20
-181.9778134208955
 30
0.0
 10
131.0587423208866
 20
-181.9778134208955
 30
0.0
 10
131.0587423208866
 20
-181.9778134208955
 30
0.0
 10
81.9594890813439
 20
-181.9778134208955
 30
0.0
 10
81.9594890813439
 20
-181.9778134208955
 30
0.0
 10
81.9594890813439
 20
-181.9778134208955
 30
0.0
 10
81.9594890813439
 20
-107.0777986894578
 30
0.0
 10
81.9594890813439
 20
-107.0777986894578
 30
0.0
  0
HATCH
  5
42
330
1F
100
AcDbEntity
  8
_U+30EC_U+30A4_U+30E4_U+30FC 1
 62
     9
420
 13224394
100
AcDbHatch
 10
0.0
 20
0.0
 30
0.0
210
0.0
220
0.0
230
1.0
  2
SOLID
 70
     1
 71
     0
 91
        1
 92
        1
 93
        1
 72
     4
 94
        3
 73
     0
 74
     1
 95
       71
 96
       67
 40
0.0
 40
0.0
 40
0.0
 40
0.0
 40
1.0
 40
1.0
 40
1.0
 40
2.0
 40
2.0
 40
2.0
 40
3.0
 40
3.0
 40
3.0
 40
4.0
 40
4.0
 40
4.0
 40
5.0
 40
5.0
 40
5.0
 40
6.0
 40
6.0
 40
6.0
 40
7.0
 40
7.0
 40
7.0
 40
8.0
 40
8.0
 40
8.0
 40
9.0
 40
9.0
 40
9.0
 40
10.0
 40
10.0
 40
10.0
 40
11.0
 40
11.0
 40
11.0
 40
12.0
 40
12.0
 40
12.0
 40
13.0
 40
13.0
 40
13.0
 40
14.0
 40
14.0
 40
14.0
 40
15.0
 40
15.0
 40
15.0
 40
16.0
 40
16.0
 40
16.0
 40
17.0
 40
17.0
 40
17.0
 40
18.0
 40
18.0
 40
18.0
 40
19.0
 40
19.0
 40
19.0
 40
20.0
 40
20.0
 40
20.0
 40
21.0
 40
21.0
 40
21.0
 40
22.0
 40
22.0
 40
22.0
 40
22.0
 10
81.9594890813439
 20
-107.0777986894578
 10
81.9594890813439
 20
-107.0777986894578
 10
83.45913914607316
 20
-107.0777986894578
 10
83.45913914607316
 20
-107.0777986894578
 10
83.45913914607316
 20
-107.0777986894578
 10
83.45913914607316
 20
-104.5780158735137
 10
83.45913914607316
 20
-104.5780158735137
 10
83.45913914607316
 20
-104.5780158735137
 10
83.45843936105271
 20
-104.078132518604
 10
82.25441078672807
 20
-104.078132518604
 10
81.05072672195195
 20
-104.078132518604
 10
81.05919950366099
 20
-104.5780158735137
 10
81.05919950366099
 20
-104.5780158735137
 10
81.05919950366099
 20
-104.5780158735137
 10
81.05919950366099
 20
-199.0780077966389
 10
81.05919950366099
 20
-199.0780077966389
 10
81.05919950366099
 20
-199.0780077966389
 10
96.05930673528965
 20
-199.0780077966389
 10
96.05930673528965
 20
-199.0780077966389
 10
96.05930673528965
 20
-199.0780077966389
 10
96.05930673528965
 20
-196.0779863503132
 10
96.05930673528965
 20
-196.0779863503132
 10
96.05930673528965
 20
-196.0779863503132
 10
95.0588294745263
 20
-196.0779863503132
 10
95.0588294745263
 20
-196.0779863503132
 10
95.0588294745263
 20
-196.0779863503132
 10
95.0588294745263
 20
-197.0777584430944
 10
95.0588294745263
 20
-197.0777584430944
 10
95.0588294745263
 20
-197.0777584430944
 10
95.0588294745263
 20
-198.0782410868194
 10
95.0588294745263
 20
-198.0782410868194
 10
95.0588294745263
 20
-198.0782410868194
 10
81.9594890813439
 20
-198.0782410868194
 10
81.9594890813439
 20
-198.0782410868194
 10
81.9594890813439
 20
-198.0782410868194
 10
81.9594890813439
 20
-183.0788336402112
 10
81.9594890813439
 20
-183.0788336402112
 10
81.9594890813439
 20
-183.0788336402112
 10
110.8540970419208
 20
-183.0788336402112
 10
110.8540970419208
 20
-183.0788336402112
 10
110.8540970419208
 20
-183.0788336402112
 10
111.1042217400733
 20
-182.8788081665606
 10
111.1042217400733
 20
-182.8788081665606
 10
111.1042217400733
 20
-182.8788081665606
 10
111.3543356723025
 20
-183.0788336402112
 10
111.3543356723025
 20
-183.0788336402112
 10
111.3543356723025
 20
-183.0788336402112
 10
125.5603483945811
 20
-183.0788336402112
 10
125.5603483945811
 20
-183.0788336402112
 10
125.5603483945811
 20
-183.0788336402112
 10
125.8104730927336
 20
-182.8784528910887
 10
125.8104730927336
 20
-182.8784528910887
 10
125.8104730927336
 20
-182.8784528910887
 10
126.0602317494908
 20
-183.0788336402112
 10
126.0602317494908
 20
-183.0788336402112
 10
126.0602317494908
 20
-183.0788336402112
 10
131.0587423208866
 20
-183.0788336402112
 10
131.0587423208866
 20
-183.0788336402112
 10
131.0587423208866
 20
-183.0788336402112
 10
131.0587423208866
 20
-181.9778134208955
 10
131.0587423208866
 20
-181.9778134208955
 10
131.0587423208866
 20
-181.9778134208955
 10
81.9594890813439
 20
-181.9778134208955
 10
81.9594890813439
 20
-181.9778134208955
 10
81.9594890813439
 20
-181.9778134208955
 10
81.9594890813439
 20
-107.0777986894578
 10
81.9594890813439
 20
-107.0777986894578
 97
        0
 97
        0
 75
     2
 76
     1
 98
        0
  0
POLYLINE
  5
43
330
1F
100
AcDbEntity
  8
_U+30EC_U+30A4_U+30E4_U+30FC 1
 62
   179
420
  2234388
370
    25
100
AcDb2dPolyline
 66
     1
 10
0.0
 20
0.0
 30
0.0
  0
VERTEX
  5
44
330
43
100
AcDbEntity
  8
_U+30EC_U+30A4_U+30E4_U+30FC 1
 62
   179
420
  2234388
370
    25
100
AcDbVertex
100
AcDb2dVertex
 10
81.9594890813439
 20
-183.0786560024752
 30
0.0
  0
VERTEX
  5
45
330
43
100
AcDbEntity
  8
_U+30EC_U+30A4_U+30E4_U+30FC 1
 62
   179
420
  2234388
370
    25
100
AcDbVertex
100
AcDb2dVertex
 10
110.7218053752872
 20
-183.0786560024752
 30
0.0
  0
VERTEX
  5
46
330
43
100
AcDbEntity
  8
_U+30EC_U+30A4_U+30E4_U+30FC 1
 62
   179
420
  2234388
370
    25
100
AcDbVertex
100
AcDb2dVertex
 10
111.1042217400733
 20
-182.8789858042965
 30
0.0
  0
VERTEX
  5
47
330
43
100
AcDbEntity
  8
_U+30EC_U+30A4_U+30E4_U+30FC 1
 62
   179
420
  2234388
370
    25
100
AcDbVertex
100
AcDb2dVertex
 10
111.4866273389361
 20
-183.0786560024752
 30
0.0
  0
VERTEX
  5
48
330
43
100
AcDbEntity
  8
_U+30EC_U+30A4_U+30E4_U+30FC 1
 62
   179
420
  2234388
370
    25
100
AcDbVertex
100
AcDb2dVertex
 10
131.0587423208866
 20
-183.0786560024752
 30
0.0
  0
SEQEND
  5
49
330
43
100
AcDbEntity
  8
_U+30EC_U+30A4_U+30E4_U+30FC 1
 62
   179
420
  2234388
370
    25
  0
POLYLINE
  5
4A
330
1F
100
AcDbEntity
  8
_U+30EC_U+30A4_U+30E4_U+30FC 1
 62
   179
420
  2234388
370
    25
100
AcDb2dPolyline
 66
     1
 10
0.0
 20
0.0
 30
0.0
  0
VERTEX
  5
4B
330
4A
100
AcDbEntity
  8
_U+30EC_U+30A4_U+30E4_U+30FC 1
 62
   179
420
  2234388
370
    25
100
AcDbVertex
100
AcDb2dVertex
 10
95.05893713376022
 20
-196.0784116042872
 30
0.0
  0
VERTEX
  5
4C
330
4A
100
AcDbEntity
  8
_U+30EC_U+30A4_U+30E4_U+30FC 1
 62
   179
420
  2234388
370
    25
100
AcDbVertex
100
AcDb2dVertex
 10
96.05941439452356
 20
-196.0784116042872
 30
0.0
  0
SEQEND
  5
4D
330
4A
100
AcDbEntity
  8
_U+30EC_U+30A4_U+30E4_U+30FC 1
 62
   179
420
  2234388
370
    25
  0
POLYLINE
  5
4E
330
1F
100
AcDbEntity
  8
_U+30EC_U+30A4_U+30E4_U+30FC 1
 62
   179
420
  2234388
370
    25
100
AcDb2dPolyline
 66
     1
 10
0.0
 20
0.0
 30
0.0
  0
VERTEX
  5
4F
330
4E
100
AcDbEntity
  8
_U+30EC_U+30A4_U+30E4_U+30FC 1
 62
   179
420
  2234388
370
    25
100
AcDbVertex
100
AcDb2dVertex
 10
81.05926409920166
 20
-199.0784007528427
 30
0.0
  0
VERTEX
  5
50
330
4E
100
AcDbEntity
  8
_U+30EC_U+30A4_U+30E4_U+30FC 1
 62
   179
420
  2234388
370
    25
100
AcDbVertex
100
AcDb2dVertex
 10
96.05937133082999
 20
-199.0784007528427
 30
0.0
  0
SEQEND
  5
51
330
4E
100
AcDbEntity
  8
_U+30EC_U+30A4_U+30E4_U+30FC 1
 62
   179
420
  2234388
370
    25
  0
POLYLINE
  5
52
330
1F
100
AcDbEntity
  8
_U+30EC_U+30A4_U+30E4_U+30FC 1
 62
   179
420
  2234388
370
    25
100
AcDb2dPolyline
 66
     1
 10
0.0
 20
0.0
 30
0.0
  0
VERTEX
  5
53
330
52
100
AcDbEntity
  8
_U+30EC_U+30A4_U+30E4_U+30FC 1
 62
   179
420
  2234388
370
    25
100
AcDbVertex
100
AcDb2dVertex
 10
81.05926409920166
 20
-104.5780481712839
 30
0.0
  0
VERTEX
  5
54
330
52
100
AcDbEntity
  8
_U+30EC_U+30A4_U+30E4_U+30FC 1
 62
   179
420
  2234388
370
    25
100
AcDbVertex
100
AcDb2dVertex
 10
81.05926409920166
 20
-199.078395369881
 30
0.0
  0
SEQEND
  5
55
330
52
100
AcDbEntity
  8
_U+30EC_U+30A4_U+30E4_U+30FC 1
 62
   179
420
  2234388
370
    25
  0
POLYLINE
  5
56
330
1F
100
AcDbEntity
  8
_U+30EC_U+30A4_U+30E4_U+30FC 1
 62
   179
420
  2234388
370
    25
100
AcDb2dPolyline
 66
     1
 10
0.0
 20
0.0
 30
0.0
  0
VERTEX
  5
57
330
56
100
AcDbEntity
  8
_U+30EC_U+30A4_U+30E4_U+30FC 1
 62
   179
420
  2234388
370
    25
100
AcDbVertex
100
AcDb2dVertex
 10
131.0588176823503
 20
-181.9779533778996
 30
0.0
  0
VERTEX
  5
58
330
56
100
AcDbEntity
  8
_U+30EC_U+30A4_U+30E4_U+30FC 1
 62
   179
420
  2234388
370
    25
100
AcDbVertex
100
AcDb2dVertex
 10
131.0588176823503
 20
-183.0786237047051
 30
0.0
  0
SEQEND
  5
59
330
56
100
AcDbEntity
  8
_U+30EC_U+30A4_U+30E4_U+30FC 1
 62
   179
420
  2234388
370
    25
  0
POLYLINE
  5
5A
330
1F
100
AcDbEntity
  8
_U+30EC_U+30A4_U+30E4_U+30FC 1
 62
   179
420
  2234388
370
    25
100
AcDb2dPolyline
 66
     1
 10
0.0
 20
0.0
 30
0.0
  0
VERTEX
  5
5B
330
5A
100
AcDbEntity
  8
_U+30EC_U+30A4_U+30E4_U+30FC 1
 62
   179
420
  2234388
370
    25
100
AcDbVertex
100
AcDb2dVertex
 10
83.45910684830298
 20
-104.5780481712839
 30
0.0
  0
VERTEX
  5
5C
330
5A
100
AcDbEntity
  8
_U+30EC_U+30A4_U+30E4_U+30FC 1
 62
   179
420
  2234388
370
    25
100
AcDbVertex
100
AcDb2dVertex
 10
83.45910684830298
 20
-107.0778417531513
 30
0.0
  0
SEQEND
  5
5D
330
5A
100
AcDbEntity
  8
_U+30EC_U+30A4_U+30E4_U+30FC 1
 62
   179
420
  2234388
370
    25
  0
POLYLINE
  5
5E
330
1F
100
AcDbEntity
  8
_U+30EC_U+30A4_U+30E4_U+30FC 1
 62
   179
420
  2234388
370
    25
100
AcDb2dPolyline
 66
     1
 10
0.0
 20
0.0
 30
0.0
  0
VERTEX
  5
5F
330
5E
100
AcDbEntity
  8
_U+30EC_U+30A4_U+30E4_U+30FC 1
 62
   179
420
  2234388
370
    25
100
AcDbVertex
100
AcDb2dVertex
 10
81.9594890813439
 20
-107.0777986894578
 30
0.0
  0
VERTEX
  5
60
330
5E
100
AcDbEntity
  8
_U+30EC_U+30A4_U+30E4_U+30FC 1
 62
   179
420
  2234388
370
    25
100
AcDbVertex
100
AcDb2dVertex
 10
83.45913914607316
 20
-107.0777986894578
 30
0.0
  0
SEQEND
  5
61
330
5E
100
AcDbEntity
  8
_U+30EC_U+30A4_U+30E4_U+30FC 1
 62
   179
420
  2234388
370
    25
  0
POLYLINE
  5
62
330
1F
100
AcDbEntity
  8
_U+30EC_U+30A4_U+30E4_U+30FC 1
 62
   179
420
  2234388
370
    25
100
AcDb2dPolyline
 66
     1
 10
0.0
 20
0.0
 30
0.0
  0
VERTEX
  5
63
330
62
100
AcDbEntity
  8
_U+30EC_U+30A4_U+30E4_U+30FC 1
 62
   179
420
  2234388
370
    25
100
AcDbVertex
100
AcDb2dVertex
 10
96.05938209675371
 20
-196.0784116042872
 30
0.0
  0
VERTEX
  5
64
330
62
100
AcDbEntity
  8
_U+30EC_U+30A4_U+30E4_U+30FC 1
 62
   179
420
  2234388
370
    25
100
AcDbVertex
100
AcDb2dVertex
 10
96.05938209675371
 20
-199.0784384335746
 30
0.0
  0
SEQEND
  5
65
330
62
100
AcDbEntity
  8
_U+30EC_U+30A4_U+30E4_U+30FC 1
 62
   179
420
  2234388
370
    25
  0
POLYLINE
  5
66
330
1F
100
AcDbEntity
  8
_U+30EC_U+30A4_U+30E4_U+30FC 1
 62
   179
420
  2234388
370
    25
100
AcDb2dPolyline
 66
     1
 10
0.0
 20
0.0
 30
0.0
  0
VERTEX
  5
67
330
66
100
AcDbEntity
  8
_U+30EC_U+30A4_U+30E4_U+30FC 1
 62
   179
420
  2234388
370
    25
100
AcDbVertex
100
AcDb2dVertex
 10
81.9594890813439
 20
-198.0786286600615
 30
0.0
  0
VERTEX
  5
68
330
66
100
AcDbEntity
  8
_U+30EC_U+30A4_U+30E4_U+30FC 1
 62
   179
420
  2234388
370
    25
100
AcDbVertex
100
AcDb2dVertex
 10
95.0588294745263
 20
-198.0786286600615
 30
0.0
  0
SEQEND
  5
69
330
66
100
AcDbEntity
  8
_U+30EC_U+30A4_U+30E4_U+30FC 1
 62
   179
420
  2234388
370
    25
  0
POLYLINE
  5
6A
330
1F
100
AcDbEntity
  8
_U+30EC_U+30A4_U+30E4_U+30FC 1
 62
   179
420
  2234388
370
    25
100
AcDb2dPolyline
 66
     1
 10
0.0
 20
0.0
 30
0.0
  0
VERTEX
  5
6B
330
6A
100
AcDbEntity
  8
_U+30EC_U+30A4_U+30E4_U+30FC 1
 62
   179
420
  2234388
370
    25
100
AcDbVertex
100
AcDb2dVertex
 10
95.05893713376022
 20
-196.0780617117769
 30
0.0
  0
VERTEX
  5
6C
330
6A
100
AcDbEntity
  8
_U+30EC_U+30A4_U+30E4_U+30FC 1
 62
   179
420
  2234388
370
    25
100
AcDbVertex
100
AcDb2dVertex
 10
95.05893713376022
 20
-198.0786663407934
 30
0.0
  0
SEQEND
  5
6D
330
6A
100
AcDbEntity
  8
_U+30EC_U+30A4_U+30E4_U+30FC 1
 62
   179
420
  2234388
370
    25
  0
POLYLINE
  5
6E
330
1F
100
AcDbEntity
  8
_U+30EC_U+30A4_U+30E4_U+30FC 1
 62
   179
420
  2234388
370
    25
100
AcDb2dPolyline
 66
     1
 10
0.0
 20
0.0
 30
0.0
  0
VERTEX
  5
6F
330
6E
100
AcDbEntity
  8
_U+30EC_U+30A4_U+30E4_U+30FC 1
 62
   179
420
  2234388
370
    25
100
AcDbVertex
100
AcDb2dVertex
 10
81.9594890813439
 20
-107.0777986894578
 30
0.0
  0
VERTEX
  5
70
330
6E
100
AcDbEntity
  8
_U+30EC_U+30A4_U+30E4_U+30FC 1
 62
   179
420
  2234388
370
    25
100
AcDbVertex
100
AcDb2dVertex
 10
81.9594890813439
 20
-181.9778134208955
 30
0.0
  0
SEQEND
  5
71
330
6E
100
AcDbEntity
  8
_U+30EC_U+30A4_U+30E4_U+30FC 1
 62
   179
420
  2234388
370
    25
  0
POLYLINE
  5
72
330
1F
100
AcDbEntity
  8
_U+30EC_U+30A4_U+30E4_U+30FC 1
 62
   179
420
  2234388
370
    25
100
AcDb2dPolyline
 66
     1
 10
0.0
 20
0.0
 30
0.0
  0
VERTEX
  5
73
330
72
100
AcDbEntity
  8
_U+30EC_U+30A4_U+30E4_U+30FC 1
 62
   179
420
  2234388
370
    25
100
AcDbVertex
100
AcDb2dVertex
 10
81.9594890813439
 20
-181.9779533778996
 30
0.0
  0
VERTEX
  5
74
330
72
100
AcDbEntity
  8
_U+30EC_U+30A4_U+30E4_U+30FC 1
 62
   179
420
  2234388
370
    25
100
AcDbVertex
100
AcDb2dVertex
 10
131.0587423208866
 20
-181.9779533778996
 30
0.0
  0
SEQEND
  5
75
330
72
100
AcDbEntity
  8
_U+30EC_U+30A4_U+30E4_U+30FC 1
 62
   179
420
  2234388
370
    25
  0
POLYLINE
  5
76
330
1F
100
AcDbEntity
  8
_U+30EC_U+30A4_U+30E4_U+30FC 1
 62
   179
420
  2234388
370
    25
100
AcDb2dPolyline
 66
     1
 10
0.0
 20
0.0
 30
0.0
  0
VERTEX
  5
77
330
76
100
AcDbEntity
  8
_U+30EC_U+30A4_U+30E4_U+30FC 1
 62
   179
420
  2234388
370
    25
100
AcDbVertex
100
AcDb2dVertex
 10
81.9594890813439
 20
-183.0786560024752
 30
0.0
  0
VERTEX
  5
78
330
76
100
AcDbEntity
  8
_U+30EC_U+30A4_U+30E4_U+30FC 1
 62
   179
420
  2234388
370
    25
100
AcDbVertex
100
AcDb2dVertex
 10
81.9594890813439
 20
-198.0787686170656
 30
0.0
  0
SEQEND
  5
79
330
76
100
AcDbEntity
  8
_U+30EC_U+30A4_U+30E4_U+30FC 1
 62
   179
420
  2234388
370
    25
  0
SPLINE
  5
7A
330
1F
100
AcDbEntity
  8
_U+30EC_U+30A4_U+30E4_U+30FC 1
 62
   179
420
  2234388
370
     9
100
AcDbSpline
210
0.0
220
0.0
230
1.0
 70
    11
 71
     3
 72
    17
 73
    13
 74
     0
 42
0.0000000001
 43
0.0000000001
 12
1.0
 22
0.0
 32
0.0
 13
1.0
 23
0.0
 33
0.0
 40
0.0
 40
0.0
 40
0.0
 40
0.0
 40
1.0
 40
1.0
 40
1.0
 40
2.0
 40
2.0
 40
2.0
 40
3.0
 40
3.0
 40
3.0
 40
4.0
 40
4.0
 40
4.0
 40
4.0
 10
81.15952714374549
 20
-96.07864233370061
 30
0.0
 10
81.15952714374549
 20
-96.02361769924714
 30
0.0
 10
81.11471937059046
 20
-95.97880992609211
 30
0.0
 10
81.05932869474168
 20
-95.97880992609211
 30
0.0
 10
81.0043040602882
 20
-95.97880992609211
 30
0.0
 10
80.95949628713318
 20
-96.02361769924714
 30
0.0
 10
80.95949628713318
 20
-96.07864233370061
 30
0.0
 10
80.95949628713318
 20
-96.13367773407748
 30
0.0
 10
81.0043040602882
 20
-96.17848550723251
 30
0.0
 10
81.05932869474168
 20
-96.17848550723251
 30
0.0
 10
81.11471937059046
 20
-96.17848550723251
 30
0.0
 10
81.15952714374549
 20
-96.13367773407748
 30
0.0
 10
81.15952714374549
 20
-96.07864233370061
 30
0.0
  0
SPLINE
  5
7B
330
1F
100
AcDbEntity
  8
_U+30EC_U+30A4_U+30E4_U+30FC 1
 62
   179
420
  2234388
370
     9
100
AcDbSpline
210
0.0
220
0.0
230
1.0
 70
    11
 71
     3
 72
    17
 73
    13
 74
     0
 42
0.0000000001
 43
0.0000000001
 12
1.0
 22
0.0
 32
0.0
 13
1.0
 23
0.0
 33
0.0
 40
0.0
 40
0.0
 40
0.0
 40
0.0
 40
1.0
 40
1.0
 40
1.0
 40
2.0
 40
2.0
 40
2.0
 40
3.0
 40
3.0
 40
3.0
 40
4.0
 40
4.0
 40
4.0
 40
4.0
 10
81.15952714374549
 20
-100.0784089579991
 30
0.0
 10
81.15952714374549
 20
-100.0233843235456
 30
0.0
 10
81.11471937059046
 20
-99.97857655039056
 30
0.0
 10
81.05932869474168
 20
-99.97857655039056
 30
0.0
 10
81.0043040602882
 20
-99.97857655039056
 30
0.0
 10
80.95949628713318
 20
-100.0233843235456
 30
0.0
 10
80.95949628713318
 20
-100.0784089579991
 30
0.0
 10
80.95949628713318
 20
-100.1341549093201
 30
0.0
 10
81.0043040602882
 20
-100.1789519165514
 30
0.0
 10
81.05932869474168
 20
-100.1789519165514
 30
0.0
 10
81.11471937059046
 20
-100.1789519165514
 30
0.0
 10
81.15952714374549
 20
-100.1341549093201
 30
0.0
 10
81.15952714374549
 20
-100.0784089579991
 30
0.0
  0
SPLINE
  5
7C
330
1F
100
AcDbEntity
  8
_U+30EC_U+30A4_U+30E4_U+30FC 1
 62
   179
420
  2234388
370
     9
100
AcDbSpline
210
0.0
220
0.0
230
1.0
 70
    11
 71
     3
 72
    17
 73
    13
 74
     0
 42
0.0000000001
 43
0.0000000001
 12
1.0
 22
0.0
 32
0.0
 13
1.0
 23
0.0
 33
0.0
 40
0.0
 40
0.0
 40
0.0
 40
0.0
 40
1.0
 40
1.0
 40
1.0
 40
2.0
 40
2.0
 40
2.0
 40
3.0
 40
3.0
 40
3.0
 40
4.0
 40
4.0
 40
4.0
 40
4.0
 10
83.55936989284746
 20
-100.0784089579991
 30
0.0
 10
83.55936989284746
 20
-100.0233843235456
 30
0.0
 10
83.51456211969212
 20
-99.97857655039056
 30
0.0
 10
83.45917144384333
 20
-99.97857655039056
 30
0.0
 10
83.40414680938986
 20
-99.97857655039056
 30
0.0
 10
83.35933903623483
 20
-100.0233843235456
 30
0.0
 10
83.35933903623483
 20
-100.0784089579991
 30
0.0
 10
83.35933903623483
 20
-100.1341549093201
 30
0.0
 10
83.40414680938986
 20
-100.1789519165514
 30
0.0
 10
83.45917144384333
 20
-100.1789519165514
 30
0.0
 10
83.51456211969212
 20
-100.1789519165514
 30
0.0
 10
83.55936989284746
 20
-100.1341549093201
 30
0.0
 10
83.55936989284746
 20
-100.0784089579991
 30
0.0
  0
SPLINE
  5
7D
330
1F
100
AcDbEntity
  8
_U+30EC_U+30A4_U+30E4_U+30FC 1
 62
   179
420
  2234388
370
     9
100
AcDbSpline
210
0.0
220
0.0
230
1.0
 70
    11
 71
     3
 72
    17
 73
    13
 74
     0
 42
0.0000000001
 43
0.0000000001
 12
1.0
 22
0.0
 32
0.0
 13
1.0
 23
0.0
 33
0.0
 40
0.0
 40
0.0
 40
0.0
 40
0.0
 40
1.0
 40
1.0
 40
1.0
 40
2.0
 40
2.0
 40
2.0
 40
3.0
 40
3.0
 40
3.0
 40
4.0
 40
4.0
 40
4.0
 40
4.0
 10
131.1587254514226
 20
-96.07864233370061
 30
0.0
 10
131.1587254514226
 20
-96.02361769924714
 30
0.0
 10
131.1139176782675
 20
-95.97880992609211
 30
0.0
 10
131.0588822778907
 20
-95.97880992609211
 30
0.0
 10
131.0038468775138
 20
-95.97880992609211
 30
0.0
 10
130.9590498702822
 20
-96.02361769924714
 30
0.0
 10
130.9590498702822
 20
-96.07864233370061
 30
0.0
 10
130.9590498702822
 20
-96.13367773407748
 30
0.0
 10
131.0038468775138
 20
-96.17848550723251
 30
0.0
 10
131.0588822778907
 20
-96.17848550723251
 30
0.0
 10
131.1139176782675
 20
-96.17848550723251
 30
0.0
 10
131.1587254514226
 20
-96.13367773407748
 30
0.0
 10
131.1587254514226
 20
-96.07864233370061
 30
0.0
  0
SPLINE
  5
7E
330
1F
100
AcDbEntity
  8
_U+30EC_U+30A4_U+30E4_U+30FC 1
 62
   179
420
  2234388
370
     9
100
AcDbSpline
210
0.0
220
0.0
230
1.0
 70
    11
 71
     3
 72
    17
 73
    13
 74
     0
 42
0.0000000001
 43
0.0000000001
 12
1.0
 22
0.0
 32
0.0
 13
1.0
 23
0.0
 33
0.0
 40
0.0
 40
0.0
 40
0.0
 40
0.0
 40
1.0
 40
1.0
 40
1.0
 40
2.0
 40
2.0
 40
2.0
 40
3.0
 40
3.0
 40
3.0
 40
4.0
 40
4.0
 40
4.0
 40
4.0
 10
135.1584813097976
 20
-183.0786560024752
 30
0.0
 10
135.1584813097976
 20
-183.0229208170779
 30
0.0
 10
135.1136735366426
 20
-182.9781184268846
 30
0.0
 10
135.0586381362657
 20
-182.9781184268846
 30
0.0
 10
135.0036027358889
 20
-182.9781184268846
 30
0.0
 10
134.9588057286572
 20
-183.0229208170779
 30
0.0
 10
134.9588057286572
 20
-183.0786560024752
 30
0.0
 10
134.9588057286572
 20
-183.1336914028521
 30
0.0
 10
135.0036027358889
 20
-183.1784937930454
 30
0.0
 10
135.0586381362657
 20
-183.1784937930454
 30
0.0
 10
135.1136735366426
 20
-183.1784937930454
 30
0.0
 10
135.1584813097976
 20
-183.1336914028521
 30
0.0
 10
135.1584813097976
 20
-183.0786560024752
 30
0.0
  0
SPLINE
  5
7F
330
1F
100
AcDbEntity
  8
_U+30EC_U+30A4_U+30E4_U+30FC 1
 62
   179
420
  2234388
370
     9
100
AcDbSpline
210
0.0
220
0.0
230
1.0
 70
    11
 71
     3
 72
    17
 73
    13
 74
     0
 42
0.0000000001
 43
0.0000000001
 12
1.0
 22
0.0
 32
0.0
 13
1.0
 23
0.0
 33
0.0
 40
0.0
 40
0.0
 40
0.0
 40
0.0
 40
1.0
 40
1.0
 40
1.0
 40
2.0
 40
2.0
 40
2.0
 40
3.0
 40
3.0
 40
3.0
 40
4.0
 40
4.0
 40
4.0
 40
4.0
 10
135.1584813097976
 20
-181.8787561597712
 30
0.0
 10
135.1584813097976
 20
-181.8230209743739
 30
0.0
 10
135.1136735366426
 20
-181.7782185841806
 30
0.0
 10
135.0586381362657
 20
-181.7782185841806
 30
0.0
 10
135.0036027358889
 20
-181.7782185841806
 30
0.0
 10
134.9588057286572
 20
-181.8230209743739
 30
0.0
 10
134.9588057286572
 20
-181.8787561597712
 30
0.0
 10
134.9588057286572
 20
-181.9337915601481
 30
0.0
 10
135.0036027358889
 20
-181.9785939503414
 30
0.0
 10
135.0586381362657
 20
-181.9785939503414
 30
0.0
 10
135.1136735366426
 20
-181.9785939503414
 30
0.0
 10
135.1584813097976
 20
-181.9337915601481
 30
0.0
 10
135.1584813097976
 20
-181.8787561597712
 30
0.0
  0
SPLINE
  5
80
330
1F
100
AcDbEntity
  8
_U+30EC_U+30A4_U+30E4_U+30FC 1
 62
   179
420
  2234388
370
     9
100
AcDbSpline
210
0.0
220
0.0
230
1.0
 70
    11
 71
     3
 72
    17
 73
    13
 74
     0
 42
0.0000000001
 43
0.0000000001
 12
1.0
 22
0.0
 32
0.0
 13
1.0
 23
0.0
 33
0.0
 40
0.0
 40
0.0
 40
0.0
 40
0.0
 40
1.0
 40
1.0
 40
1.0
 40
2.0
 40
2.0
 40
2.0
 40
3.0
 40
3.0
 40
3.0
 40
4.0
 40
4.0
 40
4.0
 40
4.0
 10
135.1584813097976
 20
-196.0784116042872
 30
0.0
 10
135.1584813097976
 20
-196.023381586872
 30
0.0
 10
135.1136735366426
 20
-195.9785791966787
 30
0.0
 10
135.0586381362657
 20
-195.9785791966787
 30
0.0
 10
135.0036027358889
 20
-195.9785791966787
 30
0.0
 10
134.9588057286572
 20
-196.023381586872
 30
0.0
 10
134.9588057286572
 20
-196.0784116042872
 30
0.0
 10
134.9588057286572
 20
-196.133447004664
 30
0.0
 10
135.0036027358889
 20
-196.1782493948573
 30
0.0
 10
135.0586381362657
 20
-196.1782493948573
 30
0.0
 10
135.1136735366426
 20
-196.1782493948573
 30
0.0
 10
135.1584813097976
 20
-196.133447004664
 30
0.0
 10
135.1584813097976
 20
-196.0784116042872
 30
0.0
  0
SPLINE
  5
81
330
1F
100
AcDbEntity
  8
_U+30EC_U+30A4_U+30E4_U+30FC 1
 62
   179
420
  2234388
370
     9
100
AcDbSpline
210
0.0
220
0.0
230
1.0
 70
    11
 71
     3
 72
    17
 73
    13
 74
     0
 42
0.0000000001
 43
0.0000000001
 12
1.0
 22
0.0
 32
0.0
 13
1.0
 23
0.0
 33
0.0
 40
0.0
 40
0.0
 40
0.0
 40
0.0
 40
1.0
 40
1.0
 40
1.0
 40
2.0
 40
2.0
 40
2.0
 40
3.0
 40
3.0
 40
3.0
 40
4.0
 40
4.0
 40
4.0
 40
4.0
 10
135.1584813097976
 20
-199.0784007528427
 30
0.0
 10
135.1584813097976
 20
-199.0233707354275
 30
0.0
 10
135.1136735366426
 20
-198.9785683452342
 30
0.0
 10
135.0586381362657
 20
-198.9785683452342
 30
0.0
 10
135.0036027358889
 20
-198.9785683452342
 30
0.0
 10
134.9588057286572
 20
-199.0233707354275
 30
0.0
 10
134.9588057286572
 20
-199.0784007528427
 30
0.0
 10
134.9588057286572
 20
-199.1334361532196
 30
0.0
 10
135.0036027358889
 20
-199.1782385434129
 30
0.0
 10
135.0586381362657
 20
-199.1782385434129
 30
0.0
 10
135.1136735366426
 20
-199.1782385434129
 30
0.0
 10
135.1584813097976
 20
-199.1334361532196
 30
0.0
 10
135.1584813097976
 20
-199.0784007528427
 30
0.0
  0
SPLINE
  5
82
330
1F
100
AcDbEntity
  8
_U+30EC_U+30A4_U+30E4_U+30FC 1
 62
   179
420
  2234388
370
     9
100
AcDbSpline
210
0.0
220
0.0
230
1.0
 70
    11
 71
     3
 72
    17
 73
    13
 74
     0
 42
0.0000000001
 43
0.0000000001
 12
1.0
 22
0.0
 32
0.0
 13
1.0
 23
0.0
 33
0.0
 40
0.0
 40
0.0
 40
0.0
 40
0.0
 40
1.0
 40
1.0
 40
1.0
 40
2.0
 40
2.0
 40
2.0
 40
3.0
 40
3.0
 40
3.0
 40
4.0
 40
4.0
 40
4.0
 40
4.0
 10
81.15952714374549
 20
-203.0781566112178
 30
0.0
 10
81.15952714374549
 20
-203.0231265938026
 30
0.0
 10
81.11471937059046
 20
-202.9783242036093
 30
0.0
 10
81.05932869474168
 20
-202.9783242036093
 30
0.0
 10
81.0043040602882
 20
-202.9783242036093
 30
0.0
 10
80.95949628713318
 20
-203.0231265938026
 30
0.0
 10
80.95949628713318
 20
-203.0781566112178
 30
0.0
 10
80.95949628713318
 20
-203.1338971795768
 30
0.0
 10
81.0043040602882
 20
-203.1786995697701
 30
0.0
 10
81.05932869474168
 20
-203.1786995697701
 30
0.0
 10
81.11471937059046
 20
-203.1786995697701
 30
0.0
 10
81.15952714374549
 20
-203.1338971795768
 30
0.0
 10
81.15952714374549
 20
-203.0781566112178
 30
0.0
  0
SPLINE
  5
83
330
1F
100
AcDbEntity
  8
_U+30EC_U+30A4_U+30E4_U+30FC 1
 62
   179
420
  2234388
370
     9
100
AcDbSpline
210
0.0
220
0.0
230
1.0
 70
    11
 71
     3
 72
    17
 73
    13
 74
     0
 42
0.0000000001
 43
0.0000000001
 12
1.0
 22
0.0
 32
0.0
 13
1.0
 23
0.0
 33
0.0
 40
0.0
 40
0.0
 40
0.0
 40
0.0
 40
1.0
 40
1.0
 40
1.0
 40
2.0
 40
2.0
 40
2.0
 40
3.0
 40
3.0
 40
3.0
 40
4.0
 40
4.0
 40
4.0
 40
4.0
 10
96.15928986582595
 20
-203.0781566112178
 30
0.0
 10
96.15928986582595
 20
-203.0231265938026
 30
0.0
 10
96.1144820926706
 20
-202.9783242036093
 30
0.0
 10
96.05944669229373
 20
-202.9783242036093
 30
0.0
 10
96.00441129191687
 20
-202.9783242036093
 30
0.0
 10
95.95961428468523
 20
-203.0231265938026
 30
0.0
 10
95.95961428468523
 20
-203.0781566112178
 30
0.0
 10
95.95961428468523
 20
-203.1338971795768
 30
0.0
 10
96.00441129191687
 20
-203.1786995697701
 30
0.0
 10
96.05944669229373
 20
-203.1786995697701
 30
0.0
 10
96.1144820926706
 20
-203.1786995697701
 30
0.0
 10
96.15928986582595
 20
-203.1338971795768
 30
0.0
 10
96.15928986582595
 20
-203.0781566112178
 30
0.0
  0
SPLINE
  5
84
330
1F
100
AcDbEntity
  8
_U+30EC_U+30A4_U+30E4_U+30FC 1
 62
   179
420
  2234388
370
     9
100
AcDbSpline
210
0.0
220
0.0
230
1.0
 70
    11
 71
     3
 72
    17
 73
    13
 74
     0
 42
0.0000000001
 43
0.0000000001
 12
1.0
 22
0.0
 32
0.0
 13
1.0
 23
0.0
 33
0.0
 40
0.0
 40
0.0
 40
0.0
 40
0.0
 40
1.0
 40
1.0
 40
1.0
 40
2.0
 40
2.0
 40
2.0
 40
3.0
 40
3.0
 40
3.0
 40
4.0
 40
4.0
 40
4.0
 40
4.0
 10
77.15941600989883
 20
-104.0781648163741
 30
0.0
 10
77.15941600989883
 20
-104.0231401819207
 30
0.0
 10
77.11460823674349
 20
-103.9783324087656
 30
0.0
 10
77.05957283636663
 20
-103.9783324087656
 30
0.0
 10
77.00453743598976
 20
-103.9783324087656
 30
0.0
 10
76.95974042875811
 20
-104.0231401819207
 30
0.0
 10
76.95974042875811
 20
-104.0781648163741
 30
0.0
 10
76.95974042875811
 20
-104.133200216751
 30
0.0
 10
77.00453743598976
 20
-104.1780079899063
 30
0.0
 10
77.05957283636663
 20
-104.1780079899063
 30
0.0
 10
77.11460823674349
 20
-104.1780079899063
 30
0.0
 10
77.15941600989883
 20
-104.133200216751
 30
0.0
 10
77.15941600989883
 20
-104.0781648163741
 30
0.0
  0
SPLINE
  5
85
330
1F
100
AcDbEntity
  8
_U+30EC_U+30A4_U+30E4_U+30FC 1
 62
   179
420
  2234388
370
     9
100
AcDbSpline
210
0.0
220
0.0
230
1.0
 70
    11
 71
     3
 72
    17
 73
    13
 74
     0
 42
0.0000000001
 43
0.0000000001
 12
1.0
 22
0.0
 32
0.0
 13
1.0
 23
0.0
 33
0.0
 40
0.0
 40
0.0
 40
0.0
 40
0.0
 40
1.0
 40
1.0
 40
1.0
 40
2.0
 40
2.0
 40
2.0
 40
3.0
 40
3.0
 40
3.0
 40
4.0
 40
4.0
 40
4.0
 40
4.0
 10
77.15941600989883
 20
-199.0784007528427
 30
0.0
 10
77.15941600989883
 20
-199.0233707354275
 30
0.0
 10
77.11460823674349
 20
-198.9785683452342
 30
0.0
 10
77.05957283636663
 20
-198.9785683452342
 30
0.0
 10
77.00453743598976
 20
-198.9785683452342
 30
0.0
 10
76.95974042875811
 20
-199.0233707354275
 30
0.0
 10
76.95974042875811
 20
-199.0784007528427
 30
0.0
 10
76.95974042875811
 20
-199.1334361532196
 30
0.0
 10
77.00453743598976
 20
-199.1782385434129
 30
0.0
 10
77.05957283636663
 20
-199.1782385434129
 30
0.0
 10
77.11460823674349
 20
-199.1782385434129
 30
0.0
 10
77.15941600989883
 20
-199.1334361532196
 30
0.0
 10
77.15941600989883
 20
-199.0784007528427
 30
0.0
  0
POLYLINE
  5
86
330
1F
100
AcDbEntity
  8
_U+30EC_U+30A4_U+30E4_U+30FC 1
 62
   179
420
  2234388
370
     9
100
AcDb2dPolyline
 66
     1
 10
0.0
 20
0.0
 30
0.0
  0
VERTEX
  5
87
330
86
100
AcDbEntity
  8
_U+30EC_U+30A4_U+30E4_U+30FC 1
 62
   179
420
  2234388
370
     9
100
AcDbVertex
100
AcDb2dVertex
 10
135.0585735407254
 20
-196.0784116042872
 30
0.0
  0
VERTEX
  5
88
330
86
100
AcDbEntity
  8
_U+30EC_U+30A4_U+30E4_U+30FC 1
 62
   179
420
  2234388
370
     9
100
AcDbVertex
100
AcDb2dVertex
 10
135.0585735407254
 20
-199.0784384335746
 30
0.0
  0
SEQEND
  5
89
330
86
100
AcDbEntity
  8
_U+30EC_U+30A4_U+30E4_U+30FC 1
 62
   179
420
  2234388
370
     9
  0
POLYLINE
  5
8A
330
1F
100
AcDbEntity
  8
_U+30EC_U+30A4_U+30E4_U+30FC 1
 62
   179
420
  2234388
370
     9
100
AcDb2dPolyline
 66
     1
 10
0.0
 20
0.0
 30
0.0
  0
VERTEX
  5
8B
330
8A
100
AcDbEntity
  8
_U+30EC_U+30A4_U+30E4_U+30FC 1
 62
   179
420
  2234388
370
     9
100
AcDbVertex
100
AcDb2dVertex
 10
98.59909572255617
 20
-196.0784116042872
 30
0.0
  0
VERTEX
  5
8C
330
8A
100
AcDbEntity
  8
_U+30EC_U+30A4_U+30E4_U+30FC 1
 62
   179
420
  2234388
370
     9
100
AcDbVertex
100
AcDb2dVertex
 10
136.0591476947992
 20
-196.0784116042872
 30
0.0
  0
SEQEND
  5
8D
330
8A
100
AcDbEntity
  8
_U+30EC_U+30A4_U+30E4_U+30FC 1
 62
   179
420
  2234388
370
     9
  0
POLYLINE
  5
8E
330
1F
100
AcDbEntity
  8
_U+30EC_U+30A4_U+30E4_U+30FC 1
 62
   179
420
  2234388
370
     9
100
AcDb2dPolyline
 66
     1
 10
0.0
 20
0.0
 30
0.0
  0
VERTEX
  5
8F
330
8E
100
AcDbEntity
  8
_U+30EC_U+30A4_U+30E4_U+30FC 1
 62
   179
420
  2234388
370
     9
100
AcDbVertex
100
AcDb2dVertex
 10
98.59909572255617
 20
-199.0784007528427
 30
0.0
  0
VERTEX
  5
90
330
8E
100
AcDbEntity
  8
_U+30EC_U+30A4_U+30E4_U+30FC 1
 62
   179
420
  2234388
370
     9
100
AcDbVertex
100
AcDb2dVertex
 10
136.0591476947992
 20
-199.0784007528427
 30
0.0
  0
SEQEND
  5
91
330
8E
100
AcDbEntity
  8
_U+30EC_U+30A4_U+30E4_U+30FC 1
 62
   179
420
  2234388
370
     9
  0
INSERT
  5
93
330
1F
100
AcDbEntity
  8
_U+30EC_U+30A4_U+30E4_U+30FC 1
100
AcDbBlockReference
  2
block 2
 10
0.0
 20
0.0
 30
0.0
  0
POLYLINE
  5
98
330
1F
100
AcDbEntity
  8
_U+30EC_U+30A4_U+30E4_U+30FC 1
 62
   179
420
  2234388
370
     9
100
AcDb2dPolyline
 66
     1
 10
0.0
 20
0.0
 30
0.0
  0
VERTEX
  5
99
330
98
100
AcDbEntity
  8
_U+30EC_U+30A4_U+30E4_U+30FC 1
 62
   179
420
  2234388
370
     9
100
AcDbVertex
100
AcDb2dVertex
 10
81.05926409920166
 20
-100.0784089579991
 30
0.0
  0
VERTEX
  5
9A
330
98
100
AcDbEntity
  8
_U+30EC_U+30A4_U+30E4_U+30FC 1
 62
   179
420
  2234388
370
     9
100
AcDbVertex
100
AcDb2dVertex
 10
83.45920374161382
 20
-100.0784089579991
 30
0.0
  0
SEQEND
  5
9B
330
98
100
AcDbEntity
  8
_U+30EC_U+30A4_U+30E4_U+30FC 1
 62
   179
420
  2234388
370
     9
  0
POLYLINE
  5
9C
330
1F
100
AcDbEntity
  8
_U+30EC_U+30A4_U+30E4_U+30FC 1
 62
   179
420
  2234388
370
     9
100
AcDb2dPolyline
 66
     1
 10
0.0
 20
0.0
 30
0.0
  0
VERTEX
  5
9D
330
9C
100
AcDbEntity
  8
_U+30EC_U+30A4_U+30E4_U+30FC 1
 62
   179
420
  2234388
370
     9
100
AcDbVertex
100
AcDb2dVertex
 10
81.05926409920166
 20
-101.5384081268778
 30
0.0
  0
VERTEX
  5
9E
330
9C
100
AcDbEntity
  8
_U+30EC_U+30A4_U+30E4_U+30FC 1
 62
   179
420
  2234388
370
     9
100
AcDbVertex
100
AcDb2dVertex
 10
81.05926409920166
 20
-99.0784915252524
 30
0.0
  0
SEQEND
  5
9F
330
9C
100
AcDbEntity
  8
_U+30EC_U+30A4_U+30E4_U+30FC 1
 62
   179
420
  2234388
370
     9
  0
POLYLINE
  5
A0
330
1F
100
AcDbEntity
  8
_U+30EC_U+30A4_U+30E4_U+30FC 1
 62
   179
420
  2234388
370
     9
100
AcDb2dPolyline
 66
     1
 10
0.0
 20
0.0
 30
0.0
  0
VERTEX
  5
A1
330
A0
100
AcDbEntity
  8
_U+30EC_U+30A4_U+30E4_U+30FC 1
 62
   179
420
  2234388
370
     9
100
AcDbVertex
100
AcDb2dVertex
 10
83.45910684830298
 20
-101.5384081268778
 30
0.0
  0
VERTEX
  5
A2
330
A0
100
AcDbEntity
  8
_U+30EC_U+30A4_U+30E4_U+30FC 1
 62
   179
420
  2234388
370
     9
100
AcDbVertex
100
AcDb2dVertex
 10
83.45910684830298
 20
-99.0784915252524
 30
0.0
  0
SEQEND
  5
A3
330
A0
100
AcDbEntity
  8
_U+30EC_U+30A4_U+30E4_U+30FC 1
 62
   179
420
  2234388
370
     9
  0
INSERT
  5
A5
330
1F
100
AcDbEntity
  8
_U+30EC_U+30A4_U+30E4_U+30FC 1
100
AcDbBlockReference
  2
block 3
 10
0.0
 20
0.0
 30
0.0
  0
POLYLINE
  5
C7
330
1F
100
AcDbEntity
  8
_U+30EC_U+30A4_U+30E4_U+30FC 1
 62
   179
420
  2234388
370
     9
100
AcDb2dPolyline
 66
     1
 10
0.0
 20
0.0
 30
0.0
  0
VERTEX
  5
C8
330
C7
100
AcDbEntity
  8
_U+30EC_U+30A4_U+30E4_U+30FC 1
 62
   179
420
  2234388
370
     9
100
AcDbVertex
100
AcDb2dVertex
 10
81.05926409920166
 20
-96.07864233370061
 30
0.0
  0
VERTEX
  5
C9
330
C7
100
AcDbEntity
  8
_U+30EC_U+30A4_U+30E4_U+30FC 1
 62
   179
420
  2234388
370
     9
100
AcDbVertex
100
AcDb2dVertex
 10
131.0588069164269
 20
-96.07864233370061
 30
0.0
  0
SEQEND
  5
CA
330
C7
100
AcDbEntity
  8
_U+30EC_U+30A4_U+30E4_U+30FC 1
 62
   179
420
  2234388
370
     9
  0
POLYLINE
  5
CB
330
1F
100
AcDbEntity
  8
_U+30EC_U+30A4_U+30E4_U+30FC 1
 62
   179
420
  2234388
370
     9
100
AcDb2dPolyline
 66
     1
 10
0.0
 20
0.0
 30
0.0
  0
VERTEX
  5
CC
330
CB
100
AcDbEntity
  8
_U+30EC_U+30A4_U+30E4_U+30FC 1
 62
   179
420
  2234388
370
     9
100
AcDbVertex
100
AcDb2dVertex
 10
81.05926409920166
 20
-101.5384081268778
 30
0.0
  0
VERTEX
  5
CD
330
CB
100
AcDbEntity
  8
_U+30EC_U+30A4_U+30E4_U+30FC 1
 62
   179
420
  2234388
370
     9
100
AcDbVertex
100
AcDb2dVertex
 10
81.05926409920166
 20
-95.07870336910685
 30
0.0
  0
SEQEND
  5
CE
330
CB
100
AcDbEntity
  8
_U+30EC_U+30A4_U+30E4_U+30FC 1
 62
   179
420
  2234388
370
     9
  0
POLYLINE
  5
CF
330
1F
100
AcDbEntity
  8
_U+30EC_U+30A4_U+30E4_U+30FC 1
 62
   179
420
  2234388
370
     9
100
AcDb2dPolyline
 66
     1
 10
0.0
 20
0.0
 30
0.0
  0
VERTEX
  5
D0
330
CF
100
AcDbEntity
  8
_U+30EC_U+30A4_U+30E4_U+30FC 1
 62
   179
420
  2234388
370
     9
100
AcDbVertex
100
AcDb2dVertex
 10
131.0588176823503
 20
-180.5076135396035
 30
0.0
  0
VERTEX
  5
D1
330
CF
100
AcDbEntity
  8
_U+30EC_U+30A4_U+30E4_U+30FC 1
 62
   179
420
  2234388
370
     9
100
AcDbVertex
100
AcDb2dVertex
 10
131.0588176823503
 20
-95.07859570987293
 30
0.0
  0
SEQEND
  5
D2
330
CF
100
AcDbEntity
  8
_U+30EC_U+30A4_U+30E4_U+30FC 1
 62
   179
420
  2234388
370
     9
  0
INSERT
  5
D4
330
1F
100
AcDbEntity
  8
_U+30EC_U+30A4_U+30E4_U+30FC 1
100
AcDbBlockReference
  2
block 4
 10
0.0
 20
0.0
 30
0.0
  0
POLYLINE
  5
DC
330
1F
100
AcDbEntity
  8
_U+30EC_U+30A4_U+30E4_U+30FC 1
 62
   179
420
  2234388
370
     9
100
AcDb2dPolyline
 66
     1
 10
0.0
 20
0.0
 30
0.0
  0
VERTEX
  5
DD
330
DC
100
AcDbEntity
  8
_U+30EC_U+30A4_U+30E4_U+30FC 1
 62
   179
420
  2234388
370
     9
100
AcDbVertex
100
AcDb2dVertex
 10
81.05926409920166
 20
-203.0781566112178
 30
0.0
  0
VERTEX
  5
DE
330
DC
100
AcDbEntity
  8
_U+30EC_U+30A4_U+30E4_U+30FC 1
 62
   179
420
  2234388
370
     9
100
AcDbVertex
100
AcDb2dVertex
 10
96.05937133082999
 20
-203.0781566112178
 30
0.0
  0
SEQEND
  5
DF
330
DC
100
AcDbEntity
  8
_U+30EC_U+30A4_U+30E4_U+30FC 1
 62
   179
420
  2234388
370
     9
  0
POLYLINE
  5
E0
330
1F
100
AcDbEntity
  8
_U+30EC_U+30A4_U+30E4_U+30FC 1
 62
   179
420
  2234388
370
     9
100
AcDb2dPolyline
 66
     1
 10
0.0
 20
0.0
 30
0.0
  0
VERTEX
  5
E1
330
E0
100
AcDbEntity
  8
_U+30EC_U+30A4_U+30E4_U+30FC 1
 62
   179
420
  2234388
370
     9
100
AcDbVertex
100
AcDb2dVertex
 10
81.05926409920166
 20
-201.6181143786455
 30
0.0
  0
VERTEX
  5
E2
330
E0
100
AcDbEntity
  8
_U+30EC_U+30A4_U+30E4_U+30FC 1
 62
   179
420
  2234388
370
     9
100
AcDbVertex
100
AcDb2dVertex
 10
81.05926409920166
 20
-204.078741531215
 30
0.0
  0
SEQEND
  5
E3
330
E0
100
AcDbEntity
  8
_U+30EC_U+30A4_U+30E4_U+30FC 1
 62
   179
420
  2234388
370
     9
  0
POLYLINE
  5
E4
330
1F
100
AcDbEntity
  8
_U+30EC_U+30A4_U+30E4_U+30FC 1
 62
   179
420
  2234388
370
     9
100
AcDb2dPolyline
 66
     1
 10
0.0
 20
0.0
 30
0.0
  0
VERTEX
  5
E5
330
E4
100
AcDbEntity
  8
_U+30EC_U+30A4_U+30E4_U+30FC 1
 62
   179
420
  2234388
370
     9
100
AcDbVertex
100
AcDb2dVertex
 10
96.05938209675371
 20
-201.6181143786455
 30
0.0
  0
VERTEX
  5
E6
330
E4
100
AcDbEntity
  8
_U+30EC_U+30A4_U+30E4_U+30FC 1
 62
   179
420
  2234388
370
     9
100
AcDbVertex
100
AcDb2dVertex
 10
96.05938209675371
 20
-204.078741531215
 30
0.0
  0
SEQEND
  5
E7
330
E4
100
AcDbEntity
  8
_U+30EC_U+30A4_U+30E4_U+30FC 1
 62
   179
420
  2234388
370
     9
  0
INSERT
  5
E9
330
1F
100
AcDbEntity
  8
_U+30EC_U+30A4_U+30E4_U+30FC 1
100
AcDbBlockReference
  2
block 5
 10
0.0
 20
0.0
 30
0.0
  0
POLYLINE
  5
F0
330
1F
100
AcDbEntity
  8
_U+30EC_U+30A4_U+30E4_U+30FC 1
 62
   179
420
  2234388
370
     9
100
AcDb2dPolyline
 66
     1
 10
0.0
 20
0.0
 30
0.0
  0
VERTEX
  5
F1
330
F0
100
AcDbEntity
  8
_U+30EC_U+30A4_U+30E4_U+30FC 1
 62
   179
420
  2234388
370
     9
100
AcDbVertex
100
AcDb2dVertex
 10
77.05950824082659
 20
-104.0781648163741
 30
0.0
  0
VERTEX
  5
F2
330
F0
100
AcDbEntity
  8
_U+30EC_U+30A4_U+30E4_U+30FC 1
 62
   179
420
  2234388
370
     9
100
AcDbVertex
100
AcDb2dVertex
 10
77.05950824082659
 20
-199.078395369881
 30
0.0
  0
SEQEND
  5
F3
330
F0
100
AcDbEntity
  8
_U+30EC_U+30A4_U+30E4_U+30FC 1
 62
   179
420
  2234388
370
     9
  0
POLYLINE
  5
F4
330
1F
100
AcDbEntity
  8
_U+30EC_U+30A4_U+30E4_U+30FC 1
 62
   179
420
  2234388
370
     9
100
AcDb2dPolyline
 66
     1
 10
0.0
 20
0.0
 30
0.0
  0
VERTEX
  5
F5
330
F4
100
AcDbEntity
  8
_U+30EC_U+30A4_U+30E4_U+30FC 1
 62
   179
420
  2234388
370
     9
100
AcDbVertex
100
AcDb2dVertex
 10
78.51955047339854
 20
-104.0781648163741
 30
0.0
  0
VERTEX
  5
F6
330
F4
100
AcDbEntity
  8
_U+30EC_U+30A4_U+30E4_U+30FC 1
 62
   179
420
  2234388
370
     9
100
AcDbVertex
100
AcDb2dVertex
 10
76.05926783037755
 20
-104.0781648163741
 30
0.0
  0
SEQEND
  5
F7
330
F4
100
AcDbEntity
  8
_U+30EC_U+30A4_U+30E4_U+30FC 1
 62
   179
420
  2234388
370
     9
  0
POLYLINE
  5
F8
330
1F
100
AcDbEntity
  8
_U+30EC_U+30A4_U+30E4_U+30FC 1
 62
   179
420
  2234388
370
     9
100
AcDb2dPolyline
 66
     1
 10
0.0
 20
0.0
 30
0.0
  0
VERTEX
  5
F9
330
F8
100
AcDbEntity
  8
_U+30EC_U+30A4_U+30E4_U+30FC 1
 62
   179
420
  2234388
370
     9
100
AcDbVertex
100
AcDb2dVertex
 10
78.51955047339854
 20
-199.0784007528427
 30
0.0
  0
VERTEX
  5
FA
330
F8
100
AcDbEntity
  8
_U+30EC_U+30A4_U+30E4_U+30FC 1
 62
   179
420
  2234388
370
     9
100
AcDbVertex
100
AcDb2dVertex
 10
76.05926783037755
 20
-199.0784007528427
 30
0.0
  0
SEQEND
  5
FB
330
F8
100
AcDbEntity
  8
_U+30EC_U+30A4_U+30E4_U+30FC 1
 62
   179
420
  2234388
370
     9
  0
INSERT
  5
FD
330
1F
100
AcDbEntity
  8
_U+30EC_U+30A4_U+30E4_U+30FC 1
100
AcDbBlockReference
  2
block 6
 10
0.0
 20
0.0
 30
0.0
  0
POLYLINE
  5
105
330
1F
100
AcDbEntity
  8
_U+30EC_U+30A4_U+30E4_U+30FC 1
 62
   179
420
  2234388
370
     9
100
AcDb2dPolyline
 66
     1
 10
0.0
 20
0.0
 30
0.0
  0
VERTEX
  5
106
330
105
100
AcDbEntity
  8
_U+30EC_U+30A4_U+30E4_U+30FC 1
 62
   179
420
  2234388
370
     9
100
AcDbVertex
100
AcDb2dVertex
 10
135.0585735407254
 20
-181.9786585458818
 30
0.0
  0
VERTEX
  5
107
330
105
100
AcDbEntity
  8
_U+30EC_U+30A4_U+30E4_U+30FC 1
 62
   179
420
  2234388
370
     9
100
AcDbVertex
100
AcDb2dVertex
 10
135.0585735407254
 20
-196.0784815827892
 30
0.0
  0
SEQEND
  5
108
330
105
100
AcDbEntity
  8
_U+30EC_U+30A4_U+30E4_U+30FC 1
 62
   179
420
  2234388
370
     9
  0
POLYLINE
  5
109
330
1F
100
AcDbEntity
  8
_U+30EC_U+30A4_U+30E4_U+30FC 1
 62
   179
420
  2234388
370
     9
100
AcDb2dPolyline
 66
     1
 10
0.0
 20
0.0
 30
0.0
  0
VERTEX
  5
10A
330
109
100
AcDbEntity
  8
_U+30EC_U+30A4_U+30E4_U+30FC 1
 62
   179
420
  2234388
370
     9
100
AcDbVertex
100
AcDb2dVertex
 10
133.5985313081531
 20
-183.0786560024752
 30
0.0
  0
VERTEX
  5
10B
330
109
100
AcDbEntity
  8
_U+30EC_U+30A4_U+30E4_U+30FC 1
 62
   179
420
  2234388
370
     9
100
AcDbVertex
100
AcDb2dVertex
 10
136.0591476947992
 20
-183.0786560024752
 30
0.0
  0
SEQEND
  5
10C
330
109
100
AcDbEntity
  8
_U+30EC_U+30A4_U+30E4_U+30FC 1
 62
   179
420
  2234388
370
     9
  0
POLYLINE
  5
10D
330
1F
100
AcDbEntity
  8
_U+30EC_U+30A4_U+30E4_U+30FC 1
 62
   179
420
  2234388
370
     9
100
AcDb2dPolyline
 66
     1
 10
0.0
 20
0.0
 30
0.0
  0
VERTEX
  5
10E
330
10D
100
AcDbEntity
  8
_U+30EC_U+30A4_U+30E4_U+30FC 1
 62
   179
420
  2234388
370
     9
100
AcDbVertex
100
AcDb2dVertex
 10
133.5985313081531
 20
-181.8787561597712
 30
0.0
  0
VERTEX
  5
10F
330
10D
100
AcDbEntity
  8
_U+30EC_U+30A4_U+30E4_U+30FC 1
 62
   179
420
  2234388
370
     9
100
AcDbVertex
100
AcDb2dVertex
 10
136.0591476947992
 20
-181.8787561597712
 30
0.0
  0
SEQEND
  5
110
330
10D
100
AcDbEntity
  8
_U+30EC_U+30A4_U+30E4_U+30FC 1
 62
   179
420
  2234388
370
     9
  0
INSERT
  5
112
330
1F
100
AcDbEntity
  8
_U+30EC_U+30A4_U+30E4_U+30FC 1
100
AcDbBlockReference
  2
block 7
 10
0.0
 20
0.0
 30
0.0
  0
INSERT
  5
11A
330
1F
100
AcDbEntity
  8
_U+30EC_U+30A4_U+30E4_U+30FC 1
100
AcDbBlockReference
  2
block 8
 10
0.0
 20
0.0
 30
0.0
  0
SPLINE
  5
129
330
1F
100
AcDbEntity
  8
_U+30EC_U+30A4_U+30E4_U+30FC 1
 62
   179
420
  2234388
370
    25
100
AcDbSpline
210
0.0
220
0.0
230
1.0
 70
     8
 71
     3
 72
    11
 73
     7
 74
     0
 42
0.0000000001
 43
0.0000000001
 12
1.0
 22
0.0
 32
0.0
 13
1.0
 23
0.0
 33
0.0
 40
0.0
 40
0.0
 40
0.0
 40
0.0
 40
1.0
 40
1.0
 40
1.0
 40
2.0
 40
2.0
 40
2.0
 40
2.0
 10
83.45910684830298
 20
-104.5780481712839
 30
0.0
 10
83.45910684830298
 20
-104.5780481712839
 30
0.0
 10
83.45839629735914
 20
-104.0781648163741
 30
0.0
 10
82.25436772303482
 20
-104.0781648163741
 30
0.0
 10
81.05068365825838
 20
-104.0781648163741
 30
0.0
 10
81.05915643996742
 20
-104.5780481712839
 30
0.0
 10
81.05915643996742
 20
-104.5780481712839
 30
0.0
  0
SPLINE
  5
12A
330
1F
100
AcDbEntity
  8
_U+30EC_U+30A4_U+30E4_U+30FC 1
 62
   179
420
  2234388
370
     9
100
AcDbSpline
210
0.0
220
0.0
230
1.0
 70
    11
 71
     3
 72
    17
 73
    13
 74
     0
 42
0.0000000001
 43
0.0000000001
 12
1.0
 22
0.0
 32
0.0
 13
1.0
 23
0.0
 33
0.0
 40
0.0
 40
0.0
 40
0.0
 40
0.0
 40
1.0
 40
1.0
 40
1.0
 40
2.0
 40
2.0
 40
2.0
 40
3.0
 40
3.0
 40
3.0
 40
4.0
 40
4.0
 40
4.0
 40
4.0
 10
87.52398577727297
 20
-104.0808778290688
 30
0.0
 10
87.52398577727297
 20
-104.0258531946153
 30
0.0
 10
87.47917800411763
 20
-103.9810454214603
 30
0.0
 10
87.42414260374076
 20
-103.9810454214603
 30
0.0
 10
87.3691072033639
 20
-103.9810454214603
 30
0.0
 10
87.32431019613225
 20
-104.0258531946153
 30
0.0
 10
87.32431019613225
 20
-104.0808778290688
 30
0.0
 10
87.32431019613225
 20
-104.1359132294456
 30
0.0
 10
87.3691072033639
 20
-104.1807210026007
 30
0.0
 10
87.42414260374076
 20
-104.1807210026007
 30
0.0
 10
87.47917800411763
 20
-104.1807210026007
 30
0.0
 10
87.52398577727297
 20
-104.1359132294456
 30
0.0
 10
87.52398577727297
 20
-104.0808778290688
 30
0.0
  0
SPLINE
  5
12B
330
1F
100
AcDbEntity
  8
_U+30EC_U+30A4_U+30E4_U+30FC 1
 62
   179
420
  2234388
370
     9
100
AcDbSpline
210
0.0
220
0.0
230
1.0
 70
    11
 71
     3
 72
    17
 73
    13
 74
     0
 42
0.0000000001
 43
0.0000000001
 12
1.0
 22
0.0
 32
0.0
 13
1.0
 23
0.0
 33
0.0
 40
0.0
 40
0.0
 40
0.0
 40
0.0
 40
1.0
 40
1.0
 40
1.0
 40
2.0
 40
2.0
 40
2.0
 40
3.0
 40
3.0
 40
3.0
 40
4.0
 40
4.0
 40
4.0
 40
4.0
 10
87.52398577727297
 20
-107.0808992753945
 30
0.0
 10
87.52398577727297
 20
-107.025874640941
 30
0.0
 10
87.47917800411763
 20
-106.981066867786
 30
0.0
 10
87.42414260374076
 20
-106.981066867786
 30
0.0
 10
87.3691072033639
 20
-106.981066867786
 30
0.0
 10
87.32431019613225
 20
-107.025874640941
 30
0.0
 10
87.32431019613225
 20
-107.0808992753945
 30
0.0
 10
87.32431019613225
 20
-107.1359346757714
 30
0.0
 10
87.3691072033639
 20
-107.1807424489264
 30
0.0
 10
87.42414260374076
 20
-107.1807424489264
 30
0.0
 10
87.47917800411763
 20
-107.1807424489264
 30
0.0
 10
87.52398577727297
 20
-107.1359346757714
 30
0.0
 10
87.52398577727297
 20
-107.0808992753945
 30
0.0
  0
POLYLINE
  5
12C
330
1F
100
AcDbEntity
  8
_U+30EC_U+30A4_U+30E4_U+30FC 1
 62
   179
420
  2234388
370
     9
100
AcDb2dPolyline
 66
     1
 10
0.0
 20
0.0
 30
0.0
  0
VERTEX
  5
12D
330
12C
100
AcDbEntity
  8
_U+30EC_U+30A4_U+30E4_U+30FC 1
 62
   179
420
  2234388
370
     9
100
AcDbVertex
100
AcDb2dVertex
 10
87.4240887741238
 20
-104.0808778290688
 30
0.0
  0
VERTEX
  5
12E
330
12C
100
AcDbEntity
  8
_U+30EC_U+30A4_U+30E4_U+30FC 1
 62
   179
420
  2234388
370
     9
100
AcDbVertex
100
AcDb2dVertex
 10
87.4240887741238
 20
-107.0809100413179
 30
0.0
  0
SEQEND
  5
12F
330
12C
100
AcDbEntity
  8
_U+30EC_U+30A4_U+30E4_U+30FC 1
 62
   179
420
  2234388
370
     9
  0
POLYLINE
  5
130
330
1F
100
AcDbEntity
  8
_U+30EC_U+30A4_U+30E4_U+30FC 1
 62
   179
420
  2234388
370
     9
100
AcDb2dPolyline
 66
     1
 10
0.0
 20
0.0
 30
0.0
  0
VERTEX
  5
131
330
130
100
AcDbEntity
  8
_U+30EC_U+30A4_U+30E4_U+30FC 1
 62
   179
420
  2234388
370
     9
100
AcDbVertex
100
AcDb2dVertex
 10
86.29166435627539
 20
-104.0808778290688
 30
0.0
  0
VERTEX
  5
132
330
130
100
AcDbEntity
  8
_U+30EC_U+30A4_U+30E4_U+30FC 1
 62
   179
420
  2234388
370
     9
100
AcDbVertex
100
AcDb2dVertex
 10
88.42455526896374
 20
-104.0808778290688
 30
0.0
  0
SEQEND
  5
133
330
130
100
AcDbEntity
  8
_U+30EC_U+30A4_U+30E4_U+30FC 1
 62
   179
420
  2234388
370
     9
  0
POLYLINE
  5
134
330
1F
100
AcDbEntity
  8
_U+30EC_U+30A4_U+30E4_U+30FC 1
 62
   179
420
  2234388
370
     9
100
AcDb2dPolyline
 66
     1
 10
0.0
 20
0.0
 30
0.0
  0
VERTEX
  5
135
330
134
100
AcDbEntity
  8
_U+30EC_U+30A4_U+30E4_U+30FC 1
 62
   179
420
  2234388
370
     9
100
AcDbVertex
100
AcDb2dVertex
 10
86.29166435627539
 20
-107.0808992753945
 30
0.0
  0
VERTEX
  5
136
330
134
100
AcDbEntity
  8
_U+30EC_U+30A4_U+30E4_U+30FC 1
 62
   179
420
  2234388
370
     9
100
AcDbVertex
100
AcDb2dVertex
 10
88.42455526896374
 20
-107.0808992753945
 30
0.0
  0
SEQEND
  5
137
330
134
100
AcDbEntity
  8
_U+30EC_U+30A4_U+30E4_U+30FC 1
 62
   179
420
  2234388
370
     9
  0
INSERT
  5
139
330
1F
100
AcDbEntity
  8
_U+30EC_U+30A4_U+30E4_U+30FC 1
100
AcDbBlockReference
  2
block 9
 10
0.0
 20
0.0
 30
0.0
  0
ENDSEC
  0
SECTION
  2
OBJECTS
  0
DICTIONARY
  5
C
330
0
100
AcDbDictionary
281
     1
  3
ACAD_GROUP
350
D
  3
ACAD_LAYOUT
350
1A
  3
ACAD_MATERIAL
350
3B
  3
ACAD_MLEADERSTYLE
350
13F
  3
ACAD_MLINESTYLE
350
17
  3
ACAD_PLOTSETTINGS
350
19
  3
ACAD_PLOTSTYLENAME
350
E
  3
ACAD_TABLESTYLE
350
13E
  3
ACAD_VISUALSTYLE
350
2A
  0
SUN
  5
3F
330
29
100
AcDbSun
 90
        1
290
     0
 63
     7
421
 16777215
 40
1.0
291
     1
 91
  2455826
 92
 54000000
292
     0
 70
     2
 71
   256
280
     1
  0
DICTIONARY
  5
D
102
{ACAD_REACTORS
330
C
102
}
330
C
100
AcDbDictionary
281
     1
  0
DICTIONARY
  5
1A
102
{ACAD_REACTORS
330
C
102
}
330
C
100
AcDbDictionary
281
     1
  3
Layout1
350
1E
  3
Layout2
350
26
  3
Model
350
22
  0
DICTIONARY
  5
3B
102
{ACAD_REACTORS
330
C
102
}
330
C
100
AcDbDictionary
281
     1
  3
ByBlock
350
3D
  3
ByLayer
350
3C
  3
Global
350
3E
  0
DICTIONARY
  5
13F
102
{ACAD_REACTORS
330
C
102
}
330
C
100
AcDbDictionary
281
     1
  0
DICTIONARY
  5
17
102
{ACAD_REACTORS
330
C
102
}
330
C
100
AcDbDictionary
281
     1
  3
Standard
350
18
  0
DICTIONARY
  5
19
102
{ACAD_REACTORS
330
C
102
}
330
C
100
AcDbDictionary
281
     1
  0
ACDBDICTIONARYWDFLT
  5
E
102
{ACAD_REACTORS
330
C
102
}
330
C
100
AcDbDictionary
281
     1
  3
Normal
350
F
100
AcDbDictionaryWithDefault
340
F
  0
DICTIONARY
  5
13E
102
{ACAD_REACTORS
330
C
102
}
330
C
100
AcDbDictionary
281
     1
  0
DICTIONARY
  5
2A
102
{ACAD_REACTORS
330
C
102
}
330
C
100
AcDbDictionary
281
     1
  3
2dWireframe
350
2F
  3
3D Hidden
350
31
  3
3dWireframe
350
30
  3
Basic
350
32
  3
Brighten
350
36
  3
ColorChange
350
3A
  3
Conceptual
350
34
  3
Dim
350
35
  3
Facepattern
350
39
  3
Flat
350
2B
  3
FlatWithEdges
350
2C
  3
Gouraud
350
2D
  3
GouraudWithEdges
350
2E
  3
Linepattern
350
38
  3
Realistic
350
33
  3
Thicken
350
37
  0
LAYOUT
  5
1E
102
{ACAD_REACTORS
330
1A
102
}
330
1A
100
AcDbPlotSettings
  1

  2
none_device
  4

  6

 40
0.0
 41
0.0
 42
0.0
 43
0.0
 44
0.0
 45
0.0
 46
0.0
 47
0.0
 48
0.0
 49
0.0
140
0.0
141
0.0
142
1.0
143
1.0
 70
   688
 72
     0
 73
     0
 74
     5
  7

 75
    16
 76
     0
 77
     2
 78
   300
147
1.0
148
0.0
149
0.0
100
AcDbLayout
  1
Layout1
 70
     1
 71
     1
 10
0.0
 20
0.0
 11
12.0
 21
9.0
 12
0.0
 22
0.0
 32
0.0
 14
1.000000000000000E+20
 24
1.000000000000000E+20
 34
1.000000000000000E+20
 15
-1.000000000000000E+20
 25
-1.000000000000000E+20
 35
-1.000000000000000E+20
146
0.0
 13
0.0
 23
0.0
 33
0.0
 16
1.0
 26
0.0
 36
0.0
 17
0.0
 27
1.0
 37
0.0
 76
     0
330
1B
  0
LAYOUT
  5
26
102
{ACAD_REACTORS
330
1A
102
}
330
1A
100
AcDbPlotSettings
  1

  2
none_device
  4

  6

 40
0.0
 41
0.0
 42
0.0
 43
0.0
 44
0.0
 45
0.0
 46
0.0
 47
0.0
 48
0.0
 49
0.0
140
0.0
141
0.0
142
1.0
143
1.0
 70
   688
 72
     0
 73
     0
 74
     5
  7

 75
    16
 76
     0
 77
     2
 78
   300
147
1.0
148
0.0
149
0.0
100
AcDbLayout
  1
Layout2
 70
     1
 71
     2
 10
0.0
 20
0.0
 11
0.0
 21
0.0
 12
0.0
 22
0.0
 32
0.0
 14
0.0
 24
0.0
 34
0.0
 15
0.0
 25
0.0
 35
0.0
146
0.0
 13
0.0
 23
0.0
 33
0.0
 16
1.0
 26
0.0
 36
0.0
 17
0.0
 27
1.0
 37
0.0
 76
     0
330
23
  0
LAYOUT
  5
22
102
{ACAD_REACTORS
330
1A
102
}
330
1A
100
AcDbPlotSettings
  1

  2
none_device
  4

  6

 40
0.0
 41
0.0
 42
0.0
 43
0.0
 44
0.0
 45
0.0
 46
0.0
 47
0.0
 48
0.0
 49
0.0
140
0.0
141
0.0
142
1.0
143
1.0
 70
  1712
 72
     0
 73
     0
 74
     0
  7

 75
     0
 76
     0
 77
     2
 78
   300
147
1.0
148
0.0
149
0.0
100
AcDbLayout
  1
Model
 70
     1
 71
     0
 10
0.0
 20
0.0
 11
12.0
 21
9.0
 12
0.0
 22
0.0
 32
0.0
 14
1.000000000000000E+20
 24
1.000000000000000E+20
 34
1.000000000000000E+20
 15
-1.000000000000000E+20
 25
-1.000000000000000E+20
 35
-1.000000000000000E+20
146
0.0
 13
0.0
 23
0.0
 33
0.0
 16
1.0
 26
0.0
 36
0.0
 17
0.0
 27
1.0
 37
0.0
 76
     0
330
1F
331
29
  0
MATERIAL
  5
3D
102
{ACAD_REACTORS
330
3B
102
}
330
3B
100
AcDbMaterial
  1
ByBlock
 72
     1
 94
      127
  0
MATERIAL
  5
3C
102
{ACAD_REACTORS
330
3B
102
}
330
3B
100
AcDbMaterial
  1
ByLayer
 72
     1
 94
      127
  0
MATERIAL
  5
3E
102
{ACAD_REACTORS
330
3B
102
}
330
3B
100
AcDbMaterial
  1
Global
 72
     1
 94
      127
  0
MLINESTYLE
  5
18
102
{ACAD_REACTORS
330
17
102
}
330
17
100
AcDbMlineStyle
  2
Standard
 70
     0
  3

 62
   256
 51
90.0
 52
90.0
 71
     2
 49
0.5
 62
   256
  6
BYLAYER
 49
-0.5
 62
   256
  6
BYLAYER
  0
ACDBPLACEHOLDER
  5
F
102
{ACAD_REACTORS
330
E
102
}
330
E
  0
VISUALSTYLE
  5
2F
102
{ACAD_REACTORS
330
2A
102
}
330
2A
100
AcDbVisualStyle
  2
2dWireframe
 70
     4
177
     2
291
     0
 71
     0
176
     1
 72
     2
176
     1
 73
     0
176
     1
 90
        0
176
     1
 40
-0.6
176
     1
 41
-30.0
176
     1
 62
     5
 63
     7
421
 16777215
176
     1
 74
     1
176
     1
 91
        4
176
     1
 64
     7
176
     1
 65
   257
176
     1
 75
     1
176
     1
175
     1
176
     1
 42
1.0
176
     1
 92
        0
176
     1
 66
   257
176
     1
 43
1.0
176
     1
 76
     1
176
     1
 77
     6
176
     1
 78
     2
176
     1
 67
     7
176
     1
 79
     5
176
     1
170
     0
176
     1
171
     0
176
     1
290
     0
176
     1
 93
        1
176
     1
 44
0.0
176
     1
173
     0
176
     1
  0
VISUALSTYLE
  5
31
102
{ACAD_REACTORS
330
2A
102
}
330
2A
100
AcDbVisualStyle
  2
3D Hidden
 70
     6
177
     2
291
     0
 71
     1
176
     1
 72
     2
176
     1
 73
     2
176
     1
 90
        0
176
     1
 40
-0.6
176
     1
 41
-30.0
176
     1
 62
     5
 63
     7
421
 16777215
176
     1
 74
     2
176
     1
 91
        2
176
     1
 64
     7
176
     1
 65
   257
176
     1
 75
     2
176
     1
175
     1
176
     1
 42
40.0
176
     1
 92
        0
176
     1
 66
   257
176
     1
 43
1.0
176
     1
 76
     1
176
     1
 77
     6
176
     1
 78
     2
176
     1
 67
     7
176
     1
 79
     3
176
     1
170
     0
176
     1
171
     0
176
     1
290
     0
176
     1
 93
        1
176
     1
 44
0.0
176
     1
173
     0
176
     1
  0
VISUALSTYLE
  5
30
102
{ACAD_REACTORS
330
2A
102
}
330
2A
100
AcDbVisualStyle
  2
3dWireframe
 70
     5
177
     2
291
     0
 71
     0
176
     1
 72
     2
176
     1
 73
     0
176
     1
 90
        0
176
     1
 40
-0.6
176
     1
 41
-30.0
176
     1
 62
     5
 63
     7
421
 16777215
176
     1
 74
     1
176
     1
 91
        4
176
     1
 64
     7
176
     1
 65
   257
176
     1
 75
     1
176
     1
175
     1
176
     1
 42
1.0
176
     1
 92
        0
176
     1
 66
   257
176
     1
 43
1.0
176
     1
 76
     1
176
     1
 77
     6
176
     1
 78
     2
176
     1
 67
     7
176
     1
 79
     5
176
     1
170
     0
176
     1
171
     0
176
     1
290
     0
176
     1
 93
        1
176
     1
 44
0.0
176
     1
173
     0
176
     1
  0
VISUALSTYLE
  5
32
102
{ACAD_REACTORS
330
2A
102
}
330
2A
100
AcDbVisualStyle
  2
Basic
 70
     7
177
     2
291
     1
 71
     1
176
     1
 72
     0
176
     1
 73
     1
176
     1
 90
        0
176
     1
 40
-0.6
176
     1
 41
-30.0
176
     1
 62
     5
 63
     7
421
 16777215
176
     1
 74
     0
176
     1
 91
        4
176
     1
 64
     7
176
     1
 65
   257
176
     1
 75
     1
176
     1
175
     1
176
     1
 42
1.0
176
     1
 92
        8
176
     1
 66
     7
176
     1
 43
1.0
176
     1
 76
     1
176
     1
 77
     6
176
     1
 78
     2
176
     1
 67
     7
176
     1
 79
     5
176
     1
170
     0
176
     1
171
     0
176
     1
290
     0
176
     1
 93
        1
176
     1
 44
0.0
176
     1
173
     0
176
     1
  0
VISUALSTYLE
  5
36
102
{ACAD_REACTORS
330
2A
102
}
330
2A
100
AcDbVisualStyle
  2
Brighten
 70
    12
177
     2
291
     1
 71
     2
176
     1
 72
     2
176
     1
 73
     0
176
     1
 90
        0
176
     1
 40
-0.6
176
     1
 41
-30.0
176
     1
 62
     5
 63
     7
421
 16777215
176
     1
 74
     1
176
     1
 91
        4
176
     1
 64
     7
176
     1
 65
   257
176
     1
 75
     1
176
     1
175
     1
176
     1
 42
1.0
176
     1
 92
        8
176
     1
 66
     7
176
     1
 43
1.0
176
     1
 76
     1
176
     1
 77
     6
176
     1
 78
     2
176
     1
 67
     7
176
     1
 79
     5
176
     1
170
     0
176
     1
171
     0
176
     1
290
     0
176
     1
 93
        1
176
     1
 44
50.0
176
     1
173
     0
176
     1
  0
VISUALSTYLE
  5
3A
102
{ACAD_REACTORS
330
2A
102
}
330
2A
100
AcDbVisualStyle
  2
ColorChange
 70
    16
177
     2
291
     1
 71
     2
176
     1
 72
     2
176
     1
 73
     3
176
     1
 90
        0
176
     1
 40
-0.6
176
     1
 41
-30.0
176
     1
 62
     5
 63
     8
421
  8421504
176
     1
 74
     1
176
     1
 91
        4
176
     1
 64
     7
176
     1
 65
   257
176
     1
 75
     1
176
     1
175
     1
176
     1
 42
1.0
176
     1
 92
        8
176
     1
 66
     8
424
  8421504
176
     1
 43
1.0
176
     1
 76
     1
176
     1
 77
     6
176
     1
 78
     2
176
     1
 67
     7
176
     1
 79
     5
176
     1
170
     0
176
     1
171
     0
176
     1
290
     0
176
     1
 93
        1
176
     1
 44
0.0
176
     1
173
     0
176
     1
  0
VISUALSTYLE
  5
34
102
{ACAD_REACTORS
330
2A
102
}
330
2A
100
AcDbVisualStyle
  2
Conceptual
 70
     9
177
     2
291
     0
 71
     3
176
     1
 72
     2
176
     1
 73
     0
176
     1
 90
        0
176
     1
 40
-0.6
176
     1
 41
-30.0
176
     1
 62
     5
 63
     7
421
 16777215
176
     1
 74
     2
176
     1
 91
        2
176
     1
 64
     7
176
     1
 65
   257
176
     1
 75
     1
176
     1
175
     1
176
     1
 42
40.0
176
     1
 92
        8
176
     1
 66
     7
176
     1
 43
1.0
176
     1
 76
     1
176
     1
 77
     6
176
     1
 78
     2
176
     1
 67
     7
176
     1
 79
     3
176
     1
170
     0
176
     1
171
     0
176
     1
290
     0
176
     1
 93
        1
176
     1
 44
0.0
176
     1
173
     0
176
     1
  0
VISUALSTYLE
  5
35
102
{ACAD_REACTORS
330
2A
102
}
330
2A
100
AcDbVisualStyle
  2
Dim
 70
    11
177
     2
291
     1
 71
     2
176
     1
 72
     2
176
     1
 73
     0
176
     1
 90
        0
176
     1
 40
-0.6
176
     1
 41
-30.0
176
     1
 62
     5
 63
     7
421
 16777215
176
     1
 74
     1
176
     1
 91
        4
176
     1
 64
     7
176
     1
 65
   257
176
     1
 75
     1
176
     1
175
     1
176
     1
 42
1.0
176
     1
 92
        8
176
     1
 66
     7
176
     1
 43
1.0
176
     1
 76
     1
176
     1
 77
     6
176
     1
 78
     2
176
     1
 67
     7
176
     1
 79
     5
176
     1
170
     0
176
     1
171
     0
176
     1
290
     0
176
     1
 93
        1
176
     1
 44
-50.0
176
     1
173
     0
176
     1
  0
VISUALSTYLE
  5
39
102
{ACAD_REACTORS
330
2A
102
}
330
2A
100
AcDbVisualStyle
  2
Facepattern
 70
    15
177
     2
291
     1
 71
     2
176
     1
 72
     2
176
     1
 73
     0
176
     1
 90
        0
176
     1
 40
-0.6
176
     1
 41
-30.0
176
     1
 62
     5
 63
     7
421
 16777215
176
     1
 74
     1
176
     1
 91
        4
176
     1
 64
     7
176
     1
 65
   257
176
     1
 75
     1
176
     1
175
     1
176
     1
 42
1.0
176
     1
 92
        8
176
     1
 66
     7
176
     1
 43
1.0
176
     1
 76
     1
176
     1
 77
     6
176
     1
 78
     2
176
     1
 67
     7
176
     1
 79
     5
176
     1
170
     0
176
     1
171
     0
176
     1
290
     0
176
     1
 93
        1
176
     1
 44
0.0
176
     1
173
     0
176
     1
  0
VISUALSTYLE
  5
2B
102
{ACAD_REACTORS
330
2A
102
}
330
2A
100
AcDbVisualStyle
  2
Flat
 70
     0
177
     2
291
     1
 71
     2
176
     1
 72
     1
176
     1
 73
     1
176
     1
 90
        2
176
     1
 40
-0.6
176
     1
 41
30.0
176
     1
 62
     5
 63
     7
421
 16777215
176
     1
 74
     0
176
     1
 91
        4
176
     1
 64
     7
176
     1
 65
   257
176
     1
 75
     1
176
     1
175
     1
176
     1
 42
1.0
176
     1
 92
        8
176
     1
 66
     7
176
     1
 43
1.0
176
     1
 76
     1
176
     1
 77
     6
176
     1
 78
     2
176
     1
 67
     7
176
     1
 79
     5
176
     1
170
     0
176
     1
171
     0
176
     1
290
     0
176
     1
 93
       13
176
     1
 44
0.0
176
     1
173
     0
176
     1
  0
VISUALSTYLE
  5
2C
102
{ACAD_REACTORS
330
2A
102
}
330
2A
100
AcDbVisualStyle
  2
FlatWithEdges
 70
     1
177
     2
291
     1
 71
     2
176
     1
 72
     1
176
     1
 73
     1
176
     1
 90
        2
176
     1
 40
-0.6
176
     1
 41
30.0
176
     1
 62
     5
 63
     7
421
 16777215
176
     1
 74
     1
176
     1
 91
        4
176
     1
 64
     7
176
     1
 65
   257
176
     1
 75
     1
176
     1
175
     1
176
     1
 42
1.0
176
     1
 92
        0
176
     1
 66
   257
176
     1
 43
1.0
176
     1
 76
     1
176
     1
 77
     6
176
     1
 78
     2
176
     1
 67
     7
176
     1
 79
     5
176
     1
170
     0
176
     1
171
     0
176
     1
290
     0
176
     1
 93
       13
176
     1
 44
0.0
176
     1
173
     0
176
     1
  0
VISUALSTYLE
  5
2D
102
{ACAD_REACTORS
330
2A
102
}
330
2A
100
AcDbVisualStyle
  2
Gouraud
 70
     2
177
     2
291
     1
 71
     2
176
     1
 72
     2
176
     1
 73
     1
176
     1
 90
        2
176
     1
 40
-0.6
176
     1
 41
30.0
176
     1
 62
     5
 63
     7
421
 16777215
176
     1
 74
     0
176
     1
 91
        4
176
     1
 64
     7
176
     1
 65
   257
176
     1
 75
     1
176
     1
175
     1
176
     1
 42
1.0
176
     1
 92
        0
176
     1
 66
     7
176
     1
 43
1.0
176
     1
 76
     1
176
     1
 77
     6
176
     1
 78
     2
176
     1
 67
     7
176
     1
 79
     5
176
     1
170
     0
176
     1
171
     0
176
     1
290
     0
176
     1
 93
       13
176
     1
 44
0.0
176
     1
173
     0
176
     1
  0
VISUALSTYLE
  5
2E
102
{ACAD_REACTORS
330
2A
102
}
330
2A
100
AcDbVisualStyle
  2
GouraudWithEdges
 70
     3
177
     2
291
     1
 71
     2
176
     1
 72
     2
176
     1
 73
     1
176
     1
 90
        2
176
     1
 40
-0.6
176
     1
 41
30.0
176
     1
 62
     5
 63
     7
421
 16777215
176
     1
 74
     1
176
     1
 91
        4
176
     1
 64
     7
176
     1
 65
   257
176
     1
 75
     1
176
     1
175
     1
176
     1
 42
1.0
176
     1
 92
        0
176
     1
 66
   257
176
     1
 43
1.0
176
     1
 76
     1
176
     1
 77
     6
176
     1
 78
     2
176
     1
 67
     7
176
     1
 79
     5
176
     1
170
     0
176
     1
171
     0
176
     1
290
     0
176
     1
 93
       13
176
     1
 44
0.0
176
     1
173
     0
176
     1
  0
VISUALSTYLE
  5
38
102
{ACAD_REACTORS
330
2A
102
}
330
2A
100
AcDbVisualStyle
  2
Linepattern
 70
    14
177
     2
291
     1
 71
     2
176
     1
 72
     2
176
     1
 73
     0
176
     1
 90
        0
176
     1
 40
-0.6
176
     1
 41
-30.0
176
     1
 62
     5
 63
     7
421
 16777215
176
     1
 74
     1
176
     1
 91
        4
176
     1
 64
     7
176
     1
 65
   257
176
     1
 75
     7
176
     1
175
     7
176
     1
 42
1.0
176
     1
 92
        8
176
     1
 66
     7
176
     1
 43
1.0
176
     1
 76
     1
176
     1
 77
     6
176
     1
 78
     2
176
     1
 67
     7
176
     1
 79
     5
176
     1
170
     0
176
     1
171
     0
176
     1
290
     0
176
     1
 93
        1
176
     1
 44
0.0
176
     1
173
     0
176
     1
  0
VISUALSTYLE
  5
33
102
{ACAD_REACTORS
330
2A
102
}
330
2A
100
AcDbVisualStyle
  2
Realistic
 70
     8
177
     2
291
     0
 71
     2
176
     1
 72
     2
176
     1
 73
     0
176
     1
 90
        0
176
     1
 40
-0.6
176
     1
 41
-30.0
176
     1
 62
     5
 63
     7
421
 16777215
176
     1
 74
     1
176
     1
 91
        0
176
     1
 64
     7
176
     1
 65
   257
176
     1
 75
     1
176
     1
175
     1
176
     1
 42
1.0
176
     1
 92
        8
176
     1
 66
     8
424
  7895160
176
     1
 43
1.0
176
     1
 76
     1
176
     1
 77
     6
176
     1
 78
     2
176
     1
 67
     7
176
     1
 79
     5
176
     1
170
     0
176
     1
171
     0
176
     1
290
     0
176
     1
 93
       13
176
     1
 44
0.0
176
     1
173
     0
176
     1
  0
VISUALSTYLE
  5
37
102
{ACAD_REACTORS
330
2A
102
}
330
2A
100
AcDbVisualStyle
  2
Thicken
 70
    13
177
     2
291
     1
 71
     2
176
     1
 72
     2
176
     1
 73
     0
176
     1
 90
        0
176
     1
 40
-0.6
176
     1
 41
-30.0
176
     1
 62
     5
 63
     7
421
 16777215
176
     1
 74
     1
176
     1
 91
        4
176
     1
 64
     7
176
     1
 65
   257
176
     1
 75
     1
176
     1
175
     1
176
     1
 42
1.0
176
     1
 92
       12
176
     1
 66
     7
176
     1
 43
1.0
176
     1
 76
     1
176
     1
 77
     6
176
     1
 78
     2
176
     1
 67
     7
176
     1
 79
     5
176
     1
170
     0
176
     1
171
     0
176
     1
290
     0
176
     1
 93
        1
176
     1
 44
0.0
176
     1
173
     0
176
     1
  0
ENDSEC
  0
EOF
