  0
SECTION
  2
HEADER
  9
$ACADVER
  1
AC1024
  9
$ACADMAINTVER
 70
     6
  9
$DWGCODEPAGE
  3
UNDEFINED
  9
$INSBASE
 10
0.0
 20
0.0
 30
0.0
  9
$EXTMIN
 10
1.000000000000000E+20
 20
1.000000000000000E+20
 30
1.000000000000000E+20
  9
$EXTMAX
 10
-1.000000000000000E+20
 20
-1.000000000000000E+20
 30
-1.000000000000000E+20
  9
$LIMMIN
 10
0.0
 20
0.0
  9
$LIMMAX
 10
12.0
 20
9.0
  9
$ORTHOMODE
 70
     0
  9
$REGENMODE
 70
     1
  9
$FILLMODE
 70
     1
  9
$QTEXTMODE
 70
     0
  9
$MIRRTEXT
 70
     1
  9
$LTSCALE
 40
1.0
  9
$ATTMODE
 70
     1
  9
$TEXTSIZE
 40
0.2
  9
$TRACEWID
 40
0.05
  9
$TEXTSTYLE
  7
Standard
  9
$CLAYER
  8
0
  9
$CELTYPE
  6
ByLayer
  9
$CECOLOR
 62
   256
  9
$CELTSCALE
 40
1.0
  9
$DISPSILH
 70
     0
  9
$DIMSCALE
 40
1.0
  9
$DIMASZ
 40
0.18
  9
$DIMEXO
 40
0.0625
  9
$DIMDLI
 40
0.38
  9
$DIMRND
 40
0.0
  9
$DIMDLE
 40
0.0
  9
$DIMEXE
 40
0.18
  9
$DIMTP
 40
0.0
  9
$DIMTM
 40
0.0
  9
$DIMTXT
 40
0.18
  9
$DIMCEN
 40
0.09
  9
$DIMTSZ
 40
0.0
  9
$DIMTOL
 70
     0
  9
$DIMLIM
 70
     0
  9
$DIMTIH
 70
     1
  9
$DIMTOH
 70
     1
  9
$DIMSE1
 70
     0
  9
$DIMSE2
 70
     0
  9
$DIMTAD
 70
     0
  9
$DIMZIN
 70
     0
  9
$DIMBLK
  1

  9
$DIMASO
 70
     1
  9
$DIMSHO
 70
     1
  9
$DIMPOST
  1

  9
$DIMAPOST
  1

  9
$DIMALT
 70
     0
  9
$DIMALTD
 70
     2
  9
$DIMALTF
 40
25.4
  9
$DIMLFAC
 40
1.0
  9
$DIMTOFL
 70
     0
  9
$DIMTVP
 40
0.0
  9
$DIMTIX
 70
     0
  9
$DIMSOXD
 70
     0
  9
$DIMSAH
 70
     0
  9
$DIMBLK1
  1

  9
$DIMBLK2
  1

  9
$DIMSTYLE
  2
Standard
  9
$DIMCLRD
 70
     0
  9
$DIMCLRE
 70
     0
  9
$DIMCLRT
 70
     0
  9
$DIMTFAC
 40
1.0
  9
$DIMGAP
 40
0.09
  9
$DIMJUST
 70
     0
  9
$DIMSD1
 70
     0
  9
$DIMSD2
 70
     0
  9
$DIMTOLJ
 70
     1
  9
$DIMTZIN
 70
     0
  9
$DIMALTZ
 70
     0
  9
$DIMALTTZ
 70
     0
  9
$DIMUPT
 70
     0
  9
$DIMDEC
 70
     4
  9
$DIMTDEC
 70
     4
  9
$DIMALTU
 70
     2
  9
$DIMALTTD
 70
     2
  9
$DIMTXSTY
  7
Standard
  9
$DIMAUNIT
 70
     0
  9
$DIMADEC
 70
     0
  9
$DIMALTRND
 40
0.0
  9
$DIMAZIN
 70
     0
  9
$DIMDSEP
 70
    46
  9
$DIMATFIT
 70
     3
  9
$DIMFRAC
 70
     0
  9
$DIMLDRBLK
  1

  9
$DIMLUNIT
 70
     2
  9
$DIMLWD
 70
    -2
  9
$DIMLWE
 70
    -2
  9
$DIMTMOVE
 70
     0
  9
$DIMFXL
 40
1.0
  9
$DIMFXLON
 70
     0
  9
$DIMJOGANG
 40
0.7853981633974483
  9
$DIMTFILL
 70
     0
  9
$DIMTFILLCLR
 70
     0
  9
$DIMARCSYM
 70
     0
  9
$DIMLTYPE
  6

  9
$DIMLTEX1
  6

  9
$DIMLTEX2
  6

  9
$DIMTXTDIRECTION
 70
     0
  9
$LUNITS
 70
     2
  9
$LUPREC
 70
     4
  9
$SKETCHINC
 40
0.1
  9
$FILLETRAD
 40
0.5
  9
$AUNITS
 70
     0
  9
$AUPREC
 70
     0
  9
$MENU
  1
.
  9
$ELEVATION
 40
0.0
  9
$PELEVATION
 40
0.0
  9
$THICKNESS
 40
0.0
  9
$LIMCHECK
 70
     0
  9
$CHAMFERA
 40
0.5
  9
$CHAMFERB
 40
0.5
  9
$CHAMFERC
 40
1.0
  9
$CHAMFERD
 40
0.0
  9
$SKPOLY
 70
     0
  9
$TDCREATE
 40
2458263.580266204
  9
$TDUCREATE
 40
2458263.205266204
  9
$TDUPDATE
 40
2458263.580266204
  9
$TDUUPDATE
 40
2458263.205266204
  9
$TDINDWG
 40
0.0000000116
  9
$TDUSRTIMER
 40
0.0000000116
  9
$USRTIMER
 70
     1
  9
$ANGBASE
 50
0.0
  9
$ANGDIR
 70
     0
  9
$PDMODE
 70
     0
  9
$PDSIZE
 40
0.0
  9
$PLINEWID
 40
0.0
  9
$SPLFRAME
 70
     0
  9
$SPLINETYPE
 70
     6
  9
$SPLINESEGS
 70
     8
  9
$HANDSEED
  5
141
  9
$SURFTAB1
 70
     6
  9
$SURFTAB2
 70
     6
  9
$SURFTYPE
 70
     6
  9
$SURFU
 70
     6
  9
$SURFV
 70
     6
  9
$UCSBASE
  2

  9
$UCSNAME
  2

  9
$UCSORG
 10
0.0
 20
0.0
 30
0.0
  9
$UCSXDIR
 10
1.0
 20
0.0
 30
0.0
  9
$UCSYDIR
 10
0.0
 20
1.0
 30
0.0
  9
$UCSORTHOREF
  2

  9
$UCSORTHOVIEW
 70
     0
  9
$UCSORGTOP
 10
0.0
 20
0.0
 30
0.0
  9
$UCSORGBOTTOM
 10
0.0
 20
0.0
 30
0.0
  9
$UCSORGLEFT
 10
0.0
 20
0.0
 30
0.0
  9
$UCSORGRIGHT
 10
0.0
 20
0.0
 30
0.0
  9
$UCSORGFRONT
 10
0.0
 20
0.0
 30
0.0
  9
$UCSORGBACK
 10
0.0
 20
0.0
 30
0.0
  9
$PUCSBASE
  2

  9
$PUCSNAME
  2

  9
$PUCSORG
 10
0.0
 20
0.0
 30
0.0
  9
$PUCSXDIR
 10
1.0
 20
0.0
 30
0.0
  9
$PUCSYDIR
 10
0.0
 20
1.0
 30
0.0
  9
$PUCSORTHOREF
  2

  9
$PUCSORTHOVIEW
 70
     0
  9
$PUCSORGTOP
 10
0.0
 20
0.0
 30
0.0
  9
$PUCSORGBOTTOM
 10
0.0
 20
0.0
 30
0.0
  9
$PUCSORGLEFT
 10
0.0
 20
0.0
 30
0.0
  9
$PUCSORGRIGHT
 10
0.0
 20
0.0
 30
0.0
  9
$PUCSORGFRONT
 10
0.0
 20
0.0
 30
0.0
  9
$PUCSORGBACK
 10
0.0
 20
0.0
 30
0.0
  9
$USERI1
 70
     0
  9
$USERI2
 70
     0
  9
$USERI3
 70
     0
  9
$USERI4
 70
     0
  9
$USERI5
 70
     0
  9
$USERR1
 40
0.0
  9
$USERR2
 40
0.0
  9
$USERR3
 40
0.0
  9
$USERR4
 40
0.0
  9
$USERR5
 40
0.0
  9
$WORLDVIEW
 70
     1
  9
$SHADEDGE
 70
     3
  9
$SHADEDIF
 70
    70
  9
$TILEMODE
 70
     1
  9
$MAXACTVP
 70
    64
  9
$PINSBASE
 10
0.0
 20
0.0
 30
0.0
  9
$PLIMCHECK
 70
     0
  9
$PEXTMIN
 10
1.000000000000000E+20
 20
1.000000000000000E+20
 30
1.000000000000000E+20
  9
$PEXTMAX
 10
-1.000000000000000E+20
 20
-1.000000000000000E+20
 30
-1.000000000000000E+20
  9
$PLIMMIN
 10
0.0
 20
0.0
  9
$PLIMMAX
 10
12.0
 20
9.0
  9
$UNITMODE
 70
     0
  9
$VISRETAIN
 70
     1
  9
$PLINEGEN
 70
     0
  9
$PSLTSCALE
 70
     1
  9
$TREEDEPTH
 70
  3020
  9
$CMLSTYLE
  2
Standard
  9
$CMLJUST
 70
     0
  9
$CMLSCALE
 40
1.0
  9
$PROXYGRAPHICS
 70
     1
  9
$MEASUREMENT
 70
     0
  9
$CELWEIGHT
370
    -1
  9
$ENDCAPS
280
     0
  9
$JOINSTYLE
280
     0
  9
$LWDISPLAY
290
     1
  9
$INSUNITS
 70
     1
  9
$HYPERLINKBASE
  1

  9
$STYLESHEET
  1

  9
$XEDIT
290
     1
  9
$CEPSNTYPE
380
     0
  9
$PSTYLEMODE
290
     1
  9
$FINGERPRINTGUID
  2
{2E241CA3-D02B-1473-5F00-A1E2E84690C2}
  9
$VERSIONGUID
  2
{FAEB1C32-E019-11D5-929B-00C0DF256EC4}
  9
$EXTNAMES
290
     1
  9
$PSVPSCALE
 40
0.0
  9
$OLESTARTUP
290
     0
  9
$SORTENTS
280
   127
  9
$INDEXCTL
280
     0
  9
$HIDETEXT
280
     1
  9
$XCLIPFRAME
280
     2
  9
$HALOGAP
280
     0
  9
$OBSCOLOR
 70
   257
  9
$OBSLTYPE
280
     0
  9
$INTERSECTIONDISPLAY
280
     0
  9
$INTERSECTIONCOLOR
 70
   257
  9
$DIMASSOC
280
     2
  9
$PROJECTNAME
  1

  9
$CAMERADISPLAY
290
     0
  9
$LENSLENGTH
 40
50.0
  9
$CAMERAHEIGHT
 40
0.0
  9
$STEPSPERSEC
 40
2.0
  9
$STEPSIZE
 40
6.0
  9
$3DDWFPREC
 40
2.0
  9
$PSOLWIDTH
 40
0.25
  9
$PSOLHEIGHT
 40
4.0
  9
$LOFTANG1
 40
1.570796326794897
  9
$LOFTANG2
 40
1.570796326794897
  9
$LOFTMAG1
 40
0.0
  9
$LOFTMAG2
 40
0.0
  9
$LOFTPARAM
 70
     7
  9
$LOFTNORMALS
280
     1
  9
$LATITUDE
 40
37.795
  9
$LONGITUDE
 40
-122.394
  9
$NORTHDIRECTION
 40
0.0
  9
$TIMEZONE
 70
 -8000
  9
$LIGHTGLYPHDISPLAY
280
     1
  9
$TILEMODELIGHTSYNCH
280
     1
  9
$CMATERIAL
347
3C
  9
$SOLIDHIST
280
     1
  9
$SHOWHIST
280
     1
  9
$DWFFRAME
280
     2
  9
$DGNFRAME
280
     2
  9
$REALWORLDSCALE
290
     1
  9
$INTERFERECOLOR
 62
   256
  9
$CSHADOW
280
     0
  9
$SHADOWPLANELOCATION
 40
0.0
  0
ENDSEC
  0
SECTION
  2
CLASSES
  0
CLASS
  1
ACDBDICTIONARYWDFLT
  2
AcDbDictionaryWithDefault
  3
ObjectDBX Classes
 90
        0
 91
        4
280
     0
281
     0
  0
CLASS
  1
VISUALSTYLE
  2
AcDbVisualStyle
  3
ObjectDBX Classes
 90
     4095
 91
        4
280
     0
281
     0
  0
CLASS
  1
MATERIAL
  2
AcDbMaterial
  3
ObjectDBX Classes
 90
     1153
 91
        4
280
     0
281
     0
  0
CLASS
  1
SUN
  2
AcDbSun
  3
SCENEOE
 90
     1024
 91
        4
280
     0
281
     0
  0
ENDSEC
  0
SECTION
  2
TABLES
  0
TABLE
  2
VPORT
  5
8
330
0
100
AcDbSymbolTable
 70
     1
  0
VPORT
  5
29
330
8
100
AcDbSymbolTableRecord
100
AcDbViewportTableRecord
  2
*Active
 70
     0
 10
0.0
 20
0.0
 11
1.0
 21
1.0
 12
0.0
 22
0.0
 13
0.0
 23
0.0
 14
0.5
 24
0.5
 15
0.5
 25
0.5
 16
0.0
 26
0.0
 36
1.0
 17
105.0007777515277
 27
-148.5000416295416
 37
0.0
 40
297.0000832590831
 41
0.7070757462376333
 42
50.0
 43
0.0
 44
0.0
 50
0.0
 51
0.0
 71
     0
 72
   100
 73
     1
 74
     3
 75
     0
 76
     0
 77
     0
 78
     0
281
     0
 65
     1
110
0.0
120
0.0
130
0.0
111
1.0
121
0.0
131
0.0
112
0.0
122
1.0
132
0.0
 79
     0
146
0.0
 60
     3
 61
     5
292
     1
282
     1
141
0.0
142
0.0
 63
   250
361
3F
  0
ENDTAB
  0
TABLE
  2
LTYPE
  5
5
330
0
100
AcDbSymbolTable
 70
     1
  0
LTYPE
  5
14
330
5
100
AcDbSymbolTableRecord
100
AcDbLinetypeTableRecord
  2
ByBlock
 70
     0
  3

 72
    65
 73
     0
 40
0.0
  0
LTYPE
  5
15
330
5
100
AcDbSymbolTableRecord
100
AcDbLinetypeTableRecord
  2
ByLayer
 70
     0
  3

 72
    65
 73
     0
 40
0.0
  0
LTYPE
  5
16
330
5
100
AcDbSymbolTableRecord
100
AcDbLinetypeTableRecord
  2
Continuous
 70
     0
  3
Solid line
 72
    65
 73
     0
 40
0.0
  0
ENDTAB
  0
TABLE
  2
LAYER
  5
2
330
0
100
AcDbSymbolTable
 70
     2
  0
LAYER
  5
10
330
2
100
AcDbSymbolTableRecord
100
AcDbLayerTableRecord
  2
0
 70
     0
 62
     7
  6
Continuous
370
    -3
390
F
347
3E
  0
LAYER
  5
40
330
2
100
AcDbSymbolTableRecord
100
AcDbLayerTableRecord
  2
_U+30EC_U+30A4_U+30E4_U+30FC 1
 70
     0
 62
     7
  6
Continuous
370
    -3
390
F
347
3E
  0
ENDTAB
  0
TABLE
  2
STYLE
  5
3
330
0
100
AcDbSymbolTable
 70
     1
  0
STYLE
  5
11
330
3
100
AcDbSymbolTableRecord
100
AcDbTextStyleTableRecord
  2
Standard
 70
     0
 40
0.0
 41
1.0
 50
0.0
 71
     0
 42
0.2
  3
txt
  4

  0
ENDTAB
  0
TABLE
  2
VIEW
  5
6
330
0
100
AcDbSymbolTable
 70
     0
  0
ENDTAB
  0
TABLE
  2
UCS
  5
7
330
0
100
AcDbSymbolTable
 70
     0
  0
ENDTAB
  0
TABLE
  2
APPID
  5
9
330
0
100
AcDbSymbolTable
 70
     1
  0
APPID
  5
12
330
9
100
AcDbSymbolTableRecord
100
AcDbRegAppTableRecord
  2
ACAD
 70
     0
  0
ENDTAB
  0
TABLE
  2
DIMSTYLE
  5
A
330
0
100
AcDbSymbolTable
 70
     1
100
AcDbDimStyleTable
  0
DIMSTYLE
105
27
330
A
100
AcDbSymbolTableRecord
100
AcDbDimStyleTableRecord
  2
Standard
 70
     0
178
     0
340
11
  0
ENDTAB
  0
TABLE
  2
BLOCK_RECORD
  5
1
330
0
100
AcDbSymbolTable
 70
     9
  0
BLOCK_RECORD
  5
1F
330
1
100
AcDbSymbolTableRecord
100
AcDbBlockTableRecord
  2
*Model_Space
340
22
 70
     0
280
     1
281
     0
  0
BLOCK_RECORD
  5
1B
330
1
100
AcDbSymbolTableRecord
100
AcDbBlockTableRecord
  2
*Paper_Space
340
1E
 70
     0
280
     1
281
     0
  0
BLOCK_RECORD
  5
23
330
1
100
AcDbSymbolTableRecord
100
AcDbBlockTableRecord
  2
*Paper_Space0
340
26
 70
     0
280
     1
281
     0
  0
BLOCK_RECORD
  5
92
330
1
100
AcDbSymbolTableRecord
100
AcDbBlockTableRecord
  2
block 2
340
0
102
{BLKREFS
331
93
102
}
 70
     0
280
     1
281
     0
  0
BLOCK_RECORD
  5
A4
330
1
100
AcDbSymbolTableRecord
100
AcDbBlockTableRecord
  2
block 3
340
0
102
{BLKREFS
331
A5
102
}
 70
     0
280
     1
281
     0
  0
BLOCK_RECORD
  5
D3
330
1
100
AcDbSymbolTableRecord
100
AcDbBlockTableRecord
  2
block 4
340
0
102
{BLKREFS
331
D4
102
}
 70
     0
280
     1
281
     0
  0
BLOCK_RECORD
  5
E8
330
1
100
AcDbSymbolTableRecord
100
AcDbBlockTableRecord
  2
block 5
340
0
102
{BLKREFS
331
E9
102
}
 70
     0
280
     1
281
     0
  0
BLOCK_RECORD
  5
FC
330
1
100
AcDbSymbolTableRecord
100
AcDbBlockTableRecord
  2
block 6
340
0
102
{BLKREFS
331
FD
102
}
 70
     0
280
     1
281
     0
  0
BLOCK_RECORD
  5
111
330
1
100
AcDbSymbolTableRecord
100
AcDbBlockTableRecord
  2
block 7
340
0
102
{BLKREFS
331
112
102
}
 70
     0
280
     1
281
     0
  0
BLOCK_RECORD
  5
11A
330
1
100
AcDbSymbolTableRecord
100
AcDbBlockTableRecord
  2
block 8
340
0
102
{BLKREFS
331
11B
102
}
 70
     0
280
     1
281
     0
  0
BLOCK_RECORD
  5
139
330
1
100
AcDbSymbolTableRecord
100
AcDbBlockTableRecord
  2
block 9
340
0
102
{BLKREFS
331
13A
102
}
 70
     0
280
     1
281
     0
  0
ENDTAB
  0
ENDSEC
  0
SECTION
  2
BLOCKS
  0
BLOCK
  5
20
330
1F
100
AcDbEntity
  8
0
100
AcDbBlockBegin
  2
*Model_Space
 70
     0
 10
0.0
 20
0.0
 30
0.0
  3
*Model_Space
  1

  0
ENDBLK
  5
21
330
1F
100
AcDbEntity
  8
0
100
AcDbBlockEnd
  0
BLOCK
  5
1C
330
1B
100
AcDbEntity
 67
     1
  8
0
100
AcDbBlockBegin
  2
*Paper_Space
 70
     0
 10
0.0
 20
0.0
 30
0.0
  3
*Paper_Space
  1

  0
ENDBLK
  5
1D
330
1B
100
AcDbEntity
 67
     1
  8
0
100
AcDbBlockEnd
  0
BLOCK
  5
24
330
23
100
AcDbEntity
  8
0
100
AcDbBlockBegin
  2
*Paper_Space0
 70
     0
 10
0.0
 20
0.0
 30
0.0
  3
*Paper_Space0
  1

  0
ENDBLK
  5
25
330
23
100
AcDbEntity
  8
0
100
AcDbBlockEnd
  0
BLOCK
  5
94
330
92
100
AcDbEntity
  8
0
100
AcDbBlockBegin
  2
block 2
 70
     0
 10
0.0
 20
0.0
 30
0.0
  3
block 2
  1

  0
SPLINE
  5
96
330
92
100
AcDbEntity
  8
_U+30EC_U+30A4_U+30E4_U+30FC 1
370
     0
100
AcDbSpline
210
0.0
220
0.0
230
1.0
 70
    11
 71
     3
 72
    62
 73
    58
 74
     0
 42
0.0000000001
 43
0.0000000001
 12
1.0
 22
0.0
 32
0.0
 13
1.0
 23
0.0
 33
0.0
 40
0.0
 40
0.0
 40
0.0
 40
0.0
 40
1.0
 40
1.0
 40
1.0
 40
2.0
 40
2.0
 40
2.0
 40
3.0
 40
3.0
 40
3.0
 40
4.0
 40
4.0
 40
4.0
 40
5.0
 40
5.0
 40
5.0
 40
6.0
 40
6.0
 40
6.0
 40
7.0
 40
7.0
 40
7.0
 40
8.0
 40
8.0
 40
8.0
 40
9.0
 40
9.0
 40
9.0
 40
10.0
 40
10.0
 40
10.0
 40
11.0
 40
11.0
 40
11.0
 40
12.0
 40
12.0
 40
12.0
 40
13.0
 40
13.0
 40
13.0
 40
14.0
 40
14.0
 40
14.0
 40
15.0
 40
15.0
 40
15.0
 40
16.0
 40
16.0
 40
16.0
 40
17.0
 40
17.0
 40
17.0
 40
18.0
 40
18.0
 40
18.0
 40
19.0
 40
19.0
 40
19.0
 40
19.0
 10
134.3590684342922
 20
-197.5886284228251
 30
0.0
 10
134.3590684342922
 20
-197.6899142300914
 30
0.0
 10
134.3380533518322
 20
-197.9228026848943
 30
0.0
 10
134.1520181956287
 20
-198.056472389722
 30
0.0
 10
134.0397080828095
 20
-198.1357095858828
 30
0.0
 10
133.9404893328343
 20
-198.139843700465
 30
0.0
 10
133.8557399838972
 20
-198.1446668341444
 30
0.0
 10
133.8557399838972
 20
-198.1446668341444
 30
0.0
 10
133.8557399838972
 20
-197.9093668125018
 30
0.0
 10
133.8557399838972
 20
-197.9093668125018
 30
0.0
 10
133.92980953683
 20
-197.9069552456621
 30
0.0
 10
134.1644205393756
 20
-197.8959309401094
 30
0.0
 10
134.1644205393756
 20
-197.5927625374074
 30
0.0
 10
134.1644205393756
 20
-197.4460014697357
 30
0.0
 10
134.0948296105735
 20
-197.2833929628319
 30
0.0
 10
133.8664197799015
 20
-197.2833929628319
 30
0.0
 10
133.7499755525
 20
-197.2833929628319
 30
0.0
 10
133.701399706158
 20
-197.3240450895579
 30
0.0
 10
133.6697048276937
 20
-197.3578070253133
 30
0.0
 10
133.5956352747608
 20
-197.4370442214741
 30
0.0
 10
133.5828884214654
 20
-197.5610676589431
 30
0.0
 10
133.5828884214654
 20
-197.6199787917408
 30
0.0
 10
133.5828884214654
 20
-197.6403048551038
 30
0.0
 10
133.5849554787565
 20
-197.6788899245386
 30
0.0
 10
133.5890895933389
 20
-197.7081732361632
 30
0.0
 10
133.5890895933389
 20
-197.7081732361632
 30
0.0
 10
133.3944416984222
 20
-197.7081732361632
 30
0.0
 10
133.3944416984222
 20
-197.7081732361632
 30
0.0
 10
133.4009873798442
 20
-197.6675211094373
 30
0.0
 10
133.4030544371354
 20
-197.6223903585805
 30
0.0
 10
133.4030544371354
 20
-197.61550016761
 30
0.0
 10
133.4030544371354
 20
-197.5452202197109
 30
0.0
 10
133.3816948451268
 20
-197.3330023378195
 30
0.0
 10
133.1450167852902
 20
-197.3330023378195
 30
0.0
 10
132.9672498582513
 20
-197.3330023378195
 30
0.0
 10
132.9121283304873
 20
-197.4728732145207
 30
0.0
 10
132.9121283304873
 20
-197.5906954801162
 30
0.0
 10
132.9121283304873
 20
-197.8731933099067
 30
0.0
 10
133.1450167852902
 20
-197.8821505581683
 30
0.0
 10
133.2166747713833
 20
-197.8869736918477
 30
0.0
 10
133.2166747713833
 20
-197.8869736918477
 30
0.0
 10
133.2166747713833
 20
-198.1040147074185
 30
0.0
 10
133.2166747713833
 20
-198.1040147074185
 30
0.0
 10
133.0919623148173
 20
-198.0950574591568
 30
0.0
 10
132.7154133782795
 20
-198.0654296379836
 30
0.0
 10
132.7154133782795
 20
-197.5769150981752
 30
0.0
 10
132.7154133782795
 20
-197.3374809619503
 30
0.0
 10
132.8425374016852
 20
-197.0797878196537
 30
0.0
 10
133.1384711038682
 20
-197.0797878196537
 30
0.0
 10
133.3248507696202
 20
-197.0797878196537
 30
0.0
 10
133.4071885517177
 20
-197.1814181364686
 30
0.0
 10
133.4685112513551
 20
-197.2875270774142
 30
0.0
 10
133.4960720152371
 20
-197.2220702631945
 30
0.0
 10
133.5763427400434
 20
-197.0277668778264
 30
0.0
 10
133.853672926606
 20
-197.0277668778264
 30
0.0
 10
134.1919813032576
 20
-197.0277668778264
 30
0.0
 10
134.3590684342922
 20
-197.2923502110936
 30
0.0
 10
134.3590684342922
 20
-197.5886284228251
 30
0.0
  0
HATCH
  5
97
330
92
100
AcDbEntity
  8
_U+30EC_U+30A4_U+30E4_U+30FC 1
 62
   179
420
  2234388
100
AcDbHatch
 10
0.0
 20
0.0
 30
0.0
210
0.0
220
0.0
230
1.0
  2
SOLID
 70
     1
 71
     0
 91
        1
 92
        1
 93
        1
 72
     4
 94
        3
 73
     0
 74
     1
 95
       62
 96
       58
 40
0.0
 40
0.0
 40
0.0
 40
0.0
 40
1.0
 40
1.0
 40
1.0
 40
2.0
 40
2.0
 40
2.0
 40
3.0
 40
3.0
 40
3.0
 40
4.0
 40
4.0
 40
4.0
 40
5.0
 40
5.0
 40
5.0
 40
6.0
 40
6.0
 40
6.0
 40
7.0
 40
7.0
 40
7.0
 40
8.0
 40
8.0
 40
8.0
 40
9.0
 40
9.0
 40
9.0
 40
10.0
 40
10.0
 40
10.0
 40
11.0
 40
11.0
 40
11.0
 40
12.0
 40
12.0
 40
12.0
 40
13.0
 40
13.0
 40
13.0
 40
14.0
 40
14.0
 40
14.0
 40
15.0
 40
15.0
 40
15.0
 40
16.0
 40
16.0
 40
16.0
 40
17.0
 40
17.0
 40
17.0
 40
18.0
 40
18.0
 40
18.0
 40
19.0
 40
19.0
 40
19.0
 40
19.0
 10
134.3590684342922
 20
-197.5886284228251
 10
134.3590684342922
 20
-197.6899142300914
 10
134.3380533518322
 20
-197.9228026848943
 10
134.1520181956287
 20
-198.056472389722
 10
134.0397080828095
 20
-198.1357095858828
 10
133.9404893328343
 20
-198.139843700465
 10
133.8557399838972
 20
-198.1446668341444
 10
133.8557399838972
 20
-198.1446668341444
 10
133.8557399838972
 20
-197.9093668125018
 10
133.8557399838972
 20
-197.9093668125018
 10
133.92980953683
 20
-197.9069552456621
 10
134.1644205393756
 20
-197.8959309401094
 10
134.1644205393756
 20
-197.5927625374074
 10
134.1644205393756
 20
-197.4460014697357
 10
134.0948296105735
 20
-197.2833929628319
 10
133.8664197799015
 20
-197.2833929628319
 10
133.7499755525
 20
-197.2833929628319
 10
133.701399706158
 20
-197.3240450895579
 10
133.6697048276937
 20
-197.3578070253133
 10
133.5956352747608
 20
-197.4370442214741
 10
133.5828884214654
 20
-197.5610676589431
 10
133.5828884214654
 20
-197.6199787917408
 10
133.5828884214654
 20
-197.6403048551038
 10
133.5849554787565
 20
-197.6788899245386
 10
133.5890895933389
 20
-197.7081732361632
 10
133.5890895933389
 20
-197.7081732361632
 10
133.3944416984222
 20
-197.7081732361632
 10
133.3944416984222
 20
-197.7081732361632
 10
133.4009873798442
 20
-197.6675211094373
 10
133.4030544371354
 20
-197.6223903585805
 10
133.4030544371354
 20
-197.61550016761
 10
133.4030544371354
 20
-197.5452202197109
 10
133.3816948451268
 20
-197.3330023378195
 10
133.1450167852902
 20
-197.3330023378195
 10
132.9672498582513
 20
-197.3330023378195
 10
132.9121283304873
 20
-197.4728732145207
 10
132.9121283304873
 20
-197.5906954801162
 10
132.9121283304873
 20
-197.8731933099067
 10
133.1450167852902
 20
-197.8821505581683
 10
133.2166747713833
 20
-197.8869736918477
 10
133.2166747713833
 20
-197.8869736918477
 10
133.2166747713833
 20
-198.1040147074185
 10
133.2166747713833
 20
-198.1040147074185
 10
133.0919623148173
 20
-198.0950574591568
 10
132.7154133782795
 20
-198.0654296379836
 10
132.7154133782795
 20
-197.5769150981752
 10
132.7154133782795
 20
-197.3374809619503
 10
132.8425374016852
 20
-197.0797878196537
 10
133.1384711038682
 20
-197.0797878196537
 10
133.3248507696202
 20
-197.0797878196537
 10
133.4071885517177
 20
-197.1814181364686
 10
133.4685112513551
 20
-197.2875270774142
 10
133.4960720152371
 20
-197.2220702631945
 10
133.5763427400434
 20
-197.0277668778264
 10
133.853672926606
 20
-197.0277668778264
 10
134.1919813032576
 20
-197.0277668778264
 10
134.3590684342922
 20
-197.2923502110936
 10
134.3590684342922
 20
-197.5886284228251
 97
        0
 97
        0
 75
     2
 76
     1
 98
        0
  0
ENDBLK
  5
95
330
92
100
AcDbEntity
  8
0
100
AcDbBlockEnd
  0
BLOCK
  5
A6
330
A4
100
AcDbEntity
  8
0
100
AcDbBlockBegin
  2
block 3
 70
     0
 10
0.0
 20
0.0
 30
0.0
  3
block 3
  1

  0
SPLINE
  5
A8
330
A4
100
AcDbEntity
  8
_U+30EC_U+30A4_U+30E4_U+30FC 1
370
     0
100
AcDbSpline
210
0.0
220
0.0
230
1.0
 70
    11
 71
     3
 72
    44
 73
    40
 74
     0
 42
0.0000000001
 43
0.0000000001
 12
1.0
 22
0.0
 32
0.0
 13
1.0
 23
0.0
 33
0.0
 40
0.0
 40
0.0
 40
0.0
 40
0.0
 40
1.0
 40
1.0
 40
1.0
 40
2.0
 40
2.0
 40
2.0
 40
3.0
 40
3.0
 40
3.0
 40
4.0
 40
4.0
 40
4.0
 40
5.0
 40
5.0
 40
5.0
 40
6.0
 40
6.0
 40
6.0
 40
7.0
 40
7.0
 40
7.0
 40
8.0
 40
8.0
 40
8.0
 40
9.0
 40
9.0
 40
9.0
 40
10.0
 40
10.0
 40
10.0
 40
11.0
 40
11.0
 40
11.0
 40
12.0
 40
12.0
 40
12.0
 40
13.0
 40
13.0
 40
13.0
 40
13.0
 10
82.11212834318725
 20
-98.26842038558915
 30
0.0
 10
81.87923988838436
 20
-98.42723928745917
 30
0.0
 10
81.7798488836349
 20
-98.50130884039204
 30
0.0
 10
81.72782794180763
 20
-98.64496932212695
 30
0.0
 10
81.72782794180763
 20
-98.64496932212695
 30
0.0
 10
82.55981850149547
 20
-98.64496932212695
 30
0.0
 10
82.55981850149547
 20
-98.64496932212695
 30
0.0
 10
82.55981850149547
 20
-98.64496932212695
 30
0.0
 10
82.55981850149547
 20
-98.85029701304785
 30
0.0
 10
82.55981850149547
 20
-98.85029701304785
 30
0.0
 10
82.55981850149547
 20
-98.85029701304785
 30
0.0
 10
81.46100529647504
 20
-98.85029701304785
 30
0.0
 10
81.46100529647504
 20
-98.85029701304785
 30
0.0
 10
81.49493948700474
 20
-98.49269610167892
 30
0.0
 10
81.56504718012958
 20
-98.41449243416375
 30
0.0
 10
81.97656383584267
 20
-98.1161471651411
 30
0.0
 10
82.2501044173715
 20
-97.91736515564219
 30
0.0
 10
82.32021211049634
 20
-97.84949677458278
 30
0.0
 10
82.32021211049634
 20
-97.7120374647213
 30
0.0
 10
82.32021211049634
 20
-97.5935261800287
 30
0.0
 10
82.24338648117526
 20
-97.46261255158922
 30
0.0
 10
82.03306340180076
 20
-97.46261255158922
 30
0.0
 10
81.75487194136684
 20
-97.46261255158922
 30
0.0
 10
81.74591469310519
 20
-97.69308943955242
 30
0.0
 10
81.74143606897437
 20
-97.80953366695387
 30
0.0
 10
81.74143606897437
 20
-97.80953366695387
 30
0.0
 10
81.50165742320098
 20
-97.80953366695387
 30
0.0
 10
81.50165742320098
 20
-97.80953366695387
 30
0.0
 10
81.51078692623689
 20
-97.68240964354816
 30
0.0
 10
81.52215574133821
 20
-97.57044404027754
 30
0.0
 10
81.60793861892094
 20
-97.45193275558493
 30
0.0
 10
81.72558862974222
 20
-97.29104679642377
 30
0.0
 10
81.9245428940154
 20
-97.25728486066832
 30
0.0
 10
82.04891084103292
 20
-97.25728486066832
 30
0.0
 10
82.34501679799014
 20
-97.25728486066832
 30
0.0
 10
82.56653643769171
 20
-97.44125295958067
 30
0.0
 10
82.56653643769171
 20
-97.71410452201245
 30
0.0
 10
82.56653643769171
 20
-97.94285886223304
 30
0.0
 10
82.44216849067418
 20
-98.04207761220823
 30
0.0
 10
82.11212834318725
 20
-98.26842038558915
 30
0.0
  0
HATCH
  5
A9
330
A4
100
AcDbEntity
  8
_U+30EC_U+30A4_U+30E4_U+30FC 1
 62
   179
420
  2234388
100
AcDbHatch
 10
0.0
 20
0.0
 30
0.0
210
0.0
220
0.0
230
1.0
  2
SOLID
 70
     1
 71
     0
 91
        1
 92
        1
 93
        1
 72
     4
 94
        3
 73
     0
 74
     1
 95
       44
 96
       40
 40
0.0
 40
0.0
 40
0.0
 40
0.0
 40
1.0
 40
1.0
 40
1.0
 40
2.0
 40
2.0
 40
2.0
 40
3.0
 40
3.0
 40
3.0
 40
4.0
 40
4.0
 40
4.0
 40
5.0
 40
5.0
 40
5.0
 40
6.0
 40
6.0
 40
6.0
 40
7.0
 40
7.0
 40
7.0
 40
8.0
 40
8.0
 40
8.0
 40
9.0
 40
9.0
 40
9.0
 40
10.0
 40
10.0
 40
10.0
 40
11.0
 40
11.0
 40
11.0
 40
12.0
 40
12.0
 40
12.0
 40
13.0
 40
13.0
 40
13.0
 40
13.0
 10
82.11212834318725
 20
-98.26842038558915
 10
81.87923988838436
 20
-98.42723928745917
 10
81.7798488836349
 20
-98.50130884039204
 10
81.72782794180763
 20
-98.64496932212695
 10
81.72782794180763
 20
-98.64496932212695
 10
82.55981850149547
 20
-98.64496932212695
 10
82.55981850149547
 20
-98.64496932212695
 10
82.55981850149547
 20
-98.64496932212695
 10
82.55981850149547
 20
-98.85029701304785
 10
82.55981850149547
 20
-98.85029701304785
 10
82.55981850149547
 20
-98.85029701304785
 10
81.46100529647504
 20
-98.85029701304785
 10
81.46100529647504
 20
-98.85029701304785
 10
81.49493948700474
 20
-98.49269610167892
 10
81.56504718012958
 20
-98.41449243416375
 10
81.97656383584267
 20
-98.1161471651411
 10
82.2501044173715
 20
-97.91736515564219
 10
82.32021211049634
 20
-97.84949677458278
 10
82.32021211049634
 20
-97.7120374647213
 10
82.32021211049634
 20
-97.5935261800287
 10
82.24338648117526
 20
-97.46261255158922
 10
82.03306340180076
 20
-97.46261255158922
 10
81.75487194136684
 20
-97.46261255158922
 10
81.74591469310519
 20
-97.69308943955242
 10
81.74143606897437
 20
-97.80953366695387
 10
81.74143606897437
 20
-97.80953366695387
 10
81.50165742320098
 20
-97.80953366695387
 10
81.50165742320098
 20
-97.80953366695387
 10
81.51078692623689
 20
-97.68240964354816
 10
81.52215574133821
 20
-97.57044404027754
 10
81.60793861892094
 20
-97.45193275558493
 10
81.72558862974222
 20
-97.29104679642377
 10
81.9245428940154
 20
-97.25728486066832
 10
82.04891084103292
 20
-97.25728486066832
 10
82.34501679799014
 20
-97.25728486066832
 10
82.56653643769171
 20
-97.44125295958067
 10
82.56653643769171
 20
-97.71410452201245
 10
82.56653643769171
 20
-97.94285886223304
 10
82.44216849067418
 20
-98.04207761220823
 10
82.11212834318725
 20
-98.26842038558915
 97
        0
 97
        0
 75
     2
 76
     1
 98
        0
  0
POLYLINE
  5
AA
330
A4
100
AcDbEntity
  8
_U+30EC_U+30A4_U+30E4_U+30FC 1
370
     0
100
AcDb2dPolyline
 66
     1
 10
0.0
 20
0.0
 30
0.0
  0
VERTEX
  5
AB
330
AA
100
AcDbEntity
  8
_U+30EC_U+30A4_U+30E4_U+30FC 1
370
     0
100
AcDbVertex
100
AcDb2dVertex
 10
82.80028616636591
 20
-98.85029701304785
 30
0.0
  0
VERTEX
  5
AC
330
AA
100
AcDbEntity
  8
_U+30EC_U+30A4_U+30E4_U+30FC 1
370
     0
100
AcDbVertex
100
AcDb2dVertex
 10
82.80028616636591
 20
-98.59846053307608
 30
0.0
  0
VERTEX
  5
AD
330
AA
100
AcDbEntity
  8
_U+30EC_U+30A4_U+30E4_U+30FC 1
370
     0
100
AcDbVertex
100
AcDb2dVertex
 10
83.06934812376392
 20
-98.59846053307608
 30
0.0
  0
VERTEX
  5
AE
330
AA
100
AcDbEntity
  8
_U+30EC_U+30A4_U+30E4_U+30FC 1
370
     0
100
AcDbVertex
100
AcDb2dVertex
 10
83.06934812376392
 20
-98.85029701304785
 30
0.0
  0
VERTEX
  5
AF
330
AA
100
AcDbEntity
  8
_U+30EC_U+30A4_U+30E4_U+30FC 1
370
     0
100
AcDbVertex
100
AcDb2dVertex
 10
82.80028616636591
 20
-98.85029701304785
 30
0.0
  0
SEQEND
  5
B0
330
AA
100
AcDbEntity
  8
_U+30EC_U+30A4_U+30E4_U+30FC 1
370
     0
  0
HATCH
  5
B1
330
A4
100
AcDbEntity
  8
_U+30EC_U+30A4_U+30E4_U+30FC 1
 62
   179
420
  2234388
100
AcDbHatch
 10
0.0
 20
0.0
 30
0.0
210
0.0
220
0.0
230
1.0
  2
SOLID
 70
     1
 71
     0
 91
        1
 92
        1
 93
        4
 72
     1
 10
82.80028616636591
 20
-98.85029701304785
 11
82.80028616636591
 21
-98.59846053307608
 72
     1
 10
82.80028616636591
 20
-98.59846053307608
 11
83.06934812376392
 21
-98.59846053307608
 72
     1
 10
83.06934812376392
 20
-98.59846053307608
 11
83.06934812376392
 21
-98.85029701304785
 72
     1
 10
83.06934812376392
 20
-98.85029701304785
 11
82.80028616636591
 21
-98.85029701304785
 97
        0
 75
     2
 76
     1
 98
        0
  0
POLYLINE
  5
B2
330
A4
100
AcDbEntity
  8
_U+30EC_U+30A4_U+30E4_U+30FC 1
370
     0
100
AcDb2dPolyline
 66
     1
 10
0.0
 20
0.0
 30
0.0
  0
VERTEX
  5
B3
330
B2
100
AcDbEntity
  8
_U+30EC_U+30A4_U+30E4_U+30FC 1
370
     0
100
AcDbVertex
100
AcDb2dVertex
 10
84.21122502234998
 20
-98.50337589768318
 30
0.0
  0
VERTEX
  5
B4
330
B2
100
AcDbEntity
  8
_U+30EC_U+30A4_U+30E4_U+30FC 1
370
     0
100
AcDbVertex
100
AcDb2dVertex
 10
84.21122502234998
 20
-98.85029701304785
 30
0.0
  0
VERTEX
  5
B5
330
B2
100
AcDbEntity
  8
_U+30EC_U+30A4_U+30E4_U+30FC 1
370
     0
100
AcDbVertex
100
AcDb2dVertex
 10
83.97833656754709
 20
-98.85029701304785
 30
0.0
  0
VERTEX
  5
B6
330
B2
100
AcDbEntity
  8
_U+30EC_U+30A4_U+30E4_U+30FC 1
370
     0
100
AcDbVertex
100
AcDb2dVertex
 10
83.97833656754709
 20
-98.50337589768318
 30
0.0
  0
VERTEX
  5
B7
330
B2
100
AcDbEntity
  8
_U+30EC_U+30A4_U+30E4_U+30FC 1
370
     0
100
AcDbVertex
100
AcDb2dVertex
 10
83.27760414584726
 20
-98.50337589768318
 30
0.0
  0
VERTEX
  5
B8
330
B2
100
AcDbEntity
  8
_U+30EC_U+30A4_U+30E4_U+30FC 1
370
     0
100
AcDbVertex
100
AcDb2dVertex
 10
83.27760414584726
 20
-98.27910018159342
 30
0.0
  0
VERTEX
  5
B9
330
B2
100
AcDbEntity
  8
_U+30EC_U+30A4_U+30E4_U+30FC 1
370
     0
100
AcDbVertex
100
AcDb2dVertex
 10
84.00331350981514
 20
-97.30586070701034
 30
0.0
  0
VERTEX
  5
BA
330
B2
100
AcDbEntity
  8
_U+30EC_U+30A4_U+30E4_U+30FC 1
370
     0
100
AcDbVertex
100
AcDb2dVertex
 10
84.21122502234998
 20
-97.30586070701034
 30
0.0
  0
VERTEX
  5
BB
330
B2
100
AcDbEntity
  8
_U+30EC_U+30A4_U+30E4_U+30FC 1
370
     0
100
AcDbVertex
100
AcDb2dVertex
 10
84.21122502234998
 20
-98.30459388818427
 30
0.0
  0
VERTEX
  5
BC
330
B2
100
AcDbEntity
  8
_U+30EC_U+30A4_U+30E4_U+30FC 1
370
     0
100
AcDbVertex
100
AcDb2dVertex
 10
84.4329169168258
 20
-98.30459388818427
 30
0.0
  0
VERTEX
  5
BD
330
B2
100
AcDbEntity
  8
_U+30EC_U+30A4_U+30E4_U+30FC 1
370
     0
100
AcDbVertex
100
AcDb2dVertex
 10
84.4329169168258
 20
-98.50337589768318
 30
0.0
  0
VERTEX
  5
BE
330
B2
100
AcDbEntity
  8
_U+30EC_U+30A4_U+30E4_U+30FC 1
370
     0
100
AcDbVertex
100
AcDb2dVertex
 10
84.21122502234998
 20
-98.50337589768318
 30
0.0
  0
SEQEND
  5
BF
330
B2
100
AcDbEntity
  8
_U+30EC_U+30A4_U+30E4_U+30FC 1
370
     0
  0
POLYLINE
  5
C0
330
A4
100
AcDbEntity
  8
_U+30EC_U+30A4_U+30E4_U+30FC 1
370
     0
100
AcDb2dPolyline
 66
     1
 10
0.0
 20
0.0
 30
0.0
  0
VERTEX
  5
C1
330
C0
100
AcDbEntity
  8
_U+30EC_U+30A4_U+30E4_U+30FC 1
370
     0
100
AcDbVertex
100
AcDb2dVertex
 10
83.97833656754709
 20
-97.6486477077927
 30
0.0
  0
VERTEX
  5
C2
330
C0
100
AcDbEntity
  8
_U+30EC_U+30A4_U+30E4_U+30FC 1
370
     0
100
AcDbVertex
100
AcDb2dVertex
 10
83.49016653728718
 20
-98.30459388818427
 30
0.0
  0
VERTEX
  5
C3
330
C0
100
AcDbEntity
  8
_U+30EC_U+30A4_U+30E4_U+30FC 1
370
     0
100
AcDbVertex
100
AcDb2dVertex
 10
83.97833656754709
 20
-98.30459388818427
 30
0.0
  0
VERTEX
  5
C4
330
C0
100
AcDbEntity
  8
_U+30EC_U+30A4_U+30E4_U+30FC 1
370
     0
100
AcDbVertex
100
AcDb2dVertex
 10
83.97833656754709
 20
-97.6486477077927
 30
0.0
  0
SEQEND
  5
C5
330
C0
100
AcDbEntity
  8
_U+30EC_U+30A4_U+30E4_U+30FC 1
370
     0
  0
HATCH
  5
C6
330
A4
100
AcDbEntity
  8
_U+30EC_U+30A4_U+30E4_U+30FC 1
 62
   179
420
  2234388
100
AcDbHatch
 10
0.0
 20
0.0
 30
0.0
210
0.0
220
0.0
230
1.0
  2
SOLID
 70
     1
 71
     0
 91
        2
 92
        1
 93
       11
 72
     1
 10
84.21122502234998
 20
-98.50337589768318
 11
84.21122502234998
 21
-98.85029701304785
 72
     1
 10
84.21122502234998
 20
-98.85029701304785
 11
83.97833656754709
 21
-98.85029701304785
 72
     1
 10
83.97833656754709
 20
-98.85029701304785
 11
83.97833656754709
 21
-98.50337589768318
 72
     1
 10
83.97833656754709
 20
-98.50337589768318
 11
83.27760414584726
 21
-98.50337589768318
 72
     1
 10
83.27760414584726
 20
-98.50337589768318
 11
83.27760414584726
 21
-98.27910018159342
 72
     1
 10
83.27760414584726
 20
-98.27910018159342
 11
84.00331350981514
 21
-97.30586070701034
 72
     1
 10
84.00331350981514
 20
-97.30586070701034
 11
84.21122502234998
 21
-97.30586070701034
 72
     1
 10
84.21122502234998
 20
-97.30586070701034
 11
84.21122502234998
 21
-98.30459388818427
 72
     1
 10
84.21122502234998
 20
-98.30459388818427
 11
84.4329169168258
 21
-98.30459388818427
 72
     1
 10
84.4329169168258
 20
-98.30459388818427
 11
84.4329169168258
 21
-98.50337589768318
 72
     1
 10
84.4329169168258
 20
-98.50337589768318
 11
84.21122502234998
 21
-98.50337589768318
 97
        0
 92
        1
 93
        3
 72
     1
 10
83.97833656754709
 20
-97.6486477077927
 11
83.49016653728718
 21
-98.30459388818427
 72
     1
 10
83.49016653728718
 20
-98.30459388818427
 11
83.97833656754709
 21
-98.30459388818427
 72
     1
 10
83.97833656754709
 20
-98.30459388818427
 11
83.97833656754709
 21
-97.6486477077927
 97
        0
 75
     2
 76
     1
 98
        0
  0
ENDBLK
  5
A7
330
A4
100
AcDbEntity
  8
0
100
AcDbBlockEnd
  0
BLOCK
  5
D5
330
D3
100
AcDbEntity
  8
0
100
AcDbBlockBegin
  2
block 4
 70
     0
 10
0.0
 20
0.0
 30
0.0
  3
block 4
  1

  0
SPLINE
  5
D7
330
D3
100
AcDbEntity
  8
_U+30EC_U+30A4_U+30E4_U+30FC 1
370
     0
100
AcDbSpline
210
0.0
220
0.0
230
1.0
 70
    11
 71
     3
 72
    53
 73
    49
 74
     0
 42
0.0000000001
 43
0.0000000001
 12
1.0
 22
0.0
 32
0.0
 13
1.0
 23
0.0
 33
0.0
 40
0.0
 40
0.0
 40
0.0
 40
0.0
 40
1.0
 40
1.0
 40
1.0
 40
2.0
 40
2.0
 40
2.0
 40
3.0
 40
3.0
 40
3.0
 40
4.0
 40
4.0
 40
4.0
 40
5.0
 40
5.0
 40
5.0
 40
6.0
 40
6.0
 40
6.0
 40
7.0
 40
7.0
 40
7.0
 40
8.0
 40
8.0
 40
8.0
 40
9.0
 40
9.0
 40
9.0
 40
10.0
 40
10.0
 40
10.0
 40
11.0
 40
11.0
 40
11.0
 40
12.0
 40
12.0
 40
12.0
 40
13.0
 40
13.0
 40
13.0
 40
14.0
 40
14.0
 40
14.0
 40
15.0
 40
15.0
 40
15.0
 40
16.0
 40
16.0
 40
16.0
 40
16.0
 10
105.3046834046634
 20
-95.48306068576466
 30
0.0
 10
105.2209675843718
 20
-95.48306068576466
 30
0.0
 10
105.1124470765865
 20
-95.46617971788693
 30
0.0
 10
105.0039265688011
 20
-95.40278996095833
 30
0.0
 10
104.8185804316947
 20
-95.2927191602046
 30
0.0
 10
104.7960150562663
 20
-95.16163327699084
 30
0.0
 10
104.775516738129
 20
-95.05380178830252
 30
0.0
 10
104.775516738129
 20
-95.05380178830252
 30
0.0
 10
105.013056071837
 20
-95.05380178830252
 30
0.0
 10
105.013056071837
 20
-95.05380178830252
 30
0.0
 10
105.0717949498605
 20
-95.25258379780144
 30
0.0
 10
105.2073594572051
 20
-95.28221161897459
 30
0.0
 10
105.3069227167288
 20
-95.28221161897459
 30
0.0
 10
105.4560953512402
 20
-95.28221161897459
 30
0.0
 10
105.6190483676925
 20
-95.18282061422514
 30
0.0
 10
105.6190483676925
 20
-94.9501044141965
 30
0.0
 10
105.6190483676925
 20
-94.69413381964245
 30
0.0
 10
105.4266397848413
 20
-94.62437063606613
 30
0.0
 10
105.2977932136929
 20
-94.62437063606613
 30
0.0
 10
105.2638590231632
 20
-94.62437063606613
 30
0.0
 10
105.1124470765865
 20
-94.62437063606613
 30
0.0
 10
105.0175346959678
 20
-94.75338946198875
 30
0.0
 10
105.0175346959678
 20
-94.75338946198875
 30
0.0
 10
104.8297769920217
 20
-94.73426918204561
 30
0.0
 10
104.8297769920217
 20
-94.73426918204561
 30
0.0
 10
104.8297769920217
 20
-94.73426918204561
 30
0.0
 10
104.9586235631701
 20
-93.88815373086824
 30
0.0
 10
104.9586235631701
 20
-93.88815373086824
 30
0.0
 10
104.9586235631701
 20
-93.88815373086824
 30
0.0
 10
105.7906141228579
 20
-93.88815373086824
 30
0.0
 10
105.7906141228579
 20
-93.88815373086824
 30
0.0
 10
105.7906141228579
 20
-93.88815373086824
 30
0.0
 10
105.7906141228579
 20
-94.08280162578485
 30
0.0
 10
105.7906141228579
 20
-94.08280162578485
 30
0.0
 10
105.7906141228579
 20
-94.08280162578485
 30
0.0
 10
105.1327731399494
 20
-94.08280162578485
 30
0.0
 10
105.1327731399494
 20
-94.08280162578485
 30
0.0
 10
105.1327731399494
 20
-94.08280162578485
 30
0.0
 10
105.0626654468246
 20
-94.50585935137354
 30
0.0
 10
105.0626654468246
 20
-94.50585935137354
 30
0.0
 10
105.1282945158186
 20
-94.47192516084382
 30
0.0
 10
105.216488960241
 20
-94.43178979844066
 30
0.0
 10
105.343096219324
 20
-94.43178979844066
 30
0.0
 10
105.6142252340131
 20
-94.43178979844066
 30
0.0
 10
105.8677842617275
 20
-94.61799720941842
 30
0.0
 10
105.8677842617275
 20
-94.93098413425336
 30
0.0
 10
105.8677842617275
 20
-95.24844968321914
 30
0.0
 10
105.6280056159541
 20
-95.48306068576466
 30
0.0
 10
105.3046834046634
 20
-95.48306068576466
 30
0.0
  0
HATCH
  5
D8
330
D3
100
AcDbEntity
  8
_U+30EC_U+30A4_U+30E4_U+30FC 1
 62
   179
420
  2234388
100
AcDbHatch
 10
0.0
 20
0.0
 30
0.0
210
0.0
220
0.0
230
1.0
  2
SOLID
 70
     1
 71
     0
 91
        1
 92
        1
 93
        1
 72
     4
 94
        3
 73
     0
 74
     1
 95
       53
 96
       49
 40
0.0
 40
0.0
 40
0.0
 40
0.0
 40
1.0
 40
1.0
 40
1.0
 40
2.0
 40
2.0
 40
2.0
 40
3.0
 40
3.0
 40
3.0
 40
4.0
 40
4.0
 40
4.0
 40
5.0
 40
5.0
 40
5.0
 40
6.0
 40
6.0
 40
6.0
 40
7.0
 40
7.0
 40
7.0
 40
8.0
 40
8.0
 40
8.0
 40
9.0
 40
9.0
 40
9.0
 40
10.0
 40
10.0
 40
10.0
 40
11.0
 40
11.0
 40
11.0
 40
12.0
 40
12.0
 40
12.0
 40
13.0
 40
13.0
 40
13.0
 40
14.0
 40
14.0
 40
14.0
 40
15.0
 40
15.0
 40
15.0
 40
16.0
 40
16.0
 40
16.0
 40
16.0
 10
105.3046834046634
 20
-95.48306068576466
 10
105.2209675843718
 20
-95.48306068576466
 10
105.1124470765865
 20
-95.46617971788693
 10
105.0039265688011
 20
-95.40278996095833
 10
104.8185804316947
 20
-95.2927191602046
 10
104.7960150562663
 20
-95.16163327699084
 10
104.775516738129
 20
-95.05380178830252
 10
104.775516738129
 20
-95.05380178830252
 10
105.013056071837
 20
-95.05380178830252
 10
105.013056071837
 20
-95.05380178830252
 10
105.0717949498605
 20
-95.25258379780144
 10
105.2073594572051
 20
-95.28221161897459
 10
105.3069227167288
 20
-95.28221161897459
 10
105.4560953512402
 20
-95.28221161897459
 10
105.6190483676925
 20
-95.18282061422514
 10
105.6190483676925
 20
-94.9501044141965
 10
105.6190483676925
 20
-94.69413381964245
 10
105.4266397848413
 20
-94.62437063606613
 10
105.2977932136929
 20
-94.62437063606613
 10
105.2638590231632
 20
-94.62437063606613
 10
105.1124470765865
 20
-94.62437063606613
 10
105.0175346959678
 20
-94.75338946198875
 10
105.0175346959678
 20
-94.75338946198875
 10
104.8297769920217
 20
-94.73426918204561
 10
104.8297769920217
 20
-94.73426918204561
 10
104.8297769920217
 20
-94.73426918204561
 10
104.9586235631701
 20
-93.88815373086824
 10
104.9586235631701
 20
-93.88815373086824
 10
104.9586235631701
 20
-93.88815373086824
 10
105.7906141228579
 20
-93.88815373086824
 10
105.7906141228579
 20
-93.88815373086824
 10
105.7906141228579
 20
-93.88815373086824
 10
105.7906141228579
 20
-94.08280162578485
 10
105.7906141228579
 20
-94.08280162578485
 10
105.7906141228579
 20
-94.08280162578485
 10
105.1327731399494
 20
-94.08280162578485
 10
105.1327731399494
 20
-94.08280162578485
 10
105.1327731399494
 20
-94.08280162578485
 10
105.0626654468246
 20
-94.50585935137354
 10
105.0626654468246
 20
-94.50585935137354
 10
105.1282945158186
 20
-94.47192516084382
 10
105.216488960241
 20
-94.43178979844066
 10
105.343096219324
 20
-94.43178979844066
 10
105.6142252340131
 20
-94.43178979844066
 10
105.8677842617275
 20
-94.61799720941842
 10
105.8677842617275
 20
-94.93098413425336
 10
105.8677842617275
 20
-95.24844968321914
 10
105.6280056159541
 20
-95.48306068576466
 10
105.3046834046634
 20
-95.48306068576466
 97
        0
 97
        0
 75
     2
 76
     1
 98
        0
  0
SPLINE
  5
D9
330
D3
100
AcDbEntity
  8
_U+30EC_U+30A4_U+30E4_U+30FC 1
370
     0
100
AcDbSpline
210
0.0
220
0.0
230
1.0
 70
    11
 71
     3
 72
    29
 73
    25
 74
     0
 42
0.0000000001
 43
0.0000000001
 12
1.0
 22
0.0
 32
0.0
 13
1.0
 23
0.0
 33
0.0
 40
0.0
 40
0.0
 40
0.0
 40
0.0
 40
1.0
 40
1.0
 40
1.0
 40
2.0
 40
2.0
 40
2.0
 40
3.0
 40
3.0
 40
3.0
 40
4.0
 40
4.0
 40
4.0
 40
5.0
 40
5.0
 40
5.0
 40
6.0
 40
6.0
 40
6.0
 40
7.0
 40
7.0
 40
7.0
 40
8.0
 40
8.0
 40
8.0
 40
8.0
 10
107.0077663577967
 20
-95.25465085509259
 30
0.0
 10
106.8923556590408
 20
-95.46411266059579
 30
0.0
 10
106.7070095219344
 20
-95.48306068576466
 30
0.0
 10
106.5829860844654
 20
-95.48306068576466
 30
0.0
 10
106.4107313102029
 20
-95.48306068576466
 30
0.0
 10
106.2594916184004
 20
-95.43672415148805
 30
0.0
 10
106.1578613015855
 20
-95.25465085509259
 30
0.0
 10
106.0469292269605
 20
-95.06000296017598
 30
0.0
 10
106.0266031635975
 20
-94.82315264556505
 30
0.0
 10
106.0266031635975
 20
-94.66019962911274
 30
0.0
 10
106.0266031635975
 20
-94.51636689260356
 30
0.0
 10
106.0448621696693
 20
-94.26470266740606
 30
0.0
 10
106.1578613015855
 20
-94.06574840313287
 30
0.0
 10
106.2729274907929
 20
-93.86266002427739
 30
0.0
 10
106.4448377555069
 20
-93.83940562975197
 30
0.0
 10
106.5829860844654
 20
-93.83940562975197
 30
0.0
 10
106.7524847823397
 20
-93.83940562975197
 30
0.0
 10
106.9061360409818
 20
-93.88384736151168
 30
0.0
 10
107.0077663577967
 20
-94.06574840313287
 30
0.0
 10
107.1142198082909
 20
-94.25832924075834
 30
0.0
 10
107.1390244957847
 20
-94.4867390714304
 30
0.0
 10
107.1390244957847
 20
-94.66019962911274
 30
0.0
 10
107.1390244957847
 20
-94.83159312950391
 30
0.0
 10
107.116286865582
 20
-95.06224227224139
 30
0.0
 10
107.0077663577967
 20
-95.25465085509259
 30
0.0
  0
SPLINE
  5
DA
330
D3
100
AcDbEntity
  8
_U+30EC_U+30A4_U+30E4_U+30FC 1
370
     0
100
AcDbSpline
210
0.0
220
0.0
230
1.0
 70
    11
 71
     3
 72
    17
 73
    13
 74
     0
 42
0.0000000001
 43
0.0000000001
 12
1.0
 22
0.0
 32
0.0
 13
1.0
 23
0.0
 33
0.0
 40
0.0
 40
0.0
 40
0.0
 40
0.0
 40
1.0
 40
1.0
 40
1.0
 40
2.0
 40
2.0
 40
2.0
 40
3.0
 40
3.0
 40
3.0
 40
4.0
 40
4.0
 40
4.0
 40
4.0
 10
106.5829860844654
 20
-94.03198646737742
 30
0.0
 10
106.3159911843585
 20
-94.03198646737742
 30
0.0
 10
106.2660372998224
 20
-94.31551782581349
 30
0.0
 10
106.2660372998224
 20
-94.66019962911274
 30
0.0
 10
106.2660372998224
 20
-94.97973223536965
 30
0.0
 10
106.3046223692572
 20
-95.2885850456223
 30
0.0
 10
106.5829860844654
 20
-95.2885850456223
 30
0.0
 10
106.847224908184
 20
-95.2885850456223
 30
0.0
 10
106.8992458500113
 20
-95.00712074447739
 30
0.0
 10
106.8992458500113
 20
-94.66019962911274
 30
0.0
 10
106.8992458500113
 20
-94.34083927763007
 30
0.0
 10
106.8585937232854
 20
-94.03198646737742
 30
0.0
 10
106.5829860844654
 20
-94.03198646737742
 30
0.0
  0
HATCH
  5
DB
330
D3
100
AcDbEntity
  8
_U+30EC_U+30A4_U+30E4_U+30FC 1
 62
   179
420
  2234388
100
AcDbHatch
 10
0.0
 20
0.0
 30
0.0
210
0.0
220
0.0
230
1.0
  2
SOLID
 70
     1
 71
     0
 91
        2
 92
        1
 93
        1
 72
     4
 94
        3
 73
     0
 74
     1
 95
       29
 96
       25
 40
0.0
 40
0.0
 40
0.0
 40
0.0
 40
1.0
 40
1.0
 40
1.0
 40
2.0
 40
2.0
 40
2.0
 40
3.0
 40
3.0
 40
3.0
 40
4.0
 40
4.0
 40
4.0
 40
5.0
 40
5.0
 40
5.0
 40
6.0
 40
6.0
 40
6.0
 40
7.0
 40
7.0
 40
7.0
 40
8.0
 40
8.0
 40
8.0
 40
8.0
 10
107.0077663577967
 20
-95.25465085509259
 10
106.8923556590408
 20
-95.46411266059579
 10
106.7070095219344
 20
-95.48306068576466
 10
106.5829860844654
 20
-95.48306068576466
 10
106.4107313102029
 20
-95.48306068576466
 10
106.2594916184004
 20
-95.43672415148805
 10
106.1578613015855
 20
-95.25465085509259
 10
106.0469292269605
 20
-95.06000296017598
 10
106.0266031635975
 20
-94.82315264556505
 10
106.0266031635975
 20
-94.66019962911274
 10
106.0266031635975
 20
-94.51636689260356
 10
106.0448621696693
 20
-94.26470266740606
 10
106.1578613015855
 20
-94.06574840313287
 10
106.2729274907929
 20
-93.86266002427739
 10
106.4448377555069
 20
-93.83940562975197
 10
106.5829860844654
 20
-93.83940562975197
 10
106.7524847823397
 20
-93.83940562975197
 10
106.9061360409818
 20
-93.88384736151168
 10
107.0077663577967
 20
-94.06574840313287
 10
107.1142198082909
 20
-94.25832924075834
 10
107.1390244957847
 20
-94.4867390714304
 10
107.1390244957847
 20
-94.66019962911274
 10
107.1390244957847
 20
-94.83159312950391
 10
107.116286865582
 20
-95.06224227224139
 10
107.0077663577967
 20
-95.25465085509259
 97
        0
 97
        0
 92
        1
 93
        1
 72
     4
 94
        3
 73
     0
 74
     1
 95
       17
 96
       13
 40
0.0
 40
0.0
 40
0.0
 40
0.0
 40
1.0
 40
1.0
 40
1.0
 40
2.0
 40
2.0
 40
2.0
 40
3.0
 40
3.0
 40
3.0
 40
4.0
 40
4.0
 40
4.0
 40
4.0
 10
106.5829860844654
 20
-94.03198646737742
 10
106.3159911843585
 20
-94.03198646737742
 10
106.2660372998224
 20
-94.31551782581349
 10
106.2660372998224
 20
-94.66019962911274
 10
106.2660372998224
 20
-94.97973223536965
 10
106.3046223692572
 20
-95.2885850456223
 10
106.5829860844654
 20
-95.2885850456223
 10
106.847224908184
 20
-95.2885850456223
 10
106.8992458500113
 20
-95.00712074447739
 10
106.8992458500113
 20
-94.66019962911274
 10
106.8992458500113
 20
-94.34083927763007
 10
106.8585937232854
 20
-94.03198646737742
 10
106.5829860844654
 20
-94.03198646737742
 97
        0
 97
        0
 75
     2
 76
     1
 98
        0
  0
ENDBLK
  5
D6
330
D3
100
AcDbEntity
  8
0
100
AcDbBlockEnd
  0
BLOCK
  5
EA
330
E8
100
AcDbEntity
  8
0
100
AcDbBlockBegin
  2
block 5
 70
     0
 10
0.0
 20
0.0
 30
0.0
  3
block 5
  1

  0
SPLINE
  5
EC
330
E8
100
AcDbEntity
  8
_U+30EC_U+30A4_U+30E4_U+30FC 1
370
     0
100
AcDbSpline
210
0.0
220
0.0
230
1.0
 70
    11
 71
     3
 72
    26
 73
    22
 74
     0
 42
0.0000000001
 43
0.0000000001
 12
1.0
 22
0.0
 32
0.0
 13
1.0
 23
0.0
 33
0.0
 40
0.0
 40
0.0
 40
0.0
 40
0.0
 40
1.0
 40
1.0
 40
1.0
 40
2.0
 40
2.0
 40
2.0
 40
3.0
 40
3.0
 40
3.0
 40
4.0
 40
4.0
 40
4.0
 40
5.0
 40
5.0
 40
5.0
 40
6.0
 40
6.0
 40
6.0
 40
7.0
 40
7.0
 40
7.0
 40
7.0
 10
87.77345375409831
 20
-202.4324326750863
 30
0.0
 10
87.77345375409831
 20
-202.4324326750863
 30
0.0
 10
87.77345375409831
 20
-201.3282795720638
 30
0.0
 10
87.77345375409831
 20
-201.3282795720638
 30
0.0
 10
87.77345375409831
 20
-201.3282795720638
 30
0.0
 10
87.42067597640873
 20
-201.3282795720638
 30
0.0
 10
87.42067597640873
 20
-201.3282795720638
 30
0.0
 10
87.42067597640873
 20
-201.3282795720638
 30
0.0
 10
87.42067597640873
 20
-201.180140466198
 30
0.0
 10
87.42067597640873
 20
-201.180140466198
 30
0.0
 10
87.77569306616373
 20
-201.1653265556114
 30
0.0
 10
87.82547469592558
 20
-201.0023735391592
 30
0.0
 10
87.85716957438987
 20
-200.8879963690488
 30
0.0
 10
87.85716957438987
 20
-200.8879963690488
 30
0.0
 10
88.01306014509743
 20
-200.8879963690488
 30
0.0
 10
88.01306014509743
 20
-200.8879963690488
 30
0.0
 10
88.01306014509743
 20
-200.8879963690488
 30
0.0
 10
88.01306014509743
 20
-202.4324326750863
 30
0.0
 10
88.01306014509743
 20
-202.4324326750863
 30
0.0
 10
88.01306014509743
 20
-202.4324326750863
 30
0.0
 10
87.77345375409831
 20
-202.4324326750863
 30
0.0
 10
87.77345375409831
 20
-202.4324326750863
 30
0.0
  0
HATCH
  5
ED
330
E8
100
AcDbEntity
  8
_U+30EC_U+30A4_U+30E4_U+30FC 1
 62
   179
420
  2234388
100
AcDbHatch
 10
0.0
 20
0.0
 30
0.0
210
0.0
220
0.0
230
1.0
  2
SOLID
 70
     1
 71
     0
 91
        1
 92
        1
 93
        1
 72
     4
 94
        3
 73
     0
 74
     1
 95
       26
 96
       22
 40
0.0
 40
0.0
 40
0.0
 40
0.0
 40
1.0
 40
1.0
 40
1.0
 40
2.0
 40
2.0
 40
2.0
 40
3.0
 40
3.0
 40
3.0
 40
4.0
 40
4.0
 40
4.0
 40
5.0
 40
5.0
 40
5.0
 40
6.0
 40
6.0
 40
6.0
 40
7.0
 40
7.0
 40
7.0
 40
7.0
 10
87.77345375409831
 20
-202.4324326750863
 10
87.77345375409831
 20
-202.4324326750863
 10
87.77345375409831
 20
-201.3282795720638
 10
87.77345375409831
 20
-201.3282795720638
 10
87.77345375409831
 20
-201.3282795720638
 10
87.42067597640873
 20
-201.3282795720638
 10
87.42067597640873
 20
-201.3282795720638
 10
87.42067597640873
 20
-201.3282795720638
 10
87.42067597640873
 20
-201.180140466198
 10
87.42067597640873
 20
-201.180140466198
 10
87.77569306616373
 20
-201.1653265556114
 10
87.82547469592558
 20
-201.0023735391592
 10
87.85716957438987
 20
-200.8879963690488
 10
87.85716957438987
 20
-200.8879963690488
 10
88.01306014509743
 20
-200.8879963690488
 10
88.01306014509743
 20
-200.8879963690488
 10
88.01306014509743
 20
-200.8879963690488
 10
88.01306014509743
 20
-202.4324326750863
 10
88.01306014509743
 20
-202.4324326750863
 10
88.01306014509743
 20
-202.4324326750863
 10
87.77345375409831
 20
-202.4324326750863
 10
87.77345375409831
 20
-202.4324326750863
 97
        0
 97
        0
 75
     2
 76
     1
 98
        0
  0
SPLINE
  5
EE
330
E8
100
AcDbEntity
  8
_U+30EC_U+30A4_U+30E4_U+30FC 1
370
     0
100
AcDbSpline
210
0.0
220
0.0
230
1.0
 70
    11
 71
     3
 72
    53
 73
    49
 74
     0
 42
0.0000000001
 43
0.0000000001
 12
1.0
 22
0.0
 32
0.0
 13
1.0
 23
0.0
 33
0.0
 40
0.0
 40
0.0
 40
0.0
 40
0.0
 40
1.0
 40
1.0
 40
1.0
 40
2.0
 40
2.0
 40
2.0
 40
3.0
 40
3.0
 40
3.0
 40
4.0
 40
4.0
 40
4.0
 40
5.0
 40
5.0
 40
5.0
 40
6.0
 40
6.0
 40
6.0
 40
7.0
 40
7.0
 40
7.0
 40
8.0
 40
8.0
 40
8.0
 40
9.0
 40
9.0
 40
9.0
 40
10.0
 40
10.0
 40
10.0
 40
11.0
 40
11.0
 40
11.0
 40
12.0
 40
12.0
 40
12.0
 40
13.0
 40
13.0
 40
13.0
 40
14.0
 40
14.0
 40
14.0
 40
15.0
 40
15.0
 40
15.0
 40
16.0
 40
16.0
 40
16.0
 40
16.0
 10
89.06295299422732
 20
-202.4830755787195
 30
0.0
 10
88.97923717393574
 20
-202.4830755787195
 30
0.0
 10
88.87071666615039
 20
-202.4661946108418
 30
0.0
 10
88.76219615836501
 20
-202.4028048539132
 30
0.0
 10
88.57685002125856
 20
-202.2929063079337
 30
0.0
 10
88.55411239105592
 20
-202.1616481699457
 30
0.0
 10
88.53378632769295
 20
-202.0538166812574
 30
0.0
 10
88.53378632769295
 20
-202.0538166812574
 30
0.0
 10
88.77115340662667
 20
-202.0538166812574
 30
0.0
 10
88.77115340662667
 20
-202.0538166812574
 30
0.0
 10
88.83006453942443
 20
-202.2525986907563
 30
0.0
 10
88.96562904676901
 20
-202.2822265119295
 30
0.0
 10
89.06519230629273
 20
-202.2822265119295
 30
0.0
 10
89.21436494080405
 20
-202.2822265119295
 30
0.0
 10
89.37714570248211
 20
-202.1826632524057
 30
0.0
 10
89.37714570248211
 20
-201.9501193071514
 30
0.0
 10
89.37714570248211
 20
-201.6941487125973
 30
0.0
 10
89.18490937440517
 20
-201.6242132742467
 30
0.0
 10
89.05606280325682
 20
-201.6242132742467
 30
0.0
 10
89.02212861272712
 20
-201.6242132742467
 30
0.0
 10
88.87071666615039
 20
-201.6242132742467
 30
0.0
 10
88.77580428553175
 20
-201.7534043549436
 30
0.0
 10
88.77580428553175
 20
-201.7534043549436
 30
0.0
 10
88.58804658158563
 20
-201.7344563297747
 30
0.0
 10
88.58804658158563
 20
-201.7344563297747
 30
0.0
 10
88.58804658158563
 20
-201.7344563297747
 30
0.0
 10
88.71706540750824
 20
-200.8879963690488
 30
0.0
 10
88.71706540750824
 20
-200.8879963690488
 30
0.0
 10
88.71706540750824
 20
-200.8879963690488
 30
0.0
 10
89.54905596719607
 20
-200.8879963690488
 30
0.0
 10
89.54905596719607
 20
-200.8879963690488
 30
0.0
 10
89.54905596719607
 20
-200.8879963690488
 30
0.0
 10
89.54905596719607
 20
-201.0826442639654
 30
0.0
 10
89.54905596719607
 20
-201.0826442639654
 30
0.0
 10
89.54905596719607
 20
-201.0826442639654
 30
0.0
 10
88.89104272951336
 20
-201.0826442639654
 30
0.0
 10
88.89104272951336
 20
-201.0826442639654
 30
0.0
 10
88.89104272951336
 20
-201.0826442639654
 30
0.0
 10
88.82093503638852
 20
-201.5057019895541
 30
0.0
 10
88.82093503638852
 20
-201.5057019895541
 30
0.0
 10
88.88656410538253
 20
-201.4719400537987
 30
0.0
 10
88.97475854980493
 20
-201.4316324366213
 30
0.0
 10
89.10136580888786
 20
-201.4316324366213
 30
0.0
 10
89.37266707835128
 20
-201.4316324366213
 30
0.0
 10
89.62588159651715
 20
-201.6180121023733
 30
0.0
 10
89.62588159651715
 20
-201.9311712819825
 30
0.0
 10
89.62588159651715
 20
-202.248464576174
 30
0.0
 10
89.38610295074376
 20
-202.4830755787195
 30
0.0
 10
89.06295299422732
 20
-202.4830755787195
 30
0.0
  0
HATCH
  5
EF
330
E8
100
AcDbEntity
  8
_U+30EC_U+30A4_U+30E4_U+30FC 1
 62
   179
420
  2234388
100
AcDbHatch
 10
0.0
 20
0.0
 30
0.0
210
0.0
220
0.0
230
1.0
  2
SOLID
 70
     1
 71
     0
 91
        1
 92
        1
 93
        1
 72
     4
 94
        3
 73
     0
 74
     1
 95
       53
 96
       49
 40
0.0
 40
0.0
 40
0.0
 40
0.0
 40
1.0
 40
1.0
 40
1.0
 40
2.0
 40
2.0
 40
2.0
 40
3.0
 40
3.0
 40
3.0
 40
4.0
 40
4.0
 40
4.0
 40
5.0
 40
5.0
 40
5.0
 40
6.0
 40
6.0
 40
6.0
 40
7.0
 40
7.0
 40
7.0
 40
8.0
 40
8.0
 40
8.0
 40
9.0
 40
9.0
 40
9.0
 40
10.0
 40
10.0
 40
10.0
 40
11.0
 40
11.0
 40
11.0
 40
12.0
 40
12.0
 40
12.0
 40
13.0
 40
13.0
 40
13.0
 40
14.0
 40
14.0
 40
14.0
 40
15.0
 40
15.0
 40
15.0
 40
16.0
 40
16.0
 40
16.0
 40
16.0
 10
89.06295299422732
 20
-202.4830755787195
 10
88.97923717393574
 20
-202.4830755787195
 10
88.87071666615039
 20
-202.4661946108418
 10
88.76219615836501
 20
-202.4028048539132
 10
88.57685002125856
 20
-202.2929063079337
 10
88.55411239105592
 20
-202.1616481699457
 10
88.53378632769295
 20
-202.0538166812574
 10
88.53378632769295
 20
-202.0538166812574
 10
88.77115340662667
 20
-202.0538166812574
 10
88.77115340662667
 20
-202.0538166812574
 10
88.83006453942443
 20
-202.2525986907563
 10
88.96562904676901
 20
-202.2822265119295
 10
89.06519230629273
 20
-202.2822265119295
 10
89.21436494080405
 20
-202.2822265119295
 10
89.37714570248211
 20
-202.1826632524057
 10
89.37714570248211
 20
-201.9501193071514
 10
89.37714570248211
 20
-201.6941487125973
 10
89.18490937440517
 20
-201.6242132742467
 10
89.05606280325682
 20
-201.6242132742467
 10
89.02212861272712
 20
-201.6242132742467
 10
88.87071666615039
 20
-201.6242132742467
 10
88.77580428553175
 20
-201.7534043549436
 10
88.77580428553175
 20
-201.7534043549436
 10
88.58804658158563
 20
-201.7344563297747
 10
88.58804658158563
 20
-201.7344563297747
 10
88.58804658158563
 20
-201.7344563297747
 10
88.71706540750824
 20
-200.8879963690488
 10
88.71706540750824
 20
-200.8879963690488
 10
88.71706540750824
 20
-200.8879963690488
 10
89.54905596719607
 20
-200.8879963690488
 10
89.54905596719607
 20
-200.8879963690488
 10
89.54905596719607
 20
-200.8879963690488
 10
89.54905596719607
 20
-201.0826442639654
 10
89.54905596719607
 20
-201.0826442639654
 10
89.54905596719607
 20
-201.0826442639654
 10
88.89104272951336
 20
-201.0826442639654
 10
88.89104272951336
 20
-201.0826442639654
 10
88.89104272951336
 20
-201.0826442639654
 10
88.82093503638852
 20
-201.5057019895541
 10
88.82093503638852
 20
-201.5057019895541
 10
88.88656410538253
 20
-201.4719400537987
 10
88.97475854980493
 20
-201.4316324366213
 10
89.10136580888786
 20
-201.4316324366213
 10
89.37266707835128
 20
-201.4316324366213
 10
89.62588159651715
 20
-201.6180121023733
 10
89.62588159651715
 20
-201.9311712819825
 10
89.62588159651715
 20
-202.248464576174
 10
89.38610295074376
 20
-202.4830755787195
 10
89.06295299422732
 20
-202.4830755787195
 97
        0
 97
        0
 75
     2
 76
     1
 98
        0
  0
ENDBLK
  5
EB
330
E8
100
AcDbEntity
  8
0
100
AcDbBlockEnd
  0
BLOCK
  5
FE
330
FC
100
AcDbEntity
  8
0
100
AcDbBlockBegin
  2
block 6
 70
     0
 10
0.0
 20
0.0
 30
0.0
  3
block 6
  1

  0
SPLINE
  5
100
330
FC
100
AcDbEntity
  8
_U+30EC_U+30A4_U+30E4_U+30FC 1
370
     0
100
AcDbSpline
210
0.0
220
0.0
230
1.0
 70
    11
 71
     3
 72
    32
 73
    28
 74
     0
 42
0.0000000001
 43
0.0000000001
 12
1.0
 22
0.0
 32
0.0
 13
1.0
 23
0.0
 33
0.0
 40
0.0
 40
0.0
 40
0.0
 40
0.0
 40
1.0
 40
1.0
 40
1.0
 40
2.0
 40
2.0
 40
2.0
 40
3.0
 40
3.0
 40
3.0
 40
4.0
 40
4.0
 40
4.0
 40
5.0
 40
5.0
 40
5.0
 40
6.0
 40
6.0
 40
6.0
 40
7.0
 40
7.0
 40
7.0
 40
8.0
 40
8.0
 40
8.0
 40
9.0
 40
9.0
 40
9.0
 40
9.0
 10
76.35933564714281
 20
-152.2525498751313
 30
0.0
 10
76.35933564714281
 20
-152.4378960122378
 30
0.0
 10
76.28974471834076
 20
-152.7004122882138
 30
0.0
 10
75.95763751356267
 20
-152.7410644149397
 30
0.0
 10
75.95763751356267
 20
-152.7410644149397
 30
0.0
 10
75.95763751356267
 20
-152.5126545842677
 30
0.0
 10
75.95763751356267
 20
-152.5126545842677
 30
0.0
 10
76.01689315590897
 20
-152.5012857691663
 30
0.0
 10
76.16468775222619
 20
-152.4675238334109
 30
0.0
 10
76.16468775222619
 20
-152.2504828178402
 30
0.0
 10
76.16468775222619
 20
-151.9383571668765
 30
0.0
 10
75.83464760473926
 20
-151.8977050401506
 30
0.0
 10
75.62966442336689
 20
-151.8839246582096
 30
0.0
 10
75.70993514817322
 20
-151.9814208604421
 30
0.0
 10
75.76712373322836
 20
-152.0537678656324
 30
0.0
 10
75.76712373322836
 20
-152.2480712510005
 30
0.0
 10
75.76712373322836
 20
-152.4403075790774
 30
0.0
 10
75.6613593018312
 20
-152.7638020451424
 30
0.0
 10
75.25518254412023
 20
-152.7638020451424
 30
0.0
 10
74.93582219263757
 20
-152.7638020451424
 30
0.0
 10
74.71568059113011
 20
-152.5508951441539
 30
0.0
 10
74.71568059113011
 20
-152.2118977484054
 30
0.0
 10
74.71568059113011
 20
-151.6627495280565
 30
0.0
 10
75.26999645470681
 20
-151.6513807129552
 30
0.0
 10
75.4835923747923
 20
-151.6513807129552
 30
0.0
 10
75.71406926275552
 20
-151.6513807129552
 30
0.0
 10
76.35933564714281
 20
-151.6717067763182
 30
0.0
 10
76.35933564714281
 20
-152.2525498751313
 30
0.0
  0
SPLINE
  5
101
330
FC
100
AcDbEntity
  8
_U+30EC_U+30A4_U+30E4_U+30FC 1
370
     0
100
AcDbSpline
210
0.0
220
0.0
230
1.0
 70
    11
 71
     3
 72
    17
 73
    13
 74
     0
 42
0.0000000001
 43
0.0000000001
 12
1.0
 22
0.0
 32
0.0
 13
1.0
 23
0.0
 33
0.0
 40
0.0
 40
0.0
 40
0.0
 40
0.0
 40
1.0
 40
1.0
 40
1.0
 40
2.0
 40
2.0
 40
2.0
 40
3.0
 40
3.0
 40
3.0
 40
4.0
 40
4.0
 40
4.0
 40
4.0
 10
74.90826142875558
 20
-152.2098306911142
 30
0.0
 10
74.90826142875558
 20
-152.3362656954229
 30
0.0
 10
74.96545001381072
 20
-152.524023399369
 30
0.0
 10
75.25104842953793
 20
-152.524023399369
 30
0.0
 10
75.47739120291885
 20
-152.524023399369
 30
0.0
 10
75.57247583831175
 20
-152.3748507648577
 30
0.0
 10
75.57247583831175
 20
-152.2301567544772
 30
0.0
 10
75.57247583831175
 20
-151.9497259819778
 30
0.0
 10
75.36301403280855
 20
-151.9090738552519
 30
0.0
 10
75.2465698054071
 20
-151.9090738552519
 30
0.0
 10
75.0712144452079
 20
-151.9090738552519
 30
0.0
 10
74.90826142875558
 20
-152.0107041720668
 30
0.0
 10
74.90826142875558
 20
-152.2098306911142
 30
0.0
  0
HATCH
  5
102
330
FC
100
AcDbEntity
  8
_U+30EC_U+30A4_U+30E4_U+30FC 1
 62
   179
420
  2234388
100
AcDbHatch
 10
0.0
 20
0.0
 30
0.0
210
0.0
220
0.0
230
1.0
  2
SOLID
 70
     1
 71
     0
 91
        2
 92
        1
 93
        1
 72
     4
 94
        3
 73
     0
 74
     1
 95
       32
 96
       28
 40
0.0
 40
0.0
 40
0.0
 40
0.0
 40
1.0
 40
1.0
 40
1.0
 40
2.0
 40
2.0
 40
2.0
 40
3.0
 40
3.0
 40
3.0
 40
4.0
 40
4.0
 40
4.0
 40
5.0
 40
5.0
 40
5.0
 40
6.0
 40
6.0
 40
6.0
 40
7.0
 40
7.0
 40
7.0
 40
8.0
 40
8.0
 40
8.0
 40
9.0
 40
9.0
 40
9.0
 40
9.0
 10
76.35933564714281
 20
-152.2525498751313
 10
76.35933564714281
 20
-152.4378960122378
 10
76.28974471834076
 20
-152.7004122882138
 10
75.95763751356267
 20
-152.7410644149397
 10
75.95763751356267
 20
-152.7410644149397
 10
75.95763751356267
 20
-152.5126545842677
 10
75.95763751356267
 20
-152.5126545842677
 10
76.01689315590897
 20
-152.5012857691663
 10
76.16468775222619
 20
-152.4675238334109
 10
76.16468775222619
 20
-152.2504828178402
 10
76.16468775222619
 20
-151.9383571668765
 10
75.83464760473926
 20
-151.8977050401506
 10
75.62966442336689
 20
-151.8839246582096
 10
75.70993514817322
 20
-151.9814208604421
 10
75.76712373322836
 20
-152.0537678656324
 10
75.76712373322836
 20
-152.2480712510005
 10
75.76712373322836
 20
-152.4403075790774
 10
75.6613593018312
 20
-152.7638020451424
 10
75.25518254412023
 20
-152.7638020451424
 10
74.93582219263757
 20
-152.7638020451424
 10
74.71568059113011
 20
-152.5508951441539
 10
74.71568059113011
 20
-152.2118977484054
 10
74.71568059113011
 20
-151.6627495280565
 10
75.26999645470681
 20
-151.6513807129552
 10
75.4835923747923
 20
-151.6513807129552
 10
75.71406926275552
 20
-151.6513807129552
 10
76.35933564714281
 20
-151.6717067763182
 10
76.35933564714281
 20
-152.2525498751313
 97
        0
 97
        0
 92
        1
 93
        1
 72
     4
 94
        3
 73
     0
 74
     1
 95
       17
 96
       13
 40
0.0
 40
0.0
 40
0.0
 40
0.0
 40
1.0
 40
1.0
 40
1.0
 40
2.0
 40
2.0
 40
2.0
 40
3.0
 40
3.0
 40
3.0
 40
4.0
 40
4.0
 40
4.0
 40
4.0
 10
74.90826142875558
 20
-152.2098306911142
 10
74.90826142875558
 20
-152.3362656954229
 10
74.96545001381072
 20
-152.524023399369
 10
75.25104842953793
 20
-152.524023399369
 10
75.47739120291885
 20
-152.524023399369
 10
75.57247583831175
 20
-152.3748507648577
 10
75.57247583831175
 20
-152.2301567544772
 10
75.57247583831175
 20
-151.9497259819778
 10
75.36301403280855
 20
-151.9090738552519
 10
75.2465698054071
 20
-151.9090738552519
 10
75.0712144452079
 20
-151.9090738552519
 10
74.90826142875558
 20
-152.0107041720668
 10
74.90826142875558
 20
-152.2098306911142
 97
        0
 97
        0
 75
     2
 76
     1
 98
        0
  0
SPLINE
  5
103
330
FC
100
AcDbEntity
  8
_U+30EC_U+30A4_U+30E4_U+30FC 1
370
     0
100
AcDbSpline
210
0.0
220
0.0
230
1.0
 70
    11
 71
     3
 72
    53
 73
    49
 74
     0
 42
0.0000000001
 43
0.0000000001
 12
1.0
 22
0.0
 32
0.0
 13
1.0
 23
0.0
 33
0.0
 40
0.0
 40
0.0
 40
0.0
 40
0.0
 40
1.0
 40
1.0
 40
1.0
 40
2.0
 40
2.0
 40
2.0
 40
3.0
 40
3.0
 40
3.0
 40
4.0
 40
4.0
 40
4.0
 40
5.0
 40
5.0
 40
5.0
 40
6.0
 40
6.0
 40
6.0
 40
7.0
 40
7.0
 40
7.0
 40
8.0
 40
8.0
 40
8.0
 40
9.0
 40
9.0
 40
9.0
 40
10.0
 40
10.0
 40
10.0
 40
11.0
 40
11.0
 40
11.0
 40
12.0
 40
12.0
 40
12.0
 40
13.0
 40
13.0
 40
13.0
 40
14.0
 40
14.0
 40
14.0
 40
15.0
 40
15.0
 40
15.0
 40
16.0
 40
16.0
 40
16.0
 40
16.0
 10
76.35933564714281
 20
-150.9699408259728
 30
0.0
 10
76.35933564714281
 20
-151.0536566462644
 30
0.0
 10
76.34245467926509
 20
-151.1621771540497
 30
0.0
 10
76.27906492233649
 20
-151.2706976618351
 30
0.0
 10
76.16916637635701
 20
-151.4560437989416
 30
0.0
 10
76.037908238369
 20
-151.4787814291442
 30
0.0
 10
75.93007674968068
 20
-151.4991074925072
 30
0.0
 10
75.93007674968068
 20
-151.4991074925072
 30
0.0
 10
75.93007674968068
 20
-151.2617404135734
 30
0.0
 10
75.93007674968068
 20
-151.2617404135734
 30
0.0
 10
76.1288587591796
 20
-151.2028292807757
 30
0.0
 10
76.15848658035274
 20
-151.0674370282054
 30
0.0
 10
76.15848658035274
 20
-150.9675292591331
 30
0.0
 10
76.15848658035274
 20
-150.8187011341703
 30
0.0
 10
76.05892332082902
 20
-150.655748117718
 30
0.0
 10
75.82637937557466
 20
-150.655748117718
 30
0.0
 10
75.57040878102059
 20
-150.655748117718
 30
0.0
 10
75.50047334267002
 20
-150.847984445795
 30
0.0
 10
75.50047334267002
 20
-150.9768310169433
 30
0.0
 10
75.50047334267002
 20
-151.0109374622473
 30
0.0
 10
75.50047334267002
 20
-151.1621771540497
 30
0.0
 10
75.62966442336689
 20
-151.2569172798941
 30
0.0
 10
75.62966442336689
 20
-151.2569172798941
 30
0.0
 10
75.61071639819802
 20
-151.4450194933887
 30
0.0
 10
75.61071639819802
 20
-151.4450194933887
 30
0.0
 10
75.61071639819802
 20
-151.4450194933887
 30
0.0
 10
74.76425643747213
 20
-151.3158284126919
 30
0.0
 10
74.76425643747213
 20
-151.3158284126919
 30
0.0
 10
74.76425643747213
 20
-151.3158284126919
 30
0.0
 10
74.76425643747213
 20
-150.483837853004
 30
0.0
 10
74.76425643747213
 20
-150.483837853004
 30
0.0
 10
74.76425643747213
 20
-150.483837853004
 30
0.0
 10
74.95890433238876
 20
-150.483837853004
 30
0.0
 10
74.95890433238876
 20
-150.483837853004
 30
0.0
 10
74.95890433238876
 20
-150.483837853004
 30
0.0
 10
74.95890433238876
 20
-151.1418510906868
 30
0.0
 10
74.95890433238876
 20
-151.1418510906868
 30
0.0
 10
74.95890433238876
 20
-151.1418510906868
 30
0.0
 10
75.38196205797743
 20
-151.2121310385859
 30
0.0
 10
75.38196205797743
 20
-151.2121310385859
 30
0.0
 10
75.34820012222198
 20
-151.1463297148176
 30
0.0
 10
75.30789250504456
 20
-151.0581352703952
 30
0.0
 10
75.30789250504456
 20
-150.9317002660865
 30
0.0
 10
75.30789250504456
 20
-150.6602267418488
 30
0.0
 10
75.49427217079658
 20
-150.407012223683
 30
0.0
 10
75.80743135040578
 20
-150.407012223683
 30
0.0
 10
76.1247246445973
 20
-150.407012223683
 30
0.0
 10
76.35933564714281
 20
-150.6467908694564
 30
0.0
 10
76.35933564714281
 20
-150.9699408259728
 30
0.0
  0
HATCH
  5
104
330
FC
100
AcDbEntity
  8
_U+30EC_U+30A4_U+30E4_U+30FC 1
 62
   179
420
  2234388
100
AcDbHatch
 10
0.0
 20
0.0
 30
0.0
210
0.0
220
0.0
230
1.0
  2
SOLID
 70
     1
 71
     0
 91
        1
 92
        1
 93
        1
 72
     4
 94
        3
 73
     0
 74
     1
 95
       53
 96
       49
 40
0.0
 40
0.0
 40
0.0
 40
0.0
 40
1.0
 40
1.0
 40
1.0
 40
2.0
 40
2.0
 40
2.0
 40
3.0
 40
3.0
 40
3.0
 40
4.0
 40
4.0
 40
4.0
 40
5.0
 40
5.0
 40
5.0
 40
6.0
 40
6.0
 40
6.0
 40
7.0
 40
7.0
 40
7.0
 40
8.0
 40
8.0
 40
8.0
 40
9.0
 40
9.0
 40
9.0
 40
10.0
 40
10.0
 40
10.0
 40
11.0
 40
11.0
 40
11.0
 40
12.0
 40
12.0
 40
12.0
 40
13.0
 40
13.0
 40
13.0
 40
14.0
 40
14.0
 40
14.0
 40
15.0
 40
15.0
 40
15.0
 40
16.0
 40
16.0
 40
16.0
 40
16.0
 10
76.35933564714281
 20
-150.9699408259728
 10
76.35933564714281
 20
-151.0536566462644
 10
76.34245467926509
 20
-151.1621771540497
 10
76.27906492233649
 20
-151.2706976618351
 10
76.16916637635701
 20
-151.4560437989416
 10
76.037908238369
 20
-151.4787814291442
 10
75.93007674968068
 20
-151.4991074925072
 10
75.93007674968068
 20
-151.4991074925072
 10
75.93007674968068
 20
-151.2617404135734
 10
75.93007674968068
 20
-151.2617404135734
 10
76.1288587591796
 20
-151.2028292807757
 10
76.15848658035274
 20
-151.0674370282054
 10
76.15848658035274
 20
-150.9675292591331
 10
76.15848658035274
 20
-150.8187011341703
 10
76.05892332082902
 20
-150.655748117718
 10
75.82637937557466
 20
-150.655748117718
 10
75.57040878102059
 20
-150.655748117718
 10
75.50047334267002
 20
-150.847984445795
 10
75.50047334267002
 20
-150.9768310169433
 10
75.50047334267002
 20
-151.0109374622473
 10
75.50047334267002
 20
-151.1621771540497
 10
75.62966442336689
 20
-151.2569172798941
 10
75.62966442336689
 20
-151.2569172798941
 10
75.61071639819802
 20
-151.4450194933887
 10
75.61071639819802
 20
-151.4450194933887
 10
75.61071639819802
 20
-151.4450194933887
 10
74.76425643747213
 20
-151.3158284126919
 10
74.76425643747213
 20
-151.3158284126919
 10
74.76425643747213
 20
-151.3158284126919
 10
74.76425643747213
 20
-150.483837853004
 10
74.76425643747213
 20
-150.483837853004
 10
74.76425643747213
 20
-150.483837853004
 10
74.95890433238876
 20
-150.483837853004
 10
74.95890433238876
 20
-150.483837853004
 10
74.95890433238876
 20
-150.483837853004
 10
74.95890433238876
 20
-151.1418510906868
 10
74.95890433238876
 20
-151.1418510906868
 10
74.95890433238876
 20
-151.1418510906868
 10
75.38196205797743
 20
-151.2121310385859
 10
75.38196205797743
 20
-151.2121310385859
 10
75.34820012222198
 20
-151.1463297148176
 10
75.30789250504456
 20
-151.0581352703952
 10
75.30789250504456
 20
-150.9317002660865
 10
75.30789250504456
 20
-150.6602267418488
 10
75.49427217079658
 20
-150.407012223683
 10
75.80743135040578
 20
-150.407012223683
 10
76.1247246445973
 20
-150.407012223683
 10
76.35933564714281
 20
-150.6467908694564
 10
76.35933564714281
 20
-150.9699408259728
 97
        0
 97
        0
 75
     2
 76
     1
 98
        0
  0
ENDBLK
  5
FF
330
FC
100
AcDbEntity
  8
0
100
AcDbBlockEnd
  0
BLOCK
  5
113
330
111
100
AcDbEntity
  8
0
100
AcDbBlockBegin
  2
block 7
 70
     0
 10
0.0
 20
0.0
 30
0.0
  3
block 7
  1

  0
SPLINE
  5
115
330
111
100
AcDbEntity
  8
_U+30EC_U+30A4_U+30E4_U+30FC 1
370
     0
100
AcDbSpline
210
0.0
220
0.0
230
1.0
 70
    11
 71
     3
 72
    26
 73
    22
 74
     0
 42
0.0000000001
 43
0.0000000001
 12
1.0
 22
0.0
 32
0.0
 13
1.0
 23
0.0
 33
0.0
 40
0.0
 40
0.0
 40
0.0
 40
0.0
 40
1.0
 40
1.0
 40
1.0
 40
2.0
 40
2.0
 40
2.0
 40
3.0
 40
3.0
 40
3.0
 40
4.0
 40
4.0
 40
4.0
 40
5.0
 40
5.0
 40
5.0
 40
6.0
 40
6.0
 40
6.0
 40
7.0
 40
7.0
 40
7.0
 40
7.0
 10
134.308425530659
 20
-191.7609048999765
 30
0.0
 10
134.308425530659
 20
-191.7609048999765
 30
0.0
 10
133.2042724276364
 20
-191.7609048999765
 30
0.0
 10
133.2042724276364
 20
-191.7609048999765
 30
0.0
 10
133.2042724276364
 20
-191.7609048999765
 30
0.0
 10
133.2042724276364
 20
-192.113682677666
 30
0.0
 10
133.2042724276364
 20
-192.113682677666
 30
0.0
 10
133.2042724276364
 20
-192.113682677666
 30
0.0
 10
133.0561333217707
 20
-192.113682677666
 30
0.0
 10
133.0561333217707
 20
-192.113682677666
 30
0.0
 10
133.0413194111841
 20
-191.7588378426853
 30
0.0
 10
132.8783663947318
 20
-191.7088839581492
 30
0.0
 10
132.7639892246215
 20
-191.6771890796849
 30
0.0
 10
132.7639892246215
 20
-191.6771890796849
 30
0.0
 10
132.7639892246215
 20
-191.5211262542031
 30
0.0
 10
132.7639892246215
 20
-191.5211262542031
 30
0.0
 10
132.7639892246215
 20
-191.5211262542031
 30
0.0
 10
134.308425530659
 20
-191.5211262542031
 30
0.0
 10
134.308425530659
 20
-191.5211262542031
 30
0.0
 10
134.308425530659
 20
-191.5211262542031
 30
0.0
 10
134.308425530659
 20
-191.7609048999765
 30
0.0
 10
134.308425530659
 20
-191.7609048999765
 30
0.0
  0
HATCH
  5
116
330
111
100
AcDbEntity
  8
_U+30EC_U+30A4_U+30E4_U+30FC 1
 62
   179
420
  2234388
100
AcDbHatch
 10
0.0
 20
0.0
 30
0.0
210
0.0
220
0.0
230
1.0
  2
SOLID
 70
     1
 71
     0
 91
        1
 92
        1
 93
        1
 72
     4
 94
        3
 73
     0
 74
     1
 95
       26
 96
       22
 40
0.0
 40
0.0
 40
0.0
 40
0.0
 40
1.0
 40
1.0
 40
1.0
 40
2.0
 40
2.0
 40
2.0
 40
3.0
 40
3.0
 40
3.0
 40
4.0
 40
4.0
 40
4.0
 40
5.0
 40
5.0
 40
5.0
 40
6.0
 40
6.0
 40
6.0
 40
7.0
 40
7.0
 40
7.0
 40
7.0
 10
134.308425530659
 20
-191.7609048999765
 10
134.308425530659
 20
-191.7609048999765
 10
133.2042724276364
 20
-191.7609048999765
 10
133.2042724276364
 20
-191.7609048999765
 10
133.2042724276364
 20
-191.7609048999765
 10
133.2042724276364
 20
-192.113682677666
 10
133.2042724276364
 20
-192.113682677666
 10
133.2042724276364
 20
-192.113682677666
 10
133.0561333217707
 20
-192.113682677666
 10
133.0561333217707
 20
-192.113682677666
 10
133.0413194111841
 20
-191.7588378426853
 10
132.8783663947318
 20
-191.7088839581492
 10
132.7639892246215
 20
-191.6771890796849
 10
132.7639892246215
 20
-191.6771890796849
 10
132.7639892246215
 20
-191.5211262542031
 10
132.7639892246215
 20
-191.5211262542031
 10
132.7639892246215
 20
-191.5211262542031
 10
134.308425530659
 20
-191.5211262542031
 10
134.308425530659
 20
-191.5211262542031
 10
134.308425530659
 20
-191.5211262542031
 10
134.308425530659
 20
-191.7609048999765
 10
134.308425530659
 20
-191.7609048999765
 97
        0
 97
        0
 75
     2
 76
     1
 98
        0
  0
SPLINE
  5
117
330
111
100
AcDbEntity
  8
_U+30EC_U+30A4_U+30E4_U+30FC 1
370
     0
100
AcDbSpline
210
0.0
220
0.0
230
1.0
 70
    11
 71
     3
 72
    29
 73
    25
 74
     0
 42
0.0000000001
 43
0.0000000001
 12
1.0
 22
0.0
 32
0.0
 13
1.0
 23
0.0
 33
0.0
 40
0.0
 40
0.0
 40
0.0
 40
0.0
 40
1.0
 40
1.0
 40
1.0
 40
2.0
 40
2.0
 40
2.0
 40
3.0
 40
3.0
 40
3.0
 40
4.0
 40
4.0
 40
4.0
 40
5.0
 40
5.0
 40
5.0
 40
6.0
 40
6.0
 40
6.0
 40
7.0
 40
7.0
 40
7.0
 40
8.0
 40
8.0
 40
8.0
 40
8.0
 10
134.1306586036201
 20
-190.0259548136046
 30
0.0
 10
134.3401204091233
 20
-190.1413655123605
 30
0.0
 10
134.3590684342922
 20
-190.3267116494669
 30
0.0
 10
134.3590684342922
 20
-190.4510795964844
 30
0.0
 10
134.3590684342922
 20
-190.6229898611984
 30
0.0
 10
134.3125596452413
 20
-190.7742295530009
 30
0.0
 10
134.1306586036201
 20
-190.8762043793643
 30
0.0
 10
133.9360107087035
 20
-190.9871364539893
 30
0.0
 10
133.6989881393183
 20
-191.0071180078038
 30
0.0
 10
133.5363796324145
 20
-191.0071180078038
 30
0.0
 10
133.3923746411311
 20
-191.0071180078038
 30
0.0
 10
133.1405381611593
 20
-190.9892035112805
 30
0.0
 10
132.9417561516604
 20
-190.8762043793643
 30
0.0
 10
132.7388400275792
 20
-190.7607936806084
 30
0.0
 10
132.7154133782795
 20
-190.5888834158945
 30
0.0
 10
132.7154133782795
 20
-190.4510795964844
 30
0.0
 10
132.7154133782795
 20
-190.2815808986102
 30
0.0
 10
132.7598551100392
 20
-190.127929639968
 30
0.0
 10
132.9417561516604
 20
-190.0259548136046
 30
0.0
 10
133.1343369892859
 20
-189.9198458726589
 30
0.0
 10
133.3627468199579
 20
-189.8950411851651
 30
0.0
 10
133.5363796324145
 20
-189.8950411851651
 30
0.0
 10
133.7076008780314
 20
-189.8950411851651
 30
0.0
 10
133.9380777659946
 20
-189.9177788153678
 30
0.0
 10
134.1306586036201
 20
-190.0259548136046
 30
0.0
  0
SPLINE
  5
118
330
111
100
AcDbEntity
  8
_U+30EC_U+30A4_U+30E4_U+30FC 1
370
     0
100
AcDbSpline
210
0.0
220
0.0
230
1.0
 70
    11
 71
     3
 72
    17
 73
    13
 74
     0
 42
0.0000000001
 43
0.0000000001
 12
1.0
 22
0.0
 32
0.0
 13
1.0
 23
0.0
 33
0.0
 40
0.0
 40
0.0
 40
0.0
 40
0.0
 40
1.0
 40
1.0
 40
1.0
 40
2.0
 40
2.0
 40
2.0
 40
3.0
 40
3.0
 40
3.0
 40
4.0
 40
4.0
 40
4.0
 40
4.0
 10
132.9079942159049
 20
-190.4510795964844
 30
0.0
 10
132.9079942159049
 20
-190.7177299870428
 30
0.0
 10
133.191525574341
 20
-190.7676838715789
 30
0.0
 10
133.5363796324145
 20
-190.7676838715789
 30
0.0
 10
133.8557399838972
 20
-190.7676838715789
 30
0.0
 10
134.1644205393756
 20
-190.7294433116926
 30
0.0
 10
134.1644205393756
 20
-190.4510795964844
 30
0.0
 10
134.1644205393756
 20
-190.1864962632173
 30
0.0
 10
133.8833007477792
 20
-190.1348198309385
 30
0.0
 10
133.5363796324145
 20
-190.1348198309385
 30
0.0
 10
133.2166747713833
 20
-190.1348198309385
 30
0.0
 10
132.9079942159049
 20
-190.1754719576645
 30
0.0
 10
132.9079942159049
 20
-190.4510795964844
 30
0.0
  0
HATCH
  5
119
330
111
100
AcDbEntity
  8
_U+30EC_U+30A4_U+30E4_U+30FC 1
 62
   179
420
  2234388
100
AcDbHatch
 10
0.0
 20
0.0
 30
0.0
210
0.0
220
0.0
230
1.0
  2
SOLID
 70
     1
 71
     0
 91
        2
 92
        1
 93
        1
 72
     4
 94
        3
 73
     0
 74
     1
 95
       29
 96
       25
 40
0.0
 40
0.0
 40
0.0
 40
0.0
 40
1.0
 40
1.0
 40
1.0
 40
2.0
 40
2.0
 40
2.0
 40
3.0
 40
3.0
 40
3.0
 40
4.0
 40
4.0
 40
4.0
 40
5.0
 40
5.0
 40
5.0
 40
6.0
 40
6.0
 40
6.0
 40
7.0
 40
7.0
 40
7.0
 40
8.0
 40
8.0
 40
8.0
 40
8.0
 10
134.1306586036201
 20
-190.0259548136046
 10
134.3401204091233
 20
-190.1413655123605
 10
134.3590684342922
 20
-190.3267116494669
 10
134.3590684342922
 20
-190.4510795964844
 10
134.3590684342922
 20
-190.6229898611984
 10
134.3125596452413
 20
-190.7742295530009
 10
134.1306586036201
 20
-190.8762043793643
 10
133.9360107087035
 20
-190.9871364539893
 10
133.6989881393183
 20
-191.0071180078038
 10
133.5363796324145
 20
-191.0071180078038
 10
133.3923746411311
 20
-191.0071180078038
 10
133.1405381611593
 20
-190.9892035112805
 10
132.9417561516604
 20
-190.8762043793643
 10
132.7388400275792
 20
-190.7607936806084
 10
132.7154133782795
 20
-190.5888834158945
 10
132.7154133782795
 20
-190.4510795964844
 10
132.7154133782795
 20
-190.2815808986102
 10
132.7598551100392
 20
-190.127929639968
 10
132.9417561516604
 20
-190.0259548136046
 10
133.1343369892859
 20
-189.9198458726589
 10
133.3627468199579
 20
-189.8950411851651
 10
133.5363796324145
 20
-189.8950411851651
 10
133.7076008780314
 20
-189.8950411851651
 10
133.9380777659946
 20
-189.9177788153678
 10
134.1306586036201
 20
-190.0259548136046
 97
        0
 97
        0
 92
        1
 93
        1
 72
     4
 94
        3
 73
     0
 74
     1
 95
       17
 96
       13
 40
0.0
 40
0.0
 40
0.0
 40
0.0
 40
1.0
 40
1.0
 40
1.0
 40
2.0
 40
2.0
 40
2.0
 40
3.0
 40
3.0
 40
3.0
 40
4.0
 40
4.0
 40
4.0
 40
4.0
 10
132.9079942159049
 20
-190.4510795964844
 10
132.9079942159049
 20
-190.7177299870428
 10
133.191525574341
 20
-190.7676838715789
 10
133.5363796324145
 20
-190.7676838715789
 10
133.8557399838972
 20
-190.7676838715789
 10
134.1644205393756
 20
-190.7294433116926
 10
134.1644205393756
 20
-190.4510795964844
 10
134.1644205393756
 20
-190.1864962632173
 10
133.8833007477792
 20
-190.1348198309385
 10
133.5363796324145
 20
-190.1348198309385
 10
133.2166747713833
 20
-190.1348198309385
 10
132.9079942159049
 20
-190.1754719576645
 10
132.9079942159049
 20
-190.4510795964844
 97
        0
 97
        0
 75
     2
 76
     1
 98
        0
  0
ENDBLK
  5
114
330
111
100
AcDbEntity
  8
0
100
AcDbBlockEnd
  0
BLOCK
  5
11C
330
11A
100
AcDbEntity
  8
0
100
AcDbBlockBegin
  2
block 8
 70
     0
 10
0.0
 20
0.0
 30
0.0
  3
block 8
  1

  0
SPLINE
  5
11E
330
11A
100
AcDbEntity
  8
_U+30EC_U+30A4_U+30E4_U+30FC 1
370
     0
100
AcDbSpline
210
0.0
220
0.0
230
1.0
 70
    11
 71
     3
 72
    26
 73
    22
 74
     0
 42
0.0000000001
 43
0.0000000001
 12
1.0
 22
0.0
 32
0.0
 13
1.0
 23
0.0
 33
0.0
 40
0.0
 40
0.0
 40
0.0
 40
0.0
 40
1.0
 40
1.0
 40
1.0
 40
2.0
 40
2.0
 40
2.0
 40
3.0
 40
3.0
 40
3.0
 40
4.0
 40
4.0
 40
4.0
 40
5.0
 40
5.0
 40
5.0
 40
6.0
 40
6.0
 40
6.0
 40
7.0
 40
7.0
 40
7.0
 40
7.0
 10
134.3087700402075
 20
-183.8275390165431
 30
0.0
 10
134.3087700402075
 20
-183.8275390165431
 30
0.0
 10
133.204616937185
 20
-183.8275390165431
 30
0.0
 10
133.204616937185
 20
-183.8275390165431
 30
0.0
 10
133.204616937185
 20
-183.8275390165431
 30
0.0
 10
133.204616937185
 20
-184.1803167942327
 30
0.0
 10
133.204616937185
 20
-184.1803167942327
 30
0.0
 10
133.204616937185
 20
-184.1803167942327
 30
0.0
 10
133.0564778313192
 20
-184.1803167942327
 30
0.0
 10
133.0564778313192
 20
-184.1803167942327
 30
0.0
 10
133.0416639207326
 20
-183.825471959252
 30
0.0
 10
132.8787109042803
 20
-183.7755180747158
 30
0.0
 10
132.76433373417
 20
-183.7438231962516
 30
0.0
 10
132.76433373417
 20
-183.7438231962516
 30
0.0
 10
132.76433373417
 20
-183.5877603707697
 30
0.0
 10
132.76433373417
 20
-183.5877603707697
 30
0.0
 10
132.76433373417
 20
-183.5877603707697
 30
0.0
 10
134.3087700402075
 20
-183.5877603707697
 30
0.0
 10
134.3087700402075
 20
-183.5877603707697
 30
0.0
 10
134.3087700402075
 20
-183.5877603707697
 30
0.0
 10
134.3087700402075
 20
-183.8275390165431
 30
0.0
 10
134.3087700402075
 20
-183.8275390165431
 30
0.0
  0
HATCH
  5
11F
330
11A
100
AcDbEntity
  8
_U+30EC_U+30A4_U+30E4_U+30FC 1
 62
   179
420
  2234388
100
AcDbHatch
 10
0.0
 20
0.0
 30
0.0
210
0.0
220
0.0
230
1.0
  2
SOLID
 70
     1
 71
     0
 91
        1
 92
        1
 93
        1
 72
     4
 94
        3
 73
     0
 74
     1
 95
       26
 96
       22
 40
0.0
 40
0.0
 40
0.0
 40
0.0
 40
1.0
 40
1.0
 40
1.0
 40
2.0
 40
2.0
 40
2.0
 40
3.0
 40
3.0
 40
3.0
 40
4.0
 40
4.0
 40
4.0
 40
5.0
 40
5.0
 40
5.0
 40
6.0
 40
6.0
 40
6.0
 40
7.0
 40
7.0
 40
7.0
 40
7.0
 10
134.3087700402075
 20
-183.8275390165431
 10
134.3087700402075
 20
-183.8275390165431
 10
133.204616937185
 20
-183.8275390165431
 10
133.204616937185
 20
-183.8275390165431
 10
133.204616937185
 20
-183.8275390165431
 10
133.204616937185
 20
-184.1803167942327
 10
133.204616937185
 20
-184.1803167942327
 10
133.204616937185
 20
-184.1803167942327
 10
133.0564778313192
 20
-184.1803167942327
 10
133.0564778313192
 20
-184.1803167942327
 10
133.0416639207326
 20
-183.825471959252
 10
132.8787109042803
 20
-183.7755180747158
 10
132.76433373417
 20
-183.7438231962516
 10
132.76433373417
 20
-183.7438231962516
 10
132.76433373417
 20
-183.5877603707697
 10
132.76433373417
 20
-183.5877603707697
 10
132.76433373417
 20
-183.5877603707697
 10
134.3087700402075
 20
-183.5877603707697
 10
134.3087700402075
 20
-183.5877603707697
 10
134.3087700402075
 20
-183.5877603707697
 10
134.3087700402075
 20
-183.8275390165431
 10
134.3087700402075
 20
-183.8275390165431
 97
        0
 97
        0
 75
     2
 76
     1
 98
        0
  0
POLYLINE
  5
120
330
11A
100
AcDbEntity
  8
_U+30EC_U+30A4_U+30E4_U+30FC 1
370
     0
100
AcDb2dPolyline
 66
     1
 10
0.0
 20
0.0
 30
0.0
  0
VERTEX
  5
121
330
120
100
AcDbEntity
  8
_U+30EC_U+30A4_U+30E4_U+30FC 1
370
     0
100
AcDbVertex
100
AcDb2dVertex
 10
134.3087700402075
 20
-182.9879692467877
 30
0.0
  0
VERTEX
  5
122
330
120
100
AcDbEntity
  8
_U+30EC_U+30A4_U+30E4_U+30FC 1
370
     0
100
AcDbVertex
100
AcDb2dVertex
 10
134.0569335602358
 20
-182.9879692467877
 30
0.0
  0
VERTEX
  5
123
330
120
100
AcDbEntity
  8
_U+30EC_U+30A4_U+30E4_U+30FC 1
370
     0
100
AcDbVertex
100
AcDb2dVertex
 10
134.0569335602358
 20
-182.7189072893897
 30
0.0
  0
VERTEX
  5
124
330
120
100
AcDbEntity
  8
_U+30EC_U+30A4_U+30E4_U+30FC 1
370
     0
100
AcDbVertex
100
AcDb2dVertex
 10
134.3087700402075
 20
-182.7189072893897
 30
0.0
  0
VERTEX
  5
125
330
120
100
AcDbEntity
  8
_U+30EC_U+30A4_U+30E4_U+30FC 1
370
     0
100
AcDbVertex
100
AcDb2dVertex
 10
134.3087700402075
 20
-182.9879692467877
 30
0.0
  0
SEQEND
  5
126
330
120
100
AcDbEntity
  8
_U+30EC_U+30A4_U+30E4_U+30FC 1
370
     0
  0
HATCH
  5
127
330
11A
100
AcDbEntity
  8
_U+30EC_U+30A4_U+30E4_U+30FC 1
 62
   179
420
  2234388
100
AcDbHatch
 10
0.0
 20
0.0
 30
0.0
210
0.0
220
0.0
230
1.0
  2
SOLID
 70
     1
 71
     0
 91
        1
 92
        1
 93
        4
 72
     1
 10
134.3087700402075
 20
-182.9879692467877
 11
134.0569335602358
 21
-182.9879692467877
 72
     1
 10
134.0569335602358
 20
-182.9879692467877
 11
134.0569335602358
 21
-182.7189072893897
 72
     1
 10
134.0569335602358
 20
-182.7189072893897
 11
134.3087700402075
 21
-182.7189072893897
 72
     1
 10
134.3087700402075
 20
-182.7189072893897
 11
134.3087700402075
 21
-182.9879692467877
 97
        0
 75
     2
 76
     1
 98
        0
  0
SPLINE
  5
128
330
11A
100
AcDbEntity
  8
_U+30EC_U+30A4_U+30E4_U+30FC 1
370
     0
100
AcDbSpline
210
0.0
220
0.0
230
1.0
 70
    11
 71
     3
 72
    44
 73
    40
 74
     0
 42
0.0000000001
 43
0.0000000001
 12
1.0
 22
0.0
 32
0.0
 13
1.0
 23
0.0
 33
0.0
 40
0.0
 40
0.0
 40
0.0
 40
0.0
 40
1.0
 40
1.0
 40
1.0
 40
2.0
 40
2.0
 40
2.0
 40
3.0
 40
3.0
 40
3.0
 40
4.0
 40
4.0
 40
4.0
 40
5.0
 40
5.0
 40
5.0
 40
6.0
 40
6.0
 40
6.0
 40
7.0
 40
7.0
 40
7.0
 40
8.0
 40
8.0
 40
8.0
 40
9.0
 40
9.0
 40
9.0
 40
10.0
 40
10.0
 40
10.0
 40
11.0
 40
11.0
 40
11.0
 40
12.0
 40
12.0
 40
12.0
 40
13.0
 40
13.0
 40
13.0
 40
13.0
 10
133.7268934127488
 20
-181.8324842210349
 30
0.0
 10
133.8857123146188
 20
-182.0653726758378
 30
0.0
 10
133.9597818675517
 20
-182.1649359353615
 30
0.0
 10
134.1034423492866
 20
-182.2166123676403
 30
0.0
 10
134.1034423492866
 20
-182.2166123676403
 30
0.0
 10
134.1034423492866
 20
-181.384966317501
 30
0.0
 10
134.1034423492866
 20
-181.384966317501
 30
0.0
 10
134.1034423492866
 20
-181.384966317501
 30
0.0
 10
134.3087700402075
 20
-181.384966317501
 30
0.0
 10
134.3087700402075
 20
-181.384966317501
 30
0.0
 10
134.3087700402075
 20
-181.384966317501
 30
0.0
 10
134.3087700402075
 20
-182.4836072677472
 30
0.0
 10
134.3087700402075
 20
-182.4836072677472
 30
0.0
 10
133.9511691288386
 20
-182.4495008224432
 30
0.0
 10
133.8729654613234
 20
-182.3795653840926
 30
0.0
 10
133.5746201923008
 20
-181.9678764736053
 30
0.0
 10
133.3758381828019
 20
-181.6943358920764
 30
0.0
 10
133.3079698017424
 20
-181.6244004537259
 30
0.0
 10
133.170510491881
 20
-181.6244004537259
 30
0.0
 10
133.0519992071884
 20
-181.6244004537259
 30
0.0
 10
132.9210855787489
 20
-181.7012260830469
 30
0.0
 10
132.9210855787489
 20
-181.9113769076472
 30
0.0
 10
132.9210855787489
 20
-182.1897406228553
 30
0.0
 10
133.1515624667121
 20
-182.198697871117
 30
0.0
 10
133.2680066941136
 20
-182.2031764952478
 30
0.0
 10
133.2680066941136
 20
-182.2031764952478
 30
0.0
 10
133.2680066941136
 20
-182.4429551410212
 30
0.0
 10
133.2680066941136
 20
-182.4429551410212
 30
0.0
 10
133.1408826707078
 20
-182.433653383211
 30
0.0
 10
133.0289170674372
 20
-182.4226290776582
 30
0.0
 10
132.9104057827446
 20
-182.336501690527
 30
0.0
 10
132.7495198235835
 20
-182.21902393448
 30
0.0
 10
132.715757887828
 20
-182.0202419249811
 30
0.0
 10
132.715757887828
 20
-181.895529468415
 30
0.0
 10
132.715757887828
 20
-181.5995957662321
 30
0.0
 10
132.8997259867403
 20
-181.3780761265305
 30
0.0
 10
133.1725775491721
 20
-181.3780761265305
 30
0.0
 10
133.4013318893927
 20
-181.3780761265305
 30
0.0
 10
133.5005506393679
 20
-181.502444073548
 30
0.0
 10
133.7268934127488
 20
-181.8324842210349
 30
0.0
  0
HATCH
  5
129
330
11A
100
AcDbEntity
  8
_U+30EC_U+30A4_U+30E4_U+30FC 1
 62
   179
420
  2234388
100
AcDbHatch
 10
0.0
 20
0.0
 30
0.0
210
0.0
220
0.0
230
1.0
  2
SOLID
 70
     1
 71
     0
 91
        1
 92
        1
 93
        1
 72
     4
 94
        3
 73
     0
 74
     1
 95
       44
 96
       40
 40
0.0
 40
0.0
 40
0.0
 40
0.0
 40
1.0
 40
1.0
 40
1.0
 40
2.0
 40
2.0
 40
2.0
 40
3.0
 40
3.0
 40
3.0
 40
4.0
 40
4.0
 40
4.0
 40
5.0
 40
5.0
 40
5.0
 40
6.0
 40
6.0
 40
6.0
 40
7.0
 40
7.0
 40
7.0
 40
8.0
 40
8.0
 40
8.0
 40
9.0
 40
9.0
 40
9.0
 40
10.0
 40
10.0
 40
10.0
 40
11.0
 40
11.0
 40
11.0
 40
12.0
 40
12.0
 40
12.0
 40
13.0
 40
13.0
 40
13.0
 40
13.0
 10
133.7268934127488
 20
-181.8324842210349
 10
133.8857123146188
 20
-182.0653726758378
 10
133.9597818675517
 20
-182.1649359353615
 10
134.1034423492866
 20
-182.2166123676403
 10
134.1034423492866
 20
-182.2166123676403
 10
134.1034423492866
 20
-181.384966317501
 10
134.1034423492866
 20
-181.384966317501
 10
134.1034423492866
 20
-181.384966317501
 10
134.3087700402075
 20
-181.384966317501
 10
134.3087700402075
 20
-181.384966317501
 10
134.3087700402075
 20
-181.384966317501
 10
134.3087700402075
 20
-182.4836072677472
 10
134.3087700402075
 20
-182.4836072677472
 10
133.9511691288386
 20
-182.4495008224432
 10
133.8729654613234
 20
-182.3795653840926
 10
133.5746201923008
 20
-181.9678764736053
 10
133.3758381828019
 20
-181.6943358920764
 10
133.3079698017424
 20
-181.6244004537259
 10
133.170510491881
 20
-181.6244004537259
 10
133.0519992071884
 20
-181.6244004537259
 10
132.9210855787489
 20
-181.7012260830469
 10
132.9210855787489
 20
-181.9113769076472
 10
132.9210855787489
 20
-182.1897406228553
 10
133.1515624667121
 20
-182.198697871117
 10
133.2680066941136
 20
-182.2031764952478
 10
133.2680066941136
 20
-182.2031764952478
 10
133.2680066941136
 20
-182.4429551410212
 10
133.2680066941136
 20
-182.4429551410212
 10
133.1408826707078
 20
-182.433653383211
 10
133.0289170674372
 20
-182.4226290776582
 10
132.9104057827446
 20
-182.336501690527
 10
132.7495198235835
 20
-182.21902393448
 10
132.715757887828
 20
-182.0202419249811
 10
132.715757887828
 20
-181.895529468415
 10
132.715757887828
 20
-181.5995957662321
 10
132.8997259867403
 20
-181.3780761265305
 10
133.1725775491721
 20
-181.3780761265305
 10
133.4013318893927
 20
-181.3780761265305
 10
133.5005506393679
 20
-181.502444073548
 10
133.7268934127488
 20
-181.8324842210349
 97
        0
 97
        0
 75
     2
 76
     1
 98
        0
  0
ENDBLK
  5
11D
330
11A
100
AcDbEntity
  8
0
100
AcDbBlockEnd
  0
BLOCK
  5
13B
330
139
100
AcDbEntity
  8
0
100
AcDbBlockBegin
  2
block 9
 70
     0
 10
0.0
 20
0.0
 30
0.0
  3
block 9
  1

  0
SPLINE
  5
13D
330
139
100
AcDbEntity
  8
_U+30EC_U+30A4_U+30E4_U+30FC 1
370
     0
100
AcDbSpline
210
0.0
220
0.0
230
1.0
 70
    11
 71
     3
 72
    62
 73
    58
 74
     0
 42
0.0000000001
 43
0.0000000001
 12
1.0
 22
0.0
 32
0.0
 13
1.0
 23
0.0
 33
0.0
 40
0.0
 40
0.0
 40
0.0
 40
0.0
 40
1.0
 40
1.0
 40
1.0
 40
2.0
 40
2.0
 40
2.0
 40
3.0
 40
3.0
 40
3.0
 40
4.0
 40
4.0
 40
4.0
 40
5.0
 40
5.0
 40
5.0
 40
6.0
 40
6.0
 40
6.0
 40
7.0
 40
7.0
 40
7.0
 40
8.0
 40
8.0
 40
8.0
 40
9.0
 40
9.0
 40
9.0
 40
10.0
 40
10.0
 40
10.0
 40
11.0
 40
11.0
 40
11.0
 40
12.0
 40
12.0
 40
12.0
 40
13.0
 40
13.0
 40
13.0
 40
14.0
 40
14.0
 40
14.0
 40
15.0
 40
15.0
 40
15.0
 40
16.0
 40
16.0
 40
16.0
 40
17.0
 40
17.0
 40
17.0
 40
18.0
 40
18.0
 40
18.0
 40
19.0
 40
19.0
 40
19.0
 40
19.0
 10
86.40282251529166
 20
-105.5894205465193
 30
0.0
 10
86.40282251529166
 20
-105.6846774366865
 30
0.0
 10
86.38180743283164
 20
-105.9025797261285
 30
0.0
 10
86.19577227662815
 20
-106.0272921826946
 30
0.0
 10
86.083462163809
 20
-106.1013617356274
 30
0.0
 10
85.98424341383381
 20
-106.105668104984
 30
0.0
 10
85.89949406489666
 20
-106.1098022195663
 30
0.0
 10
85.89949406489666
 20
-106.1098022195663
 30
0.0
 10
85.89949406489666
 20
-105.8898328728331
 30
0.0
 10
85.89949406489666
 20
-105.8898328728331
 30
0.0
 10
85.97356361782953
 20
-105.887765815542
 30
0.0
 10
86.20817462037505
 20
-105.8770860195377
 30
0.0
 10
86.20817462037505
 20
-105.5935546611016
 30
0.0
 10
86.20817462037505
 20
-105.4560953512402
 30
0.0
 10
86.138583691573
 20
-105.3038221307921
 30
0.0
 10
85.91017386090093
 20
-105.3038221307921
 30
0.0
 10
85.79372963349948
 20
-105.3038221307921
 30
0.0
 10
85.74515378715746
 20
-105.3418904359041
 30
0.0
 10
85.71345890869317
 20
-105.3735853143684
 30
0.0
 10
85.6393893557603
 20
-105.4476548673013
 30
0.0
 10
85.62664250246488
 20
-105.5640990947027
 30
0.0
 10
85.62664250246488
 20
-105.6190483676925
 30
0.0
 10
85.62664250246488
 20
-105.6379963928613
 30
0.0
 10
85.62870955975602
 20
-105.6739976406822
 30
0.0
 10
85.63284367433832
 20
-105.7015584045642
 30
0.0
 10
85.63284367433832
 20
-105.7015584045642
 30
0.0
 10
85.4381957794217
 20
-105.7015584045642
 30
0.0
 10
85.4381957794217
 20
-105.7015584045642
 30
0.0
 10
85.44474146084367
 20
-105.6634900994522
 30
0.0
 10
85.44680851813483
 20
-105.6211154249836
 30
0.0
 10
85.44680851813483
 20
-105.6147419983359
 30
0.0
 10
85.44680851813483
 20
-105.5492851841162
 30
0.0
 10
85.42544892612628
 20
-105.350330919843
 30
0.0
 10
85.18877086628962
 20
-105.350330919843
 30
0.0
 10
85.01100393925073
 20
-105.350330919843
 30
0.0
 10
84.95588241148673
 20
-105.481589057831
 30
0.0
 10
84.95588241148673
 20
-105.5914876038105
 30
0.0
 10
84.95588241148673
 20
-105.8558986823034
 30
0.0
 10
85.18877086628962
 20
-105.8643391662423
 30
0.0
 10
85.26042885238282
 20
-105.8686455355988
 30
0.0
 10
85.26042885238282
 20
-105.8686455355988
 30
0.0
 10
85.26042885238282
 20
-106.0717339144543
 30
0.0
 10
85.26042885238282
 20
-106.0717339144543
 30
0.0
 10
85.13571639581677
 20
-106.0632934305154
 30
0.0
 10
84.75916745927896
 20
-106.0357326666334
 30
0.0
 10
84.75916745927896
 20
-105.5789130052893
 30
0.0
 10
84.75916745927896
 20
-105.3546372891995
 30
0.0
 10
84.88629148268468
 20
-105.1134806052321
 30
0.0
 10
85.18222518486765
 20
-105.1134806052321
 30
0.0
 10
85.36860485061966
 20
-105.1134806052321
 30
0.0
 10
85.45094263271713
 20
-105.2085652406249
 30
0.0
 10
85.51226533235457
 20
-105.3081285001487
 30
0.0
 10
85.53982609623658
 20
-105.246633545737
 30
0.0
 10
85.62009682104289
 20
-105.0647325041158
 30
0.0
 10
85.89742700760551
 20
-105.0647325041158
 30
0.0
 10
86.23573538425704
 20
-105.0647325041158
 30
0.0
 10
86.40282251529166
 20
-105.312262614731
 30
0.0
 10
86.40282251529166
 20
-105.5894205465193
 30
0.0
  0
HATCH
  5
13E
330
139
100
AcDbEntity
  8
_U+30EC_U+30A4_U+30E4_U+30FC 1
 62
   179
420
  2234388
100
AcDbHatch
 10
0.0
 20
0.0
 30
0.0
210
0.0
220
0.0
230
1.0
  2
SOLID
 70
     1
 71
     0
 91
        1
 92
        1
 93
        1
 72
     4
 94
        3
 73
     0
 74
     1
 95
       62
 96
       58
 40
0.0
 40
0.0
 40
0.0
 40
0.0
 40
1.0
 40
1.0
 40
1.0
 40
2.0
 40
2.0
 40
2.0
 40
3.0
 40
3.0
 40
3.0
 40
4.0
 40
4.0
 40
4.0
 40
5.0
 40
5.0
 40
5.0
 40
6.0
 40
6.0
 40
6.0
 40
7.0
 40
7.0
 40
7.0
 40
8.0
 40
8.0
 40
8.0
 40
9.0
 40
9.0
 40
9.0
 40
10.0
 40
10.0
 40
10.0
 40
11.0
 40
11.0
 40
11.0
 40
12.0
 40
12.0
 40
12.0
 40
13.0
 40
13.0
 40
13.0
 40
14.0
 40
14.0
 40
14.0
 40
15.0
 40
15.0
 40
15.0
 40
16.0
 40
16.0
 40
16.0
 40
17.0
 40
17.0
 40
17.0
 40
18.0
 40
18.0
 40
18.0
 40
19.0
 40
19.0
 40
19.0
 40
19.0
 10
86.40282251529166
 20
-105.5894205465193
 10
86.40282251529166
 20
-105.6846774366865
 10
86.38180743283164
 20
-105.9025797261285
 10
86.19577227662815
 20
-106.0272921826946
 10
86.083462163809
 20
-106.1013617356274
 10
85.98424341383381
 20
-106.105668104984
 10
85.89949406489666
 20
-106.1098022195663
 10
85.89949406489666
 20
-106.1098022195663
 10
85.89949406489666
 20
-105.8898328728331
 10
85.89949406489666
 20
-105.8898328728331
 10
85.97356361782953
 20
-105.887765815542
 10
86.20817462037505
 20
-105.8770860195377
 10
86.20817462037505
 20
-105.5935546611016
 10
86.20817462037505
 20
-105.4560953512402
 10
86.138583691573
 20
-105.3038221307921
 10
85.91017386090093
 20
-105.3038221307921
 10
85.79372963349948
 20
-105.3038221307921
 10
85.74515378715746
 20
-105.3418904359041
 10
85.71345890869317
 20
-105.3735853143684
 10
85.6393893557603
 20
-105.4476548673013
 10
85.62664250246488
 20
-105.5640990947027
 10
85.62664250246488
 20
-105.6190483676925
 10
85.62664250246488
 20
-105.6379963928613
 10
85.62870955975602
 20
-105.6739976406822
 10
85.63284367433832
 20
-105.7015584045642
 10
85.63284367433832
 20
-105.7015584045642
 10
85.4381957794217
 20
-105.7015584045642
 10
85.4381957794217
 20
-105.7015584045642
 10
85.44474146084367
 20
-105.6634900994522
 10
85.44680851813483
 20
-105.6211154249836
 10
85.44680851813483
 20
-105.6147419983359
 10
85.44680851813483
 20
-105.5492851841162
 10
85.42544892612628
 20
-105.350330919843
 10
85.18877086628962
 20
-105.350330919843
 10
85.01100393925073
 20
-105.350330919843
 10
84.95588241148673
 20
-105.481589057831
 10
84.95588241148673
 20
-105.5914876038105
 10
84.95588241148673
 20
-105.8558986823034
 10
85.18877086628962
 20
-105.8643391662423
 10
85.26042885238282
 20
-105.8686455355988
 10
85.26042885238282
 20
-105.8686455355988
 10
85.26042885238282
 20
-106.0717339144543
 10
85.26042885238282
 20
-106.0717339144543
 10
85.13571639581677
 20
-106.0632934305154
 10
84.75916745927896
 20
-106.0357326666334
 10
84.75916745927896
 20
-105.5789130052893
 10
84.75916745927896
 20
-105.3546372891995
 10
84.88629148268468
 20
-105.1134806052321
 10
85.18222518486765
 20
-105.1134806052321
 10
85.36860485061966
 20
-105.1134806052321
 10
85.45094263271713
 20
-105.2085652406249
 10
85.51226533235457
 20
-105.3081285001487
 10
85.53982609623658
 20
-105.246633545737
 10
85.62009682104289
 20
-105.0647325041158
 10
85.89742700760551
 20
-105.0647325041158
 10
86.23573538425704
 20
-105.0647325041158
 10
86.40282251529166
 20
-105.312262614731
 10
86.40282251529166
 20
-105.5894205465193
 97
        0
 97
        0
 75
     2
 76
     1
 98
        0
  0
ENDBLK
  5
13C
330
139
100
AcDbEntity
  8
0
100
AcDbBlockEnd
  0
ENDSEC
  0
SECTION
  2
ENTITIES
  0
SPLINE
  5
41
330
1F
100
AcDbEntity
  8
_U+30EC_U+30A4_U+30E4_U+30FC 1
370
     0
100
AcDbSpline
210
0.0
220
0.0
230
1.0
 70
    11
 71
     3
 72
    71
 73
    67
 74
     0
 42
0.0000000001
 43
0.0000000001
 12
1.0
 22
0.0
 32
0.0
 13
1.0
 23
0.0
 33
0.0
 40
0.0
 40
0.0
 40
0.0
 40
0.0
 40
1.0
 40
1.0
 40
1.0
 40
2.0
 40
2.0
 40
2.0
 40
3.0
 40
3.0
 40
3.0
 40
4.0
 40
4.0
 40
4.0
 40
5.0
 40
5.0
 40
5.0
 40
6.0
 40
6.0
 40
6.0
 40
7.0
 40
7.0
 40
7.0
 40
8.0
 40
8.0
 40
8.0
 40
9.0
 40
9.0
 40
9.0
 40
10.0
 40
10.0
 40
10.0
 40
11.0
 40
11.0
 40
11.0
 40
12.0
 40
12.0
 40
12.0
 40
13.0
 40
13.0
 40
13.0
 40
14.0
 40
14.0
 40
14.0
 40
15.0
 40
15.0
 40
15.0
 40
16.0
 40
16.0
 40
16.0
 40
17.0
 40
17.0
 40
17.0
 40
18.0
 40
18.0
 40
18.0
 40
19.0
 40
19.0
 40
19.0
 40
20.0
 40
20.0
 40
20.0
 40
21.0
 40
21.0
 40
21.0
 40
22.0
 40
22.0
 40
22.0
 40
22.0
 10
81.85474472118807
 20
-107.0777986894578
 30
0.0
 10
81.85474472118807
 20
-107.0777986894578
 30
0.0
 10
83.35440286035987
 20
-107.0777986894578
 30
0.0
 10
83.35440286035987
 20
-107.0777986894578
 30
0.0
 10
83.35440286035987
 20
-107.0777986894578
 30
0.0
 10
83.35440286035987
 20
-104.5780158735137
 30
0.0
 10
83.35440286035987
 20
-104.5780158735137
 30
0.0
 10
83.35440286035987
 20
-104.5780158735137
 30
0.0
 10
83.35369500089688
 20
-104.078132518604
 30
0.0
 10
82.14966642657224
 20
-104.078132518604
 30
0.0
 10
80.94598774475782
 20
-104.078132518604
 30
0.0
 10
80.95445514350516
 20
-104.5780158735137
 30
0.0
 10
80.95445514350516
 20
-104.5780158735137
 30
0.0
 10
80.95445514350516
 20
-104.5780158735137
 30
0.0
 10
80.95445514350516
 20
-199.0780077966389
 30
0.0
 10
80.95445514350516
 20
-199.0780077966389
 30
0.0
 10
80.95445514350516
 20
-199.0780077966389
 30
0.0
 10
95.95492034208658
 20
-199.0780077966389
 30
0.0
 10
95.95492034208658
 20
-199.0780077966389
 30
0.0
 10
95.95492034208658
 20
-199.0780077966389
 30
0.0
 10
95.95492034208658
 20
-196.0779863503132
 30
0.0
 10
95.95492034208658
 20
-196.0779863503132
 30
0.0
 10
95.95492034208658
 20
-196.0779863503132
 30
0.0
 10
94.95443769836155
 20
-196.0779863503132
 30
0.0
 10
94.95443769836155
 20
-196.0779863503132
 30
0.0
 10
94.95443769836155
 20
-196.0779863503132
 30
0.0
 10
94.95443769836155
 20
-197.0777584430944
 30
0.0
 10
94.95443769836155
 20
-197.0777584430944
 30
0.0
 10
94.95443769836155
 20
-197.0777584430944
 30
0.0
 10
94.95443769836155
 20
-198.0782410868194
 30
0.0
 10
94.95443769836155
 20
-198.0782410868194
 30
0.0
 10
94.95443769836155
 20
-198.0782410868194
 30
0.0
 10
81.85474472118807
 20
-198.0782410868194
 30
0.0
 10
81.85474472118807
 20
-198.0782410868194
 30
0.0
 10
81.85474472118807
 20
-198.0782410868194
 30
0.0
 10
81.85474472118807
 20
-186.078499811065
 30
0.0
 10
81.85474472118807
 20
-186.078499811065
 30
0.0
 10
81.85474472118807
 20
-186.078499811065
 30
0.0
 10
110.7500659241897
 20
-186.078499811065
 30
0.0
 10
110.7500659241897
 20
-186.078499811065
 30
0.0
 10
110.7500659241897
 20
-186.078499811065
 30
0.0
 10
110.9998299639086
 20
-185.8788296128863
 30
0.0
 10
110.9998299639086
 20
-185.8788296128863
 30
0.0
 10
110.9998299639086
 20
-185.8788296128863
 30
0.0
 10
111.2499492790994
 20
-186.078499811065
 30
0.0
 10
111.2499492790994
 20
-186.078499811065
 30
0.0
 10
111.2499492790994
 20
-186.078499811065
 30
0.0
 10
125.4563118938882
 20
-186.078499811065
 30
0.0
 10
125.4563118938882
 20
-186.078499811065
 30
0.0
 10
125.4563118938882
 20
-186.078499811065
 30
0.0
 10
125.706431209079
 20
-185.8784743374144
 30
0.0
 10
125.706431209079
 20
-185.8784743374144
 30
0.0
 10
125.706431209079
 20
-185.8784743374144
 30
0.0
 10
125.9562006317597
 20
-186.078499811065
 30
0.0
 10
125.9562006317597
 20
-186.078499811065
 30
0.0
 10
125.9562006317597
 20
-186.078499811065
 30
0.0
 10
130.9547058201937
 20
-186.078499811065
 30
0.0
 10
130.9547058201937
 20
-186.078499811065
 30
0.0
 10
130.9547058201937
 20
-186.078499811065
 30
0.0
 10
130.9547058201937
 20
-184.9778348672212
 30
0.0
 10
130.9547058201937
 20
-184.9778348672212
 30
0.0
 10
130.9547058201937
 20
-184.9778348672212
 30
0.0
 10
81.85474472118807
 20
-184.9778348672212
 30
0.0
 10
81.85474472118807
 20
-184.9778348672212
 30
0.0
 10
81.85474472118807
 20
-184.9778348672212
 30
0.0
 10
81.85474472118807
 20
-107.0777986894578
 30
0.0
 10
81.85474472118807
 20
-107.0777986894578
 30
0.0
  0
HATCH
  5
42
330
1F
100
AcDbEntity
  8
_U+30EC_U+30A4_U+30E4_U+30FC 1
 62
     9
420
 13224394
100
AcDbHatch
 10
0.0
 20
0.0
 30
0.0
210
0.0
220
0.0
230
1.0
  2
SOLID
 70
     1
 71
     0
 91
        1
 92
        1
 93
        1
 72
     4
 94
        3
 73
     0
 74
     1
 95
       71
 96
       67
 40
0.0
 40
0.0
 40
0.0
 40
0.0
 40
1.0
 40
1.0
 40
1.0
 40
2.0
 40
2.0
 40
2.0
 40
3.0
 40
3.0
 40
3.0
 40
4.0
 40
4.0
 40
4.0
 40
5.0
 40
5.0
 40
5.0
 40
6.0
 40
6.0
 40
6.0
 40
7.0
 40
7.0
 40
7.0
 40
8.0
 40
8.0
 40
8.0
 40
9.0
 40
9.0
 40
9.0
 40
10.0
 40
10.0
 40
10.0
 40
11.0
 40
11.0
 40
11.0
 40
12.0
 40
12.0
 40
12.0
 40
13.0
 40
13.0
 40
13.0
 40
14.0
 40
14.0
 40
14.0
 40
15.0
 40
15.0
 40
15.0
 40
16.0
 40
16.0
 40
16.0
 40
17.0
 40
17.0
 40
17.0
 40
18.0
 40
18.0
 40
18.0
 40
19.0
 40
19.0
 40
19.0
 40
20.0
 40
20.0
 40
20.0
 40
21.0
 40
21.0
 40
21.0
 40
22.0
 40
22.0
 40
22.0
 40
22.0
 10
81.85474472118807
 20
-107.0777986894578
 10
81.85474472118807
 20
-107.0777986894578
 10
83.35440286035987
 20
-107.0777986894578
 10
83.35440286035987
 20
-107.0777986894578
 10
83.35440286035987
 20
-107.0777986894578
 10
83.35440286035987
 20
-104.5780158735137
 10
83.35440286035987
 20
-104.5780158735137
 10
83.35440286035987
 20
-104.5780158735137
 10
83.35369500089688
 20
-104.078132518604
 10
82.14966642657224
 20
-104.078132518604
 10
80.94598774475782
 20
-104.078132518604
 10
80.95445514350516
 20
-104.5780158735137
 10
80.95445514350516
 20
-104.5780158735137
 10
80.95445514350516
 20
-104.5780158735137
 10
80.95445514350516
 20
-199.0780077966389
 10
80.95445514350516
 20
-199.0780077966389
 10
80.95445514350516
 20
-199.0780077966389
 10
95.95492034208658
 20
-199.0780077966389
 10
95.95492034208658
 20
-199.0780077966389
 10
95.95492034208658
 20
-199.0780077966389
 10
95.95492034208658
 20
-196.0779863503132
 10
95.95492034208658
 20
-196.0779863503132
 10
95.95492034208658
 20
-196.0779863503132
 10
94.95443769836155
 20
-196.0779863503132
 10
94.95443769836155
 20
-196.0779863503132
 10
94.95443769836155
 20
-196.0779863503132
 10
94.95443769836155
 20
-197.0777584430944
 10
94.95443769836155
 20
-197.0777584430944
 10
94.95443769836155
 20
-197.0777584430944
 10
94.95443769836155
 20
-198.0782410868194
 10
94.95443769836155
 20
-198.0782410868194
 10
94.95443769836155
 20
-198.0782410868194
 10
81.85474472118807
 20
-198.0782410868194
 10
81.85474472118807
 20
-198.0782410868194
 10
81.85474472118807
 20
-198.0782410868194
 10
81.85474472118807
 20
-186.078499811065
 10
81.85474472118807
 20
-186.078499811065
 10
81.85474472118807
 20
-186.078499811065
 10
110.7500659241897
 20
-186.078499811065
 10
110.7500659241897
 20
-186.078499811065
 10
110.7500659241897
 20
-186.078499811065
 10
110.9998299639086
 20
-185.8788296128863
 10
110.9998299639086
 20
-185.8788296128863
 10
110.9998299639086
 20
-185.8788296128863
 10
111.2499492790994
 20
-186.078499811065
 10
111.2499492790994
 20
-186.078499811065
 10
111.2499492790994
 20
-186.078499811065
 10
125.4563118938882
 20
-186.078499811065
 10
125.4563118938882
 20
-186.078499811065
 10
125.4563118938882
 20
-186.078499811065
 10
125.706431209079
 20
-185.8784743374144
 10
125.706431209079
 20
-185.8784743374144
 10
125.706431209079
 20
-185.8784743374144
 10
125.9562006317597
 20
-186.078499811065
 10
125.9562006317597
 20
-186.078499811065
 10
125.9562006317597
 20
-186.078499811065
 10
130.9547058201937
 20
-186.078499811065
 10
130.9547058201937
 20
-186.078499811065
 10
130.9547058201937
 20
-186.078499811065
 10
130.9547058201937
 20
-184.9778348672212
 10
130.9547058201937
 20
-184.9778348672212
 10
130.9547058201937
 20
-184.9778348672212
 10
81.85474472118807
 20
-184.9778348672212
 10
81.85474472118807
 20
-184.9778348672212
 10
81.85474472118807
 20
-184.9778348672212
 10
81.85474472118807
 20
-107.0777986894578
 10
81.85474472118807
 20
-107.0777986894578
 97
        0
 97
        0
 75
     2
 76
     1
 98
        0
  0
POLYLINE
  5
43
330
1F
100
AcDbEntity
  8
_U+30EC_U+30A4_U+30E4_U+30FC 1
 62
   179
420
  2234388
370
    25
100
AcDb2dPolyline
 66
     1
 10
0.0
 20
0.0
 30
0.0
  0
VERTEX
  5
44
330
43
100
AcDbEntity
  8
_U+30EC_U+30A4_U+30E4_U+30FC 1
 62
   179
420
  2234388
370
    25
100
AcDbVertex
100
AcDb2dVertex
 10
81.85474472118807
 20
-186.078677448801
 30
0.0
  0
VERTEX
  5
45
330
43
100
AcDbEntity
  8
_U+30EC_U+30A4_U+30E4_U+30FC 1
 62
   179
420
  2234388
370
    25
100
AcDbVertex
100
AcDb2dVertex
 10
110.6174189820841
 20
-186.078677448801
 30
0.0
  0
VERTEX
  5
46
330
43
100
AcDbEntity
  8
_U+30EC_U+30A4_U+30E4_U+30FC 1
 62
   179
420
  2234388
370
    25
100
AcDbVertex
100
AcDb2dVertex
 10
110.9998299639086
 20
-185.8790072506223
 30
0.0
  0
VERTEX
  5
47
330
43
100
AcDbEntity
  8
_U+30EC_U+30A4_U+30E4_U+30FC 1
 62
   179
420
  2234388
370
    25
100
AcDbVertex
100
AcDb2dVertex
 10
111.3825962212049
 20
-186.078677448801
 30
0.0
  0
VERTEX
  5
48
330
43
100
AcDbEntity
  8
_U+30EC_U+30A4_U+30E4_U+30FC 1
 62
   179
420
  2234388
370
    25
100
AcDbVertex
100
AcDb2dVertex
 10
130.9547058201937
 20
-186.078677448801
 30
0.0
  0
SEQEND
  5
49
330
43
100
AcDbEntity
  8
_U+30EC_U+30A4_U+30E4_U+30FC 1
 62
   179
420
  2234388
370
    25
  0
POLYLINE
  5
4A
330
1F
100
AcDbEntity
  8
_U+30EC_U+30A4_U+30E4_U+30FC 1
 62
   179
420
  2234388
370
    25
100
AcDb2dPolyline
 66
     1
 10
0.0
 20
0.0
 30
0.0
  0
VERTEX
  5
4B
330
4A
100
AcDbEntity
  8
_U+30EC_U+30A4_U+30E4_U+30FC 1
 62
   179
420
  2234388
370
    25
100
AcDbVertex
100
AcDb2dVertex
 10
94.95455074055715
 20
-196.0784116042872
 30
0.0
  0
VERTEX
  5
4C
330
4A
100
AcDbEntity
  8
_U+30EC_U+30A4_U+30E4_U+30FC 1
 62
   179
420
  2234388
370
    25
100
AcDbVertex
100
AcDb2dVertex
 10
95.95502800132049
 20
-196.0784116042872
 30
0.0
  0
SEQEND
  5
4D
330
4A
100
AcDbEntity
  8
_U+30EC_U+30A4_U+30E4_U+30FC 1
 62
   179
420
  2234388
370
    25
  0
POLYLINE
  5
4E
330
1F
100
AcDbEntity
  8
_U+30EC_U+30A4_U+30E4_U+30FC 1
 62
   179
420
  2234388
370
    25
100
AcDb2dPolyline
 66
     1
 10
0.0
 20
0.0
 30
0.0
  0
VERTEX
  5
4F
330
4E
100
AcDbEntity
  8
_U+30EC_U+30A4_U+30E4_U+30FC 1
 62
   179
420
  2234388
370
    25
100
AcDbVertex
100
AcDb2dVertex
 10
80.95452781348804
 20
-199.0784007528427
 30
0.0
  0
VERTEX
  5
50
330
4E
100
AcDbEntity
  8
_U+30EC_U+30A4_U+30E4_U+30FC 1
 62
   179
420
  2234388
370
    25
100
AcDbVertex
100
AcDb2dVertex
 10
95.95499032058862
 20
-199.0784007528427
 30
0.0
  0
SEQEND
  5
51
330
4E
100
AcDbEntity
  8
_U+30EC_U+30A4_U+30E4_U+30FC 1
 62
   179
420
  2234388
370
    25
  0
POLYLINE
  5
52
330
1F
100
AcDbEntity
  8
_U+30EC_U+30A4_U+30E4_U+30FC 1
 62
   179
420
  2234388
370
    25
100
AcDb2dPolyline
 66
     1
 10
0.0
 20
0.0
 30
0.0
  0
VERTEX
  5
53
330
52
100
AcDbEntity
  8
_U+30EC_U+30A4_U+30E4_U+30FC 1
 62
   179
420
  2234388
370
    25
100
AcDbVertex
100
AcDb2dVertex
 10
80.95452781348804
 20
-104.5780481712839
 30
0.0
  0
VERTEX
  5
54
330
52
100
AcDbEntity
  8
_U+30EC_U+30A4_U+30E4_U+30FC 1
 62
   179
420
  2234388
370
    25
100
AcDbVertex
100
AcDb2dVertex
 10
80.95452781348804
 20
-199.078395369881
 30
0.0
  0
SEQEND
  5
55
330
52
100
AcDbEntity
  8
_U+30EC_U+30A4_U+30E4_U+30FC 1
 62
   179
420
  2234388
370
    25
  0
POLYLINE
  5
56
330
1F
100
AcDbEntity
  8
_U+30EC_U+30A4_U+30E4_U+30FC 1
 62
   179
420
  2234388
370
    25
100
AcDb2dPolyline
 66
     1
 10
0.0
 20
0.0
 30
0.0
  0
VERTEX
  5
57
330
56
100
AcDbEntity
  8
_U+30EC_U+30A4_U+30E4_U+30FC 1
 62
   179
420
  2234388
370
    25
100
AcDbVertex
100
AcDb2dVertex
 10
130.9546035439215
 20
-184.9779425264552
 30
0.0
  0
VERTEX
  5
58
330
56
100
AcDbEntity
  8
_U+30EC_U+30A4_U+30E4_U+30FC 1
 62
   179
420
  2234388
370
    25
100
AcDbVertex
100
AcDb2dVertex
 10
130.9546035439215
 20
-186.0786128532606
 30
0.0
  0
SEQEND
  5
59
330
56
100
AcDbEntity
  8
_U+30EC_U+30A4_U+30E4_U+30FC 1
 62
   179
420
  2234388
370
    25
  0
POLYLINE
  5
5A
330
1F
100
AcDbEntity
  8
_U+30EC_U+30A4_U+30E4_U+30FC 1
 62
   179
420
  2234388
370
    25
100
AcDb2dPolyline
 66
     1
 10
0.0
 20
0.0
 30
0.0
  0
VERTEX
  5
5B
330
5A
100
AcDbEntity
  8
_U+30EC_U+30A4_U+30E4_U+30FC 1
 62
   179
420
  2234388
370
    25
100
AcDbVertex
100
AcDb2dVertex
 10
83.35440286035987
 20
-104.5780481712839
 30
0.0
  0
VERTEX
  5
5C
330
5A
100
AcDbEntity
  8
_U+30EC_U+30A4_U+30E4_U+30FC 1
 62
   179
420
  2234388
370
    25
100
AcDbVertex
100
AcDb2dVertex
 10
83.35440286035987
 20
-107.0778417531513
 30
0.0
  0
SEQEND
  5
5D
330
5A
100
AcDbEntity
  8
_U+30EC_U+30A4_U+30E4_U+30FC 1
 62
   179
420
  2234388
370
    25
  0
POLYLINE
  5
5E
330
1F
100
AcDbEntity
  8
_U+30EC_U+30A4_U+30E4_U+30FC 1
 62
   179
420
  2234388
370
    25
100
AcDb2dPolyline
 66
     1
 10
0.0
 20
0.0
 30
0.0
  0
VERTEX
  5
5F
330
5E
100
AcDbEntity
  8
_U+30EC_U+30A4_U+30E4_U+30FC 1
 62
   179
420
  2234388
370
    25
100
AcDbVertex
100
AcDb2dVertex
 10
81.85474472118807
 20
-107.0777986894578
 30
0.0
  0
VERTEX
  5
60
330
5E
100
AcDbEntity
  8
_U+30EC_U+30A4_U+30E4_U+30FC 1
 62
   179
420
  2234388
370
    25
100
AcDbVertex
100
AcDb2dVertex
 10
83.35440286035987
 20
-107.0777986894578
 30
0.0
  0
SEQEND
  5
61
330
5E
100
AcDbEntity
  8
_U+30EC_U+30A4_U+30E4_U+30FC 1
 62
   179
420
  2234388
370
    25
  0
POLYLINE
  5
62
330
1F
100
AcDbEntity
  8
_U+30EC_U+30A4_U+30E4_U+30FC 1
 62
   179
420
  2234388
370
    25
100
AcDb2dPolyline
 66
     1
 10
0.0
 20
0.0
 30
0.0
  0
VERTEX
  5
63
330
62
100
AcDbEntity
  8
_U+30EC_U+30A4_U+30E4_U+30FC 1
 62
   179
420
  2234388
370
    25
100
AcDbVertex
100
AcDb2dVertex
 10
95.95499032058862
 20
-196.0784116042872
 30
0.0
  0
VERTEX
  5
64
330
62
100
AcDbEntity
  8
_U+30EC_U+30A4_U+30E4_U+30FC 1
 62
   179
420
  2234388
370
    25
100
AcDbVertex
100
AcDb2dVertex
 10
95.95499032058862
 20
-199.0784384335746
 30
0.0
  0
SEQEND
  5
65
330
62
100
AcDbEntity
  8
_U+30EC_U+30A4_U+30E4_U+30FC 1
 62
   179
420
  2234388
370
    25
  0
POLYLINE
  5
66
330
1F
100
AcDbEntity
  8
_U+30EC_U+30A4_U+30E4_U+30FC 1
 62
   179
420
  2234388
370
    25
100
AcDb2dPolyline
 66
     1
 10
0.0
 20
0.0
 30
0.0
  0
VERTEX
  5
67
330
66
100
AcDbEntity
  8
_U+30EC_U+30A4_U+30E4_U+30FC 1
 62
   179
420
  2234388
370
    25
100
AcDbVertex
100
AcDb2dVertex
 10
81.85474472118807
 20
-198.0786286600615
 30
0.0
  0
VERTEX
  5
68
330
66
100
AcDbEntity
  8
_U+30EC_U+30A4_U+30E4_U+30FC 1
 62
   179
420
  2234388
370
    25
100
AcDbVertex
100
AcDb2dVertex
 10
94.95443769836155
 20
-198.0786286600615
 30
0.0
  0
SEQEND
  5
69
330
66
100
AcDbEntity
  8
_U+30EC_U+30A4_U+30E4_U+30FC 1
 62
   179
420
  2234388
370
    25
  0
POLYLINE
  5
6A
330
1F
100
AcDbEntity
  8
_U+30EC_U+30A4_U+30E4_U+30FC 1
 62
   179
420
  2234388
370
    25
100
AcDb2dPolyline
 66
     1
 10
0.0
 20
0.0
 30
0.0
  0
VERTEX
  5
6B
330
6A
100
AcDbEntity
  8
_U+30EC_U+30A4_U+30E4_U+30FC 1
 62
   179
420
  2234388
370
    25
100
AcDbVertex
100
AcDb2dVertex
 10
94.95455074055715
 20
-196.0780617117769
 30
0.0
  0
VERTEX
  5
6C
330
6A
100
AcDbEntity
  8
_U+30EC_U+30A4_U+30E4_U+30FC 1
 62
   179
420
  2234388
370
    25
100
AcDbVertex
100
AcDb2dVertex
 10
94.95455074055715
 20
-198.0786663407934
 30
0.0
  0
SEQEND
  5
6D
330
6A
100
AcDbEntity
  8
_U+30EC_U+30A4_U+30E4_U+30FC 1
 62
   179
420
  2234388
370
    25
  0
POLYLINE
  5
6E
330
1F
100
AcDbEntity
  8
_U+30EC_U+30A4_U+30E4_U+30FC 1
 62
   179
420
  2234388
370
    25
100
AcDb2dPolyline
 66
     1
 10
0.0
 20
0.0
 30
0.0
  0
VERTEX
  5
6F
330
6E
100
AcDbEntity
  8
_U+30EC_U+30A4_U+30E4_U+30FC 1
 62
   179
420
  2234388
370
    25
100
AcDbVertex
100
AcDb2dVertex
 10
81.85474472118807
 20
-107.0777986894578
 30
0.0
  0
VERTEX
  5
70
330
6E
100
AcDbEntity
  8
_U+30EC_U+30A4_U+30E4_U+30FC 1
 62
   179
420
  2234388
370
    25
100
AcDbVertex
100
AcDb2dVertex
 10
81.85474472118807
 20
-184.9778348672212
 30
0.0
  0
SEQEND
  5
71
330
6E
100
AcDbEntity
  8
_U+30EC_U+30A4_U+30E4_U+30FC 1
 62
   179
420
  2234388
370
    25
  0
POLYLINE
  5
72
330
1F
100
AcDbEntity
  8
_U+30EC_U+30A4_U+30E4_U+30FC 1
 62
   179
420
  2234388
370
    25
100
AcDb2dPolyline
 66
     1
 10
0.0
 20
0.0
 30
0.0
  0
VERTEX
  5
73
330
72
100
AcDbEntity
  8
_U+30EC_U+30A4_U+30E4_U+30FC 1
 62
   179
420
  2234388
370
    25
100
AcDbVertex
100
AcDb2dVertex
 10
81.85474472118807
 20
-184.9779425264552
 30
0.0
  0
VERTEX
  5
74
330
72
100
AcDbEntity
  8
_U+30EC_U+30A4_U+30E4_U+30FC 1
 62
   179
420
  2234388
370
    25
100
AcDbVertex
100
AcDb2dVertex
 10
130.9547058201937
 20
-184.9779425264552
 30
0.0
  0
SEQEND
  5
75
330
72
100
AcDbEntity
  8
_U+30EC_U+30A4_U+30E4_U+30FC 1
 62
   179
420
  2234388
370
    25
  0
POLYLINE
  5
76
330
1F
100
AcDbEntity
  8
_U+30EC_U+30A4_U+30E4_U+30FC 1
 62
   179
420
  2234388
370
    25
100
AcDb2dPolyline
 66
     1
 10
0.0
 20
0.0
 30
0.0
  0
VERTEX
  5
77
330
76
100
AcDbEntity
  8
_U+30EC_U+30A4_U+30E4_U+30FC 1
 62
   179
420
  2234388
370
    25
100
AcDbVertex
100
AcDb2dVertex
 10
81.85474472118807
 20
-186.078677448801
 30
0.0
  0
VERTEX
  5
78
330
76
100
AcDbEntity
  8
_U+30EC_U+30A4_U+30E4_U+30FC 1
 62
   179
420
  2234388
370
    25
100
AcDbVertex
100
AcDb2dVertex
 10
81.85474472118807
 20
-198.0787686170656
 30
0.0
  0
SEQEND
  5
79
330
76
100
AcDbEntity
  8
_U+30EC_U+30A4_U+30E4_U+30FC 1
 62
   179
420
  2234388
370
    25
  0
SPLINE
  5
7A
330
1F
100
AcDbEntity
  8
_U+30EC_U+30A4_U+30E4_U+30FC 1
 62
   179
420
  2234388
370
     9
100
AcDbSpline
210
0.0
220
0.0
230
1.0
 70
    11
 71
     3
 72
    17
 73
    13
 74
     0
 42
0.0000000001
 43
0.0000000001
 12
1.0
 22
0.0
 32
0.0
 13
1.0
 23
0.0
 33
0.0
 40
0.0
 40
0.0
 40
0.0
 40
0.0
 40
1.0
 40
1.0
 40
1.0
 40
2.0
 40
2.0
 40
2.0
 40
3.0
 40
3.0
 40
3.0
 40
4.0
 40
4.0
 40
4.0
 40
4.0
 10
81.05478547507083
 20
-96.07864233370061
 30
0.0
 10
81.05478547507083
 20
-96.02361769924714
 30
0.0
 10
81.00998039339633
 20
-95.97880992609211
 30
0.0
 10
80.95459510050924
 20
-95.97880992609211
 30
0.0
 10
80.89956239161322
 20
-95.97880992609211
 30
0.0
 10
80.85476000141989
 20
-96.02361769924714
 30
0.0
 10
80.85476000141989
 20
-96.07864233370061
 30
0.0
 10
80.85476000141989
 20
-96.13367773407748
 30
0.0
 10
80.89956239161322
 20
-96.17848550723251
 30
0.0
 10
80.95459510050924
 20
-96.17848550723251
 30
0.0
 10
81.00998039339633
 20
-96.17848550723251
 30
0.0
 10
81.05478547507083
 20
-96.13367773407748
 30
0.0
 10
81.05478547507083
 20
-96.07864233370061
 30
0.0
  0
SPLINE
  5
7B
330
1F
100
AcDbEntity
  8
_U+30EC_U+30A4_U+30E4_U+30FC 1
 62
   179
420
  2234388
370
     9
100
AcDbSpline
210
0.0
220
0.0
230
1.0
 70
    11
 71
     3
 72
    17
 73
    13
 74
     0
 42
0.0000000001
 43
0.0000000001
 12
1.0
 22
0.0
 32
0.0
 13
1.0
 23
0.0
 33
0.0
 40
0.0
 40
0.0
 40
0.0
 40
0.0
 40
1.0
 40
1.0
 40
1.0
 40
2.0
 40
2.0
 40
2.0
 40
3.0
 40
3.0
 40
3.0
 40
4.0
 40
4.0
 40
4.0
 40
4.0
 10
81.05478547507083
 20
-100.0784089579991
 30
0.0
 10
81.05478547507083
 20
-100.0233843235456
 30
0.0
 10
81.00998039339633
 20
-99.97857655039056
 30
0.0
 10
80.95459510050924
 20
-99.97857655039056
 30
0.0
 10
80.89956239161322
 20
-99.97857655039056
 30
0.0
 10
80.85476000141989
 20
-100.0233843235456
 30
0.0
 10
80.85476000141989
 20
-100.0784089579991
 30
0.0
 10
80.85476000141989
 20
-100.1341549093201
 30
0.0
 10
80.89956239161322
 20
-100.1789519165514
 30
0.0
 10
80.95459510050924
 20
-100.1789519165514
 30
0.0
 10
81.00998039339633
 20
-100.1789519165514
 30
0.0
 10
81.05478547507083
 20
-100.1341549093201
 30
0.0
 10
81.05478547507083
 20
-100.0784089579991
 30
0.0
  0
SPLINE
  5
7C
330
1F
100
AcDbEntity
  8
_U+30EC_U+30A4_U+30E4_U+30FC 1
 62
   179
420
  2234388
370
     9
100
AcDbSpline
210
0.0
220
0.0
230
1.0
 70
    11
 71
     3
 72
    17
 73
    13
 74
     0
 42
0.0000000001
 43
0.0000000001
 12
1.0
 22
0.0
 32
0.0
 13
1.0
 23
0.0
 33
0.0
 40
0.0
 40
0.0
 40
0.0
 40
0.0
 40
1.0
 40
1.0
 40
1.0
 40
2.0
 40
2.0
 40
2.0
 40
3.0
 40
3.0
 40
3.0
 40
4.0
 40
4.0
 40
4.0
 40
4.0
 10
83.45462822417215
 20
-100.0784089579991
 30
0.0
 10
83.45462822417215
 20
-100.0233843235456
 30
0.0
 10
83.40982314249797
 20
-99.97857655039056
 30
0.0
 10
83.35443784961089
 20
-99.97857655039056
 30
0.0
 10
83.29940514071487
 20
-99.97857655039056
 30
0.0
 10
83.25460275052153
 20
-100.0233843235456
 30
0.0
 10
83.25460275052153
 20
-100.0784089579991
 30
0.0
 10
83.25460275052153
 20
-100.1341549093201
 30
0.0
 10
83.29940514071487
 20
-100.1789519165514
 30
0.0
 10
83.35443784961089
 20
-100.1789519165514
 30
0.0
 10
83.40982314249797
 20
-100.1789519165514
 30
0.0
 10
83.45462822417215
 20
-100.1341549093201
 30
0.0
 10
83.45462822417215
 20
-100.0784089579991
 30
0.0
  0
SPLINE
  5
7D
330
1F
100
AcDbEntity
  8
_U+30EC_U+30A4_U+30E4_U+30FC 1
 62
   179
420
  2234388
370
     9
100
AcDbSpline
210
0.0
220
0.0
230
1.0
 70
    11
 71
     3
 72
    17
 73
    13
 74
     0
 42
0.0000000001
 43
0.0000000001
 12
1.0
 22
0.0
 32
0.0
 13
1.0
 23
0.0
 33
0.0
 40
0.0
 40
0.0
 40
0.0
 40
0.0
 40
1.0
 40
1.0
 40
1.0
 40
2.0
 40
2.0
 40
2.0
 40
3.0
 40
3.0
 40
3.0
 40
4.0
 40
4.0
 40
4.0
 40
4.0
 10
131.0545113129938
 20
-96.07864233370061
 30
0.0
 10
131.0545113129938
 20
-96.02361769924714
 30
0.0
 10
131.0097035398387
 20
-95.97880992609211
 30
0.0
 10
130.9546735224235
 20
-95.97880992609211
 30
0.0
 10
130.8996381220467
 20
-95.97880992609211
 30
0.0
 10
130.8548357318533
 20
-96.02361769924714
 30
0.0
 10
130.8548357318533
 20
-96.07864233370061
 30
0.0
 10
130.8548357318533
 20
-96.13367773407748
 30
0.0
 10
130.8996381220467
 20
-96.17848550723251
 30
0.0
 10
130.9546735224235
 20
-96.17848550723251
 30
0.0
 10
131.0097035398387
 20
-96.17848550723251
 30
0.0
 10
131.0545113129938
 20
-96.13367773407748
 30
0.0
 10
131.0545113129938
 20
-96.07864233370061
 30
0.0
  0
SPLINE
  5
7E
330
1F
100
AcDbEntity
  8
_U+30EC_U+30A4_U+30E4_U+30FC 1
 62
   179
420
  2234388
370
     9
100
AcDbSpline
210
0.0
220
0.0
230
1.0
 70
    11
 71
     3
 72
    17
 73
    13
 74
     0
 42
0.0000000001
 43
0.0000000001
 12
1.0
 22
0.0
 32
0.0
 13
1.0
 23
0.0
 33
0.0
 40
0.0
 40
0.0
 40
0.0
 40
0.0
 40
1.0
 40
1.0
 40
1.0
 40
2.0
 40
2.0
 40
2.0
 40
3.0
 40
3.0
 40
3.0
 40
4.0
 40
4.0
 40
4.0
 40
4.0
 10
135.0542671713688
 20
-186.078677448801
 30
0.0
 10
135.0542671713688
 20
-186.0229422634037
 30
0.0
 10
135.0094593982138
 20
-185.9781398732103
 30
0.0
 10
134.9544239978369
 20
-185.9781398732103
 30
0.0
 10
134.89938859746
 20
-185.9781398732103
 30
0.0
 10
134.8545915902284
 20
-186.0229422634037
 30
0.0
 10
134.8545915902284
 20
-186.078677448801
 30
0.0
 10
134.8545915902284
 20
-186.1337128491778
 30
0.0
 10
134.89938859746
 20
-186.1785152393712
 30
0.0
 10
134.9544239978369
 20
-186.1785152393712
 30
0.0
 10
135.0094593982138
 20
-186.1785152393712
 30
0.0
 10
135.0542671713688
 20
-186.1337128491778
 30
0.0
 10
135.0542671713688
 20
-186.078677448801
 30
0.0
  0
SPLINE
  5
7F
330
1F
100
AcDbEntity
  8
_U+30EC_U+30A4_U+30E4_U+30FC 1
 62
   179
420
  2234388
370
     9
100
AcDbSpline
210
0.0
220
0.0
230
1.0
 70
    11
 71
     3
 72
    17
 73
    13
 74
     0
 42
0.0000000001
 43
0.0000000001
 12
1.0
 22
0.0
 32
0.0
 13
1.0
 23
0.0
 33
0.0
 40
0.0
 40
0.0
 40
0.0
 40
0.0
 40
1.0
 40
1.0
 40
1.0
 40
2.0
 40
2.0
 40
2.0
 40
3.0
 40
3.0
 40
3.0
 40
4.0
 40
4.0
 40
4.0
 40
4.0
 10
135.0542671713688
 20
-184.8787399253651
 30
0.0
 10
135.0542671713688
 20
-184.8230047399678
 30
0.0
 10
135.0094593982138
 20
-184.7782023497744
 30
0.0
 10
134.9544239978369
 20
-184.7782023497744
 30
0.0
 10
134.89938859746
 20
-184.7782023497744
 30
0.0
 10
134.8545915902284
 20
-184.8230047399678
 30
0.0
 10
134.8545915902284
 20
-184.8787399253651
 30
0.0
 10
134.8545915902284
 20
-184.9337753257419
 30
0.0
 10
134.89938859746
 20
-184.9785777159353
 30
0.0
 10
134.9544239978369
 20
-184.9785777159353
 30
0.0
 10
135.0094593982138
 20
-184.9785777159353
 30
0.0
 10
135.0542671713688
 20
-184.9337753257419
 30
0.0
 10
135.0542671713688
 20
-184.8787399253651
 30
0.0
  0
SPLINE
  5
80
330
1F
100
AcDbEntity
  8
_U+30EC_U+30A4_U+30E4_U+30FC 1
 62
   179
420
  2234388
370
     9
100
AcDbSpline
210
0.0
220
0.0
230
1.0
 70
    11
 71
     3
 72
    17
 73
    13
 74
     0
 42
0.0000000001
 43
0.0000000001
 12
1.0
 22
0.0
 32
0.0
 13
1.0
 23
0.0
 33
0.0
 40
0.0
 40
0.0
 40
0.0
 40
0.0
 40
1.0
 40
1.0
 40
1.0
 40
2.0
 40
2.0
 40
2.0
 40
3.0
 40
3.0
 40
3.0
 40
4.0
 40
4.0
 40
4.0
 40
4.0
 10
135.0542671713688
 20
-196.0784116042872
 30
0.0
 10
135.0542671713688
 20
-196.023381586872
 30
0.0
 10
135.0094593982138
 20
-195.9785791966787
 30
0.0
 10
134.9544239978369
 20
-195.9785791966787
 30
0.0
 10
134.89938859746
 20
-195.9785791966787
 30
0.0
 10
134.8545915902284
 20
-196.023381586872
 30
0.0
 10
134.8545915902284
 20
-196.0784116042872
 30
0.0
 10
134.8545915902284
 20
-196.133447004664
 30
0.0
 10
134.89938859746
 20
-196.1782493948573
 30
0.0
 10
134.9544239978369
 20
-196.1782493948573
 30
0.0
 10
135.0094593982138
 20
-196.1782493948573
 30
0.0
 10
135.0542671713688
 20
-196.133447004664
 30
0.0
 10
135.0542671713688
 20
-196.0784116042872
 30
0.0
  0
SPLINE
  5
81
330
1F
100
AcDbEntity
  8
_U+30EC_U+30A4_U+30E4_U+30FC 1
 62
   179
420
  2234388
370
     9
100
AcDbSpline
210
0.0
220
0.0
230
1.0
 70
    11
 71
     3
 72
    17
 73
    13
 74
     0
 42
0.0000000001
 43
0.0000000001
 12
1.0
 22
0.0
 32
0.0
 13
1.0
 23
0.0
 33
0.0
 40
0.0
 40
0.0
 40
0.0
 40
0.0
 40
1.0
 40
1.0
 40
1.0
 40
2.0
 40
2.0
 40
2.0
 40
3.0
 40
3.0
 40
3.0
 40
4.0
 40
4.0
 40
4.0
 40
4.0
 10
135.0542671713688
 20
-199.0784007528427
 30
0.0
 10
135.0542671713688
 20
-199.0233707354275
 30
0.0
 10
135.0094593982138
 20
-198.9785683452342
 30
0.0
 10
134.9544239978369
 20
-198.9785683452342
 30
0.0
 10
134.89938859746
 20
-198.9785683452342
 30
0.0
 10
134.8545915902284
 20
-199.0233707354275
 30
0.0
 10
134.8545915902284
 20
-199.0784007528427
 30
0.0
 10
134.8545915902284
 20
-199.1334361532196
 30
0.0
 10
134.89938859746
 20
-199.1782385434129
 30
0.0
 10
134.9544239978369
 20
-199.1782385434129
 30
0.0
 10
135.0094593982138
 20
-199.1782385434129
 30
0.0
 10
135.0542671713688
 20
-199.1334361532196
 30
0.0
 10
135.0542671713688
 20
-199.0784007528427
 30
0.0
  0
SPLINE
  5
82
330
1F
100
AcDbEntity
  8
_U+30EC_U+30A4_U+30E4_U+30FC 1
 62
   179
420
  2234388
370
     9
100
AcDbSpline
210
0.0
220
0.0
230
1.0
 70
    11
 71
     3
 72
    17
 73
    13
 74
     0
 42
0.0000000001
 43
0.0000000001
 12
1.0
 22
0.0
 32
0.0
 13
1.0
 23
0.0
 33
0.0
 40
0.0
 40
0.0
 40
0.0
 40
0.0
 40
1.0
 40
1.0
 40
1.0
 40
2.0
 40
2.0
 40
2.0
 40
3.0
 40
3.0
 40
3.0
 40
4.0
 40
4.0
 40
4.0
 40
4.0
 10
81.05478547507083
 20
-203.0781566112178
 30
0.0
 10
81.05478547507083
 20
-203.0231265938026
 30
0.0
 10
81.00998039339633
 20
-202.9783242036093
 30
0.0
 10
80.95459510050924
 20
-202.9783242036093
 30
0.0
 10
80.89956239161322
 20
-202.9783242036093
 30
0.0
 10
80.85476000141989
 20
-203.0231265938026
 30
0.0
 10
80.85476000141989
 20
-203.0781566112178
 30
0.0
 10
80.85476000141989
 20
-203.1338971795768
 30
0.0
 10
80.89956239161322
 20
-203.1786995697701
 30
0.0
 10
80.95459510050924
 20
-203.1786995697701
 30
0.0
 10
81.00998039339633
 20
-203.1786995697701
 30
0.0
 10
81.05478547507083
 20
-203.1338971795768
 30
0.0
 10
81.05478547507083
 20
-203.0781566112178
 30
0.0
  0
SPLINE
  5
83
330
1F
100
AcDbEntity
  8
_U+30EC_U+30A4_U+30E4_U+30FC 1
 62
   179
420
  2234388
370
     9
100
AcDbSpline
210
0.0
220
0.0
230
1.0
 70
    11
 71
     3
 72
    17
 73
    13
 74
     0
 42
0.0000000001
 43
0.0000000001
 12
1.0
 22
0.0
 32
0.0
 13
1.0
 23
0.0
 33
0.0
 40
0.0
 40
0.0
 40
0.0
 40
0.0
 40
1.0
 40
1.0
 40
1.0
 40
2.0
 40
2.0
 40
2.0
 40
3.0
 40
3.0
 40
3.0
 40
4.0
 40
4.0
 40
4.0
 40
4.0
 10
96.05489808966087
 20
-203.0781566112178
 30
0.0
 10
96.05489808966087
 20
-203.0231265938026
 30
0.0
 10
96.01009031650584
 20
-202.9783242036093
 30
0.0
 10
95.95506029909066
 20
-202.9783242036093
 30
0.0
 10
95.9000248987138
 20
-202.9783242036093
 30
0.0
 10
95.85522250852047
 20
-203.0231265938026
 30
0.0
 10
95.85522250852047
 20
-203.0781566112178
 30
0.0
 10
95.85522250852047
 20
-203.1338971795768
 30
0.0
 10
95.9000248987138
 20
-203.1786995697701
 30
0.0
 10
95.95506029909066
 20
-203.1786995697701
 30
0.0
 10
96.01009031650584
 20
-203.1786995697701
 30
0.0
 10
96.05489808966087
 20
-203.1338971795768
 30
0.0
 10
96.05489808966087
 20
-203.0781566112178
 30
0.0
  0
SPLINE
  5
84
330
1F
100
AcDbEntity
  8
_U+30EC_U+30A4_U+30E4_U+30FC 1
 62
   179
420
  2234388
370
     9
100
AcDbSpline
210
0.0
220
0.0
230
1.0
 70
    11
 71
     3
 72
    17
 73
    13
 74
     0
 42
0.0000000001
 43
0.0000000001
 12
1.0
 22
0.0
 32
0.0
 13
1.0
 23
0.0
 33
0.0
 40
0.0
 40
0.0
 40
0.0
 40
0.0
 40
1.0
 40
1.0
 40
1.0
 40
2.0
 40
2.0
 40
2.0
 40
3.0
 40
3.0
 40
3.0
 40
4.0
 40
4.0
 40
4.0
 40
4.0
 10
77.05467434122353
 20
-104.0781648163741
 30
0.0
 10
77.05467434122353
 20
-104.0231401819207
 30
0.0
 10
77.00986925954935
 20
-103.9783324087656
 30
0.0
 10
76.95483655065333
 20
-103.9783324087656
 30
0.0
 10
76.89980384175732
 20
-103.9783324087656
 30
0.0
 10
76.85500145156398
 20
-104.0231401819207
 30
0.0
 10
76.85500145156398
 20
-104.0781648163741
 30
0.0
 10
76.85500145156398
 20
-104.133200216751
 30
0.0
 10
76.89980384175732
 20
-104.1780079899063
 30
0.0
 10
76.95483655065333
 20
-104.1780079899063
 30
0.0
 10
77.00986925954935
 20
-104.1780079899063
 30
0.0
 10
77.05467434122353
 20
-104.133200216751
 30
0.0
 10
77.05467434122353
 20
-104.0781648163741
 30
0.0
  0
SPLINE
  5
85
330
1F
100
AcDbEntity
  8
_U+30EC_U+30A4_U+30E4_U+30FC 1
 62
   179
420
  2234388
370
     9
100
AcDbSpline
210
0.0
220
0.0
230
1.0
 70
    11
 71
     3
 72
    17
 73
    13
 74
     0
 42
0.0000000001
 43
0.0000000001
 12
1.0
 22
0.0
 32
0.0
 13
1.0
 23
0.0
 33
0.0
 40
0.0
 40
0.0
 40
0.0
 40
0.0
 40
1.0
 40
1.0
 40
1.0
 40
2.0
 40
2.0
 40
2.0
 40
3.0
 40
3.0
 40
3.0
 40
4.0
 40
4.0
 40
4.0
 40
4.0
 10
77.05467434122353
 20
-199.0784007528427
 30
0.0
 10
77.05467434122353
 20
-199.0233707354275
 30
0.0
 10
77.00986925954935
 20
-198.9785683452342
 30
0.0
 10
76.95483655065333
 20
-198.9785683452342
 30
0.0
 10
76.89980384175732
 20
-198.9785683452342
 30
0.0
 10
76.85500145156398
 20
-199.0233707354275
 30
0.0
 10
76.85500145156398
 20
-199.0784007528427
 30
0.0
 10
76.85500145156398
 20
-199.1334361532196
 30
0.0
 10
76.89980384175732
 20
-199.1782385434129
 30
0.0
 10
76.95483655065333
 20
-199.1782385434129
 30
0.0
 10
77.00986925954935
 20
-199.1782385434129
 30
0.0
 10
77.05467434122353
 20
-199.1334361532196
 30
0.0
 10
77.05467434122353
 20
-199.0784007528427
 30
0.0
  0
POLYLINE
  5
86
330
1F
100
AcDbEntity
  8
_U+30EC_U+30A4_U+30E4_U+30FC 1
 62
   179
420
  2234388
370
     9
100
AcDb2dPolyline
 66
     1
 10
0.0
 20
0.0
 30
0.0
  0
VERTEX
  5
87
330
86
100
AcDbEntity
  8
_U+30EC_U+30A4_U+30E4_U+30FC 1
 62
   179
420
  2234388
370
     9
100
AcDbVertex
100
AcDb2dVertex
 10
134.9543271045264
 20
-196.0784116042872
 30
0.0
  0
VERTEX
  5
88
330
86
100
AcDbEntity
  8
_U+30EC_U+30A4_U+30E4_U+30FC 1
 62
   179
420
  2234388
370
     9
100
AcDbVertex
100
AcDb2dVertex
 10
134.9543271045264
 20
-199.0784384335746
 30
0.0
  0
SEQEND
  5
89
330
86
100
AcDbEntity
  8
_U+30EC_U+30A4_U+30E4_U+30FC 1
 62
   179
420
  2234388
370
     9
  0
POLYLINE
  5
8A
330
1F
100
AcDbEntity
  8
_U+30EC_U+30A4_U+30E4_U+30FC 1
 62
   179
420
  2234388
370
     9
100
AcDb2dPolyline
 66
     1
 10
0.0
 20
0.0
 30
0.0
  0
VERTEX
  5
8B
330
8A
100
AcDbEntity
  8
_U+30EC_U+30A4_U+30E4_U+30FC 1
 62
   179
420
  2234388
370
     9
100
AcDbVertex
100
AcDb2dVertex
 10
98.49474162712328
 20
-196.0784116042872
 30
0.0
  0
VERTEX
  5
8C
330
8A
100
AcDbEntity
  8
_U+30EC_U+30A4_U+30E4_U+30FC 1
 62
   179
420
  2234388
370
     9
100
AcDbVertex
100
AcDb2dVertex
 10
135.9547935993664
 20
-196.0784116042872
 30
0.0
  0
SEQEND
  5
8D
330
8A
100
AcDbEntity
  8
_U+30EC_U+30A4_U+30E4_U+30FC 1
 62
   179
420
  2234388
370
     9
  0
POLYLINE
  5
8E
330
1F
100
AcDbEntity
  8
_U+30EC_U+30A4_U+30E4_U+30FC 1
 62
   179
420
  2234388
370
     9
100
AcDb2dPolyline
 66
     1
 10
0.0
 20
0.0
 30
0.0
  0
VERTEX
  5
8F
330
8E
100
AcDbEntity
  8
_U+30EC_U+30A4_U+30E4_U+30FC 1
 62
   179
420
  2234388
370
     9
100
AcDbVertex
100
AcDb2dVertex
 10
98.49474162712328
 20
-199.0784007528427
 30
0.0
  0
VERTEX
  5
90
330
8E
100
AcDbEntity
  8
_U+30EC_U+30A4_U+30E4_U+30FC 1
 62
   179
420
  2234388
370
     9
100
AcDbVertex
100
AcDb2dVertex
 10
135.9547935993664
 20
-199.0784007528427
 30
0.0
  0
SEQEND
  5
91
330
8E
100
AcDbEntity
  8
_U+30EC_U+30A4_U+30E4_U+30FC 1
 62
   179
420
  2234388
370
     9
  0
INSERT
  5
93
330
1F
100
AcDbEntity
  8
_U+30EC_U+30A4_U+30E4_U+30FC 1
100
AcDbBlockReference
  2
block 2
 10
0.0
 20
0.0
 30
0.0
  0
POLYLINE
  5
98
330
1F
100
AcDbEntity
  8
_U+30EC_U+30A4_U+30E4_U+30FC 1
 62
   179
420
  2234388
370
     9
100
AcDb2dPolyline
 66
     1
 10
0.0
 20
0.0
 30
0.0
  0
VERTEX
  5
99
330
98
100
AcDbEntity
  8
_U+30EC_U+30A4_U+30E4_U+30FC 1
 62
   179
420
  2234388
370
     9
100
AcDbVertex
100
AcDb2dVertex
 10
80.95452781348804
 20
-100.0784089579991
 30
0.0
  0
VERTEX
  5
9A
330
98
100
AcDbEntity
  8
_U+30EC_U+30A4_U+30E4_U+30FC 1
 62
   179
420
  2234388
370
     9
100
AcDbVertex
100
AcDb2dVertex
 10
83.35447283886222
 20
-100.0784089579991
 30
0.0
  0
SEQEND
  5
9B
330
98
100
AcDbEntity
  8
_U+30EC_U+30A4_U+30E4_U+30FC 1
 62
   179
420
  2234388
370
     9
  0
POLYLINE
  5
9C
330
1F
100
AcDbEntity
  8
_U+30EC_U+30A4_U+30E4_U+30FC 1
 62
   179
420
  2234388
370
     9
100
AcDb2dPolyline
 66
     1
 10
0.0
 20
0.0
 30
0.0
  0
VERTEX
  5
9D
330
9C
100
AcDbEntity
  8
_U+30EC_U+30A4_U+30E4_U+30FC 1
 62
   179
420
  2234388
370
     9
100
AcDbVertex
100
AcDb2dVertex
 10
80.95452781348804
 20
-101.5384081268778
 30
0.0
  0
VERTEX
  5
9E
330
9C
100
AcDbEntity
  8
_U+30EC_U+30A4_U+30E4_U+30FC 1
 62
   179
420
  2234388
370
     9
100
AcDbVertex
100
AcDb2dVertex
 10
80.95452781348804
 20
-99.0784915252524
 30
0.0
  0
SEQEND
  5
9F
330
9C
100
AcDbEntity
  8
_U+30EC_U+30A4_U+30E4_U+30FC 1
 62
   179
420
  2234388
370
     9
  0
POLYLINE
  5
A0
330
1F
100
AcDbEntity
  8
_U+30EC_U+30A4_U+30E4_U+30FC 1
 62
   179
420
  2234388
370
     9
100
AcDb2dPolyline
 66
     1
 10
0.0
 20
0.0
 30
0.0
  0
VERTEX
  5
A1
330
A0
100
AcDbEntity
  8
_U+30EC_U+30A4_U+30E4_U+30FC 1
 62
   179
420
  2234388
370
     9
100
AcDbVertex
100
AcDb2dVertex
 10
83.35440286035987
 20
-101.5384081268778
 30
0.0
  0
VERTEX
  5
A2
330
A0
100
AcDbEntity
  8
_U+30EC_U+30A4_U+30E4_U+30FC 1
 62
   179
420
  2234388
370
     9
100
AcDbVertex
100
AcDb2dVertex
 10
83.35440286035987
 20
-99.0784915252524
 30
0.0
  0
SEQEND
  5
A3
330
A0
100
AcDbEntity
  8
_U+30EC_U+30A4_U+30E4_U+30FC 1
 62
   179
420
  2234388
370
     9
  0
INSERT
  5
A5
330
1F
100
AcDbEntity
  8
_U+30EC_U+30A4_U+30E4_U+30FC 1
100
AcDbBlockReference
  2
block 3
 10
0.0
 20
0.0
 30
0.0
  0
POLYLINE
  5
C7
330
1F
100
AcDbEntity
  8
_U+30EC_U+30A4_U+30E4_U+30FC 1
 62
   179
420
  2234388
370
     9
100
AcDb2dPolyline
 66
     1
 10
0.0
 20
0.0
 30
0.0
  0
VERTEX
  5
C8
330
C7
100
AcDbEntity
  8
_U+30EC_U+30A4_U+30E4_U+30FC 1
 62
   179
420
  2234388
370
     9
100
AcDbVertex
100
AcDb2dVertex
 10
80.95452781348804
 20
-96.07864233370061
 30
0.0
  0
VERTEX
  5
C9
330
C7
100
AcDbEntity
  8
_U+30EC_U+30A4_U+30E4_U+30FC 1
 62
   179
420
  2234388
370
     9
100
AcDbVertex
100
AcDb2dVertex
 10
130.9544259061855
 20
-96.07864233370061
 30
0.0
  0
SEQEND
  5
CA
330
C7
100
AcDbEntity
  8
_U+30EC_U+30A4_U+30E4_U+30FC 1
 62
   179
420
  2234388
370
     9
  0
POLYLINE
  5
CB
330
1F
100
AcDbEntity
  8
_U+30EC_U+30A4_U+30E4_U+30FC 1
 62
   179
420
  2234388
370
     9
100
AcDb2dPolyline
 66
     1
 10
0.0
 20
0.0
 30
0.0
  0
VERTEX
  5
CC
330
CB
100
AcDbEntity
  8
_U+30EC_U+30A4_U+30E4_U+30FC 1
 62
   179
420
  2234388
370
     9
100
AcDbVertex
100
AcDb2dVertex
 10
80.95452781348804
 20
-101.5384081268778
 30
0.0
  0
VERTEX
  5
CD
330
CB
100
AcDbEntity
  8
_U+30EC_U+30A4_U+30E4_U+30FC 1
 62
   179
420
  2234388
370
     9
100
AcDbVertex
100
AcDb2dVertex
 10
80.95452781348804
 20
-95.07870336910685
 30
0.0
  0
SEQEND
  5
CE
330
CB
100
AcDbEntity
  8
_U+30EC_U+30A4_U+30E4_U+30FC 1
 62
   179
420
  2234388
370
     9
  0
POLYLINE
  5
CF
330
1F
100
AcDbEntity
  8
_U+30EC_U+30A4_U+30E4_U+30FC 1
 62
   179
420
  2234388
370
     9
100
AcDb2dPolyline
 66
     1
 10
0.0
 20
0.0
 30
0.0
  0
VERTEX
  5
D0
330
CF
100
AcDbEntity
  8
_U+30EC_U+30A4_U+30E4_U+30FC 1
 62
   179
420
  2234388
370
     9
100
AcDbVertex
100
AcDb2dVertex
 10
130.9546035439215
 20
-183.5075973051973
 30
0.0
  0
VERTEX
  5
D1
330
CF
100
AcDbEntity
  8
_U+30EC_U+30A4_U+30E4_U+30FC 1
 62
   179
420
  2234388
370
     9
100
AcDbVertex
100
AcDb2dVertex
 10
130.9546035439215
 20
-95.07856341210308
 30
0.0
  0
SEQEND
  5
D2
330
CF
100
AcDbEntity
  8
_U+30EC_U+30A4_U+30E4_U+30FC 1
 62
   179
420
  2234388
370
     9
  0
INSERT
  5
D4
330
1F
100
AcDbEntity
  8
_U+30EC_U+30A4_U+30E4_U+30FC 1
100
AcDbBlockReference
  2
block 4
 10
0.0
 20
0.0
 30
0.0
  0
POLYLINE
  5
DC
330
1F
100
AcDbEntity
  8
_U+30EC_U+30A4_U+30E4_U+30FC 1
 62
   179
420
  2234388
370
     9
100
AcDb2dPolyline
 66
     1
 10
0.0
 20
0.0
 30
0.0
  0
VERTEX
  5
DD
330
DC
100
AcDbEntity
  8
_U+30EC_U+30A4_U+30E4_U+30FC 1
 62
   179
420
  2234388
370
     9
100
AcDbVertex
100
AcDb2dVertex
 10
80.95452781348804
 20
-203.0781566112178
 30
0.0
  0
VERTEX
  5
DE
330
DC
100
AcDbEntity
  8
_U+30EC_U+30A4_U+30E4_U+30FC 1
 62
   179
420
  2234388
370
     9
100
AcDbVertex
100
AcDb2dVertex
 10
95.95499032058862
 20
-203.0781566112178
 30
0.0
  0
SEQEND
  5
DF
330
DC
100
AcDbEntity
  8
_U+30EC_U+30A4_U+30E4_U+30FC 1
 62
   179
420
  2234388
370
     9
  0
POLYLINE
  5
E0
330
1F
100
AcDbEntity
  8
_U+30EC_U+30A4_U+30E4_U+30FC 1
 62
   179
420
  2234388
370
     9
100
AcDb2dPolyline
 66
     1
 10
0.0
 20
0.0
 30
0.0
  0
VERTEX
  5
E1
330
E0
100
AcDbEntity
  8
_U+30EC_U+30A4_U+30E4_U+30FC 1
 62
   179
420
  2234388
370
     9
100
AcDbVertex
100
AcDb2dVertex
 10
80.95452781348804
 20
-201.6181143786455
 30
0.0
  0
VERTEX
  5
E2
330
E0
100
AcDbEntity
  8
_U+30EC_U+30A4_U+30E4_U+30FC 1
 62
   179
420
  2234388
370
     9
100
AcDbVertex
100
AcDb2dVertex
 10
80.95452781348804
 20
-204.078741531215
 30
0.0
  0
SEQEND
  5
E3
330
E0
100
AcDbEntity
  8
_U+30EC_U+30A4_U+30E4_U+30FC 1
 62
   179
420
  2234388
370
     9
  0
POLYLINE
  5
E4
330
1F
100
AcDbEntity
  8
_U+30EC_U+30A4_U+30E4_U+30FC 1
 62
   179
420
  2234388
370
     9
100
AcDb2dPolyline
 66
     1
 10
0.0
 20
0.0
 30
0.0
  0
VERTEX
  5
E5
330
E4
100
AcDbEntity
  8
_U+30EC_U+30A4_U+30E4_U+30FC 1
 62
   179
420
  2234388
370
     9
100
AcDbVertex
100
AcDb2dVertex
 10
95.95499032058862
 20
-201.6181143786455
 30
0.0
  0
VERTEX
  5
E6
330
E4
100
AcDbEntity
  8
_U+30EC_U+30A4_U+30E4_U+30FC 1
 62
   179
420
  2234388
370
     9
100
AcDbVertex
100
AcDb2dVertex
 10
95.95499032058862
 20
-204.078741531215
 30
0.0
  0
SEQEND
  5
E7
330
E4
100
AcDbEntity
  8
_U+30EC_U+30A4_U+30E4_U+30FC 1
 62
   179
420
  2234388
370
     9
  0
INSERT
  5
E9
330
1F
100
AcDbEntity
  8
_U+30EC_U+30A4_U+30E4_U+30FC 1
100
AcDbBlockReference
  2
block 5
 10
0.0
 20
0.0
 30
0.0
  0
POLYLINE
  5
F0
330
1F
100
AcDbEntity
  8
_U+30EC_U+30A4_U+30E4_U+30FC 1
 62
   179
420
  2234388
370
     9
100
AcDb2dPolyline
 66
     1
 10
0.0
 20
0.0
 30
0.0
  0
VERTEX
  5
F1
330
F0
100
AcDbEntity
  8
_U+30EC_U+30A4_U+30E4_U+30FC 1
 62
   179
420
  2234388
370
     9
100
AcDbVertex
100
AcDb2dVertex
 10
76.95476926363213
 20
-104.0781648163741
 30
0.0
  0
VERTEX
  5
F2
330
F0
100
AcDbEntity
  8
_U+30EC_U+30A4_U+30E4_U+30FC 1
 62
   179
420
  2234388
370
     9
100
AcDbVertex
100
AcDb2dVertex
 10
76.95476926363213
 20
-199.078395369881
 30
0.0
  0
SEQEND
  5
F3
330
F0
100
AcDbEntity
  8
_U+30EC_U+30A4_U+30E4_U+30FC 1
 62
   179
420
  2234388
370
     9
  0
POLYLINE
  5
F4
330
1F
100
AcDbEntity
  8
_U+30EC_U+30A4_U+30E4_U+30FC 1
 62
   179
420
  2234388
370
     9
100
AcDb2dPolyline
 66
     1
 10
0.0
 20
0.0
 30
0.0
  0
VERTEX
  5
F5
330
F4
100
AcDbEntity
  8
_U+30EC_U+30A4_U+30E4_U+30FC 1
 62
   179
420
  2234388
370
     9
100
AcDbVertex
100
AcDb2dVertex
 10
78.41480880472388
 20
-104.0781648163741
 30
0.0
  0
VERTEX
  5
F6
330
F4
100
AcDbEntity
  8
_U+30EC_U+30A4_U+30E4_U+30FC 1
 62
   179
420
  2234388
370
     9
100
AcDbVertex
100
AcDb2dVertex
 10
75.95453423614511
 20
-104.0781648163741
 30
0.0
  0
SEQEND
  5
F7
330
F4
100
AcDbEntity
  8
_U+30EC_U+30A4_U+30E4_U+30FC 1
 62
   179
420
  2234388
370
     9
  0
POLYLINE
  5
F8
330
1F
100
AcDbEntity
  8
_U+30EC_U+30A4_U+30E4_U+30FC 1
 62
   179
420
  2234388
370
     9
100
AcDb2dPolyline
 66
     1
 10
0.0
 20
0.0
 30
0.0
  0
VERTEX
  5
F9
330
F8
100
AcDbEntity
  8
_U+30EC_U+30A4_U+30E4_U+30FC 1
 62
   179
420
  2234388
370
     9
100
AcDbVertex
100
AcDb2dVertex
 10
78.41480880472388
 20
-199.0784007528427
 30
0.0
  0
VERTEX
  5
FA
330
F8
100
AcDbEntity
  8
_U+30EC_U+30A4_U+30E4_U+30FC 1
 62
   179
420
  2234388
370
     9
100
AcDbVertex
100
AcDb2dVertex
 10
75.95453423614511
 20
-199.0784007528427
 30
0.0
  0
SEQEND
  5
FB
330
F8
100
AcDbEntity
  8
_U+30EC_U+30A4_U+30E4_U+30FC 1
 62
   179
420
  2234388
370
     9
  0
INSERT
  5
FD
330
1F
100
AcDbEntity
  8
_U+30EC_U+30A4_U+30E4_U+30FC 1
100
AcDbBlockReference
  2
block 6
 10
0.0
 20
0.0
 30
0.0
  0
POLYLINE
  5
105
330
1F
100
AcDbEntity
  8
_U+30EC_U+30A4_U+30E4_U+30FC 1
 62
   179
420
  2234388
370
     9
100
AcDb2dPolyline
 66
     1
 10
0.0
 20
0.0
 30
0.0
  0
VERTEX
  5
106
330
105
100
AcDbEntity
  8
_U+30EC_U+30A4_U+30E4_U+30FC 1
 62
   179
420
  2234388
370
     9
100
AcDbVertex
100
AcDb2dVertex
 10
134.9543271045264
 20
-184.9786476944373
 30
0.0
  0
VERTEX
  5
107
330
105
100
AcDbEntity
  8
_U+30EC_U+30A4_U+30E4_U+30FC 1
 62
   179
420
  2234388
370
     9
100
AcDbVertex
100
AcDb2dVertex
 10
134.9543271045264
 20
-196.078449285019
 30
0.0
  0
SEQEND
  5
108
330
105
100
AcDbEntity
  8
_U+30EC_U+30A4_U+30E4_U+30FC 1
 62
   179
420
  2234388
370
     9
  0
POLYLINE
  5
109
330
1F
100
AcDbEntity
  8
_U+30EC_U+30A4_U+30E4_U+30FC 1
 62
   179
420
  2234388
370
     9
100
AcDb2dPolyline
 66
     1
 10
0.0
 20
0.0
 30
0.0
  0
VERTEX
  5
10A
330
109
100
AcDbEntity
  8
_U+30EC_U+30A4_U+30E4_U+30FC 1
 62
   179
420
  2234388
370
     9
100
AcDbVertex
100
AcDb2dVertex
 10
133.4943171697243
 20
-186.078677448801
 30
0.0
  0
VERTEX
  5
10B
330
109
100
AcDbEntity
  8
_U+30EC_U+30A4_U+30E4_U+30FC 1
 62
   179
420
  2234388
370
     9
100
AcDbVertex
100
AcDb2dVertex
 10
135.9549335563704
 20
-186.078677448801
 30
0.0
  0
SEQEND
  5
10C
330
109
100
AcDbEntity
  8
_U+30EC_U+30A4_U+30E4_U+30FC 1
 62
   179
420
  2234388
370
     9
  0
POLYLINE
  5
10D
330
1F
100
AcDbEntity
  8
_U+30EC_U+30A4_U+30E4_U+30FC 1
 62
   179
420
  2234388
370
     9
100
AcDb2dPolyline
 66
     1
 10
0.0
 20
0.0
 30
0.0
  0
VERTEX
  5
10E
330
10D
100
AcDbEntity
  8
_U+30EC_U+30A4_U+30E4_U+30FC 1
 62
   179
420
  2234388
370
     9
100
AcDbVertex
100
AcDb2dVertex
 10
133.4943171697243
 20
-184.8787399253651
 30
0.0
  0
VERTEX
  5
10F
330
10D
100
AcDbEntity
  8
_U+30EC_U+30A4_U+30E4_U+30FC 1
 62
   179
420
  2234388
370
     9
100
AcDbVertex
100
AcDb2dVertex
 10
135.9549335563704
 20
-184.8787399253651
 30
0.0
  0
SEQEND
  5
110
330
10D
100
AcDbEntity
  8
_U+30EC_U+30A4_U+30E4_U+30FC 1
 62
   179
420
  2234388
370
     9
  0
INSERT
  5
112
330
1F
100
AcDbEntity
  8
_U+30EC_U+30A4_U+30E4_U+30FC 1
100
AcDbBlockReference
  2
block 7
 10
0.0
 20
0.0
 30
0.0
  0
INSERT
  5
11B
330
1F
100
AcDbEntity
  8
_U+30EC_U+30A4_U+30E4_U+30FC 1
100
AcDbBlockReference
  2
block 8
 10
0.0
 20
0.0
 30
0.0
  0
SPLINE
  5
12A
330
1F
100
AcDbEntity
  8
_U+30EC_U+30A4_U+30E4_U+30FC 1
 62
   179
420
  2234388
370
    25
100
AcDbSpline
210
0.0
220
0.0
230
1.0
 70
     8
 71
     3
 72
    11
 73
     7
 74
     0
 42
0.0000000001
 43
0.0000000001
 12
1.0
 22
0.0
 32
0.0
 13
1.0
 23
0.0
 33
0.0
 40
0.0
 40
0.0
 40
0.0
 40
0.0
 40
1.0
 40
1.0
 40
1.0
 40
2.0
 40
2.0
 40
2.0
 40
2.0
 10
83.35440286035987
 20
-104.5780481712839
 30
0.0
 10
83.35440286035987
 20
-104.5780481712839
 30
0.0
 10
83.35369500089688
 20
-104.0781648163741
 30
0.0
 10
82.14966642657224
 20
-104.0781648163741
 30
0.0
 10
80.94598774475782
 20
-104.0781648163741
 30
0.0
 10
80.95445514350516
 20
-104.5780481712839
 30
0.0
 10
80.95445514350516
 20
-104.5780481712839
 30
0.0
  0
SPLINE
  5
12B
330
1F
100
AcDbEntity
  8
_U+30EC_U+30A4_U+30E4_U+30FC 1
 62
   179
420
  2234388
370
     9
100
AcDbSpline
210
0.0
220
0.0
230
1.0
 70
    11
 71
     3
 72
    17
 73
    13
 74
     0
 42
0.0000000001
 43
0.0000000001
 12
1.0
 22
0.0
 32
0.0
 13
1.0
 23
0.0
 33
0.0
 40
0.0
 40
0.0
 40
0.0
 40
0.0
 40
1.0
 40
1.0
 40
1.0
 40
2.0
 40
2.0
 40
2.0
 40
3.0
 40
3.0
 40
3.0
 40
4.0
 40
4.0
 40
4.0
 40
4.0
 10
87.41924949155936
 20
-104.0808778290688
 30
0.0
 10
87.41924949155936
 20
-104.0258531946153
 30
0.0
 10
87.37444440988519
 20
-103.9810454214603
 30
0.0
 10
87.31941170098916
 20
-103.9810454214603
 30
0.0
 10
87.26437899209314
 20
-103.9810454214603
 30
0.0
 10
87.2195766018998
 20
-104.0258531946153
 30
0.0
 10
87.2195766018998
 20
-104.0808778290688
 30
0.0
 10
87.2195766018998
 20
-104.1359132294456
 30
0.0
 10
87.26437899209314
 20
-104.1807210026007
 30
0.0
 10
87.31941170098916
 20
-104.1807210026007
 30
0.0
 10
87.37444440988519
 20
-104.1807210026007
 30
0.0
 10
87.41924949155936
 20
-104.1359132294456
 30
0.0
 10
87.41924949155936
 20
-104.0808778290688
 30
0.0
  0
SPLINE
  5
12C
330
1F
100
AcDbEntity
  8
_U+30EC_U+30A4_U+30E4_U+30FC 1
 62
   179
420
  2234388
370
     9
100
AcDbSpline
210
0.0
220
0.0
230
1.0
 70
    11
 71
     3
 72
    17
 73
    13
 74
     0
 42
0.0000000001
 43
0.0000000001
 12
1.0
 22
0.0
 32
0.0
 13
1.0
 23
0.0
 33
0.0
 40
0.0
 40
0.0
 40
0.0
 40
0.0
 40
1.0
 40
1.0
 40
1.0
 40
2.0
 40
2.0
 40
2.0
 40
3.0
 40
3.0
 40
3.0
 40
4.0
 40
4.0
 40
4.0
 40
4.0
 10
87.41924949155936
 20
-107.0808992753945
 30
0.0
 10
87.41924949155936
 20
-107.025874640941
 30
0.0
 10
87.37444440988519
 20
-106.981066867786
 30
0.0
 10
87.31941170098916
 20
-106.981066867786
 30
0.0
 10
87.26437899209314
 20
-106.981066867786
 30
0.0
 10
87.2195766018998
 20
-107.025874640941
 30
0.0
 10
87.2195766018998
 20
-107.0808992753945
 30
0.0
 10
87.2195766018998
 20
-107.1359346757714
 30
0.0
 10
87.26437899209314
 20
-107.1807424489264
 30
0.0
 10
87.31941170098916
 20
-107.1807424489264
 30
0.0
 10
87.37444440988519
 20
-107.1807424489264
 30
0.0
 10
87.41924949155936
 20
-107.1359346757714
 30
0.0
 10
87.41924949155936
 20
-107.0808992753945
 30
0.0
  0
POLYLINE
  5
12D
330
1F
100
AcDbEntity
  8
_U+30EC_U+30A4_U+30E4_U+30FC 1
 62
   179
420
  2234388
370
     9
100
AcDb2dPolyline
 66
     1
 10
0.0
 20
0.0
 30
0.0
  0
VERTEX
  5
12E
330
12D
100
AcDbEntity
  8
_U+30EC_U+30A4_U+30E4_U+30FC 1
 62
   179
420
  2234388
370
     9
100
AcDbVertex
100
AcDb2dVertex
 10
87.31934441396797
 20
-104.0808778290688
 30
0.0
  0
VERTEX
  5
12F
330
12D
100
AcDbEntity
  8
_U+30EC_U+30A4_U+30E4_U+30FC 1
 62
   179
420
  2234388
370
     9
100
AcDbVertex
100
AcDb2dVertex
 10
87.31934441396797
 20
-107.0809100413179
 30
0.0
  0
SEQEND
  5
130
330
12D
100
AcDbEntity
  8
_U+30EC_U+30A4_U+30E4_U+30FC 1
 62
   179
420
  2234388
370
     9
  0
POLYLINE
  5
131
330
1F
100
AcDbEntity
  8
_U+30EC_U+30A4_U+30E4_U+30FC 1
 62
   179
420
  2234388
370
     9
100
AcDb2dPolyline
 66
     1
 10
0.0
 20
0.0
 30
0.0
  0
VERTEX
  5
132
330
131
100
AcDbEntity
  8
_U+30EC_U+30A4_U+30E4_U+30FC 1
 62
   179
420
  2234388
370
     9
100
AcDbVertex
100
AcDb2dVertex
 10
86.18696305981312
 20
-104.0808778290688
 30
0.0
  0
VERTEX
  5
133
330
131
100
AcDbEntity
  8
_U+30EC_U+30A4_U+30E4_U+30FC 1
 62
   179
420
  2234388
370
     9
100
AcDbVertex
100
AcDb2dVertex
 10
88.31985666398232
 20
-104.0808778290688
 30
0.0
  0
SEQEND
  5
134
330
131
100
AcDbEntity
  8
_U+30EC_U+30A4_U+30E4_U+30FC 1
 62
   179
420
  2234388
370
     9
  0
POLYLINE
  5
135
330
1F
100
AcDbEntity
  8
_U+30EC_U+30A4_U+30E4_U+30FC 1
 62
   179
420
  2234388
370
     9
100
AcDb2dPolyline
 66
     1
 10
0.0
 20
0.0
 30
0.0
  0
VERTEX
  5
136
330
135
100
AcDbEntity
  8
_U+30EC_U+30A4_U+30E4_U+30FC 1
 62
   179
420
  2234388
370
     9
100
AcDbVertex
100
AcDb2dVertex
 10
86.18696305981312
 20
-107.0808992753945
 30
0.0
  0
VERTEX
  5
137
330
135
100
AcDbEntity
  8
_U+30EC_U+30A4_U+30E4_U+30FC 1
 62
   179
420
  2234388
370
     9
100
AcDbVertex
100
AcDb2dVertex
 10
88.31985666398232
 20
-107.0808992753945
 30
0.0
  0
SEQEND
  5
138
330
135
100
AcDbEntity
  8
_U+30EC_U+30A4_U+30E4_U+30FC 1
 62
   179
420
  2234388
370
     9
  0
INSERT
  5
13A
330
1F
100
AcDbEntity
  8
_U+30EC_U+30A4_U+30E4_U+30FC 1
100
AcDbBlockReference
  2
block 9
 10
0.0
 20
0.0
 30
0.0
  0
ENDSEC
  0
SECTION
  2
OBJECTS
  0
DICTIONARY
  5
C
330
0
100
AcDbDictionary
281
     1
  3
ACAD_GROUP
350
D
  3
ACAD_LAYOUT
350
1A
  3
ACAD_MATERIAL
350
3B
  3
ACAD_MLEADERSTYLE
350
140
  3
ACAD_MLINESTYLE
350
17
  3
ACAD_PLOTSETTINGS
350
19
  3
ACAD_PLOTSTYLENAME
350
E
  3
ACAD_TABLESTYLE
350
13F
  3
ACAD_VISUALSTYLE
350
2A
  0
SUN
  5
3F
330
29
100
AcDbSun
 90
        1
290
     0
 63
     7
421
 16777215
 40
1.0
291
     1
 91
  2455826
 92
 54000000
292
     0
 70
     2
 71
   256
280
     1
  0
DICTIONARY
  5
D
102
{ACAD_REACTORS
330
C
102
}
330
C
100
AcDbDictionary
281
     1
  0
DICTIONARY
  5
1A
102
{ACAD_REACTORS
330
C
102
}
330
C
100
AcDbDictionary
281
     1
  3
Layout1
350
1E
  3
Layout2
350
26
  3
Model
350
22
  0
DICTIONARY
  5
3B
102
{ACAD_REACTORS
330
C
102
}
330
C
100
AcDbDictionary
281
     1
  3
ByBlock
350
3D
  3
ByLayer
350
3C
  3
Global
350
3E
  0
DICTIONARY
  5
140
102
{ACAD_REACTORS
330
C
102
}
330
C
100
AcDbDictionary
281
     1
  0
DICTIONARY
  5
17
102
{ACAD_REACTORS
330
C
102
}
330
C
100
AcDbDictionary
281
     1
  3
Standard
350
18
  0
DICTIONARY
  5
19
102
{ACAD_REACTORS
330
C
102
}
330
C
100
AcDbDictionary
281
     1
  0
ACDBDICTIONARYWDFLT
  5
E
102
{ACAD_REACTORS
330
C
102
}
330
C
100
AcDbDictionary
281
     1
  3
Normal
350
F
100
AcDbDictionaryWithDefault
340
F
  0
DICTIONARY
  5
13F
102
{ACAD_REACTORS
330
C
102
}
330
C
100
AcDbDictionary
281
     1
  0
DICTIONARY
  5
2A
102
{ACAD_REACTORS
330
C
102
}
330
C
100
AcDbDictionary
281
     1
  3
2dWireframe
350
2F
  3
3D Hidden
350
31
  3
3dWireframe
350
30
  3
Basic
350
32
  3
Brighten
350
36
  3
ColorChange
350
3A
  3
Conceptual
350
34
  3
Dim
350
35
  3
Facepattern
350
39
  3
Flat
350
2B
  3
FlatWithEdges
350
2C
  3
Gouraud
350
2D
  3
GouraudWithEdges
350
2E
  3
Linepattern
350
38
  3
Realistic
350
33
  3
Thicken
350
37
  0
LAYOUT
  5
1E
102
{ACAD_REACTORS
330
1A
102
}
330
1A
100
AcDbPlotSettings
  1

  2
none_device
  4

  6

 40
0.0
 41
0.0
 42
0.0
 43
0.0
 44
0.0
 45
0.0
 46
0.0
 47
0.0
 48
0.0
 49
0.0
140
0.0
141
0.0
142
1.0
143
1.0
 70
   688
 72
     0
 73
     0
 74
     5
  7

 75
    16
 76
     0
 77
     2
 78
   300
147
1.0
148
0.0
149
0.0
100
AcDbLayout
  1
Layout1
 70
     1
 71
     1
 10
0.0
 20
0.0
 11
12.0
 21
9.0
 12
0.0
 22
0.0
 32
0.0
 14
1.000000000000000E+20
 24
1.000000000000000E+20
 34
1.000000000000000E+20
 15
-1.000000000000000E+20
 25
-1.000000000000000E+20
 35
-1.000000000000000E+20
146
0.0
 13
0.0
 23
0.0
 33
0.0
 16
1.0
 26
0.0
 36
0.0
 17
0.0
 27
1.0
 37
0.0
 76
     0
330
1B
  0
LAYOUT
  5
26
102
{ACAD_REACTORS
330
1A
102
}
330
1A
100
AcDbPlotSettings
  1

  2
none_device
  4

  6

 40
0.0
 41
0.0
 42
0.0
 43
0.0
 44
0.0
 45
0.0
 46
0.0
 47
0.0
 48
0.0
 49
0.0
140
0.0
141
0.0
142
1.0
143
1.0
 70
   688
 72
     0
 73
     0
 74
     5
  7

 75
    16
 76
     0
 77
     2
 78
   300
147
1.0
148
0.0
149
0.0
100
AcDbLayout
  1
Layout2
 70
     1
 71
     2
 10
0.0
 20
0.0
 11
0.0
 21
0.0
 12
0.0
 22
0.0
 32
0.0
 14
0.0
 24
0.0
 34
0.0
 15
0.0
 25
0.0
 35
0.0
146
0.0
 13
0.0
 23
0.0
 33
0.0
 16
1.0
 26
0.0
 36
0.0
 17
0.0
 27
1.0
 37
0.0
 76
     0
330
23
  0
LAYOUT
  5
22
102
{ACAD_REACTORS
330
1A
102
}
330
1A
100
AcDbPlotSettings
  1

  2
none_device
  4

  6

 40
0.0
 41
0.0
 42
0.0
 43
0.0
 44
0.0
 45
0.0
 46
0.0
 47
0.0
 48
0.0
 49
0.0
140
0.0
141
0.0
142
1.0
143
1.0
 70
  1712
 72
     0
 73
     0
 74
     0
  7

 75
     0
 76
     0
 77
     2
 78
   300
147
1.0
148
0.0
149
0.0
100
AcDbLayout
  1
Model
 70
     1
 71
     0
 10
0.0
 20
0.0
 11
12.0
 21
9.0
 12
0.0
 22
0.0
 32
0.0
 14
1.000000000000000E+20
 24
1.000000000000000E+20
 34
1.000000000000000E+20
 15
-1.000000000000000E+20
 25
-1.000000000000000E+20
 35
-1.000000000000000E+20
146
0.0
 13
0.0
 23
0.0
 33
0.0
 16
1.0
 26
0.0
 36
0.0
 17
0.0
 27
1.0
 37
0.0
 76
     0
330
1F
331
29
  0
MATERIAL
  5
3D
102
{ACAD_REACTORS
330
3B
102
}
330
3B
100
AcDbMaterial
  1
ByBlock
 72
     1
 94
      127
  0
MATERIAL
  5
3C
102
{ACAD_REACTORS
330
3B
102
}
330
3B
100
AcDbMaterial
  1
ByLayer
 72
     1
 94
      127
  0
MATERIAL
  5
3E
102
{ACAD_REACTORS
330
3B
102
}
330
3B
100
AcDbMaterial
  1
Global
 72
     1
 94
      127
  0
MLINESTYLE
  5
18
102
{ACAD_REACTORS
330
17
102
}
330
17
100
AcDbMlineStyle
  2
Standard
 70
     0
  3

 62
   256
 51
90.0
 52
90.0
 71
     2
 49
0.5
 62
   256
  6
BYLAYER
 49
-0.5
 62
   256
  6
BYLAYER
  0
ACDBPLACEHOLDER
  5
F
102
{ACAD_REACTORS
330
E
102
}
330
E
  0
VISUALSTYLE
  5
2F
102
{ACAD_REACTORS
330
2A
102
}
330
2A
100
AcDbVisualStyle
  2
2dWireframe
 70
     4
177
     2
291
     0
 71
     0
176
     1
 72
     2
176
     1
 73
     0
176
     1
 90
        0
176
     1
 40
-0.6
176
     1
 41
-30.0
176
     1
 62
     5
 63
     7
421
 16777215
176
     1
 74
     1
176
     1
 91
        4
176
     1
 64
     7
176
     1
 65
   257
176
     1
 75
     1
176
     1
175
     1
176
     1
 42
1.0
176
     1
 92
        0
176
     1
 66
   257
176
     1
 43
1.0
176
     1
 76
     1
176
     1
 77
     6
176
     1
 78
     2
176
     1
 67
     7
176
     1
 79
     5
176
     1
170
     0
176
     1
171
     0
176
     1
290
     0
176
     1
 93
        1
176
     1
 44
0.0
176
     1
173
     0
176
     1
  0
VISUALSTYLE
  5
31
102
{ACAD_REACTORS
330
2A
102
}
330
2A
100
AcDbVisualStyle
  2
3D Hidden
 70
     6
177
     2
291
     0
 71
     1
176
     1
 72
     2
176
     1
 73
     2
176
     1
 90
        0
176
     1
 40
-0.6
176
     1
 41
-30.0
176
     1
 62
     5
 63
     7
421
 16777215
176
     1
 74
     2
176
     1
 91
        2
176
     1
 64
     7
176
     1
 65
   257
176
     1
 75
     2
176
     1
175
     1
176
     1
 42
40.0
176
     1
 92
        0
176
     1
 66
   257
176
     1
 43
1.0
176
     1
 76
     1
176
     1
 77
     6
176
     1
 78
     2
176
     1
 67
     7
176
     1
 79
     3
176
     1
170
     0
176
     1
171
     0
176
     1
290
     0
176
     1
 93
        1
176
     1
 44
0.0
176
     1
173
     0
176
     1
  0
VISUALSTYLE
  5
30
102
{ACAD_REACTORS
330
2A
102
}
330
2A
100
AcDbVisualStyle
  2
3dWireframe
 70
     5
177
     2
291
     0
 71
     0
176
     1
 72
     2
176
     1
 73
     0
176
     1
 90
        0
176
     1
 40
-0.6
176
     1
 41
-30.0
176
     1
 62
     5
 63
     7
421
 16777215
176
     1
 74
     1
176
     1
 91
        4
176
     1
 64
     7
176
     1
 65
   257
176
     1
 75
     1
176
     1
175
     1
176
     1
 42
1.0
176
     1
 92
        0
176
     1
 66
   257
176
     1
 43
1.0
176
     1
 76
     1
176
     1
 77
     6
176
     1
 78
     2
176
     1
 67
     7
176
     1
 79
     5
176
     1
170
     0
176
     1
171
     0
176
     1
290
     0
176
     1
 93
        1
176
     1
 44
0.0
176
     1
173
     0
176
     1
  0
VISUALSTYLE
  5
32
102
{ACAD_REACTORS
330
2A
102
}
330
2A
100
AcDbVisualStyle
  2
Basic
 70
     7
177
     2
291
     1
 71
     1
176
     1
 72
     0
176
     1
 73
     1
176
     1
 90
        0
176
     1
 40
-0.6
176
     1
 41
-30.0
176
     1
 62
     5
 63
     7
421
 16777215
176
     1
 74
     0
176
     1
 91
        4
176
     1
 64
     7
176
     1
 65
   257
176
     1
 75
     1
176
     1
175
     1
176
     1
 42
1.0
176
     1
 92
        8
176
     1
 66
     7
176
     1
 43
1.0
176
     1
 76
     1
176
     1
 77
     6
176
     1
 78
     2
176
     1
 67
     7
176
     1
 79
     5
176
     1
170
     0
176
     1
171
     0
176
     1
290
     0
176
     1
 93
        1
176
     1
 44
0.0
176
     1
173
     0
176
     1
  0
VISUALSTYLE
  5
36
102
{ACAD_REACTORS
330
2A
102
}
330
2A
100
AcDbVisualStyle
  2
Brighten
 70
    12
177
     2
291
     1
 71
     2
176
     1
 72
     2
176
     1
 73
     0
176
     1
 90
        0
176
     1
 40
-0.6
176
     1
 41
-30.0
176
     1
 62
     5
 63
     7
421
 16777215
176
     1
 74
     1
176
     1
 91
        4
176
     1
 64
     7
176
     1
 65
   257
176
     1
 75
     1
176
     1
175
     1
176
     1
 42
1.0
176
     1
 92
        8
176
     1
 66
     7
176
     1
 43
1.0
176
     1
 76
     1
176
     1
 77
     6
176
     1
 78
     2
176
     1
 67
     7
176
     1
 79
     5
176
     1
170
     0
176
     1
171
     0
176
     1
290
     0
176
     1
 93
        1
176
     1
 44
50.0
176
     1
173
     0
176
     1
  0
VISUALSTYLE
  5
3A
102
{ACAD_REACTORS
330
2A
102
}
330
2A
100
AcDbVisualStyle
  2
ColorChange
 70
    16
177
     2
291
     1
 71
     2
176
     1
 72
     2
176
     1
 73
     3
176
     1
 90
        0
176
     1
 40
-0.6
176
     1
 41
-30.0
176
     1
 62
     5
 63
     8
421
  8421504
176
     1
 74
     1
176
     1
 91
        4
176
     1
 64
     7
176
     1
 65
   257
176
     1
 75
     1
176
     1
175
     1
176
     1
 42
1.0
176
     1
 92
        8
176
     1
 66
     8
424
  8421504
176
     1
 43
1.0
176
     1
 76
     1
176
     1
 77
     6
176
     1
 78
     2
176
     1
 67
     7
176
     1
 79
     5
176
     1
170
     0
176
     1
171
     0
176
     1
290
     0
176
     1
 93
        1
176
     1
 44
0.0
176
     1
173
     0
176
     1
  0
VISUALSTYLE
  5
34
102
{ACAD_REACTORS
330
2A
102
}
330
2A
100
AcDbVisualStyle
  2
Conceptual
 70
     9
177
     2
291
     0
 71
     3
176
     1
 72
     2
176
     1
 73
     0
176
     1
 90
        0
176
     1
 40
-0.6
176
     1
 41
-30.0
176
     1
 62
     5
 63
     7
421
 16777215
176
     1
 74
     2
176
     1
 91
        2
176
     1
 64
     7
176
     1
 65
   257
176
     1
 75
     1
176
     1
175
     1
176
     1
 42
40.0
176
     1
 92
        8
176
     1
 66
     7
176
     1
 43
1.0
176
     1
 76
     1
176
     1
 77
     6
176
     1
 78
     2
176
     1
 67
     7
176
     1
 79
     3
176
     1
170
     0
176
     1
171
     0
176
     1
290
     0
176
     1
 93
        1
176
     1
 44
0.0
176
     1
173
     0
176
     1
  0
VISUALSTYLE
  5
35
102
{ACAD_REACTORS
330
2A
102
}
330
2A
100
AcDbVisualStyle
  2
Dim
 70
    11
177
     2
291
     1
 71
     2
176
     1
 72
     2
176
     1
 73
     0
176
     1
 90
        0
176
     1
 40
-0.6
176
     1
 41
-30.0
176
     1
 62
     5
 63
     7
421
 16777215
176
     1
 74
     1
176
     1
 91
        4
176
     1
 64
     7
176
     1
 65
   257
176
     1
 75
     1
176
     1
175
     1
176
     1
 42
1.0
176
     1
 92
        8
176
     1
 66
     7
176
     1
 43
1.0
176
     1
 76
     1
176
     1
 77
     6
176
     1
 78
     2
176
     1
 67
     7
176
     1
 79
     5
176
     1
170
     0
176
     1
171
     0
176
     1
290
     0
176
     1
 93
        1
176
     1
 44
-50.0
176
     1
173
     0
176
     1
  0
VISUALSTYLE
  5
39
102
{ACAD_REACTORS
330
2A
102
}
330
2A
100
AcDbVisualStyle
  2
Facepattern
 70
    15
177
     2
291
     1
 71
     2
176
     1
 72
     2
176
     1
 73
     0
176
     1
 90
        0
176
     1
 40
-0.6
176
     1
 41
-30.0
176
     1
 62
     5
 63
     7
421
 16777215
176
     1
 74
     1
176
     1
 91
        4
176
     1
 64
     7
176
     1
 65
   257
176
     1
 75
     1
176
     1
175
     1
176
     1
 42
1.0
176
     1
 92
        8
176
     1
 66
     7
176
     1
 43
1.0
176
     1
 76
     1
176
     1
 77
     6
176
     1
 78
     2
176
     1
 67
     7
176
     1
 79
     5
176
     1
170
     0
176
     1
171
     0
176
     1
290
     0
176
     1
 93
        1
176
     1
 44
0.0
176
     1
173
     0
176
     1
  0
VISUALSTYLE
  5
2B
102
{ACAD_REACTORS
330
2A
102
}
330
2A
100
AcDbVisualStyle
  2
Flat
 70
     0
177
     2
291
     1
 71
     2
176
     1
 72
     1
176
     1
 73
     1
176
     1
 90
        2
176
     1
 40
-0.6
176
     1
 41
30.0
176
     1
 62
     5
 63
     7
421
 16777215
176
     1
 74
     0
176
     1
 91
        4
176
     1
 64
     7
176
     1
 65
   257
176
     1
 75
     1
176
     1
175
     1
176
     1
 42
1.0
176
     1
 92
        8
176
     1
 66
     7
176
     1
 43
1.0
176
     1
 76
     1
176
     1
 77
     6
176
     1
 78
     2
176
     1
 67
     7
176
     1
 79
     5
176
     1
170
     0
176
     1
171
     0
176
     1
290
     0
176
     1
 93
       13
176
     1
 44
0.0
176
     1
173
     0
176
     1
  0
VISUALSTYLE
  5
2C
102
{ACAD_REACTORS
330
2A
102
}
330
2A
100
AcDbVisualStyle
  2
FlatWithEdges
 70
     1
177
     2
291
     1
 71
     2
176
     1
 72
     1
176
     1
 73
     1
176
     1
 90
        2
176
     1
 40
-0.6
176
     1
 41
30.0
176
     1
 62
     5
 63
     7
421
 16777215
176
     1
 74
     1
176
     1
 91
        4
176
     1
 64
     7
176
     1
 65
   257
176
     1
 75
     1
176
     1
175
     1
176
     1
 42
1.0
176
     1
 92
        0
176
     1
 66
   257
176
     1
 43
1.0
176
     1
 76
     1
176
     1
 77
     6
176
     1
 78
     2
176
     1
 67
     7
176
     1
 79
     5
176
     1
170
     0
176
     1
171
     0
176
     1
290
     0
176
     1
 93
       13
176
     1
 44
0.0
176
     1
173
     0
176
     1
  0
VISUALSTYLE
  5
2D
102
{ACAD_REACTORS
330
2A
102
}
330
2A
100
AcDbVisualStyle
  2
Gouraud
 70
     2
177
     2
291
     1
 71
     2
176
     1
 72
     2
176
     1
 73
     1
176
     1
 90
        2
176
     1
 40
-0.6
176
     1
 41
30.0
176
     1
 62
     5
 63
     7
421
 16777215
176
     1
 74
     0
176
     1
 91
        4
176
     1
 64
     7
176
     1
 65
   257
176
     1
 75
     1
176
     1
175
     1
176
     1
 42
1.0
176
     1
 92
        0
176
     1
 66
     7
176
     1
 43
1.0
176
     1
 76
     1
176
     1
 77
     6
176
     1
 78
     2
176
     1
 67
     7
176
     1
 79
     5
176
     1
170
     0
176
     1
171
     0
176
     1
290
     0
176
     1
 93
       13
176
     1
 44
0.0
176
     1
173
     0
176
     1
  0
VISUALSTYLE
  5
2E
102
{ACAD_REACTORS
330
2A
102
}
330
2A
100
AcDbVisualStyle
  2
GouraudWithEdges
 70
     3
177
     2
291
     1
 71
     2
176
     1
 72
     2
176
     1
 73
     1
176
     1
 90
        2
176
     1
 40
-0.6
176
     1
 41
30.0
176
     1
 62
     5
 63
     7
421
 16777215
176
     1
 74
     1
176
     1
 91
        4
176
     1
 64
     7
176
     1
 65
   257
176
     1
 75
     1
176
     1
175
     1
176
     1
 42
1.0
176
     1
 92
        0
176
     1
 66
   257
176
     1
 43
1.0
176
     1
 76
     1
176
     1
 77
     6
176
     1
 78
     2
176
     1
 67
     7
176
     1
 79
     5
176
     1
170
     0
176
     1
171
     0
176
     1
290
     0
176
     1
 93
       13
176
     1
 44
0.0
176
     1
173
     0
176
     1
  0
VISUALSTYLE
  5
38
102
{ACAD_REACTORS
330
2A
102
}
330
2A
100
AcDbVisualStyle
  2
Linepattern
 70
    14
177
     2
291
     1
 71
     2
176
     1
 72
     2
176
     1
 73
     0
176
     1
 90
        0
176
     1
 40
-0.6
176
     1
 41
-30.0
176
     1
 62
     5
 63
     7
421
 16777215
176
     1
 74
     1
176
     1
 91
        4
176
     1
 64
     7
176
     1
 65
   257
176
     1
 75
     7
176
     1
175
     7
176
     1
 42
1.0
176
     1
 92
        8
176
     1
 66
     7
176
     1
 43
1.0
176
     1
 76
     1
176
     1
 77
     6
176
     1
 78
     2
176
     1
 67
     7
176
     1
 79
     5
176
     1
170
     0
176
     1
171
     0
176
     1
290
     0
176
     1
 93
        1
176
     1
 44
0.0
176
     1
173
     0
176
     1
  0
VISUALSTYLE
  5
33
102
{ACAD_REACTORS
330
2A
102
}
330
2A
100
AcDbVisualStyle
  2
Realistic
 70
     8
177
     2
291
     0
 71
     2
176
     1
 72
     2
176
     1
 73
     0
176
     1
 90
        0
176
     1
 40
-0.6
176
     1
 41
-30.0
176
     1
 62
     5
 63
     7
421
 16777215
176
     1
 74
     1
176
     1
 91
        0
176
     1
 64
     7
176
     1
 65
   257
176
     1
 75
     1
176
     1
175
     1
176
     1
 42
1.0
176
     1
 92
        8
176
     1
 66
     8
424
  7895160
176
     1
 43
1.0
176
     1
 76
     1
176
     1
 77
     6
176
     1
 78
     2
176
     1
 67
     7
176
     1
 79
     5
176
     1
170
     0
176
     1
171
     0
176
     1
290
     0
176
     1
 93
       13
176
     1
 44
0.0
176
     1
173
     0
176
     1
  0
VISUALSTYLE
  5
37
102
{ACAD_REACTORS
330
2A
102
}
330
2A
100
AcDbVisualStyle
  2
Thicken
 70
    13
177
     2
291
     1
 71
     2
176
     1
 72
     2
176
     1
 73
     0
176
     1
 90
        0
176
     1
 40
-0.6
176
     1
 41
-30.0
176
     1
 62
     5
 63
     7
421
 16777215
176
     1
 74
     1
176
     1
 91
        4
176
     1
 64
     7
176
     1
 65
   257
176
     1
 75
     1
176
     1
175
     1
176
     1
 42
1.0
176
     1
 92
       12
176
     1
 66
     7
176
     1
 43
1.0
176
     1
 76
     1
176
     1
 77
     6
176
     1
 78
     2
176
     1
 67
     7
176
     1
 79
     5
176
     1
170
     0
176
     1
171
     0
176
     1
290
     0
176
     1
 93
        1
176
     1
 44
0.0
176
     1
173
     0
176
     1
  0
ENDSEC
  0
EOF
