  0
SECTION
  2
HEADER
  9
$ACADVER
  1
AC1024
  9
$ACADMAINTVER
 70
     6
  9
$DWGCODEPAGE
  3
UNDEFINED
  9
$INSBASE
 10
0.0
 20
0.0
 30
0.0
  9
$EXTMIN
 10
1.000000000000000E+20
 20
1.000000000000000E+20
 30
1.000000000000000E+20
  9
$EXTMAX
 10
-1.000000000000000E+20
 20
-1.000000000000000E+20
 30
-1.000000000000000E+20
  9
$LIMMIN
 10
0.0
 20
0.0
  9
$LIMMAX
 10
12.0
 20
9.0
  9
$ORTHOMODE
 70
     0
  9
$REGENMODE
 70
     1
  9
$FILLMODE
 70
     1
  9
$QTEXTMODE
 70
     0
  9
$MIRRTEXT
 70
     1
  9
$LTSCALE
 40
1.0
  9
$ATTMODE
 70
     1
  9
$TEXTSIZE
 40
0.2
  9
$TRACEWID
 40
0.05
  9
$TEXTSTYLE
  7
Standard
  9
$CLAYER
  8
0
  9
$CELTYPE
  6
ByLayer
  9
$CECOLOR
 62
   256
  9
$CELTSCALE
 40
1.0
  9
$DISPSILH
 70
     0
  9
$DIMSCALE
 40
1.0
  9
$DIMASZ
 40
0.18
  9
$DIMEXO
 40
0.0625
  9
$DIMDLI
 40
0.38
  9
$DIMRND
 40
0.0
  9
$DIMDLE
 40
0.0
  9
$DIMEXE
 40
0.18
  9
$DIMTP
 40
0.0
  9
$DIMTM
 40
0.0
  9
$DIMTXT
 40
0.18
  9
$DIMCEN
 40
0.09
  9
$DIMTSZ
 40
0.0
  9
$DIMTOL
 70
     0
  9
$DIMLIM
 70
     0
  9
$DIMTIH
 70
     1
  9
$DIMTOH
 70
     1
  9
$DIMSE1
 70
     0
  9
$DIMSE2
 70
     0
  9
$DIMTAD
 70
     0
  9
$DIMZIN
 70
     0
  9
$DIMBLK
  1

  9
$DIMASO
 70
     1
  9
$DIMSHO
 70
     1
  9
$DIMPOST
  1

  9
$DIMAPOST
  1

  9
$DIMALT
 70
     0
  9
$DIMALTD
 70
     2
  9
$DIMALTF
 40
25.4
  9
$DIMLFAC
 40
1.0
  9
$DIMTOFL
 70
     0
  9
$DIMTVP
 40
0.0
  9
$DIMTIX
 70
     0
  9
$DIMSOXD
 70
     0
  9
$DIMSAH
 70
     0
  9
$DIMBLK1
  1

  9
$DIMBLK2
  1

  9
$DIMSTYLE
  2
Standard
  9
$DIMCLRD
 70
     0
  9
$DIMCLRE
 70
     0
  9
$DIMCLRT
 70
     0
  9
$DIMTFAC
 40
1.0
  9
$DIMGAP
 40
0.09
  9
$DIMJUST
 70
     0
  9
$DIMSD1
 70
     0
  9
$DIMSD2
 70
     0
  9
$DIMTOLJ
 70
     1
  9
$DIMTZIN
 70
     0
  9
$DIMALTZ
 70
     0
  9
$DIMALTTZ
 70
     0
  9
$DIMUPT
 70
     0
  9
$DIMDEC
 70
     4
  9
$DIMTDEC
 70
     4
  9
$DIMALTU
 70
     2
  9
$DIMALTTD
 70
     2
  9
$DIMTXSTY
  7
Standard
  9
$DIMAUNIT
 70
     0
  9
$DIMADEC
 70
     0
  9
$DIMALTRND
 40
0.0
  9
$DIMAZIN
 70
     0
  9
$DIMDSEP
 70
    46
  9
$DIMATFIT
 70
     3
  9
$DIMFRAC
 70
     0
  9
$DIMLDRBLK
  1

  9
$DIMLUNIT
 70
     2
  9
$DIMLWD
 70
    -2
  9
$DIMLWE
 70
    -2
  9
$DIMTMOVE
 70
     0
  9
$DIMFXL
 40
1.0
  9
$DIMFXLON
 70
     0
  9
$DIMJOGANG
 40
0.7853981633974483
  9
$DIMTFILL
 70
     0
  9
$DIMTFILLCLR
 70
     0
  9
$DIMARCSYM
 70
     0
  9
$DIMLTYPE
  6

  9
$DIMLTEX1
  6

  9
$DIMLTEX2
  6

  9
$DIMTXTDIRECTION
 70
     0
  9
$LUNITS
 70
     2
  9
$LUPREC
 70
     4
  9
$SKETCHINC
 40
0.1
  9
$FILLETRAD
 40
0.5
  9
$AUNITS
 70
     0
  9
$AUPREC
 70
     0
  9
$MENU
  1
.
  9
$ELEVATION
 40
0.0
  9
$PELEVATION
 40
0.0
  9
$THICKNESS
 40
0.0
  9
$LIMCHECK
 70
     0
  9
$CHAMFERA
 40
0.5
  9
$CHAMFERB
 40
0.5
  9
$CHAMFERC
 40
1.0
  9
$CHAMFERD
 40
0.0
  9
$SKPOLY
 70
     0
  9
$TDCREATE
 40
2457917.612152766
  9
$TDUCREATE
 40
2457917.237152778
  9
$TDUPDATE
 40
2457917.612152766
  9
$TDUUPDATE
 40
2457917.237152778
  9
$TDINDWG
 40
0.0000000116
  9
$TDUSRTIMER
 40
0.0000000116
  9
$USRTIMER
 70
     1
  9
$ANGBASE
 50
0.0
  9
$ANGDIR
 70
     0
  9
$PDMODE
 70
     0
  9
$PDSIZE
 40
0.0
  9
$PLINEWID
 40
0.0
  9
$SPLFRAME
 70
     0
  9
$SPLINETYPE
 70
     6
  9
$SPLINESEGS
 70
     8
  9
$HANDSEED
  5
13E
  9
$SURFTAB1
 70
     6
  9
$SURFTAB2
 70
     6
  9
$SURFTYPE
 70
     6
  9
$SURFU
 70
     6
  9
$SURFV
 70
     6
  9
$UCSBASE
  2

  9
$UCSNAME
  2

  9
$UCSORG
 10
0.0
 20
0.0
 30
0.0
  9
$UCSXDIR
 10
1.0
 20
0.0
 30
0.0
  9
$UCSYDIR
 10
0.0
 20
1.0
 30
0.0
  9
$UCSORTHOREF
  2

  9
$UCSORTHOVIEW
 70
     0
  9
$UCSORGTOP
 10
0.0
 20
0.0
 30
0.0
  9
$UCSORGBOTTOM
 10
0.0
 20
0.0
 30
0.0
  9
$UCSORGLEFT
 10
0.0
 20
0.0
 30
0.0
  9
$UCSORGRIGHT
 10
0.0
 20
0.0
 30
0.0
  9
$UCSORGFRONT
 10
0.0
 20
0.0
 30
0.0
  9
$UCSORGBACK
 10
0.0
 20
0.0
 30
0.0
  9
$PUCSBASE
  2

  9
$PUCSNAME
  2

  9
$PUCSORG
 10
0.0
 20
0.0
 30
0.0
  9
$PUCSXDIR
 10
1.0
 20
0.0
 30
0.0
  9
$PUCSYDIR
 10
0.0
 20
1.0
 30
0.0
  9
$PUCSORTHOREF
  2

  9
$PUCSORTHOVIEW
 70
     0
  9
$PUCSORGTOP
 10
0.0
 20
0.0
 30
0.0
  9
$PUCSORGBOTTOM
 10
0.0
 20
0.0
 30
0.0
  9
$PUCSORGLEFT
 10
0.0
 20
0.0
 30
0.0
  9
$PUCSORGRIGHT
 10
0.0
 20
0.0
 30
0.0
  9
$PUCSORGFRONT
 10
0.0
 20
0.0
 30
0.0
  9
$PUCSORGBACK
 10
0.0
 20
0.0
 30
0.0
  9
$USERI1
 70
     0
  9
$USERI2
 70
     0
  9
$USERI3
 70
     0
  9
$USERI4
 70
     0
  9
$USERI5
 70
     0
  9
$USERR1
 40
0.0
  9
$USERR2
 40
0.0
  9
$USERR3
 40
0.0
  9
$USERR4
 40
0.0
  9
$USERR5
 40
0.0
  9
$WORLDVIEW
 70
     1
  9
$SHADEDGE
 70
     3
  9
$SHADEDIF
 70
    70
  9
$TILEMODE
 70
     1
  9
$MAXACTVP
 70
    64
  9
$PINSBASE
 10
0.0
 20
0.0
 30
0.0
  9
$PLIMCHECK
 70
     0
  9
$PEXTMIN
 10
1.000000000000000E+20
 20
1.000000000000000E+20
 30
1.000000000000000E+20
  9
$PEXTMAX
 10
-1.000000000000000E+20
 20
-1.000000000000000E+20
 30
-1.000000000000000E+20
  9
$PLIMMIN
 10
0.0
 20
0.0
  9
$PLIMMAX
 10
12.0
 20
9.0
  9
$UNITMODE
 70
     0
  9
$VISRETAIN
 70
     1
  9
$PLINEGEN
 70
     0
  9
$PSLTSCALE
 70
     1
  9
$TREEDEPTH
 70
  3020
  9
$CMLSTYLE
  2
Standard
  9
$CMLJUST
 70
     0
  9
$CMLSCALE
 40
1.0
  9
$PROXYGRAPHICS
 70
     1
  9
$MEASUREMENT
 70
     0
  9
$CELWEIGHT
370
    -1
  9
$ENDCAPS
280
     0
  9
$JOINSTYLE
280
     0
  9
$LWDISPLAY
290
     1
  9
$INSUNITS
 70
     1
  9
$HYPERLINKBASE
  1

  9
$STYLESHEET
  1

  9
$XEDIT
290
     1
  9
$CEPSNTYPE
380
     0
  9
$PSTYLEMODE
290
     1
  9
$FINGERPRINTGUID
  2
{233FE100-6B7C-10B3-E358-55146CC5998A}
  9
$VERSIONGUID
  2
{FAEB1C32-E019-11D5-929B-00C0DF256EC4}
  9
$EXTNAMES
290
     1
  9
$PSVPSCALE
 40
0.0
  9
$OLESTARTUP
290
     0
  9
$SORTENTS
280
   127
  9
$INDEXCTL
280
     0
  9
$HIDETEXT
280
     1
  9
$XCLIPFRAME
280
     2
  9
$HALOGAP
280
     0
  9
$OBSCOLOR
 70
   257
  9
$OBSLTYPE
280
     0
  9
$INTERSECTIONDISPLAY
280
     0
  9
$INTERSECTIONCOLOR
 70
   257
  9
$DIMASSOC
280
     2
  9
$PROJECTNAME
  1

  9
$CAMERADISPLAY
290
     0
  9
$LENSLENGTH
 40
50.0
  9
$CAMERAHEIGHT
 40
0.0
  9
$STEPSPERSEC
 40
2.0
  9
$STEPSIZE
 40
6.0
  9
$3DDWFPREC
 40
2.0
  9
$PSOLWIDTH
 40
0.25
  9
$PSOLHEIGHT
 40
4.0
  9
$LOFTANG1
 40
1.570796326794897
  9
$LOFTANG2
 40
1.570796326794897
  9
$LOFTMAG1
 40
0.0
  9
$LOFTMAG2
 40
0.0
  9
$LOFTPARAM
 70
     7
  9
$LOFTNORMALS
280
     1
  9
$LATITUDE
 40
37.795
  9
$LONGITUDE
 40
-122.394
  9
$NORTHDIRECTION
 40
0.0
  9
$TIMEZONE
 70
 -8000
  9
$LIGHTGLYPHDISPLAY
280
     1
  9
$TILEMODELIGHTSYNCH
280
     1
  9
$CMATERIAL
347
3C
  9
$SOLIDHIST
280
     1
  9
$SHOWHIST
280
     1
  9
$DWFFRAME
280
     2
  9
$DGNFRAME
280
     2
  9
$REALWORLDSCALE
290
     1
  9
$INTERFERECOLOR
 62
   256
  9
$CSHADOW
280
     0
  9
$SHADOWPLANELOCATION
 40
0.0
  0
ENDSEC
  0
SECTION
  2
CLASSES
  0
CLASS
  1
ACDBDICTIONARYWDFLT
  2
AcDbDictionaryWithDefault
  3
ObjectDBX Classes
 90
        0
 91
        4
280
     0
281
     0
  0
CLASS
  1
VISUALSTYLE
  2
AcDbVisualStyle
  3
ObjectDBX Classes
 90
     4095
 91
        4
280
     0
281
     0
  0
CLASS
  1
MATERIAL
  2
AcDbMaterial
  3
ObjectDBX Classes
 90
     1153
 91
        4
280
     0
281
     0
  0
CLASS
  1
SUN
  2
AcDbSun
  3
SCENEOE
 90
     1024
 91
        4
280
     0
281
     0
  0
ENDSEC
  0
SECTION
  2
TABLES
  0
TABLE
  2
VPORT
  5
8
330
0
100
AcDbSymbolTable
 70
     1
  0
VPORT
  5
29
330
8
100
AcDbSymbolTableRecord
100
AcDbViewportTableRecord
  2
*Active
 70
     0
 10
0.0
 20
0.0
 11
1.0
 21
1.0
 12
0.0
 22
0.0
 13
0.0
 23
0.0
 14
0.5
 24
0.5
 15
0.5
 25
0.5
 16
0.0
 26
0.0
 36
1.0
 17
91.00082462281999
 27
-128.4993055234307
 37
0.0
 40
256.9986110468615
 41
0.7081814508812795
 42
50.0
 43
0.0
 44
0.0
 50
0.0
 51
0.0
 71
     0
 72
   100
 73
     1
 74
     3
 75
     0
 76
     0
 77
     0
 78
     0
281
     0
 65
     1
110
0.0
120
0.0
130
0.0
111
1.0
121
0.0
131
0.0
112
0.0
122
1.0
132
0.0
 79
     0
146
0.0
 60
     3
 61
     5
292
     1
282
     1
141
0.0
142
0.0
 63
   250
361
3F
  0
ENDTAB
  0
TABLE
  2
LTYPE
  5
5
330
0
100
AcDbSymbolTable
 70
     1
  0
LTYPE
  5
14
330
5
100
AcDbSymbolTableRecord
100
AcDbLinetypeTableRecord
  2
ByBlock
 70
     0
  3

 72
    65
 73
     0
 40
0.0
  0
LTYPE
  5
15
330
5
100
AcDbSymbolTableRecord
100
AcDbLinetypeTableRecord
  2
ByLayer
 70
     0
  3

 72
    65
 73
     0
 40
0.0
  0
LTYPE
  5
16
330
5
100
AcDbSymbolTableRecord
100
AcDbLinetypeTableRecord
  2
Continuous
 70
     0
  3
Solid line
 72
    65
 73
     0
 40
0.0
  0
ENDTAB
  0
TABLE
  2
LAYER
  5
2
330
0
100
AcDbSymbolTable
 70
     2
  0
LAYER
  5
10
330
2
100
AcDbSymbolTableRecord
100
AcDbLayerTableRecord
  2
0
 70
     0
 62
     7
  6
Continuous
370
    -3
390
F
347
3E
  0
LAYER
  5
40
330
2
100
AcDbSymbolTableRecord
100
AcDbLayerTableRecord
  2
_U+30EC_U+30A4_U+30E4_U+30FC 1
 70
     0
 62
     7
  6
Continuous
370
    -3
390
F
347
3E
  0
ENDTAB
  0
TABLE
  2
STYLE
  5
3
330
0
100
AcDbSymbolTable
 70
     1
  0
STYLE
  5
11
330
3
100
AcDbSymbolTableRecord
100
AcDbTextStyleTableRecord
  2
Standard
 70
     0
 40
0.0
 41
1.0
 50
0.0
 71
     0
 42
0.2
  3
txt
  4

  0
ENDTAB
  0
TABLE
  2
VIEW
  5
6
330
0
100
AcDbSymbolTable
 70
     0
  0
ENDTAB
  0
TABLE
  2
UCS
  5
7
330
0
100
AcDbSymbolTable
 70
     0
  0
ENDTAB
  0
TABLE
  2
APPID
  5
9
330
0
100
AcDbSymbolTable
 70
     1
  0
APPID
  5
12
330
9
100
AcDbSymbolTableRecord
100
AcDbRegAppTableRecord
  2
ACAD
 70
     0
  0
ENDTAB
  0
TABLE
  2
DIMSTYLE
  5
A
330
0
100
AcDbSymbolTable
 70
     1
100
AcDbDimStyleTable
  0
DIMSTYLE
105
27
330
A
100
AcDbSymbolTableRecord
100
AcDbDimStyleTableRecord
  2
Standard
 70
     0
178
     0
340
11
  0
ENDTAB
  0
TABLE
  2
BLOCK_RECORD
  5
1
330
0
100
AcDbSymbolTable
 70
     9
  0
BLOCK_RECORD
  5
1F
330
1
100
AcDbSymbolTableRecord
100
AcDbBlockTableRecord
  2
*Model_Space
340
22
 70
     0
280
     1
281
     0
  0
BLOCK_RECORD
  5
1B
330
1
100
AcDbSymbolTableRecord
100
AcDbBlockTableRecord
  2
*Paper_Space
340
1E
 70
     0
280
     1
281
     0
  0
BLOCK_RECORD
  5
23
330
1
100
AcDbSymbolTableRecord
100
AcDbBlockTableRecord
  2
*Paper_Space0
340
26
 70
     0
280
     1
281
     0
  0
BLOCK_RECORD
  5
F6
330
1
100
AcDbSymbolTableRecord
100
AcDbBlockTableRecord
  2
block 2
340
0
102
{BLKREFS
331
F7
102
}
 70
     0
280
     1
281
     0
  0
BLOCK_RECORD
  5
106
330
1
100
AcDbSymbolTableRecord
100
AcDbBlockTableRecord
  2
block 3
340
0
102
{BLKREFS
331
107
102
}
 70
     0
280
     1
281
     0
  0
BLOCK_RECORD
  5
10F
330
1
100
AcDbSymbolTableRecord
100
AcDbBlockTableRecord
  2
block 4
340
0
102
{BLKREFS
331
110
102
}
 70
     0
280
     1
281
     0
  0
BLOCK_RECORD
  5
117
330
1
100
AcDbSymbolTableRecord
100
AcDbBlockTableRecord
  2
block 5
340
0
102
{BLKREFS
331
118
102
}
 70
     0
280
     1
281
     0
  0
BLOCK_RECORD
  5
11D
330
1
100
AcDbSymbolTableRecord
100
AcDbBlockTableRecord
  2
block 6
340
0
102
{BLKREFS
331
11E
102
}
 70
     0
280
     1
281
     0
  0
BLOCK_RECORD
  5
125
330
1
100
AcDbSymbolTableRecord
100
AcDbBlockTableRecord
  2
block 7
340
0
102
{BLKREFS
331
126
102
}
 70
     0
280
     1
281
     0
  0
BLOCK_RECORD
  5
12B
330
1
100
AcDbSymbolTableRecord
100
AcDbBlockTableRecord
  2
block 8
340
0
102
{BLKREFS
331
12C
102
}
 70
     0
280
     1
281
     0
  0
BLOCK_RECORD
  5
133
330
1
100
AcDbSymbolTableRecord
100
AcDbBlockTableRecord
  2
block 9
340
0
102
{BLKREFS
331
134
102
}
 70
     0
280
     1
281
     0
  0
ENDTAB
  0
ENDSEC
  0
SECTION
  2
BLOCKS
  0
BLOCK
  5
20
330
1F
100
AcDbEntity
  8
0
100
AcDbBlockBegin
  2
*Model_Space
 70
     0
 10
0.0
 20
0.0
 30
0.0
  3
*Model_Space
  1

  0
ENDBLK
  5
21
330
1F
100
AcDbEntity
  8
0
100
AcDbBlockEnd
  0
BLOCK
  5
1C
330
1B
100
AcDbEntity
 67
     1
  8
0
100
AcDbBlockBegin
  2
*Paper_Space
 70
     0
 10
0.0
 20
0.0
 30
0.0
  3
*Paper_Space
  1

  0
ENDBLK
  5
1D
330
1B
100
AcDbEntity
 67
     1
  8
0
100
AcDbBlockEnd
  0
BLOCK
  5
24
330
23
100
AcDbEntity
  8
0
100
AcDbBlockBegin
  2
*Paper_Space0
 70
     0
 10
0.0
 20
0.0
 30
0.0
  3
*Paper_Space0
  1

  0
ENDBLK
  5
25
330
23
100
AcDbEntity
  8
0
100
AcDbBlockEnd
  0
BLOCK
  5
F8
330
F6
100
AcDbEntity
  8
0
100
AcDbBlockBegin
  2
block 2
 70
     0
 10
0.0
 20
0.0
 30
0.0
  3
block 2
  1

  0
SPLINE
  5
FA
330
F6
100
AcDbEntity
  8
_U+30EC_U+30A4_U+30E4_U+30FC 1
370
     0
100
AcDbSpline
210
0.0
220
0.0
230
1.0
 70
    11
 71
     3
 72
    26
 73
    22
 74
     0
 42
0.0000000001
 43
0.0000000001
 12
1.0
 22
0.0
 32
0.0
 13
1.0
 23
0.0
 33
0.0
 40
0.0
 40
0.0
 40
0.0
 40
0.0
 40
1.0
 40
1.0
 40
1.0
 40
2.0
 40
2.0
 40
2.0
 40
3.0
 40
3.0
 40
3.0
 40
4.0
 40
4.0
 40
4.0
 40
5.0
 40
5.0
 40
5.0
 40
6.0
 40
6.0
 40
6.0
 40
7.0
 40
7.0
 40
7.0
 40
7.0
 10
97.83933374290129
 20
-91.7702812813109
 30
0.0
 10
97.83933374290129
 20
-91.7702812813109
 30
0.0
 10
97.83933374290129
 20
-90.66595592351408
 30
0.0
 10
97.83933374290129
 20
-90.66595592351408
 30
0.0
 10
97.83933374290129
 20
-90.66595592351408
 30
0.0
 10
97.50929359541435
 20
-90.66595592351408
 30
0.0
 10
97.50929359541435
 20
-90.66595592351408
 30
0.0
 10
97.50929359541435
 20
-90.66595592351408
 30
0.0
 10
97.50929359541435
 20
-90.5179890724226
 30
0.0
 10
97.50929359541435
 20
-90.5179890724226
 30
0.0
 10
97.84140080019243
 20
-90.50317516183601
 30
0.0
 10
97.8879095892433
 20
-90.34022214538369
 30
0.0
 10
97.91753741041646
 20
-90.22601723004766
 30
0.0
 10
97.91753741041646
 20
-90.22601723004766
 30
0.0
 10
98.06360945899105
 20
-90.22601723004766
 30
0.0
 10
98.06360945899105
 20
-90.22601723004766
 30
0.0
 10
98.06360945899105
 20
-90.22601723004766
 30
0.0
 10
98.06360945899105
 20
-91.7702812813109
 30
0.0
 10
98.06360945899105
 20
-91.7702812813109
 30
0.0
 10
98.06360945899105
 20
-91.7702812813109
 30
0.0
 10
97.83933374290129
 20
-91.7702812813109
 30
0.0
 10
97.83933374290129
 20
-91.7702812813109
 30
0.0
  0
HATCH
  5
FB
330
F6
100
AcDbEntity
  8
_U+30EC_U+30A4_U+30E4_U+30FC 1
 62
   179
420
  2234388
100
AcDbHatch
 10
0.0
 20
0.0
 30
0.0
210
0.0
220
0.0
230
1.0
  2
SOLID
 70
     1
 71
     0
 91
        1
 92
        1
 93
        1
 72
     4
 94
        3
 73
     0
 74
     1
 95
       26
 96
       22
 40
0.0
 40
0.0
 40
0.0
 40
0.0
 40
1.0
 40
1.0
 40
1.0
 40
2.0
 40
2.0
 40
2.0
 40
3.0
 40
3.0
 40
3.0
 40
4.0
 40
4.0
 40
4.0
 40
5.0
 40
5.0
 40
5.0
 40
6.0
 40
6.0
 40
6.0
 40
7.0
 40
7.0
 40
7.0
 40
7.0
 10
97.83933374290129
 20
-91.7702812813109
 10
97.83933374290129
 20
-91.7702812813109
 10
97.83933374290129
 20
-90.66595592351408
 10
97.83933374290129
 20
-90.66595592351408
 10
97.83933374290129
 20
-90.66595592351408
 10
97.50929359541435
 20
-90.66595592351408
 10
97.50929359541435
 20
-90.66595592351408
 10
97.50929359541435
 20
-90.66595592351408
 10
97.50929359541435
 20
-90.5179890724226
 10
97.50929359541435
 20
-90.5179890724226
 10
97.84140080019243
 20
-90.50317516183601
 10
97.8879095892433
 20
-90.34022214538369
 10
97.91753741041646
 20
-90.22601723004766
 10
97.91753741041646
 20
-90.22601723004766
 10
98.06360945899105
 20
-90.22601723004766
 10
98.06360945899105
 20
-90.22601723004766
 10
98.06360945899105
 20
-90.22601723004766
 10
98.06360945899105
 20
-91.7702812813109
 10
98.06360945899105
 20
-91.7702812813109
 10
98.06360945899105
 20
-91.7702812813109
 10
97.83933374290129
 20
-91.7702812813109
 10
97.83933374290129
 20
-91.7702812813109
 97
        0
 97
        0
 75
     2
 76
     1
 98
        0
  0
POLYLINE
  5
FC
330
F6
100
AcDbEntity
  8
_U+30EC_U+30A4_U+30E4_U+30FC 1
370
     0
100
AcDb2dPolyline
 66
     1
 10
0.0
 20
0.0
 30
0.0
  0
VERTEX
  5
FD
330
FC
100
AcDbEntity
  8
_U+30EC_U+30A4_U+30E4_U+30FC 1
370
     0
100
AcDbVertex
100
AcDb2dVertex
 10
98.62481551353825
 20
-91.7702812813109
 30
0.0
  0
VERTEX
  5
FE
330
FC
100
AcDbEntity
  8
_U+30EC_U+30A4_U+30E4_U+30FC 1
370
     0
100
AcDbVertex
100
AcDb2dVertex
 10
98.62481551353825
 20
-91.5186170561134
 30
0.0
  0
VERTEX
  5
FF
330
FC
100
AcDbEntity
  8
_U+30EC_U+30A4_U+30E4_U+30FC 1
370
     0
100
AcDbVertex
100
AcDb2dVertex
 10
98.87630748396148
 20
-91.5186170561134
 30
0.0
  0
VERTEX
  5
100
330
FC
100
AcDbEntity
  8
_U+30EC_U+30A4_U+30E4_U+30FC 1
370
     0
100
AcDbVertex
100
AcDb2dVertex
 10
98.87630748396148
 20
-91.7702812813109
 30
0.0
  0
VERTEX
  5
101
330
FC
100
AcDbEntity
  8
_U+30EC_U+30A4_U+30E4_U+30FC 1
370
     0
100
AcDbVertex
100
AcDb2dVertex
 10
98.62481551353825
 20
-91.7702812813109
 30
0.0
  0
SEQEND
  5
102
330
FC
100
AcDbEntity
  8
_U+30EC_U+30A4_U+30E4_U+30FC 1
370
     0
  0
HATCH
  5
103
330
F6
100
AcDbEntity
  8
_U+30EC_U+30A4_U+30E4_U+30FC 1
 62
   179
420
  2234388
100
AcDbHatch
 10
0.0
 20
0.0
 30
0.0
210
0.0
220
0.0
230
1.0
  2
SOLID
 70
     1
 71
     0
 91
        1
 92
        1
 93
        4
 72
     1
 10
98.62481551353825
 20
-91.7702812813109
 11
98.62481551353825
 21
-91.5186170561134
 72
     1
 10
98.62481551353825
 20
-91.5186170561134
 11
98.87630748396148
 21
-91.5186170561134
 72
     1
 10
98.87630748396148
 20
-91.5186170561134
 11
98.87630748396148
 21
-91.7702812813109
 72
     1
 10
98.87630748396148
 20
-91.7702812813109
 11
98.62481551353825
 21
-91.7702812813109
 97
        0
 75
     2
 76
     1
 98
        0
  0
SPLINE
  5
104
330
F6
100
AcDbEntity
  8
_U+30EC_U+30A4_U+30E4_U+30FC 1
370
     0
100
AcDbSpline
210
0.0
220
0.0
230
1.0
 70
    11
 71
     3
 72
    44
 73
    40
 74
     0
 42
0.0000000001
 43
0.0000000001
 12
1.0
 22
0.0
 32
0.0
 13
1.0
 23
0.0
 33
0.0
 40
0.0
 40
0.0
 40
0.0
 40
0.0
 40
1.0
 40
1.0
 40
1.0
 40
2.0
 40
2.0
 40
2.0
 40
3.0
 40
3.0
 40
3.0
 40
4.0
 40
4.0
 40
4.0
 40
5.0
 40
5.0
 40
5.0
 40
6.0
 40
6.0
 40
6.0
 40
7.0
 40
7.0
 40
7.0
 40
8.0
 40
8.0
 40
8.0
 40
9.0
 40
9.0
 40
9.0
 40
10.0
 40
10.0
 40
10.0
 40
11.0
 40
11.0
 40
11.0
 40
12.0
 40
12.0
 40
12.0
 40
13.0
 40
13.0
 40
13.0
 40
13.0
 10
99.70588647680964
 20
-91.18857690862647
 30
0.0
 10
99.48815644214186
 20
-91.34722355572222
 30
0.0
 10
99.39479435449158
 20
-91.42129310865509
 30
0.0
 10
99.34621850814956
 20
-91.56512584516427
 30
0.0
 10
99.34621850814956
 20
-91.56512584516427
 30
0.0
 10
100.124810087816
 20
-91.56512584516427
 30
0.0
 10
100.124810087816
 20
-91.56512584516427
 30
0.0
 10
100.124810087816
 20
-91.56512584516427
 30
0.0
 10
100.124810087816
 20
-91.7702812813109
 30
0.0
 10
100.124810087816
 20
-91.7702812813109
 30
0.0
 10
100.124810087816
 20
-91.7702812813109
 30
0.0
 10
99.09679359501747
 20
-91.7702812813109
 30
0.0
 10
99.09679359501747
 20
-91.7702812813109
 30
0.0
 10
99.12848847348177
 20
-91.41268036994197
 30
0.0
 10
99.19394528770152
 20
-91.3344767024268
 30
0.0
 10
99.57910696295245
 20
-91.03613143340417
 30
0.0
 10
99.83507755750651
 20
-90.83734942390525
 30
0.0
 10
99.90053437172627
 20
-90.7696532976201
 30
0.0
 10
99.90053437172627
 20
-90.63219398775863
 30
0.0
 10
99.90053437172627
 20
-90.51368270306602
 30
0.0
 10
99.82853187608454
 20
-90.38259681985227
 30
0.0
 10
99.63181692387677
 20
-90.38259681985227
 30
0.0
 10
99.37171221474041
 20
-90.38259681985227
 30
0.0
 10
99.36309947602729
 20
-90.61307370781549
 30
0.0
 10
99.35896536144499
 20
-90.72951793521693
 30
0.0
 10
99.35896536144499
 20
-90.72951793521693
 30
0.0
 10
99.13468964535522
 20
-90.72951793521693
 30
0.0
 10
99.13468964535522
 20
-90.72951793521693
 30
0.0
 10
99.14330238406835
 20
-90.60256616658548
 30
0.0
 10
99.15363767052409
 20
-90.49042830854059
 30
0.0
 10
99.23425290487894
 20
-90.371917023848
 30
0.0
 10
99.3441514508584
 20
-90.21120331946109
 30
0.0
 10
99.5301866070619
 20
-90.17726912893139
 30
0.0
 10
99.64663083446335
 20
-90.17726912893139
 30
0.0
 10
99.92396102102596
 20
-90.17726912893139
 30
0.0
 10
100.1310112596895
 20
-90.36140948261799
 30
0.0
 10
100.1310112596895
 20
-90.63426104504977
 30
0.0
 10
100.1310112596895
 20
-90.86267087572183
 30
0.0
 10
100.0149115418366
 20
-90.96223413524555
 30
0.0
 10
99.70588647680964
 20
-91.18857690862647
 30
0.0
  0
HATCH
  5
105
330
F6
100
AcDbEntity
  8
_U+30EC_U+30A4_U+30E4_U+30FC 1
 62
   179
420
  2234388
100
AcDbHatch
 10
0.0
 20
0.0
 30
0.0
210
0.0
220
0.0
230
1.0
  2
SOLID
 70
     1
 71
     0
 91
        1
 92
        1
 93
        1
 72
     4
 94
        3
 73
     0
 74
     1
 95
       44
 96
       40
 40
0.0
 40
0.0
 40
0.0
 40
0.0
 40
1.0
 40
1.0
 40
1.0
 40
2.0
 40
2.0
 40
2.0
 40
3.0
 40
3.0
 40
3.0
 40
4.0
 40
4.0
 40
4.0
 40
5.0
 40
5.0
 40
5.0
 40
6.0
 40
6.0
 40
6.0
 40
7.0
 40
7.0
 40
7.0
 40
8.0
 40
8.0
 40
8.0
 40
9.0
 40
9.0
 40
9.0
 40
10.0
 40
10.0
 40
10.0
 40
11.0
 40
11.0
 40
11.0
 40
12.0
 40
12.0
 40
12.0
 40
13.0
 40
13.0
 40
13.0
 40
13.0
 10
99.70588647680964
 20
-91.18857690862647
 10
99.48815644214186
 20
-91.34722355572222
 10
99.39479435449158
 20
-91.42129310865509
 10
99.34621850814956
 20
-91.56512584516427
 10
99.34621850814956
 20
-91.56512584516427
 10
100.124810087816
 20
-91.56512584516427
 10
100.124810087816
 20
-91.56512584516427
 10
100.124810087816
 20
-91.56512584516427
 10
100.124810087816
 20
-91.7702812813109
 10
100.124810087816
 20
-91.7702812813109
 10
100.124810087816
 20
-91.7702812813109
 10
99.09679359501747
 20
-91.7702812813109
 10
99.09679359501747
 20
-91.7702812813109
 10
99.12848847348177
 20
-91.41268036994197
 10
99.19394528770152
 20
-91.3344767024268
 10
99.57910696295245
 20
-91.03613143340417
 10
99.83507755750651
 20
-90.83734942390525
 10
99.90053437172627
 20
-90.7696532976201
 10
99.90053437172627
 20
-90.63219398775863
 10
99.90053437172627
 20
-90.51368270306602
 10
99.82853187608454
 20
-90.38259681985227
 10
99.63181692387677
 20
-90.38259681985227
 10
99.37171221474041
 20
-90.38259681985227
 10
99.36309947602729
 20
-90.61307370781549
 10
99.35896536144499
 20
-90.72951793521693
 10
99.35896536144499
 20
-90.72951793521693
 10
99.13468964535522
 20
-90.72951793521693
 10
99.13468964535522
 20
-90.72951793521693
 10
99.14330238406835
 20
-90.60256616658548
 10
99.15363767052409
 20
-90.49042830854059
 10
99.23425290487894
 20
-90.371917023848
 10
99.3441514508584
 20
-90.21120331946109
 10
99.5301866070619
 20
-90.17726912893139
 10
99.64663083446335
 20
-90.17726912893139
 10
99.92396102102596
 20
-90.17726912893139
 10
100.1310112596895
 20
-90.36140948261799
 10
100.1310112596895
 20
-90.63426104504977
 10
100.1310112596895
 20
-90.86267087572183
 10
100.0149115418366
 20
-90.96223413524555
 10
99.70588647680964
 20
-91.18857690862647
 97
        0
 97
        0
 75
     2
 76
     1
 98
        0
  0
ENDBLK
  5
F9
330
F6
100
AcDbEntity
  8
0
100
AcDbBlockEnd
  0
BLOCK
  5
108
330
106
100
AcDbEntity
  8
0
100
AcDbBlockBegin
  2
block 3
 70
     0
 10
0.0
 20
0.0
 30
0.0
  3
block 3
  1

  0
SPLINE
  5
10A
330
106
100
AcDbEntity
  8
_U+30EC_U+30A4_U+30E4_U+30FC 1
370
     0
100
AcDbSpline
210
0.0
220
0.0
230
1.0
 70
    11
 71
     3
 72
    53
 73
    49
 74
     0
 42
0.0000000001
 43
0.0000000001
 12
1.0
 22
0.0
 32
0.0
 13
1.0
 23
0.0
 33
0.0
 40
0.0
 40
0.0
 40
0.0
 40
0.0
 40
1.0
 40
1.0
 40
1.0
 40
2.0
 40
2.0
 40
2.0
 40
3.0
 40
3.0
 40
3.0
 40
4.0
 40
4.0
 40
4.0
 40
5.0
 40
5.0
 40
5.0
 40
6.0
 40
6.0
 40
6.0
 40
7.0
 40
7.0
 40
7.0
 40
8.0
 40
8.0
 40
8.0
 40
9.0
 40
9.0
 40
9.0
 40
10.0
 40
10.0
 40
10.0
 40
11.0
 40
11.0
 40
11.0
 40
12.0
 40
12.0
 40
12.0
 40
13.0
 40
13.0
 40
13.0
 40
14.0
 40
14.0
 40
14.0
 40
15.0
 40
15.0
 40
15.0
 40
16.0
 40
16.0
 40
16.0
 40
16.0
 10
105.5656493876711
 20
-122.8297118833551
 30
0.0
 10
105.5656493876711
 20
-122.9079155508702
 30
0.0
 10
105.5487684197934
 20
-123.0095458676851
 30
0.0
 10
105.4853786628648
 20
-123.1111761845
 30
0.0
 10
105.3754801168853
 20
-123.2844644874081
 30
0.0
 10
105.2442219788973
 20
-123.3058240794166
 30
0.0
 10
105.136390490209
 20
-123.3247721045855
 30
0.0
 10
105.136390490209
 20
-123.3247721045855
 30
0.0
 10
105.136390490209
 20
-123.1025634457869
 30
0.0
 10
105.136390490209
 20
-123.1025634457869
 30
0.0
 10
105.3351724997079
 20
-123.0477864275714
 30
0.0
 10
105.364800320881
 20
-122.9206624041657
 30
0.0
 10
105.364800320881
 20
-122.8276448260639
 30
0.0
 10
105.364800320881
 20
-122.6881184589113
 30
0.0
 10
105.2652370613573
 20
-122.5358452384633
 30
0.0
 10
105.0326931161029
 20
-122.5358452384633
 30
0.0
 10
104.7767225215489
 20
-122.5358452384633
 30
0.0
 10
104.7067870831983
 20
-122.7156792227933
 30
0.0
 10
104.7067870831983
 20
-122.8362575647771
 30
0.0
 10
104.7067870831983
 20
-122.8679524432414
 30
0.0
 10
104.7067870831983
 20
-123.0095458676851
 30
0.0
 10
104.8359781638952
 20
-123.0984293312046
 30
0.0
 10
104.8359781638952
 20
-123.0984293312046
 30
0.0
 10
104.8170301387263
 20
-123.2741292009523
 30
0.0
 10
104.8170301387263
 20
-123.2741292009523
 30
0.0
 10
104.8170301387263
 20
-123.2741292009523
 30
0.0
 10
103.9705701780004
 20
-123.1535508589686
 30
0.0
 10
103.9705701780004
 20
-123.1535508589686
 30
0.0
 10
103.9705701780004
 20
-123.1535508589686
 30
0.0
 10
103.9705701780004
 20
-122.3749592793021
 30
0.0
 10
103.9705701780004
 20
-122.3749592793021
 30
0.0
 10
103.9705701780004
 20
-122.3749592793021
 30
0.0
 10
104.165218072917
 20
-122.3749592793021
 30
0.0
 10
104.165218072917
 20
-122.3749592793021
 30
0.0
 10
104.165218072917
 20
-122.3749592793021
 30
0.0
 10
104.165218072917
 20
-122.9905978425163
 30
0.0
 10
104.165218072917
 20
-122.9905978425163
 30
0.0
 10
104.165218072917
 20
-122.9905978425163
 30
0.0
 10
104.5882757985057
 20
-123.056054656736
 30
0.0
 10
104.5882757985057
 20
-123.056054656736
 30
0.0
 10
104.5545138627503
 20
-122.9947319570986
 30
0.0
 10
104.5142062455728
 20
-122.9123941750011
 30
0.0
 10
104.5142062455728
 20
-122.7938828903085
 30
0.0
 10
104.5142062455728
 20
-122.5399793530456
 30
0.0
 10
104.7005859113249
 20
-122.3029567836604
 30
0.0
 10
105.0137450909341
 20
-122.3029567836604
 30
0.0
 10
105.3310383851256
 20
-122.3029567836604
 30
0.0
 10
105.5656493876711
 20
-122.5272324997501
 30
0.0
 10
105.5656493876711
 20
-122.8297118833551
 30
0.0
  0
HATCH
  5
10B
330
106
100
AcDbEntity
  8
_U+30EC_U+30A4_U+30E4_U+30FC 1
 62
   179
420
  2234388
100
AcDbHatch
 10
0.0
 20
0.0
 30
0.0
210
0.0
220
0.0
230
1.0
  2
SOLID
 70
     1
 71
     0
 91
        1
 92
        1
 93
        1
 72
     4
 94
        3
 73
     0
 74
     1
 95
       53
 96
       49
 40
0.0
 40
0.0
 40
0.0
 40
0.0
 40
1.0
 40
1.0
 40
1.0
 40
2.0
 40
2.0
 40
2.0
 40
3.0
 40
3.0
 40
3.0
 40
4.0
 40
4.0
 40
4.0
 40
5.0
 40
5.0
 40
5.0
 40
6.0
 40
6.0
 40
6.0
 40
7.0
 40
7.0
 40
7.0
 40
8.0
 40
8.0
 40
8.0
 40
9.0
 40
9.0
 40
9.0
 40
10.0
 40
10.0
 40
10.0
 40
11.0
 40
11.0
 40
11.0
 40
12.0
 40
12.0
 40
12.0
 40
13.0
 40
13.0
 40
13.0
 40
14.0
 40
14.0
 40
14.0
 40
15.0
 40
15.0
 40
15.0
 40
16.0
 40
16.0
 40
16.0
 40
16.0
 10
105.5656493876711
 20
-122.8297118833551
 10
105.5656493876711
 20
-122.9079155508702
 10
105.5487684197934
 20
-123.0095458676851
 10
105.4853786628648
 20
-123.1111761845
 10
105.3754801168853
 20
-123.2844644874081
 10
105.2442219788973
 20
-123.3058240794166
 10
105.136390490209
 20
-123.3247721045855
 10
105.136390490209
 20
-123.3247721045855
 10
105.136390490209
 20
-123.1025634457869
 10
105.136390490209
 20
-123.1025634457869
 10
105.3351724997079
 20
-123.0477864275714
 10
105.364800320881
 20
-122.9206624041657
 10
105.364800320881
 20
-122.8276448260639
 10
105.364800320881
 20
-122.6881184589113
 10
105.2652370613573
 20
-122.5358452384633
 10
105.0326931161029
 20
-122.5358452384633
 10
104.7767225215489
 20
-122.5358452384633
 10
104.7067870831983
 20
-122.7156792227933
 10
104.7067870831983
 20
-122.8362575647771
 10
104.7067870831983
 20
-122.8679524432414
 10
104.7067870831983
 20
-123.0095458676851
 10
104.8359781638952
 20
-123.0984293312046
 10
104.8359781638952
 20
-123.0984293312046
 10
104.8170301387263
 20
-123.2741292009523
 10
104.8170301387263
 20
-123.2741292009523
 10
104.8170301387263
 20
-123.2741292009523
 10
103.9705701780004
 20
-123.1535508589686
 10
103.9705701780004
 20
-123.1535508589686
 10
103.9705701780004
 20
-123.1535508589686
 10
103.9705701780004
 20
-122.3749592793021
 10
103.9705701780004
 20
-122.3749592793021
 10
103.9705701780004
 20
-122.3749592793021
 10
104.165218072917
 20
-122.3749592793021
 10
104.165218072917
 20
-122.3749592793021
 10
104.165218072917
 20
-122.3749592793021
 10
104.165218072917
 20
-122.9905978425163
 10
104.165218072917
 20
-122.9905978425163
 10
104.165218072917
 20
-122.9905978425163
 10
104.5882757985057
 20
-123.056054656736
 10
104.5882757985057
 20
-123.056054656736
 10
104.5545138627503
 20
-122.9947319570986
 10
104.5142062455728
 20
-122.9123941750011
 10
104.5142062455728
 20
-122.7938828903085
 10
104.5142062455728
 20
-122.5399793530456
 10
104.7005859113249
 20
-122.3029567836604
 10
105.0137450909341
 20
-122.3029567836604
 10
105.3310383851256
 20
-122.3029567836604
 10
105.5656493876711
 20
-122.5272324997501
 10
105.5656493876711
 20
-122.8297118833551
 97
        0
 97
        0
 75
     2
 76
     1
 98
        0
  0
SPLINE
  5
10C
330
106
100
AcDbEntity
  8
_U+30EC_U+30A4_U+30E4_U+30FC 1
370
     0
100
AcDbSpline
210
0.0
220
0.0
230
1.0
 70
    11
 71
     3
 72
    29
 73
    25
 74
     0
 42
0.0000000001
 43
0.0000000001
 12
1.0
 22
0.0
 32
0.0
 13
1.0
 23
0.0
 33
0.0
 40
0.0
 40
0.0
 40
0.0
 40
0.0
 40
1.0
 40
1.0
 40
1.0
 40
2.0
 40
2.0
 40
2.0
 40
3.0
 40
3.0
 40
3.0
 40
4.0
 40
4.0
 40
4.0
 40
5.0
 40
5.0
 40
5.0
 40
6.0
 40
6.0
 40
6.0
 40
7.0
 40
7.0
 40
7.0
 40
8.0
 40
8.0
 40
8.0
 40
8.0
 10
105.337239556999
 20
-121.2360107118785
 30
0.0
 10
105.5467013625022
 20
-121.3441867101154
 30
0.0
 10
105.5656493876711
 20
-121.5174750130234
 30
0.0
 10
105.5656493876711
 20
-121.6339192404249
 30
0.0
 10
105.5656493876711
 20
-121.794805199586
 30
0.0
 10
105.5191405986202
 20
-121.9363986240298
 30
0.0
 10
105.337239556999
 20
-122.0314832594227
 30
0.0
 10
105.1425916620824
 20
-122.1351806335287
 30
0.0
 10
104.9059136022457
 20
-122.1541286586976
 30
0.0
 10
104.7429605857934
 20
-122.1541286586976
 30
0.0
 10
104.59895559451
 20
-122.1541286586976
 30
0.0
 10
104.3471191145382
 20
-122.1372476908199
 30
0.0
 10
104.1483371050393
 20
-122.0314832594227
 30
0.0
 10
103.9454209809581
 20
-121.9236517707344
 30
0.0
 10
103.9219943316584
 20
-121.7627658115732
 30
0.0
 10
103.9219943316584
 20
-121.6339192404249
 30
0.0
 10
103.9219943316584
 20
-121.4751003385548
 30
0.0
 10
103.9664360634181
 20
-121.3314398568199
 30
0.0
 10
104.1483371050393
 20
-121.2360107118785
 30
0.0
 10
104.3409179426648
 20
-121.1367919619033
 30
0.0
 10
104.5693277733368
 20
-121.1133653126036
 30
0.0
 10
104.7429605857934
 20
-121.1133653126036
 30
0.0
 10
104.9141818314103
 20
-121.1133653126036
 30
0.0
 10
105.1446587193736
 20
-121.1347249046122
 30
0.0
 10
105.337239556999
 20
-121.2360107118785
 30
0.0
  0
SPLINE
  5
10D
330
106
100
AcDbEntity
  8
_U+30EC_U+30A4_U+30E4_U+30FC 1
370
     0
100
AcDbSpline
210
0.0
220
0.0
230
1.0
 70
    11
 71
     3
 72
    17
 73
    13
 74
     0
 42
0.0000000001
 43
0.0000000001
 12
1.0
 22
0.0
 32
0.0
 13
1.0
 23
0.0
 33
0.0
 40
0.0
 40
0.0
 40
0.0
 40
0.0
 40
1.0
 40
1.0
 40
1.0
 40
2.0
 40
2.0
 40
2.0
 40
3.0
 40
3.0
 40
3.0
 40
4.0
 40
4.0
 40
4.0
 40
4.0
 10
104.1145751692839
 20
-121.6339192404249
 30
0.0
 10
104.1145751692839
 20
-121.8833441535569
 30
0.0
 10
104.3981065277199
 20
-121.9301974521563
 30
0.0
 10
104.7429605857934
 20
-121.9301974521563
 30
0.0
 10
105.0623209372761
 20
-121.9301974521563
 30
0.0
 10
105.3710014927545
 20
-121.8940239495612
 30
0.0
 10
105.3710014927545
 20
-121.6339192404249
 30
0.0
 10
105.3710014927545
 20
-121.3862168750354
 30
0.0
 10
105.0898817011581
 20
-121.3376410286934
 30
0.0
 10
104.7429605857934
 20
-121.3376410286934
 30
0.0
 10
104.4232557247622
 20
-121.3376410286934
 30
0.0
 10
104.1145751692839
 20
-121.3758815885796
 30
0.0
 10
104.1145751692839
 20
-121.6339192404249
 30
0.0
  0
HATCH
  5
10E
330
106
100
AcDbEntity
  8
_U+30EC_U+30A4_U+30E4_U+30FC 1
 62
   179
420
  2234388
100
AcDbHatch
 10
0.0
 20
0.0
 30
0.0
210
0.0
220
0.0
230
1.0
  2
SOLID
 70
     1
 71
     0
 91
        2
 92
        1
 93
        1
 72
     4
 94
        3
 73
     0
 74
     1
 95
       29
 96
       25
 40
0.0
 40
0.0
 40
0.0
 40
0.0
 40
1.0
 40
1.0
 40
1.0
 40
2.0
 40
2.0
 40
2.0
 40
3.0
 40
3.0
 40
3.0
 40
4.0
 40
4.0
 40
4.0
 40
5.0
 40
5.0
 40
5.0
 40
6.0
 40
6.0
 40
6.0
 40
7.0
 40
7.0
 40
7.0
 40
8.0
 40
8.0
 40
8.0
 40
8.0
 10
105.337239556999
 20
-121.2360107118785
 10
105.5467013625022
 20
-121.3441867101154
 10
105.5656493876711
 20
-121.5174750130234
 10
105.5656493876711
 20
-121.6339192404249
 10
105.5656493876711
 20
-121.794805199586
 10
105.5191405986202
 20
-121.9363986240298
 10
105.337239556999
 20
-122.0314832594227
 10
105.1425916620824
 20
-122.1351806335287
 10
104.9059136022457
 20
-122.1541286586976
 10
104.7429605857934
 20
-122.1541286586976
 10
104.59895559451
 20
-122.1541286586976
 10
104.3471191145382
 20
-122.1372476908199
 10
104.1483371050393
 20
-122.0314832594227
 10
103.9454209809581
 20
-121.9236517707344
 10
103.9219943316584
 20
-121.7627658115732
 10
103.9219943316584
 20
-121.6339192404249
 10
103.9219943316584
 20
-121.4751003385548
 10
103.9664360634181
 20
-121.3314398568199
 10
104.1483371050393
 20
-121.2360107118785
 10
104.3409179426648
 20
-121.1367919619033
 10
104.5693277733368
 20
-121.1133653126036
 10
104.7429605857934
 20
-121.1133653126036
 10
104.9141818314103
 20
-121.1133653126036
 10
105.1446587193736
 20
-121.1347249046122
 10
105.337239556999
 20
-121.2360107118785
 97
        0
 97
        0
 92
        1
 93
        1
 72
     4
 94
        3
 73
     0
 74
     1
 95
       17
 96
       13
 40
0.0
 40
0.0
 40
0.0
 40
0.0
 40
1.0
 40
1.0
 40
1.0
 40
2.0
 40
2.0
 40
2.0
 40
3.0
 40
3.0
 40
3.0
 40
4.0
 40
4.0
 40
4.0
 40
4.0
 10
104.1145751692839
 20
-121.6339192404249
 10
104.1145751692839
 20
-121.8833441535569
 10
104.3981065277199
 20
-121.9301974521563
 10
104.7429605857934
 20
-121.9301974521563
 10
105.0623209372761
 20
-121.9301974521563
 10
105.3710014927545
 20
-121.8940239495612
 10
105.3710014927545
 20
-121.6339192404249
 10
105.3710014927545
 20
-121.3862168750354
 10
105.0898817011581
 20
-121.3376410286934
 10
104.7429605857934
 20
-121.3376410286934
 10
104.4232557247622
 20
-121.3376410286934
 10
104.1145751692839
 20
-121.3758815885796
 10
104.1145751692839
 20
-121.6339192404249
 97
        0
 97
        0
 75
     2
 76
     1
 98
        0
  0
ENDBLK
  5
109
330
106
100
AcDbEntity
  8
0
100
AcDbBlockEnd
  0
BLOCK
  5
111
330
10F
100
AcDbEntity
  8
0
100
AcDbBlockBegin
  2
block 4
 70
     0
 10
0.0
 20
0.0
 30
0.0
  3
block 4
  1

  0
SPLINE
  5
113
330
10F
100
AcDbEntity
  8
_U+30EC_U+30A4_U+30E4_U+30FC 1
370
     0
100
AcDbSpline
210
0.0
220
0.0
230
1.0
 70
    11
 71
     3
 72
    26
 73
    22
 74
     0
 42
0.0000000001
 43
0.0000000001
 12
1.0
 22
0.0
 32
0.0
 13
1.0
 23
0.0
 33
0.0
 40
0.0
 40
0.0
 40
0.0
 40
0.0
 40
1.0
 40
1.0
 40
1.0
 40
2.0
 40
2.0
 40
2.0
 40
3.0
 40
3.0
 40
3.0
 40
4.0
 40
4.0
 40
4.0
 40
5.0
 40
5.0
 40
5.0
 40
6.0
 40
6.0
 40
6.0
 40
7.0
 40
7.0
 40
7.0
 40
7.0
 10
105.5153509935864
 20
-154.2589734857408
 30
0.0
 10
105.5153509935864
 20
-154.2589734857408
 30
0.0
 10
104.4111978905639
 20
-154.2589734857408
 30
0.0
 10
104.4111978905639
 20
-154.2589734857408
 30
0.0
 10
104.4111978905639
 20
-154.2589734857408
 30
0.0
 10
104.4111978905639
 20
-154.5890136332278
 30
0.0
 10
104.4111978905639
 20
-154.5890136332278
 30
0.0
 10
104.4111978905639
 20
-154.5890136332278
 30
0.0
 10
104.2630587846981
 20
-154.5890136332278
 30
0.0
 10
104.2630587846981
 20
-154.5890136332278
 30
0.0
 10
104.2482448741115
 20
-154.2569064284497
 30
0.0
 10
104.0852918576592
 20
-154.2103976393988
 30
0.0
 10
103.9709146875489
 20
-154.1807698182257
 30
0.0
 10
103.9709146875489
 20
-154.1807698182257
 30
0.0
 10
103.9709146875489
 20
-154.034697769651
 30
0.0
 10
103.9709146875489
 20
-154.034697769651
 30
0.0
 10
103.9709146875489
 20
-154.034697769651
 30
0.0
 10
105.5153509935864
 20
-154.034697769651
 30
0.0
 10
105.5153509935864
 20
-154.034697769651
 30
0.0
 10
105.5153509935864
 20
-154.034697769651
 30
0.0
 10
105.5153509935864
 20
-154.2589734857408
 30
0.0
 10
105.5153509935864
 20
-154.2589734857408
 30
0.0
  0
HATCH
  5
114
330
10F
100
AcDbEntity
  8
_U+30EC_U+30A4_U+30E4_U+30FC 1
 62
   179
420
  2234388
100
AcDbHatch
 10
0.0
 20
0.0
 30
0.0
210
0.0
220
0.0
230
1.0
  2
SOLID
 70
     1
 71
     0
 91
        1
 92
        1
 93
        1
 72
     4
 94
        3
 73
     0
 74
     1
 95
       26
 96
       22
 40
0.0
 40
0.0
 40
0.0
 40
0.0
 40
1.0
 40
1.0
 40
1.0
 40
2.0
 40
2.0
 40
2.0
 40
3.0
 40
3.0
 40
3.0
 40
4.0
 40
4.0
 40
4.0
 40
5.0
 40
5.0
 40
5.0
 40
6.0
 40
6.0
 40
6.0
 40
7.0
 40
7.0
 40
7.0
 40
7.0
 10
105.5153509935864
 20
-154.2589734857408
 10
105.5153509935864
 20
-154.2589734857408
 10
104.4111978905639
 20
-154.2589734857408
 10
104.4111978905639
 20
-154.2589734857408
 10
104.4111978905639
 20
-154.2589734857408
 10
104.4111978905639
 20
-154.5890136332278
 10
104.4111978905639
 20
-154.5890136332278
 10
104.4111978905639
 20
-154.5890136332278
 10
104.2630587846981
 20
-154.5890136332278
 10
104.2630587846981
 20
-154.5890136332278
 10
104.2482448741115
 20
-154.2569064284497
 10
104.0852918576592
 20
-154.2103976393988
 10
103.9709146875489
 20
-154.1807698182257
 10
103.9709146875489
 20
-154.1807698182257
 10
103.9709146875489
 20
-154.034697769651
 10
103.9709146875489
 20
-154.034697769651
 10
103.9709146875489
 20
-154.034697769651
 10
105.5153509935864
 20
-154.034697769651
 10
105.5153509935864
 20
-154.034697769651
 10
105.5153509935864
 20
-154.034697769651
 10
105.5153509935864
 20
-154.2589734857408
 10
105.5153509935864
 20
-154.2589734857408
 97
        0
 97
        0
 75
     2
 76
     1
 98
        0
  0
SPLINE
  5
115
330
10F
100
AcDbEntity
  8
_U+30EC_U+30A4_U+30E4_U+30FC 1
370
     0
100
AcDbSpline
210
0.0
220
0.0
230
1.0
 70
    11
 71
     3
 72
    62
 73
    58
 74
     0
 42
0.0000000001
 43
0.0000000001
 12
1.0
 22
0.0
 32
0.0
 13
1.0
 23
0.0
 33
0.0
 40
0.0
 40
0.0
 40
0.0
 40
0.0
 40
1.0
 40
1.0
 40
1.0
 40
2.0
 40
2.0
 40
2.0
 40
3.0
 40
3.0
 40
3.0
 40
4.0
 40
4.0
 40
4.0
 40
5.0
 40
5.0
 40
5.0
 40
6.0
 40
6.0
 40
6.0
 40
7.0
 40
7.0
 40
7.0
 40
8.0
 40
8.0
 40
8.0
 40
9.0
 40
9.0
 40
9.0
 40
10.0
 40
10.0
 40
10.0
 40
11.0
 40
11.0
 40
11.0
 40
12.0
 40
12.0
 40
12.0
 40
13.0
 40
13.0
 40
13.0
 40
14.0
 40
14.0
 40
14.0
 40
15.0
 40
15.0
 40
15.0
 40
16.0
 40
16.0
 40
16.0
 40
17.0
 40
17.0
 40
17.0
 40
18.0
 40
18.0
 40
18.0
 40
19.0
 40
19.0
 40
19.0
 40
19.0
 10
105.5659938972196
 20
-153.0418212508021
 30
0.0
 10
105.5659938972196
 20
-153.1372503957435
 30
0.0
 10
105.5449788147596
 20
-153.3549804304113
 30
0.0
 10
105.3589436585561
 20
-153.4800373965258
 30
0.0
 10
105.246633545737
 20
-153.5541069494587
 30
0.0
 10
105.1474147957618
 20
-153.558241064041
 30
0.0
 10
105.0626654468246
 20
-153.5623751786233
 30
0.0
 10
105.0626654468246
 20
-153.5623751786233
 30
0.0
 10
105.0626654468246
 20
-153.3422335771158
 30
0.0
 10
105.0626654468246
 20
-153.3422335771158
 30
0.0
 10
105.1367349997575
 20
-153.3401665198247
 30
0.0
 10
105.371346002303
 20
-153.3298312333689
 30
0.0
 10
105.371346002303
 20
-153.0462998749329
 30
0.0
 10
105.371346002303
 20
-152.9088405650714
 30
0.0
 10
105.301755073501
 20
-152.7562228350749
 30
0.0
 10
105.0733452428289
 20
-152.7562228350749
 30
0.0
 10
104.9569010154274
 20
-152.7562228350749
 30
0.0
 10
104.9083251690854
 20
-152.7944633949611
 30
0.0
 10
104.8766302906211
 20
-152.8261582734254
 30
0.0
 10
104.8025607376883
 20
-152.9002278263583
 30
0.0
 10
104.7898138843928
 20
-153.0166720537597
 30
0.0
 10
104.7898138843928
 20
-153.0714490719752
 30
0.0
 10
104.7898138843928
 20
-153.0907416066926
 30
0.0
 10
104.791880941684
 20
-153.1265705997392
 30
0.0
 10
104.7960150562663
 20
-153.1541313636212
 30
0.0
 10
104.7960150562663
 20
-153.1541313636212
 30
0.0
 10
104.6013671613497
 20
-153.1541313636212
 30
0.0
 10
104.6013671613497
 20
-153.1541313636212
 30
0.0
 10
104.6079128427716
 20
-153.1158908037349
 30
0.0
 10
104.6099799000628
 20
-153.0738606388149
 30
0.0
 10
104.6099799000628
 20
-153.0673149573929
 30
0.0
 10
104.6099799000628
 20
-153.0018581431732
 30
0.0
 10
104.5886203080542
 20
-152.8030761336742
 30
0.0
 10
104.3519422482176
 20
-152.8030761336742
 30
0.0
 10
104.1741753211787
 20
-152.8030761336742
 30
0.0
 10
104.1190537934147
 20
-152.9339897621137
 30
0.0
 10
104.1190537934147
 20
-153.0442328176417
 30
0.0
 10
104.1190537934147
 20
-153.3084716413604
 30
0.0
 10
104.3519422482176
 20
-153.3170843800735
 30
0.0
 10
104.4236002343108
 20
-153.3212184946558
 30
0.0
 10
104.4236002343108
 20
-153.3212184946558
 30
0.0
 10
104.4236002343108
 20
-153.5244791282855
 30
0.0
 10
104.4236002343108
 20
-153.5244791282855
 30
0.0
 10
104.2988877777447
 20
-153.5158663895724
 30
0.0
 10
103.9223388412069
 20
-153.4883056256904
 30
0.0
 10
103.9223388412069
 20
-153.0314859643463
 30
0.0
 10
103.9223388412069
 20
-152.8072102482565
 30
0.0
 10
104.0494628646126
 20
-152.566053564289
 30
0.0
 10
104.3453965667956
 20
-152.566053564289
 30
0.0
 10
104.5317762325476
 20
-152.566053564289
 30
0.0
 10
104.6141140146451
 20
-152.6611381996819
 30
0.0
 10
104.6754367142825
 20
-152.7607014592057
 30
0.0
 10
104.7029974781645
 20
-152.6993787595682
 30
0.0
 10
104.7832682029709
 20
-152.517477717947
 30
0.0
 10
105.0605983895335
 20
-152.517477717947
 30
0.0
 10
105.398906766185
 20
-152.517477717947
 30
0.0
 10
105.5659938972196
 20
-152.764835573788
 30
0.0
 10
105.5659938972196
 20
-153.0418212508021
 30
0.0
  0
HATCH
  5
116
330
10F
100
AcDbEntity
  8
_U+30EC_U+30A4_U+30E4_U+30FC 1
 62
   179
420
  2234388
100
AcDbHatch
 10
0.0
 20
0.0
 30
0.0
210
0.0
220
0.0
230
1.0
  2
SOLID
 70
     1
 71
     0
 91
        1
 92
        1
 93
        1
 72
     4
 94
        3
 73
     0
 74
     1
 95
       62
 96
       58
 40
0.0
 40
0.0
 40
0.0
 40
0.0
 40
1.0
 40
1.0
 40
1.0
 40
2.0
 40
2.0
 40
2.0
 40
3.0
 40
3.0
 40
3.0
 40
4.0
 40
4.0
 40
4.0
 40
5.0
 40
5.0
 40
5.0
 40
6.0
 40
6.0
 40
6.0
 40
7.0
 40
7.0
 40
7.0
 40
8.0
 40
8.0
 40
8.0
 40
9.0
 40
9.0
 40
9.0
 40
10.0
 40
10.0
 40
10.0
 40
11.0
 40
11.0
 40
11.0
 40
12.0
 40
12.0
 40
12.0
 40
13.0
 40
13.0
 40
13.0
 40
14.0
 40
14.0
 40
14.0
 40
15.0
 40
15.0
 40
15.0
 40
16.0
 40
16.0
 40
16.0
 40
17.0
 40
17.0
 40
17.0
 40
18.0
 40
18.0
 40
18.0
 40
19.0
 40
19.0
 40
19.0
 40
19.0
 10
105.5659938972196
 20
-153.0418212508021
 10
105.5659938972196
 20
-153.1372503957435
 10
105.5449788147596
 20
-153.3549804304113
 10
105.3589436585561
 20
-153.4800373965258
 10
105.246633545737
 20
-153.5541069494587
 10
105.1474147957618
 20
-153.558241064041
 10
105.0626654468246
 20
-153.5623751786233
 10
105.0626654468246
 20
-153.5623751786233
 10
105.0626654468246
 20
-153.3422335771158
 10
105.0626654468246
 20
-153.3422335771158
 10
105.1367349997575
 20
-153.3401665198247
 10
105.371346002303
 20
-153.3298312333689
 10
105.371346002303
 20
-153.0462998749329
 10
105.371346002303
 20
-152.9088405650714
 10
105.301755073501
 20
-152.7562228350749
 10
105.0733452428289
 20
-152.7562228350749
 10
104.9569010154274
 20
-152.7562228350749
 10
104.9083251690854
 20
-152.7944633949611
 10
104.8766302906211
 20
-152.8261582734254
 10
104.8025607376883
 20
-152.9002278263583
 10
104.7898138843928
 20
-153.0166720537597
 10
104.7898138843928
 20
-153.0714490719752
 10
104.7898138843928
 20
-153.0907416066926
 10
104.791880941684
 20
-153.1265705997392
 10
104.7960150562663
 20
-153.1541313636212
 10
104.7960150562663
 20
-153.1541313636212
 10
104.6013671613497
 20
-153.1541313636212
 10
104.6013671613497
 20
-153.1541313636212
 10
104.6079128427716
 20
-153.1158908037349
 10
104.6099799000628
 20
-153.0738606388149
 10
104.6099799000628
 20
-153.0673149573929
 10
104.6099799000628
 20
-153.0018581431732
 10
104.5886203080542
 20
-152.8030761336742
 10
104.3519422482176
 20
-152.8030761336742
 10
104.1741753211787
 20
-152.8030761336742
 10
104.1190537934147
 20
-152.9339897621137
 10
104.1190537934147
 20
-153.0442328176417
 10
104.1190537934147
 20
-153.3084716413604
 10
104.3519422482176
 20
-153.3170843800735
 10
104.4236002343108
 20
-153.3212184946558
 10
104.4236002343108
 20
-153.3212184946558
 10
104.4236002343108
 20
-153.5244791282855
 10
104.4236002343108
 20
-153.5244791282855
 10
104.2988877777447
 20
-153.5158663895724
 10
103.9223388412069
 20
-153.4883056256904
 10
103.9223388412069
 20
-153.0314859643463
 10
103.9223388412069
 20
-152.8072102482565
 10
104.0494628646126
 20
-152.566053564289
 10
104.3453965667956
 20
-152.566053564289
 10
104.5317762325476
 20
-152.566053564289
 10
104.6141140146451
 20
-152.6611381996819
 10
104.6754367142825
 20
-152.7607014592057
 10
104.7029974781645
 20
-152.6993787595682
 10
104.7832682029709
 20
-152.517477717947
 10
105.0605983895335
 20
-152.517477717947
 10
105.398906766185
 20
-152.517477717947
 10
105.5659938972196
 20
-152.764835573788
 10
105.5659938972196
 20
-153.0418212508021
 97
        0
 97
        0
 75
     2
 76
     1
 98
        0
  0
ENDBLK
  5
112
330
10F
100
AcDbEntity
  8
0
100
AcDbBlockEnd
  0
BLOCK
  5
119
330
117
100
AcDbEntity
  8
0
100
AcDbBlockBegin
  2
block 5
 70
     0
 10
0.0
 20
0.0
 30
0.0
  3
block 5
  1

  0
SPLINE
  5
11B
330
117
100
AcDbEntity
  8
_U+30EC_U+30A4_U+30E4_U+30FC 1
370
     0
100
AcDbSpline
210
0.0
220
0.0
230
1.0
 70
    11
 71
     3
 72
    62
 73
    58
 74
     0
 42
0.0000000001
 43
0.0000000001
 12
1.0
 22
0.0
 32
0.0
 13
1.0
 23
0.0
 33
0.0
 40
0.0
 40
0.0
 40
0.0
 40
0.0
 40
1.0
 40
1.0
 40
1.0
 40
2.0
 40
2.0
 40
2.0
 40
3.0
 40
3.0
 40
3.0
 40
4.0
 40
4.0
 40
4.0
 40
5.0
 40
5.0
 40
5.0
 40
6.0
 40
6.0
 40
6.0
 40
7.0
 40
7.0
 40
7.0
 40
8.0
 40
8.0
 40
8.0
 40
9.0
 40
9.0
 40
9.0
 40
10.0
 40
10.0
 40
10.0
 40
11.0
 40
11.0
 40
11.0
 40
12.0
 40
12.0
 40
12.0
 40
13.0
 40
13.0
 40
13.0
 40
14.0
 40
14.0
 40
14.0
 40
15.0
 40
15.0
 40
15.0
 40
16.0
 40
16.0
 40
16.0
 40
17.0
 40
17.0
 40
17.0
 40
18.0
 40
18.0
 40
18.0
 40
19.0
 40
19.0
 40
19.0
 40
19.0
 10
105.5653048781226
 20
-161.6304442955299
 30
0.0
 10
105.5653048781226
 20
-161.7258734404713
 30
0.0
 10
105.5442897956626
 20
-161.9436034751391
 30
0.0
 10
105.358254639459
 20
-162.0686604412537
 30
0.0
 10
105.2459445266399
 20
-162.1427299941865
 30
0.0
 10
105.1467257766647
 20
-162.1468641087689
 30
0.0
 10
105.0619764277276
 20
-162.1509982233511
 30
0.0
 10
105.0619764277276
 20
-162.1509982233511
 30
0.0
 10
105.0619764277276
 20
-161.9308566218437
 30
0.0
 10
105.0619764277276
 20
-161.9308566218437
 30
0.0
 10
105.1360459806604
 20
-161.9287895645525
 30
0.0
 10
105.3706569832059
 20
-161.9184542780968
 30
0.0
 10
105.3706569832059
 20
-161.6349229196607
 30
0.0
 10
105.3706569832059
 20
-161.4974636097992
 30
0.0
 10
105.3010660544039
 20
-161.3448458798027
 30
0.0
 10
105.0726562237318
 20
-161.3448458798027
 30
0.0
 10
104.9562119963304
 20
-161.3448458798027
 30
0.0
 10
104.9076361499884
 20
-161.383086439689
 30
0.0
 10
104.8759412715241
 20
-161.4147813181532
 30
0.0
 10
104.8018717185912
 20
-161.4888508710861
 30
0.0
 10
104.7891248652958
 20
-161.6052950984876
 30
0.0
 10
104.7891248652958
 20
-161.660072116703
 30
0.0
 10
104.7891248652958
 20
-161.6793646514205
 30
0.0
 10
104.7911919225869
 20
-161.715193644467
 30
0.0
 10
104.7953260371692
 20
-161.742754408349
 30
0.0
 10
104.7953260371692
 20
-161.742754408349
 30
0.0
 10
104.6006781422526
 20
-161.742754408349
 30
0.0
 10
104.6006781422526
 20
-161.742754408349
 30
0.0
 10
104.6072238236746
 20
-161.7045138484628
 30
0.0
 10
104.6092908809657
 20
-161.6624836835427
 30
0.0
 10
104.6092908809657
 20
-161.6559380021207
 30
0.0
 10
104.6092908809657
 20
-161.590481187901
 30
0.0
 10
104.5879312889572
 20
-161.3916991784021
 30
0.0
 10
104.3512532291205
 20
-161.3916991784021
 30
0.0
 10
104.1734863020816
 20
-161.3916991784021
 30
0.0
 10
104.1183647743176
 20
-161.5226128068416
 30
0.0
 10
104.1183647743176
 20
-161.6328558623696
 30
0.0
 10
104.1183647743176
 20
-161.8970946860882
 30
0.0
 10
104.3512532291205
 20
-161.9057074248014
 30
0.0
 10
104.4229112152137
 20
-161.9098415393836
 30
0.0
 10
104.4229112152137
 20
-161.9098415393836
 30
0.0
 10
104.4229112152137
 20
-162.1131021730134
 30
0.0
 10
104.4229112152137
 20
-162.1131021730134
 30
0.0
 10
104.2981987586477
 20
-162.1044894343003
 30
0.0
 10
103.9216498221099
 20
-162.0769286704183
 30
0.0
 10
103.9216498221099
 20
-161.6201090090742
 30
0.0
 10
103.9216498221099
 20
-161.3958332929844
 30
0.0
 10
104.0487738455156
 20
-161.1546766090169
 30
0.0
 10
104.3447075476985
 20
-161.1546766090169
 30
0.0
 10
104.5310872134506
 20
-161.1546766090169
 30
0.0
 10
104.613424995548
 20
-161.2497612444098
 30
0.0
 10
104.6747476951855
 20
-161.3493245039335
 30
0.0
 10
104.7023084590675
 20
-161.2880018042961
 30
0.0
 10
104.7825791838738
 20
-161.1061007626749
 30
0.0
 10
105.0599093704364
 20
-161.1061007626749
 30
0.0
 10
105.398217747088
 20
-161.1061007626749
 30
0.0
 10
105.5653048781226
 20
-161.3534586185158
 30
0.0
 10
105.5653048781226
 20
-161.6304442955299
 30
0.0
  0
HATCH
  5
11C
330
117
100
AcDbEntity
  8
_U+30EC_U+30A4_U+30E4_U+30FC 1
 62
   179
420
  2234388
100
AcDbHatch
 10
0.0
 20
0.0
 30
0.0
210
0.0
220
0.0
230
1.0
  2
SOLID
 70
     1
 71
     0
 91
        1
 92
        1
 93
        1
 72
     4
 94
        3
 73
     0
 74
     1
 95
       62
 96
       58
 40
0.0
 40
0.0
 40
0.0
 40
0.0
 40
1.0
 40
1.0
 40
1.0
 40
2.0
 40
2.0
 40
2.0
 40
3.0
 40
3.0
 40
3.0
 40
4.0
 40
4.0
 40
4.0
 40
5.0
 40
5.0
 40
5.0
 40
6.0
 40
6.0
 40
6.0
 40
7.0
 40
7.0
 40
7.0
 40
8.0
 40
8.0
 40
8.0
 40
9.0
 40
9.0
 40
9.0
 40
10.0
 40
10.0
 40
10.0
 40
11.0
 40
11.0
 40
11.0
 40
12.0
 40
12.0
 40
12.0
 40
13.0
 40
13.0
 40
13.0
 40
14.0
 40
14.0
 40
14.0
 40
15.0
 40
15.0
 40
15.0
 40
16.0
 40
16.0
 40
16.0
 40
17.0
 40
17.0
 40
17.0
 40
18.0
 40
18.0
 40
18.0
 40
19.0
 40
19.0
 40
19.0
 40
19.0
 10
105.5653048781226
 20
-161.6304442955299
 10
105.5653048781226
 20
-161.7258734404713
 10
105.5442897956626
 20
-161.9436034751391
 10
105.358254639459
 20
-162.0686604412537
 10
105.2459445266399
 20
-162.1427299941865
 10
105.1467257766647
 20
-162.1468641087689
 10
105.0619764277276
 20
-162.1509982233511
 10
105.0619764277276
 20
-162.1509982233511
 10
105.0619764277276
 20
-161.9308566218437
 10
105.0619764277276
 20
-161.9308566218437
 10
105.1360459806604
 20
-161.9287895645525
 10
105.3706569832059
 20
-161.9184542780968
 10
105.3706569832059
 20
-161.6349229196607
 10
105.3706569832059
 20
-161.4974636097992
 10
105.3010660544039
 20
-161.3448458798027
 10
105.0726562237318
 20
-161.3448458798027
 10
104.9562119963304
 20
-161.3448458798027
 10
104.9076361499884
 20
-161.383086439689
 10
104.8759412715241
 20
-161.4147813181532
 10
104.8018717185912
 20
-161.4888508710861
 10
104.7891248652958
 20
-161.6052950984876
 10
104.7891248652958
 20
-161.660072116703
 10
104.7891248652958
 20
-161.6793646514205
 10
104.7911919225869
 20
-161.715193644467
 10
104.7953260371692
 20
-161.742754408349
 10
104.7953260371692
 20
-161.742754408349
 10
104.6006781422526
 20
-161.742754408349
 10
104.6006781422526
 20
-161.742754408349
 10
104.6072238236746
 20
-161.7045138484628
 10
104.6092908809657
 20
-161.6624836835427
 10
104.6092908809657
 20
-161.6559380021207
 10
104.6092908809657
 20
-161.590481187901
 10
104.5879312889572
 20
-161.3916991784021
 10
104.3512532291205
 20
-161.3916991784021
 10
104.1734863020816
 20
-161.3916991784021
 10
104.1183647743176
 20
-161.5226128068416
 10
104.1183647743176
 20
-161.6328558623696
 10
104.1183647743176
 20
-161.8970946860882
 10
104.3512532291205
 20
-161.9057074248014
 10
104.4229112152137
 20
-161.9098415393836
 10
104.4229112152137
 20
-161.9098415393836
 10
104.4229112152137
 20
-162.1131021730134
 10
104.4229112152137
 20
-162.1131021730134
 10
104.2981987586477
 20
-162.1044894343003
 10
103.9216498221099
 20
-162.0769286704183
 10
103.9216498221099
 20
-161.6201090090742
 10
103.9216498221099
 20
-161.3958332929844
 10
104.0487738455156
 20
-161.1546766090169
 10
104.3447075476985
 20
-161.1546766090169
 10
104.5310872134506
 20
-161.1546766090169
 10
104.613424995548
 20
-161.2497612444098
 10
104.6747476951855
 20
-161.3493245039335
 10
104.7023084590675
 20
-161.2880018042961
 10
104.7825791838738
 20
-161.1061007626749
 10
105.0599093704364
 20
-161.1061007626749
 10
105.398217747088
 20
-161.1061007626749
 10
105.5653048781226
 20
-161.3534586185158
 10
105.5653048781226
 20
-161.6304442955299
 97
        0
 97
        0
 75
     2
 76
     1
 98
        0
  0
ENDBLK
  5
11A
330
117
100
AcDbEntity
  8
0
100
AcDbBlockEnd
  0
BLOCK
  5
11F
330
11D
100
AcDbEntity
  8
0
100
AcDbBlockBegin
  2
block 6
 70
     0
 10
0.0
 20
0.0
 30
0.0
  3
block 6
  1

  0
SPLINE
  5
121
330
11D
100
AcDbEntity
  8
_U+30EC_U+30A4_U+30E4_U+30FC 1
370
     0
100
AcDbSpline
210
0.0
220
0.0
230
1.0
 70
    11
 71
     3
 72
    44
 73
    40
 74
     0
 42
0.0000000001
 43
0.0000000001
 12
1.0
 22
0.0
 32
0.0
 13
1.0
 23
0.0
 33
0.0
 40
0.0
 40
0.0
 40
0.0
 40
0.0
 40
1.0
 40
1.0
 40
1.0
 40
2.0
 40
2.0
 40
2.0
 40
3.0
 40
3.0
 40
3.0
 40
4.0
 40
4.0
 40
4.0
 40
5.0
 40
5.0
 40
5.0
 40
6.0
 40
6.0
 40
6.0
 40
7.0
 40
7.0
 40
7.0
 40
8.0
 40
8.0
 40
8.0
 40
9.0
 40
9.0
 40
9.0
 40
10.0
 40
10.0
 40
10.0
 40
11.0
 40
11.0
 40
11.0
 40
12.0
 40
12.0
 40
12.0
 40
13.0
 40
13.0
 40
13.0
 40
13.0
 10
77.08056638697987
 20
-151.1184244413871
 30
0.0
 10
77.23938528884987
 20
-151.3361544760548
 30
0.0
 10
77.31345484178276
 20
-151.4291720541566
 30
0.0
 10
77.45711532351767
 20
-151.4780924100471
 30
0.0
 10
77.45711532351767
 20
-151.4780924100471
 30
0.0
 10
77.45711532351767
 20
-150.6995008303807
 30
0.0
 10
77.45711532351767
 20
-150.6995008303807
 30
0.0
 10
77.45711532351767
 20
-150.6995008303807
 30
0.0
 10
77.66244301443857
 20
-150.6995008303807
 30
0.0
 10
77.66244301443857
 20
-150.6995008303807
 30
0.0
 10
77.66244301443857
 20
-150.6995008303807
 30
0.0
 10
77.66244301443857
 20
-151.7275173231792
 30
0.0
 10
77.66244301443857
 20
-151.7275173231792
 30
0.0
 10
77.30484210306963
 20
-151.6958224447149
 30
0.0
 10
77.22663843555445
 20
-151.6303656304952
 30
0.0
 10
76.92829316653182
 20
-151.2452039552442
 30
0.0
 10
76.7295111570329
 20
-150.9892333606902
 30
0.0
 10
76.66164277597348
 20
-150.9237765464705
 30
0.0
 10
76.524183466112
 20
-150.9237765464705
 30
0.0
 10
76.40567218141942
 20
-150.9237765464705
 30
0.0
 10
76.27475855297992
 20
-150.9957790421122
 30
0.0
 10
76.27475855297992
 20
-151.1924939943199
 30
0.0
 10
76.27475855297992
 20
-151.4525987034563
 30
0.0
 10
76.50523544094314
 20
-151.4608669326209
 30
0.0
 10
76.62167966834458
 20
-151.4653455567517
 30
0.0
 10
76.62167966834458
 20
-151.4653455567517
 30
0.0
 10
76.62167966834458
 20
-151.6896212728415
 30
0.0
 10
76.62167966834458
 20
-151.6896212728415
 30
0.0
 10
76.49455564493887
 20
-151.6810085341284
 30
0.0
 10
76.38259004166825
 20
-151.6703287381241
 30
0.0
 10
76.26407875697565
 20
-151.5900580133178
 30
0.0
 10
76.10319279781449
 20
-151.4801594673383
 30
0.0
 10
76.06943086205904
 20
-151.2937798015863
 30
0.0
 10
76.06943086205904
 20
-151.1776800837334
 30
0.0
 10
76.06943086205904
 20
-150.9003498971707
 30
0.0
 10
76.25339896097138
 20
-150.6929551489587
 30
0.0
 10
76.52625052340316
 20
-150.6929551489587
 30
0.0
 10
76.75500486362375
 20
-150.6929551489587
 30
0.0
 10
76.85422361359895
 20
-150.8093993763601
 30
0.0
 10
77.08056638697987
 20
-151.1184244413871
 30
0.0
  0
HATCH
  5
122
330
11D
100
AcDbEntity
  8
_U+30EC_U+30A4_U+30E4_U+30FC 1
 62
   179
420
  2234388
100
AcDbHatch
 10
0.0
 20
0.0
 30
0.0
210
0.0
220
0.0
230
1.0
  2
SOLID
 70
     1
 71
     0
 91
        1
 92
        1
 93
        1
 72
     4
 94
        3
 73
     0
 74
     1
 95
       44
 96
       40
 40
0.0
 40
0.0
 40
0.0
 40
0.0
 40
1.0
 40
1.0
 40
1.0
 40
2.0
 40
2.0
 40
2.0
 40
3.0
 40
3.0
 40
3.0
 40
4.0
 40
4.0
 40
4.0
 40
5.0
 40
5.0
 40
5.0
 40
6.0
 40
6.0
 40
6.0
 40
7.0
 40
7.0
 40
7.0
 40
8.0
 40
8.0
 40
8.0
 40
9.0
 40
9.0
 40
9.0
 40
10.0
 40
10.0
 40
10.0
 40
11.0
 40
11.0
 40
11.0
 40
12.0
 40
12.0
 40
12.0
 40
13.0
 40
13.0
 40
13.0
 40
13.0
 10
77.08056638697987
 20
-151.1184244413871
 10
77.23938528884987
 20
-151.3361544760548
 10
77.31345484178276
 20
-151.4291720541566
 10
77.45711532351767
 20
-151.4780924100471
 10
77.45711532351767
 20
-151.4780924100471
 10
77.45711532351767
 20
-150.6995008303807
 10
77.45711532351767
 20
-150.6995008303807
 10
77.45711532351767
 20
-150.6995008303807
 10
77.66244301443857
 20
-150.6995008303807
 10
77.66244301443857
 20
-150.6995008303807
 10
77.66244301443857
 20
-150.6995008303807
 10
77.66244301443857
 20
-151.7275173231792
 10
77.66244301443857
 20
-151.7275173231792
 10
77.30484210306963
 20
-151.6958224447149
 10
77.22663843555445
 20
-151.6303656304952
 10
76.92829316653182
 20
-151.2452039552442
 10
76.7295111570329
 20
-150.9892333606902
 10
76.66164277597348
 20
-150.9237765464705
 10
76.524183466112
 20
-150.9237765464705
 10
76.40567218141942
 20
-150.9237765464705
 10
76.27475855297992
 20
-150.9957790421122
 10
76.27475855297992
 20
-151.1924939943199
 10
76.27475855297992
 20
-151.4525987034563
 10
76.50523544094314
 20
-151.4608669326209
 10
76.62167966834458
 20
-151.4653455567517
 10
76.62167966834458
 20
-151.4653455567517
 10
76.62167966834458
 20
-151.6896212728415
 10
76.62167966834458
 20
-151.6896212728415
 10
76.49455564493887
 20
-151.6810085341284
 10
76.38259004166825
 20
-151.6703287381241
 10
76.26407875697565
 20
-151.5900580133178
 10
76.10319279781449
 20
-151.4801594673383
 10
76.06943086205904
 20
-151.2937798015863
 10
76.06943086205904
 20
-151.1776800837334
 10
76.06943086205904
 20
-150.9003498971707
 10
76.25339896097138
 20
-150.6929551489587
 10
76.52625052340316
 20
-150.6929551489587
 10
76.75500486362375
 20
-150.6929551489587
 10
76.85422361359895
 20
-150.8093993763601
 10
77.08056638697987
 20
-151.1184244413871
 97
        0
 97
        0
 75
     2
 76
     1
 98
        0
  0
SPLINE
  5
123
330
11D
100
AcDbEntity
  8
_U+30EC_U+30A4_U+30E4_U+30FC 1
370
     0
100
AcDbSpline
210
0.0
220
0.0
230
1.0
 70
    11
 71
     3
 72
    53
 73
    49
 74
     0
 42
0.0000000001
 43
0.0000000001
 12
1.0
 22
0.0
 32
0.0
 13
1.0
 23
0.0
 33
0.0
 40
0.0
 40
0.0
 40
0.0
 40
0.0
 40
1.0
 40
1.0
 40
1.0
 40
2.0
 40
2.0
 40
2.0
 40
3.0
 40
3.0
 40
3.0
 40
4.0
 40
4.0
 40
4.0
 40
5.0
 40
5.0
 40
5.0
 40
6.0
 40
6.0
 40
6.0
 40
7.0
 40
7.0
 40
7.0
 40
8.0
 40
8.0
 40
8.0
 40
9.0
 40
9.0
 40
9.0
 40
10.0
 40
10.0
 40
10.0
 40
11.0
 40
11.0
 40
11.0
 40
12.0
 40
12.0
 40
12.0
 40
13.0
 40
13.0
 40
13.0
 40
14.0
 40
14.0
 40
14.0
 40
15.0
 40
15.0
 40
15.0
 40
16.0
 40
16.0
 40
16.0
 40
16.0
 10
77.71308591807173
 20
-150.0535454268963
 30
0.0
 10
77.71308591807173
 20
-150.1317490944115
 30
0.0
 10
77.696204950194
 20
-150.2333794112264
 30
0.0
 10
77.63281519326542
 20
-150.3350097280413
 30
0.0
 10
77.52291664728594
 20
-150.5082980309493
 30
0.0
 10
77.39165850929793
 20
-150.5296576229579
 30
0.0
 10
77.2838270206096
 20
-150.5486056481267
 30
0.0
 10
77.2838270206096
 20
-150.5486056481267
 30
0.0
 10
77.2838270206096
 20
-150.3263969893281
 30
0.0
 10
77.2838270206096
 20
-150.3263969893281
 30
0.0
 10
77.48260903010852
 20
-150.2716199711127
 30
0.0
 10
77.51223685128167
 20
-150.1444959477069
 30
0.0
 10
77.51223685128167
 20
-150.0514783696052
 30
0.0
 10
77.51223685128167
 20
-149.9119520024526
 30
0.0
 10
77.41267359175795
 20
-149.7596787820045
 30
0.0
 10
77.18012964650359
 20
-149.7596787820045
 30
0.0
 10
76.92415905194952
 20
-149.7596787820045
 30
0.0
 10
76.85422361359895
 20
-149.9395127663346
 30
0.0
 10
76.85422361359895
 20
-150.0600911083183
 30
0.0
 10
76.85422361359895
 20
-150.0917859867826
 30
0.0
 10
76.85422361359895
 20
-150.2333794112264
 30
0.0
 10
76.98341469429582
 20
-150.3222628747458
 30
0.0
 10
76.98341469429582
 20
-150.3222628747458
 30
0.0
 10
76.96446666912695
 20
-150.4979627444936
 30
0.0
 10
76.96446666912695
 20
-150.4979627444936
 30
0.0
 10
76.96446666912695
 20
-150.4979627444936
 30
0.0
 10
76.11800670840105
 20
-150.3773844025098
 30
0.0
 10
76.11800670840105
 20
-150.3773844025098
 30
0.0
 10
76.11800670840105
 20
-150.3773844025098
 30
0.0
 10
76.11800670840105
 20
-149.5987928228434
 30
0.0
 10
76.11800670840105
 20
-149.5987928228434
 30
0.0
 10
76.11800670840105
 20
-149.5987928228434
 30
0.0
 10
76.31265460331767
 20
-149.5987928228434
 30
0.0
 10
76.31265460331767
 20
-149.5987928228434
 30
0.0
 10
76.31265460331767
 20
-149.5987928228434
 30
0.0
 10
76.31265460331767
 20
-150.2144313860575
 30
0.0
 10
76.31265460331767
 20
-150.2144313860575
 30
0.0
 10
76.31265460331767
 20
-150.2144313860575
 30
0.0
 10
76.73571232890636
 20
-150.2798882002773
 30
0.0
 10
76.73571232890636
 20
-150.2798882002773
 30
0.0
 10
76.70195039315091
 20
-150.2185655006398
 30
0.0
 10
76.66164277597348
 20
-150.1362277185423
 30
0.0
 10
76.66164277597348
 20
-150.0177164338498
 30
0.0
 10
76.66164277597348
 20
-149.7638128965868
 30
0.0
 10
76.8480224417255
 20
-149.5267903272016
 30
0.0
 10
77.1611816213347
 20
-149.5267903272016
 30
0.0
 10
77.47847491552622
 20
-149.5267903272016
 30
0.0
 10
77.71308591807173
 20
-149.7510660432914
 30
0.0
 10
77.71308591807173
 20
-150.0535454268963
 30
0.0
  0
HATCH
  5
124
330
11D
100
AcDbEntity
  8
_U+30EC_U+30A4_U+30E4_U+30FC 1
 62
   179
420
  2234388
100
AcDbHatch
 10
0.0
 20
0.0
 30
0.0
210
0.0
220
0.0
230
1.0
  2
SOLID
 70
     1
 71
     0
 91
        1
 92
        1
 93
        1
 72
     4
 94
        3
 73
     0
 74
     1
 95
       53
 96
       49
 40
0.0
 40
0.0
 40
0.0
 40
0.0
 40
1.0
 40
1.0
 40
1.0
 40
2.0
 40
2.0
 40
2.0
 40
3.0
 40
3.0
 40
3.0
 40
4.0
 40
4.0
 40
4.0
 40
5.0
 40
5.0
 40
5.0
 40
6.0
 40
6.0
 40
6.0
 40
7.0
 40
7.0
 40
7.0
 40
8.0
 40
8.0
 40
8.0
 40
9.0
 40
9.0
 40
9.0
 40
10.0
 40
10.0
 40
10.0
 40
11.0
 40
11.0
 40
11.0
 40
12.0
 40
12.0
 40
12.0
 40
13.0
 40
13.0
 40
13.0
 40
14.0
 40
14.0
 40
14.0
 40
15.0
 40
15.0
 40
15.0
 40
16.0
 40
16.0
 40
16.0
 40
16.0
 10
77.71308591807173
 20
-150.0535454268963
 10
77.71308591807173
 20
-150.1317490944115
 10
77.696204950194
 20
-150.2333794112264
 10
77.63281519326542
 20
-150.3350097280413
 10
77.52291664728594
 20
-150.5082980309493
 10
77.39165850929793
 20
-150.5296576229579
 10
77.2838270206096
 20
-150.5486056481267
 10
77.2838270206096
 20
-150.5486056481267
 10
77.2838270206096
 20
-150.3263969893281
 10
77.2838270206096
 20
-150.3263969893281
 10
77.48260903010852
 20
-150.2716199711127
 10
77.51223685128167
 20
-150.1444959477069
 10
77.51223685128167
 20
-150.0514783696052
 10
77.51223685128167
 20
-149.9119520024526
 10
77.41267359175795
 20
-149.7596787820045
 10
77.18012964650359
 20
-149.7596787820045
 10
76.92415905194952
 20
-149.7596787820045
 10
76.85422361359895
 20
-149.9395127663346
 10
76.85422361359895
 20
-150.0600911083183
 10
76.85422361359895
 20
-150.0917859867826
 10
76.85422361359895
 20
-150.2333794112264
 10
76.98341469429582
 20
-150.3222628747458
 10
76.98341469429582
 20
-150.3222628747458
 10
76.96446666912695
 20
-150.4979627444936
 10
76.96446666912695
 20
-150.4979627444936
 10
76.96446666912695
 20
-150.4979627444936
 10
76.11800670840105
 20
-150.3773844025098
 10
76.11800670840105
 20
-150.3773844025098
 10
76.11800670840105
 20
-150.3773844025098
 10
76.11800670840105
 20
-149.5987928228434
 10
76.11800670840105
 20
-149.5987928228434
 10
76.11800670840105
 20
-149.5987928228434
 10
76.31265460331767
 20
-149.5987928228434
 10
76.31265460331767
 20
-149.5987928228434
 10
76.31265460331767
 20
-149.5987928228434
 10
76.31265460331767
 20
-150.2144313860575
 10
76.31265460331767
 20
-150.2144313860575
 10
76.31265460331767
 20
-150.2144313860575
 10
76.73571232890636
 20
-150.2798882002773
 10
76.73571232890636
 20
-150.2798882002773
 10
76.70195039315091
 20
-150.2185655006398
 10
76.66164277597348
 20
-150.1362277185423
 10
76.66164277597348
 20
-150.0177164338498
 10
76.66164277597348
 20
-149.7638128965868
 10
76.8480224417255
 20
-149.5267903272016
 10
77.1611816213347
 20
-149.5267903272016
 10
77.47847491552622
 20
-149.5267903272016
 10
77.71308591807173
 20
-149.7510660432914
 10
77.71308591807173
 20
-150.0535454268963
 97
        0
 97
        0
 75
     2
 76
     1
 98
        0
  0
ENDBLK
  5
120
330
11D
100
AcDbEntity
  8
0
100
AcDbBlockEnd
  0
BLOCK
  5
127
330
125
100
AcDbEntity
  8
0
100
AcDbBlockBegin
  2
block 7
 70
     0
 10
0.0
 20
0.0
 30
0.0
  3
block 7
  1

  0
SPLINE
  5
129
330
125
100
AcDbEntity
  8
_U+30EC_U+30A4_U+30E4_U+30FC 1
370
     0
100
AcDbSpline
210
0.0
220
0.0
230
1.0
 70
    11
 71
     3
 72
    62
 73
    58
 74
     0
 42
0.0000000001
 43
0.0000000001
 12
1.0
 22
0.0
 32
0.0
 13
1.0
 23
0.0
 33
0.0
 40
0.0
 40
0.0
 40
0.0
 40
0.0
 40
1.0
 40
1.0
 40
1.0
 40
2.0
 40
2.0
 40
2.0
 40
3.0
 40
3.0
 40
3.0
 40
4.0
 40
4.0
 40
4.0
 40
5.0
 40
5.0
 40
5.0
 40
6.0
 40
6.0
 40
6.0
 40
7.0
 40
7.0
 40
7.0
 40
8.0
 40
8.0
 40
8.0
 40
9.0
 40
9.0
 40
9.0
 40
10.0
 40
10.0
 40
10.0
 40
11.0
 40
11.0
 40
11.0
 40
12.0
 40
12.0
 40
12.0
 40
13.0
 40
13.0
 40
13.0
 40
14.0
 40
14.0
 40
14.0
 40
15.0
 40
15.0
 40
15.0
 40
16.0
 40
16.0
 40
16.0
 40
17.0
 40
17.0
 40
17.0
 40
18.0
 40
18.0
 40
18.0
 40
19.0
 40
19.0
 40
19.0
 40
19.0
 10
83.8047037550905
 20
-133.8791666331969
 30
0.0
 10
83.70927461014908
 20
-133.8791666331969
 30
0.0
 10
83.49154457548129
 20
-133.8578070411883
 30
0.0
 10
83.36648760936671
 20
-133.6717718849848
 30
0.0
 10
83.29241805643385
 20
-133.5594617721657
 30
0.0
 10
83.28828394185155
 20
-133.4602430221905
 30
0.0
 10
83.28414982726925
 20
-133.3754936732533
 30
0.0
 10
83.28414982726925
 20
-133.3754936732533
 30
0.0
 10
83.50429142877671
 20
-133.3754936732533
 30
0.0
 10
83.50429142877671
 20
-133.3754936732533
 30
0.0
 10
83.50635848606785
 20
-133.4499077357347
 30
0.0
 10
83.51669377252361
 20
-133.6845187382803
 30
0.0
 10
83.80022513095967
 20
-133.6845187382803
 30
0.0
 10
83.93768444082114
 20
-133.6845187382803
 30
0.0
 10
84.09030217081771
 20
-133.6145832999297
 30
0.0
 10
84.09030217081771
 20
-133.3861734692576
 30
0.0
 10
84.09030217081771
 20
-133.2700737514047
 30
0.0
 10
84.05206161093143
 20
-133.2211533955142
 30
0.0
 10
84.02036673246714
 20
-133.1894585170499
 30
0.0
 10
83.94629717953427
 20
-133.115388964117
 30
0.0
 10
83.82985295213282
 20
-133.1026421108216
 30
0.0
 10
83.77507593391735
 20
-133.1026421108216
 30
0.0
 10
83.75578339919994
 20
-133.1026421108216
 30
0.0
 10
83.71995440615335
 20
-133.1047091681127
 30
0.0
 10
83.69239364227136
 20
-133.108843282695
 30
0.0
 10
83.69239364227136
 20
-133.108843282695
 30
0.0
 10
83.69239364227136
 20
-132.9145398973269
 30
0.0
 10
83.69239364227136
 20
-132.9145398973269
 30
0.0
 10
83.73063420215762
 20
-132.9207410692004
 30
0.0
 10
83.77266436707767
 20
-132.9228081264915
 30
0.0
 10
83.77921004849965
 20
-132.9228081264915
 30
0.0
 10
83.8446668627194
 20
-132.9228081264915
 30
0.0
 10
84.0434488722183
 20
-132.9017930440315
 30
0.0
 10
84.0434488722183
 20
-132.6647704746463
 30
0.0
 10
84.0434488722183
 20
-132.4873480571559
 30
0.0
 10
83.91253524377882
 20
-132.432226529392
 30
0.0
 10
83.80229218825082
 20
-132.432226529392
 30
0.0
 10
83.53805336453216
 20
-132.432226529392
 30
0.0
 10
83.52944062581903
 20
-132.6647704746463
 30
0.0
 10
83.52530651123674
 20
-132.736772970288
 30
0.0
 10
83.52530651123674
 20
-132.736772970288
 30
0.0
 10
83.322045877607
 20
-132.736772970288
 30
0.0
 10
83.322045877607
 20
-132.736772970288
 30
0.0
 10
83.33065861632012
 20
-132.612060513722
 30
0.0
 10
83.35821938020212
 20
-132.2351670676357
 30
0.0
 10
83.81503904154624
 20
-132.2351670676357
 30
0.0
 10
84.039314757636
 20
-132.2351670676357
 30
0.0
 10
84.2804714416035
 20
-132.3622910910414
 30
0.0
 10
84.2804714416035
 20
-132.6582247932243
 30
0.0
 10
84.2804714416035
 20
-132.8446044589764
 30
0.0
 10
84.1853868062106
 20
-132.9269422410738
 30
0.0
 10
84.08582354668688
 20
-132.9882649407113
 30
0.0
 10
84.14714624632433
 20
-133.0158257045933
 30
0.0
 10
84.32904728794551
 20
-133.0964409389481
 30
0.0
 10
84.32904728794551
 20
-133.3734266159622
 30
0.0
 10
84.32904728794551
 20
-133.7120795021623
 30
0.0
 10
84.08168943210458
 20
-133.8791666331969
 30
0.0
 10
83.8047037550905
 20
-133.8791666331969
 30
0.0
  0
HATCH
  5
12A
330
125
100
AcDbEntity
  8
_U+30EC_U+30A4_U+30E4_U+30FC 1
 62
   179
420
  2234388
100
AcDbHatch
 10
0.0
 20
0.0
 30
0.0
210
0.0
220
0.0
230
1.0
  2
SOLID
 70
     1
 71
     0
 91
        1
 92
        1
 93
        1
 72
     4
 94
        3
 73
     0
 74
     1
 95
       62
 96
       58
 40
0.0
 40
0.0
 40
0.0
 40
0.0
 40
1.0
 40
1.0
 40
1.0
 40
2.0
 40
2.0
 40
2.0
 40
3.0
 40
3.0
 40
3.0
 40
4.0
 40
4.0
 40
4.0
 40
5.0
 40
5.0
 40
5.0
 40
6.0
 40
6.0
 40
6.0
 40
7.0
 40
7.0
 40
7.0
 40
8.0
 40
8.0
 40
8.0
 40
9.0
 40
9.0
 40
9.0
 40
10.0
 40
10.0
 40
10.0
 40
11.0
 40
11.0
 40
11.0
 40
12.0
 40
12.0
 40
12.0
 40
13.0
 40
13.0
 40
13.0
 40
14.0
 40
14.0
 40
14.0
 40
15.0
 40
15.0
 40
15.0
 40
16.0
 40
16.0
 40
16.0
 40
17.0
 40
17.0
 40
17.0
 40
18.0
 40
18.0
 40
18.0
 40
19.0
 40
19.0
 40
19.0
 40
19.0
 10
83.8047037550905
 20
-133.8791666331969
 10
83.70927461014908
 20
-133.8791666331969
 10
83.49154457548129
 20
-133.8578070411883
 10
83.36648760936671
 20
-133.6717718849848
 10
83.29241805643385
 20
-133.5594617721657
 10
83.28828394185155
 20
-133.4602430221905
 10
83.28414982726925
 20
-133.3754936732533
 10
83.28414982726925
 20
-133.3754936732533
 10
83.50429142877671
 20
-133.3754936732533
 10
83.50429142877671
 20
-133.3754936732533
 10
83.50635848606785
 20
-133.4499077357347
 10
83.51669377252361
 20
-133.6845187382803
 10
83.80022513095967
 20
-133.6845187382803
 10
83.93768444082114
 20
-133.6845187382803
 10
84.09030217081771
 20
-133.6145832999297
 10
84.09030217081771
 20
-133.3861734692576
 10
84.09030217081771
 20
-133.2700737514047
 10
84.05206161093143
 20
-133.2211533955142
 10
84.02036673246714
 20
-133.1894585170499
 10
83.94629717953427
 20
-133.115388964117
 10
83.82985295213282
 20
-133.1026421108216
 10
83.77507593391735
 20
-133.1026421108216
 10
83.75578339919994
 20
-133.1026421108216
 10
83.71995440615335
 20
-133.1047091681127
 10
83.69239364227136
 20
-133.108843282695
 10
83.69239364227136
 20
-133.108843282695
 10
83.69239364227136
 20
-132.9145398973269
 10
83.69239364227136
 20
-132.9145398973269
 10
83.73063420215762
 20
-132.9207410692004
 10
83.77266436707767
 20
-132.9228081264915
 10
83.77921004849965
 20
-132.9228081264915
 10
83.8446668627194
 20
-132.9228081264915
 10
84.0434488722183
 20
-132.9017930440315
 10
84.0434488722183
 20
-132.6647704746463
 10
84.0434488722183
 20
-132.4873480571559
 10
83.91253524377882
 20
-132.432226529392
 10
83.80229218825082
 20
-132.432226529392
 10
83.53805336453216
 20
-132.432226529392
 10
83.52944062581903
 20
-132.6647704746463
 10
83.52530651123674
 20
-132.736772970288
 10
83.52530651123674
 20
-132.736772970288
 10
83.322045877607
 20
-132.736772970288
 10
83.322045877607
 20
-132.736772970288
 10
83.33065861632012
 20
-132.612060513722
 10
83.35821938020212
 20
-132.2351670676357
 10
83.81503904154624
 20
-132.2351670676357
 10
84.039314757636
 20
-132.2351670676357
 10
84.2804714416035
 20
-132.3622910910414
 10
84.2804714416035
 20
-132.6582247932243
 10
84.2804714416035
 20
-132.8446044589764
 10
84.1853868062106
 20
-132.9269422410738
 10
84.08582354668688
 20
-132.9882649407113
 10
84.14714624632433
 20
-133.0158257045933
 10
84.32904728794551
 20
-133.0964409389481
 10
84.32904728794551
 20
-133.3734266159622
 10
84.32904728794551
 20
-133.7120795021623
 10
84.08168943210458
 20
-133.8791666331969
 10
83.8047037550905
 20
-133.8791666331969
 97
        0
 97
        0
 75
     2
 76
     1
 98
        0
  0
ENDBLK
  5
128
330
125
100
AcDbEntity
  8
0
100
AcDbBlockEnd
  0
BLOCK
  5
12D
330
12B
100
AcDbEntity
  8
0
100
AcDbBlockBegin
  2
block 8
 70
     0
 10
0.0
 20
0.0
 30
0.0
  3
block 8
  1

  0
SPLINE
  5
12F
330
12B
100
AcDbEntity
  8
_U+30EC_U+30A4_U+30E4_U+30FC 1
370
     0
100
AcDbSpline
210
0.0
220
0.0
230
1.0
 70
    11
 71
     3
 72
    26
 73
    22
 74
     0
 42
0.0000000001
 43
0.0000000001
 12
1.0
 22
0.0
 32
0.0
 13
1.0
 23
0.0
 33
0.0
 40
0.0
 40
0.0
 40
0.0
 40
0.0
 40
1.0
 40
1.0
 40
1.0
 40
2.0
 40
2.0
 40
2.0
 40
3.0
 40
3.0
 40
3.0
 40
4.0
 40
4.0
 40
4.0
 40
5.0
 40
5.0
 40
5.0
 40
6.0
 40
6.0
 40
6.0
 40
7.0
 40
7.0
 40
7.0
 40
7.0
 10
91.07609454103306
 20
-133.8281792200152
 30
0.0
 10
91.07609454103306
 20
-133.8281792200152
 30
0.0
 10
91.07609454103306
 20
-132.7240261169926
 30
0.0
 10
91.07609454103306
 20
-132.7240261169926
 30
0.0
 10
91.07609454103306
 20
-132.7240261169926
 30
0.0
 10
90.74605439354613
 20
-132.7240261169926
 30
0.0
 10
90.74605439354613
 20
-132.7240261169926
 30
0.0
 10
90.74605439354613
 20
-132.7240261169926
 30
0.0
 10
90.74605439354613
 20
-132.5762315206754
 30
0.0
 10
90.74605439354613
 20
-132.5762315206754
 30
0.0
 10
91.07816159832421
 20
-132.5610731005403
 30
0.0
 10
91.12467038737509
 20
-132.3984645936365
 30
0.0
 10
91.15429820854824
 20
-132.2840874235262
 30
0.0
 10
91.15429820854824
 20
-132.2840874235262
 30
0.0
 10
91.30037025712282
 20
-132.2840874235262
 30
0.0
 10
91.30037025712282
 20
-132.2840874235262
 30
0.0
 10
91.30037025712282
 20
-132.2840874235262
 30
0.0
 10
91.30037025712282
 20
-133.8281792200152
 30
0.0
 10
91.30037025712282
 20
-133.8281792200152
 30
0.0
 10
91.30037025712282
 20
-133.8281792200152
 30
0.0
 10
91.07609454103306
 20
-133.8281792200152
 30
0.0
 10
91.07609454103306
 20
-133.8281792200152
 30
0.0
  0
HATCH
  5
130
330
12B
100
AcDbEntity
  8
_U+30EC_U+30A4_U+30E4_U+30FC 1
 62
   179
420
  2234388
100
AcDbHatch
 10
0.0
 20
0.0
 30
0.0
210
0.0
220
0.0
230
1.0
  2
SOLID
 70
     1
 71
     0
 91
        1
 92
        1
 93
        1
 72
     4
 94
        3
 73
     0
 74
     1
 95
       26
 96
       22
 40
0.0
 40
0.0
 40
0.0
 40
0.0
 40
1.0
 40
1.0
 40
1.0
 40
2.0
 40
2.0
 40
2.0
 40
3.0
 40
3.0
 40
3.0
 40
4.0
 40
4.0
 40
4.0
 40
5.0
 40
5.0
 40
5.0
 40
6.0
 40
6.0
 40
6.0
 40
7.0
 40
7.0
 40
7.0
 40
7.0
 10
91.07609454103306
 20
-133.8281792200152
 10
91.07609454103306
 20
-133.8281792200152
 10
91.07609454103306
 20
-132.7240261169926
 10
91.07609454103306
 20
-132.7240261169926
 10
91.07609454103306
 20
-132.7240261169926
 10
90.74605439354613
 20
-132.7240261169926
 10
90.74605439354613
 20
-132.7240261169926
 10
90.74605439354613
 20
-132.7240261169926
 10
90.74605439354613
 20
-132.5762315206754
 10
90.74605439354613
 20
-132.5762315206754
 10
91.07816159832421
 20
-132.5610731005403
 10
91.12467038737509
 20
-132.3984645936365
 10
91.15429820854824
 20
-132.2840874235262
 10
91.15429820854824
 20
-132.2840874235262
 10
91.30037025712282
 20
-132.2840874235262
 10
91.30037025712282
 20
-132.2840874235262
 10
91.30037025712282
 20
-132.2840874235262
 10
91.30037025712282
 20
-133.8281792200152
 10
91.30037025712282
 20
-133.8281792200152
 10
91.30037025712282
 20
-133.8281792200152
 10
91.07609454103306
 20
-133.8281792200152
 10
91.07609454103306
 20
-133.8281792200152
 97
        0
 97
        0
 75
     2
 76
     1
 98
        0
  0
SPLINE
  5
131
330
12B
100
AcDbEntity
  8
_U+30EC_U+30A4_U+30E4_U+30FC 1
370
     0
100
AcDbSpline
210
0.0
220
0.0
230
1.0
 70
    11
 71
     3
 72
    62
 73
    58
 74
     0
 42
0.0000000001
 43
0.0000000001
 12
1.0
 22
0.0
 32
0.0
 13
1.0
 23
0.0
 33
0.0
 40
0.0
 40
0.0
 40
0.0
 40
0.0
 40
1.0
 40
1.0
 40
1.0
 40
2.0
 40
2.0
 40
2.0
 40
3.0
 40
3.0
 40
3.0
 40
4.0
 40
4.0
 40
4.0
 40
5.0
 40
5.0
 40
5.0
 40
6.0
 40
6.0
 40
6.0
 40
7.0
 40
7.0
 40
7.0
 40
8.0
 40
8.0
 40
8.0
 40
9.0
 40
9.0
 40
9.0
 40
10.0
 40
10.0
 40
10.0
 40
11.0
 40
11.0
 40
11.0
 40
12.0
 40
12.0
 40
12.0
 40
13.0
 40
13.0
 40
13.0
 40
14.0
 40
14.0
 40
14.0
 40
15.0
 40
15.0
 40
15.0
 40
16.0
 40
16.0
 40
16.0
 40
17.0
 40
17.0
 40
17.0
 40
18.0
 40
18.0
 40
18.0
 40
19.0
 40
19.0
 40
19.0
 40
19.0
 10
92.29307452119757
 20
-133.8791666331969
 30
0.0
 10
92.19764537625615
 20
-133.8791666331969
 30
0.0
 10
91.97991534158835
 20
-133.8578070411883
 30
0.0
 10
91.8548583754738
 20
-133.6717718849848
 30
0.0
 10
91.78078882254091
 20
-133.5594617721657
 30
0.0
 10
91.77665470795861
 20
-133.4602430221905
 30
0.0
 10
91.77252059337631
 20
-133.3754936732533
 30
0.0
 10
91.77252059337631
 20
-133.3754936732533
 30
0.0
 10
91.99266219488378
 20
-133.3754936732533
 30
0.0
 10
91.99266219488378
 20
-133.3754936732533
 30
0.0
 10
91.99472925217493
 20
-133.4499077357347
 30
0.0
 10
92.00506453863068
 20
-133.6845187382803
 30
0.0
 10
92.28859589706674
 20
-133.6845187382803
 30
0.0
 10
92.42605520692821
 20
-133.6845187382803
 30
0.0
 10
92.57867293692478
 20
-133.6145832999297
 30
0.0
 10
92.57867293692478
 20
-133.3861734692576
 30
0.0
 10
92.57867293692478
 20
-133.2700737514047
 30
0.0
 10
92.54043237703851
 20
-133.2211533955142
 30
0.0
 10
92.5087374985742
 20
-133.1894585170499
 30
0.0
 10
92.43466794564134
 20
-133.115388964117
 30
0.0
 10
92.31822371823989
 20
-133.1026421108216
 30
0.0
 10
92.26344670002442
 20
-133.1026421108216
 30
0.0
 10
92.24415416530702
 20
-133.1026421108216
 30
0.0
 10
92.20832517226042
 20
-133.1047091681127
 30
0.0
 10
92.18076440837842
 20
-133.108843282695
 30
0.0
 10
92.18076440837842
 20
-133.108843282695
 30
0.0
 10
92.18076440837842
 20
-132.9145398973269
 30
0.0
 10
92.18076440837842
 20
-132.9145398973269
 30
0.0
 10
92.2190049682647
 20
-132.9207410692004
 30
0.0
 10
92.26103513318475
 20
-132.9228081264915
 30
0.0
 10
92.26758081460672
 20
-132.9228081264915
 30
0.0
 10
92.33303762882646
 20
-132.9228081264915
 30
0.0
 10
92.53181963832539
 20
-132.9017930440315
 30
0.0
 10
92.53181963832539
 20
-132.6647704746463
 30
0.0
 10
92.53181963832539
 20
-132.4873480571559
 30
0.0
 10
92.40090600988589
 20
-132.432226529392
 30
0.0
 10
92.2906629543579
 20
-132.432226529392
 30
0.0
 10
92.02642413063923
 20
-132.432226529392
 30
0.0
 10
92.0178113919261
 20
-132.6647704746463
 30
0.0
 10
92.0136772773438
 20
-132.736772970288
 30
0.0
 10
92.0136772773438
 20
-132.736772970288
 30
0.0
 10
91.81041664371406
 20
-132.736772970288
 30
0.0
 10
91.81041664371406
 20
-132.736772970288
 30
0.0
 10
91.81902938242719
 20
-132.612060513722
 30
0.0
 10
91.8465901463092
 20
-132.2351670676357
 30
0.0
 10
92.30340980765332
 20
-132.2351670676357
 30
0.0
 10
92.52768552374309
 20
-132.2351670676357
 30
0.0
 10
92.76884220771058
 20
-132.3622910910414
 30
0.0
 10
92.76884220771058
 20
-132.6582247932243
 30
0.0
 10
92.76884220771058
 20
-132.8446044589764
 30
0.0
 10
92.67375757231767
 20
-132.9269422410738
 30
0.0
 10
92.57419431279395
 20
-132.9882649407113
 30
0.0
 10
92.63551701243141
 20
-133.0158257045933
 30
0.0
 10
92.8174180540526
 20
-133.0964409389481
 30
0.0
 10
92.8174180540526
 20
-133.3734266159622
 30
0.0
 10
92.8174180540526
 20
-133.7120795021623
 30
0.0
 10
92.57006019821165
 20
-133.8791666331969
 30
0.0
 10
92.29307452119757
 20
-133.8791666331969
 30
0.0
  0
HATCH
  5
132
330
12B
100
AcDbEntity
  8
_U+30EC_U+30A4_U+30E4_U+30FC 1
 62
   179
420
  2234388
100
AcDbHatch
 10
0.0
 20
0.0
 30
0.0
210
0.0
220
0.0
230
1.0
  2
SOLID
 70
     1
 71
     0
 91
        1
 92
        1
 93
        1
 72
     4
 94
        3
 73
     0
 74
     1
 95
       62
 96
       58
 40
0.0
 40
0.0
 40
0.0
 40
0.0
 40
1.0
 40
1.0
 40
1.0
 40
2.0
 40
2.0
 40
2.0
 40
3.0
 40
3.0
 40
3.0
 40
4.0
 40
4.0
 40
4.0
 40
5.0
 40
5.0
 40
5.0
 40
6.0
 40
6.0
 40
6.0
 40
7.0
 40
7.0
 40
7.0
 40
8.0
 40
8.0
 40
8.0
 40
9.0
 40
9.0
 40
9.0
 40
10.0
 40
10.0
 40
10.0
 40
11.0
 40
11.0
 40
11.0
 40
12.0
 40
12.0
 40
12.0
 40
13.0
 40
13.0
 40
13.0
 40
14.0
 40
14.0
 40
14.0
 40
15.0
 40
15.0
 40
15.0
 40
16.0
 40
16.0
 40
16.0
 40
17.0
 40
17.0
 40
17.0
 40
18.0
 40
18.0
 40
18.0
 40
19.0
 40
19.0
 40
19.0
 40
19.0
 10
92.29307452119757
 20
-133.8791666331969
 10
92.19764537625615
 20
-133.8791666331969
 10
91.97991534158835
 20
-133.8578070411883
 10
91.8548583754738
 20
-133.6717718849848
 10
91.78078882254091
 20
-133.5594617721657
 10
91.77665470795861
 20
-133.4602430221905
 10
91.77252059337631
 20
-133.3754936732533
 10
91.77252059337631
 20
-133.3754936732533
 10
91.99266219488378
 20
-133.3754936732533
 10
91.99266219488378
 20
-133.3754936732533
 10
91.99472925217493
 20
-133.4499077357347
 10
92.00506453863068
 20
-133.6845187382803
 10
92.28859589706674
 20
-133.6845187382803
 10
92.42605520692821
 20
-133.6845187382803
 10
92.57867293692478
 20
-133.6145832999297
 10
92.57867293692478
 20
-133.3861734692576
 10
92.57867293692478
 20
-133.2700737514047
 10
92.54043237703851
 20
-133.2211533955142
 10
92.5087374985742
 20
-133.1894585170499
 10
92.43466794564134
 20
-133.115388964117
 10
92.31822371823989
 20
-133.1026421108216
 10
92.26344670002442
 20
-133.1026421108216
 10
92.24415416530702
 20
-133.1026421108216
 10
92.20832517226042
 20
-133.1047091681127
 10
92.18076440837842
 20
-133.108843282695
 10
92.18076440837842
 20
-133.108843282695
 10
92.18076440837842
 20
-132.9145398973269
 10
92.18076440837842
 20
-132.9145398973269
 10
92.2190049682647
 20
-132.9207410692004
 10
92.26103513318475
 20
-132.9228081264915
 10
92.26758081460672
 20
-132.9228081264915
 10
92.33303762882646
 20
-132.9228081264915
 10
92.53181963832539
 20
-132.9017930440315
 10
92.53181963832539
 20
-132.6647704746463
 10
92.53181963832539
 20
-132.4873480571559
 10
92.40090600988589
 20
-132.432226529392
 10
92.2906629543579
 20
-132.432226529392
 10
92.02642413063923
 20
-132.432226529392
 10
92.0178113919261
 20
-132.6647704746463
 10
92.0136772773438
 20
-132.736772970288
 10
92.0136772773438
 20
-132.736772970288
 10
91.81041664371406
 20
-132.736772970288
 10
91.81041664371406
 20
-132.736772970288
 10
91.81902938242719
 20
-132.612060513722
 10
91.8465901463092
 20
-132.2351670676357
 10
92.30340980765332
 20
-132.2351670676357
 10
92.52768552374309
 20
-132.2351670676357
 10
92.76884220771058
 20
-132.3622910910414
 10
92.76884220771058
 20
-132.6582247932243
 10
92.76884220771058
 20
-132.8446044589764
 10
92.67375757231767
 20
-132.9269422410738
 10
92.57419431279395
 20
-132.9882649407113
 10
92.63551701243141
 20
-133.0158257045933
 10
92.8174180540526
 20
-133.0964409389481
 10
92.8174180540526
 20
-133.3734266159622
 10
92.8174180540526
 20
-133.7120795021623
 10
92.57006019821165
 20
-133.8791666331969
 10
92.29307452119757
 20
-133.8791666331969
 97
        0
 97
        0
 75
     2
 76
     1
 98
        0
  0
ENDBLK
  5
12E
330
12B
100
AcDbEntity
  8
0
100
AcDbBlockEnd
  0
BLOCK
  5
135
330
133
100
AcDbEntity
  8
0
100
AcDbBlockBegin
  2
block 9
 70
     0
 10
0.0
 20
0.0
 30
0.0
  3
block 9
  1

  0
SPLINE
  5
137
330
133
100
AcDbEntity
  8
_U+30EC_U+30A4_U+30E4_U+30FC 1
370
     0
100
AcDbSpline
210
0.0
220
0.0
230
1.0
 70
    11
 71
     3
 72
    44
 73
    40
 74
     0
 42
0.0000000001
 43
0.0000000001
 12
1.0
 22
0.0
 32
0.0
 13
1.0
 23
0.0
 33
0.0
 40
0.0
 40
0.0
 40
0.0
 40
0.0
 40
1.0
 40
1.0
 40
1.0
 40
2.0
 40
2.0
 40
2.0
 40
3.0
 40
3.0
 40
3.0
 40
4.0
 40
4.0
 40
4.0
 40
5.0
 40
5.0
 40
5.0
 40
6.0
 40
6.0
 40
6.0
 40
7.0
 40
7.0
 40
7.0
 40
8.0
 40
8.0
 40
8.0
 40
9.0
 40
9.0
 40
9.0
 40
10.0
 40
10.0
 40
10.0
 40
11.0
 40
11.0
 40
11.0
 40
12.0
 40
12.0
 40
12.0
 40
13.0
 40
13.0
 40
13.0
 40
13.0
 10
91.81765134423308
 20
-165.8944389776236
 30
0.0
 10
91.5999213095653
 20
-166.0536023890422
 30
0.0
 10
91.50690373146355
 20
-166.1273274324265
 30
0.0
 10
91.45798337557301
 20
-166.27133242371
 30
0.0
 10
91.45798337557301
 20
-166.27133242371
 30
0.0
 10
92.23657495523948
 20
-166.27133242371
 30
0.0
 10
92.23657495523948
 20
-166.27133242371
 30
0.0
 10
92.23657495523948
 20
-166.27133242371
 30
0.0
 10
92.23657495523948
 20
-166.4766601146308
 30
0.0
 10
92.23657495523948
 20
-166.4766601146308
 30
0.0
 10
92.23657495523948
 20
-166.4766601146308
 30
0.0
 10
91.20838620766666
 20
-166.4766601146308
 30
0.0
 10
91.20838620766666
 20
-166.4766601146308
 30
0.0
 10
91.24008108613096
 20
-166.1190592032619
 30
0.0
 10
91.3055379003507
 20
-166.0405110261982
 30
0.0
 10
91.6908718303759
 20
-165.7421657571756
 30
0.0
 10
91.94684242492995
 20
-165.5437282572252
 30
0.0
 10
92.01229923914971
 20
-165.4755153666172
 30
0.0
 10
92.01229923914971
 20
-165.3384005663043
 30
0.0
 10
92.01229923914971
 20
-165.2198892816117
 30
0.0
 10
91.94029674350799
 20
-165.0889756531722
 30
0.0
 10
91.74358179130022
 20
-165.0889756531722
 30
0.0
 10
91.48347708216386
 20
-165.0889756531722
 30
0.0
 10
91.47520885299926
 20
-165.3191080315869
 30
0.0
 10
91.47073022886843
 20
-165.4355522589883
 30
0.0
 10
91.47073022886843
 20
-165.4355522589883
 30
0.0
 10
91.2462822580044
 20
-165.4355522589883
 30
0.0
 10
91.2462822580044
 20
-165.4355522589883
 30
0.0
 10
91.25489499671752
 20
-165.3087727451311
 30
0.0
 10
91.26557479272181
 20
-165.196462632312
 30
0.0
 10
91.34584551752813
 20
-165.0779513476194
 30
0.0
 10
91.45591631828187
 20
-164.9174098980068
 30
0.0
 10
91.64229598403388
 20
-164.8836479622513
 30
0.0
 10
91.7583957018868
 20
-164.8836479622513
 30
0.0
 10
92.0357258884494
 20
-164.8836479622513
 30
0.0
 10
92.24312063666144
 20
-165.0676160611636
 30
0.0
 10
92.24312063666144
 20
-165.3404676235955
 30
0.0
 10
92.24312063666144
 20
-165.569221963816
 30
0.0
 10
92.12667640926
 20
-165.6684407137912
 30
0.0
 10
91.81765134423308
 20
-165.8944389776236
 30
0.0
  0
HATCH
  5
138
330
133
100
AcDbEntity
  8
_U+30EC_U+30A4_U+30E4_U+30FC 1
 62
   179
420
  2234388
100
AcDbHatch
 10
0.0
 20
0.0
 30
0.0
210
0.0
220
0.0
230
1.0
  2
SOLID
 70
     1
 71
     0
 91
        1
 92
        1
 93
        1
 72
     4
 94
        3
 73
     0
 74
     1
 95
       44
 96
       40
 40
0.0
 40
0.0
 40
0.0
 40
0.0
 40
1.0
 40
1.0
 40
1.0
 40
2.0
 40
2.0
 40
2.0
 40
3.0
 40
3.0
 40
3.0
 40
4.0
 40
4.0
 40
4.0
 40
5.0
 40
5.0
 40
5.0
 40
6.0
 40
6.0
 40
6.0
 40
7.0
 40
7.0
 40
7.0
 40
8.0
 40
8.0
 40
8.0
 40
9.0
 40
9.0
 40
9.0
 40
10.0
 40
10.0
 40
10.0
 40
11.0
 40
11.0
 40
11.0
 40
12.0
 40
12.0
 40
12.0
 40
13.0
 40
13.0
 40
13.0
 40
13.0
 10
91.81765134423308
 20
-165.8944389776236
 10
91.5999213095653
 20
-166.0536023890422
 10
91.50690373146355
 20
-166.1273274324265
 10
91.45798337557301
 20
-166.27133242371
 10
91.45798337557301
 20
-166.27133242371
 10
92.23657495523948
 20
-166.27133242371
 10
92.23657495523948
 20
-166.27133242371
 10
92.23657495523948
 20
-166.27133242371
 10
92.23657495523948
 20
-166.4766601146308
 10
92.23657495523948
 20
-166.4766601146308
 10
92.23657495523948
 20
-166.4766601146308
 10
91.20838620766666
 20
-166.4766601146308
 10
91.20838620766666
 20
-166.4766601146308
 10
91.24008108613096
 20
-166.1190592032619
 10
91.3055379003507
 20
-166.0405110261982
 10
91.6908718303759
 20
-165.7421657571756
 10
91.94684242492995
 20
-165.5437282572252
 10
92.01229923914971
 20
-165.4755153666172
 10
92.01229923914971
 20
-165.3384005663043
 10
92.01229923914971
 20
-165.2198892816117
 10
91.94029674350799
 20
-165.0889756531722
 10
91.74358179130022
 20
-165.0889756531722
 10
91.48347708216386
 20
-165.0889756531722
 10
91.47520885299926
 20
-165.3191080315869
 10
91.47073022886843
 20
-165.4355522589883
 10
91.47073022886843
 20
-165.4355522589883
 10
91.2462822580044
 20
-165.4355522589883
 10
91.2462822580044
 20
-165.4355522589883
 10
91.25489499671752
 20
-165.3087727451311
 10
91.26557479272181
 20
-165.196462632312
 10
91.34584551752813
 20
-165.0779513476194
 10
91.45591631828187
 20
-164.9174098980068
 10
91.64229598403388
 20
-164.8836479622513
 10
91.7583957018868
 20
-164.8836479622513
 10
92.0357258884494
 20
-164.8836479622513
 10
92.24312063666144
 20
-165.0676160611636
 10
92.24312063666144
 20
-165.3404676235955
 10
92.24312063666144
 20
-165.569221963816
 10
92.12667640926
 20
-165.6684407137912
 10
91.81765134423308
 20
-165.8944389776236
 97
        0
 97
        0
 75
     2
 76
     1
 98
        0
  0
SPLINE
  5
139
330
133
100
AcDbEntity
  8
_U+30EC_U+30A4_U+30E4_U+30FC 1
370
     0
100
AcDbSpline
210
0.0
220
0.0
230
1.0
 70
    11
 71
     3
 72
    29
 73
    25
 74
     0
 42
0.0000000001
 43
0.0000000001
 12
1.0
 22
0.0
 32
0.0
 13
1.0
 23
0.0
 33
0.0
 40
0.0
 40
0.0
 40
0.0
 40
0.0
 40
1.0
 40
1.0
 40
1.0
 40
2.0
 40
2.0
 40
2.0
 40
3.0
 40
3.0
 40
3.0
 40
4.0
 40
4.0
 40
4.0
 40
5.0
 40
5.0
 40
5.0
 40
6.0
 40
6.0
 40
6.0
 40
7.0
 40
7.0
 40
7.0
 40
8.0
 40
8.0
 40
8.0
 40
8.0
 10
93.29938691243905
 20
-166.2988931875919
 30
0.0
 10
93.1912109142022
 20
-166.5083549930951
 30
0.0
 10
93.01792261129414
 20
-166.5269585087155
 30
0.0
 10
92.9014783838927
 20
-166.5269585087155
 30
0.0
 10
92.74059242473152
 20
-166.5269585087155
 30
0.0
 10
92.59899900028775
 20
-166.4807942292131
 30
0.0
 10
92.50391436489485
 20
-166.2988931875919
 30
0.0
 10
92.40021699078883
 20
-166.1039007831268
 30
0.0
 10
92.38126896561997
 20
-165.8668782137416
 30
0.0
 10
92.38126896561997
 20
-165.7042697068378
 30
0.0
 10
92.38126896561997
 20
-165.5602647155544
 30
0.0
 10
92.39814993349769
 20
-165.3087727451311
 30
0.0
 10
92.50391436489485
 20
-165.1096462260837
 30
0.0
 10
92.61174585358317
 20
-164.907074611551
 30
0.0
 10
92.77263181274435
 20
-164.8836479622513
 30
0.0
 10
92.9014783838927
 20
-164.8836479622513
 30
0.0
 10
93.0602972857627
 20
-164.8836479622513
 30
0.0
 10
93.20395776749763
 20
-164.9277451844625
 30
0.0
 10
93.29938691243905
 20
-165.1096462260837
 30
0.0
 10
93.39860566241424
 20
-165.3025715732577
 30
0.0
 10
93.42203231171393
 20
-165.5306368943812
 30
0.0
 10
93.42203231171393
 20
-165.7042697068378
 30
0.0
 10
93.42203231171393
 20
-165.8758354620033
 30
0.0
 10
93.4006727197054
 20
-166.1059678404179
 30
0.0
 10
93.29938691243905
 20
-166.2988931875919
 30
0.0
  0
SPLINE
  5
13A
330
133
100
AcDbEntity
  8
_U+30EC_U+30A4_U+30E4_U+30FC 1
370
     0
100
AcDbSpline
210
0.0
220
0.0
230
1.0
 70
    11
 71
     3
 72
    17
 73
    13
 74
     0
 42
0.0000000001
 43
0.0000000001
 12
1.0
 22
0.0
 32
0.0
 13
1.0
 23
0.0
 33
0.0
 40
0.0
 40
0.0
 40
0.0
 40
0.0
 40
1.0
 40
1.0
 40
1.0
 40
2.0
 40
2.0
 40
2.0
 40
3.0
 40
3.0
 40
3.0
 40
4.0
 40
4.0
 40
4.0
 40
4.0
 10
92.9014783838927
 20
-165.0758842903282
 30
0.0
 10
92.6520534707606
 20
-165.0758842903282
 30
0.0
 10
92.6052001721612
 20
-165.3597601583128
 30
0.0
 10
92.6052001721612
 20
-165.7042697068378
 30
0.0
 10
92.6052001721612
 20
-166.023974567869
 30
0.0
 10
92.64137367475632
 20
-166.3326551233474
 30
0.0
 10
92.9014783838927
 20
-166.3326551233474
 30
0.0
 10
93.14918074928215
 20
-166.3326551233474
 30
0.0
 10
93.19775659562417
 20
-166.051535331751
 30
0.0
 10
93.19775659562417
 20
-165.7042697068378
 30
0.0
 10
93.19775659562417
 20
-165.3845648458066
 30
0.0
 10
93.15951603573791
 20
-165.0758842903282
 30
0.0
 10
92.9014783838927
 20
-165.0758842903282
 30
0.0
  0
HATCH
  5
13B
330
133
100
AcDbEntity
  8
_U+30EC_U+30A4_U+30E4_U+30FC 1
 62
   179
420
  2234388
100
AcDbHatch
 10
0.0
 20
0.0
 30
0.0
210
0.0
220
0.0
230
1.0
  2
SOLID
 70
     1
 71
     0
 91
        2
 92
        1
 93
        1
 72
     4
 94
        3
 73
     0
 74
     1
 95
       29
 96
       25
 40
0.0
 40
0.0
 40
0.0
 40
0.0
 40
1.0
 40
1.0
 40
1.0
 40
2.0
 40
2.0
 40
2.0
 40
3.0
 40
3.0
 40
3.0
 40
4.0
 40
4.0
 40
4.0
 40
5.0
 40
5.0
 40
5.0
 40
6.0
 40
6.0
 40
6.0
 40
7.0
 40
7.0
 40
7.0
 40
8.0
 40
8.0
 40
8.0
 40
8.0
 10
93.29938691243905
 20
-166.2988931875919
 10
93.1912109142022
 20
-166.5083549930951
 10
93.01792261129414
 20
-166.5269585087155
 10
92.9014783838927
 20
-166.5269585087155
 10
92.74059242473152
 20
-166.5269585087155
 10
92.59899900028775
 20
-166.4807942292131
 10
92.50391436489485
 20
-166.2988931875919
 10
92.40021699078883
 20
-166.1039007831268
 10
92.38126896561997
 20
-165.8668782137416
 10
92.38126896561997
 20
-165.7042697068378
 10
92.38126896561997
 20
-165.5602647155544
 10
92.39814993349769
 20
-165.3087727451311
 10
92.50391436489485
 20
-165.1096462260837
 10
92.61174585358317
 20
-164.907074611551
 10
92.77263181274435
 20
-164.8836479622513
 10
92.9014783838927
 20
-164.8836479622513
 10
93.0602972857627
 20
-164.8836479622513
 10
93.20395776749763
 20
-164.9277451844625
 10
93.29938691243905
 20
-165.1096462260837
 10
93.39860566241424
 20
-165.3025715732577
 10
93.42203231171393
 20
-165.5306368943812
 10
93.42203231171393
 20
-165.7042697068378
 10
93.42203231171393
 20
-165.8758354620033
 10
93.4006727197054
 20
-166.1059678404179
 10
93.29938691243905
 20
-166.2988931875919
 97
        0
 97
        0
 92
        1
 93
        1
 72
     4
 94
        3
 73
     0
 74
     1
 95
       17
 96
       13
 40
0.0
 40
0.0
 40
0.0
 40
0.0
 40
1.0
 40
1.0
 40
1.0
 40
2.0
 40
2.0
 40
2.0
 40
3.0
 40
3.0
 40
3.0
 40
4.0
 40
4.0
 40
4.0
 40
4.0
 10
92.9014783838927
 20
-165.0758842903282
 10
92.6520534707606
 20
-165.0758842903282
 10
92.6052001721612
 20
-165.3597601583128
 10
92.6052001721612
 20
-165.7042697068378
 10
92.6052001721612
 20
-166.023974567869
 10
92.64137367475632
 20
-166.3326551233474
 10
92.9014783838927
 20
-166.3326551233474
 10
93.14918074928215
 20
-166.3326551233474
 10
93.19775659562417
 20
-166.051535331751
 10
93.19775659562417
 20
-165.7042697068378
 10
93.19775659562417
 20
-165.3845648458066
 10
93.15951603573791
 20
-165.0758842903282
 10
92.9014783838927
 20
-165.0758842903282
 97
        0
 97
        0
 75
     2
 76
     1
 98
        0
  0
ENDBLK
  5
136
330
133
100
AcDbEntity
  8
0
100
AcDbBlockEnd
  0
ENDSEC
  0
SECTION
  2
ENTITIES
  0
POLYLINE
  5
41
330
1F
100
AcDbEntity
  8
_U+30EC_U+30A4_U+30E4_U+30FC 1
370
     0
100
AcDb2dPolyline
 66
     1
 10
0.0
 20
0.0
 30
0.0
  0
VERTEX
  5
42
330
41
100
AcDbEntity
  8
_U+30EC_U+30A4_U+30E4_U+30FC 1
370
     0
100
AcDbVertex
100
AcDb2dVertex
 10
85.31366108978264
 20
-139.1219030207752
 30
0.0
  0
VERTEX
  5
43
330
41
100
AcDbEntity
  8
_U+30EC_U+30A4_U+30E4_U+30FC 1
370
     0
100
AcDbVertex
100
AcDb2dVertex
 10
83.31344426338585
 20
-139.1219030207752
 30
0.0
  0
VERTEX
  5
44
330
41
100
AcDbEntity
  8
_U+30EC_U+30A4_U+30E4_U+30FC 1
370
     0
100
AcDbVertex
100
AcDb2dVertex
 10
83.31344426338585
 20
-146.1223546856914
 30
0.0
  0
VERTEX
  5
45
330
41
100
AcDbEntity
  8
_U+30EC_U+30A4_U+30E4_U+30FC 1
370
     0
100
AcDbVertex
100
AcDb2dVertex
 10
98.31337860292787
 20
-146.1223546856914
 30
0.0
  0
VERTEX
  5
46
330
41
100
AcDbEntity
  8
_U+30EC_U+30A4_U+30E4_U+30FC 1
370
     0
100
AcDbVertex
100
AcDb2dVertex
 10
98.31337860292787
 20
-97.12222692016388
 30
0.0
  0
VERTEX
  5
47
330
41
100
AcDbEntity
  8
_U+30EC_U+30A4_U+30E4_U+30FC 1
370
     0
100
AcDbVertex
100
AcDb2dVertex
 10
99.51363440564012
 20
-97.12222692016388
 30
0.0
  0
VERTEX
  5
48
330
41
100
AcDbEntity
  8
_U+30EC_U+30A4_U+30E4_U+30FC 1
370
     0
100
AcDbVertex
100
AcDb2dVertex
 10
99.51363440564012
 20
-147.1221269076639
 30
0.0
  0
VERTEX
  5
49
330
41
100
AcDbEntity
  8
_U+30EC_U+30A4_U+30E4_U+30FC 1
370
     0
100
AcDbVertex
100
AcDb2dVertex
 10
83.31344426338585
 20
-147.1221269076639
 30
0.0
  0
VERTEX
  5
4A
330
41
100
AcDbEntity
  8
_U+30EC_U+30A4_U+30E4_U+30FC 1
370
     0
100
AcDbVertex
100
AcDb2dVertex
 10
83.31344426338585
 20
-162.1220616261363
 30
0.0
  0
VERTEX
  5
4B
330
41
100
AcDbEntity
  8
_U+30EC_U+30A4_U+30E4_U+30FC 1
370
     0
100
AcDbVertex
100
AcDb2dVertex
 10
101.3133654708363
 20
-162.1220616261363
 30
0.0
  0
VERTEX
  5
4C
330
41
100
AcDbEntity
  8
_U+30EC_U+30A4_U+30E4_U+30FC 1
370
     0
100
AcDbVertex
100
AcDb2dVertex
 10
101.3133654708363
 20
-160.1218469044138
 30
0.0
  0
VERTEX
  5
4D
330
41
100
AcDbEntity
  8
_U+30EC_U+30A4_U+30E4_U+30FC 1
370
     0
100
AcDbVertex
100
AcDb2dVertex
 10
102.3131376675522
 20
-160.1218469044138
 30
0.0
  0
VERTEX
  5
4E
330
41
100
AcDbEntity
  8
_U+30EC_U+30A4_U+30E4_U+30FC 1
370
     0
100
AcDbVertex
100
AcDb2dVertex
 10
102.3131376675522
 20
-163.1218338481082
 30
0.0
  0
VERTEX
  5
4F
330
41
100
AcDbEntity
  8
_U+30EC_U+30A4_U+30E4_U+30FC 1
370
     0
100
AcDbVertex
100
AcDb2dVertex
 10
82.31296651113239
 20
-163.1218338481082
 30
0.0
  0
VERTEX
  5
50
330
41
100
AcDbEntity
  8
_U+30EC_U+30A4_U+30E4_U+30FC 1
370
     0
100
AcDbVertex
100
AcDb2dVertex
 10
82.31296651113239
 20
-138.1221307988027
 30
0.0
  0
VERTEX
  5
51
330
41
100
AcDbEntity
  8
_U+30EC_U+30A4_U+30E4_U+30FC 1
370
     0
100
AcDbVertex
100
AcDb2dVertex
 10
85.31366108978264
 20
-138.1221307988027
 30
0.0
  0
VERTEX
  5
52
330
41
100
AcDbEntity
  8
_U+30EC_U+30A4_U+30E4_U+30FC 1
370
     0
100
AcDbVertex
100
AcDb2dVertex
 10
85.31366108978264
 20
-139.1219030207752
 30
0.0
  0
SEQEND
  5
54
330
41
100
AcDbEntity
  8
_U+30EC_U+30A4_U+30E4_U+30FC 1
370
     0
  0
HATCH
  5
53
330
1F
100
AcDbEntity
  8
_U+30EC_U+30A4_U+30E4_U+30FC 1
 62
   253
420
 11711154
100
AcDbHatch
 10
0.0
 20
0.0
 30
0.0
210
0.0
220
0.0
230
1.0
  2
SOLID
 70
     1
 71
     0
 91
        1
 92
        1
 93
       16
 72
     1
 10
85.31366108978264
 20
-139.1219030207752
 11
83.31344426338585
 21
-139.1219030207752
 72
     1
 10
83.31344426338585
 20
-139.1219030207752
 11
83.31344426338585
 21
-146.1223546856914
 72
     1
 10
83.31344426338585
 20
-146.1223546856914
 11
98.31337860292787
 21
-146.1223546856914
 72
     1
 10
98.31337860292787
 20
-146.1223546856914
 11
98.31337860292787
 21
-97.12222692016388
 72
     1
 10
98.31337860292787
 20
-97.12222692016388
 11
99.51363440564012
 21
-97.12222692016388
 72
     1
 10
99.51363440564012
 20
-97.12222692016388
 11
99.51363440564012
 21
-147.1221269076639
 72
     1
 10
99.51363440564012
 20
-147.1221269076639
 11
83.31344426338585
 21
-147.1221269076639
 72
     1
 10
83.31344426338585
 20
-147.1221269076639
 11
83.31344426338585
 21
-162.1220616261363
 72
     1
 10
83.31344426338585
 20
-162.1220616261363
 11
101.3133654708363
 21
-162.1220616261363
 72
     1
 10
101.3133654708363
 20
-162.1220616261363
 11
101.3133654708363
 21
-160.1218469044138
 72
     1
 10
101.3133654708363
 20
-160.1218469044138
 11
102.3131376675522
 21
-160.1218469044138
 72
     1
 10
102.3131376675522
 20
-160.1218469044138
 11
102.3131376675522
 21
-163.1218338481082
 72
     1
 10
102.3131376675522
 20
-163.1218338481082
 11
82.31296651113239
 21
-163.1218338481082
 72
     1
 10
82.31296651113239
 20
-163.1218338481082
 11
82.31296651113239
 21
-138.1221307988027
 72
     1
 10
82.31296651113239
 20
-138.1221307988027
 11
85.31366108978264
 21
-138.1221307988027
 72
     1
 10
85.31366108978264
 20
-138.1221307988027
 11
85.31366108978264
 21
-139.1219030207752
 97
        0
 75
     2
 76
     1
 98
        0
  0
POLYLINE
  5
55
330
1F
100
AcDbEntity
  8
_U+30EC_U+30A4_U+30E4_U+30FC 1
 62
   179
420
  2234388
370
    25
100
AcDb2dPolyline
 66
     1
 10
0.0
 20
0.0
 30
0.0
  0
VERTEX
  5
56
330
55
100
AcDbEntity
  8
_U+30EC_U+30A4_U+30E4_U+30FC 1
 62
   179
420
  2234388
370
    25
100
AcDbVertex
100
AcDb2dVertex
 10
98.31337860292787
 20
-97.12222692016388
 30
0.0
  0
VERTEX
  5
57
330
55
100
AcDbEntity
  8
_U+30EC_U+30A4_U+30E4_U+30FC 1
 62
   179
420
  2234388
370
    25
100
AcDbVertex
100
AcDb2dVertex
 10
98.31337860292787
 20
-146.1223546856914
 30
0.0
  0
SEQEND
  5
58
330
55
100
AcDbEntity
  8
_U+30EC_U+30A4_U+30E4_U+30FC 1
 62
   179
420
  2234388
370
    25
  0
POLYLINE
  5
59
330
1F
100
AcDbEntity
  8
_U+30EC_U+30A4_U+30E4_U+30FC 1
 62
   179
420
  2234388
370
    25
100
AcDb2dPolyline
 66
     1
 10
0.0
 20
0.0
 30
0.0
  0
VERTEX
  5
5A
330
59
100
AcDbEntity
  8
_U+30EC_U+30A4_U+30E4_U+30FC 1
 62
   179
420
  2234388
370
    25
100
AcDbVertex
100
AcDb2dVertex
 10
99.51363440564012
 20
-97.12222692016388
 30
0.0
  0
VERTEX
  5
5B
330
59
100
AcDbEntity
  8
_U+30EC_U+30A4_U+30E4_U+30FC 1
 62
   179
420
  2234388
370
    25
100
AcDbVertex
100
AcDb2dVertex
 10
98.31337860292787
 20
-97.12222692016388
 30
0.0
  0
SEQEND
  5
5C
330
59
100
AcDbEntity
  8
_U+30EC_U+30A4_U+30E4_U+30FC 1
 62
   179
420
  2234388
370
    25
  0
POLYLINE
  5
5D
330
1F
100
AcDbEntity
  8
_U+30EC_U+30A4_U+30E4_U+30FC 1
 62
   179
420
  2234388
370
    25
100
AcDb2dPolyline
 66
     1
 10
0.0
 20
0.0
 30
0.0
  0
VERTEX
  5
5E
330
5D
100
AcDbEntity
  8
_U+30EC_U+30A4_U+30E4_U+30FC 1
 62
   179
420
  2234388
370
    25
100
AcDbVertex
100
AcDb2dVertex
 10
99.51363440564012
 20
-97.12222692016388
 30
0.0
  0
VERTEX
  5
5F
330
5D
100
AcDbEntity
  8
_U+30EC_U+30A4_U+30E4_U+30FC 1
 62
   179
420
  2234388
370
    25
100
AcDbVertex
100
AcDb2dVertex
 10
99.51363440564012
 20
-147.1221269076639
 30
0.0
  0
SEQEND
  5
60
330
5D
100
AcDbEntity
  8
_U+30EC_U+30A4_U+30E4_U+30FC 1
 62
   179
420
  2234388
370
    25
  0
POLYLINE
  5
61
330
1F
100
AcDbEntity
  8
_U+30EC_U+30A4_U+30E4_U+30FC 1
 62
   179
420
  2234388
370
    25
100
AcDb2dPolyline
 66
     1
 10
0.0
 20
0.0
 30
0.0
  0
VERTEX
  5
62
330
61
100
AcDbEntity
  8
_U+30EC_U+30A4_U+30E4_U+30FC 1
 62
   179
420
  2234388
370
    25
100
AcDbVertex
100
AcDb2dVertex
 10
99.51363440564012
 20
-147.1221269076639
 30
0.0
  0
VERTEX
  5
63
330
61
100
AcDbEntity
  8
_U+30EC_U+30A4_U+30E4_U+30FC 1
 62
   179
420
  2234388
370
    25
100
AcDbVertex
100
AcDb2dVertex
 10
83.31344426338585
 20
-147.1221269076639
 30
0.0
  0
SEQEND
  5
64
330
61
100
AcDbEntity
  8
_U+30EC_U+30A4_U+30E4_U+30FC 1
 62
   179
420
  2234388
370
    25
  0
POLYLINE
  5
65
330
1F
100
AcDbEntity
  8
_U+30EC_U+30A4_U+30E4_U+30FC 1
 62
   179
420
  2234388
370
    25
100
AcDb2dPolyline
 66
     1
 10
0.0
 20
0.0
 30
0.0
  0
VERTEX
  5
66
330
65
100
AcDbEntity
  8
_U+30EC_U+30A4_U+30E4_U+30FC 1
 62
   179
420
  2234388
370
    25
100
AcDbVertex
100
AcDb2dVertex
 10
85.31366108978264
 20
-138.1221307988027
 30
0.0
  0
VERTEX
  5
67
330
65
100
AcDbEntity
  8
_U+30EC_U+30A4_U+30E4_U+30FC 1
 62
   179
420
  2234388
370
    25
100
AcDbVertex
100
AcDb2dVertex
 10
85.31366108978264
 20
-139.1219030207752
 30
0.0
  0
SEQEND
  5
68
330
65
100
AcDbEntity
  8
_U+30EC_U+30A4_U+30E4_U+30FC 1
 62
   179
420
  2234388
370
    25
  0
POLYLINE
  5
69
330
1F
100
AcDbEntity
  8
_U+30EC_U+30A4_U+30E4_U+30FC 1
 62
   179
420
  2234388
370
    25
100
AcDb2dPolyline
 66
     1
 10
0.0
 20
0.0
 30
0.0
  0
VERTEX
  5
6A
330
69
100
AcDbEntity
  8
_U+30EC_U+30A4_U+30E4_U+30FC 1
 62
   179
420
  2234388
370
    25
100
AcDbVertex
100
AcDb2dVertex
 10
82.31296651113239
 20
-138.1221307988027
 30
0.0
  0
VERTEX
  5
6B
330
69
100
AcDbEntity
  8
_U+30EC_U+30A4_U+30E4_U+30FC 1
 62
   179
420
  2234388
370
    25
100
AcDbVertex
100
AcDb2dVertex
 10
82.31296651113239
 20
-163.1218338481082
 30
0.0
  0
SEQEND
  5
6C
330
69
100
AcDbEntity
  8
_U+30EC_U+30A4_U+30E4_U+30FC 1
 62
   179
420
  2234388
370
    25
  0
POLYLINE
  5
6D
330
1F
100
AcDbEntity
  8
_U+30EC_U+30A4_U+30E4_U+30FC 1
 62
   179
420
  2234388
370
    25
100
AcDb2dPolyline
 66
     1
 10
0.0
 20
0.0
 30
0.0
  0
VERTEX
  5
6E
330
6D
100
AcDbEntity
  8
_U+30EC_U+30A4_U+30E4_U+30FC 1
 62
   179
420
  2234388
370
    25
100
AcDbVertex
100
AcDb2dVertex
 10
102.3131376675522
 20
-160.1218469044138
 30
0.0
  0
VERTEX
  5
6F
330
6D
100
AcDbEntity
  8
_U+30EC_U+30A4_U+30E4_U+30FC 1
 62
   179
420
  2234388
370
    25
100
AcDbVertex
100
AcDb2dVertex
 10
101.3133654708363
 20
-160.1218469044138
 30
0.0
  0
SEQEND
  5
70
330
6D
100
AcDbEntity
  8
_U+30EC_U+30A4_U+30E4_U+30FC 1
 62
   179
420
  2234388
370
    25
  0
POLYLINE
  5
71
330
1F
100
AcDbEntity
  8
_U+30EC_U+30A4_U+30E4_U+30FC 1
 62
   179
420
  2234388
370
    25
100
AcDb2dPolyline
 66
     1
 10
0.0
 20
0.0
 30
0.0
  0
VERTEX
  5
72
330
71
100
AcDbEntity
  8
_U+30EC_U+30A4_U+30E4_U+30FC 1
 62
   179
420
  2234388
370
    25
100
AcDbVertex
100
AcDb2dVertex
 10
102.3131376675522
 20
-163.1218338481082
 30
0.0
  0
VERTEX
  5
73
330
71
100
AcDbEntity
  8
_U+30EC_U+30A4_U+30E4_U+30FC 1
 62
   179
420
  2234388
370
    25
100
AcDbVertex
100
AcDb2dVertex
 10
82.31296651113239
 20
-163.1218338481082
 30
0.0
  0
SEQEND
  5
74
330
71
100
AcDbEntity
  8
_U+30EC_U+30A4_U+30E4_U+30FC 1
 62
   179
420
  2234388
370
    25
  0
POLYLINE
  5
75
330
1F
100
AcDbEntity
  8
_U+30EC_U+30A4_U+30E4_U+30FC 1
 62
   179
420
  2234388
370
    25
100
AcDb2dPolyline
 66
     1
 10
0.0
 20
0.0
 30
0.0
  0
VERTEX
  5
76
330
75
100
AcDbEntity
  8
_U+30EC_U+30A4_U+30E4_U+30FC 1
 62
   179
420
  2234388
370
    25
100
AcDbVertex
100
AcDb2dVertex
 10
85.31366108978264
 20
-138.1221307988027
 30
0.0
  0
VERTEX
  5
77
330
75
100
AcDbEntity
  8
_U+30EC_U+30A4_U+30E4_U+30FC 1
 62
   179
420
  2234388
370
    25
100
AcDbVertex
100
AcDb2dVertex
 10
82.31296651113239
 20
-138.1221307988027
 30
0.0
  0
SEQEND
  5
78
330
75
100
AcDbEntity
  8
_U+30EC_U+30A4_U+30E4_U+30FC 1
 62
   179
420
  2234388
370
    25
  0
POLYLINE
  5
79
330
1F
100
AcDbEntity
  8
_U+30EC_U+30A4_U+30E4_U+30FC 1
 62
   179
420
  2234388
370
    25
100
AcDb2dPolyline
 66
     1
 10
0.0
 20
0.0
 30
0.0
  0
VERTEX
  5
7A
330
79
100
AcDbEntity
  8
_U+30EC_U+30A4_U+30E4_U+30FC 1
 62
   179
420
  2234388
370
    25
100
AcDbVertex
100
AcDb2dVertex
 10
102.3131376675522
 20
-160.1218469044138
 30
0.0
  0
VERTEX
  5
7B
330
79
100
AcDbEntity
  8
_U+30EC_U+30A4_U+30E4_U+30FC 1
 62
   179
420
  2234388
370
    25
100
AcDbVertex
100
AcDb2dVertex
 10
102.3131376675522
 20
-163.1218338481082
 30
0.0
  0
SEQEND
  5
7C
330
79
100
AcDbEntity
  8
_U+30EC_U+30A4_U+30E4_U+30FC 1
 62
   179
420
  2234388
370
    25
  0
POLYLINE
  5
7D
330
1F
100
AcDbEntity
  8
_U+30EC_U+30A4_U+30E4_U+30FC 1
 62
   179
420
  2234388
370
    25
100
AcDb2dPolyline
 66
     1
 10
0.0
 20
0.0
 30
0.0
  0
VERTEX
  5
7E
330
7D
100
AcDbEntity
  8
_U+30EC_U+30A4_U+30E4_U+30FC 1
 62
   179
420
  2234388
370
    25
100
AcDbVertex
100
AcDb2dVertex
 10
98.31337860292787
 20
-146.1223546856914
 30
0.0
  0
VERTEX
  5
7F
330
7D
100
AcDbEntity
  8
_U+30EC_U+30A4_U+30E4_U+30FC 1
 62
   179
420
  2234388
370
    25
100
AcDbVertex
100
AcDb2dVertex
 10
83.31344426338585
 20
-146.1223546856914
 30
0.0
  0
SEQEND
  5
80
330
7D
100
AcDbEntity
  8
_U+30EC_U+30A4_U+30E4_U+30FC 1
 62
   179
420
  2234388
370
    25
  0
POLYLINE
  5
81
330
1F
100
AcDbEntity
  8
_U+30EC_U+30A4_U+30E4_U+30FC 1
 62
   179
420
  2234388
370
    25
100
AcDb2dPolyline
 66
     1
 10
0.0
 20
0.0
 30
0.0
  0
VERTEX
  5
82
330
81
100
AcDbEntity
  8
_U+30EC_U+30A4_U+30E4_U+30FC 1
 62
   179
420
  2234388
370
    25
100
AcDbVertex
100
AcDb2dVertex
 10
83.31344426338585
 20
-139.1219030207752
 30
0.0
  0
VERTEX
  5
83
330
81
100
AcDbEntity
  8
_U+30EC_U+30A4_U+30E4_U+30FC 1
 62
   179
420
  2234388
370
    25
100
AcDbVertex
100
AcDb2dVertex
 10
83.31344426338585
 20
-146.1223546856914
 30
0.0
  0
SEQEND
  5
84
330
81
100
AcDbEntity
  8
_U+30EC_U+30A4_U+30E4_U+30FC 1
 62
   179
420
  2234388
370
    25
  0
POLYLINE
  5
85
330
1F
100
AcDbEntity
  8
_U+30EC_U+30A4_U+30E4_U+30FC 1
 62
   179
420
  2234388
370
    25
100
AcDb2dPolyline
 66
     1
 10
0.0
 20
0.0
 30
0.0
  0
VERTEX
  5
86
330
85
100
AcDbEntity
  8
_U+30EC_U+30A4_U+30E4_U+30FC 1
 62
   179
420
  2234388
370
    25
100
AcDbVertex
100
AcDb2dVertex
 10
85.31366108978264
 20
-139.1219030207752
 30
0.0
  0
VERTEX
  5
87
330
85
100
AcDbEntity
  8
_U+30EC_U+30A4_U+30E4_U+30FC 1
 62
   179
420
  2234388
370
    25
100
AcDbVertex
100
AcDb2dVertex
 10
83.31344426338585
 20
-139.1219030207752
 30
0.0
  0
SEQEND
  5
88
330
85
100
AcDbEntity
  8
_U+30EC_U+30A4_U+30E4_U+30FC 1
 62
   179
420
  2234388
370
    25
  0
POLYLINE
  5
89
330
1F
100
AcDbEntity
  8
_U+30EC_U+30A4_U+30E4_U+30FC 1
 62
   179
420
  2234388
370
    25
100
AcDb2dPolyline
 66
     1
 10
0.0
 20
0.0
 30
0.0
  0
VERTEX
  5
8A
330
89
100
AcDbEntity
  8
_U+30EC_U+30A4_U+30E4_U+30FC 1
 62
   179
420
  2234388
370
    25
100
AcDbVertex
100
AcDb2dVertex
 10
101.3133654708363
 20
-162.1220616261363
 30
0.0
  0
VERTEX
  5
8B
330
89
100
AcDbEntity
  8
_U+30EC_U+30A4_U+30E4_U+30FC 1
 62
   179
420
  2234388
370
    25
100
AcDbVertex
100
AcDb2dVertex
 10
83.31344426338585
 20
-162.1220616261363
 30
0.0
  0
SEQEND
  5
8C
330
89
100
AcDbEntity
  8
_U+30EC_U+30A4_U+30E4_U+30FC 1
 62
   179
420
  2234388
370
    25
  0
POLYLINE
  5
8D
330
1F
100
AcDbEntity
  8
_U+30EC_U+30A4_U+30E4_U+30FC 1
 62
   179
420
  2234388
370
    25
100
AcDb2dPolyline
 66
     1
 10
0.0
 20
0.0
 30
0.0
  0
VERTEX
  5
8E
330
8D
100
AcDbEntity
  8
_U+30EC_U+30A4_U+30E4_U+30FC 1
 62
   179
420
  2234388
370
    25
100
AcDbVertex
100
AcDb2dVertex
 10
101.3133654708363
 20
-160.1218469044138
 30
0.0
  0
VERTEX
  5
8F
330
8D
100
AcDbEntity
  8
_U+30EC_U+30A4_U+30E4_U+30FC 1
 62
   179
420
  2234388
370
    25
100
AcDbVertex
100
AcDb2dVertex
 10
101.3133654708363
 20
-162.1220616261363
 30
0.0
  0
SEQEND
  5
90
330
8D
100
AcDbEntity
  8
_U+30EC_U+30A4_U+30E4_U+30FC 1
 62
   179
420
  2234388
370
    25
  0
POLYLINE
  5
91
330
1F
100
AcDbEntity
  8
_U+30EC_U+30A4_U+30E4_U+30FC 1
 62
   179
420
  2234388
370
    25
100
AcDb2dPolyline
 66
     1
 10
0.0
 20
0.0
 30
0.0
  0
VERTEX
  5
92
330
91
100
AcDbEntity
  8
_U+30EC_U+30A4_U+30E4_U+30FC 1
 62
   179
420
  2234388
370
    25
100
AcDbVertex
100
AcDb2dVertex
 10
83.31344426338585
 20
-147.1221269076639
 30
0.0
  0
VERTEX
  5
93
330
91
100
AcDbEntity
  8
_U+30EC_U+30A4_U+30E4_U+30FC 1
 62
   179
420
  2234388
370
    25
100
AcDbVertex
100
AcDb2dVertex
 10
83.31344426338585
 20
-162.1220616261363
 30
0.0
  0
SEQEND
  5
94
330
91
100
AcDbEntity
  8
_U+30EC_U+30A4_U+30E4_U+30FC 1
 62
   179
420
  2234388
370
    25
  0
SPLINE
  5
95
330
1F
100
AcDbEntity
  8
_U+30EC_U+30A4_U+30E4_U+30FC 1
 62
   179
420
  2234388
370
     9
100
AcDbSpline
210
0.0
220
0.0
230
1.0
 70
    11
 71
     3
 72
    17
 73
    13
 74
     0
 42
0.0000000001
 43
0.0000000001
 12
1.0
 22
0.0
 32
0.0
 13
1.0
 23
0.0
 33
0.0
 40
0.0
 40
0.0
 40
0.0
 40
0.0
 40
1.0
 40
1.0
 40
1.0
 40
2.0
 40
2.0
 40
2.0
 40
3.0
 40
3.0
 40
3.0
 40
4.0
 40
4.0
 40
4.0
 40
4.0
 10
98.21347193881003
 20
-93.12179747671965
 30
0.0
 10
98.21347193881003
 20
-93.06665831006657
 30
0.0
 10
98.25823943766791
 20
-93.021890810078
 30
0.0
 10
98.31337860292787
 20
-93.021890810078
 30
0.0
 10
98.36848249041094
 20
-93.021890810078
 30
0.0
 10
98.4132852670457
 20
-93.06665831006657
 30
0.0
 10
98.4132852670457
 20
-93.12179747671965
 30
0.0
 10
98.4132852670457
 20
-93.17690136559456
 30
0.0
 10
98.36848249041094
 20
-93.22170414336128
 30
0.0
 10
98.31337860292787
 20
-93.22170414336128
 30
0.0
 10
98.25823943766791
 20
-93.22170414336128
 30
0.0
 10
98.21347193881003
 20
-93.17690136559456
 30
0.0
 10
98.21347193881003
 20
-93.12179747671965
 30
0.0
  0
SPLINE
  5
96
330
1F
100
AcDbEntity
  8
_U+30EC_U+30A4_U+30E4_U+30FC 1
 62
   179
420
  2234388
370
     9
100
AcDbSpline
210
0.0
220
0.0
230
1.0
 70
    11
 71
     3
 72
    17
 73
    13
 74
     0
 42
0.0000000001
 43
0.0000000001
 12
1.0
 22
0.0
 32
0.0
 13
1.0
 23
0.0
 33
0.0
 40
0.0
 40
0.0
 40
0.0
 40
0.0
 40
1.0
 40
1.0
 40
1.0
 40
2.0
 40
2.0
 40
2.0
 40
3.0
 40
3.0
 40
3.0
 40
4.0
 40
4.0
 40
4.0
 40
4.0
 10
99.41372774152228
 20
-93.12179747671965
 30
0.0
 10
99.41372774152228
 20
-93.06665831006657
 30
0.0
 10
99.45853051815705
 20
-93.021890810078
 30
0.0
 10
99.51363440564012
 20
-93.021890810078
 30
0.0
 10
99.56877357090006
 20
-93.021890810078
 30
0.0
 10
99.61354106975796
 20
-93.06665831006657
 30
0.0
 10
99.61354106975796
 20
-93.12179747671965
 30
0.0
 10
99.61354106975796
 20
-93.17690136559456
 30
0.0
 10
99.56877357090006
 20
-93.22170414336128
 30
0.0
 10
99.51363440564012
 20
-93.22170414336128
 30
0.0
 10
99.45853051815705
 20
-93.22170414336128
 30
0.0
 10
99.41372774152228
 20
-93.17690136559456
 30
0.0
 10
99.41372774152228
 20
-93.12179747671965
 30
0.0
  0
SPLINE
  5
97
330
1F
100
AcDbEntity
  8
_U+30EC_U+30A4_U+30E4_U+30FC 1
 62
   179
420
  2234388
370
     9
100
AcDbSpline
210
0.0
220
0.0
230
1.0
 70
    11
 71
     3
 72
    17
 73
    13
 74
     0
 42
0.0000000001
 43
0.0000000001
 12
1.0
 22
0.0
 32
0.0
 13
1.0
 23
0.0
 33
0.0
 40
0.0
 40
0.0
 40
0.0
 40
0.0
 40
1.0
 40
1.0
 40
1.0
 40
2.0
 40
2.0
 40
2.0
 40
3.0
 40
3.0
 40
3.0
 40
4.0
 40
4.0
 40
4.0
 40
4.0
 10
82.21305984701455
 20
-134.1217013553585
 30
0.0
 10
82.21305984701455
 20
-134.0665974664836
 30
0.0
 10
82.25786262364932
 20
-134.0217946887168
 30
0.0
 10
82.31296651113239
 20
-134.0217946887168
 30
0.0
 10
82.36877595415301
 20
-134.0217946887168
 30
0.0
 10
82.41357873078778
 20
-134.0665974664836
 30
0.0
 10
82.41357873078778
 20
-134.1217013553585
 30
0.0
 10
82.41357873078778
 20
-134.1768405220116
 30
0.0
 10
82.36877595415301
 20
-134.2216080220001
 30
0.0
 10
82.31296651113239
 20
-134.2216080220001
 30
0.0
 10
82.25786262364932
 20
-134.2216080220001
 30
0.0
 10
82.21305984701455
 20
-134.1768405220116
 30
0.0
 10
82.21305984701455
 20
-134.1217013553585
 30
0.0
  0
SPLINE
  5
98
330
1F
100
AcDbEntity
  8
_U+30EC_U+30A4_U+30E4_U+30FC 1
 62
   179
420
  2234388
370
     9
100
AcDbSpline
210
0.0
220
0.0
230
1.0
 70
    11
 71
     3
 72
    17
 73
    13
 74
     0
 42
0.0000000001
 43
0.0000000001
 12
1.0
 22
0.0
 32
0.0
 13
1.0
 23
0.0
 33
0.0
 40
0.0
 40
0.0
 40
0.0
 40
0.0
 40
1.0
 40
1.0
 40
1.0
 40
2.0
 40
2.0
 40
2.0
 40
3.0
 40
3.0
 40
3.0
 40
4.0
 40
4.0
 40
4.0
 40
4.0
 10
85.2137522704605
 20
-134.1217013553585
 30
0.0
 10
85.2137522704605
 20
-134.0665974664836
 30
0.0
 10
85.2585197693184
 20
-134.0217946887168
 30
0.0
 10
85.31366108978264
 20
-134.0217946887168
 30
0.0
 10
85.36876282206141
 20
-134.0217946887168
 30
0.0
 10
85.41356559869618
 20
-134.0665974664836
 30
0.0
 10
85.41356559869618
 20
-134.1217013553585
 30
0.0
 10
85.41356559869618
 20
-134.1768405220116
 30
0.0
 10
85.36876282206141
 20
-134.2216080220001
 30
0.0
 10
85.31366108978264
 20
-134.2216080220001
 30
0.0
 10
85.2585197693184
 20
-134.2216080220001
 30
0.0
 10
85.2137522704605
 20
-134.1768405220116
 30
0.0
 10
85.2137522704605
 20
-134.1217013553585
 30
0.0
  0
SPLINE
  5
99
330
1F
100
AcDbEntity
  8
_U+30EC_U+30A4_U+30E4_U+30FC 1
 62
   179
420
  2234388
370
     9
100
AcDbSpline
210
0.0
220
0.0
230
1.0
 70
    11
 71
     3
 72
    17
 73
    13
 74
     0
 42
0.0000000001
 43
0.0000000001
 12
1.0
 22
0.0
 32
0.0
 13
1.0
 23
0.0
 33
0.0
 40
0.0
 40
0.0
 40
0.0
 40
0.0
 40
1.0
 40
1.0
 40
1.0
 40
2.0
 40
2.0
 40
2.0
 40
3.0
 40
3.0
 40
3.0
 40
4.0
 40
4.0
 40
4.0
 40
4.0
 10
98.21347193881003
 20
-133.1219291333859
 30
0.0
 10
98.21347193881003
 20
-133.066825244511
 30
0.0
 10
98.25823943766791
 20
-133.0220224667443
 30
0.0
 10
98.31337860292787
 20
-133.0220224667443
 30
0.0
 10
98.36848249041094
 20
-133.0220224667443
 30
0.0
 10
98.4132852670457
 20
-133.066825244511
 30
0.0
 10
98.4132852670457
 20
-133.1219291333859
 30
0.0
 10
98.4132852670457
 20
-133.177068300039
 30
0.0
 10
98.36848249041094
 20
-133.2218358000276
 30
0.0
 10
98.31337860292787
 20
-133.2218358000276
 30
0.0
 10
98.25823943766791
 20
-133.2218358000276
 30
0.0
 10
98.21347193881003
 20
-133.177068300039
 30
0.0
 10
98.21347193881003
 20
-133.1219291333859
 30
0.0
  0
SPLINE
  5
9A
330
1F
100
AcDbEntity
  8
_U+30EC_U+30A4_U+30E4_U+30FC 1
 62
   179
420
  2234388
370
     9
100
AcDbSpline
210
0.0
220
0.0
230
1.0
 70
    11
 71
     3
 72
    17
 73
    13
 74
     0
 42
0.0000000001
 43
0.0000000001
 12
1.0
 22
0.0
 32
0.0
 13
1.0
 23
0.0
 33
0.0
 40
0.0
 40
0.0
 40
0.0
 40
0.0
 40
1.0
 40
1.0
 40
1.0
 40
2.0
 40
2.0
 40
2.0
 40
3.0
 40
3.0
 40
3.0
 40
4.0
 40
4.0
 40
4.0
 40
4.0
 10
78.21330275822457
 20
-163.1218338481082
 30
0.0
 10
78.21330275822457
 20
-163.0666946814557
 30
0.0
 10
78.25810553599098
 20
-163.0219271814665
 30
0.0
 10
78.31320744650807
 20
-163.0219271814665
 30
0.0
 10
78.36834661176802
 20
-163.0219271814665
 30
0.0
 10
78.41311411062591
 20
-163.0666946814557
 30
0.0
 10
78.41311411062591
 20
-163.1218338481082
 30
0.0
 10
78.41311411062591
 20
-163.1769377369837
 30
0.0
 10
78.36834661176802
 20
-163.2217405147505
 30
0.0
 10
78.31320744650807
 20
-163.2217405147505
 30
0.0
 10
78.25810553599098
 20
-163.2217405147505
 30
0.0
 10
78.21330275822457
 20
-163.1769377369837
 30
0.0
 10
78.21330275822457
 20
-163.1218338481082
 30
0.0
  0
SPLINE
  5
9B
330
1F
100
AcDbEntity
  8
_U+30EC_U+30A4_U+30E4_U+30FC 1
 62
   179
420
  2234388
370
     9
100
AcDbSpline
210
0.0
220
0.0
230
1.0
 70
    11
 71
     3
 72
    17
 73
    13
 74
     0
 42
0.0000000001
 43
0.0000000001
 12
1.0
 22
0.0
 32
0.0
 13
1.0
 23
0.0
 33
0.0
 40
0.0
 40
0.0
 40
0.0
 40
0.0
 40
1.0
 40
1.0
 40
1.0
 40
2.0
 40
2.0
 40
2.0
 40
3.0
 40
3.0
 40
3.0
 40
4.0
 40
4.0
 40
4.0
 40
4.0
 10
78.21330275822457
 20
-138.1221307988027
 30
0.0
 10
78.21330275822457
 20
-138.0670269099278
 30
0.0
 10
78.25810553599098
 20
-138.0222241321611
 30
0.0
 10
78.31320744650807
 20
-138.0222241321611
 30
0.0
 10
78.36834661176802
 20
-138.0222241321611
 30
0.0
 10
78.41311411062591
 20
-138.0670269099278
 30
0.0
 10
78.41311411062591
 20
-138.1221307988027
 30
0.0
 10
78.41311411062591
 20
-138.1772699654558
 30
0.0
 10
78.36834661176802
 20
-138.2220374654443
 30
0.0
 10
78.31320744650807
 20
-138.2220374654443
 30
0.0
 10
78.25810553599098
 20
-138.2220374654443
 30
0.0
 10
78.21330275822457
 20
-138.1772699654558
 30
0.0
 10
78.21330275822457
 20
-138.1221307988027
 30
0.0
  0
SPLINE
  5
9C
330
1F
100
AcDbEntity
  8
_U+30EC_U+30A4_U+30E4_U+30FC 1
 62
   179
420
  2234388
370
     9
100
AcDbSpline
210
0.0
220
0.0
230
1.0
 70
    11
 71
     3
 72
    17
 73
    13
 74
     0
 42
0.0000000001
 43
0.0000000001
 12
1.0
 22
0.0
 32
0.0
 13
1.0
 23
0.0
 33
0.0
 40
0.0
 40
0.0
 40
0.0
 40
0.0
 40
1.0
 40
1.0
 40
1.0
 40
2.0
 40
2.0
 40
2.0
 40
3.0
 40
3.0
 40
3.0
 40
4.0
 40
4.0
 40
4.0
 40
4.0
 10
82.21305984701455
 20
-167.1222632915531
 30
0.0
 10
82.21305984701455
 20
-167.066453847122
 30
0.0
 10
82.25786262364932
 20
-167.0216863471334
 30
0.0
 10
82.31296651113239
 20
-167.0216863471334
 30
0.0
 10
82.36877595415301
 20
-167.0216863471334
 30
0.0
 10
82.41357873078778
 20
-167.066453847122
 30
0.0
 10
82.41357873078778
 20
-167.1222632915531
 30
0.0
 10
82.41357873078778
 20
-167.1774024582055
 30
0.0
 10
82.36877595415301
 20
-167.2221699581947
 30
0.0
 10
82.31296651113239
 20
-167.2221699581947
 30
0.0
 10
82.25786262364932
 20
-167.2221699581947
 30
0.0
 10
82.21305984701455
 20
-167.1774024582055
 30
0.0
 10
82.21305984701455
 20
-167.1222632915531
 30
0.0
  0
SPLINE
  5
9D
330
1F
100
AcDbEntity
  8
_U+30EC_U+30A4_U+30E4_U+30FC 1
 62
   179
420
  2234388
370
     9
100
AcDbSpline
210
0.0
220
0.0
230
1.0
 70
    11
 71
     3
 72
    17
 73
    13
 74
     0
 42
0.0000000001
 43
0.0000000001
 12
1.0
 22
0.0
 32
0.0
 13
1.0
 23
0.0
 33
0.0
 40
0.0
 40
0.0
 40
0.0
 40
0.0
 40
1.0
 40
1.0
 40
1.0
 40
2.0
 40
2.0
 40
2.0
 40
3.0
 40
3.0
 40
3.0
 40
4.0
 40
4.0
 40
4.0
 40
4.0
 10
106.2136603458193
 20
-163.1218338481082
 30
0.0
 10
106.2136603458193
 20
-163.0666946814557
 30
0.0
 10
106.2577575669165
 20
-163.0219271814665
 30
0.0
 10
106.3135670099372
 20
-163.0219271814665
 30
0.0
 10
106.3687061751971
 20
-163.0219271814665
 30
0.0
 10
106.413473674055
 20
-163.0666946814557
 30
0.0
 10
106.413473674055
 20
-163.1218338481082
 30
0.0
 10
106.413473674055
 20
-163.1769377369837
 30
0.0
 10
106.3687061751971
 20
-163.2217405147505
 30
0.0
 10
106.3135670099372
 20
-163.2217405147505
 30
0.0
 10
106.2577575669165
 20
-163.2217405147505
 30
0.0
 10
106.2136603458193
 20
-163.1769377369837
 30
0.0
 10
106.2136603458193
 20
-163.1218338481082
 30
0.0
  0
SPLINE
  5
9E
330
1F
100
AcDbEntity
  8
_U+30EC_U+30A4_U+30E4_U+30FC 1
 62
   179
420
  2234388
370
     9
100
AcDbSpline
210
0.0
220
0.0
230
1.0
 70
    11
 71
     3
 72
    17
 73
    13
 74
     0
 42
0.0000000001
 43
0.0000000001
 12
1.0
 22
0.0
 32
0.0
 13
1.0
 23
0.0
 33
0.0
 40
0.0
 40
0.0
 40
0.0
 40
0.0
 40
1.0
 40
1.0
 40
1.0
 40
2.0
 40
2.0
 40
2.0
 40
3.0
 40
3.0
 40
3.0
 40
4.0
 40
4.0
 40
4.0
 40
4.0
 10
106.2136603458193
 20
-160.1218469044138
 30
0.0
 10
106.2136603458193
 20
-160.0667077377614
 30
0.0
 10
106.2577575669165
 20
-160.0219402377722
 30
0.0
 10
106.3135670099372
 20
-160.0219402377722
 30
0.0
 10
106.3687061751971
 20
-160.0219402377722
 30
0.0
 10
106.413473674055
 20
-160.0667077377614
 30
0.0
 10
106.413473674055
 20
-160.1218469044138
 30
0.0
 10
106.413473674055
 20
-160.1776563488443
 30
0.0
 10
106.3687061751971
 20
-160.2224238488335
 30
0.0
 10
106.3135670099372
 20
-160.2224238488335
 30
0.0
 10
106.2577575669165
 20
-160.2224238488335
 30
0.0
 10
106.2136603458193
 20
-160.1776563488443
 30
0.0
 10
106.2136603458193
 20
-160.1218469044138
 30
0.0
  0
SPLINE
  5
9F
330
1F
100
AcDbEntity
  8
_U+30EC_U+30A4_U+30E4_U+30FC 1
 62
   179
420
  2234388
370
     9
100
AcDbSpline
210
0.0
220
0.0
230
1.0
 70
    11
 71
     3
 72
    17
 73
    13
 74
     0
 42
0.0000000001
 43
0.0000000001
 12
1.0
 22
0.0
 32
0.0
 13
1.0
 23
0.0
 33
0.0
 40
0.0
 40
0.0
 40
0.0
 40
0.0
 40
1.0
 40
1.0
 40
1.0
 40
2.0
 40
2.0
 40
2.0
 40
3.0
 40
3.0
 40
3.0
 40
4.0
 40
4.0
 40
4.0
 40
4.0
 10
102.2132310034343
 20
-167.1222632915531
 30
0.0
 10
102.2132310034343
 20
-167.066453847122
 30
0.0
 10
102.2579985022922
 20
-167.0216863471334
 30
0.0
 10
102.3131376675522
 20
-167.0216863471334
 30
0.0
 10
102.3682415550353
 20
-167.0216863471334
 30
0.0
 10
102.41304433167
 20
-167.066453847122
 30
0.0
 10
102.41304433167
 20
-167.1222632915531
 30
0.0
 10
102.41304433167
 20
-167.1774024582055
 30
0.0
 10
102.3682415550353
 20
-167.2221699581947
 30
0.0
 10
102.3131376675522
 20
-167.2221699581947
 30
0.0
 10
102.2579985022922
 20
-167.2221699581947
 30
0.0
 10
102.2132310034343
 20
-167.1774024582055
 30
0.0
 10
102.2132310034343
 20
-167.1222632915531
 30
0.0
  0
SPLINE
  5
A0
330
1F
100
AcDbEntity
  8
_U+30EC_U+30A4_U+30E4_U+30FC 1
 62
   179
420
  2234388
370
     9
100
AcDbSpline
210
0.0
220
0.0
230
1.0
 70
    11
 71
     3
 72
    17
 73
    13
 74
     0
 42
0.0000000001
 43
0.0000000001
 12
1.0
 22
0.0
 32
0.0
 13
1.0
 23
0.0
 33
0.0
 40
0.0
 40
0.0
 40
0.0
 40
0.0
 40
1.0
 40
1.0
 40
1.0
 40
2.0
 40
2.0
 40
2.0
 40
3.0
 40
3.0
 40
3.0
 40
4.0
 40
4.0
 40
4.0
 40
4.0
 10
106.2136603458193
 20
-147.1221269076639
 30
0.0
 10
106.2136603458193
 20
-147.0669877410108
 30
0.0
 10
106.2577575669165
 20
-147.0222202410223
 30
0.0
 10
106.3135670099372
 20
-147.0222202410223
 30
0.0
 10
106.3687061751971
 20
-147.0222202410223
 30
0.0
 10
106.413473674055
 20
-147.0669877410108
 30
0.0
 10
106.413473674055
 20
-147.1221269076639
 30
0.0
 10
106.413473674055
 20
-147.1772307965388
 30
0.0
 10
106.3687061751971
 20
-147.2220335743056
 30
0.0
 10
106.3135670099372
 20
-147.2220335743056
 30
0.0
 10
106.2577575669165
 20
-147.2220335743056
 30
0.0
 10
106.2136603458193
 20
-147.1772307965388
 30
0.0
 10
106.2136603458193
 20
-147.1221269076639
 30
0.0
  0
SPLINE
  5
A1
330
1F
100
AcDbEntity
  8
_U+30EC_U+30A4_U+30E4_U+30FC 1
 62
   179
420
  2234388
370
     9
100
AcDbSpline
210
0.0
220
0.0
230
1.0
 70
    11
 71
     3
 72
    17
 73
    13
 74
     0
 42
0.0000000001
 43
0.0000000001
 12
1.0
 22
0.0
 32
0.0
 13
1.0
 23
0.0
 33
0.0
 40
0.0
 40
0.0
 40
0.0
 40
0.0
 40
1.0
 40
1.0
 40
1.0
 40
2.0
 40
2.0
 40
2.0
 40
3.0
 40
3.0
 40
3.0
 40
4.0
 40
4.0
 40
4.0
 40
4.0
 10
106.2136603458193
 20
-97.12222692016388
 30
0.0
 10
106.2136603458193
 20
-97.06712303128865
 30
0.0
 10
106.2577575669165
 20
-97.02232025352225
 30
0.0
 10
106.3135670099372
 20
-97.02232025352225
 30
0.0
 10
106.3687061751971
 20
-97.02232025352225
 30
0.0
 10
106.413473674055
 20
-97.06712303128865
 30
0.0
 10
106.413473674055
 20
-97.12222692016388
 30
0.0
 10
106.413473674055
 20
-97.17736608681665
 30
0.0
 10
106.3687061751971
 20
-97.22213358680553
 30
0.0
 10
106.3135670099372
 20
-97.22213358680553
 30
0.0
 10
106.2577575669165
 20
-97.22213358680553
 30
0.0
 10
106.2136603458193
 20
-97.17736608681665
 30
0.0
 10
106.2136603458193
 20
-97.12222692016388
 30
0.0
  0
POLYLINE
  5
A2
330
1F
100
AcDbEntity
  8
_U+30EC_U+30A4_U+30E4_U+30FC 1
 62
   179
420
  2234388
370
     9
100
AcDb2dPolyline
 66
     1
 10
0.0
 20
0.0
 30
0.0
  0
VERTEX
  5
A3
330
A2
100
AcDbEntity
  8
_U+30EC_U+30A4_U+30E4_U+30FC 1
 62
   179
420
  2234388
370
     9
100
AcDbVertex
100
AcDb2dVertex
 10
99.51363440564012
 20
-93.12179747671965
 30
0.0
  0
VERTEX
  5
A4
330
A2
100
AcDbEntity
  8
_U+30EC_U+30A4_U+30E4_U+30FC 1
 62
   179
420
  2234388
370
     9
100
AcDbVertex
100
AcDb2dVertex
 10
104.7708698270724
 20
-93.12179747671965
 30
0.0
  0
SEQEND
  5
A5
330
A2
100
AcDbEntity
  8
_U+30EC_U+30A4_U+30E4_U+30FC 1
 62
   179
420
  2234388
370
     9
  0
POLYLINE
  5
A6
330
1F
100
AcDbEntity
  8
_U+30EC_U+30A4_U+30E4_U+30FC 1
 62
   179
420
  2234388
370
     9
100
AcDb2dPolyline
 66
     1
 10
0.0
 20
0.0
 30
0.0
  0
VERTEX
  5
A7
330
A6
100
AcDbEntity
  8
_U+30EC_U+30A4_U+30E4_U+30FC 1
 62
   179
420
  2234388
370
     9
100
AcDbVertex
100
AcDb2dVertex
 10
99.51363440564012
 20
-93.12179747671965
 30
0.0
  0
VERTEX
  5
A8
330
A6
100
AcDbEntity
  8
_U+30EC_U+30A4_U+30E4_U+30FC 1
 62
   179
420
  2234388
370
     9
100
AcDbVertex
100
AcDb2dVertex
 10
97.31360640621196
 20
-93.12179747671965
 30
0.0
  0
SEQEND
  5
A9
330
A6
100
AcDbEntity
  8
_U+30EC_U+30A4_U+30E4_U+30FC 1
 62
   179
420
  2234388
370
     9
  0
POLYLINE
  5
AA
330
1F
100
AcDbEntity
  8
_U+30EC_U+30A4_U+30E4_U+30FC 1
 62
   179
420
  2234388
370
     9
100
AcDb2dPolyline
 66
     1
 10
0.0
 20
0.0
 30
0.0
  0
VERTEX
  5
AB
330
AA
100
AcDbEntity
  8
_U+30EC_U+30A4_U+30E4_U+30FC 1
 62
   179
420
  2234388
370
     9
100
AcDbVertex
100
AcDb2dVertex
 10
99.51363440564012
 20
-94.58183886524336
 30
0.0
  0
VERTEX
  5
AC
330
AA
100
AcDbEntity
  8
_U+30EC_U+30A4_U+30E4_U+30FC 1
 62
   179
420
  2234388
370
     9
100
AcDbVertex
100
AcDb2dVertex
 10
99.51363440564012
 20
-92.12202525474743
 30
0.0
  0
SEQEND
  5
AD
330
AA
100
AcDbEntity
  8
_U+30EC_U+30A4_U+30E4_U+30FC 1
 62
   179
420
  2234388
370
     9
  0
POLYLINE
  5
AE
330
1F
100
AcDbEntity
  8
_U+30EC_U+30A4_U+30E4_U+30FC 1
 62
   179
420
  2234388
370
     9
100
AcDb2dPolyline
 66
     1
 10
0.0
 20
0.0
 30
0.0
  0
VERTEX
  5
AF
330
AE
100
AcDbEntity
  8
_U+30EC_U+30A4_U+30E4_U+30FC 1
 62
   179
420
  2234388
370
     9
100
AcDbVertex
100
AcDb2dVertex
 10
98.31337860292787
 20
-94.58183886524336
 30
0.0
  0
VERTEX
  5
B0
330
AE
100
AcDbEntity
  8
_U+30EC_U+30A4_U+30E4_U+30FC 1
 62
   179
420
  2234388
370
     9
100
AcDbVertex
100
AcDb2dVertex
 10
98.31337860292787
 20
-92.12202525474743
 30
0.0
  0
SEQEND
  5
B1
330
AE
100
AcDbEntity
  8
_U+30EC_U+30A4_U+30E4_U+30FC 1
 62
   179
420
  2234388
370
     9
  0
POLYLINE
  5
B2
330
1F
100
AcDbEntity
  8
_U+30EC_U+30A4_U+30E4_U+30FC 1
 62
   179
420
  2234388
370
     9
100
AcDb2dPolyline
 66
     1
 10
0.0
 20
0.0
 30
0.0
  0
VERTEX
  5
B3
330
B2
100
AcDbEntity
  8
_U+30EC_U+30A4_U+30E4_U+30FC 1
 62
   179
420
  2234388
370
     9
100
AcDbVertex
100
AcDb2dVertex
 10
106.3135670099372
 20
-147.1221269076639
 30
0.0
  0
VERTEX
  5
B4
330
B2
100
AcDbEntity
  8
_U+30EC_U+30A4_U+30E4_U+30FC 1
 62
   179
420
  2234388
370
     9
100
AcDbVertex
100
AcDb2dVertex
 10
106.3135670099372
 20
-97.12222692016388
 30
0.0
  0
SEQEND
  5
B5
330
B2
100
AcDbEntity
  8
_U+30EC_U+30A4_U+30E4_U+30FC 1
 62
   179
420
  2234388
370
     9
  0
POLYLINE
  5
B6
330
1F
100
AcDbEntity
  8
_U+30EC_U+30A4_U+30E4_U+30FC 1
 62
   179
420
  2234388
370
     9
100
AcDb2dPolyline
 66
     1
 10
0.0
 20
0.0
 30
0.0
  0
VERTEX
  5
B7
330
B6
100
AcDbEntity
  8
_U+30EC_U+30A4_U+30E4_U+30FC 1
 62
   179
420
  2234388
370
     9
100
AcDbVertex
100
AcDb2dVertex
 10
102.0533873964012
 20
-147.1221269076639
 30
0.0
  0
VERTEX
  5
B8
330
B6
100
AcDbEntity
  8
_U+30EC_U+30A4_U+30E4_U+30FC 1
 62
   179
420
  2234388
370
     9
100
AcDbVertex
100
AcDb2dVertex
 10
107.3133392066531
 20
-147.1221269076639
 30
0.0
  0
SEQEND
  5
B9
330
B6
100
AcDbEntity
  8
_U+30EC_U+30A4_U+30E4_U+30FC 1
 62
   179
420
  2234388
370
     9
  0
POLYLINE
  5
BA
330
1F
100
AcDbEntity
  8
_U+30EC_U+30A4_U+30E4_U+30FC 1
 62
   179
420
  2234388
370
     9
100
AcDb2dPolyline
 66
     1
 10
0.0
 20
0.0
 30
0.0
  0
VERTEX
  5
BB
330
BA
100
AcDbEntity
  8
_U+30EC_U+30A4_U+30E4_U+30FC 1
 62
   179
420
  2234388
370
     9
100
AcDbVertex
100
AcDb2dVertex
 10
102.0533873964012
 20
-97.12222692016388
 30
0.0
  0
VERTEX
  5
BC
330
BA
100
AcDbEntity
  8
_U+30EC_U+30A4_U+30E4_U+30FC 1
 62
   179
420
  2234388
370
     9
100
AcDbVertex
100
AcDb2dVertex
 10
107.3133392066531
 20
-97.12222692016388
 30
0.0
  0
SEQEND
  5
BD
330
BA
100
AcDbEntity
  8
_U+30EC_U+30A4_U+30E4_U+30FC 1
 62
   179
420
  2234388
370
     9
  0
POLYLINE
  5
BE
330
1F
100
AcDbEntity
  8
_U+30EC_U+30A4_U+30E4_U+30FC 1
 62
   179
420
  2234388
370
     9
100
AcDb2dPolyline
 66
     1
 10
0.0
 20
0.0
 30
0.0
  0
VERTEX
  5
BF
330
BE
100
AcDbEntity
  8
_U+30EC_U+30A4_U+30E4_U+30FC 1
 62
   179
420
  2234388
370
     9
100
AcDbVertex
100
AcDb2dVertex
 10
106.3135670099372
 20
-160.1218469044138
 30
0.0
  0
VERTEX
  5
C0
330
BE
100
AcDbEntity
  8
_U+30EC_U+30A4_U+30E4_U+30FC 1
 62
   179
420
  2234388
370
     9
100
AcDbVertex
100
AcDb2dVertex
 10
106.3135670099372
 20
-147.1221269076639
 30
0.0
  0
SEQEND
  5
C1
330
BE
100
AcDbEntity
  8
_U+30EC_U+30A4_U+30E4_U+30FC 1
 62
   179
420
  2234388
370
     9
  0
POLYLINE
  5
C2
330
1F
100
AcDbEntity
  8
_U+30EC_U+30A4_U+30E4_U+30FC 1
 62
   179
420
  2234388
370
     9
100
AcDb2dPolyline
 66
     1
 10
0.0
 20
0.0
 30
0.0
  0
VERTEX
  5
C3
330
C2
100
AcDbEntity
  8
_U+30EC_U+30A4_U+30E4_U+30FC 1
 62
   179
420
  2234388
370
     9
100
AcDbVertex
100
AcDb2dVertex
 10
104.8535609360739
 20
-160.1218469044138
 30
0.0
  0
VERTEX
  5
C4
330
C2
100
AcDbEntity
  8
_U+30EC_U+30A4_U+30E4_U+30FC 1
 62
   179
420
  2234388
370
     9
100
AcDbVertex
100
AcDb2dVertex
 10
107.3133392066531
 20
-160.1218469044138
 30
0.0
  0
SEQEND
  5
C5
330
C2
100
AcDbEntity
  8
_U+30EC_U+30A4_U+30E4_U+30FC 1
 62
   179
420
  2234388
370
     9
  0
POLYLINE
  5
C6
330
1F
100
AcDbEntity
  8
_U+30EC_U+30A4_U+30E4_U+30FC 1
 62
   179
420
  2234388
370
     9
100
AcDb2dPolyline
 66
     1
 10
0.0
 20
0.0
 30
0.0
  0
VERTEX
  5
C7
330
C6
100
AcDbEntity
  8
_U+30EC_U+30A4_U+30E4_U+30FC 1
 62
   179
420
  2234388
370
     9
100
AcDbVertex
100
AcDb2dVertex
 10
106.3135670099372
 20
-160.1218469044138
 30
0.0
  0
VERTEX
  5
C8
330
C6
100
AcDbEntity
  8
_U+30EC_U+30A4_U+30E4_U+30FC 1
 62
   179
420
  2234388
370
     9
100
AcDbVertex
100
AcDb2dVertex
 10
106.3135670099372
 20
-163.1218338481082
 30
0.0
  0
SEQEND
  5
C9
330
C6
100
AcDbEntity
  8
_U+30EC_U+30A4_U+30E4_U+30FC 1
 62
   179
420
  2234388
370
     9
  0
POLYLINE
  5
CA
330
1F
100
AcDbEntity
  8
_U+30EC_U+30A4_U+30E4_U+30FC 1
 62
   179
420
  2234388
370
     9
100
AcDb2dPolyline
 66
     1
 10
0.0
 20
0.0
 30
0.0
  0
VERTEX
  5
CB
330
CA
100
AcDbEntity
  8
_U+30EC_U+30A4_U+30E4_U+30FC 1
 62
   179
420
  2234388
370
     9
100
AcDbVertex
100
AcDb2dVertex
 10
104.8535609360739
 20
-163.1218338481082
 30
0.0
  0
VERTEX
  5
CC
330
CA
100
AcDbEntity
  8
_U+30EC_U+30A4_U+30E4_U+30FC 1
 62
   179
420
  2234388
370
     9
100
AcDbVertex
100
AcDb2dVertex
 10
107.3133392066531
 20
-163.1218338481082
 30
0.0
  0
SEQEND
  5
CD
330
CA
100
AcDbEntity
  8
_U+30EC_U+30A4_U+30E4_U+30FC 1
 62
   179
420
  2234388
370
     9
  0
POLYLINE
  5
CE
330
1F
100
AcDbEntity
  8
_U+30EC_U+30A4_U+30E4_U+30FC 1
 62
   179
420
  2234388
370
     9
100
AcDb2dPolyline
 66
     1
 10
0.0
 20
0.0
 30
0.0
  0
VERTEX
  5
CF
330
CE
100
AcDbEntity
  8
_U+30EC_U+30A4_U+30E4_U+30FC 1
 62
   179
420
  2234388
370
     9
100
AcDbVertex
100
AcDb2dVertex
 10
78.31320744650807
 20
-138.1221307988027
 30
0.0
  0
VERTEX
  5
D0
330
CE
100
AcDbEntity
  8
_U+30EC_U+30A4_U+30E4_U+30FC 1
 62
   179
420
  2234388
370
     9
100
AcDbVertex
100
AcDb2dVertex
 10
78.31320744650807
 20
-163.1218338481082
 30
0.0
  0
SEQEND
  5
D1
330
CE
100
AcDbEntity
  8
_U+30EC_U+30A4_U+30E4_U+30FC 1
 62
   179
420
  2234388
370
     9
  0
POLYLINE
  5
D2
330
1F
100
AcDbEntity
  8
_U+30EC_U+30A4_U+30E4_U+30FC 1
 62
   179
420
  2234388
370
     9
100
AcDb2dPolyline
 66
     1
 10
0.0
 20
0.0
 30
0.0
  0
VERTEX
  5
D3
330
D2
100
AcDbEntity
  8
_U+30EC_U+30A4_U+30E4_U+30FC 1
 62
   179
420
  2234388
370
     9
100
AcDbVertex
100
AcDb2dVertex
 10
79.7732487981482
 20
-138.1221307988027
 30
0.0
  0
VERTEX
  5
D4
330
D2
100
AcDbEntity
  8
_U+30EC_U+30A4_U+30E4_U+30FC 1
 62
   179
420
  2234388
370
     9
100
AcDbVertex
100
AcDb2dVertex
 10
77.31347052756904
 20
-138.1221307988027
 30
0.0
  0
SEQEND
  5
D5
330
D2
100
AcDbEntity
  8
_U+30EC_U+30A4_U+30E4_U+30FC 1
 62
   179
420
  2234388
370
     9
  0
POLYLINE
  5
D6
330
1F
100
AcDbEntity
  8
_U+30EC_U+30A4_U+30E4_U+30FC 1
 62
   179
420
  2234388
370
     9
100
AcDb2dPolyline
 66
     1
 10
0.0
 20
0.0
 30
0.0
  0
VERTEX
  5
D7
330
D6
100
AcDbEntity
  8
_U+30EC_U+30A4_U+30E4_U+30FC 1
 62
   179
420
  2234388
370
     9
100
AcDbVertex
100
AcDb2dVertex
 10
79.7732487981482
 20
-163.1218338481082
 30
0.0
  0
VERTEX
  5
D8
330
D6
100
AcDbEntity
  8
_U+30EC_U+30A4_U+30E4_U+30FC 1
 62
   179
420
  2234388
370
     9
100
AcDbVertex
100
AcDb2dVertex
 10
77.31347052756904
 20
-163.1218338481082
 30
0.0
  0
SEQEND
  5
D9
330
D6
100
AcDbEntity
  8
_U+30EC_U+30A4_U+30E4_U+30FC 1
 62
   179
420
  2234388
370
     9
  0
POLYLINE
  5
DA
330
1F
100
AcDbEntity
  8
_U+30EC_U+30A4_U+30E4_U+30FC 1
 62
   179
420
  2234388
370
     9
100
AcDb2dPolyline
 66
     1
 10
0.0
 20
0.0
 30
0.0
  0
VERTEX
  5
DB
330
DA
100
AcDbEntity
  8
_U+30EC_U+30A4_U+30E4_U+30FC 1
 62
   179
420
  2234388
370
     9
100
AcDbVertex
100
AcDb2dVertex
 10
85.31366108978264
 20
-134.1217013553585
 30
0.0
  0
VERTEX
  5
DC
330
DA
100
AcDbEntity
  8
_U+30EC_U+30A4_U+30E4_U+30FC 1
 62
   179
420
  2234388
370
     9
100
AcDbVertex
100
AcDb2dVertex
 10
82.31296651113239
 20
-134.1217013553585
 30
0.0
  0
SEQEND
  5
DD
330
DA
100
AcDbEntity
  8
_U+30EC_U+30A4_U+30E4_U+30FC 1
 62
   179
420
  2234388
370
     9
  0
POLYLINE
  5
DE
330
1F
100
AcDbEntity
  8
_U+30EC_U+30A4_U+30E4_U+30FC 1
 62
   179
420
  2234388
370
     9
100
AcDb2dPolyline
 66
     1
 10
0.0
 20
0.0
 30
0.0
  0
VERTEX
  5
DF
330
DE
100
AcDbEntity
  8
_U+30EC_U+30A4_U+30E4_U+30FC 1
 62
   179
420
  2234388
370
     9
100
AcDbVertex
100
AcDb2dVertex
 10
85.31366108978264
 20
-135.5817427438822
 30
0.0
  0
VERTEX
  5
E0
330
DE
100
AcDbEntity
  8
_U+30EC_U+30A4_U+30E4_U+30FC 1
 62
   179
420
  2234388
370
     9
100
AcDbVertex
100
AcDb2dVertex
 10
85.31366108978264
 20
-133.1219291333859
 30
0.0
  0
SEQEND
  5
E1
330
DE
100
AcDbEntity
  8
_U+30EC_U+30A4_U+30E4_U+30FC 1
 62
   179
420
  2234388
370
     9
  0
POLYLINE
  5
E2
330
1F
100
AcDbEntity
  8
_U+30EC_U+30A4_U+30E4_U+30FC 1
 62
   179
420
  2234388
370
     9
100
AcDb2dPolyline
 66
     1
 10
0.0
 20
0.0
 30
0.0
  0
VERTEX
  5
E3
330
E2
100
AcDbEntity
  8
_U+30EC_U+30A4_U+30E4_U+30FC 1
 62
   179
420
  2234388
370
     9
100
AcDbVertex
100
AcDb2dVertex
 10
82.31296651113239
 20
-135.5817427438822
 30
0.0
  0
VERTEX
  5
E4
330
E2
100
AcDbEntity
  8
_U+30EC_U+30A4_U+30E4_U+30FC 1
 62
   179
420
  2234388
370
     9
100
AcDbVertex
100
AcDb2dVertex
 10
82.31296651113239
 20
-133.1219291333859
 30
0.0
  0
SEQEND
  5
E5
330
E2
100
AcDbEntity
  8
_U+30EC_U+30A4_U+30E4_U+30FC 1
 62
   179
420
  2234388
370
     9
  0
POLYLINE
  5
E6
330
1F
100
AcDbEntity
  8
_U+30EC_U+30A4_U+30E4_U+30FC 1
 62
   179
420
  2234388
370
     9
100
AcDb2dPolyline
 66
     1
 10
0.0
 20
0.0
 30
0.0
  0
VERTEX
  5
E7
330
E6
100
AcDbEntity
  8
_U+30EC_U+30A4_U+30E4_U+30FC 1
 62
   179
420
  2234388
370
     9
100
AcDbVertex
100
AcDb2dVertex
 10
85.31366108978264
 20
-134.1217013553585
 30
0.0
  0
VERTEX
  5
E8
330
E6
100
AcDbEntity
  8
_U+30EC_U+30A4_U+30E4_U+30FC 1
 62
   179
420
  2234388
370
     9
100
AcDbVertex
100
AcDb2dVertex
 10
98.31337860292787
 20
-134.1217013553585
 30
0.0
  0
SEQEND
  5
E9
330
E6
100
AcDbEntity
  8
_U+30EC_U+30A4_U+30E4_U+30FC 1
 62
   179
420
  2234388
370
     9
  0
POLYLINE
  5
EA
330
1F
100
AcDbEntity
  8
_U+30EC_U+30A4_U+30E4_U+30FC 1
 62
   179
420
  2234388
370
     9
100
AcDb2dPolyline
 66
     1
 10
0.0
 20
0.0
 30
0.0
  0
VERTEX
  5
EB
330
EA
100
AcDbEntity
  8
_U+30EC_U+30A4_U+30E4_U+30FC 1
 62
   179
420
  2234388
370
     9
100
AcDbVertex
100
AcDb2dVertex
 10
102.3131376675522
 20
-167.1222632915531
 30
0.0
  0
VERTEX
  5
EC
330
EA
100
AcDbEntity
  8
_U+30EC_U+30A4_U+30E4_U+30FC 1
 62
   179
420
  2234388
370
     9
100
AcDbVertex
100
AcDb2dVertex
 10
82.31296651113239
 20
-167.1222632915531
 30
0.0
  0
SEQEND
  5
ED
330
EA
100
AcDbEntity
  8
_U+30EC_U+30A4_U+30E4_U+30FC 1
 62
   179
420
  2234388
370
     9
  0
POLYLINE
  5
EE
330
1F
100
AcDbEntity
  8
_U+30EC_U+30A4_U+30E4_U+30FC 1
 62
   179
420
  2234388
370
     9
100
AcDb2dPolyline
 66
     1
 10
0.0
 20
0.0
 30
0.0
  0
VERTEX
  5
EF
330
EE
100
AcDbEntity
  8
_U+30EC_U+30A4_U+30E4_U+30FC 1
 62
   179
420
  2234388
370
     9
100
AcDbVertex
100
AcDb2dVertex
 10
102.3131376675522
 20
-165.6622571808069
 30
0.0
  0
VERTEX
  5
F0
330
EE
100
AcDbEntity
  8
_U+30EC_U+30A4_U+30E4_U+30FC 1
 62
   179
420
  2234388
370
     9
100
AcDbVertex
100
AcDb2dVertex
 10
102.3131376675522
 20
-168.122035513525
 30
0.0
  0
SEQEND
  5
F1
330
EE
100
AcDbEntity
  8
_U+30EC_U+30A4_U+30E4_U+30FC 1
 62
   179
420
  2234388
370
     9
  0
POLYLINE
  5
F2
330
1F
100
AcDbEntity
  8
_U+30EC_U+30A4_U+30E4_U+30FC 1
 62
   179
420
  2234388
370
     9
100
AcDb2dPolyline
 66
     1
 10
0.0
 20
0.0
 30
0.0
  0
VERTEX
  5
F3
330
F2
100
AcDbEntity
  8
_U+30EC_U+30A4_U+30E4_U+30FC 1
 62
   179
420
  2234388
370
     9
100
AcDbVertex
100
AcDb2dVertex
 10
82.31296651113239
 20
-165.6622571808069
 30
0.0
  0
VERTEX
  5
F4
330
F2
100
AcDbEntity
  8
_U+30EC_U+30A4_U+30E4_U+30FC 1
 62
   179
420
  2234388
370
     9
100
AcDbVertex
100
AcDb2dVertex
 10
82.31296651113239
 20
-168.122035513525
 30
0.0
  0
SEQEND
  5
F5
330
F2
100
AcDbEntity
  8
_U+30EC_U+30A4_U+30E4_U+30FC 1
 62
   179
420
  2234388
370
     9
  0
INSERT
  5
F7
330
1F
100
AcDbEntity
  8
_U+30EC_U+30A4_U+30E4_U+30FC 1
100
AcDbBlockReference
  2
block 2
 10
0.0
 20
0.0
 30
0.0
  0
INSERT
  5
107
330
1F
100
AcDbEntity
  8
_U+30EC_U+30A4_U+30E4_U+30FC 1
100
AcDbBlockReference
  2
block 3
 10
0.0
 20
0.0
 30
0.0
  0
INSERT
  5
110
330
1F
100
AcDbEntity
  8
_U+30EC_U+30A4_U+30E4_U+30FC 1
100
AcDbBlockReference
  2
block 4
 10
0.0
 20
0.0
 30
0.0
  0
INSERT
  5
118
330
1F
100
AcDbEntity
  8
_U+30EC_U+30A4_U+30E4_U+30FC 1
100
AcDbBlockReference
  2
block 5
 10
0.0
 20
0.0
 30
0.0
  0
INSERT
  5
11E
330
1F
100
AcDbEntity
  8
_U+30EC_U+30A4_U+30E4_U+30FC 1
100
AcDbBlockReference
  2
block 6
 10
0.0
 20
0.0
 30
0.0
  0
INSERT
  5
126
330
1F
100
AcDbEntity
  8
_U+30EC_U+30A4_U+30E4_U+30FC 1
100
AcDbBlockReference
  2
block 7
 10
0.0
 20
0.0
 30
0.0
  0
INSERT
  5
12C
330
1F
100
AcDbEntity
  8
_U+30EC_U+30A4_U+30E4_U+30FC 1
100
AcDbBlockReference
  2
block 8
 10
0.0
 20
0.0
 30
0.0
  0
INSERT
  5
134
330
1F
100
AcDbEntity
  8
_U+30EC_U+30A4_U+30E4_U+30FC 1
100
AcDbBlockReference
  2
block 9
 10
0.0
 20
0.0
 30
0.0
  0
ENDSEC
  0
SECTION
  2
OBJECTS
  0
DICTIONARY
  5
C
330
0
100
AcDbDictionary
281
     1
  3
ACAD_GROUP
350
D
  3
ACAD_LAYOUT
350
1A
  3
ACAD_MATERIAL
350
3B
  3
ACAD_MLEADERSTYLE
350
13D
  3
ACAD_MLINESTYLE
350
17
  3
ACAD_PLOTSETTINGS
350
19
  3
ACAD_PLOTSTYLENAME
350
E
  3
ACAD_TABLESTYLE
350
13C
  3
ACAD_VISUALSTYLE
350
2A
  0
SUN
  5
3F
330
29
100
AcDbSun
 90
        1
290
     0
 63
     7
421
 16777215
 40
1.0
291
     1
 91
  2455826
 92
 54000000
292
     0
 70
     2
 71
   256
280
     1
  0
DICTIONARY
  5
D
102
{ACAD_REACTORS
330
C
102
}
330
C
100
AcDbDictionary
281
     1
  0
DICTIONARY
  5
1A
102
{ACAD_REACTORS
330
C
102
}
330
C
100
AcDbDictionary
281
     1
  3
Layout1
350
1E
  3
Layout2
350
26
  3
Model
350
22
  0
DICTIONARY
  5
3B
102
{ACAD_REACTORS
330
C
102
}
330
C
100
AcDbDictionary
281
     1
  3
ByBlock
350
3D
  3
ByLayer
350
3C
  3
Global
350
3E
  0
DICTIONARY
  5
13D
102
{ACAD_REACTORS
330
C
102
}
330
C
100
AcDbDictionary
281
     1
  0
DICTIONARY
  5
17
102
{ACAD_REACTORS
330
C
102
}
330
C
100
AcDbDictionary
281
     1
  3
Standard
350
18
  0
DICTIONARY
  5
19
102
{ACAD_REACTORS
330
C
102
}
330
C
100
AcDbDictionary
281
     1
  0
ACDBDICTIONARYWDFLT
  5
E
102
{ACAD_REACTORS
330
C
102
}
330
C
100
AcDbDictionary
281
     1
  3
Normal
350
F
100
AcDbDictionaryWithDefault
340
F
  0
DICTIONARY
  5
13C
102
{ACAD_REACTORS
330
C
102
}
330
C
100
AcDbDictionary
281
     1
  0
DICTIONARY
  5
2A
102
{ACAD_REACTORS
330
C
102
}
330
C
100
AcDbDictionary
281
     1
  3
2dWireframe
350
2F
  3
3D Hidden
350
31
  3
3dWireframe
350
30
  3
Basic
350
32
  3
Brighten
350
36
  3
ColorChange
350
3A
  3
Conceptual
350
34
  3
Dim
350
35
  3
Facepattern
350
39
  3
Flat
350
2B
  3
FlatWithEdges
350
2C
  3
Gouraud
350
2D
  3
GouraudWithEdges
350
2E
  3
Linepattern
350
38
  3
Realistic
350
33
  3
Thicken
350
37
  0
LAYOUT
  5
1E
102
{ACAD_REACTORS
330
1A
102
}
330
1A
100
AcDbPlotSettings
  1

  2
none_device
  4

  6

 40
0.0
 41
0.0
 42
0.0
 43
0.0
 44
0.0
 45
0.0
 46
0.0
 47
0.0
 48
0.0
 49
0.0
140
0.0
141
0.0
142
1.0
143
1.0
 70
   688
 72
     0
 73
     0
 74
     5
  7

 75
    16
 76
     0
 77
     2
 78
   300
147
1.0
148
0.0
149
0.0
100
AcDbLayout
  1
Layout1
 70
     1
 71
     1
 10
0.0
 20
0.0
 11
12.0
 21
9.0
 12
0.0
 22
0.0
 32
0.0
 14
1.000000000000000E+20
 24
1.000000000000000E+20
 34
1.000000000000000E+20
 15
-1.000000000000000E+20
 25
-1.000000000000000E+20
 35
-1.000000000000000E+20
146
0.0
 13
0.0
 23
0.0
 33
0.0
 16
1.0
 26
0.0
 36
0.0
 17
0.0
 27
1.0
 37
0.0
 76
     0
330
1B
  0
LAYOUT
  5
26
102
{ACAD_REACTORS
330
1A
102
}
330
1A
100
AcDbPlotSettings
  1

  2
none_device
  4

  6

 40
0.0
 41
0.0
 42
0.0
 43
0.0
 44
0.0
 45
0.0
 46
0.0
 47
0.0
 48
0.0
 49
0.0
140
0.0
141
0.0
142
1.0
143
1.0
 70
   688
 72
     0
 73
     0
 74
     5
  7

 75
    16
 76
     0
 77
     2
 78
   300
147
1.0
148
0.0
149
0.0
100
AcDbLayout
  1
Layout2
 70
     1
 71
     2
 10
0.0
 20
0.0
 11
0.0
 21
0.0
 12
0.0
 22
0.0
 32
0.0
 14
0.0
 24
0.0
 34
0.0
 15
0.0
 25
0.0
 35
0.0
146
0.0
 13
0.0
 23
0.0
 33
0.0
 16
1.0
 26
0.0
 36
0.0
 17
0.0
 27
1.0
 37
0.0
 76
     0
330
23
  0
LAYOUT
  5
22
102
{ACAD_REACTORS
330
1A
102
}
330
1A
100
AcDbPlotSettings
  1

  2
none_device
  4

  6

 40
0.0
 41
0.0
 42
0.0
 43
0.0
 44
0.0
 45
0.0
 46
0.0
 47
0.0
 48
0.0
 49
0.0
140
0.0
141
0.0
142
1.0
143
1.0
 70
  1712
 72
     0
 73
     0
 74
     0
  7

 75
     0
 76
     0
 77
     2
 78
   300
147
1.0
148
0.0
149
0.0
100
AcDbLayout
  1
Model
 70
     1
 71
     0
 10
0.0
 20
0.0
 11
12.0
 21
9.0
 12
0.0
 22
0.0
 32
0.0
 14
1.000000000000000E+20
 24
1.000000000000000E+20
 34
1.000000000000000E+20
 15
-1.000000000000000E+20
 25
-1.000000000000000E+20
 35
-1.000000000000000E+20
146
0.0
 13
0.0
 23
0.0
 33
0.0
 16
1.0
 26
0.0
 36
0.0
 17
0.0
 27
1.0
 37
0.0
 76
     0
330
1F
331
29
  0
MATERIAL
  5
3D
102
{ACAD_REACTORS
330
3B
102
}
330
3B
100
AcDbMaterial
  1
ByBlock
 72
     1
 94
      127
  0
MATERIAL
  5
3C
102
{ACAD_REACTORS
330
3B
102
}
330
3B
100
AcDbMaterial
  1
ByLayer
 72
     1
 94
      127
  0
MATERIAL
  5
3E
102
{ACAD_REACTORS
330
3B
102
}
330
3B
100
AcDbMaterial
  1
Global
 72
     1
 94
      127
  0
MLINESTYLE
  5
18
102
{ACAD_REACTORS
330
17
102
}
330
17
100
AcDbMlineStyle
  2
Standard
 70
     0
  3

 62
   256
 51
90.0
 52
90.0
 71
     2
 49
0.5
 62
   256
  6
BYLAYER
 49
-0.5
 62
   256
  6
BYLAYER
  0
ACDBPLACEHOLDER
  5
F
102
{ACAD_REACTORS
330
E
102
}
330
E
  0
VISUALSTYLE
  5
2F
102
{ACAD_REACTORS
330
2A
102
}
330
2A
100
AcDbVisualStyle
  2
2dWireframe
 70
     4
177
     2
291
     0
 71
     0
176
     1
 72
     2
176
     1
 73
     0
176
     1
 90
        0
176
     1
 40
-0.6
176
     1
 41
-30.0
176
     1
 62
     5
 63
     7
421
 16777215
176
     1
 74
     1
176
     1
 91
        4
176
     1
 64
     7
176
     1
 65
   257
176
     1
 75
     1
176
     1
175
     1
176
     1
 42
1.0
176
     1
 92
        0
176
     1
 66
   257
176
     1
 43
1.0
176
     1
 76
     1
176
     1
 77
     6
176
     1
 78
     2
176
     1
 67
     7
176
     1
 79
     5
176
     1
170
     0
176
     1
171
     0
176
     1
290
     0
176
     1
 93
        1
176
     1
 44
0.0
176
     1
173
     0
176
     1
  0
VISUALSTYLE
  5
31
102
{ACAD_REACTORS
330
2A
102
}
330
2A
100
AcDbVisualStyle
  2
3D Hidden
 70
     6
177
     2
291
     0
 71
     1
176
     1
 72
     2
176
     1
 73
     2
176
     1
 90
        0
176
     1
 40
-0.6
176
     1
 41
-30.0
176
     1
 62
     5
 63
     7
421
 16777215
176
     1
 74
     2
176
     1
 91
        2
176
     1
 64
     7
176
     1
 65
   257
176
     1
 75
     2
176
     1
175
     1
176
     1
 42
40.0
176
     1
 92
        0
176
     1
 66
   257
176
     1
 43
1.0
176
     1
 76
     1
176
     1
 77
     6
176
     1
 78
     2
176
     1
 67
     7
176
     1
 79
     3
176
     1
170
     0
176
     1
171
     0
176
     1
290
     0
176
     1
 93
        1
176
     1
 44
0.0
176
     1
173
     0
176
     1
  0
VISUALSTYLE
  5
30
102
{ACAD_REACTORS
330
2A
102
}
330
2A
100
AcDbVisualStyle
  2
3dWireframe
 70
     5
177
     2
291
     0
 71
     0
176
     1
 72
     2
176
     1
 73
     0
176
     1
 90
        0
176
     1
 40
-0.6
176
     1
 41
-30.0
176
     1
 62
     5
 63
     7
421
 16777215
176
     1
 74
     1
176
     1
 91
        4
176
     1
 64
     7
176
     1
 65
   257
176
     1
 75
     1
176
     1
175
     1
176
     1
 42
1.0
176
     1
 92
        0
176
     1
 66
   257
176
     1
 43
1.0
176
     1
 76
     1
176
     1
 77
     6
176
     1
 78
     2
176
     1
 67
     7
176
     1
 79
     5
176
     1
170
     0
176
     1
171
     0
176
     1
290
     0
176
     1
 93
        1
176
     1
 44
0.0
176
     1
173
     0
176
     1
  0
VISUALSTYLE
  5
32
102
{ACAD_REACTORS
330
2A
102
}
330
2A
100
AcDbVisualStyle
  2
Basic
 70
     7
177
     2
291
     1
 71
     1
176
     1
 72
     0
176
     1
 73
     1
176
     1
 90
        0
176
     1
 40
-0.6
176
     1
 41
-30.0
176
     1
 62
     5
 63
     7
421
 16777215
176
     1
 74
     0
176
     1
 91
        4
176
     1
 64
     7
176
     1
 65
   257
176
     1
 75
     1
176
     1
175
     1
176
     1
 42
1.0
176
     1
 92
        8
176
     1
 66
     7
176
     1
 43
1.0
176
     1
 76
     1
176
     1
 77
     6
176
     1
 78
     2
176
     1
 67
     7
176
     1
 79
     5
176
     1
170
     0
176
     1
171
     0
176
     1
290
     0
176
     1
 93
        1
176
     1
 44
0.0
176
     1
173
     0
176
     1
  0
VISUALSTYLE
  5
36
102
{ACAD_REACTORS
330
2A
102
}
330
2A
100
AcDbVisualStyle
  2
Brighten
 70
    12
177
     2
291
     1
 71
     2
176
     1
 72
     2
176
     1
 73
     0
176
     1
 90
        0
176
     1
 40
-0.6
176
     1
 41
-30.0
176
     1
 62
     5
 63
     7
421
 16777215
176
     1
 74
     1
176
     1
 91
        4
176
     1
 64
     7
176
     1
 65
   257
176
     1
 75
     1
176
     1
175
     1
176
     1
 42
1.0
176
     1
 92
        8
176
     1
 66
     7
176
     1
 43
1.0
176
     1
 76
     1
176
     1
 77
     6
176
     1
 78
     2
176
     1
 67
     7
176
     1
 79
     5
176
     1
170
     0
176
     1
171
     0
176
     1
290
     0
176
     1
 93
        1
176
     1
 44
50.0
176
     1
173
     0
176
     1
  0
VISUALSTYLE
  5
3A
102
{ACAD_REACTORS
330
2A
102
}
330
2A
100
AcDbVisualStyle
  2
ColorChange
 70
    16
177
     2
291
     1
 71
     2
176
     1
 72
     2
176
     1
 73
     3
176
     1
 90
        0
176
     1
 40
-0.6
176
     1
 41
-30.0
176
     1
 62
     5
 63
     8
421
  8421504
176
     1
 74
     1
176
     1
 91
        4
176
     1
 64
     7
176
     1
 65
   257
176
     1
 75
     1
176
     1
175
     1
176
     1
 42
1.0
176
     1
 92
        8
176
     1
 66
     8
424
  8421504
176
     1
 43
1.0
176
     1
 76
     1
176
     1
 77
     6
176
     1
 78
     2
176
     1
 67
     7
176
     1
 79
     5
176
     1
170
     0
176
     1
171
     0
176
     1
290
     0
176
     1
 93
        1
176
     1
 44
0.0
176
     1
173
     0
176
     1
  0
VISUALSTYLE
  5
34
102
{ACAD_REACTORS
330
2A
102
}
330
2A
100
AcDbVisualStyle
  2
Conceptual
 70
     9
177
     2
291
     0
 71
     3
176
     1
 72
     2
176
     1
 73
     0
176
     1
 90
        0
176
     1
 40
-0.6
176
     1
 41
-30.0
176
     1
 62
     5
 63
     7
421
 16777215
176
     1
 74
     2
176
     1
 91
        2
176
     1
 64
     7
176
     1
 65
   257
176
     1
 75
     1
176
     1
175
     1
176
     1
 42
40.0
176
     1
 92
        8
176
     1
 66
     7
176
     1
 43
1.0
176
     1
 76
     1
176
     1
 77
     6
176
     1
 78
     2
176
     1
 67
     7
176
     1
 79
     3
176
     1
170
     0
176
     1
171
     0
176
     1
290
     0
176
     1
 93
        1
176
     1
 44
0.0
176
     1
173
     0
176
     1
  0
VISUALSTYLE
  5
35
102
{ACAD_REACTORS
330
2A
102
}
330
2A
100
AcDbVisualStyle
  2
Dim
 70
    11
177
     2
291
     1
 71
     2
176
     1
 72
     2
176
     1
 73
     0
176
     1
 90
        0
176
     1
 40
-0.6
176
     1
 41
-30.0
176
     1
 62
     5
 63
     7
421
 16777215
176
     1
 74
     1
176
     1
 91
        4
176
     1
 64
     7
176
     1
 65
   257
176
     1
 75
     1
176
     1
175
     1
176
     1
 42
1.0
176
     1
 92
        8
176
     1
 66
     7
176
     1
 43
1.0
176
     1
 76
     1
176
     1
 77
     6
176
     1
 78
     2
176
     1
 67
     7
176
     1
 79
     5
176
     1
170
     0
176
     1
171
     0
176
     1
290
     0
176
     1
 93
        1
176
     1
 44
-50.0
176
     1
173
     0
176
     1
  0
VISUALSTYLE
  5
39
102
{ACAD_REACTORS
330
2A
102
}
330
2A
100
AcDbVisualStyle
  2
Facepattern
 70
    15
177
     2
291
     1
 71
     2
176
     1
 72
     2
176
     1
 73
     0
176
     1
 90
        0
176
     1
 40
-0.6
176
     1
 41
-30.0
176
     1
 62
     5
 63
     7
421
 16777215
176
     1
 74
     1
176
     1
 91
        4
176
     1
 64
     7
176
     1
 65
   257
176
     1
 75
     1
176
     1
175
     1
176
     1
 42
1.0
176
     1
 92
        8
176
     1
 66
     7
176
     1
 43
1.0
176
     1
 76
     1
176
     1
 77
     6
176
     1
 78
     2
176
     1
 67
     7
176
     1
 79
     5
176
     1
170
     0
176
     1
171
     0
176
     1
290
     0
176
     1
 93
        1
176
     1
 44
0.0
176
     1
173
     0
176
     1
  0
VISUALSTYLE
  5
2B
102
{ACAD_REACTORS
330
2A
102
}
330
2A
100
AcDbVisualStyle
  2
Flat
 70
     0
177
     2
291
     1
 71
     2
176
     1
 72
     1
176
     1
 73
     1
176
     1
 90
        2
176
     1
 40
-0.6
176
     1
 41
30.0
176
     1
 62
     5
 63
     7
421
 16777215
176
     1
 74
     0
176
     1
 91
        4
176
     1
 64
     7
176
     1
 65
   257
176
     1
 75
     1
176
     1
175
     1
176
     1
 42
1.0
176
     1
 92
        8
176
     1
 66
     7
176
     1
 43
1.0
176
     1
 76
     1
176
     1
 77
     6
176
     1
 78
     2
176
     1
 67
     7
176
     1
 79
     5
176
     1
170
     0
176
     1
171
     0
176
     1
290
     0
176
     1
 93
       13
176
     1
 44
0.0
176
     1
173
     0
176
     1
  0
VISUALSTYLE
  5
2C
102
{ACAD_REACTORS
330
2A
102
}
330
2A
100
AcDbVisualStyle
  2
FlatWithEdges
 70
     1
177
     2
291
     1
 71
     2
176
     1
 72
     1
176
     1
 73
     1
176
     1
 90
        2
176
     1
 40
-0.6
176
     1
 41
30.0
176
     1
 62
     5
 63
     7
421
 16777215
176
     1
 74
     1
176
     1
 91
        4
176
     1
 64
     7
176
     1
 65
   257
176
     1
 75
     1
176
     1
175
     1
176
     1
 42
1.0
176
     1
 92
        0
176
     1
 66
   257
176
     1
 43
1.0
176
     1
 76
     1
176
     1
 77
     6
176
     1
 78
     2
176
     1
 67
     7
176
     1
 79
     5
176
     1
170
     0
176
     1
171
     0
176
     1
290
     0
176
     1
 93
       13
176
     1
 44
0.0
176
     1
173
     0
176
     1
  0
VISUALSTYLE
  5
2D
102
{ACAD_REACTORS
330
2A
102
}
330
2A
100
AcDbVisualStyle
  2
Gouraud
 70
     2
177
     2
291
     1
 71
     2
176
     1
 72
     2
176
     1
 73
     1
176
     1
 90
        2
176
     1
 40
-0.6
176
     1
 41
30.0
176
     1
 62
     5
 63
     7
421
 16777215
176
     1
 74
     0
176
     1
 91
        4
176
     1
 64
     7
176
     1
 65
   257
176
     1
 75
     1
176
     1
175
     1
176
     1
 42
1.0
176
     1
 92
        0
176
     1
 66
     7
176
     1
 43
1.0
176
     1
 76
     1
176
     1
 77
     6
176
     1
 78
     2
176
     1
 67
     7
176
     1
 79
     5
176
     1
170
     0
176
     1
171
     0
176
     1
290
     0
176
     1
 93
       13
176
     1
 44
0.0
176
     1
173
     0
176
     1
  0
VISUALSTYLE
  5
2E
102
{ACAD_REACTORS
330
2A
102
}
330
2A
100
AcDbVisualStyle
  2
GouraudWithEdges
 70
     3
177
     2
291
     1
 71
     2
176
     1
 72
     2
176
     1
 73
     1
176
     1
 90
        2
176
     1
 40
-0.6
176
     1
 41
30.0
176
     1
 62
     5
 63
     7
421
 16777215
176
     1
 74
     1
176
     1
 91
        4
176
     1
 64
     7
176
     1
 65
   257
176
     1
 75
     1
176
     1
175
     1
176
     1
 42
1.0
176
     1
 92
        0
176
     1
 66
   257
176
     1
 43
1.0
176
     1
 76
     1
176
     1
 77
     6
176
     1
 78
     2
176
     1
 67
     7
176
     1
 79
     5
176
     1
170
     0
176
     1
171
     0
176
     1
290
     0
176
     1
 93
       13
176
     1
 44
0.0
176
     1
173
     0
176
     1
  0
VISUALSTYLE
  5
38
102
{ACAD_REACTORS
330
2A
102
}
330
2A
100
AcDbVisualStyle
  2
Linepattern
 70
    14
177
     2
291
     1
 71
     2
176
     1
 72
     2
176
     1
 73
     0
176
     1
 90
        0
176
     1
 40
-0.6
176
     1
 41
-30.0
176
     1
 62
     5
 63
     7
421
 16777215
176
     1
 74
     1
176
     1
 91
        4
176
     1
 64
     7
176
     1
 65
   257
176
     1
 75
     7
176
     1
175
     7
176
     1
 42
1.0
176
     1
 92
        8
176
     1
 66
     7
176
     1
 43
1.0
176
     1
 76
     1
176
     1
 77
     6
176
     1
 78
     2
176
     1
 67
     7
176
     1
 79
     5
176
     1
170
     0
176
     1
171
     0
176
     1
290
     0
176
     1
 93
        1
176
     1
 44
0.0
176
     1
173
     0
176
     1
  0
VISUALSTYLE
  5
33
102
{ACAD_REACTORS
330
2A
102
}
330
2A
100
AcDbVisualStyle
  2
Realistic
 70
     8
177
     2
291
     0
 71
     2
176
     1
 72
     2
176
     1
 73
     0
176
     1
 90
        0
176
     1
 40
-0.6
176
     1
 41
-30.0
176
     1
 62
     5
 63
     7
421
 16777215
176
     1
 74
     1
176
     1
 91
        0
176
     1
 64
     7
176
     1
 65
   257
176
     1
 75
     1
176
     1
175
     1
176
     1
 42
1.0
176
     1
 92
        8
176
     1
 66
     8
424
  7895160
176
     1
 43
1.0
176
     1
 76
     1
176
     1
 77
     6
176
     1
 78
     2
176
     1
 67
     7
176
     1
 79
     5
176
     1
170
     0
176
     1
171
     0
176
     1
290
     0
176
     1
 93
       13
176
     1
 44
0.0
176
     1
173
     0
176
     1
  0
VISUALSTYLE
  5
37
102
{ACAD_REACTORS
330
2A
102
}
330
2A
100
AcDbVisualStyle
  2
Thicken
 70
    13
177
     2
291
     1
 71
     2
176
     1
 72
     2
176
     1
 73
     0
176
     1
 90
        0
176
     1
 40
-0.6
176
     1
 41
-30.0
176
     1
 62
     5
 63
     7
421
 16777215
176
     1
 74
     1
176
     1
 91
        4
176
     1
 64
     7
176
     1
 65
   257
176
     1
 75
     1
176
     1
175
     1
176
     1
 42
1.0
176
     1
 92
       12
176
     1
 66
     7
176
     1
 43
1.0
176
     1
 76
     1
176
     1
 77
     6
176
     1
 78
     2
176
     1
 67
     7
176
     1
 79
     5
176
     1
170
     0
176
     1
171
     0
176
     1
290
     0
176
     1
 93
        1
176
     1
 44
0.0
176
     1
173
     0
176
     1
  0
ENDSEC
  0
EOF
