  0
SECTION
  2
HEADER
  9
$ACADVER
  1
AC1024
  9
$ACADMAINTVER
 70
     6
  9
$DWGCODEPAGE
  3
UNDEFINED
  9
$INSBASE
 10
0.0
 20
0.0
 30
0.0
  9
$EXTMIN
 10
1.000000000000000E+20
 20
1.000000000000000E+20
 30
1.000000000000000E+20
  9
$EXTMAX
 10
-1.000000000000000E+20
 20
-1.000000000000000E+20
 30
-1.000000000000000E+20
  9
$LIMMIN
 10
0.0
 20
0.0
  9
$LIMMAX
 10
12.0
 20
9.0
  9
$ORTHOMODE
 70
     0
  9
$REGENMODE
 70
     1
  9
$FILLMODE
 70
     1
  9
$QTEXTMODE
 70
     0
  9
$MIRRTEXT
 70
     1
  9
$LTSCALE
 40
1.0
  9
$ATTMODE
 70
     1
  9
$TEXTSIZE
 40
0.2
  9
$TRACEWID
 40
0.05
  9
$TEXTSTYLE
  7
Standard
  9
$CLAYER
  8
0
  9
$CELTYPE
  6
ByLayer
  9
$CECOLOR
 62
   256
  9
$CELTSCALE
 40
1.0
  9
$DISPSILH
 70
     0
  9
$DIMSCALE
 40
1.0
  9
$DIMASZ
 40
0.18
  9
$DIMEXO
 40
0.0625
  9
$DIMDLI
 40
0.38
  9
$DIMRND
 40
0.0
  9
$DIMDLE
 40
0.0
  9
$DIMEXE
 40
0.18
  9
$DIMTP
 40
0.0
  9
$DIMTM
 40
0.0
  9
$DIMTXT
 40
0.18
  9
$DIMCEN
 40
0.09
  9
$DIMTSZ
 40
0.0
  9
$DIMTOL
 70
     0
  9
$DIMLIM
 70
     0
  9
$DIMTIH
 70
     1
  9
$DIMTOH
 70
     1
  9
$DIMSE1
 70
     0
  9
$DIMSE2
 70
     0
  9
$DIMTAD
 70
     0
  9
$DIMZIN
 70
     0
  9
$DIMBLK
  1

  9
$DIMASO
 70
     1
  9
$DIMSHO
 70
     1
  9
$DIMPOST
  1

  9
$DIMAPOST
  1

  9
$DIMALT
 70
     0
  9
$DIMALTD
 70
     2
  9
$DIMALTF
 40
25.4
  9
$DIMLFAC
 40
1.0
  9
$DIMTOFL
 70
     0
  9
$DIMTVP
 40
0.0
  9
$DIMTIX
 70
     0
  9
$DIMSOXD
 70
     0
  9
$DIMSAH
 70
     0
  9
$DIMBLK1
  1

  9
$DIMBLK2
  1

  9
$DIMSTYLE
  2
Standard
  9
$DIMCLRD
 70
     0
  9
$DIMCLRE
 70
     0
  9
$DIMCLRT
 70
     0
  9
$DIMTFAC
 40
1.0
  9
$DIMGAP
 40
0.09
  9
$DIMJUST
 70
     0
  9
$DIMSD1
 70
     0
  9
$DIMSD2
 70
     0
  9
$DIMTOLJ
 70
     1
  9
$DIMTZIN
 70
     0
  9
$DIMALTZ
 70
     0
  9
$DIMALTTZ
 70
     0
  9
$DIMUPT
 70
     0
  9
$DIMDEC
 70
     4
  9
$DIMTDEC
 70
     4
  9
$DIMALTU
 70
     2
  9
$DIMALTTD
 70
     2
  9
$DIMTXSTY
  7
Standard
  9
$DIMAUNIT
 70
     0
  9
$DIMADEC
 70
     0
  9
$DIMALTRND
 40
0.0
  9
$DIMAZIN
 70
     0
  9
$DIMDSEP
 70
    46
  9
$DIMATFIT
 70
     3
  9
$DIMFRAC
 70
     0
  9
$DIMLDRBLK
  1

  9
$DIMLUNIT
 70
     2
  9
$DIMLWD
 70
    -2
  9
$DIMLWE
 70
    -2
  9
$DIMTMOVE
 70
     0
  9
$DIMFXL
 40
1.0
  9
$DIMFXLON
 70
     0
  9
$DIMJOGANG
 40
0.7853981633974483
  9
$DIMTFILL
 70
     0
  9
$DIMTFILLCLR
 70
     0
  9
$DIMARCSYM
 70
     0
  9
$DIMLTYPE
  6

  9
$DIMLTEX1
  6

  9
$DIMLTEX2
  6

  9
$DIMTXTDIRECTION
 70
     0
  9
$LUNITS
 70
     2
  9
$LUPREC
 70
     4
  9
$SKETCHINC
 40
0.1
  9
$FILLETRAD
 40
0.5
  9
$AUNITS
 70
     0
  9
$AUPREC
 70
     0
  9
$MENU
  1
.
  9
$ELEVATION
 40
0.0
  9
$PELEVATION
 40
0.0
  9
$THICKNESS
 40
0.0
  9
$LIMCHECK
 70
     0
  9
$CHAMFERA
 40
0.5
  9
$CHAMFERB
 40
0.5
  9
$CHAMFERC
 40
1.0
  9
$CHAMFERD
 40
0.0
  9
$SKPOLY
 70
     0
  9
$TDCREATE
 40
2457917.612106482
  9
$TDUCREATE
 40
2457917.237106482
  9
$TDUPDATE
 40
2457917.612106482
  9
$TDUUPDATE
 40
2457917.237106482
  9
$TDINDWG
 40
0.0000000116
  9
$TDUSRTIMER
 40
0.0000000116
  9
$USRTIMER
 70
     1
  9
$ANGBASE
 50
0.0
  9
$ANGDIR
 70
     0
  9
$PDMODE
 70
     0
  9
$PDSIZE
 40
0.0
  9
$PLINEWID
 40
0.0
  9
$SPLFRAME
 70
     0
  9
$SPLINETYPE
 70
     6
  9
$SPLINESEGS
 70
     8
  9
$HANDSEED
  5
144
  9
$SURFTAB1
 70
     6
  9
$SURFTAB2
 70
     6
  9
$SURFTYPE
 70
     6
  9
$SURFU
 70
     6
  9
$SURFV
 70
     6
  9
$UCSBASE
  2

  9
$UCSNAME
  2

  9
$UCSORG
 10
0.0
 20
0.0
 30
0.0
  9
$UCSXDIR
 10
1.0
 20
0.0
 30
0.0
  9
$UCSYDIR
 10
0.0
 20
1.0
 30
0.0
  9
$UCSORTHOREF
  2

  9
$UCSORTHOVIEW
 70
     0
  9
$UCSORGTOP
 10
0.0
 20
0.0
 30
0.0
  9
$UCSORGBOTTOM
 10
0.0
 20
0.0
 30
0.0
  9
$UCSORGLEFT
 10
0.0
 20
0.0
 30
0.0
  9
$UCSORGRIGHT
 10
0.0
 20
0.0
 30
0.0
  9
$UCSORGFRONT
 10
0.0
 20
0.0
 30
0.0
  9
$UCSORGBACK
 10
0.0
 20
0.0
 30
0.0
  9
$PUCSBASE
  2

  9
$PUCSNAME
  2

  9
$PUCSORG
 10
0.0
 20
0.0
 30
0.0
  9
$PUCSXDIR
 10
1.0
 20
0.0
 30
0.0
  9
$PUCSYDIR
 10
0.0
 20
1.0
 30
0.0
  9
$PUCSORTHOREF
  2

  9
$PUCSORTHOVIEW
 70
     0
  9
$PUCSORGTOP
 10
0.0
 20
0.0
 30
0.0
  9
$PUCSORGBOTTOM
 10
0.0
 20
0.0
 30
0.0
  9
$PUCSORGLEFT
 10
0.0
 20
0.0
 30
0.0
  9
$PUCSORGRIGHT
 10
0.0
 20
0.0
 30
0.0
  9
$PUCSORGFRONT
 10
0.0
 20
0.0
 30
0.0
  9
$PUCSORGBACK
 10
0.0
 20
0.0
 30
0.0
  9
$USERI1
 70
     0
  9
$USERI2
 70
     0
  9
$USERI3
 70
     0
  9
$USERI4
 70
     0
  9
$USERI5
 70
     0
  9
$USERR1
 40
0.0
  9
$USERR2
 40
0.0
  9
$USERR3
 40
0.0
  9
$USERR4
 40
0.0
  9
$USERR5
 40
0.0
  9
$WORLDVIEW
 70
     1
  9
$SHADEDGE
 70
     3
  9
$SHADEDIF
 70
    70
  9
$TILEMODE
 70
     1
  9
$MAXACTVP
 70
    64
  9
$PINSBASE
 10
0.0
 20
0.0
 30
0.0
  9
$PLIMCHECK
 70
     0
  9
$PEXTMIN
 10
1.000000000000000E+20
 20
1.000000000000000E+20
 30
1.000000000000000E+20
  9
$PEXTMAX
 10
-1.000000000000000E+20
 20
-1.000000000000000E+20
 30
-1.000000000000000E+20
  9
$PLIMMIN
 10
0.0
 20
0.0
  9
$PLIMMAX
 10
12.0
 20
9.0
  9
$UNITMODE
 70
     0
  9
$VISRETAIN
 70
     1
  9
$PLINEGEN
 70
     0
  9
$PSLTSCALE
 70
     1
  9
$TREEDEPTH
 70
  3020
  9
$CMLSTYLE
  2
Standard
  9
$CMLJUST
 70
     0
  9
$CMLSCALE
 40
1.0
  9
$PROXYGRAPHICS
 70
     1
  9
$MEASUREMENT
 70
     0
  9
$CELWEIGHT
370
    -1
  9
$ENDCAPS
280
     0
  9
$JOINSTYLE
280
     0
  9
$LWDISPLAY
290
     1
  9
$INSUNITS
 70
     1
  9
$HYPERLINKBASE
  1

  9
$STYLESHEET
  1

  9
$XEDIT
290
     1
  9
$CEPSNTYPE
380
     0
  9
$PSTYLEMODE
290
     1
  9
$FINGERPRINTGUID
  2
{ABEBCBF1-BC8C-103B-8E56-9DBB0C1E22F8}
  9
$VERSIONGUID
  2
{FAEB1C32-E019-11D5-929B-00C0DF256EC4}
  9
$EXTNAMES
290
     1
  9
$PSVPSCALE
 40
0.0
  9
$OLESTARTUP
290
     0
  9
$SORTENTS
280
   127
  9
$INDEXCTL
280
     0
  9
$HIDETEXT
280
     1
  9
$XCLIPFRAME
280
     2
  9
$HALOGAP
280
     0
  9
$OBSCOLOR
 70
   257
  9
$OBSLTYPE
280
     0
  9
$INTERSECTIONDISPLAY
280
     0
  9
$INTERSECTIONCOLOR
 70
   257
  9
$DIMASSOC
280
     2
  9
$PROJECTNAME
  1

  9
$CAMERADISPLAY
290
     0
  9
$LENSLENGTH
 40
50.0
  9
$CAMERAHEIGHT
 40
0.0
  9
$STEPSPERSEC
 40
2.0
  9
$STEPSIZE
 40
6.0
  9
$3DDWFPREC
 40
2.0
  9
$PSOLWIDTH
 40
0.25
  9
$PSOLHEIGHT
 40
4.0
  9
$LOFTANG1
 40
1.570796326794897
  9
$LOFTANG2
 40
1.570796326794897
  9
$LOFTMAG1
 40
0.0
  9
$LOFTMAG2
 40
0.0
  9
$LOFTPARAM
 70
     7
  9
$LOFTNORMALS
280
     1
  9
$LATITUDE
 40
37.795
  9
$LONGITUDE
 40
-122.394
  9
$NORTHDIRECTION
 40
0.0
  9
$TIMEZONE
 70
 -8000
  9
$LIGHTGLYPHDISPLAY
280
     1
  9
$TILEMODELIGHTSYNCH
280
     1
  9
$CMATERIAL
347
3C
  9
$SOLIDHIST
280
     1
  9
$SHOWHIST
280
     1
  9
$DWFFRAME
280
     2
  9
$DGNFRAME
280
     2
  9
$REALWORLDSCALE
290
     1
  9
$INTERFERECOLOR
 62
   256
  9
$CSHADOW
280
     0
  9
$SHADOWPLANELOCATION
 40
0.0
  0
ENDSEC
  0
SECTION
  2
CLASSES
  0
CLASS
  1
ACDBDICTIONARYWDFLT
  2
AcDbDictionaryWithDefault
  3
ObjectDBX Classes
 90
        0
 91
        4
280
     0
281
     0
  0
CLASS
  1
VISUALSTYLE
  2
AcDbVisualStyle
  3
ObjectDBX Classes
 90
     4095
 91
        4
280
     0
281
     0
  0
CLASS
  1
MATERIAL
  2
AcDbMaterial
  3
ObjectDBX Classes
 90
     1153
 91
        4
280
     0
281
     0
  0
CLASS
  1
SUN
  2
AcDbSun
  3
SCENEOE
 90
     1024
 91
        4
280
     0
281
     0
  0
ENDSEC
  0
SECTION
  2
TABLES
  0
TABLE
  2
VPORT
  5
8
330
0
100
AcDbSymbolTable
 70
     1
  0
VPORT
  5
29
330
8
100
AcDbSymbolTableRecord
100
AcDbViewportTableRecord
  2
*Active
 70
     0
 10
0.0
 20
0.0
 11
1.0
 21
1.0
 12
0.0
 22
0.0
 13
0.0
 23
0.0
 14
0.5
 24
0.5
 15
0.5
 25
0.5
 16
0.0
 26
0.0
 36
1.0
 17
91.00082462281999
 27
-128.4993055234307
 37
0.0
 40
256.9986110468615
 41
0.7081814508812795
 42
50.0
 43
0.0
 44
0.0
 50
0.0
 51
0.0
 71
     0
 72
   100
 73
     1
 74
     3
 75
     0
 76
     0
 77
     0
 78
     0
281
     0
 65
     1
110
0.0
120
0.0
130
0.0
111
1.0
121
0.0
131
0.0
112
0.0
122
1.0
132
0.0
 79
     0
146
0.0
 60
     3
 61
     5
292
     1
282
     1
141
0.0
142
0.0
 63
   250
361
3F
  0
ENDTAB
  0
TABLE
  2
LTYPE
  5
5
330
0
100
AcDbSymbolTable
 70
     1
  0
LTYPE
  5
14
330
5
100
AcDbSymbolTableRecord
100
AcDbLinetypeTableRecord
  2
ByBlock
 70
     0
  3

 72
    65
 73
     0
 40
0.0
  0
LTYPE
  5
15
330
5
100
AcDbSymbolTableRecord
100
AcDbLinetypeTableRecord
  2
ByLayer
 70
     0
  3

 72
    65
 73
     0
 40
0.0
  0
LTYPE
  5
16
330
5
100
AcDbSymbolTableRecord
100
AcDbLinetypeTableRecord
  2
Continuous
 70
     0
  3
Solid line
 72
    65
 73
     0
 40
0.0
  0
ENDTAB
  0
TABLE
  2
LAYER
  5
2
330
0
100
AcDbSymbolTable
 70
     2
  0
LAYER
  5
10
330
2
100
AcDbSymbolTableRecord
100
AcDbLayerTableRecord
  2
0
 70
     0
 62
     7
  6
Continuous
370
    -3
390
F
347
3E
  0
LAYER
  5
40
330
2
100
AcDbSymbolTableRecord
100
AcDbLayerTableRecord
  2
_U+30EC_U+30A4_U+30E4_U+30FC 1
 70
     0
 62
     7
  6
Continuous
370
    -3
390
F
347
3E
  0
ENDTAB
  0
TABLE
  2
STYLE
  5
3
330
0
100
AcDbSymbolTable
 70
     1
  0
STYLE
  5
11
330
3
100
AcDbSymbolTableRecord
100
AcDbTextStyleTableRecord
  2
Standard
 70
     0
 40
0.0
 41
1.0
 50
0.0
 71
     0
 42
0.2
  3
txt
  4

  0
ENDTAB
  0
TABLE
  2
VIEW
  5
6
330
0
100
AcDbSymbolTable
 70
     0
  0
ENDTAB
  0
TABLE
  2
UCS
  5
7
330
0
100
AcDbSymbolTable
 70
     0
  0
ENDTAB
  0
TABLE
  2
APPID
  5
9
330
0
100
AcDbSymbolTable
 70
     1
  0
APPID
  5
12
330
9
100
AcDbSymbolTableRecord
100
AcDbRegAppTableRecord
  2
ACAD
 70
     0
  0
ENDTAB
  0
TABLE
  2
DIMSTYLE
  5
A
330
0
100
AcDbSymbolTable
 70
     1
100
AcDbDimStyleTable
  0
DIMSTYLE
105
27
330
A
100
AcDbSymbolTableRecord
100
AcDbDimStyleTableRecord
  2
Standard
 70
     0
178
     0
340
11
  0
ENDTAB
  0
TABLE
  2
BLOCK_RECORD
  5
1
330
0
100
AcDbSymbolTable
 70
    10
  0
BLOCK_RECORD
  5
1F
330
1
100
AcDbSymbolTableRecord
100
AcDbBlockTableRecord
  2
*Model_Space
340
22
 70
     0
280
     1
281
     0
  0
BLOCK_RECORD
  5
1B
330
1
100
AcDbSymbolTableRecord
100
AcDbBlockTableRecord
  2
*Paper_Space
340
1E
 70
     0
280
     1
281
     0
  0
BLOCK_RECORD
  5
23
330
1
100
AcDbSymbolTableRecord
100
AcDbBlockTableRecord
  2
*Paper_Space0
340
26
 70
     0
280
     1
281
     0
  0
BLOCK_RECORD
  5
41
330
1
100
AcDbSymbolTableRecord
100
AcDbBlockTableRecord
  2
block 2
340
0
102
{BLKREFS
331
42
102
}
 70
     0
280
     1
281
     0
  0
BLOCK_RECORD
  5
FA
330
1
100
AcDbSymbolTableRecord
100
AcDbBlockTableRecord
  2
block 3
340
0
102
{BLKREFS
331
FB
102
}
 70
     0
280
     1
281
     0
  0
BLOCK_RECORD
  5
10A
330
1
100
AcDbSymbolTableRecord
100
AcDbBlockTableRecord
  2
block 4
340
0
102
{BLKREFS
331
10B
102
}
 70
     0
280
     1
281
     0
  0
BLOCK_RECORD
  5
113
330
1
100
AcDbSymbolTableRecord
100
AcDbBlockTableRecord
  2
block 5
340
0
102
{BLKREFS
331
114
102
}
 70
     0
280
     1
281
     0
  0
BLOCK_RECORD
  5
11C
330
1
100
AcDbSymbolTableRecord
100
AcDbBlockTableRecord
  2
block 6
340
0
102
{BLKREFS
331
11D
102
}
 70
     0
280
     1
281
     0
  0
BLOCK_RECORD
  5
122
330
1
100
AcDbSymbolTableRecord
100
AcDbBlockTableRecord
  2
block 7
340
0
102
{BLKREFS
331
123
102
}
 70
     0
280
     1
281
     0
  0
BLOCK_RECORD
  5
12B
330
1
100
AcDbSymbolTableRecord
100
AcDbBlockTableRecord
  2
block 8
340
0
102
{BLKREFS
331
12C
102
}
 70
     0
280
     1
281
     0
  0
BLOCK_RECORD
  5
131
330
1
100
AcDbSymbolTableRecord
100
AcDbBlockTableRecord
  2
block 9
340
0
102
{BLKREFS
331
132
102
}
 70
     0
280
     1
281
     0
  0
BLOCK_RECORD
  5
139
330
1
100
AcDbSymbolTableRecord
100
AcDbBlockTableRecord
  2
block 10
340
0
102
{BLKREFS
331
13A
102
}
 70
     0
280
     1
281
     0
  0
ENDTAB
  0
ENDSEC
  0
SECTION
  2
BLOCKS
  0
BLOCK
  5
20
330
1F
100
AcDbEntity
  8
0
100
AcDbBlockBegin
  2
*Model_Space
 70
     0
 10
0.0
 20
0.0
 30
0.0
  3
*Model_Space
  1

  0
ENDBLK
  5
21
330
1F
100
AcDbEntity
  8
0
100
AcDbBlockEnd
  0
BLOCK
  5
1C
330
1B
100
AcDbEntity
 67
     1
  8
0
100
AcDbBlockBegin
  2
*Paper_Space
 70
     0
 10
0.0
 20
0.0
 30
0.0
  3
*Paper_Space
  1

  0
ENDBLK
  5
1D
330
1B
100
AcDbEntity
 67
     1
  8
0
100
AcDbBlockEnd
  0
BLOCK
  5
24
330
23
100
AcDbEntity
  8
0
100
AcDbBlockBegin
  2
*Paper_Space0
 70
     0
 10
0.0
 20
0.0
 30
0.0
  3
*Paper_Space0
  1

  0
ENDBLK
  5
25
330
23
100
AcDbEntity
  8
0
100
AcDbBlockEnd
  0
BLOCK
  5
43
330
41
100
AcDbEntity
  8
0
100
AcDbBlockBegin
  2
block 2
 70
     0
 10
0.0
 20
0.0
 30
0.0
  3
block 2
  1

  0
POLYLINE
  5
45
330
41
100
AcDbEntity
  8
_U+30EC_U+30A4_U+30E4_U+30FC 1
370
     0
100
AcDb2dPolyline
 66
     1
 10
0.0
 20
0.0
 30
0.0
  0
VERTEX
  5
46
330
45
100
AcDbEntity
  8
_U+30EC_U+30A4_U+30E4_U+30FC 1
370
     0
100
AcDbVertex
100
AcDb2dVertex
 10
85.30469837925139
 20
-142.738580797649
 30
0.0
  0
VERTEX
  5
47
330
45
100
AcDbEntity
  8
_U+30EC_U+30A4_U+30E4_U+30FC 1
370
     0
100
AcDbVertex
100
AcDb2dVertex
 10
83.3044837080589
 20
-142.738580797649
 30
0.0
  0
VERTEX
  5
48
330
45
100
AcDbEntity
  8
_U+30EC_U+30A4_U+30E4_U+30FC 1
370
     0
100
AcDbVertex
100
AcDb2dVertex
 10
83.3044837080589
 20
-147.7387824630651
 30
0.0
  0
VERTEX
  5
49
330
45
100
AcDbEntity
  8
_U+30EC_U+30A4_U+30E4_U+30FC 1
370
     0
100
AcDbVertex
100
AcDb2dVertex
 10
98.30477082536969
 20
-147.7387824630651
 30
0.0
  0
VERTEX
  5
4A
330
45
100
AcDbEntity
  8
_U+30EC_U+30A4_U+30E4_U+30FC 1
370
     0
100
AcDbVertex
100
AcDb2dVertex
 10
98.30477082536969
 20
-98.73883108642656
 30
0.0
  0
VERTEX
  5
4B
330
45
100
AcDbEntity
  8
_U+30EC_U+30A4_U+30E4_U+30FC 1
370
     0
100
AcDbVertex
100
AcDb2dVertex
 10
99.50435635032127
 20
-98.73883108642656
 30
0.0
  0
VERTEX
  5
4C
330
45
100
AcDbEntity
  8
_U+30EC_U+30A4_U+30E4_U+30FC 1
370
     0
100
AcDbVertex
100
AcDb2dVertex
 10
99.50435635032127
 20
-148.7385546850377
 30
0.0
  0
VERTEX
  5
4D
330
45
100
AcDbEntity
  8
_U+30EC_U+30A4_U+30E4_U+30FC 1
370
     0
100
AcDbVertex
100
AcDb2dVertex
 10
83.3044837080589
 20
-148.7385546850377
 30
0.0
  0
VERTEX
  5
4E
330
45
100
AcDbEntity
  8
_U+30EC_U+30A4_U+30E4_U+30FC 1
370
     0
100
AcDbVertex
100
AcDb2dVertex
 10
83.3044837080589
 20
-160.7388552375928
 30
0.0
  0
VERTEX
  5
4F
330
45
100
AcDbEntity
  8
_U+30EC_U+30A4_U+30E4_U+30FC 1
370
     0
100
AcDbVertex
100
AcDb2dVertex
 10
101.3047576932781
 20
-160.7388552375928
 30
0.0
  0
VERTEX
  5
50
330
45
100
AcDbEntity
  8
_U+30EC_U+30A4_U+30E4_U+30FC 1
370
     0
100
AcDbVertex
100
AcDb2dVertex
 10
101.3047576932781
 20
-158.7382877380933
 30
0.0
  0
VERTEX
  5
51
330
45
100
AcDbEntity
  8
_U+30EC_U+30A4_U+30E4_U+30FC 1
370
     0
100
AcDbVertex
100
AcDb2dVertex
 10
102.304529889994
 20
-158.7382877380933
 30
0.0
  0
VERTEX
  5
52
330
45
100
AcDbEntity
  8
_U+30EC_U+30A4_U+30E4_U+30FC 1
370
     0
100
AcDbVertex
100
AcDb2dVertex
 10
102.304529889994
 20
-161.7386274595654
 30
0.0
  0
VERTEX
  5
53
330
45
100
AcDbEntity
  8
_U+30EC_U+30A4_U+30E4_U+30FC 1
370
     0
100
AcDbVertex
100
AcDb2dVertex
 10
82.3043587335742
 20
-161.7386274595654
 30
0.0
  0
VERTEX
  5
54
330
45
100
AcDbEntity
  8
_U+30EC_U+30A4_U+30E4_U+30FC 1
370
     0
100
AcDbVertex
100
AcDb2dVertex
 10
82.3043587335742
 20
-141.7388085756765
 30
0.0
  0
VERTEX
  5
55
330
45
100
AcDbEntity
  8
_U+30EC_U+30A4_U+30E4_U+30FC 1
370
     0
100
AcDbVertex
100
AcDb2dVertex
 10
85.30469837925139
 20
-141.7388085756765
 30
0.0
  0
VERTEX
  5
56
330
45
100
AcDbEntity
  8
_U+30EC_U+30A4_U+30E4_U+30FC 1
370
     0
100
AcDbVertex
100
AcDb2dVertex
 10
85.30469837925139
 20
-142.738580797649
 30
0.0
  0
SEQEND
  5
58
330
45
100
AcDbEntity
  8
_U+30EC_U+30A4_U+30E4_U+30FC 1
370
     0
  0
HATCH
  5
57
330
41
100
AcDbEntity
  8
_U+30EC_U+30A4_U+30E4_U+30FC 1
 62
   253
420
 11711154
100
AcDbHatch
 10
0.0
 20
0.0
 30
0.0
210
0.0
220
0.0
230
1.0
  2
SOLID
 70
     1
 71
     0
 91
        1
 92
        1
 93
       16
 72
     1
 10
85.30469837925139
 20
-142.738580797649
 11
83.3044837080589
 21
-142.738580797649
 72
     1
 10
83.3044837080589
 20
-142.738580797649
 11
83.3044837080589
 21
-147.7387824630651
 72
     1
 10
83.3044837080589
 20
-147.7387824630651
 11
98.30477082536969
 21
-147.7387824630651
 72
     1
 10
98.30477082536969
 20
-147.7387824630651
 11
98.30477082536969
 21
-98.73883108642656
 72
     1
 10
98.30477082536969
 20
-98.73883108642656
 11
99.50435635032127
 21
-98.73883108642656
 72
     1
 10
99.50435635032127
 20
-98.73883108642656
 11
99.50435635032127
 21
-148.7385546850377
 72
     1
 10
99.50435635032127
 20
-148.7385546850377
 11
83.3044837080589
 21
-148.7385546850377
 72
     1
 10
83.3044837080589
 20
-148.7385546850377
 11
83.3044837080589
 21
-160.7388552375928
 72
     1
 10
83.3044837080589
 20
-160.7388552375928
 11
101.3047576932781
 21
-160.7388552375928
 72
     1
 10
101.3047576932781
 20
-160.7388552375928
 11
101.3047576932781
 21
-158.7382877380933
 72
     1
 10
101.3047576932781
 20
-158.7382877380933
 11
102.304529889994
 21
-158.7382877380933
 72
     1
 10
102.304529889994
 20
-158.7382877380933
 11
102.304529889994
 21
-161.7386274595654
 72
     1
 10
102.304529889994
 20
-161.7386274595654
 11
82.3043587335742
 21
-161.7386274595654
 72
     1
 10
82.3043587335742
 20
-161.7386274595654
 11
82.3043587335742
 21
-141.7388085756765
 72
     1
 10
82.3043587335742
 20
-141.7388085756765
 11
85.30469837925139
 21
-141.7388085756765
 72
     1
 10
85.30469837925139
 20
-141.7388085756765
 11
85.30469837925139
 21
-142.738580797649
 97
        0
 75
     2
 76
     1
 98
        0
  0
POLYLINE
  5
59
330
41
100
AcDbEntity
  8
_U+30EC_U+30A4_U+30E4_U+30FC 1
 62
   179
420
  2234388
370
    25
100
AcDb2dPolyline
 66
     1
 10
0.0
 20
0.0
 30
0.0
  0
VERTEX
  5
5A
330
59
100
AcDbEntity
  8
_U+30EC_U+30A4_U+30E4_U+30FC 1
 62
   179
420
  2234388
370
    25
100
AcDbVertex
100
AcDb2dVertex
 10
98.30477082536969
 20
-98.73883108642656
 30
0.0
  0
VERTEX
  5
5B
330
59
100
AcDbEntity
  8
_U+30EC_U+30A4_U+30E4_U+30FC 1
 62
   179
420
  2234388
370
    25
100
AcDbVertex
100
AcDb2dVertex
 10
98.30477082536969
 20
-147.7387824630651
 30
0.0
  0
SEQEND
  5
5C
330
59
100
AcDbEntity
  8
_U+30EC_U+30A4_U+30E4_U+30FC 1
 62
   179
420
  2234388
370
    25
  0
POLYLINE
  5
5D
330
41
100
AcDbEntity
  8
_U+30EC_U+30A4_U+30E4_U+30FC 1
 62
   179
420
  2234388
370
    25
100
AcDb2dPolyline
 66
     1
 10
0.0
 20
0.0
 30
0.0
  0
VERTEX
  5
5E
330
5D
100
AcDbEntity
  8
_U+30EC_U+30A4_U+30E4_U+30FC 1
 62
   179
420
  2234388
370
    25
100
AcDbVertex
100
AcDb2dVertex
 10
99.50435635032127
 20
-98.73883108642656
 30
0.0
  0
VERTEX
  5
5F
330
5D
100
AcDbEntity
  8
_U+30EC_U+30A4_U+30E4_U+30FC 1
 62
   179
420
  2234388
370
    25
100
AcDbVertex
100
AcDb2dVertex
 10
98.30477082536969
 20
-98.73883108642656
 30
0.0
  0
SEQEND
  5
60
330
5D
100
AcDbEntity
  8
_U+30EC_U+30A4_U+30E4_U+30FC 1
 62
   179
420
  2234388
370
    25
  0
POLYLINE
  5
61
330
41
100
AcDbEntity
  8
_U+30EC_U+30A4_U+30E4_U+30FC 1
 62
   179
420
  2234388
370
    25
100
AcDb2dPolyline
 66
     1
 10
0.0
 20
0.0
 30
0.0
  0
VERTEX
  5
62
330
61
100
AcDbEntity
  8
_U+30EC_U+30A4_U+30E4_U+30FC 1
 62
   179
420
  2234388
370
    25
100
AcDbVertex
100
AcDb2dVertex
 10
99.50435635032127
 20
-98.73883108642656
 30
0.0
  0
VERTEX
  5
63
330
61
100
AcDbEntity
  8
_U+30EC_U+30A4_U+30E4_U+30FC 1
 62
   179
420
  2234388
370
    25
100
AcDbVertex
100
AcDb2dVertex
 10
99.50435635032127
 20
-148.7385546850377
 30
0.0
  0
SEQEND
  5
64
330
61
100
AcDbEntity
  8
_U+30EC_U+30A4_U+30E4_U+30FC 1
 62
   179
420
  2234388
370
    25
  0
POLYLINE
  5
65
330
41
100
AcDbEntity
  8
_U+30EC_U+30A4_U+30E4_U+30FC 1
 62
   179
420
  2234388
370
    25
100
AcDb2dPolyline
 66
     1
 10
0.0
 20
0.0
 30
0.0
  0
VERTEX
  5
66
330
65
100
AcDbEntity
  8
_U+30EC_U+30A4_U+30E4_U+30FC 1
 62
   179
420
  2234388
370
    25
100
AcDbVertex
100
AcDb2dVertex
 10
99.50435635032127
 20
-148.7385546850377
 30
0.0
  0
VERTEX
  5
67
330
65
100
AcDbEntity
  8
_U+30EC_U+30A4_U+30E4_U+30FC 1
 62
   179
420
  2234388
370
    25
100
AcDbVertex
100
AcDb2dVertex
 10
83.3044837080589
 20
-148.7385546850377
 30
0.0
  0
SEQEND
  5
68
330
65
100
AcDbEntity
  8
_U+30EC_U+30A4_U+30E4_U+30FC 1
 62
   179
420
  2234388
370
    25
  0
POLYLINE
  5
69
330
41
100
AcDbEntity
  8
_U+30EC_U+30A4_U+30E4_U+30FC 1
 62
   179
420
  2234388
370
    25
100
AcDb2dPolyline
 66
     1
 10
0.0
 20
0.0
 30
0.0
  0
VERTEX
  5
6A
330
69
100
AcDbEntity
  8
_U+30EC_U+30A4_U+30E4_U+30FC 1
 62
   179
420
  2234388
370
    25
100
AcDbVertex
100
AcDb2dVertex
 10
85.30469837925139
 20
-141.7388085756765
 30
0.0
  0
VERTEX
  5
6B
330
69
100
AcDbEntity
  8
_U+30EC_U+30A4_U+30E4_U+30FC 1
 62
   179
420
  2234388
370
    25
100
AcDbVertex
100
AcDb2dVertex
 10
85.30469837925139
 20
-142.738580797649
 30
0.0
  0
SEQEND
  5
6C
330
69
100
AcDbEntity
  8
_U+30EC_U+30A4_U+30E4_U+30FC 1
 62
   179
420
  2234388
370
    25
  0
POLYLINE
  5
6D
330
41
100
AcDbEntity
  8
_U+30EC_U+30A4_U+30E4_U+30FC 1
 62
   179
420
  2234388
370
    25
100
AcDb2dPolyline
 66
     1
 10
0.0
 20
0.0
 30
0.0
  0
VERTEX
  5
6E
330
6D
100
AcDbEntity
  8
_U+30EC_U+30A4_U+30E4_U+30FC 1
 62
   179
420
  2234388
370
    25
100
AcDbVertex
100
AcDb2dVertex
 10
82.3043587335742
 20
-141.7388085756765
 30
0.0
  0
VERTEX
  5
6F
330
6D
100
AcDbEntity
  8
_U+30EC_U+30A4_U+30E4_U+30FC 1
 62
   179
420
  2234388
370
    25
100
AcDbVertex
100
AcDb2dVertex
 10
82.3043587335742
 20
-161.7386274595654
 30
0.0
  0
SEQEND
  5
70
330
6D
100
AcDbEntity
  8
_U+30EC_U+30A4_U+30E4_U+30FC 1
 62
   179
420
  2234388
370
    25
  0
POLYLINE
  5
71
330
41
100
AcDbEntity
  8
_U+30EC_U+30A4_U+30E4_U+30FC 1
 62
   179
420
  2234388
370
    25
100
AcDb2dPolyline
 66
     1
 10
0.0
 20
0.0
 30
0.0
  0
VERTEX
  5
72
330
71
100
AcDbEntity
  8
_U+30EC_U+30A4_U+30E4_U+30FC 1
 62
   179
420
  2234388
370
    25
100
AcDbVertex
100
AcDb2dVertex
 10
102.304529889994
 20
-158.7382877380933
 30
0.0
  0
VERTEX
  5
73
330
71
100
AcDbEntity
  8
_U+30EC_U+30A4_U+30E4_U+30FC 1
 62
   179
420
  2234388
370
    25
100
AcDbVertex
100
AcDb2dVertex
 10
101.3047576932781
 20
-158.7382877380933
 30
0.0
  0
SEQEND
  5
74
330
71
100
AcDbEntity
  8
_U+30EC_U+30A4_U+30E4_U+30FC 1
 62
   179
420
  2234388
370
    25
  0
POLYLINE
  5
75
330
41
100
AcDbEntity
  8
_U+30EC_U+30A4_U+30E4_U+30FC 1
 62
   179
420
  2234388
370
    25
100
AcDb2dPolyline
 66
     1
 10
0.0
 20
0.0
 30
0.0
  0
VERTEX
  5
76
330
75
100
AcDbEntity
  8
_U+30EC_U+30A4_U+30E4_U+30FC 1
 62
   179
420
  2234388
370
    25
100
AcDbVertex
100
AcDb2dVertex
 10
102.304529889994
 20
-161.7386274595654
 30
0.0
  0
VERTEX
  5
77
330
75
100
AcDbEntity
  8
_U+30EC_U+30A4_U+30E4_U+30FC 1
 62
   179
420
  2234388
370
    25
100
AcDbVertex
100
AcDb2dVertex
 10
82.3043587335742
 20
-161.7386274595654
 30
0.0
  0
SEQEND
  5
78
330
75
100
AcDbEntity
  8
_U+30EC_U+30A4_U+30E4_U+30FC 1
 62
   179
420
  2234388
370
    25
  0
POLYLINE
  5
79
330
41
100
AcDbEntity
  8
_U+30EC_U+30A4_U+30E4_U+30FC 1
 62
   179
420
  2234388
370
    25
100
AcDb2dPolyline
 66
     1
 10
0.0
 20
0.0
 30
0.0
  0
VERTEX
  5
7A
330
79
100
AcDbEntity
  8
_U+30EC_U+30A4_U+30E4_U+30FC 1
 62
   179
420
  2234388
370
    25
100
AcDbVertex
100
AcDb2dVertex
 10
85.30469837925139
 20
-141.7388085756765
 30
0.0
  0
VERTEX
  5
7B
330
79
100
AcDbEntity
  8
_U+30EC_U+30A4_U+30E4_U+30FC 1
 62
   179
420
  2234388
370
    25
100
AcDbVertex
100
AcDb2dVertex
 10
82.3043587335742
 20
-141.7388085756765
 30
0.0
  0
SEQEND
  5
7C
330
79
100
AcDbEntity
  8
_U+30EC_U+30A4_U+30E4_U+30FC 1
 62
   179
420
  2234388
370
    25
  0
POLYLINE
  5
7D
330
41
100
AcDbEntity
  8
_U+30EC_U+30A4_U+30E4_U+30FC 1
 62
   179
420
  2234388
370
    25
100
AcDb2dPolyline
 66
     1
 10
0.0
 20
0.0
 30
0.0
  0
VERTEX
  5
7E
330
7D
100
AcDbEntity
  8
_U+30EC_U+30A4_U+30E4_U+30FC 1
 62
   179
420
  2234388
370
    25
100
AcDbVertex
100
AcDb2dVertex
 10
102.304529889994
 20
-158.7382877380933
 30
0.0
  0
VERTEX
  5
7F
330
7D
100
AcDbEntity
  8
_U+30EC_U+30A4_U+30E4_U+30FC 1
 62
   179
420
  2234388
370
    25
100
AcDbVertex
100
AcDb2dVertex
 10
102.304529889994
 20
-161.7386274595654
 30
0.0
  0
SEQEND
  5
80
330
7D
100
AcDbEntity
  8
_U+30EC_U+30A4_U+30E4_U+30FC 1
 62
   179
420
  2234388
370
    25
  0
POLYLINE
  5
81
330
41
100
AcDbEntity
  8
_U+30EC_U+30A4_U+30E4_U+30FC 1
 62
   179
420
  2234388
370
    25
100
AcDb2dPolyline
 66
     1
 10
0.0
 20
0.0
 30
0.0
  0
VERTEX
  5
82
330
81
100
AcDbEntity
  8
_U+30EC_U+30A4_U+30E4_U+30FC 1
 62
   179
420
  2234388
370
    25
100
AcDbVertex
100
AcDb2dVertex
 10
98.30477082536969
 20
-147.7387824630651
 30
0.0
  0
VERTEX
  5
83
330
81
100
AcDbEntity
  8
_U+30EC_U+30A4_U+30E4_U+30FC 1
 62
   179
420
  2234388
370
    25
100
AcDbVertex
100
AcDb2dVertex
 10
83.3044837080589
 20
-147.7387824630651
 30
0.0
  0
SEQEND
  5
84
330
81
100
AcDbEntity
  8
_U+30EC_U+30A4_U+30E4_U+30FC 1
 62
   179
420
  2234388
370
    25
  0
POLYLINE
  5
85
330
41
100
AcDbEntity
  8
_U+30EC_U+30A4_U+30E4_U+30FC 1
 62
   179
420
  2234388
370
    25
100
AcDb2dPolyline
 66
     1
 10
0.0
 20
0.0
 30
0.0
  0
VERTEX
  5
86
330
85
100
AcDbEntity
  8
_U+30EC_U+30A4_U+30E4_U+30FC 1
 62
   179
420
  2234388
370
    25
100
AcDbVertex
100
AcDb2dVertex
 10
83.3044837080589
 20
-142.738580797649
 30
0.0
  0
VERTEX
  5
87
330
85
100
AcDbEntity
  8
_U+30EC_U+30A4_U+30E4_U+30FC 1
 62
   179
420
  2234388
370
    25
100
AcDbVertex
100
AcDb2dVertex
 10
83.3044837080589
 20
-147.7387824630651
 30
0.0
  0
SEQEND
  5
88
330
85
100
AcDbEntity
  8
_U+30EC_U+30A4_U+30E4_U+30FC 1
 62
   179
420
  2234388
370
    25
  0
POLYLINE
  5
89
330
41
100
AcDbEntity
  8
_U+30EC_U+30A4_U+30E4_U+30FC 1
 62
   179
420
  2234388
370
    25
100
AcDb2dPolyline
 66
     1
 10
0.0
 20
0.0
 30
0.0
  0
VERTEX
  5
8A
330
89
100
AcDbEntity
  8
_U+30EC_U+30A4_U+30E4_U+30FC 1
 62
   179
420
  2234388
370
    25
100
AcDbVertex
100
AcDb2dVertex
 10
85.30469837925139
 20
-142.738580797649
 30
0.0
  0
VERTEX
  5
8B
330
89
100
AcDbEntity
  8
_U+30EC_U+30A4_U+30E4_U+30FC 1
 62
   179
420
  2234388
370
    25
100
AcDbVertex
100
AcDb2dVertex
 10
83.3044837080589
 20
-142.738580797649
 30
0.0
  0
SEQEND
  5
8C
330
89
100
AcDbEntity
  8
_U+30EC_U+30A4_U+30E4_U+30FC 1
 62
   179
420
  2234388
370
    25
  0
POLYLINE
  5
8D
330
41
100
AcDbEntity
  8
_U+30EC_U+30A4_U+30E4_U+30FC 1
 62
   179
420
  2234388
370
    25
100
AcDb2dPolyline
 66
     1
 10
0.0
 20
0.0
 30
0.0
  0
VERTEX
  5
8E
330
8D
100
AcDbEntity
  8
_U+30EC_U+30A4_U+30E4_U+30FC 1
 62
   179
420
  2234388
370
    25
100
AcDbVertex
100
AcDb2dVertex
 10
101.3047576932781
 20
-160.7388552375928
 30
0.0
  0
VERTEX
  5
8F
330
8D
100
AcDbEntity
  8
_U+30EC_U+30A4_U+30E4_U+30FC 1
 62
   179
420
  2234388
370
    25
100
AcDbVertex
100
AcDb2dVertex
 10
83.3044837080589
 20
-160.7388552375928
 30
0.0
  0
SEQEND
  5
90
330
8D
100
AcDbEntity
  8
_U+30EC_U+30A4_U+30E4_U+30FC 1
 62
   179
420
  2234388
370
    25
  0
POLYLINE
  5
91
330
41
100
AcDbEntity
  8
_U+30EC_U+30A4_U+30E4_U+30FC 1
 62
   179
420
  2234388
370
    25
100
AcDb2dPolyline
 66
     1
 10
0.0
 20
0.0
 30
0.0
  0
VERTEX
  5
92
330
91
100
AcDbEntity
  8
_U+30EC_U+30A4_U+30E4_U+30FC 1
 62
   179
420
  2234388
370
    25
100
AcDbVertex
100
AcDb2dVertex
 10
101.3047576932781
 20
-158.7382877380933
 30
0.0
  0
VERTEX
  5
93
330
91
100
AcDbEntity
  8
_U+30EC_U+30A4_U+30E4_U+30FC 1
 62
   179
420
  2234388
370
    25
100
AcDbVertex
100
AcDb2dVertex
 10
101.3047576932781
 20
-160.7388552375928
 30
0.0
  0
SEQEND
  5
94
330
91
100
AcDbEntity
  8
_U+30EC_U+30A4_U+30E4_U+30FC 1
 62
   179
420
  2234388
370
    25
  0
POLYLINE
  5
95
330
41
100
AcDbEntity
  8
_U+30EC_U+30A4_U+30E4_U+30FC 1
 62
   179
420
  2234388
370
    25
100
AcDb2dPolyline
 66
     1
 10
0.0
 20
0.0
 30
0.0
  0
VERTEX
  5
96
330
95
100
AcDbEntity
  8
_U+30EC_U+30A4_U+30E4_U+30FC 1
 62
   179
420
  2234388
370
    25
100
AcDbVertex
100
AcDb2dVertex
 10
83.3044837080589
 20
-148.7385546850377
 30
0.0
  0
VERTEX
  5
97
330
95
100
AcDbEntity
  8
_U+30EC_U+30A4_U+30E4_U+30FC 1
 62
   179
420
  2234388
370
    25
100
AcDbVertex
100
AcDb2dVertex
 10
83.3044837080589
 20
-160.7388552375928
 30
0.0
  0
SEQEND
  5
98
330
95
100
AcDbEntity
  8
_U+30EC_U+30A4_U+30E4_U+30FC 1
 62
   179
420
  2234388
370
    25
  0
SPLINE
  5
99
330
41
100
AcDbEntity
  8
_U+30EC_U+30A4_U+30E4_U+30FC 1
 62
   179
420
  2234388
370
     9
100
AcDbSpline
210
0.0
220
0.0
230
1.0
 70
    11
 71
     3
 72
    17
 73
    13
 74
     0
 42
0.0000000001
 43
0.0000000001
 12
1.0
 22
0.0
 32
0.0
 13
1.0
 23
0.0
 33
0.0
 40
0.0
 40
0.0
 40
0.0
 40
0.0
 40
1.0
 40
1.0
 40
1.0
 40
2.0
 40
2.0
 40
2.0
 40
3.0
 40
3.0
 40
3.0
 40
4.0
 40
4.0
 40
4.0
 40
4.0
 10
98.20416108656
 20
-94.738401642982
 30
0.0
 10
98.20416108656
 20
-94.68329775410707
 30
0.0
 10
98.24896386432673
 20
-94.63849497634035
 30
0.0
 10
98.30477082536969
 20
-94.63849497634035
 30
0.0
 10
98.35987471285276
 20
-94.63849497634035
 30
0.0
 10
98.40467748948753
 20
-94.68329775410707
 30
0.0
 10
98.40467748948753
 20
-94.738401642982
 30
0.0
 10
98.40467748948753
 20
-94.79354080963508
 30
0.0
 10
98.35987471285276
 20
-94.83830830962363
 30
0.0
 10
98.30477082536969
 20
-94.83830830962363
 30
0.0
 10
98.24896386432673
 20
-94.83830830962363
 30
0.0
 10
98.20416108656
 20
-94.79354080963508
 30
0.0
 10
98.20416108656
 20
-94.738401642982
 30
0.0
  0
SPLINE
  5
9A
330
41
100
AcDbEntity
  8
_U+30EC_U+30A4_U+30E4_U+30FC 1
 62
   179
420
  2234388
370
     9
100
AcDbSpline
210
0.0
220
0.0
230
1.0
 70
    11
 71
     3
 72
    17
 73
    13
 74
     0
 42
0.0000000001
 43
0.0000000001
 12
1.0
 22
0.0
 32
0.0
 13
1.0
 23
0.0
 33
0.0
 40
0.0
 40
0.0
 40
0.0
 40
0.0
 40
1.0
 40
1.0
 40
1.0
 40
2.0
 40
2.0
 40
2.0
 40
3.0
 40
3.0
 40
3.0
 40
4.0
 40
4.0
 40
4.0
 40
4.0
 10
99.40444968620344
 20
-94.738401642982
 30
0.0
 10
99.40444968620344
 20
-94.68329775410707
 30
0.0
 10
99.44921718506131
 20
-94.63849497634035
 30
0.0
 10
99.50435635032127
 20
-94.63849497634035
 30
0.0
 10
99.55946023780434
 20
-94.63849497634035
 30
0.0
 10
99.6042630144391
 20
-94.68329775410707
 30
0.0
 10
99.6042630144391
 20
-94.738401642982
 30
0.0
 10
99.6042630144391
 20
-94.79354080963508
 30
0.0
 10
99.55946023780434
 20
-94.83830830962363
 30
0.0
 10
99.50435635032127
 20
-94.83830830962363
 30
0.0
 10
99.44921718506131
 20
-94.83830830962363
 30
0.0
 10
99.40444968620344
 20
-94.79354080963508
 30
0.0
 10
99.40444968620344
 20
-94.738401642982
 30
0.0
  0
SPLINE
  5
9B
330
41
100
AcDbEntity
  8
_U+30EC_U+30A4_U+30E4_U+30FC 1
 62
   179
420
  2234388
370
     9
100
AcDbSpline
210
0.0
220
0.0
230
1.0
 70
    11
 71
     3
 72
    17
 73
    13
 74
     0
 42
0.0000000001
 43
0.0000000001
 12
1.0
 22
0.0
 32
0.0
 13
1.0
 23
0.0
 33
0.0
 40
0.0
 40
0.0
 40
0.0
 40
0.0
 40
1.0
 40
1.0
 40
1.0
 40
2.0
 40
2.0
 40
2.0
 40
3.0
 40
3.0
 40
3.0
 40
4.0
 40
4.0
 40
4.0
 40
4.0
 10
82.20445206945638
 20
-137.7383791322322
 30
0.0
 10
82.20445206945638
 20
-137.6832399655791
 30
0.0
 10
82.24925484609113
 20
-137.6384724655906
 30
0.0
 10
82.3043587335742
 20
-137.6384724655906
 30
0.0
 10
82.35981539882606
 20
-137.6384724655906
 30
0.0
 10
82.40461817546083
 20
-137.6832399655791
 30
0.0
 10
82.40461817546083
 20
-137.7383791322322
 30
0.0
 10
82.40461817546083
 20
-137.7934830211071
 30
0.0
 10
82.35981539882606
 20
-137.8382857988739
 30
0.0
 10
82.3043587335742
 20
-137.8382857988739
 30
0.0
 10
82.24925484609113
 20
-137.8382857988739
 30
0.0
 10
82.20445206945638
 20
-137.7934830211071
 30
0.0
 10
82.20445206945638
 20
-137.7383791322322
 30
0.0
  0
SPLINE
  5
9C
330
41
100
AcDbEntity
  8
_U+30EC_U+30A4_U+30E4_U+30FC 1
 62
   179
420
  2234388
370
     9
100
AcDbSpline
210
0.0
220
0.0
230
1.0
 70
    11
 71
     3
 72
    17
 73
    13
 74
     0
 42
0.0000000001
 43
0.0000000001
 12
1.0
 22
0.0
 32
0.0
 13
1.0
 23
0.0
 33
0.0
 40
0.0
 40
0.0
 40
0.0
 40
0.0
 40
1.0
 40
1.0
 40
1.0
 40
2.0
 40
2.0
 40
2.0
 40
3.0
 40
3.0
 40
3.0
 40
4.0
 40
4.0
 40
4.0
 40
4.0
 10
85.20479171513355
 20
-137.7383791322322
 30
0.0
 10
85.20479171513355
 20
-137.6832399655791
 30
0.0
 10
85.24955921399145
 20
-137.6384724655906
 30
0.0
 10
85.30469837925139
 20
-137.6384724655906
 30
0.0
 10
85.35980226673446
 20
-137.6384724655906
 30
0.0
 10
85.40460504336923
 20
-137.6832399655791
 30
0.0
 10
85.40460504336923
 20
-137.7383791322322
 30
0.0
 10
85.40460504336923
 20
-137.7934830211071
 30
0.0
 10
85.35980226673446
 20
-137.8382857988739
 30
0.0
 10
85.30469837925139
 20
-137.8382857988739
 30
0.0
 10
85.24955921399145
 20
-137.8382857988739
 30
0.0
 10
85.20479171513355
 20
-137.7934830211071
 30
0.0
 10
85.20479171513355
 20
-137.7383791322322
 30
0.0
  0
SPLINE
  5
9D
330
41
100
AcDbEntity
  8
_U+30EC_U+30A4_U+30E4_U+30FC 1
 62
   179
420
  2234388
370
     9
100
AcDbSpline
210
0.0
220
0.0
230
1.0
 70
    11
 71
     3
 72
    17
 73
    13
 74
     0
 42
0.0000000001
 43
0.0000000001
 12
1.0
 22
0.0
 32
0.0
 13
1.0
 23
0.0
 33
0.0
 40
0.0
 40
0.0
 40
0.0
 40
0.0
 40
1.0
 40
1.0
 40
1.0
 40
2.0
 40
2.0
 40
2.0
 40
3.0
 40
3.0
 40
3.0
 40
4.0
 40
4.0
 40
4.0
 40
4.0
 10
98.20416108656
 20
-134.7383569107597
 30
0.0
 10
98.20416108656
 20
-134.6832530218848
 30
0.0
 10
98.24896386432673
 20
-134.6384502441181
 30
0.0
 10
98.30477082536969
 20
-134.6384502441181
 30
0.0
 10
98.35987471285276
 20
-134.6384502441181
 30
0.0
 10
98.40467748948753
 20
-134.6832530218848
 30
0.0
 10
98.40467748948753
 20
-134.7383569107597
 30
0.0
 10
98.40467748948753
 20
-134.7934960774128
 30
0.0
 10
98.35987471285276
 20
-134.8382988551795
 30
0.0
 10
98.30477082536969
 20
-134.8382988551795
 30
0.0
 10
98.24896386432673
 20
-134.8382988551795
 30
0.0
 10
98.20416108656
 20
-134.7934960774128
 30
0.0
 10
98.20416108656
 20
-134.7383569107597
 30
0.0
  0
SPLINE
  5
9E
330
41
100
AcDbEntity
  8
_U+30EC_U+30A4_U+30E4_U+30FC 1
 62
   179
420
  2234388
370
     9
100
AcDbSpline
210
0.0
220
0.0
230
1.0
 70
    11
 71
     3
 72
    17
 73
    13
 74
     0
 42
0.0000000001
 43
0.0000000001
 12
1.0
 22
0.0
 32
0.0
 13
1.0
 23
0.0
 33
0.0
 40
0.0
 40
0.0
 40
0.0
 40
0.0
 40
1.0
 40
1.0
 40
1.0
 40
2.0
 40
2.0
 40
2.0
 40
3.0
 40
3.0
 40
3.0
 40
4.0
 40
4.0
 40
4.0
 40
4.0
 10
78.20434022706328
 20
-161.7386274595654
 30
0.0
 10
78.20434022706328
 20
-161.6834882929123
 30
0.0
 10
78.24914300369805
 20
-161.6387207929237
 30
0.0
 10
78.30459966894989
 20
-161.6387207929237
 30
0.0
 10
78.35973883420985
 20
-161.6387207929237
 30
0.0
 10
78.40450831373214
 20
-161.6834882929123
 30
0.0
 10
78.40450831373214
 20
-161.7386274595654
 30
0.0
 10
78.40450831373214
 20
-161.7937313484403
 30
0.0
 10
78.35973883420985
 20
-161.838534126207
 30
0.0
 10
78.30459966894989
 20
-161.838534126207
 30
0.0
 10
78.24914300369805
 20
-161.838534126207
 30
0.0
 10
78.20434022706328
 20
-161.7937313484403
 30
0.0
 10
78.20434022706328
 20
-161.7386274595654
 30
0.0
  0
SPLINE
  5
9F
330
41
100
AcDbEntity
  8
_U+30EC_U+30A4_U+30E4_U+30FC 1
 62
   179
420
  2234388
370
     9
100
AcDbSpline
210
0.0
220
0.0
230
1.0
 70
    11
 71
     3
 72
    17
 73
    13
 74
     0
 42
0.0000000001
 43
0.0000000001
 12
1.0
 22
0.0
 32
0.0
 13
1.0
 23
0.0
 33
0.0
 40
0.0
 40
0.0
 40
0.0
 40
0.0
 40
1.0
 40
1.0
 40
1.0
 40
2.0
 40
2.0
 40
2.0
 40
3.0
 40
3.0
 40
3.0
 40
4.0
 40
4.0
 40
4.0
 40
4.0
 10
78.20434022706328
 20
-141.7388085756765
 30
0.0
 10
78.20434022706328
 20
-141.6836694090234
 30
0.0
 10
78.24914300369805
 20
-141.6389019090348
 30
0.0
 10
78.30459966894989
 20
-141.6389019090348
 30
0.0
 10
78.35973883420985
 20
-141.6389019090348
 30
0.0
 10
78.40450831373214
 20
-141.6836694090234
 30
0.0
 10
78.40450831373214
 20
-141.7388085756765
 30
0.0
 10
78.40450831373214
 20
-141.7939124645514
 30
0.0
 10
78.35973883420985
 20
-141.8387152423181
 30
0.0
 10
78.30459966894989
 20
-141.8387152423181
 30
0.0
 10
78.24914300369805
 20
-141.8387152423181
 30
0.0
 10
78.20434022706328
 20
-141.7939124645514
 30
0.0
 10
78.20434022706328
 20
-141.7388085756765
 30
0.0
  0
SPLINE
  5
A0
330
41
100
AcDbEntity
  8
_U+30EC_U+30A4_U+30E4_U+30FC 1
 62
   179
420
  2234388
370
     9
100
AcDbSpline
210
0.0
220
0.0
230
1.0
 70
    11
 71
     3
 72
    17
 73
    13
 74
     0
 42
0.0000000001
 43
0.0000000001
 12
1.0
 22
0.0
 32
0.0
 13
1.0
 23
0.0
 33
0.0
 40
0.0
 40
0.0
 40
0.0
 40
0.0
 40
1.0
 40
1.0
 40
1.0
 40
2.0
 40
2.0
 40
2.0
 40
3.0
 40
3.0
 40
3.0
 40
4.0
 40
4.0
 40
4.0
 40
4.0
 10
82.20445206945638
 20
-165.7390569030096
 30
0.0
 10
82.20445206945638
 20
-165.6832474585792
 30
0.0
 10
82.24925484609113
 20
-165.6384799585906
 30
0.0
 10
82.3043587335742
 20
-165.6384799585906
 30
0.0
 10
82.35981539882606
 20
-165.6384799585906
 30
0.0
 10
82.40461817546083
 20
-165.6832474585792
 30
0.0
 10
82.40461817546083
 20
-165.7390569030096
 30
0.0
 10
82.40461817546083
 20
-165.7941960696627
 30
0.0
 10
82.35981539882606
 20
-165.8389635696512
 30
0.0
 10
82.3043587335742
 20
-165.8389635696512
 30
0.0
 10
82.24925484609113
 20
-165.8389635696512
 30
0.0
 10
82.20445206945638
 20
-165.7941960696627
 30
0.0
 10
82.20445206945638
 20
-165.7390569030096
 30
0.0
  0
SPLINE
  5
A1
330
41
100
AcDbEntity
  8
_U+30EC_U+30A4_U+30E4_U+30FC 1
 62
   179
420
  2234388
370
     9
100
AcDbSpline
210
0.0
220
0.0
230
1.0
 70
    11
 71
     3
 72
    17
 73
    13
 74
     0
 42
0.0000000001
 43
0.0000000001
 12
1.0
 22
0.0
 32
0.0
 13
1.0
 23
0.0
 33
0.0
 40
0.0
 40
0.0
 40
0.0
 40
0.0
 40
1.0
 40
1.0
 40
1.0
 40
2.0
 40
2.0
 40
2.0
 40
3.0
 40
3.0
 40
3.0
 40
4.0
 40
4.0
 40
4.0
 40
4.0
 10
106.2043822905005
 20
-161.7386274595654
 30
0.0
 10
106.2043822905005
 20
-161.6834882929123
 30
0.0
 10
106.2491497893584
 20
-161.6387207929237
 30
0.0
 10
106.3042916400903
 20
-161.6387207929237
 30
0.0
 10
106.3600983976389
 20
-161.6387207929237
 30
0.0
 10
106.4048658964968
 20
-161.6834882929123
 30
0.0
 10
106.4048658964968
 20
-161.7386274595654
 30
0.0
 10
106.4048658964968
 20
-161.7937313484403
 30
0.0
 10
106.3600983976389
 20
-161.838534126207
 30
0.0
 10
106.3042916400903
 20
-161.838534126207
 30
0.0
 10
106.2491497893584
 20
-161.838534126207
 30
0.0
 10
106.2043822905005
 20
-161.7937313484403
 30
0.0
 10
106.2043822905005
 20
-161.7386274595654
 30
0.0
  0
SPLINE
  5
A2
330
41
100
AcDbEntity
  8
_U+30EC_U+30A4_U+30E4_U+30FC 1
 62
   179
420
  2234388
370
     9
100
AcDbSpline
210
0.0
220
0.0
230
1.0
 70
    11
 71
     3
 72
    17
 73
    13
 74
     0
 42
0.0000000001
 43
0.0000000001
 12
1.0
 22
0.0
 32
0.0
 13
1.0
 23
0.0
 33
0.0
 40
0.0
 40
0.0
 40
0.0
 40
0.0
 40
1.0
 40
1.0
 40
1.0
 40
2.0
 40
2.0
 40
2.0
 40
3.0
 40
3.0
 40
3.0
 40
4.0
 40
4.0
 40
4.0
 40
4.0
 10
106.2043822905005
 20
-158.7382877380933
 30
0.0
 10
106.2043822905005
 20
-158.6831485714402
 30
0.0
 10
106.2491497893584
 20
-158.6383810714516
 30
0.0
 10
106.3042916400903
 20
-158.6383810714516
 30
0.0
 10
106.3600983976389
 20
-158.6383810714516
 30
0.0
 10
106.4048658964968
 20
-158.6831485714402
 30
0.0
 10
106.4048658964968
 20
-158.7382877380933
 30
0.0
 10
106.4048658964968
 20
-158.7940971825237
 30
0.0
 10
106.3600983976389
 20
-158.8388999602904
 30
0.0
 10
106.3042916400903
 20
-158.8388999602904
 30
0.0
 10
106.2491497893584
 20
-158.8388999602904
 30
0.0
 10
106.2043822905005
 20
-158.7940971825237
 30
0.0
 10
106.2043822905005
 20
-158.7382877380933
 30
0.0
  0
SPLINE
  5
A3
330
41
100
AcDbEntity
  8
_U+30EC_U+30A4_U+30E4_U+30FC 1
 62
   179
420
  2234388
370
     9
100
AcDbSpline
210
0.0
220
0.0
230
1.0
 70
    11
 71
     3
 72
    17
 73
    13
 74
     0
 42
0.0000000001
 43
0.0000000001
 12
1.0
 22
0.0
 32
0.0
 13
1.0
 23
0.0
 33
0.0
 40
0.0
 40
0.0
 40
0.0
 40
0.0
 40
1.0
 40
1.0
 40
1.0
 40
2.0
 40
2.0
 40
2.0
 40
3.0
 40
3.0
 40
3.0
 40
4.0
 40
4.0
 40
4.0
 40
4.0
 10
102.2046232258762
 20
-165.7390569030096
 30
0.0
 10
102.2046232258762
 20
-165.6832474585792
 30
0.0
 10
102.2493907247341
 20
-165.6384799585906
 30
0.0
 10
102.304529889994
 20
-165.6384799585906
 30
0.0
 10
102.3596337774771
 20
-165.6384799585906
 30
0.0
 10
102.4044365541118
 20
-165.6832474585792
 30
0.0
 10
102.4044365541118
 20
-165.7390569030096
 30
0.0
 10
102.4044365541118
 20
-165.7941960696627
 30
0.0
 10
102.3596337774771
 20
-165.8389635696512
 30
0.0
 10
102.304529889994
 20
-165.8389635696512
 30
0.0
 10
102.2493907247341
 20
-165.8389635696512
 30
0.0
 10
102.2046232258762
 20
-165.7941960696627
 30
0.0
 10
102.2046232258762
 20
-165.7390569030096
 30
0.0
  0
SPLINE
  5
A4
330
41
100
AcDbEntity
  8
_U+30EC_U+30A4_U+30E4_U+30FC 1
 62
   179
420
  2234388
370
     9
100
AcDbSpline
210
0.0
220
0.0
230
1.0
 70
    11
 71
     3
 72
    17
 73
    13
 74
     0
 42
0.0000000001
 43
0.0000000001
 12
1.0
 22
0.0
 32
0.0
 13
1.0
 23
0.0
 33
0.0
 40
0.0
 40
0.0
 40
0.0
 40
0.0
 40
1.0
 40
1.0
 40
1.0
 40
2.0
 40
2.0
 40
2.0
 40
3.0
 40
3.0
 40
3.0
 40
4.0
 40
4.0
 40
4.0
 40
4.0
 10
106.2043822905005
 20
-148.7385546850377
 30
0.0
 10
106.2043822905005
 20
-148.6834155183846
 30
0.0
 10
106.2491497893584
 20
-148.6386480183961
 30
0.0
 10
106.3042916400903
 20
-148.6386480183961
 30
0.0
 10
106.3600983976389
 20
-148.6386480183961
 30
0.0
 10
106.4048658964968
 20
-148.6834155183846
 30
0.0
 10
106.4048658964968
 20
-148.7385546850377
 30
0.0
 10
106.4048658964968
 20
-148.7936585739126
 30
0.0
 10
106.3600983976389
 20
-148.8384613516793
 30
0.0
 10
106.3042916400903
 20
-148.8384613516793
 30
0.0
 10
106.2491497893584
 20
-148.8384613516793
 30
0.0
 10
106.2043822905005
 20
-148.7936585739126
 30
0.0
 10
106.2043822905005
 20
-148.7385546850377
 30
0.0
  0
SPLINE
  5
A5
330
41
100
AcDbEntity
  8
_U+30EC_U+30A4_U+30E4_U+30FC 1
 62
   179
420
  2234388
370
     9
100
AcDbSpline
210
0.0
220
0.0
230
1.0
 70
    11
 71
     3
 72
    17
 73
    13
 74
     0
 42
0.0000000001
 43
0.0000000001
 12
1.0
 22
0.0
 32
0.0
 13
1.0
 23
0.0
 33
0.0
 40
0.0
 40
0.0
 40
0.0
 40
0.0
 40
1.0
 40
1.0
 40
1.0
 40
2.0
 40
2.0
 40
2.0
 40
3.0
 40
3.0
 40
3.0
 40
4.0
 40
4.0
 40
4.0
 40
4.0
 10
106.2043822905005
 20
-98.73883108642656
 30
0.0
 10
106.2043822905005
 20
-98.68372719755132
 30
0.0
 10
106.2491497893584
 20
-98.6389244197846
 30
0.0
 10
106.3042916400903
 20
-98.6389244197846
 30
0.0
 10
106.3600983976389
 20
-98.6389244197846
 30
0.0
 10
106.4048658964968
 20
-98.68372719755132
 30
0.0
 10
106.4048658964968
 20
-98.73883108642656
 30
0.0
 10
106.4048658964968
 20
-98.79397025307932
 30
0.0
 10
106.3600983976389
 20
-98.83877303084572
 30
0.0
 10
106.3042916400903
 20
-98.83877303084572
 30
0.0
 10
106.2491497893584
 20
-98.83877303084572
 30
0.0
 10
106.2043822905005
 20
-98.79397025307932
 30
0.0
 10
106.2043822905005
 20
-98.73883108642656
 30
0.0
  0
POLYLINE
  5
A6
330
41
100
AcDbEntity
  8
_U+30EC_U+30A4_U+30E4_U+30FC 1
 62
   179
420
  2234388
370
     9
100
AcDb2dPolyline
 66
     1
 10
0.0
 20
0.0
 30
0.0
  0
VERTEX
  5
A7
330
A6
100
AcDbEntity
  8
_U+30EC_U+30A4_U+30E4_U+30FC 1
 62
   179
420
  2234388
370
     9
100
AcDbVertex
100
AcDb2dVertex
 10
99.50435635032127
 20
-94.738401642982
 30
0.0
  0
VERTEX
  5
A8
330
A6
100
AcDbEntity
  8
_U+30EC_U+30A4_U+30E4_U+30FC 1
 62
   179
420
  2234388
370
     9
100
AcDbVertex
100
AcDb2dVertex
 10
104.7622620495142
 20
-94.738401642982
 30
0.0
  0
SEQEND
  5
A9
330
A6
100
AcDbEntity
  8
_U+30EC_U+30A4_U+30E4_U+30FC 1
 62
   179
420
  2234388
370
     9
  0
POLYLINE
  5
AA
330
41
100
AcDbEntity
  8
_U+30EC_U+30A4_U+30E4_U+30FC 1
 62
   179
420
  2234388
370
     9
100
AcDb2dPolyline
 66
     1
 10
0.0
 20
0.0
 30
0.0
  0
VERTEX
  5
AB
330
AA
100
AcDbEntity
  8
_U+30EC_U+30A4_U+30E4_U+30FC 1
 62
   179
420
  2234388
370
     9
100
AcDbVertex
100
AcDb2dVertex
 10
99.50435635032127
 20
-94.738401642982
 30
0.0
  0
VERTEX
  5
AC
330
AA
100
AcDbEntity
  8
_U+30EC_U+30A4_U+30E4_U+30FC 1
 62
   179
420
  2234388
370
     9
100
AcDbVertex
100
AcDb2dVertex
 10
97.30429307311623
 20
-94.738401642982
 30
0.0
  0
SEQEND
  5
AD
330
AA
100
AcDbEntity
  8
_U+30EC_U+30A4_U+30E4_U+30FC 1
 62
   179
420
  2234388
370
     9
  0
POLYLINE
  5
AE
330
41
100
AcDbEntity
  8
_U+30EC_U+30A4_U+30E4_U+30FC 1
 62
   179
420
  2234388
370
     9
100
AcDb2dPolyline
 66
     1
 10
0.0
 20
0.0
 30
0.0
  0
VERTEX
  5
AF
330
AE
100
AcDbEntity
  8
_U+30EC_U+30A4_U+30E4_U+30FC 1
 62
   179
420
  2234388
370
     9
100
AcDbVertex
100
AcDb2dVertex
 10
99.50435635032127
 20
-96.19844303150602
 30
0.0
  0
VERTEX
  5
B0
330
AE
100
AcDbEntity
  8
_U+30EC_U+30A4_U+30E4_U+30FC 1
 62
   179
420
  2234388
370
     9
100
AcDbVertex
100
AcDb2dVertex
 10
99.50435635032127
 20
-93.73862942100978
 30
0.0
  0
SEQEND
  5
B1
330
AE
100
AcDbEntity
  8
_U+30EC_U+30A4_U+30E4_U+30FC 1
 62
   179
420
  2234388
370
     9
  0
POLYLINE
  5
B2
330
41
100
AcDbEntity
  8
_U+30EC_U+30A4_U+30E4_U+30FC 1
 62
   179
420
  2234388
370
     9
100
AcDb2dPolyline
 66
     1
 10
0.0
 20
0.0
 30
0.0
  0
VERTEX
  5
B3
330
B2
100
AcDbEntity
  8
_U+30EC_U+30A4_U+30E4_U+30FC 1
 62
   179
420
  2234388
370
     9
100
AcDbVertex
100
AcDb2dVertex
 10
98.30477082536969
 20
-96.19844303150602
 30
0.0
  0
VERTEX
  5
B4
330
B2
100
AcDbEntity
  8
_U+30EC_U+30A4_U+30E4_U+30FC 1
 62
   179
420
  2234388
370
     9
100
AcDbVertex
100
AcDb2dVertex
 10
98.30477082536969
 20
-93.73862942100978
 30
0.0
  0
SEQEND
  5
B5
330
B2
100
AcDbEntity
  8
_U+30EC_U+30A4_U+30E4_U+30FC 1
 62
   179
420
  2234388
370
     9
  0
POLYLINE
  5
B6
330
41
100
AcDbEntity
  8
_U+30EC_U+30A4_U+30E4_U+30FC 1
 62
   179
420
  2234388
370
     9
100
AcDb2dPolyline
 66
     1
 10
0.0
 20
0.0
 30
0.0
  0
VERTEX
  5
B7
330
B6
100
AcDbEntity
  8
_U+30EC_U+30A4_U+30E4_U+30FC 1
 62
   179
420
  2234388
370
     9
100
AcDbVertex
100
AcDb2dVertex
 10
106.3042916400903
 20
-148.7385546850377
 30
0.0
  0
VERTEX
  5
B8
330
B6
100
AcDbEntity
  8
_U+30EC_U+30A4_U+30E4_U+30FC 1
 62
   179
420
  2234388
370
     9
100
AcDbVertex
100
AcDb2dVertex
 10
106.3042916400903
 20
-98.73883108642656
 30
0.0
  0
SEQEND
  5
B9
330
B6
100
AcDbEntity
  8
_U+30EC_U+30A4_U+30E4_U+30FC 1
 62
   179
420
  2234388
370
     9
  0
POLYLINE
  5
BA
330
41
100
AcDbEntity
  8
_U+30EC_U+30A4_U+30E4_U+30FC 1
 62
   179
420
  2234388
370
     9
100
AcDb2dPolyline
 66
     1
 10
0.0
 20
0.0
 30
0.0
  0
VERTEX
  5
BB
330
BA
100
AcDbEntity
  8
_U+30EC_U+30A4_U+30E4_U+30FC 1
 62
   179
420
  2234388
370
     9
100
AcDbVertex
100
AcDb2dVertex
 10
102.0447443410661
 20
-148.7385546850377
 30
0.0
  0
VERTEX
  5
BC
330
BA
100
AcDbEntity
  8
_U+30EC_U+30A4_U+30E4_U+30FC 1
 62
   179
420
  2234388
370
     9
100
AcDbVertex
100
AcDb2dVertex
 10
107.3047314290949
 20
-148.7385546850377
 30
0.0
  0
SEQEND
  5
BD
330
BA
100
AcDbEntity
  8
_U+30EC_U+30A4_U+30E4_U+30FC 1
 62
   179
420
  2234388
370
     9
  0
POLYLINE
  5
BE
330
41
100
AcDbEntity
  8
_U+30EC_U+30A4_U+30E4_U+30FC 1
 62
   179
420
  2234388
370
     9
100
AcDb2dPolyline
 66
     1
 10
0.0
 20
0.0
 30
0.0
  0
VERTEX
  5
BF
330
BE
100
AcDbEntity
  8
_U+30EC_U+30A4_U+30E4_U+30FC 1
 62
   179
420
  2234388
370
     9
100
AcDbVertex
100
AcDb2dVertex
 10
102.0447443410661
 20
-98.73883108642656
 30
0.0
  0
VERTEX
  5
C0
330
BE
100
AcDbEntity
  8
_U+30EC_U+30A4_U+30E4_U+30FC 1
 62
   179
420
  2234388
370
     9
100
AcDbVertex
100
AcDb2dVertex
 10
107.3047314290949
 20
-98.73883108642656
 30
0.0
  0
SEQEND
  5
C1
330
BE
100
AcDbEntity
  8
_U+30EC_U+30A4_U+30E4_U+30FC 1
 62
   179
420
  2234388
370
     9
  0
POLYLINE
  5
C2
330
41
100
AcDbEntity
  8
_U+30EC_U+30A4_U+30E4_U+30FC 1
 62
   179
420
  2234388
370
     9
100
AcDb2dPolyline
 66
     1
 10
0.0
 20
0.0
 30
0.0
  0
VERTEX
  5
C3
330
C2
100
AcDbEntity
  8
_U+30EC_U+30A4_U+30E4_U+30FC 1
 62
   179
420
  2234388
370
     9
100
AcDbVertex
100
AcDb2dVertex
 10
106.3042916400903
 20
-158.7382877380933
 30
0.0
  0
VERTEX
  5
C4
330
C2
100
AcDbEntity
  8
_U+30EC_U+30A4_U+30E4_U+30FC 1
 62
   179
420
  2234388
370
     9
100
AcDbVertex
100
AcDb2dVertex
 10
106.3042916400903
 20
-148.7385546850377
 30
0.0
  0
SEQEND
  5
C5
330
C2
100
AcDbEntity
  8
_U+30EC_U+30A4_U+30E4_U+30FC 1
 62
   179
420
  2234388
370
     9
  0
POLYLINE
  5
C6
330
41
100
AcDbEntity
  8
_U+30EC_U+30A4_U+30E4_U+30FC 1
 62
   179
420
  2234388
370
     9
100
AcDb2dPolyline
 66
     1
 10
0.0
 20
0.0
 30
0.0
  0
VERTEX
  5
C7
330
C6
100
AcDbEntity
  8
_U+30EC_U+30A4_U+30E4_U+30FC 1
 62
   179
420
  2234388
370
     9
100
AcDbVertex
100
AcDb2dVertex
 10
104.8442476029782
 20
-158.7382877380933
 30
0.0
  0
VERTEX
  5
C8
330
C6
100
AcDbEntity
  8
_U+30EC_U+30A4_U+30E4_U+30FC 1
 62
   179
420
  2234388
370
     9
100
AcDbVertex
100
AcDb2dVertex
 10
107.3047314290949
 20
-158.7382877380933
 30
0.0
  0
SEQEND
  5
C9
330
C6
100
AcDbEntity
  8
_U+30EC_U+30A4_U+30E4_U+30FC 1
 62
   179
420
  2234388
370
     9
  0
POLYLINE
  5
CA
330
41
100
AcDbEntity
  8
_U+30EC_U+30A4_U+30E4_U+30FC 1
 62
   179
420
  2234388
370
     9
100
AcDb2dPolyline
 66
     1
 10
0.0
 20
0.0
 30
0.0
  0
VERTEX
  5
CB
330
CA
100
AcDbEntity
  8
_U+30EC_U+30A4_U+30E4_U+30FC 1
 62
   179
420
  2234388
370
     9
100
AcDbVertex
100
AcDb2dVertex
 10
106.3042916400903
 20
-158.7382877380933
 30
0.0
  0
VERTEX
  5
CC
330
CA
100
AcDbEntity
  8
_U+30EC_U+30A4_U+30E4_U+30FC 1
 62
   179
420
  2234388
370
     9
100
AcDbVertex
100
AcDb2dVertex
 10
106.3042916400903
 20
-161.7386274595654
 30
0.0
  0
SEQEND
  5
CD
330
CA
100
AcDbEntity
  8
_U+30EC_U+30A4_U+30E4_U+30FC 1
 62
   179
420
  2234388
370
     9
  0
POLYLINE
  5
CE
330
41
100
AcDbEntity
  8
_U+30EC_U+30A4_U+30E4_U+30FC 1
 62
   179
420
  2234388
370
     9
100
AcDb2dPolyline
 66
     1
 10
0.0
 20
0.0
 30
0.0
  0
VERTEX
  5
CF
330
CE
100
AcDbEntity
  8
_U+30EC_U+30A4_U+30E4_U+30FC 1
 62
   179
420
  2234388
370
     9
100
AcDbVertex
100
AcDb2dVertex
 10
104.8442476029782
 20
-161.7386274595654
 30
0.0
  0
VERTEX
  5
D0
330
CE
100
AcDbEntity
  8
_U+30EC_U+30A4_U+30E4_U+30FC 1
 62
   179
420
  2234388
370
     9
100
AcDbVertex
100
AcDb2dVertex
 10
107.3047314290949
 20
-161.7386274595654
 30
0.0
  0
SEQEND
  5
D1
330
CE
100
AcDbEntity
  8
_U+30EC_U+30A4_U+30E4_U+30FC 1
 62
   179
420
  2234388
370
     9
  0
POLYLINE
  5
D2
330
41
100
AcDbEntity
  8
_U+30EC_U+30A4_U+30E4_U+30FC 1
 62
   179
420
  2234388
370
     9
100
AcDb2dPolyline
 66
     1
 10
0.0
 20
0.0
 30
0.0
  0
VERTEX
  5
D3
330
D2
100
AcDbEntity
  8
_U+30EC_U+30A4_U+30E4_U+30FC 1
 62
   179
420
  2234388
370
     9
100
AcDbVertex
100
AcDb2dVertex
 10
78.30459966894989
 20
-141.7388085756765
 30
0.0
  0
VERTEX
  5
D4
330
D2
100
AcDbEntity
  8
_U+30EC_U+30A4_U+30E4_U+30FC 1
 62
   179
420
  2234388
370
     9
100
AcDbVertex
100
AcDb2dVertex
 10
78.30459966894989
 20
-161.7386274595654
 30
0.0
  0
SEQEND
  5
D5
330
D2
100
AcDbEntity
  8
_U+30EC_U+30A4_U+30E4_U+30FC 1
 62
   179
420
  2234388
370
     9
  0
POLYLINE
  5
D6
330
41
100
AcDbEntity
  8
_U+30EC_U+30A4_U+30E4_U+30FC 1
 62
   179
420
  2234388
370
     9
100
AcDb2dPolyline
 66
     1
 10
0.0
 20
0.0
 30
0.0
  0
VERTEX
  5
D7
330
D6
100
AcDbEntity
  8
_U+30EC_U+30A4_U+30E4_U+30FC 1
 62
   179
420
  2234388
370
     9
100
AcDbVertex
100
AcDb2dVertex
 10
79.76464102059003
 20
-141.7388085756765
 30
0.0
  0
VERTEX
  5
D8
330
D6
100
AcDbEntity
  8
_U+30EC_U+30A4_U+30E4_U+30FC 1
 62
   179
420
  2234388
370
     9
100
AcDbVertex
100
AcDb2dVertex
 10
77.30450997224209
 20
-141.7388085756765
 30
0.0
  0
SEQEND
  5
D9
330
D6
100
AcDbEntity
  8
_U+30EC_U+30A4_U+30E4_U+30FC 1
 62
   179
420
  2234388
370
     9
  0
POLYLINE
  5
DA
330
41
100
AcDbEntity
  8
_U+30EC_U+30A4_U+30E4_U+30FC 1
 62
   179
420
  2234388
370
     9
100
AcDb2dPolyline
 66
     1
 10
0.0
 20
0.0
 30
0.0
  0
VERTEX
  5
DB
330
DA
100
AcDbEntity
  8
_U+30EC_U+30A4_U+30E4_U+30FC 1
 62
   179
420
  2234388
370
     9
100
AcDbVertex
100
AcDb2dVertex
 10
79.76464102059003
 20
-161.7386274595654
 30
0.0
  0
VERTEX
  5
DC
330
DA
100
AcDbEntity
  8
_U+30EC_U+30A4_U+30E4_U+30FC 1
 62
   179
420
  2234388
370
     9
100
AcDbVertex
100
AcDb2dVertex
 10
77.30450997224209
 20
-161.7386274595654
 30
0.0
  0
SEQEND
  5
DD
330
DA
100
AcDbEntity
  8
_U+30EC_U+30A4_U+30E4_U+30FC 1
 62
   179
420
  2234388
370
     9
  0
POLYLINE
  5
DE
330
41
100
AcDbEntity
  8
_U+30EC_U+30A4_U+30E4_U+30FC 1
 62
   179
420
  2234388
370
     9
100
AcDb2dPolyline
 66
     1
 10
0.0
 20
0.0
 30
0.0
  0
VERTEX
  5
DF
330
DE
100
AcDbEntity
  8
_U+30EC_U+30A4_U+30E4_U+30FC 1
 62
   179
420
  2234388
370
     9
100
AcDbVertex
100
AcDb2dVertex
 10
85.30469837925139
 20
-137.7383791322322
 30
0.0
  0
VERTEX
  5
E0
330
DE
100
AcDbEntity
  8
_U+30EC_U+30A4_U+30E4_U+30FC 1
 62
   179
420
  2234388
370
     9
100
AcDbVertex
100
AcDb2dVertex
 10
82.3043587335742
 20
-137.7383791322322
 30
0.0
  0
SEQEND
  5
E1
330
DE
100
AcDbEntity
  8
_U+30EC_U+30A4_U+30E4_U+30FC 1
 62
   179
420
  2234388
370
     9
  0
POLYLINE
  5
E2
330
41
100
AcDbEntity
  8
_U+30EC_U+30A4_U+30E4_U+30FC 1
 62
   179
420
  2234388
370
     9
100
AcDb2dPolyline
 66
     1
 10
0.0
 20
0.0
 30
0.0
  0
VERTEX
  5
E3
330
E2
100
AcDbEntity
  8
_U+30EC_U+30A4_U+30E4_U+30FC 1
 62
   179
420
  2234388
370
     9
100
AcDbVertex
100
AcDb2dVertex
 10
85.30469837925139
 20
-139.1983852429784
 30
0.0
  0
VERTEX
  5
E4
330
E2
100
AcDbEntity
  8
_U+30EC_U+30A4_U+30E4_U+30FC 1
 62
   179
420
  2234388
370
     9
100
AcDbVertex
100
AcDb2dVertex
 10
85.30469837925139
 20
-136.7386069102597
 30
0.0
  0
SEQEND
  5
E5
330
E2
100
AcDbEntity
  8
_U+30EC_U+30A4_U+30E4_U+30FC 1
 62
   179
420
  2234388
370
     9
  0
POLYLINE
  5
E6
330
41
100
AcDbEntity
  8
_U+30EC_U+30A4_U+30E4_U+30FC 1
 62
   179
420
  2234388
370
     9
100
AcDb2dPolyline
 66
     1
 10
0.0
 20
0.0
 30
0.0
  0
VERTEX
  5
E7
330
E6
100
AcDbEntity
  8
_U+30EC_U+30A4_U+30E4_U+30FC 1
 62
   179
420
  2234388
370
     9
100
AcDbVertex
100
AcDb2dVertex
 10
82.3043587335742
 20
-139.1983852429784
 30
0.0
  0
VERTEX
  5
E8
330
E6
100
AcDbEntity
  8
_U+30EC_U+30A4_U+30E4_U+30FC 1
 62
   179
420
  2234388
370
     9
100
AcDbVertex
100
AcDb2dVertex
 10
82.3043587335742
 20
-136.7386069102597
 30
0.0
  0
SEQEND
  5
E9
330
E6
100
AcDbEntity
  8
_U+30EC_U+30A4_U+30E4_U+30FC 1
 62
   179
420
  2234388
370
     9
  0
POLYLINE
  5
EA
330
41
100
AcDbEntity
  8
_U+30EC_U+30A4_U+30E4_U+30FC 1
 62
   179
420
  2234388
370
     9
100
AcDb2dPolyline
 66
     1
 10
0.0
 20
0.0
 30
0.0
  0
VERTEX
  5
EB
330
EA
100
AcDbEntity
  8
_U+30EC_U+30A4_U+30E4_U+30FC 1
 62
   179
420
  2234388
370
     9
100
AcDbVertex
100
AcDb2dVertex
 10
85.30469837925139
 20
-137.7383791322322
 30
0.0
  0
VERTEX
  5
EC
330
EA
100
AcDbEntity
  8
_U+30EC_U+30A4_U+30E4_U+30FC 1
 62
   179
420
  2234388
370
     9
100
AcDbVertex
100
AcDb2dVertex
 10
98.30477082536969
 20
-137.7383791322322
 30
0.0
  0
SEQEND
  5
ED
330
EA
100
AcDbEntity
  8
_U+30EC_U+30A4_U+30E4_U+30FC 1
 62
   179
420
  2234388
370
     9
  0
POLYLINE
  5
EE
330
41
100
AcDbEntity
  8
_U+30EC_U+30A4_U+30E4_U+30FC 1
 62
   179
420
  2234388
370
     9
100
AcDb2dPolyline
 66
     1
 10
0.0
 20
0.0
 30
0.0
  0
VERTEX
  5
EF
330
EE
100
AcDbEntity
  8
_U+30EC_U+30A4_U+30E4_U+30FC 1
 62
   179
420
  2234388
370
     9
100
AcDbVertex
100
AcDb2dVertex
 10
102.304529889994
 20
-165.7390569030096
 30
0.0
  0
VERTEX
  5
F0
330
EE
100
AcDbEntity
  8
_U+30EC_U+30A4_U+30E4_U+30FC 1
 62
   179
420
  2234388
370
     9
100
AcDbVertex
100
AcDb2dVertex
 10
82.3043587335742
 20
-165.7390569030096
 30
0.0
  0
SEQEND
  5
F1
330
EE
100
AcDbEntity
  8
_U+30EC_U+30A4_U+30E4_U+30FC 1
 62
   179
420
  2234388
370
     9
  0
POLYLINE
  5
F2
330
41
100
AcDbEntity
  8
_U+30EC_U+30A4_U+30E4_U+30FC 1
 62
   179
420
  2234388
370
     9
100
AcDb2dPolyline
 66
     1
 10
0.0
 20
0.0
 30
0.0
  0
VERTEX
  5
F3
330
F2
100
AcDbEntity
  8
_U+30EC_U+30A4_U+30E4_U+30FC 1
 62
   179
420
  2234388
370
     9
100
AcDbVertex
100
AcDb2dVertex
 10
102.304529889994
 20
-164.2790507922634
 30
0.0
  0
VERTEX
  5
F4
330
F2
100
AcDbEntity
  8
_U+30EC_U+30A4_U+30E4_U+30FC 1
 62
   179
420
  2234388
370
     9
100
AcDbVertex
100
AcDb2dVertex
 10
102.304529889994
 20
-166.7388291249821
 30
0.0
  0
SEQEND
  5
F5
330
F2
100
AcDbEntity
  8
_U+30EC_U+30A4_U+30E4_U+30FC 1
 62
   179
420
  2234388
370
     9
  0
POLYLINE
  5
F6
330
41
100
AcDbEntity
  8
_U+30EC_U+30A4_U+30E4_U+30FC 1
 62
   179
420
  2234388
370
     9
100
AcDb2dPolyline
 66
     1
 10
0.0
 20
0.0
 30
0.0
  0
VERTEX
  5
F7
330
F6
100
AcDbEntity
  8
_U+30EC_U+30A4_U+30E4_U+30FC 1
 62
   179
420
  2234388
370
     9
100
AcDbVertex
100
AcDb2dVertex
 10
82.3043587335742
 20
-164.2790507922634
 30
0.0
  0
VERTEX
  5
F8
330
F6
100
AcDbEntity
  8
_U+30EC_U+30A4_U+30E4_U+30FC 1
 62
   179
420
  2234388
370
     9
100
AcDbVertex
100
AcDb2dVertex
 10
82.3043587335742
 20
-166.7388291249821
 30
0.0
  0
SEQEND
  5
F9
330
F6
100
AcDbEntity
  8
_U+30EC_U+30A4_U+30E4_U+30FC 1
 62
   179
420
  2234388
370
     9
  0
INSERT
  5
FB
330
41
100
AcDbEntity
  8
_U+30EC_U+30A4_U+30E4_U+30FC 1
100
AcDbBlockReference
  2
block 3
 10
0.0
 20
0.0
 30
0.0
  0
INSERT
  5
10B
330
41
100
AcDbEntity
  8
_U+30EC_U+30A4_U+30E4_U+30FC 1
100
AcDbBlockReference
  2
block 4
 10
0.0
 20
0.0
 30
0.0
  0
INSERT
  5
114
330
41
100
AcDbEntity
  8
_U+30EC_U+30A4_U+30E4_U+30FC 1
100
AcDbBlockReference
  2
block 5
 10
0.0
 20
0.0
 30
0.0
  0
INSERT
  5
11D
330
41
100
AcDbEntity
  8
_U+30EC_U+30A4_U+30E4_U+30FC 1
100
AcDbBlockReference
  2
block 6
 10
0.0
 20
0.0
 30
0.0
  0
INSERT
  5
123
330
41
100
AcDbEntity
  8
_U+30EC_U+30A4_U+30E4_U+30FC 1
100
AcDbBlockReference
  2
block 7
 10
0.0
 20
0.0
 30
0.0
  0
INSERT
  5
12C
330
41
100
AcDbEntity
  8
_U+30EC_U+30A4_U+30E4_U+30FC 1
100
AcDbBlockReference
  2
block 8
 10
0.0
 20
0.0
 30
0.0
  0
INSERT
  5
132
330
41
100
AcDbEntity
  8
_U+30EC_U+30A4_U+30E4_U+30FC 1
100
AcDbBlockReference
  2
block 9
 10
0.0
 20
0.0
 30
0.0
  0
INSERT
  5
13A
330
41
100
AcDbEntity
  8
_U+30EC_U+30A4_U+30E4_U+30FC 1
100
AcDbBlockReference
  2
block 10
 10
0.0
 20
0.0
 30
0.0
  0
ENDBLK
  5
44
330
41
100
AcDbEntity
  8
0
100
AcDbBlockEnd
  0
BLOCK
  5
FC
330
FA
100
AcDbEntity
  8
0
100
AcDbBlockBegin
  2
block 3
 70
     0
 10
0.0
 20
0.0
 30
0.0
  3
block 3
  1

  0
SPLINE
  5
FE
330
FA
100
AcDbEntity
  8
_U+30EC_U+30A4_U+30E4_U+30FC 1
370
     0
100
AcDbSpline
210
0.0
220
0.0
230
1.0
 70
    11
 71
     3
 72
    26
 73
    22
 74
     0
 42
0.0000000001
 43
0.0000000001
 12
1.0
 22
0.0
 32
0.0
 13
1.0
 23
0.0
 33
0.0
 40
0.0
 40
0.0
 40
0.0
 40
0.0
 40
1.0
 40
1.0
 40
1.0
 40
2.0
 40
2.0
 40
2.0
 40
3.0
 40
3.0
 40
3.0
 40
4.0
 40
4.0
 40
4.0
 40
5.0
 40
5.0
 40
5.0
 40
6.0
 40
6.0
 40
6.0
 40
7.0
 40
7.0
 40
7.0
 40
7.0
 10
97.83037649463964
 20
-93.3868923377644
 30
0.0
 10
97.83037649463964
 20
-93.3868923377644
 30
0.0
 10
97.83037649463964
 20
-92.28256697996756
 30
0.0
 10
97.83037649463964
 20
-92.28256697996756
 30
0.0
 10
97.83037649463964
 20
-92.28256697996756
 30
0.0
 10
97.5003363471527
 20
-92.28256697996756
 30
0.0
 10
97.5003363471527
 20
-92.28256697996756
 30
0.0
 10
97.5003363471527
 20
-92.28256697996756
 30
0.0
 10
97.5003363471527
 20
-92.13460012887607
 30
0.0
 10
97.5003363471527
 20
-92.13460012887607
 30
0.0
 10
97.83244355193078
 20
-92.1197862182895
 30
0.0
 10
97.87895234098166
 20
-91.95683320183718
 30
0.0
 10
97.9085801621548
 20
-91.84262828650115
 30
0.0
 10
97.9085801621548
 20
-91.84262828650115
 30
0.0
 10
98.0546522107294
 20
-91.84262828650115
 30
0.0
 10
98.0546522107294
 20
-91.84262828650115
 30
0.0
 10
98.0546522107294
 20
-91.84262828650115
 30
0.0
 10
98.0546522107294
 20
-93.3868923377644
 30
0.0
 10
98.0546522107294
 20
-93.3868923377644
 30
0.0
 10
98.0546522107294
 20
-93.3868923377644
 30
0.0
 10
97.83037649463964
 20
-93.3868923377644
 30
0.0
 10
97.83037649463964
 20
-93.3868923377644
 30
0.0
  0
HATCH
  5
FF
330
FA
100
AcDbEntity
  8
_U+30EC_U+30A4_U+30E4_U+30FC 1
 62
   179
420
  2234388
100
AcDbHatch
 10
0.0
 20
0.0
 30
0.0
210
0.0
220
0.0
230
1.0
  2
SOLID
 70
     1
 71
     0
 91
        1
 92
        1
 93
        1
 72
     4
 94
        3
 73
     0
 74
     1
 95
       26
 96
       22
 40
0.0
 40
0.0
 40
0.0
 40
0.0
 40
1.0
 40
1.0
 40
1.0
 40
2.0
 40
2.0
 40
2.0
 40
3.0
 40
3.0
 40
3.0
 40
4.0
 40
4.0
 40
4.0
 40
5.0
 40
5.0
 40
5.0
 40
6.0
 40
6.0
 40
6.0
 40
7.0
 40
7.0
 40
7.0
 40
7.0
 10
97.83037649463964
 20
-93.3868923377644
 10
97.83037649463964
 20
-93.3868923377644
 10
97.83037649463964
 20
-92.28256697996756
 10
97.83037649463964
 20
-92.28256697996756
 10
97.83037649463964
 20
-92.28256697996756
 10
97.5003363471527
 20
-92.28256697996756
 10
97.5003363471527
 20
-92.28256697996756
 10
97.5003363471527
 20
-92.28256697996756
 10
97.5003363471527
 20
-92.13460012887607
 10
97.5003363471527
 20
-92.13460012887607
 10
97.83244355193078
 20
-92.1197862182895
 10
97.87895234098166
 20
-91.95683320183718
 10
97.9085801621548
 20
-91.84262828650115
 10
97.9085801621548
 20
-91.84262828650115
 10
98.0546522107294
 20
-91.84262828650115
 10
98.0546522107294
 20
-91.84262828650115
 10
98.0546522107294
 20
-91.84262828650115
 10
98.0546522107294
 20
-93.3868923377644
 10
98.0546522107294
 20
-93.3868923377644
 10
98.0546522107294
 20
-93.3868923377644
 10
97.83037649463964
 20
-93.3868923377644
 10
97.83037649463964
 20
-93.3868923377644
 97
        0
 97
        0
 75
     2
 76
     1
 98
        0
  0
POLYLINE
  5
100
330
FA
100
AcDbEntity
  8
_U+30EC_U+30A4_U+30E4_U+30FC 1
370
     0
100
AcDb2dPolyline
 66
     1
 10
0.0
 20
0.0
 30
0.0
  0
VERTEX
  5
101
330
100
100
AcDbEntity
  8
_U+30EC_U+30A4_U+30E4_U+30FC 1
370
     0
100
AcDbVertex
100
AcDb2dVertex
 10
98.6158582652766
 20
-93.3868923377644
 30
0.0
  0
VERTEX
  5
102
330
100
100
AcDbEntity
  8
_U+30EC_U+30A4_U+30E4_U+30FC 1
370
     0
100
AcDbVertex
100
AcDb2dVertex
 10
98.6158582652766
 20
-93.13522811256689
 30
0.0
  0
VERTEX
  5
103
330
100
100
AcDbEntity
  8
_U+30EC_U+30A4_U+30E4_U+30FC 1
370
     0
100
AcDbVertex
100
AcDb2dVertex
 10
98.86735023569983
 20
-93.13522811256689
 30
0.0
  0
VERTEX
  5
104
330
100
100
AcDbEntity
  8
_U+30EC_U+30A4_U+30E4_U+30FC 1
370
     0
100
AcDbVertex
100
AcDb2dVertex
 10
98.86735023569983
 20
-93.3868923377644
 30
0.0
  0
VERTEX
  5
105
330
100
100
AcDbEntity
  8
_U+30EC_U+30A4_U+30E4_U+30FC 1
370
     0
100
AcDbVertex
100
AcDb2dVertex
 10
98.6158582652766
 20
-93.3868923377644
 30
0.0
  0
SEQEND
  5
106
330
100
100
AcDbEntity
  8
_U+30EC_U+30A4_U+30E4_U+30FC 1
370
     0
  0
HATCH
  5
107
330
FA
100
AcDbEntity
  8
_U+30EC_U+30A4_U+30E4_U+30FC 1
 62
   179
420
  2234388
100
AcDbHatch
 10
0.0
 20
0.0
 30
0.0
210
0.0
220
0.0
230
1.0
  2
SOLID
 70
     1
 71
     0
 91
        1
 92
        1
 93
        4
 72
     1
 10
98.6158582652766
 20
-93.3868923377644
 11
98.6158582652766
 21
-93.13522811256689
 72
     1
 10
98.6158582652766
 20
-93.13522811256689
 11
98.86735023569983
 21
-93.13522811256689
 72
     1
 10
98.86735023569983
 20
-93.13522811256689
 11
98.86735023569983
 21
-93.3868923377644
 72
     1
 10
98.86735023569983
 20
-93.3868923377644
 11
98.6158582652766
 21
-93.3868923377644
 97
        0
 75
     2
 76
     1
 98
        0
  0
SPLINE
  5
108
330
FA
100
AcDbEntity
  8
_U+30EC_U+30A4_U+30E4_U+30FC 1
370
     0
100
AcDbSpline
210
0.0
220
0.0
230
1.0
 70
    11
 71
     3
 72
    44
 73
    40
 74
     0
 42
0.0000000001
 43
0.0000000001
 12
1.0
 22
0.0
 32
0.0
 13
1.0
 23
0.0
 33
0.0
 40
0.0
 40
0.0
 40
0.0
 40
0.0
 40
1.0
 40
1.0
 40
1.0
 40
2.0
 40
2.0
 40
2.0
 40
3.0
 40
3.0
 40
3.0
 40
4.0
 40
4.0
 40
4.0
 40
5.0
 40
5.0
 40
5.0
 40
6.0
 40
6.0
 40
6.0
 40
7.0
 40
7.0
 40
7.0
 40
8.0
 40
8.0
 40
8.0
 40
9.0
 40
9.0
 40
9.0
 40
10.0
 40
10.0
 40
10.0
 40
11.0
 40
11.0
 40
11.0
 40
12.0
 40
12.0
 40
12.0
 40
13.0
 40
13.0
 40
13.0
 40
13.0
 10
99.696929228548
 20
-92.80518796507995
 30
0.0
 10
99.4791991938802
 20
-92.96383461217572
 30
0.0
 10
99.38583710622993
 20
-93.03790416510859
 30
0.0
 10
99.33726125988791
 20
-93.18173690161777
 30
0.0
 10
99.33726125988791
 20
-93.18173690161777
 30
0.0
 10
100.1158528395544
 20
-93.18173690161777
 30
0.0
 10
100.1158528395544
 20
-93.18173690161777
 30
0.0
 10
100.1158528395544
 20
-93.18173690161777
 30
0.0
 10
100.1158528395544
 20
-93.3868923377644
 30
0.0
 10
100.1158528395544
 20
-93.3868923377644
 30
0.0
 10
100.1158528395544
 20
-93.3868923377644
 30
0.0
 10
99.08783634675582
 20
-93.3868923377644
 30
0.0
 10
99.08783634675582
 20
-93.3868923377644
 30
0.0
 10
99.11953122522011
 20
-93.02929142639546
 30
0.0
 10
99.18498803943987
 20
-92.95108775888029
 30
0.0
 10
99.5701497146908
 20
-92.65274248985766
 30
0.0
 10
99.82612030924486
 20
-92.45396048035873
 30
0.0
 10
99.89157712346461
 20
-92.38626435407357
 30
0.0
 10
99.89157712346461
 20
-92.2488050442121
 30
0.0
 10
99.89157712346461
 20
-92.13029375951952
 30
0.0
 10
99.81957462782289
 20
-91.99920787630576
 30
0.0
 10
99.62285967561512
 20
-91.99920787630576
 30
0.0
 10
99.36275496647876
 20
-91.99920787630576
 30
0.0
 10
99.35414222776564
 20
-92.22968476426897
 30
0.0
 10
99.35000811318334
 20
-92.34612899167041
 30
0.0
 10
99.35000811318334
 20
-92.34612899167041
 30
0.0
 10
99.12573239709357
 20
-92.34612899167041
 30
0.0
 10
99.12573239709357
 20
-92.34612899167041
 30
0.0
 10
99.1343451358067
 20
-92.21917722303895
 30
0.0
 10
99.14468042226244
 20
-92.10703936499408
 30
0.0
 10
99.22529565661729
 20
-91.98852808030148
 30
0.0
 10
99.33519420259677
 20
-91.82781437591458
 30
0.0
 10
99.52122935880026
 20
-91.79388018538486
 30
0.0
 10
99.6376735862017
 20
-91.79388018538486
 30
0.0
 10
99.91500377276431
 20
-91.79388018538486
 30
0.0
 10
100.1220540114278
 20
-91.97802053907147
 30
0.0
 10
100.1220540114278
 20
-92.25087210150326
 30
0.0
 10
100.1220540114278
 20
-92.47928193217533
 30
0.0
 10
100.0059542935749
 20
-92.57884519169905
 30
0.0
 10
99.696929228548
 20
-92.80518796507995
 30
0.0
  0
HATCH
  5
109
330
FA
100
AcDbEntity
  8
_U+30EC_U+30A4_U+30E4_U+30FC 1
 62
   179
420
  2234388
100
AcDbHatch
 10
0.0
 20
0.0
 30
0.0
210
0.0
220
0.0
230
1.0
  2
SOLID
 70
     1
 71
     0
 91
        1
 92
        1
 93
        1
 72
     4
 94
        3
 73
     0
 74
     1
 95
       44
 96
       40
 40
0.0
 40
0.0
 40
0.0
 40
0.0
 40
1.0
 40
1.0
 40
1.0
 40
2.0
 40
2.0
 40
2.0
 40
3.0
 40
3.0
 40
3.0
 40
4.0
 40
4.0
 40
4.0
 40
5.0
 40
5.0
 40
5.0
 40
6.0
 40
6.0
 40
6.0
 40
7.0
 40
7.0
 40
7.0
 40
8.0
 40
8.0
 40
8.0
 40
9.0
 40
9.0
 40
9.0
 40
10.0
 40
10.0
 40
10.0
 40
11.0
 40
11.0
 40
11.0
 40
12.0
 40
12.0
 40
12.0
 40
13.0
 40
13.0
 40
13.0
 40
13.0
 10
99.696929228548
 20
-92.80518796507995
 10
99.4791991938802
 20
-92.96383461217572
 10
99.38583710622993
 20
-93.03790416510859
 10
99.33726125988791
 20
-93.18173690161777
 10
99.33726125988791
 20
-93.18173690161777
 10
100.1158528395544
 20
-93.18173690161777
 10
100.1158528395544
 20
-93.18173690161777
 10
100.1158528395544
 20
-93.18173690161777
 10
100.1158528395544
 20
-93.3868923377644
 10
100.1158528395544
 20
-93.3868923377644
 10
100.1158528395544
 20
-93.3868923377644
 10
99.08783634675582
 20
-93.3868923377644
 10
99.08783634675582
 20
-93.3868923377644
 10
99.11953122522011
 20
-93.02929142639546
 10
99.18498803943987
 20
-92.95108775888029
 10
99.5701497146908
 20
-92.65274248985766
 10
99.82612030924486
 20
-92.45396048035873
 10
99.89157712346461
 20
-92.38626435407357
 10
99.89157712346461
 20
-92.2488050442121
 10
99.89157712346461
 20
-92.13029375951952
 10
99.81957462782289
 20
-91.99920787630576
 10
99.62285967561512
 20
-91.99920787630576
 10
99.36275496647876
 20
-91.99920787630576
 10
99.35414222776564
 20
-92.22968476426897
 10
99.35000811318334
 20
-92.34612899167041
 10
99.35000811318334
 20
-92.34612899167041
 10
99.12573239709357
 20
-92.34612899167041
 10
99.12573239709357
 20
-92.34612899167041
 10
99.1343451358067
 20
-92.21917722303895
 10
99.14468042226244
 20
-92.10703936499408
 10
99.22529565661729
 20
-91.98852808030148
 10
99.33519420259677
 20
-91.82781437591458
 10
99.52122935880026
 20
-91.79388018538486
 10
99.6376735862017
 20
-91.79388018538486
 10
99.91500377276431
 20
-91.79388018538486
 10
100.1220540114278
 20
-91.97802053907147
 10
100.1220540114278
 20
-92.25087210150326
 10
100.1220540114278
 20
-92.47928193217533
 10
100.0059542935749
 20
-92.57884519169905
 10
99.696929228548
 20
-92.80518796507995
 97
        0
 97
        0
 75
     2
 76
     1
 98
        0
  0
ENDBLK
  5
FD
330
FA
100
AcDbEntity
  8
0
100
AcDbBlockEnd
  0
BLOCK
  5
10C
330
10A
100
AcDbEntity
  8
0
100
AcDbBlockBegin
  2
block 4
 70
     0
 10
0.0
 20
0.0
 30
0.0
  3
block 4
  1

  0
SPLINE
  5
10E
330
10A
100
AcDbEntity
  8
_U+30EC_U+30A4_U+30E4_U+30FC 1
370
     0
100
AcDbSpline
210
0.0
220
0.0
230
1.0
 70
    11
 71
     3
 72
    53
 73
    49
 74
     0
 42
0.0000000001
 43
0.0000000001
 12
1.0
 22
0.0
 32
0.0
 13
1.0
 23
0.0
 33
0.0
 40
0.0
 40
0.0
 40
0.0
 40
0.0
 40
1.0
 40
1.0
 40
1.0
 40
2.0
 40
2.0
 40
2.0
 40
3.0
 40
3.0
 40
3.0
 40
4.0
 40
4.0
 40
4.0
 40
5.0
 40
5.0
 40
5.0
 40
6.0
 40
6.0
 40
6.0
 40
7.0
 40
7.0
 40
7.0
 40
8.0
 40
8.0
 40
8.0
 40
9.0
 40
9.0
 40
9.0
 40
10.0
 40
10.0
 40
10.0
 40
11.0
 40
11.0
 40
11.0
 40
12.0
 40
12.0
 40
12.0
 40
13.0
 40
13.0
 40
13.0
 40
14.0
 40
14.0
 40
14.0
 40
15.0
 40
15.0
 40
15.0
 40
16.0
 40
16.0
 40
16.0
 40
16.0
 10
105.557036648958
 20
-124.4461506850343
 30
0.0
 10
105.557036648958
 20
-124.5243543525495
 30
0.0
 10
105.5401556810803
 20
-124.6259846693643
 30
0.0
 10
105.4767659241516
 20
-124.7276149861792
 30
0.0
 10
105.3668673781722
 20
-124.9009032890873
 30
0.0
 10
105.2356092401842
 20
-124.9222628810958
 30
0.0
 10
105.1277777514958
 20
-124.9412109062647
 30
0.0
 10
105.1277777514958
 20
-124.9412109062647
 30
0.0
 10
105.1277777514958
 20
-124.7190022474661
 30
0.0
 10
105.1277777514958
 20
-124.7190022474661
 30
0.0
 10
105.3265597609948
 20
-124.6642252292506
 30
0.0
 10
105.3561875821679
 20
-124.5371012058449
 30
0.0
 10
105.3561875821679
 20
-124.4440836277432
 30
0.0
 10
105.3561875821679
 20
-124.3045572605905
 30
0.0
 10
105.2566243226442
 20
-124.1522840401425
 30
0.0
 10
105.0240803773898
 20
-124.1522840401425
 30
0.0
 10
104.7681097828358
 20
-124.1522840401425
 30
0.0
 10
104.6981743444852
 20
-124.3321180244725
 30
0.0
 10
104.6981743444852
 20
-124.4526963664563
 30
0.0
 10
104.6981743444852
 20
-124.4843912449206
 30
0.0
 10
104.6981743444852
 20
-124.6259846693643
 30
0.0
 10
104.8273654251821
 20
-124.7148681328838
 30
0.0
 10
104.8273654251821
 20
-124.7148681328838
 30
0.0
 10
104.8084174000132
 20
-124.8905680026315
 30
0.0
 10
104.8084174000132
 20
-124.8905680026315
 30
0.0
 10
104.8084174000132
 20
-124.8905680026315
 30
0.0
 10
103.9619574392873
 20
-124.7699896606478
 30
0.0
 10
103.9619574392873
 20
-124.7699896606478
 30
0.0
 10
103.9619574392873
 20
-124.7699896606478
 30
0.0
 10
103.9619574392873
 20
-123.9913980809813
 30
0.0
 10
103.9619574392873
 20
-123.9913980809813
 30
0.0
 10
103.9619574392873
 20
-123.9913980809813
 30
0.0
 10
104.1566053342039
 20
-123.9913980809813
 30
0.0
 10
104.1566053342039
 20
-123.9913980809813
 30
0.0
 10
104.1566053342039
 20
-123.9913980809813
 30
0.0
 10
104.1566053342039
 20
-124.6070366441955
 30
0.0
 10
104.1566053342039
 20
-124.6070366441955
 30
0.0
 10
104.1566053342039
 20
-124.6070366441955
 30
0.0
 10
104.5796630597926
 20
-124.6724934584152
 30
0.0
 10
104.5796630597926
 20
-124.6724934584152
 30
0.0
 10
104.5459011240371
 20
-124.6111707587778
 30
0.0
 10
104.5055935068597
 20
-124.5288329766803
 30
0.0
 10
104.5055935068597
 20
-124.4103216919877
 30
0.0
 10
104.5055935068597
 20
-124.1564181547248
 30
0.0
 10
104.6919731726117
 20
-123.9193955853396
 30
0.0
 10
105.0051323522209
 20
-123.9193955853396
 30
0.0
 10
105.3224256464125
 20
-123.9193955853396
 30
0.0
 10
105.557036648958
 20
-124.1436713014294
 30
0.0
 10
105.557036648958
 20
-124.4461506850343
 30
0.0
  0
HATCH
  5
10F
330
10A
100
AcDbEntity
  8
_U+30EC_U+30A4_U+30E4_U+30FC 1
 62
   179
420
  2234388
100
AcDbHatch
 10
0.0
 20
0.0
 30
0.0
210
0.0
220
0.0
230
1.0
  2
SOLID
 70
     1
 71
     0
 91
        1
 92
        1
 93
        1
 72
     4
 94
        3
 73
     0
 74
     1
 95
       53
 96
       49
 40
0.0
 40
0.0
 40
0.0
 40
0.0
 40
1.0
 40
1.0
 40
1.0
 40
2.0
 40
2.0
 40
2.0
 40
3.0
 40
3.0
 40
3.0
 40
4.0
 40
4.0
 40
4.0
 40
5.0
 40
5.0
 40
5.0
 40
6.0
 40
6.0
 40
6.0
 40
7.0
 40
7.0
 40
7.0
 40
8.0
 40
8.0
 40
8.0
 40
9.0
 40
9.0
 40
9.0
 40
10.0
 40
10.0
 40
10.0
 40
11.0
 40
11.0
 40
11.0
 40
12.0
 40
12.0
 40
12.0
 40
13.0
 40
13.0
 40
13.0
 40
14.0
 40
14.0
 40
14.0
 40
15.0
 40
15.0
 40
15.0
 40
16.0
 40
16.0
 40
16.0
 40
16.0
 10
105.557036648958
 20
-124.4461506850343
 10
105.557036648958
 20
-124.5243543525495
 10
105.5401556810803
 20
-124.6259846693643
 10
105.4767659241516
 20
-124.7276149861792
 10
105.3668673781722
 20
-124.9009032890873
 10
105.2356092401842
 20
-124.9222628810958
 10
105.1277777514958
 20
-124.9412109062647
 10
105.1277777514958
 20
-124.9412109062647
 10
105.1277777514958
 20
-124.7190022474661
 10
105.1277777514958
 20
-124.7190022474661
 10
105.3265597609948
 20
-124.6642252292506
 10
105.3561875821679
 20
-124.5371012058449
 10
105.3561875821679
 20
-124.4440836277432
 10
105.3561875821679
 20
-124.3045572605905
 10
105.2566243226442
 20
-124.1522840401425
 10
105.0240803773898
 20
-124.1522840401425
 10
104.7681097828358
 20
-124.1522840401425
 10
104.6981743444852
 20
-124.3321180244725
 10
104.6981743444852
 20
-124.4526963664563
 10
104.6981743444852
 20
-124.4843912449206
 10
104.6981743444852
 20
-124.6259846693643
 10
104.8273654251821
 20
-124.7148681328838
 10
104.8273654251821
 20
-124.7148681328838
 10
104.8084174000132
 20
-124.8905680026315
 10
104.8084174000132
 20
-124.8905680026315
 10
104.8084174000132
 20
-124.8905680026315
 10
103.9619574392873
 20
-124.7699896606478
 10
103.9619574392873
 20
-124.7699896606478
 10
103.9619574392873
 20
-124.7699896606478
 10
103.9619574392873
 20
-123.9913980809813
 10
103.9619574392873
 20
-123.9913980809813
 10
103.9619574392873
 20
-123.9913980809813
 10
104.1566053342039
 20
-123.9913980809813
 10
104.1566053342039
 20
-123.9913980809813
 10
104.1566053342039
 20
-123.9913980809813
 10
104.1566053342039
 20
-124.6070366441955
 10
104.1566053342039
 20
-124.6070366441955
 10
104.1566053342039
 20
-124.6070366441955
 10
104.5796630597926
 20
-124.6724934584152
 10
104.5796630597926
 20
-124.6724934584152
 10
104.5459011240371
 20
-124.6111707587778
 10
104.5055935068597
 20
-124.5288329766803
 10
104.5055935068597
 20
-124.4103216919877
 10
104.5055935068597
 20
-124.1564181547248
 10
104.6919731726117
 20
-123.9193955853396
 10
105.0051323522209
 20
-123.9193955853396
 10
105.3224256464125
 20
-123.9193955853396
 10
105.557036648958
 20
-124.1436713014294
 10
105.557036648958
 20
-124.4461506850343
 97
        0
 97
        0
 75
     2
 76
     1
 98
        0
  0
SPLINE
  5
110
330
10A
100
AcDbEntity
  8
_U+30EC_U+30A4_U+30E4_U+30FC 1
370
     0
100
AcDbSpline
210
0.0
220
0.0
230
1.0
 70
    11
 71
     3
 72
    29
 73
    25
 74
     0
 42
0.0000000001
 43
0.0000000001
 12
1.0
 22
0.0
 32
0.0
 13
1.0
 23
0.0
 33
0.0
 40
0.0
 40
0.0
 40
0.0
 40
0.0
 40
1.0
 40
1.0
 40
1.0
 40
2.0
 40
2.0
 40
2.0
 40
3.0
 40
3.0
 40
3.0
 40
4.0
 40
4.0
 40
4.0
 40
5.0
 40
5.0
 40
5.0
 40
6.0
 40
6.0
 40
6.0
 40
7.0
 40
7.0
 40
7.0
 40
8.0
 40
8.0
 40
8.0
 40
8.0
 10
105.3286268182859
 20
-122.8524495135577
 30
0.0
 10
105.5380886237891
 20
-122.9606255117946
 30
0.0
 10
105.557036648958
 20
-123.1339138147026
 30
0.0
 10
105.557036648958
 20
-123.2503580421041
 30
0.0
 10
105.557036648958
 20
-123.4112440012652
 30
0.0
 10
105.5105278599071
 20
-123.552837425709
 30
0.0
 10
105.3286268182859
 20
-123.6479220611019
 30
0.0
 10
105.1339789233693
 20
-123.7516194352079
 30
0.0
 10
104.8969563539841
 20
-123.7705674603768
 30
0.0
 10
104.7343478470803
 20
-123.7705674603768
 30
0.0
 10
104.5903428557969
 20
-123.7705674603768
 30
0.0
 10
104.3385063758251
 20
-123.7536864924991
 30
0.0
 10
104.1397243663262
 20
-123.6479220611019
 30
0.0
 10
103.936808242245
 20
-123.5400905724136
 30
0.0
 10
103.9133815929453
 20
-123.3792046132524
 30
0.0
 10
103.9133815929453
 20
-123.2503580421041
 30
0.0
 10
103.9133815929453
 20
-123.0915391402341
 30
0.0
 10
103.957823324705
 20
-122.9478786584991
 30
0.0
 10
104.1397243663262
 20
-122.8524495135577
 30
0.0
 10
104.3323052039516
 20
-122.7532307635825
 30
0.0
 10
104.5607150346237
 20
-122.7298041142828
 30
0.0
 10
104.7343478470803
 20
-122.7298041142828
 30
0.0
 10
104.9055690926972
 20
-122.7298041142828
 30
0.0
 10
105.1360459806604
 20
-122.7511637062914
 30
0.0
 10
105.3286268182859
 20
-122.8524495135577
 30
0.0
  0
SPLINE
  5
111
330
10A
100
AcDbEntity
  8
_U+30EC_U+30A4_U+30E4_U+30FC 1
370
     0
100
AcDbSpline
210
0.0
220
0.0
230
1.0
 70
    11
 71
     3
 72
    17
 73
    13
 74
     0
 42
0.0000000001
 43
0.0000000001
 12
1.0
 22
0.0
 32
0.0
 13
1.0
 23
0.0
 33
0.0
 40
0.0
 40
0.0
 40
0.0
 40
0.0
 40
1.0
 40
1.0
 40
1.0
 40
2.0
 40
2.0
 40
2.0
 40
3.0
 40
3.0
 40
3.0
 40
4.0
 40
4.0
 40
4.0
 40
4.0
 10
104.1059624305707
 20
-123.2503580421041
 30
0.0
 10
104.1059624305707
 20
-123.4997829552362
 30
0.0
 10
104.3894937890068
 20
-123.5466362538356
 30
0.0
 10
104.7343478470803
 20
-123.5466362538356
 30
0.0
 10
105.053708198563
 20
-123.5466362538356
 30
0.0
 10
105.3623887540413
 20
-123.5104627512404
 30
0.0
 10
105.3623887540413
 20
-123.2503580421041
 30
0.0
 10
105.3623887540413
 20
-123.0026556767146
 30
0.0
 10
105.081268962445
 20
-122.9540798303726
 30
0.0
 10
104.7343478470803
 20
-122.9540798303726
 30
0.0
 10
104.4146429860491
 20
-122.9540798303726
 30
0.0
 10
104.1059624305707
 20
-122.9923203902589
 30
0.0
 10
104.1059624305707
 20
-123.2503580421041
 30
0.0
  0
HATCH
  5
112
330
10A
100
AcDbEntity
  8
_U+30EC_U+30A4_U+30E4_U+30FC 1
 62
   179
420
  2234388
100
AcDbHatch
 10
0.0
 20
0.0
 30
0.0
210
0.0
220
0.0
230
1.0
  2
SOLID
 70
     1
 71
     0
 91
        2
 92
        1
 93
        1
 72
     4
 94
        3
 73
     0
 74
     1
 95
       29
 96
       25
 40
0.0
 40
0.0
 40
0.0
 40
0.0
 40
1.0
 40
1.0
 40
1.0
 40
2.0
 40
2.0
 40
2.0
 40
3.0
 40
3.0
 40
3.0
 40
4.0
 40
4.0
 40
4.0
 40
5.0
 40
5.0
 40
5.0
 40
6.0
 40
6.0
 40
6.0
 40
7.0
 40
7.0
 40
7.0
 40
8.0
 40
8.0
 40
8.0
 40
8.0
 10
105.3286268182859
 20
-122.8524495135577
 10
105.5380886237891
 20
-122.9606255117946
 10
105.557036648958
 20
-123.1339138147026
 10
105.557036648958
 20
-123.2503580421041
 10
105.557036648958
 20
-123.4112440012652
 10
105.5105278599071
 20
-123.552837425709
 10
105.3286268182859
 20
-123.6479220611019
 10
105.1339789233693
 20
-123.7516194352079
 10
104.8969563539841
 20
-123.7705674603768
 10
104.7343478470803
 20
-123.7705674603768
 10
104.5903428557969
 20
-123.7705674603768
 10
104.3385063758251
 20
-123.7536864924991
 10
104.1397243663262
 20
-123.6479220611019
 10
103.936808242245
 20
-123.5400905724136
 10
103.9133815929453
 20
-123.3792046132524
 10
103.9133815929453
 20
-123.2503580421041
 10
103.9133815929453
 20
-123.0915391402341
 10
103.957823324705
 20
-122.9478786584991
 10
104.1397243663262
 20
-122.8524495135577
 10
104.3323052039516
 20
-122.7532307635825
 10
104.5607150346237
 20
-122.7298041142828
 10
104.7343478470803
 20
-122.7298041142828
 10
104.9055690926972
 20
-122.7298041142828
 10
105.1360459806604
 20
-122.7511637062914
 10
105.3286268182859
 20
-122.8524495135577
 97
        0
 97
        0
 92
        1
 93
        1
 72
     4
 94
        3
 73
     0
 74
     1
 95
       17
 96
       13
 40
0.0
 40
0.0
 40
0.0
 40
0.0
 40
1.0
 40
1.0
 40
1.0
 40
2.0
 40
2.0
 40
2.0
 40
3.0
 40
3.0
 40
3.0
 40
4.0
 40
4.0
 40
4.0
 40
4.0
 10
104.1059624305707
 20
-123.2503580421041
 10
104.1059624305707
 20
-123.4997829552362
 10
104.3894937890068
 20
-123.5466362538356
 10
104.7343478470803
 20
-123.5466362538356
 10
105.053708198563
 20
-123.5466362538356
 10
105.3623887540413
 20
-123.5104627512404
 10
105.3623887540413
 20
-123.2503580421041
 10
105.3623887540413
 20
-123.0026556767146
 10
105.081268962445
 20
-122.9540798303726
 10
104.7343478470803
 20
-122.9540798303726
 10
104.4146429860491
 20
-122.9540798303726
 10
104.1059624305707
 20
-122.9923203902589
 10
104.1059624305707
 20
-123.2503580421041
 97
        0
 97
        0
 75
     2
 76
     1
 98
        0
  0
ENDBLK
  5
10D
330
10A
100
AcDbEntity
  8
0
100
AcDbBlockEnd
  0
BLOCK
  5
115
330
113
100
AcDbEntity
  8
0
100
AcDbBlockBegin
  2
block 5
 70
     0
 10
0.0
 20
0.0
 30
0.0
  3
block 5
  1

  0
SPLINE
  5
117
330
113
100
AcDbEntity
  8
_U+30EC_U+30A4_U+30E4_U+30FC 1
370
     0
100
AcDbSpline
210
0.0
220
0.0
230
1.0
 70
    11
 71
     3
 72
    26
 73
    22
 74
     0
 42
0.0000000001
 43
0.0000000001
 12
1.0
 22
0.0
 32
0.0
 13
1.0
 23
0.0
 33
0.0
 40
0.0
 40
0.0
 40
0.0
 40
0.0
 40
1.0
 40
1.0
 40
1.0
 40
2.0
 40
2.0
 40
2.0
 40
3.0
 40
3.0
 40
3.0
 40
4.0
 40
4.0
 40
4.0
 40
5.0
 40
5.0
 40
5.0
 40
6.0
 40
6.0
 40
6.0
 40
7.0
 40
7.0
 40
7.0
 40
7.0
 10
105.5063937453248
 20
-154.3761067322393
 30
0.0
 10
105.5063937453248
 20
-154.3761067322393
 30
0.0
 10
104.4022406423022
 20
-154.3761067322393
 30
0.0
 10
104.4022406423022
 20
-154.3761067322393
 30
0.0
 10
104.4022406423022
 20
-154.3761067322393
 30
0.0
 10
104.4022406423022
 20
-154.7061468797262
 30
0.0
 10
104.4022406423022
 20
-154.7061468797262
 30
0.0
 10
104.4022406423022
 20
-154.7061468797262
 30
0.0
 10
104.2541015364365
 20
-154.7061468797262
 30
0.0
 10
104.2541015364365
 20
-154.7061468797262
 30
0.0
 10
104.2392876258499
 20
-154.3740396749482
 30
0.0
 10
104.0763346093976
 20
-154.3275308858973
 30
0.0
 10
103.9619574392873
 20
-154.2979030647242
 30
0.0
 10
103.9619574392873
 20
-154.2979030647242
 30
0.0
 10
103.9619574392873
 20
-154.1518310161495
 30
0.0
 10
103.9619574392873
 20
-154.1518310161495
 30
0.0
 10
103.9619574392873
 20
-154.1518310161495
 30
0.0
 10
105.5063937453248
 20
-154.1518310161495
 30
0.0
 10
105.5063937453248
 20
-154.1518310161495
 30
0.0
 10
105.5063937453248
 20
-154.1518310161495
 30
0.0
 10
105.5063937453248
 20
-154.3761067322393
 30
0.0
 10
105.5063937453248
 20
-154.3761067322393
 30
0.0
  0
HATCH
  5
118
330
113
100
AcDbEntity
  8
_U+30EC_U+30A4_U+30E4_U+30FC 1
 62
   179
420
  2234388
100
AcDbHatch
 10
0.0
 20
0.0
 30
0.0
210
0.0
220
0.0
230
1.0
  2
SOLID
 70
     1
 71
     0
 91
        1
 92
        1
 93
        1
 72
     4
 94
        3
 73
     0
 74
     1
 95
       26
 96
       22
 40
0.0
 40
0.0
 40
0.0
 40
0.0
 40
1.0
 40
1.0
 40
1.0
 40
2.0
 40
2.0
 40
2.0
 40
3.0
 40
3.0
 40
3.0
 40
4.0
 40
4.0
 40
4.0
 40
5.0
 40
5.0
 40
5.0
 40
6.0
 40
6.0
 40
6.0
 40
7.0
 40
7.0
 40
7.0
 40
7.0
 10
105.5063937453248
 20
-154.3761067322393
 10
105.5063937453248
 20
-154.3761067322393
 10
104.4022406423022
 20
-154.3761067322393
 10
104.4022406423022
 20
-154.3761067322393
 10
104.4022406423022
 20
-154.3761067322393
 10
104.4022406423022
 20
-154.7061468797262
 10
104.4022406423022
 20
-154.7061468797262
 10
104.4022406423022
 20
-154.7061468797262
 10
104.2541015364365
 20
-154.7061468797262
 10
104.2541015364365
 20
-154.7061468797262
 10
104.2392876258499
 20
-154.3740396749482
 10
104.0763346093976
 20
-154.3275308858973
 10
103.9619574392873
 20
-154.2979030647242
 10
103.9619574392873
 20
-154.2979030647242
 10
103.9619574392873
 20
-154.1518310161495
 10
103.9619574392873
 20
-154.1518310161495
 10
103.9619574392873
 20
-154.1518310161495
 10
105.5063937453248
 20
-154.1518310161495
 10
105.5063937453248
 20
-154.1518310161495
 10
105.5063937453248
 20
-154.1518310161495
 10
105.5063937453248
 20
-154.3761067322393
 10
105.5063937453248
 20
-154.3761067322393
 97
        0
 97
        0
 75
     2
 76
     1
 98
        0
  0
SPLINE
  5
119
330
113
100
AcDbEntity
  8
_U+30EC_U+30A4_U+30E4_U+30FC 1
370
     0
100
AcDbSpline
210
0.0
220
0.0
230
1.0
 70
    11
 71
     3
 72
    29
 73
    25
 74
     0
 42
0.0000000001
 43
0.0000000001
 12
1.0
 22
0.0
 32
0.0
 13
1.0
 23
0.0
 33
0.0
 40
0.0
 40
0.0
 40
0.0
 40
0.0
 40
1.0
 40
1.0
 40
1.0
 40
2.0
 40
2.0
 40
2.0
 40
3.0
 40
3.0
 40
3.0
 40
4.0
 40
4.0
 40
4.0
 40
5.0
 40
5.0
 40
5.0
 40
6.0
 40
6.0
 40
6.0
 40
7.0
 40
7.0
 40
7.0
 40
8.0
 40
8.0
 40
8.0
 40
8.0
 10
105.3286268182859
 20
-152.7527777395896
 30
0.0
 10
105.5380886237891
 20
-152.8609537378264
 30
0.0
 10
105.557036648958
 20
-153.0342420407345
 30
0.0
 10
105.557036648958
 20
-153.150686268136
 30
0.0
 10
105.557036648958
 20
-153.3115722272971
 30
0.0
 10
105.5105278599071
 20
-153.4531656517409
 30
0.0
 10
105.3286268182859
 20
-153.5482502871338
 30
0.0
 10
105.1339789233693
 20
-153.6519476612398
 30
0.0
 10
104.8969563539841
 20
-153.6712401959572
 30
0.0
 10
104.7343478470803
 20
-153.6712401959572
 30
0.0
 10
104.5903428557969
 20
-153.6712401959572
 30
0.0
 10
104.3385063758251
 20
-153.654014718531
 30
0.0
 10
104.1397243663262
 20
-153.5482502871338
 30
0.0
 10
103.936808242245
 20
-153.4404187984454
 30
0.0
 10
103.9133815929453
 20
-153.2795328392843
 30
0.0
 10
103.9133815929453
 20
-153.150686268136
 30
0.0
 10
103.9133815929453
 20
-152.9918673662659
 30
0.0
 10
103.957823324705
 20
-152.848206884531
 30
0.0
 10
104.1397243663262
 20
-152.7527777395896
 30
0.0
 10
104.3323052039516
 20
-152.6535589896144
 30
0.0
 10
104.5607150346237
 20
-152.6301323403147
 30
0.0
 10
104.7343478470803
 20
-152.6301323403147
 30
0.0
 10
104.9055690926972
 20
-152.6301323403147
 30
0.0
 10
105.1360459806604
 20
-152.6514919323232
 30
0.0
 10
105.3286268182859
 20
-152.7527777395896
 30
0.0
  0
SPLINE
  5
11A
330
113
100
AcDbEntity
  8
_U+30EC_U+30A4_U+30E4_U+30FC 1
370
     0
100
AcDbSpline
210
0.0
220
0.0
230
1.0
 70
    11
 71
     3
 72
    17
 73
    13
 74
     0
 42
0.0000000001
 43
0.0000000001
 12
1.0
 22
0.0
 32
0.0
 13
1.0
 23
0.0
 33
0.0
 40
0.0
 40
0.0
 40
0.0
 40
0.0
 40
1.0
 40
1.0
 40
1.0
 40
2.0
 40
2.0
 40
2.0
 40
3.0
 40
3.0
 40
3.0
 40
4.0
 40
4.0
 40
4.0
 40
4.0
 10
104.1059624305707
 20
-153.150686268136
 30
0.0
 10
104.1059624305707
 20
-153.4004556908166
 30
0.0
 10
104.3894937890068
 20
-153.4469644798674
 30
0.0
 10
104.7343478470803
 20
-153.4469644798674
 30
0.0
 10
105.053708198563
 20
-153.4469644798674
 30
0.0
 10
105.3623887540413
 20
-153.4107909772723
 30
0.0
 10
105.3623887540413
 20
-153.150686268136
 30
0.0
 10
105.3623887540413
 20
-152.9029839027465
 30
0.0
 10
105.081268962445
 20
-152.8544080564045
 30
0.0
 10
104.7343478470803
 20
-152.8544080564045
 30
0.0
 10
104.4146429860491
 20
-152.8544080564045
 30
0.0
 10
104.1059624305707
 20
-152.8926486162907
 30
0.0
 10
104.1059624305707
 20
-153.150686268136
 30
0.0
  0
HATCH
  5
11B
330
113
100
AcDbEntity
  8
_U+30EC_U+30A4_U+30E4_U+30FC 1
 62
   179
420
  2234388
100
AcDbHatch
 10
0.0
 20
0.0
 30
0.0
210
0.0
220
0.0
230
1.0
  2
SOLID
 70
     1
 71
     0
 91
        2
 92
        1
 93
        1
 72
     4
 94
        3
 73
     0
 74
     1
 95
       29
 96
       25
 40
0.0
 40
0.0
 40
0.0
 40
0.0
 40
1.0
 40
1.0
 40
1.0
 40
2.0
 40
2.0
 40
2.0
 40
3.0
 40
3.0
 40
3.0
 40
4.0
 40
4.0
 40
4.0
 40
5.0
 40
5.0
 40
5.0
 40
6.0
 40
6.0
 40
6.0
 40
7.0
 40
7.0
 40
7.0
 40
8.0
 40
8.0
 40
8.0
 40
8.0
 10
105.3286268182859
 20
-152.7527777395896
 10
105.5380886237891
 20
-152.8609537378264
 10
105.557036648958
 20
-153.0342420407345
 10
105.557036648958
 20
-153.150686268136
 10
105.557036648958
 20
-153.3115722272971
 10
105.5105278599071
 20
-153.4531656517409
 10
105.3286268182859
 20
-153.5482502871338
 10
105.1339789233693
 20
-153.6519476612398
 10
104.8969563539841
 20
-153.6712401959572
 10
104.7343478470803
 20
-153.6712401959572
 10
104.5903428557969
 20
-153.6712401959572
 10
104.3385063758251
 20
-153.654014718531
 10
104.1397243663262
 20
-153.5482502871338
 10
103.936808242245
 20
-153.4404187984454
 10
103.9133815929453
 20
-153.2795328392843
 10
103.9133815929453
 20
-153.150686268136
 10
103.9133815929453
 20
-152.9918673662659
 10
103.957823324705
 20
-152.848206884531
 10
104.1397243663262
 20
-152.7527777395896
 10
104.3323052039516
 20
-152.6535589896144
 10
104.5607150346237
 20
-152.6301323403147
 10
104.7343478470803
 20
-152.6301323403147
 10
104.9055690926972
 20
-152.6301323403147
 10
105.1360459806604
 20
-152.6514919323232
 10
105.3286268182859
 20
-152.7527777395896
 97
        0
 97
        0
 92
        1
 93
        1
 72
     4
 94
        3
 73
     0
 74
     1
 95
       17
 96
       13
 40
0.0
 40
0.0
 40
0.0
 40
0.0
 40
1.0
 40
1.0
 40
1.0
 40
2.0
 40
2.0
 40
2.0
 40
3.0
 40
3.0
 40
3.0
 40
4.0
 40
4.0
 40
4.0
 40
4.0
 10
104.1059624305707
 20
-153.150686268136
 10
104.1059624305707
 20
-153.4004556908166
 10
104.3894937890068
 20
-153.4469644798674
 10
104.7343478470803
 20
-153.4469644798674
 10
105.053708198563
 20
-153.4469644798674
 10
105.3623887540413
 20
-153.4107909772723
 10
105.3623887540413
 20
-153.150686268136
 10
105.3623887540413
 20
-152.9029839027465
 10
105.081268962445
 20
-152.8544080564045
 10
104.7343478470803
 20
-152.8544080564045
 10
104.4146429860491
 20
-152.8544080564045
 10
104.1059624305707
 20
-152.8926486162907
 10
104.1059624305707
 20
-153.150686268136
 97
        0
 97
        0
 75
     2
 76
     1
 98
        0
  0
ENDBLK
  5
116
330
113
100
AcDbEntity
  8
0
100
AcDbBlockEnd
  0
BLOCK
  5
11E
330
11C
100
AcDbEntity
  8
0
100
AcDbBlockBegin
  2
block 6
 70
     0
 10
0.0
 20
0.0
 30
0.0
  3
block 6
  1

  0
SPLINE
  5
120
330
11C
100
AcDbEntity
  8
_U+30EC_U+30A4_U+30E4_U+30FC 1
370
     0
100
AcDbSpline
210
0.0
220
0.0
230
1.0
 70
    11
 71
     3
 72
    62
 73
    58
 74
     0
 42
0.0000000001
 43
0.0000000001
 12
1.0
 22
0.0
 32
0.0
 13
1.0
 23
0.0
 33
0.0
 40
0.0
 40
0.0
 40
0.0
 40
0.0
 40
1.0
 40
1.0
 40
1.0
 40
2.0
 40
2.0
 40
2.0
 40
3.0
 40
3.0
 40
3.0
 40
4.0
 40
4.0
 40
4.0
 40
5.0
 40
5.0
 40
5.0
 40
6.0
 40
6.0
 40
6.0
 40
7.0
 40
7.0
 40
7.0
 40
8.0
 40
8.0
 40
8.0
 40
9.0
 40
9.0
 40
9.0
 40
10.0
 40
10.0
 40
10.0
 40
11.0
 40
11.0
 40
11.0
 40
12.0
 40
12.0
 40
12.0
 40
13.0
 40
13.0
 40
13.0
 40
14.0
 40
14.0
 40
14.0
 40
15.0
 40
15.0
 40
15.0
 40
16.0
 40
16.0
 40
16.0
 40
17.0
 40
17.0
 40
17.0
 40
18.0
 40
18.0
 40
18.0
 40
19.0
 40
19.0
 40
19.0
 40
19.0
 10
105.5563476298609
 20
-160.2468939486536
 30
0.0
 10
105.5563476298609
 20
-160.342323093595
 30
0.0
 10
105.5353325474009
 20
-160.5600531282628
 30
0.0
 10
105.3492973911974
 20
-160.6851100943773
 30
0.0
 10
105.2369872783783
 20
-160.7591796473102
 30
0.0
 10
105.1377685284031
 20
-160.7633137618925
 30
0.0
 10
105.0530191794659
 20
-160.7674478764748
 30
0.0
 10
105.0530191794659
 20
-160.7674478764748
 30
0.0
 10
105.0530191794659
 20
-160.5473062749674
 30
0.0
 10
105.0530191794659
 20
-160.5473062749674
 30
0.0
 10
105.1270887323988
 20
-160.5452392176762
 30
0.0
 10
105.3616997349443
 20
-160.5349039312204
 30
0.0
 10
105.3616997349443
 20
-160.2513725727844
 30
0.0
 10
105.3616997349443
 20
-160.1139132629229
 30
0.0
 10
105.2921088061423
 20
-159.9612955329264
 30
0.0
 10
105.0636989754702
 20
-159.9612955329264
 30
0.0
 10
104.9472547480687
 20
-159.9612955329264
 30
0.0
 10
104.8986789017267
 20
-159.9995360928126
 30
0.0
 10
104.8669840232624
 20
-160.0312309712769
 30
0.0
 10
104.7929144703295
 20
-160.1053005242098
 30
0.0
 10
104.7801676170341
 20
-160.2217447516112
 30
0.0
 10
104.7801676170341
 20
-160.2765217698267
 30
0.0
 10
104.7801676170341
 20
-160.2958143045441
 30
0.0
 10
104.7822346743253
 20
-160.3316432975907
 30
0.0
 10
104.7863687889076
 20
-160.3592040614727
 30
0.0
 10
104.7863687889076
 20
-160.3592040614727
 30
0.0
 10
104.591720893991
 20
-160.3592040614727
 30
0.0
 10
104.591720893991
 20
-160.3592040614727
 30
0.0
 10
104.5982665754129
 20
-160.3209635015864
 30
0.0
 10
104.6003336327041
 20
-160.2789333366664
 30
0.0
 10
104.6003336327041
 20
-160.2723876552444
 30
0.0
 10
104.6003336327041
 20
-160.2069308410247
 30
0.0
 10
104.5789740406955
 20
-160.0081488315257
 30
0.0
 10
104.3422959808589
 20
-160.0081488315257
 30
0.0
 10
104.16452905382
 20
-160.0081488315257
 30
0.0
 10
104.109407526056
 20
-160.1390624599652
 30
0.0
 10
104.109407526056
 20
-160.2493055154932
 30
0.0
 10
104.109407526056
 20
-160.5135443392119
 30
0.0
 10
104.3422959808589
 20
-160.522157077925
 30
0.0
 10
104.4139539669521
 20
-160.5262911925073
 30
0.0
 10
104.4139539669521
 20
-160.5262911925073
 30
0.0
 10
104.4139539669521
 20
-160.7295518261371
 30
0.0
 10
104.4139539669521
 20
-160.7295518261371
 30
0.0
 10
104.289241510386
 20
-160.7209390874239
 30
0.0
 10
103.9126925738482
 20
-160.6933783235419
 30
0.0
 10
103.9126925738482
 20
-160.2365586621978
 30
0.0
 10
103.9126925738482
 20
-160.0122829461081
 30
0.0
 10
104.0398165972539
 20
-159.7711262621406
 30
0.0
 10
104.3357502994369
 20
-159.7711262621406
 30
0.0
 10
104.5221299651889
 20
-159.7711262621406
 30
0.0
 10
104.6044677472864
 20
-159.8662108975334
 30
0.0
 10
104.6657904469238
 20
-159.9657741570572
 30
0.0
 10
104.6933512108058
 20
-159.9044514574197
 30
0.0
 10
104.7736219356122
 20
-159.7225504157985
 30
0.0
 10
105.0509521221748
 20
-159.7225504157985
 30
0.0
 10
105.3892604988263
 20
-159.7225504157985
 30
0.0
 10
105.5563476298609
 20
-159.9699082716395
 30
0.0
 10
105.5563476298609
 20
-160.2468939486536
 30
0.0
  0
HATCH
  5
121
330
11C
100
AcDbEntity
  8
_U+30EC_U+30A4_U+30E4_U+30FC 1
 62
   179
420
  2234388
100
AcDbHatch
 10
0.0
 20
0.0
 30
0.0
210
0.0
220
0.0
230
1.0
  2
SOLID
 70
     1
 71
     0
 91
        1
 92
        1
 93
        1
 72
     4
 94
        3
 73
     0
 74
     1
 95
       62
 96
       58
 40
0.0
 40
0.0
 40
0.0
 40
0.0
 40
1.0
 40
1.0
 40
1.0
 40
2.0
 40
2.0
 40
2.0
 40
3.0
 40
3.0
 40
3.0
 40
4.0
 40
4.0
 40
4.0
 40
5.0
 40
5.0
 40
5.0
 40
6.0
 40
6.0
 40
6.0
 40
7.0
 40
7.0
 40
7.0
 40
8.0
 40
8.0
 40
8.0
 40
9.0
 40
9.0
 40
9.0
 40
10.0
 40
10.0
 40
10.0
 40
11.0
 40
11.0
 40
11.0
 40
12.0
 40
12.0
 40
12.0
 40
13.0
 40
13.0
 40
13.0
 40
14.0
 40
14.0
 40
14.0
 40
15.0
 40
15.0
 40
15.0
 40
16.0
 40
16.0
 40
16.0
 40
17.0
 40
17.0
 40
17.0
 40
18.0
 40
18.0
 40
18.0
 40
19.0
 40
19.0
 40
19.0
 40
19.0
 10
105.5563476298609
 20
-160.2468939486536
 10
105.5563476298609
 20
-160.342323093595
 10
105.5353325474009
 20
-160.5600531282628
 10
105.3492973911974
 20
-160.6851100943773
 10
105.2369872783783
 20
-160.7591796473102
 10
105.1377685284031
 20
-160.7633137618925
 10
105.0530191794659
 20
-160.7674478764748
 10
105.0530191794659
 20
-160.7674478764748
 10
105.0530191794659
 20
-160.5473062749674
 10
105.0530191794659
 20
-160.5473062749674
 10
105.1270887323988
 20
-160.5452392176762
 10
105.3616997349443
 20
-160.5349039312204
 10
105.3616997349443
 20
-160.2513725727844
 10
105.3616997349443
 20
-160.1139132629229
 10
105.2921088061423
 20
-159.9612955329264
 10
105.0636989754702
 20
-159.9612955329264
 10
104.9472547480687
 20
-159.9612955329264
 10
104.8986789017267
 20
-159.9995360928126
 10
104.8669840232624
 20
-160.0312309712769
 10
104.7929144703295
 20
-160.1053005242098
 10
104.7801676170341
 20
-160.2217447516112
 10
104.7801676170341
 20
-160.2765217698267
 10
104.7801676170341
 20
-160.2958143045441
 10
104.7822346743253
 20
-160.3316432975907
 10
104.7863687889076
 20
-160.3592040614727
 10
104.7863687889076
 20
-160.3592040614727
 10
104.591720893991
 20
-160.3592040614727
 10
104.591720893991
 20
-160.3592040614727
 10
104.5982665754129
 20
-160.3209635015864
 10
104.6003336327041
 20
-160.2789333366664
 10
104.6003336327041
 20
-160.2723876552444
 10
104.6003336327041
 20
-160.2069308410247
 10
104.5789740406955
 20
-160.0081488315257
 10
104.3422959808589
 20
-160.0081488315257
 10
104.16452905382
 20
-160.0081488315257
 10
104.109407526056
 20
-160.1390624599652
 10
104.109407526056
 20
-160.2493055154932
 10
104.109407526056
 20
-160.5135443392119
 10
104.3422959808589
 20
-160.522157077925
 10
104.4139539669521
 20
-160.5262911925073
 10
104.4139539669521
 20
-160.5262911925073
 10
104.4139539669521
 20
-160.7295518261371
 10
104.4139539669521
 20
-160.7295518261371
 10
104.289241510386
 20
-160.7209390874239
 10
103.9126925738482
 20
-160.6933783235419
 10
103.9126925738482
 20
-160.2365586621978
 10
103.9126925738482
 20
-160.0122829461081
 10
104.0398165972539
 20
-159.7711262621406
 10
104.3357502994369
 20
-159.7711262621406
 10
104.5221299651889
 20
-159.7711262621406
 10
104.6044677472864
 20
-159.8662108975334
 10
104.6657904469238
 20
-159.9657741570572
 10
104.6933512108058
 20
-159.9044514574197
 10
104.7736219356122
 20
-159.7225504157985
 10
105.0509521221748
 20
-159.7225504157985
 10
105.3892604988263
 20
-159.7225504157985
 10
105.5563476298609
 20
-159.9699082716395
 10
105.5563476298609
 20
-160.2468939486536
 97
        0
 97
        0
 75
     2
 76
     1
 98
        0
  0
ENDBLK
  5
11F
330
11C
100
AcDbEntity
  8
0
100
AcDbBlockEnd
  0
BLOCK
  5
124
330
122
100
AcDbEntity
  8
0
100
AcDbBlockBegin
  2
block 7
 70
     0
 10
0.0
 20
0.0
 30
0.0
  3
block 7
  1

  0
SPLINE
  5
126
330
122
100
AcDbEntity
  8
_U+30EC_U+30A4_U+30E4_U+30FC 1
370
     0
100
AcDbSpline
210
0.0
220
0.0
230
1.0
 70
    11
 71
     3
 72
    44
 73
    40
 74
     0
 42
0.0000000001
 43
0.0000000001
 12
1.0
 22
0.0
 32
0.0
 13
1.0
 23
0.0
 33
0.0
 40
0.0
 40
0.0
 40
0.0
 40
0.0
 40
1.0
 40
1.0
 40
1.0
 40
2.0
 40
2.0
 40
2.0
 40
3.0
 40
3.0
 40
3.0
 40
4.0
 40
4.0
 40
4.0
 40
5.0
 40
5.0
 40
5.0
 40
6.0
 40
6.0
 40
6.0
 40
7.0
 40
7.0
 40
7.0
 40
8.0
 40
8.0
 40
8.0
 40
9.0
 40
9.0
 40
9.0
 40
10.0
 40
10.0
 40
10.0
 40
11.0
 40
11.0
 40
11.0
 40
12.0
 40
12.0
 40
12.0
 40
13.0
 40
13.0
 40
13.0
 40
13.0
 10
77.07229815781527
 20
-152.2342908690595
 30
0.0
 10
77.23111705968527
 20
-152.4520209037273
 30
0.0
 10
77.30518661261816
 20
-152.545038481829
 30
0.0
 10
77.44884709435307
 20
-152.5939588377196
 30
0.0
 10
77.44884709435307
 20
-152.5939588377196
 30
0.0
 10
77.44884709435307
 20
-151.8153672580531
 30
0.0
 10
77.44884709435307
 20
-151.8153672580531
 30
0.0
 10
77.44884709435307
 20
-151.8153672580531
 30
0.0
 10
77.65417478527397
 20
-151.8153672580531
 30
0.0
 10
77.65417478527397
 20
-151.8153672580531
 30
0.0
 10
77.65417478527397
 20
-151.8153672580531
 30
0.0
 10
77.65417478527397
 20
-152.8433837508517
 30
0.0
 10
77.65417478527397
 20
-152.8433837508517
 30
0.0
 10
77.29657387390503
 20
-152.8116888723874
 30
0.0
 10
77.21837020638985
 20
-152.7462320581676
 30
0.0
 10
76.92002493736722
 20
-152.3610703829167
 30
0.0
 10
76.7212429278683
 20
-152.1050997883626
 30
0.0
 10
76.65337454680888
 20
-152.0396429741429
 30
0.0
 10
76.51591523694741
 20
-152.0396429741429
 30
0.0
 10
76.39740395225482
 20
-152.0396429741429
 30
0.0
 10
76.26649032381532
 20
-152.1116454697846
 30
0.0
 10
76.26649032381532
 20
-152.3083604219923
 30
0.0
 10
76.26649032381532
 20
-152.5684651311287
 30
0.0
 10
76.49696721177854
 20
-152.5770778698418
 30
0.0
 10
76.61341143917998
 20
-152.5812119844242
 30
0.0
 10
76.61341143917998
 20
-152.5812119844242
 30
0.0
 10
76.61341143917998
 20
-152.8054877005139
 30
0.0
 10
76.61341143917998
 20
-152.8054877005139
 30
0.0
 10
76.48628741577427
 20
-152.7968749618008
 30
0.0
 10
76.37432181250365
 20
-152.7861951657965
 30
0.0
 10
76.25581052781105
 20
-152.7059244409902
 30
0.0
 10
76.09492456864989
 20
-152.5960258950107
 30
0.0
 10
76.06116263289444
 20
-152.4096462292587
 30
0.0
 10
76.06116263289444
 20
-152.2935465114058
 30
0.0
 10
76.06116263289444
 20
-152.0162163248432
 30
0.0
 10
76.24513073180678
 20
-151.8088215766311
 30
0.0
 10
76.51798229423856
 20
-151.8088215766311
 30
0.0
 10
76.74673663445915
 20
-151.8088215766311
 30
0.0
 10
76.84595538443435
 20
-151.9252658040326
 30
0.0
 10
77.07229815781527
 20
-152.2342908690595
 30
0.0
  0
HATCH
  5
127
330
122
100
AcDbEntity
  8
_U+30EC_U+30A4_U+30E4_U+30FC 1
 62
   179
420
  2234388
100
AcDbHatch
 10
0.0
 20
0.0
 30
0.0
210
0.0
220
0.0
230
1.0
  2
SOLID
 70
     1
 71
     0
 91
        1
 92
        1
 93
        1
 72
     4
 94
        3
 73
     0
 74
     1
 95
       44
 96
       40
 40
0.0
 40
0.0
 40
0.0
 40
0.0
 40
1.0
 40
1.0
 40
1.0
 40
2.0
 40
2.0
 40
2.0
 40
3.0
 40
3.0
 40
3.0
 40
4.0
 40
4.0
 40
4.0
 40
5.0
 40
5.0
 40
5.0
 40
6.0
 40
6.0
 40
6.0
 40
7.0
 40
7.0
 40
7.0
 40
8.0
 40
8.0
 40
8.0
 40
9.0
 40
9.0
 40
9.0
 40
10.0
 40
10.0
 40
10.0
 40
11.0
 40
11.0
 40
11.0
 40
12.0
 40
12.0
 40
12.0
 40
13.0
 40
13.0
 40
13.0
 40
13.0
 10
77.07229815781527
 20
-152.2342908690595
 10
77.23111705968527
 20
-152.4520209037273
 10
77.30518661261816
 20
-152.545038481829
 10
77.44884709435307
 20
-152.5939588377196
 10
77.44884709435307
 20
-152.5939588377196
 10
77.44884709435307
 20
-151.8153672580531
 10
77.44884709435307
 20
-151.8153672580531
 10
77.44884709435307
 20
-151.8153672580531
 10
77.65417478527397
 20
-151.8153672580531
 10
77.65417478527397
 20
-151.8153672580531
 10
77.65417478527397
 20
-151.8153672580531
 10
77.65417478527397
 20
-152.8433837508517
 10
77.65417478527397
 20
-152.8433837508517
 10
77.29657387390503
 20
-152.8116888723874
 10
77.21837020638985
 20
-152.7462320581676
 10
76.92002493736722
 20
-152.3610703829167
 10
76.7212429278683
 20
-152.1050997883626
 10
76.65337454680888
 20
-152.0396429741429
 10
76.51591523694741
 20
-152.0396429741429
 10
76.39740395225482
 20
-152.0396429741429
 10
76.26649032381532
 20
-152.1116454697846
 10
76.26649032381532
 20
-152.3083604219923
 10
76.26649032381532
 20
-152.5684651311287
 10
76.49696721177854
 20
-152.5770778698418
 10
76.61341143917998
 20
-152.5812119844242
 10
76.61341143917998
 20
-152.5812119844242
 10
76.61341143917998
 20
-152.8054877005139
 10
76.61341143917998
 20
-152.8054877005139
 10
76.48628741577427
 20
-152.7968749618008
 10
76.37432181250365
 20
-152.7861951657965
 10
76.25581052781105
 20
-152.7059244409902
 10
76.09492456864989
 20
-152.5960258950107
 10
76.06116263289444
 20
-152.4096462292587
 10
76.06116263289444
 20
-152.2935465114058
 10
76.06116263289444
 20
-152.0162163248432
 10
76.24513073180678
 20
-151.8088215766311
 10
76.51798229423856
 20
-151.8088215766311
 10
76.74673663445915
 20
-151.8088215766311
 10
76.84595538443435
 20
-151.9252658040326
 10
77.07229815781527
 20
-152.2342908690595
 97
        0
 97
        0
 75
     2
 76
     1
 98
        0
  0
SPLINE
  5
128
330
122
100
AcDbEntity
  8
_U+30EC_U+30A4_U+30E4_U+30FC 1
370
     0
100
AcDbSpline
210
0.0
220
0.0
230
1.0
 70
    11
 71
     3
 72
    29
 73
    25
 74
     0
 42
0.0000000001
 43
0.0000000001
 12
1.0
 22
0.0
 32
0.0
 13
1.0
 23
0.0
 33
0.0
 40
0.0
 40
0.0
 40
0.0
 40
0.0
 40
1.0
 40
1.0
 40
1.0
 40
2.0
 40
2.0
 40
2.0
 40
3.0
 40
3.0
 40
3.0
 40
4.0
 40
4.0
 40
4.0
 40
5.0
 40
5.0
 40
5.0
 40
6.0
 40
6.0
 40
6.0
 40
7.0
 40
7.0
 40
7.0
 40
8.0
 40
8.0
 40
8.0
 40
8.0
 10
77.47640785823506
 20
-150.7525553008535
 30
0.0
 10
77.68586966373826
 20
-150.8607312990904
 30
0.0
 10
77.70481768890713
 20
-151.0340196019984
 30
0.0
 10
77.70481768890713
 20
-151.1504638293999
 30
0.0
 10
77.70481768890713
 20
-151.311349788561
 30
0.0
 10
77.65830889985627
 20
-151.4529432130048
 30
0.0
 10
77.47640785823506
 20
-151.5480278483977
 30
0.0
 10
77.28175996331845
 20
-151.6517252225037
 30
0.0
 10
77.04473739393326
 20
-151.6710177572211
 30
0.0
 10
76.88212888702947
 20
-151.6710177572211
 30
0.0
 10
76.73812389574603
 20
-151.6710177572211
 30
0.0
 10
76.48628741577427
 20
-151.6537922797949
 30
0.0
 10
76.28750540627534
 20
-151.5480278483977
 30
0.0
 10
76.08458928219413
 20
-151.4401963597094
 30
0.0
 10
76.06116263289444
 20
-151.2793104005482
 30
0.0
 10
76.06116263289444
 20
-151.1504638293999
 30
0.0
 10
76.06116263289444
 20
-150.9916449275299
 30
0.0
 10
76.10560436465416
 20
-150.847984445795
 30
0.0
 10
76.28750540627534
 20
-150.7525553008535
 30
0.0
 10
76.48008624390081
 20
-150.6533365508784
 30
0.0
 10
76.70849607457288
 20
-150.6299099015786
 30
0.0
 10
76.88212888702947
 20
-150.6299099015786
 30
0.0
 10
77.05335013264639
 20
-150.6299099015786
 30
0.0
 10
77.2838270206096
 20
-150.6512694935872
 30
0.0
 10
77.47640785823506
 20
-150.7525553008535
 30
0.0
  0
SPLINE
  5
129
330
122
100
AcDbEntity
  8
_U+30EC_U+30A4_U+30E4_U+30FC 1
370
     0
100
AcDbSpline
210
0.0
220
0.0
230
1.0
 70
    11
 71
     3
 72
    17
 73
    13
 74
     0
 42
0.0000000001
 43
0.0000000001
 12
1.0
 22
0.0
 32
0.0
 13
1.0
 23
0.0
 33
0.0
 40
0.0
 40
0.0
 40
0.0
 40
0.0
 40
1.0
 40
1.0
 40
1.0
 40
2.0
 40
2.0
 40
2.0
 40
3.0
 40
3.0
 40
3.0
 40
4.0
 40
4.0
 40
4.0
 40
4.0
 10
76.25374347051991
 20
-151.1504638293999
 30
0.0
 10
76.25374347051991
 20
-151.4002332520805
 30
0.0
 10
76.53727482895596
 20
-151.4467420411314
 30
0.0
 10
76.88212888702947
 20
-151.4467420411314
 30
0.0
 10
77.20148923851212
 20
-151.4467420411314
 30
0.0
 10
77.51016979399051
 20
-151.4105685385363
 30
0.0
 10
77.51016979399051
 20
-151.1504638293999
 30
0.0
 10
77.51016979399051
 20
-150.9027614640104
 30
0.0
 10
77.22905000239413
 20
-150.8541856176684
 30
0.0
 10
76.88212888702947
 20
-150.8541856176684
 30
0.0
 10
76.56242402599828
 20
-150.8541856176684
 30
0.0
 10
76.25374347051991
 20
-150.8924261775547
 30
0.0
 10
76.25374347051991
 20
-151.1504638293999
 30
0.0
  0
HATCH
  5
12A
330
122
100
AcDbEntity
  8
_U+30EC_U+30A4_U+30E4_U+30FC 1
 62
   179
420
  2234388
100
AcDbHatch
 10
0.0
 20
0.0
 30
0.0
210
0.0
220
0.0
230
1.0
  2
SOLID
 70
     1
 71
     0
 91
        2
 92
        1
 93
        1
 72
     4
 94
        3
 73
     0
 74
     1
 95
       29
 96
       25
 40
0.0
 40
0.0
 40
0.0
 40
0.0
 40
1.0
 40
1.0
 40
1.0
 40
2.0
 40
2.0
 40
2.0
 40
3.0
 40
3.0
 40
3.0
 40
4.0
 40
4.0
 40
4.0
 40
5.0
 40
5.0
 40
5.0
 40
6.0
 40
6.0
 40
6.0
 40
7.0
 40
7.0
 40
7.0
 40
8.0
 40
8.0
 40
8.0
 40
8.0
 10
77.47640785823506
 20
-150.7525553008535
 10
77.68586966373826
 20
-150.8607312990904
 10
77.70481768890713
 20
-151.0340196019984
 10
77.70481768890713
 20
-151.1504638293999
 10
77.70481768890713
 20
-151.311349788561
 10
77.65830889985627
 20
-151.4529432130048
 10
77.47640785823506
 20
-151.5480278483977
 10
77.28175996331845
 20
-151.6517252225037
 10
77.04473739393326
 20
-151.6710177572211
 10
76.88212888702947
 20
-151.6710177572211
 10
76.73812389574603
 20
-151.6710177572211
 10
76.48628741577427
 20
-151.6537922797949
 10
76.28750540627534
 20
-151.5480278483977
 10
76.08458928219413
 20
-151.4401963597094
 10
76.06116263289444
 20
-151.2793104005482
 10
76.06116263289444
 20
-151.1504638293999
 10
76.06116263289444
 20
-150.9916449275299
 10
76.10560436465416
 20
-150.847984445795
 10
76.28750540627534
 20
-150.7525553008535
 10
76.48008624390081
 20
-150.6533365508784
 10
76.70849607457288
 20
-150.6299099015786
 10
76.88212888702947
 20
-150.6299099015786
 10
77.05335013264639
 20
-150.6299099015786
 10
77.2838270206096
 20
-150.6512694935872
 10
77.47640785823506
 20
-150.7525553008535
 97
        0
 97
        0
 92
        1
 93
        1
 72
     4
 94
        3
 73
     0
 74
     1
 95
       17
 96
       13
 40
0.0
 40
0.0
 40
0.0
 40
0.0
 40
1.0
 40
1.0
 40
1.0
 40
2.0
 40
2.0
 40
2.0
 40
3.0
 40
3.0
 40
3.0
 40
4.0
 40
4.0
 40
4.0
 40
4.0
 10
76.25374347051991
 20
-151.1504638293999
 10
76.25374347051991
 20
-151.4002332520805
 10
76.53727482895596
 20
-151.4467420411314
 10
76.88212888702947
 20
-151.4467420411314
 10
77.20148923851212
 20
-151.4467420411314
 10
77.51016979399051
 20
-151.4105685385363
 10
77.51016979399051
 20
-151.1504638293999
 10
77.51016979399051
 20
-150.9027614640104
 10
77.22905000239413
 20
-150.8541856176684
 10
76.88212888702947
 20
-150.8541856176684
 10
76.56242402599828
 20
-150.8541856176684
 10
76.25374347051991
 20
-150.8924261775547
 10
76.25374347051991
 20
-151.1504638293999
 97
        0
 97
        0
 75
     2
 76
     1
 98
        0
  0
ENDBLK
  5
125
330
122
100
AcDbEntity
  8
0
100
AcDbBlockEnd
  0
BLOCK
  5
12D
330
12B
100
AcDbEntity
  8
0
100
AcDbBlockBegin
  2
block 8
 70
     0
 10
0.0
 20
0.0
 30
0.0
  3
block 8
  1

  0
SPLINE
  5
12F
330
12B
100
AcDbEntity
  8
_U+30EC_U+30A4_U+30E4_U+30FC 1
370
     0
100
AcDbSpline
210
0.0
220
0.0
230
1.0
 70
    11
 71
     3
 72
    62
 73
    58
 74
     0
 42
0.0000000001
 43
0.0000000001
 12
1.0
 22
0.0
 32
0.0
 13
1.0
 23
0.0
 33
0.0
 40
0.0
 40
0.0
 40
0.0
 40
0.0
 40
1.0
 40
1.0
 40
1.0
 40
2.0
 40
2.0
 40
2.0
 40
3.0
 40
3.0
 40
3.0
 40
4.0
 40
4.0
 40
4.0
 40
5.0
 40
5.0
 40
5.0
 40
6.0
 40
6.0
 40
6.0
 40
7.0
 40
7.0
 40
7.0
 40
8.0
 40
8.0
 40
8.0
 40
9.0
 40
9.0
 40
9.0
 40
10.0
 40
10.0
 40
10.0
 40
11.0
 40
11.0
 40
11.0
 40
12.0
 40
12.0
 40
12.0
 40
13.0
 40
13.0
 40
13.0
 40
14.0
 40
14.0
 40
14.0
 40
15.0
 40
15.0
 40
15.0
 40
16.0
 40
16.0
 40
16.0
 40
17.0
 40
17.0
 40
17.0
 40
18.0
 40
18.0
 40
18.0
 40
19.0
 40
19.0
 40
19.0
 40
19.0
 10
83.79574650682885
 20
-137.4961723831607
 30
0.0
 10
83.70031736188743
 20
-137.4961723831607
 30
0.0
 10
83.48258732721963
 20
-137.4748127911521
 30
0.0
 10
83.35753036110506
 20
-137.2887776349486
 30
0.0
 10
83.2834608081722
 20
-137.1764675221295
 30
0.0
 10
83.2793266935899
 20
-137.0772487721543
 30
0.0
 10
83.2751925790076
 20
-136.9924994232172
 30
0.0
 10
83.2751925790076
 20
-136.9924994232172
 30
0.0
 10
83.49533418051506
 20
-136.9924994232172
 30
0.0
 10
83.49533418051506
 20
-136.9924994232172
 30
0.0
 10
83.49740123780622
 20
-137.06656897615
 30
0.0
 10
83.50773652426196
 20
-137.3015244882441
 30
0.0
 10
83.79126788269802
 20
-137.3015244882441
 30
0.0
 10
83.92872719255949
 20
-137.3015244882441
 30
0.0
 10
84.08134492255606
 20
-137.2315890498935
 30
0.0
 10
84.08134492255606
 20
-137.0031792192214
 30
0.0
 10
84.08134492255606
 20
-136.88673499182
 30
0.0
 10
84.04310436266978
 20
-136.838159145478
 30
0.0
 10
84.01140948420549
 20
-136.8064642670137
 30
0.0
 10
83.93733993127262
 20
-136.7323947140808
 30
0.0
 10
83.82089570387117
 20
-136.7196478607854
 30
0.0
 10
83.7661186856557
 20
-136.7196478607854
 30
0.0
 10
83.7468261509383
 20
-136.7196478607854
 30
0.0
 10
83.7109971578917
 20
-136.7217149180765
 30
0.0
 10
83.6834363940097
 20
-136.7258490326588
 30
0.0
 10
83.6834363940097
 20
-136.7258490326588
 30
0.0
 10
83.6834363940097
 20
-136.5312011377422
 30
0.0
 10
83.6834363940097
 20
-136.5312011377422
 30
0.0
 10
83.72167695389598
 20
-136.5377468191642
 30
0.0
 10
83.76370711881601
 20
-136.5398138764553
 30
0.0
 10
83.770252800238
 20
-136.5398138764553
 30
0.0
 10
83.83570961445774
 20
-136.5398138764553
 30
0.0
 10
84.03449162395665
 20
-136.5187987939953
 30
0.0
 10
84.03449162395665
 20
-136.2817762246101
 30
0.0
 10
84.03449162395665
 20
-136.1040092975712
 30
0.0
 10
83.90357799551717
 20
-136.0488877698072
 30
0.0
 10
83.79333493998917
 20
-136.0488877698072
 30
0.0
 10
83.52909611627051
 20
-136.0488877698072
 30
0.0
 10
83.52048337755738
 20
-136.2817762246101
 30
0.0
 10
83.51634926297508
 20
-136.3537787202519
 30
0.0
 10
83.51634926297508
 20
-136.3537787202519
 30
0.0
 10
83.31308862934534
 20
-136.3537787202519
 30
0.0
 10
83.31308862934534
 20
-136.3537787202519
 30
0.0
 10
83.32170136805847
 20
-136.2287217541373
 30
0.0
 10
83.34926213194046
 20
-135.8521728175995
 30
0.0
 10
83.80608179328459
 20
-135.8521728175995
 30
0.0
 10
84.03035750937435
 20
-135.8521728175995
 30
0.0
 10
84.27151419334184
 20
-135.9792968410052
 30
0.0
 10
84.27151419334184
 20
-136.2752305431881
 30
0.0
 10
84.27151419334184
 20
-136.4616102089402
 30
0.0
 10
84.17642955794895
 20
-136.5439479910376
 30
0.0
 10
84.07686629842523
 20
-136.6052706906751
 30
0.0
 10
84.13818899806267
 20
-136.6328314545571
 30
0.0
 10
84.32009003968388
 20
-136.7134466889119
 30
0.0
 10
84.32009003968388
 20
-136.990432365926
 30
0.0
 10
84.32009003968388
 20
-137.3290852521261
 30
0.0
 10
84.07273218384293
 20
-137.4961723831607
 30
0.0
 10
83.79574650682885
 20
-137.4961723831607
 30
0.0
  0
HATCH
  5
130
330
12B
100
AcDbEntity
  8
_U+30EC_U+30A4_U+30E4_U+30FC 1
 62
   179
420
  2234388
100
AcDbHatch
 10
0.0
 20
0.0
 30
0.0
210
0.0
220
0.0
230
1.0
  2
SOLID
 70
     1
 71
     0
 91
        1
 92
        1
 93
        1
 72
     4
 94
        3
 73
     0
 74
     1
 95
       62
 96
       58
 40
0.0
 40
0.0
 40
0.0
 40
0.0
 40
1.0
 40
1.0
 40
1.0
 40
2.0
 40
2.0
 40
2.0
 40
3.0
 40
3.0
 40
3.0
 40
4.0
 40
4.0
 40
4.0
 40
5.0
 40
5.0
 40
5.0
 40
6.0
 40
6.0
 40
6.0
 40
7.0
 40
7.0
 40
7.0
 40
8.0
 40
8.0
 40
8.0
 40
9.0
 40
9.0
 40
9.0
 40
10.0
 40
10.0
 40
10.0
 40
11.0
 40
11.0
 40
11.0
 40
12.0
 40
12.0
 40
12.0
 40
13.0
 40
13.0
 40
13.0
 40
14.0
 40
14.0
 40
14.0
 40
15.0
 40
15.0
 40
15.0
 40
16.0
 40
16.0
 40
16.0
 40
17.0
 40
17.0
 40
17.0
 40
18.0
 40
18.0
 40
18.0
 40
19.0
 40
19.0
 40
19.0
 40
19.0
 10
83.79574650682885
 20
-137.4961723831607
 10
83.70031736188743
 20
-137.4961723831607
 10
83.48258732721963
 20
-137.4748127911521
 10
83.35753036110506
 20
-137.2887776349486
 10
83.2834608081722
 20
-137.1764675221295
 10
83.2793266935899
 20
-137.0772487721543
 10
83.2751925790076
 20
-136.9924994232172
 10
83.2751925790076
 20
-136.9924994232172
 10
83.49533418051506
 20
-136.9924994232172
 10
83.49533418051506
 20
-136.9924994232172
 10
83.49740123780622
 20
-137.06656897615
 10
83.50773652426196
 20
-137.3015244882441
 10
83.79126788269802
 20
-137.3015244882441
 10
83.92872719255949
 20
-137.3015244882441
 10
84.08134492255606
 20
-137.2315890498935
 10
84.08134492255606
 20
-137.0031792192214
 10
84.08134492255606
 20
-136.88673499182
 10
84.04310436266978
 20
-136.838159145478
 10
84.01140948420549
 20
-136.8064642670137
 10
83.93733993127262
 20
-136.7323947140808
 10
83.82089570387117
 20
-136.7196478607854
 10
83.7661186856557
 20
-136.7196478607854
 10
83.7468261509383
 20
-136.7196478607854
 10
83.7109971578917
 20
-136.7217149180765
 10
83.6834363940097
 20
-136.7258490326588
 10
83.6834363940097
 20
-136.7258490326588
 10
83.6834363940097
 20
-136.5312011377422
 10
83.6834363940097
 20
-136.5312011377422
 10
83.72167695389598
 20
-136.5377468191642
 10
83.76370711881601
 20
-136.5398138764553
 10
83.770252800238
 20
-136.5398138764553
 10
83.83570961445774
 20
-136.5398138764553
 10
84.03449162395665
 20
-136.5187987939953
 10
84.03449162395665
 20
-136.2817762246101
 10
84.03449162395665
 20
-136.1040092975712
 10
83.90357799551717
 20
-136.0488877698072
 10
83.79333493998917
 20
-136.0488877698072
 10
83.52909611627051
 20
-136.0488877698072
 10
83.52048337755738
 20
-136.2817762246101
 10
83.51634926297508
 20
-136.3537787202519
 10
83.51634926297508
 20
-136.3537787202519
 10
83.31308862934534
 20
-136.3537787202519
 10
83.31308862934534
 20
-136.3537787202519
 10
83.32170136805847
 20
-136.2287217541373
 10
83.34926213194046
 20
-135.8521728175995
 10
83.80608179328459
 20
-135.8521728175995
 10
84.03035750937435
 20
-135.8521728175995
 10
84.27151419334184
 20
-135.9792968410052
 10
84.27151419334184
 20
-136.2752305431881
 10
84.27151419334184
 20
-136.4616102089402
 10
84.17642955794895
 20
-136.5439479910376
 10
84.07686629842523
 20
-136.6052706906751
 10
84.13818899806267
 20
-136.6328314545571
 10
84.32009003968388
 20
-136.7134466889119
 10
84.32009003968388
 20
-136.990432365926
 10
84.32009003968388
 20
-137.3290852521261
 10
84.07273218384293
 20
-137.4961723831607
 10
83.79574650682885
 20
-137.4961723831607
 97
        0
 97
        0
 75
     2
 76
     1
 98
        0
  0
ENDBLK
  5
12E
330
12B
100
AcDbEntity
  8
0
100
AcDbBlockEnd
  0
BLOCK
  5
133
330
131
100
AcDbEntity
  8
0
100
AcDbBlockBegin
  2
block 9
 70
     0
 10
0.0
 20
0.0
 30
0.0
  3
block 9
  1

  0
SPLINE
  5
135
330
131
100
AcDbEntity
  8
_U+30EC_U+30A4_U+30E4_U+30FC 1
370
     0
100
AcDbSpline
210
0.0
220
0.0
230
1.0
 70
    11
 71
     3
 72
    26
 73
    22
 74
     0
 42
0.0000000001
 43
0.0000000001
 12
1.0
 22
0.0
 32
0.0
 13
1.0
 23
0.0
 33
0.0
 40
0.0
 40
0.0
 40
0.0
 40
0.0
 40
1.0
 40
1.0
 40
1.0
 40
2.0
 40
2.0
 40
2.0
 40
3.0
 40
3.0
 40
3.0
 40
4.0
 40
4.0
 40
4.0
 40
5.0
 40
5.0
 40
5.0
 40
6.0
 40
6.0
 40
6.0
 40
7.0
 40
7.0
 40
7.0
 40
7.0
 10
91.06713729277142
 20
-137.445184969979
 30
0.0
 10
91.06713729277142
 20
-137.445184969979
 30
0.0
 10
91.06713729277142
 20
-136.3410318669564
 30
0.0
 10
91.06713729277142
 20
-136.3410318669564
 30
0.0
 10
91.06713729277142
 20
-136.3410318669564
 30
0.0
 10
90.73709714528448
 20
-136.3410318669564
 30
0.0
 10
90.73709714528448
 20
-136.3410318669564
 30
0.0
 10
90.73709714528448
 20
-136.3410318669564
 30
0.0
 10
90.73709714528448
 20
-136.1928927610907
 30
0.0
 10
90.73709714528448
 20
-136.1928927610907
 30
0.0
 10
91.06920435006256
 20
-136.1780788505041
 30
0.0
 10
91.11571313911344
 20
-136.0151258340518
 30
0.0
 10
91.14534096028659
 20
-135.90109317349
 30
0.0
 10
91.14534096028659
 20
-135.90109317349
 30
0.0
 10
91.29141300886118
 20
-135.90109317349
 30
0.0
 10
91.29141300886118
 20
-135.90109317349
 30
0.0
 10
91.29141300886118
 20
-135.90109317349
 30
0.0
 10
91.29141300886118
 20
-137.445184969979
 30
0.0
 10
91.29141300886118
 20
-137.445184969979
 30
0.0
 10
91.29141300886118
 20
-137.445184969979
 30
0.0
 10
91.06713729277142
 20
-137.445184969979
 30
0.0
 10
91.06713729277142
 20
-137.445184969979
 30
0.0
  0
HATCH
  5
136
330
131
100
AcDbEntity
  8
_U+30EC_U+30A4_U+30E4_U+30FC 1
 62
   179
420
  2234388
100
AcDbHatch
 10
0.0
 20
0.0
 30
0.0
210
0.0
220
0.0
230
1.0
  2
SOLID
 70
     1
 71
     0
 91
        1
 92
        1
 93
        1
 72
     4
 94
        3
 73
     0
 74
     1
 95
       26
 96
       22
 40
0.0
 40
0.0
 40
0.0
 40
0.0
 40
1.0
 40
1.0
 40
1.0
 40
2.0
 40
2.0
 40
2.0
 40
3.0
 40
3.0
 40
3.0
 40
4.0
 40
4.0
 40
4.0
 40
5.0
 40
5.0
 40
5.0
 40
6.0
 40
6.0
 40
6.0
 40
7.0
 40
7.0
 40
7.0
 40
7.0
 10
91.06713729277142
 20
-137.445184969979
 10
91.06713729277142
 20
-137.445184969979
 10
91.06713729277142
 20
-136.3410318669564
 10
91.06713729277142
 20
-136.3410318669564
 10
91.06713729277142
 20
-136.3410318669564
 10
90.73709714528448
 20
-136.3410318669564
 10
90.73709714528448
 20
-136.3410318669564
 10
90.73709714528448
 20
-136.3410318669564
 10
90.73709714528448
 20
-136.1928927610907
 10
90.73709714528448
 20
-136.1928927610907
 10
91.06920435006256
 20
-136.1780788505041
 10
91.11571313911344
 20
-136.0151258340518
 10
91.14534096028659
 20
-135.90109317349
 10
91.14534096028659
 20
-135.90109317349
 10
91.29141300886118
 20
-135.90109317349
 10
91.29141300886118
 20
-135.90109317349
 10
91.29141300886118
 20
-135.90109317349
 10
91.29141300886118
 20
-137.445184969979
 10
91.29141300886118
 20
-137.445184969979
 10
91.29141300886118
 20
-137.445184969979
 10
91.06713729277142
 20
-137.445184969979
 10
91.06713729277142
 20
-137.445184969979
 97
        0
 97
        0
 75
     2
 76
     1
 98
        0
  0
SPLINE
  5
137
330
131
100
AcDbEntity
  8
_U+30EC_U+30A4_U+30E4_U+30FC 1
370
     0
100
AcDbSpline
210
0.0
220
0.0
230
1.0
 70
    11
 71
     3
 72
    62
 73
    58
 74
     0
 42
0.0000000001
 43
0.0000000001
 12
1.0
 22
0.0
 32
0.0
 13
1.0
 23
0.0
 33
0.0
 40
0.0
 40
0.0
 40
0.0
 40
0.0
 40
1.0
 40
1.0
 40
1.0
 40
2.0
 40
2.0
 40
2.0
 40
3.0
 40
3.0
 40
3.0
 40
4.0
 40
4.0
 40
4.0
 40
5.0
 40
5.0
 40
5.0
 40
6.0
 40
6.0
 40
6.0
 40
7.0
 40
7.0
 40
7.0
 40
8.0
 40
8.0
 40
8.0
 40
9.0
 40
9.0
 40
9.0
 40
10.0
 40
10.0
 40
10.0
 40
11.0
 40
11.0
 40
11.0
 40
12.0
 40
12.0
 40
12.0
 40
13.0
 40
13.0
 40
13.0
 40
14.0
 40
14.0
 40
14.0
 40
15.0
 40
15.0
 40
15.0
 40
16.0
 40
16.0
 40
16.0
 40
17.0
 40
17.0
 40
17.0
 40
18.0
 40
18.0
 40
18.0
 40
19.0
 40
19.0
 40
19.0
 40
19.0
 10
92.28446178248444
 20
-137.4961723831607
 30
0.0
 10
92.1886881279945
 20
-137.4961723831607
 30
0.0
 10
91.97095809332671
 20
-137.4748127911521
 30
0.0
 10
91.84624563676067
 20
-137.2887776349486
 30
0.0
 10
91.77183157427928
 20
-137.1764675221295
 30
0.0
 10
91.76769745969698
 20
-137.0772487721543
 30
0.0
 10
91.76356334511468
 20
-136.9924994232172
 30
0.0
 10
91.76356334511468
 20
-136.9924994232172
 30
0.0
 10
91.98404945617065
 20
-136.9924994232172
 30
0.0
 10
91.98404945617065
 20
-136.9924994232172
 30
0.0
 10
91.98611651346181
 20
-137.06656897615
 30
0.0
 10
91.99645179991755
 20
-137.3015244882441
 30
0.0
 10
92.27963864880509
 20
-137.3015244882441
 30
0.0
 10
92.41744246821509
 20
-137.3015244882441
 30
0.0
 10
92.56971568866314
 20
-137.2315890498935
 30
0.0
 10
92.56971568866314
 20
-137.0031792192214
 30
0.0
 10
92.56971568866314
 20
-136.88673499182
 30
0.0
 10
92.53181963832539
 20
-136.838159145478
 30
0.0
 10
92.50012475986108
 20
-136.8064642670137
 30
0.0
 10
92.42571069737969
 20
-136.7323947140808
 30
0.0
 10
92.30926646997824
 20
-136.7196478607854
 30
0.0
 10
92.25483396131129
 20
-136.7196478607854
 30
0.0
 10
92.2355414265939
 20
-136.7196478607854
 30
0.0
 10
92.1997124335473
 20
-136.7217149180765
 30
0.0
 10
92.1721516696653
 20
-136.7258490326588
 30
0.0
 10
92.1721516696653
 20
-136.7258490326588
 30
0.0
 10
92.1721516696653
 20
-136.5312011377422
 30
0.0
 10
92.1721516696653
 20
-136.5312011377422
 30
0.0
 10
92.21004772000305
 20
-136.5377468191642
 30
0.0
 10
92.2520778849231
 20
-136.5398138764553
 30
0.0
 10
92.25896807589359
 20
-136.5398138764553
 30
0.0
 10
92.32442489011335
 20
-136.5398138764553
 30
0.0
 10
92.52286239006374
 20
-136.5187987939953
 30
0.0
 10
92.52286239006374
 20
-136.2817762246101
 30
0.0
 10
92.52286239006374
 20
-136.1040092975712
 30
0.0
 10
92.39194876162423
 20
-136.0488877698072
 30
0.0
 10
92.28170570609625
 20
-136.0488877698072
 30
0.0
 10
92.0178113919261
 20
-136.0488877698072
 30
0.0
 10
92.00885414366445
 20
-136.2817762246101
 30
0.0
 10
92.00472002908215
 20
-136.3537787202519
 30
0.0
 10
92.00472002908215
 20
-136.3537787202519
 30
0.0
 10
91.80145939545241
 20
-136.3537787202519
 30
0.0
 10
91.80145939545241
 20
-136.3537787202519
 30
0.0
 10
91.81041664371406
 20
-136.2287217541373
 30
0.0
 10
91.83797740759607
 20
-135.8521728175995
 30
0.0
 10
92.2947970689402
 20
-135.8521728175995
 30
0.0
 10
92.51872827548144
 20
-135.8521728175995
 30
0.0
 10
92.75988495944893
 20
-135.9792968410052
 30
0.0
 10
92.75988495944893
 20
-136.2752305431881
 30
0.0
 10
92.75988495944893
 20
-136.4616102089402
 30
0.0
 10
92.66480032405603
 20
-136.5439479910376
 30
0.0
 10
92.56558157408084
 20
-136.6052706906751
 30
0.0
 10
92.62690427371828
 20
-136.6328314545571
 30
0.0
 10
92.80880531533947
 20
-136.7134466889119
 30
0.0
 10
92.80880531533947
 20
-136.990432365926
 30
0.0
 10
92.80880531533947
 20
-137.3290852521261
 30
0.0
 10
92.56144745949854
 20
-137.4961723831607
 30
0.0
 10
92.28446178248444
 20
-137.4961723831607
 30
0.0
  0
HATCH
  5
138
330
131
100
AcDbEntity
  8
_U+30EC_U+30A4_U+30E4_U+30FC 1
 62
   179
420
  2234388
100
AcDbHatch
 10
0.0
 20
0.0
 30
0.0
210
0.0
220
0.0
230
1.0
  2
SOLID
 70
     1
 71
     0
 91
        1
 92
        1
 93
        1
 72
     4
 94
        3
 73
     0
 74
     1
 95
       62
 96
       58
 40
0.0
 40
0.0
 40
0.0
 40
0.0
 40
1.0
 40
1.0
 40
1.0
 40
2.0
 40
2.0
 40
2.0
 40
3.0
 40
3.0
 40
3.0
 40
4.0
 40
4.0
 40
4.0
 40
5.0
 40
5.0
 40
5.0
 40
6.0
 40
6.0
 40
6.0
 40
7.0
 40
7.0
 40
7.0
 40
8.0
 40
8.0
 40
8.0
 40
9.0
 40
9.0
 40
9.0
 40
10.0
 40
10.0
 40
10.0
 40
11.0
 40
11.0
 40
11.0
 40
12.0
 40
12.0
 40
12.0
 40
13.0
 40
13.0
 40
13.0
 40
14.0
 40
14.0
 40
14.0
 40
15.0
 40
15.0
 40
15.0
 40
16.0
 40
16.0
 40
16.0
 40
17.0
 40
17.0
 40
17.0
 40
18.0
 40
18.0
 40
18.0
 40
19.0
 40
19.0
 40
19.0
 40
19.0
 10
92.28446178248444
 20
-137.4961723831607
 10
92.1886881279945
 20
-137.4961723831607
 10
91.97095809332671
 20
-137.4748127911521
 10
91.84624563676067
 20
-137.2887776349486
 10
91.77183157427928
 20
-137.1764675221295
 10
91.76769745969698
 20
-137.0772487721543
 10
91.76356334511468
 20
-136.9924994232172
 10
91.76356334511468
 20
-136.9924994232172
 10
91.98404945617065
 20
-136.9924994232172
 10
91.98404945617065
 20
-136.9924994232172
 10
91.98611651346181
 20
-137.06656897615
 10
91.99645179991755
 20
-137.3015244882441
 10
92.27963864880509
 20
-137.3015244882441
 10
92.41744246821509
 20
-137.3015244882441
 10
92.56971568866314
 20
-137.2315890498935
 10
92.56971568866314
 20
-137.0031792192214
 10
92.56971568866314
 20
-136.88673499182
 10
92.53181963832539
 20
-136.838159145478
 10
92.50012475986108
 20
-136.8064642670137
 10
92.42571069737969
 20
-136.7323947140808
 10
92.30926646997824
 20
-136.7196478607854
 10
92.25483396131129
 20
-136.7196478607854
 10
92.2355414265939
 20
-136.7196478607854
 10
92.1997124335473
 20
-136.7217149180765
 10
92.1721516696653
 20
-136.7258490326588
 10
92.1721516696653
 20
-136.7258490326588
 10
92.1721516696653
 20
-136.5312011377422
 10
92.1721516696653
 20
-136.5312011377422
 10
92.21004772000305
 20
-136.5377468191642
 10
92.2520778849231
 20
-136.5398138764553
 10
92.25896807589359
 20
-136.5398138764553
 10
92.32442489011335
 20
-136.5398138764553
 10
92.52286239006374
 20
-136.5187987939953
 10
92.52286239006374
 20
-136.2817762246101
 10
92.52286239006374
 20
-136.1040092975712
 10
92.39194876162423
 20
-136.0488877698072
 10
92.28170570609625
 20
-136.0488877698072
 10
92.0178113919261
 20
-136.0488877698072
 10
92.00885414366445
 20
-136.2817762246101
 10
92.00472002908215
 20
-136.3537787202519
 10
92.00472002908215
 20
-136.3537787202519
 10
91.80145939545241
 20
-136.3537787202519
 10
91.80145939545241
 20
-136.3537787202519
 10
91.81041664371406
 20
-136.2287217541373
 10
91.83797740759607
 20
-135.8521728175995
 10
92.2947970689402
 20
-135.8521728175995
 10
92.51872827548144
 20
-135.8521728175995
 10
92.75988495944893
 20
-135.9792968410052
 10
92.75988495944893
 20
-136.2752305431881
 10
92.75988495944893
 20
-136.4616102089402
 10
92.66480032405603
 20
-136.5439479910376
 10
92.56558157408084
 20
-136.6052706906751
 10
92.62690427371828
 20
-136.6328314545571
 10
92.80880531533947
 20
-136.7134466889119
 10
92.80880531533947
 20
-136.990432365926
 10
92.80880531533947
 20
-137.3290852521261
 10
92.56144745949854
 20
-137.4961723831607
 10
92.28446178248444
 20
-137.4961723831607
 97
        0
 97
        0
 75
     2
 76
     1
 98
        0
  0
ENDBLK
  5
134
330
131
100
AcDbEntity
  8
0
100
AcDbBlockEnd
  0
BLOCK
  5
13B
330
139
100
AcDbEntity
  8
0
100
AcDbBlockBegin
  2
block 10
 70
     0
 10
0.0
 20
0.0
 30
0.0
  3
block 10
  1

  0
SPLINE
  5
13D
330
139
100
AcDbEntity
  8
_U+30EC_U+30A4_U+30E4_U+30FC 1
370
     0
100
AcDbSpline
210
0.0
220
0.0
230
1.0
 70
    11
 71
     3
 72
    44
 73
    40
 74
     0
 42
0.0000000001
 43
0.0000000001
 12
1.0
 22
0.0
 32
0.0
 13
1.0
 23
0.0
 33
0.0
 40
0.0
 40
0.0
 40
0.0
 40
0.0
 40
1.0
 40
1.0
 40
1.0
 40
2.0
 40
2.0
 40
2.0
 40
3.0
 40
3.0
 40
3.0
 40
4.0
 40
4.0
 40
4.0
 40
5.0
 40
5.0
 40
5.0
 40
6.0
 40
6.0
 40
6.0
 40
7.0
 40
7.0
 40
7.0
 40
8.0
 40
8.0
 40
8.0
 40
9.0
 40
9.0
 40
9.0
 40
10.0
 40
10.0
 40
10.0
 40
11.0
 40
11.0
 40
11.0
 40
12.0
 40
12.0
 40
12.0
 40
13.0
 40
13.0
 40
13.0
 40
13.0
 10
91.80834958642292
 20
-164.5112331402958
 30
0.0
 10
91.59061955175513
 20
-164.6700520421658
 30
0.0
 10
91.49760197365339
 20
-164.7441215950987
 30
0.0
 10
91.44868161776283
 20
-164.8877820768336
 30
0.0
 10
91.44868161776283
 20
-164.8877820768336
 30
0.0
 10
92.2272731974293
 20
-164.8877820768336
 30
0.0
 10
92.2272731974293
 20
-164.8877820768336
 30
0.0
 10
92.2272731974293
 20
-164.8877820768336
 30
0.0
 10
92.2272731974293
 20
-165.0931097677545
 30
0.0
 10
92.2272731974293
 20
-165.0931097677545
 30
0.0
 10
92.2272731974293
 20
-165.0931097677545
 30
0.0
 10
91.19942895940501
 20
-165.0931097677545
 30
0.0
 10
91.19942895940501
 20
-165.0931097677545
 30
0.0
 10
91.2311238378693
 20
-164.7355088563856
 30
0.0
 10
91.29658065208905
 20
-164.6573051888704
 30
0.0
 10
91.68157007256572
 20
-164.3589599198478
 30
0.0
 10
91.93754066711979
 20
-164.1601779103489
 30
0.0
 10
92.00299748133953
 20
-164.0923095292894
 30
0.0
 10
92.00299748133953
 20
-163.954850219428
 30
0.0
 10
92.00299748133953
 20
-163.8363389347354
 30
0.0
 10
91.93099498569781
 20
-163.7054253062959
 30
0.0
 10
91.73428003349005
 20
-163.7054253062959
 30
0.0
 10
91.47417532435368
 20
-163.7054253062959
 30
0.0
 10
91.46590709518908
 20
-163.9359021942591
 30
0.0
 10
91.46142847105826
 20
-164.0523464216605
 30
0.0
 10
91.46142847105826
 20
-164.0523464216605
 30
0.0
 10
91.23732500974276
 20
-164.0523464216605
 30
0.0
 10
91.23732500974276
 20
-164.0523464216605
 30
0.0
 10
91.24593774845589
 20
-163.9252223982548
 30
0.0
 10
91.25661754446016
 20
-163.8132567949842
 30
0.0
 10
91.33688826926648
 20
-163.6947455102916
 30
0.0
 10
91.44661456047169
 20
-163.5338595511304
 30
0.0
 10
91.6329942262237
 20
-163.500097615375
 30
0.0
 10
91.74909394407662
 20
-163.500097615375
 30
0.0
 10
92.02642413063923
 20
-163.500097615375
 30
0.0
 10
92.23381887885127
 20
-163.6840657142873
 30
0.0
 10
92.23381887885127
 20
-163.9569172767191
 30
0.0
 10
92.23381887885127
 20
-164.1856716169397
 30
0.0
 10
92.11737465144982
 20
-164.2848903669149
 30
0.0
 10
91.80834958642292
 20
-164.5112331402958
 30
0.0
  0
HATCH
  5
13E
330
139
100
AcDbEntity
  8
_U+30EC_U+30A4_U+30E4_U+30FC 1
 62
   179
420
  2234388
100
AcDbHatch
 10
0.0
 20
0.0
 30
0.0
210
0.0
220
0.0
230
1.0
  2
SOLID
 70
     1
 71
     0
 91
        1
 92
        1
 93
        1
 72
     4
 94
        3
 73
     0
 74
     1
 95
       44
 96
       40
 40
0.0
 40
0.0
 40
0.0
 40
0.0
 40
1.0
 40
1.0
 40
1.0
 40
2.0
 40
2.0
 40
2.0
 40
3.0
 40
3.0
 40
3.0
 40
4.0
 40
4.0
 40
4.0
 40
5.0
 40
5.0
 40
5.0
 40
6.0
 40
6.0
 40
6.0
 40
7.0
 40
7.0
 40
7.0
 40
8.0
 40
8.0
 40
8.0
 40
9.0
 40
9.0
 40
9.0
 40
10.0
 40
10.0
 40
10.0
 40
11.0
 40
11.0
 40
11.0
 40
12.0
 40
12.0
 40
12.0
 40
13.0
 40
13.0
 40
13.0
 40
13.0
 10
91.80834958642292
 20
-164.5112331402958
 10
91.59061955175513
 20
-164.6700520421658
 10
91.49760197365339
 20
-164.7441215950987
 10
91.44868161776283
 20
-164.8877820768336
 10
91.44868161776283
 20
-164.8877820768336
 10
92.2272731974293
 20
-164.8877820768336
 10
92.2272731974293
 20
-164.8877820768336
 10
92.2272731974293
 20
-164.8877820768336
 10
92.2272731974293
 20
-165.0931097677545
 10
92.2272731974293
 20
-165.0931097677545
 10
92.2272731974293
 20
-165.0931097677545
 10
91.19942895940501
 20
-165.0931097677545
 10
91.19942895940501
 20
-165.0931097677545
 10
91.2311238378693
 20
-164.7355088563856
 10
91.29658065208905
 20
-164.6573051888704
 10
91.68157007256572
 20
-164.3589599198478
 10
91.93754066711979
 20
-164.1601779103489
 10
92.00299748133953
 20
-164.0923095292894
 10
92.00299748133953
 20
-163.954850219428
 10
92.00299748133953
 20
-163.8363389347354
 10
91.93099498569781
 20
-163.7054253062959
 10
91.73428003349005
 20
-163.7054253062959
 10
91.47417532435368
 20
-163.7054253062959
 10
91.46590709518908
 20
-163.9359021942591
 10
91.46142847105826
 20
-164.0523464216605
 10
91.46142847105826
 20
-164.0523464216605
 10
91.23732500974276
 20
-164.0523464216605
 10
91.23732500974276
 20
-164.0523464216605
 10
91.24593774845589
 20
-163.9252223982548
 10
91.25661754446016
 20
-163.8132567949842
 10
91.33688826926648
 20
-163.6947455102916
 10
91.44661456047169
 20
-163.5338595511304
 10
91.6329942262237
 20
-163.500097615375
 10
91.74909394407662
 20
-163.500097615375
 10
92.02642413063923
 20
-163.500097615375
 10
92.23381887885127
 20
-163.6840657142873
 10
92.23381887885127
 20
-163.9569172767191
 10
92.23381887885127
 20
-164.1856716169397
 10
92.11737465144982
 20
-164.2848903669149
 10
91.80834958642292
 20
-164.5112331402958
 97
        0
 97
        0
 75
     2
 76
     1
 98
        0
  0
SPLINE
  5
13F
330
139
100
AcDbEntity
  8
_U+30EC_U+30A4_U+30E4_U+30FC 1
370
     0
100
AcDbSpline
210
0.0
220
0.0
230
1.0
 70
    11
 71
     3
 72
    29
 73
    25
 74
     0
 42
0.0000000001
 43
0.0000000001
 12
1.0
 22
0.0
 32
0.0
 13
1.0
 23
0.0
 33
0.0
 40
0.0
 40
0.0
 40
0.0
 40
0.0
 40
1.0
 40
1.0
 40
1.0
 40
2.0
 40
2.0
 40
2.0
 40
3.0
 40
3.0
 40
3.0
 40
4.0
 40
4.0
 40
4.0
 40
5.0
 40
5.0
 40
5.0
 40
6.0
 40
6.0
 40
6.0
 40
7.0
 40
7.0
 40
7.0
 40
8.0
 40
8.0
 40
8.0
 40
8.0
 10
93.29008515462887
 20
-164.9153428407156
 30
0.0
 10
93.18190915639202
 20
-165.1248046462188
 30
0.0
 10
93.00862085348396
 20
-165.1437526713877
 30
0.0
 10
92.89217662608252
 20
-165.1437526713877
 30
0.0
 10
92.73129066692135
 20
-165.1437526713877
 30
0.0
 10
92.58969724247758
 20
-165.0972438823368
 30
0.0
 10
92.49461260708469
 20
-164.9153428407156
 30
0.0
 10
92.39091523297867
 20
-164.720694945799
 30
0.0
 10
92.37196720780979
 20
-164.4836723764138
 30
0.0
 10
92.37196720780979
 20
-164.32106386951
 30
0.0
 10
92.37196720780979
 20
-164.1770588782266
 30
0.0
 10
92.38884817568751
 20
-163.9252223982548
 30
0.0
 10
92.49461260708469
 20
-163.7264403887559
 30
0.0
 10
92.60244409577301
 20
-163.5235242646747
 30
0.0
 10
92.76333005493417
 20
-163.500097615375
 30
0.0
 10
92.89217662608252
 20
-163.500097615375
 30
0.0
 10
93.05099552795254
 20
-163.500097615375
 30
0.0
 10
93.19465600968745
 20
-163.5445393471347
 30
0.0
 10
93.29008515462887
 20
-163.7264403887559
 30
0.0
 10
93.38930390460406
 20
-163.9190212263814
 30
0.0
 10
93.41273055390377
 20
-164.1474310570534
 30
0.0
 10
93.41273055390377
 20
-164.32106386951
 30
0.0
 10
93.41273055390377
 20
-164.4922851151269
 30
0.0
 10
93.39137096189522
 20
-164.7227620030901
 30
0.0
 10
93.29008515462887
 20
-164.9153428407156
 30
0.0
  0
SPLINE
  5
140
330
139
100
AcDbEntity
  8
_U+30EC_U+30A4_U+30E4_U+30FC 1
370
     0
100
AcDbSpline
210
0.0
220
0.0
230
1.0
 70
    11
 71
     3
 72
    17
 73
    13
 74
     0
 42
0.0000000001
 43
0.0000000001
 12
1.0
 22
0.0
 32
0.0
 13
1.0
 23
0.0
 33
0.0
 40
0.0
 40
0.0
 40
0.0
 40
0.0
 40
1.0
 40
1.0
 40
1.0
 40
2.0
 40
2.0
 40
2.0
 40
3.0
 40
3.0
 40
3.0
 40
4.0
 40
4.0
 40
4.0
 40
4.0
 10
92.89217662608252
 20
-163.6926784530004
 30
0.0
 10
92.64275171295043
 20
-163.6926784530004
 30
0.0
 10
92.59589841435103
 20
-163.9762098114365
 30
0.0
 10
92.59589841435103
 20
-164.32106386951
 30
0.0
 10
92.59589841435103
 20
-164.6404242209927
 30
0.0
 10
92.63207191694616
 20
-164.9491047764711
 30
0.0
 10
92.89217662608252
 20
-164.9491047764711
 30
0.0
 10
93.13987899147197
 20
-164.9491047764711
 30
0.0
 10
93.188454837814
 20
-164.6679849848747
 30
0.0
 10
93.188454837814
 20
-164.32106386951
 30
0.0
 10
93.188454837814
 20
-164.0013590084788
 30
0.0
 10
93.15021427792773
 20
-163.6926784530004
 30
0.0
 10
92.89217662608252
 20
-163.6926784530004
 30
0.0
  0
HATCH
  5
141
330
139
100
AcDbEntity
  8
_U+30EC_U+30A4_U+30E4_U+30FC 1
 62
   179
420
  2234388
100
AcDbHatch
 10
0.0
 20
0.0
 30
0.0
210
0.0
220
0.0
230
1.0
  2
SOLID
 70
     1
 71
     0
 91
        2
 92
        1
 93
        1
 72
     4
 94
        3
 73
     0
 74
     1
 95
       29
 96
       25
 40
0.0
 40
0.0
 40
0.0
 40
0.0
 40
1.0
 40
1.0
 40
1.0
 40
2.0
 40
2.0
 40
2.0
 40
3.0
 40
3.0
 40
3.0
 40
4.0
 40
4.0
 40
4.0
 40
5.0
 40
5.0
 40
5.0
 40
6.0
 40
6.0
 40
6.0
 40
7.0
 40
7.0
 40
7.0
 40
8.0
 40
8.0
 40
8.0
 40
8.0
 10
93.29008515462887
 20
-164.9153428407156
 10
93.18190915639202
 20
-165.1248046462188
 10
93.00862085348396
 20
-165.1437526713877
 10
92.89217662608252
 20
-165.1437526713877
 10
92.73129066692135
 20
-165.1437526713877
 10
92.58969724247758
 20
-165.0972438823368
 10
92.49461260708469
 20
-164.9153428407156
 10
92.39091523297867
 20
-164.720694945799
 10
92.37196720780979
 20
-164.4836723764138
 10
92.37196720780979
 20
-164.32106386951
 10
92.37196720780979
 20
-164.1770588782266
 10
92.38884817568751
 20
-163.9252223982548
 10
92.49461260708469
 20
-163.7264403887559
 10
92.60244409577301
 20
-163.5235242646747
 10
92.76333005493417
 20
-163.500097615375
 10
92.89217662608252
 20
-163.500097615375
 10
93.05099552795254
 20
-163.500097615375
 10
93.19465600968745
 20
-163.5445393471347
 10
93.29008515462887
 20
-163.7264403887559
 10
93.38930390460406
 20
-163.9190212263814
 10
93.41273055390377
 20
-164.1474310570534
 10
93.41273055390377
 20
-164.32106386951
 10
93.41273055390377
 20
-164.4922851151269
 10
93.39137096189522
 20
-164.7227620030901
 10
93.29008515462887
 20
-164.9153428407156
 97
        0
 97
        0
 92
        1
 93
        1
 72
     4
 94
        3
 73
     0
 74
     1
 95
       17
 96
       13
 40
0.0
 40
0.0
 40
0.0
 40
0.0
 40
1.0
 40
1.0
 40
1.0
 40
2.0
 40
2.0
 40
2.0
 40
3.0
 40
3.0
 40
3.0
 40
4.0
 40
4.0
 40
4.0
 40
4.0
 10
92.89217662608252
 20
-163.6926784530004
 10
92.64275171295043
 20
-163.6926784530004
 10
92.59589841435103
 20
-163.9762098114365
 10
92.59589841435103
 20
-164.32106386951
 10
92.59589841435103
 20
-164.6404242209927
 10
92.63207191694616
 20
-164.9491047764711
 10
92.89217662608252
 20
-164.9491047764711
 10
93.13987899147197
 20
-164.9491047764711
 10
93.188454837814
 20
-164.6679849848747
 10
93.188454837814
 20
-164.32106386951
 10
93.188454837814
 20
-164.0013590084788
 10
93.15021427792773
 20
-163.6926784530004
 10
92.89217662608252
 20
-163.6926784530004
 97
        0
 97
        0
 75
     2
 76
     1
 98
        0
  0
ENDBLK
  5
13C
330
139
100
AcDbEntity
  8
0
100
AcDbBlockEnd
  0
ENDSEC
  0
SECTION
  2
ENTITIES
  0
INSERT
  5
42
330
1F
100
AcDbEntity
  8
_U+30EC_U+30A4_U+30E4_U+30FC 1
100
AcDbBlockReference
  2
block 2
 10
0.0
 20
0.0
 30
0.0
  0
ENDSEC
  0
SECTION
  2
OBJECTS
  0
DICTIONARY
  5
C
330
0
100
AcDbDictionary
281
     1
  3
ACAD_GROUP
350
D
  3
ACAD_LAYOUT
350
1A
  3
ACAD_MATERIAL
350
3B
  3
ACAD_MLEADERSTYLE
350
143
  3
ACAD_MLINESTYLE
350
17
  3
ACAD_PLOTSETTINGS
350
19
  3
ACAD_PLOTSTYLENAME
350
E
  3
ACAD_TABLESTYLE
350
142
  3
ACAD_VISUALSTYLE
350
2A
  0
SUN
  5
3F
330
29
100
AcDbSun
 90
        1
290
     0
 63
     7
421
 16777215
 40
1.0
291
     1
 91
  2455826
 92
 54000000
292
     0
 70
     2
 71
   256
280
     1
  0
DICTIONARY
  5
D
102
{ACAD_REACTORS
330
C
102
}
330
C
100
AcDbDictionary
281
     1
  0
DICTIONARY
  5
1A
102
{ACAD_REACTORS
330
C
102
}
330
C
100
AcDbDictionary
281
     1
  3
Layout1
350
1E
  3
Layout2
350
26
  3
Model
350
22
  0
DICTIONARY
  5
3B
102
{ACAD_REACTORS
330
C
102
}
330
C
100
AcDbDictionary
281
     1
  3
ByBlock
350
3D
  3
ByLayer
350
3C
  3
Global
350
3E
  0
DICTIONARY
  5
143
102
{ACAD_REACTORS
330
C
102
}
330
C
100
AcDbDictionary
281
     1
  0
DICTIONARY
  5
17
102
{ACAD_REACTORS
330
C
102
}
330
C
100
AcDbDictionary
281
     1
  3
Standard
350
18
  0
DICTIONARY
  5
19
102
{ACAD_REACTORS
330
C
102
}
330
C
100
AcDbDictionary
281
     1
  0
ACDBDICTIONARYWDFLT
  5
E
102
{ACAD_REACTORS
330
C
102
}
330
C
100
AcDbDictionary
281
     1
  3
Normal
350
F
100
AcDbDictionaryWithDefault
340
F
  0
DICTIONARY
  5
142
102
{ACAD_REACTORS
330
C
102
}
330
C
100
AcDbDictionary
281
     1
  0
DICTIONARY
  5
2A
102
{ACAD_REACTORS
330
C
102
}
330
C
100
AcDbDictionary
281
     1
  3
2dWireframe
350
2F
  3
3D Hidden
350
31
  3
3dWireframe
350
30
  3
Basic
350
32
  3
Brighten
350
36
  3
ColorChange
350
3A
  3
Conceptual
350
34
  3
Dim
350
35
  3
Facepattern
350
39
  3
Flat
350
2B
  3
FlatWithEdges
350
2C
  3
Gouraud
350
2D
  3
GouraudWithEdges
350
2E
  3
Linepattern
350
38
  3
Realistic
350
33
  3
Thicken
350
37
  0
LAYOUT
  5
1E
102
{ACAD_REACTORS
330
1A
102
}
330
1A
100
AcDbPlotSettings
  1

  2
none_device
  4

  6

 40
0.0
 41
0.0
 42
0.0
 43
0.0
 44
0.0
 45
0.0
 46
0.0
 47
0.0
 48
0.0
 49
0.0
140
0.0
141
0.0
142
1.0
143
1.0
 70
   688
 72
     0
 73
     0
 74
     5
  7

 75
    16
 76
     0
 77
     2
 78
   300
147
1.0
148
0.0
149
0.0
100
AcDbLayout
  1
Layout1
 70
     1
 71
     1
 10
0.0
 20
0.0
 11
12.0
 21
9.0
 12
0.0
 22
0.0
 32
0.0
 14
1.000000000000000E+20
 24
1.000000000000000E+20
 34
1.000000000000000E+20
 15
-1.000000000000000E+20
 25
-1.000000000000000E+20
 35
-1.000000000000000E+20
146
0.0
 13
0.0
 23
0.0
 33
0.0
 16
1.0
 26
0.0
 36
0.0
 17
0.0
 27
1.0
 37
0.0
 76
     0
330
1B
  0
LAYOUT
  5
26
102
{ACAD_REACTORS
330
1A
102
}
330
1A
100
AcDbPlotSettings
  1

  2
none_device
  4

  6

 40
0.0
 41
0.0
 42
0.0
 43
0.0
 44
0.0
 45
0.0
 46
0.0
 47
0.0
 48
0.0
 49
0.0
140
0.0
141
0.0
142
1.0
143
1.0
 70
   688
 72
     0
 73
     0
 74
     5
  7

 75
    16
 76
     0
 77
     2
 78
   300
147
1.0
148
0.0
149
0.0
100
AcDbLayout
  1
Layout2
 70
     1
 71
     2
 10
0.0
 20
0.0
 11
0.0
 21
0.0
 12
0.0
 22
0.0
 32
0.0
 14
0.0
 24
0.0
 34
0.0
 15
0.0
 25
0.0
 35
0.0
146
0.0
 13
0.0
 23
0.0
 33
0.0
 16
1.0
 26
0.0
 36
0.0
 17
0.0
 27
1.0
 37
0.0
 76
     0
330
23
  0
LAYOUT
  5
22
102
{ACAD_REACTORS
330
1A
102
}
330
1A
100
AcDbPlotSettings
  1

  2
none_device
  4

  6

 40
0.0
 41
0.0
 42
0.0
 43
0.0
 44
0.0
 45
0.0
 46
0.0
 47
0.0
 48
0.0
 49
0.0
140
0.0
141
0.0
142
1.0
143
1.0
 70
  1712
 72
     0
 73
     0
 74
     0
  7

 75
     0
 76
     0
 77
     2
 78
   300
147
1.0
148
0.0
149
0.0
100
AcDbLayout
  1
Model
 70
     1
 71
     0
 10
0.0
 20
0.0
 11
12.0
 21
9.0
 12
0.0
 22
0.0
 32
0.0
 14
1.000000000000000E+20
 24
1.000000000000000E+20
 34
1.000000000000000E+20
 15
-1.000000000000000E+20
 25
-1.000000000000000E+20
 35
-1.000000000000000E+20
146
0.0
 13
0.0
 23
0.0
 33
0.0
 16
1.0
 26
0.0
 36
0.0
 17
0.0
 27
1.0
 37
0.0
 76
     0
330
1F
331
29
  0
MATERIAL
  5
3D
102
{ACAD_REACTORS
330
3B
102
}
330
3B
100
AcDbMaterial
  1
ByBlock
 72
     1
 94
      127
  0
MATERIAL
  5
3C
102
{ACAD_REACTORS
330
3B
102
}
330
3B
100
AcDbMaterial
  1
ByLayer
 72
     1
 94
      127
  0
MATERIAL
  5
3E
102
{ACAD_REACTORS
330
3B
102
}
330
3B
100
AcDbMaterial
  1
Global
 72
     1
 94
      127
  0
MLINESTYLE
  5
18
102
{ACAD_REACTORS
330
17
102
}
330
17
100
AcDbMlineStyle
  2
Standard
 70
     0
  3

 62
   256
 51
90.0
 52
90.0
 71
     2
 49
0.5
 62
   256
  6
BYLAYER
 49
-0.5
 62
   256
  6
BYLAYER
  0
ACDBPLACEHOLDER
  5
F
102
{ACAD_REACTORS
330
E
102
}
330
E
  0
VISUALSTYLE
  5
2F
102
{ACAD_REACTORS
330
2A
102
}
330
2A
100
AcDbVisualStyle
  2
2dWireframe
 70
     4
177
     2
291
     0
 71
     0
176
     1
 72
     2
176
     1
 73
     0
176
     1
 90
        0
176
     1
 40
-0.6
176
     1
 41
-30.0
176
     1
 62
     5
 63
     7
421
 16777215
176
     1
 74
     1
176
     1
 91
        4
176
     1
 64
     7
176
     1
 65
   257
176
     1
 75
     1
176
     1
175
     1
176
     1
 42
1.0
176
     1
 92
        0
176
     1
 66
   257
176
     1
 43
1.0
176
     1
 76
     1
176
     1
 77
     6
176
     1
 78
     2
176
     1
 67
     7
176
     1
 79
     5
176
     1
170
     0
176
     1
171
     0
176
     1
290
     0
176
     1
 93
        1
176
     1
 44
0.0
176
     1
173
     0
176
     1
  0
VISUALSTYLE
  5
31
102
{ACAD_REACTORS
330
2A
102
}
330
2A
100
AcDbVisualStyle
  2
3D Hidden
 70
     6
177
     2
291
     0
 71
     1
176
     1
 72
     2
176
     1
 73
     2
176
     1
 90
        0
176
     1
 40
-0.6
176
     1
 41
-30.0
176
     1
 62
     5
 63
     7
421
 16777215
176
     1
 74
     2
176
     1
 91
        2
176
     1
 64
     7
176
     1
 65
   257
176
     1
 75
     2
176
     1
175
     1
176
     1
 42
40.0
176
     1
 92
        0
176
     1
 66
   257
176
     1
 43
1.0
176
     1
 76
     1
176
     1
 77
     6
176
     1
 78
     2
176
     1
 67
     7
176
     1
 79
     3
176
     1
170
     0
176
     1
171
     0
176
     1
290
     0
176
     1
 93
        1
176
     1
 44
0.0
176
     1
173
     0
176
     1
  0
VISUALSTYLE
  5
30
102
{ACAD_REACTORS
330
2A
102
}
330
2A
100
AcDbVisualStyle
  2
3dWireframe
 70
     5
177
     2
291
     0
 71
     0
176
     1
 72
     2
176
     1
 73
     0
176
     1
 90
        0
176
     1
 40
-0.6
176
     1
 41
-30.0
176
     1
 62
     5
 63
     7
421
 16777215
176
     1
 74
     1
176
     1
 91
        4
176
     1
 64
     7
176
     1
 65
   257
176
     1
 75
     1
176
     1
175
     1
176
     1
 42
1.0
176
     1
 92
        0
176
     1
 66
   257
176
     1
 43
1.0
176
     1
 76
     1
176
     1
 77
     6
176
     1
 78
     2
176
     1
 67
     7
176
     1
 79
     5
176
     1
170
     0
176
     1
171
     0
176
     1
290
     0
176
     1
 93
        1
176
     1
 44
0.0
176
     1
173
     0
176
     1
  0
VISUALSTYLE
  5
32
102
{ACAD_REACTORS
330
2A
102
}
330
2A
100
AcDbVisualStyle
  2
Basic
 70
     7
177
     2
291
     1
 71
     1
176
     1
 72
     0
176
     1
 73
     1
176
     1
 90
        0
176
     1
 40
-0.6
176
     1
 41
-30.0
176
     1
 62
     5
 63
     7
421
 16777215
176
     1
 74
     0
176
     1
 91
        4
176
     1
 64
     7
176
     1
 65
   257
176
     1
 75
     1
176
     1
175
     1
176
     1
 42
1.0
176
     1
 92
        8
176
     1
 66
     7
176
     1
 43
1.0
176
     1
 76
     1
176
     1
 77
     6
176
     1
 78
     2
176
     1
 67
     7
176
     1
 79
     5
176
     1
170
     0
176
     1
171
     0
176
     1
290
     0
176
     1
 93
        1
176
     1
 44
0.0
176
     1
173
     0
176
     1
  0
VISUALSTYLE
  5
36
102
{ACAD_REACTORS
330
2A
102
}
330
2A
100
AcDbVisualStyle
  2
Brighten
 70
    12
177
     2
291
     1
 71
     2
176
     1
 72
     2
176
     1
 73
     0
176
     1
 90
        0
176
     1
 40
-0.6
176
     1
 41
-30.0
176
     1
 62
     5
 63
     7
421
 16777215
176
     1
 74
     1
176
     1
 91
        4
176
     1
 64
     7
176
     1
 65
   257
176
     1
 75
     1
176
     1
175
     1
176
     1
 42
1.0
176
     1
 92
        8
176
     1
 66
     7
176
     1
 43
1.0
176
     1
 76
     1
176
     1
 77
     6
176
     1
 78
     2
176
     1
 67
     7
176
     1
 79
     5
176
     1
170
     0
176
     1
171
     0
176
     1
290
     0
176
     1
 93
        1
176
     1
 44
50.0
176
     1
173
     0
176
     1
  0
VISUALSTYLE
  5
3A
102
{ACAD_REACTORS
330
2A
102
}
330
2A
100
AcDbVisualStyle
  2
ColorChange
 70
    16
177
     2
291
     1
 71
     2
176
     1
 72
     2
176
     1
 73
     3
176
     1
 90
        0
176
     1
 40
-0.6
176
     1
 41
-30.0
176
     1
 62
     5
 63
     8
421
  8421504
176
     1
 74
     1
176
     1
 91
        4
176
     1
 64
     7
176
     1
 65
   257
176
     1
 75
     1
176
     1
175
     1
176
     1
 42
1.0
176
     1
 92
        8
176
     1
 66
     8
424
  8421504
176
     1
 43
1.0
176
     1
 76
     1
176
     1
 77
     6
176
     1
 78
     2
176
     1
 67
     7
176
     1
 79
     5
176
     1
170
     0
176
     1
171
     0
176
     1
290
     0
176
     1
 93
        1
176
     1
 44
0.0
176
     1
173
     0
176
     1
  0
VISUALSTYLE
  5
34
102
{ACAD_REACTORS
330
2A
102
}
330
2A
100
AcDbVisualStyle
  2
Conceptual
 70
     9
177
     2
291
     0
 71
     3
176
     1
 72
     2
176
     1
 73
     0
176
     1
 90
        0
176
     1
 40
-0.6
176
     1
 41
-30.0
176
     1
 62
     5
 63
     7
421
 16777215
176
     1
 74
     2
176
     1
 91
        2
176
     1
 64
     7
176
     1
 65
   257
176
     1
 75
     1
176
     1
175
     1
176
     1
 42
40.0
176
     1
 92
        8
176
     1
 66
     7
176
     1
 43
1.0
176
     1
 76
     1
176
     1
 77
     6
176
     1
 78
     2
176
     1
 67
     7
176
     1
 79
     3
176
     1
170
     0
176
     1
171
     0
176
     1
290
     0
176
     1
 93
        1
176
     1
 44
0.0
176
     1
173
     0
176
     1
  0
VISUALSTYLE
  5
35
102
{ACAD_REACTORS
330
2A
102
}
330
2A
100
AcDbVisualStyle
  2
Dim
 70
    11
177
     2
291
     1
 71
     2
176
     1
 72
     2
176
     1
 73
     0
176
     1
 90
        0
176
     1
 40
-0.6
176
     1
 41
-30.0
176
     1
 62
     5
 63
     7
421
 16777215
176
     1
 74
     1
176
     1
 91
        4
176
     1
 64
     7
176
     1
 65
   257
176
     1
 75
     1
176
     1
175
     1
176
     1
 42
1.0
176
     1
 92
        8
176
     1
 66
     7
176
     1
 43
1.0
176
     1
 76
     1
176
     1
 77
     6
176
     1
 78
     2
176
     1
 67
     7
176
     1
 79
     5
176
     1
170
     0
176
     1
171
     0
176
     1
290
     0
176
     1
 93
        1
176
     1
 44
-50.0
176
     1
173
     0
176
     1
  0
VISUALSTYLE
  5
39
102
{ACAD_REACTORS
330
2A
102
}
330
2A
100
AcDbVisualStyle
  2
Facepattern
 70
    15
177
     2
291
     1
 71
     2
176
     1
 72
     2
176
     1
 73
     0
176
     1
 90
        0
176
     1
 40
-0.6
176
     1
 41
-30.0
176
     1
 62
     5
 63
     7
421
 16777215
176
     1
 74
     1
176
     1
 91
        4
176
     1
 64
     7
176
     1
 65
   257
176
     1
 75
     1
176
     1
175
     1
176
     1
 42
1.0
176
     1
 92
        8
176
     1
 66
     7
176
     1
 43
1.0
176
     1
 76
     1
176
     1
 77
     6
176
     1
 78
     2
176
     1
 67
     7
176
     1
 79
     5
176
     1
170
     0
176
     1
171
     0
176
     1
290
     0
176
     1
 93
        1
176
     1
 44
0.0
176
     1
173
     0
176
     1
  0
VISUALSTYLE
  5
2B
102
{ACAD_REACTORS
330
2A
102
}
330
2A
100
AcDbVisualStyle
  2
Flat
 70
     0
177
     2
291
     1
 71
     2
176
     1
 72
     1
176
     1
 73
     1
176
     1
 90
        2
176
     1
 40
-0.6
176
     1
 41
30.0
176
     1
 62
     5
 63
     7
421
 16777215
176
     1
 74
     0
176
     1
 91
        4
176
     1
 64
     7
176
     1
 65
   257
176
     1
 75
     1
176
     1
175
     1
176
     1
 42
1.0
176
     1
 92
        8
176
     1
 66
     7
176
     1
 43
1.0
176
     1
 76
     1
176
     1
 77
     6
176
     1
 78
     2
176
     1
 67
     7
176
     1
 79
     5
176
     1
170
     0
176
     1
171
     0
176
     1
290
     0
176
     1
 93
       13
176
     1
 44
0.0
176
     1
173
     0
176
     1
  0
VISUALSTYLE
  5
2C
102
{ACAD_REACTORS
330
2A
102
}
330
2A
100
AcDbVisualStyle
  2
FlatWithEdges
 70
     1
177
     2
291
     1
 71
     2
176
     1
 72
     1
176
     1
 73
     1
176
     1
 90
        2
176
     1
 40
-0.6
176
     1
 41
30.0
176
     1
 62
     5
 63
     7
421
 16777215
176
     1
 74
     1
176
     1
 91
        4
176
     1
 64
     7
176
     1
 65
   257
176
     1
 75
     1
176
     1
175
     1
176
     1
 42
1.0
176
     1
 92
        0
176
     1
 66
   257
176
     1
 43
1.0
176
     1
 76
     1
176
     1
 77
     6
176
     1
 78
     2
176
     1
 67
     7
176
     1
 79
     5
176
     1
170
     0
176
     1
171
     0
176
     1
290
     0
176
     1
 93
       13
176
     1
 44
0.0
176
     1
173
     0
176
     1
  0
VISUALSTYLE
  5
2D
102
{ACAD_REACTORS
330
2A
102
}
330
2A
100
AcDbVisualStyle
  2
Gouraud
 70
     2
177
     2
291
     1
 71
     2
176
     1
 72
     2
176
     1
 73
     1
176
     1
 90
        2
176
     1
 40
-0.6
176
     1
 41
30.0
176
     1
 62
     5
 63
     7
421
 16777215
176
     1
 74
     0
176
     1
 91
        4
176
     1
 64
     7
176
     1
 65
   257
176
     1
 75
     1
176
     1
175
     1
176
     1
 42
1.0
176
     1
 92
        0
176
     1
 66
     7
176
     1
 43
1.0
176
     1
 76
     1
176
     1
 77
     6
176
     1
 78
     2
176
     1
 67
     7
176
     1
 79
     5
176
     1
170
     0
176
     1
171
     0
176
     1
290
     0
176
     1
 93
       13
176
     1
 44
0.0
176
     1
173
     0
176
     1
  0
VISUALSTYLE
  5
2E
102
{ACAD_REACTORS
330
2A
102
}
330
2A
100
AcDbVisualStyle
  2
GouraudWithEdges
 70
     3
177
     2
291
     1
 71
     2
176
     1
 72
     2
176
     1
 73
     1
176
     1
 90
        2
176
     1
 40
-0.6
176
     1
 41
30.0
176
     1
 62
     5
 63
     7
421
 16777215
176
     1
 74
     1
176
     1
 91
        4
176
     1
 64
     7
176
     1
 65
   257
176
     1
 75
     1
176
     1
175
     1
176
     1
 42
1.0
176
     1
 92
        0
176
     1
 66
   257
176
     1
 43
1.0
176
     1
 76
     1
176
     1
 77
     6
176
     1
 78
     2
176
     1
 67
     7
176
     1
 79
     5
176
     1
170
     0
176
     1
171
     0
176
     1
290
     0
176
     1
 93
       13
176
     1
 44
0.0
176
     1
173
     0
176
     1
  0
VISUALSTYLE
  5
38
102
{ACAD_REACTORS
330
2A
102
}
330
2A
100
AcDbVisualStyle
  2
Linepattern
 70
    14
177
     2
291
     1
 71
     2
176
     1
 72
     2
176
     1
 73
     0
176
     1
 90
        0
176
     1
 40
-0.6
176
     1
 41
-30.0
176
     1
 62
     5
 63
     7
421
 16777215
176
     1
 74
     1
176
     1
 91
        4
176
     1
 64
     7
176
     1
 65
   257
176
     1
 75
     7
176
     1
175
     7
176
     1
 42
1.0
176
     1
 92
        8
176
     1
 66
     7
176
     1
 43
1.0
176
     1
 76
     1
176
     1
 77
     6
176
     1
 78
     2
176
     1
 67
     7
176
     1
 79
     5
176
     1
170
     0
176
     1
171
     0
176
     1
290
     0
176
     1
 93
        1
176
     1
 44
0.0
176
     1
173
     0
176
     1
  0
VISUALSTYLE
  5
33
102
{ACAD_REACTORS
330
2A
102
}
330
2A
100
AcDbVisualStyle
  2
Realistic
 70
     8
177
     2
291
     0
 71
     2
176
     1
 72
     2
176
     1
 73
     0
176
     1
 90
        0
176
     1
 40
-0.6
176
     1
 41
-30.0
176
     1
 62
     5
 63
     7
421
 16777215
176
     1
 74
     1
176
     1
 91
        0
176
     1
 64
     7
176
     1
 65
   257
176
     1
 75
     1
176
     1
175
     1
176
     1
 42
1.0
176
     1
 92
        8
176
     1
 66
     8
424
  7895160
176
     1
 43
1.0
176
     1
 76
     1
176
     1
 77
     6
176
     1
 78
     2
176
     1
 67
     7
176
     1
 79
     5
176
     1
170
     0
176
     1
171
     0
176
     1
290
     0
176
     1
 93
       13
176
     1
 44
0.0
176
     1
173
     0
176
     1
  0
VISUALSTYLE
  5
37
102
{ACAD_REACTORS
330
2A
102
}
330
2A
100
AcDbVisualStyle
  2
Thicken
 70
    13
177
     2
291
     1
 71
     2
176
     1
 72
     2
176
     1
 73
     0
176
     1
 90
        0
176
     1
 40
-0.6
176
     1
 41
-30.0
176
     1
 62
     5
 63
     7
421
 16777215
176
     1
 74
     1
176
     1
 91
        4
176
     1
 64
     7
176
     1
 65
   257
176
     1
 75
     1
176
     1
175
     1
176
     1
 42
1.0
176
     1
 92
       12
176
     1
 66
     7
176
     1
 43
1.0
176
     1
 76
     1
176
     1
 77
     6
176
     1
 78
     2
176
     1
 67
     7
176
     1
 79
     5
176
     1
170
     0
176
     1
171
     0
176
     1
290
     0
176
     1
 93
        1
176
     1
 44
0.0
176
     1
173
     0
176
     1
  0
ENDSEC
  0
EOF
