  0
SECTION
  2
HEADER
  9
$ACADVER
  1
AC1024
  9
$ACADMAINTVER
 70
     6
  9
$DWGCODEPAGE
  3
UNDEFINED
  9
$INSBASE
 10
0.0
 20
0.0
 30
0.0
  9
$EXTMIN
 10
1.000000000000000E+20
 20
1.000000000000000E+20
 30
1.000000000000000E+20
  9
$EXTMAX
 10
-1.000000000000000E+20
 20
-1.000000000000000E+20
 30
-1.000000000000000E+20
  9
$LIMMIN
 10
0.0
 20
0.0
  9
$LIMMAX
 10
12.0
 20
9.0
  9
$ORTHOMODE
 70
     0
  9
$REGENMODE
 70
     1
  9
$FILLMODE
 70
     1
  9
$QTEXTMODE
 70
     0
  9
$MIRRTEXT
 70
     1
  9
$LTSCALE
 40
1.0
  9
$ATTMODE
 70
     1
  9
$TEXTSIZE
 40
0.2
  9
$TRACEWID
 40
0.05
  9
$TEXTSTYLE
  7
Standard
  9
$CLAYER
  8
0
  9
$CELTYPE
  6
ByLayer
  9
$CECOLOR
 62
   256
  9
$CELTSCALE
 40
1.0
  9
$DISPSILH
 70
     0
  9
$DIMSCALE
 40
1.0
  9
$DIMASZ
 40
0.18
  9
$DIMEXO
 40
0.0625
  9
$DIMDLI
 40
0.38
  9
$DIMRND
 40
0.0
  9
$DIMDLE
 40
0.0
  9
$DIMEXE
 40
0.18
  9
$DIMTP
 40
0.0
  9
$DIMTM
 40
0.0
  9
$DIMTXT
 40
0.18
  9
$DIMCEN
 40
0.09
  9
$DIMTSZ
 40
0.0
  9
$DIMTOL
 70
     0
  9
$DIMLIM
 70
     0
  9
$DIMTIH
 70
     1
  9
$DIMTOH
 70
     1
  9
$DIMSE1
 70
     0
  9
$DIMSE2
 70
     0
  9
$DIMTAD
 70
     0
  9
$DIMZIN
 70
     0
  9
$DIMBLK
  1

  9
$DIMASO
 70
     1
  9
$DIMSHO
 70
     1
  9
$DIMPOST
  1

  9
$DIMAPOST
  1

  9
$DIMALT
 70
     0
  9
$DIMALTD
 70
     2
  9
$DIMALTF
 40
25.4
  9
$DIMLFAC
 40
1.0
  9
$DIMTOFL
 70
     0
  9
$DIMTVP
 40
0.0
  9
$DIMTIX
 70
     0
  9
$DIMSOXD
 70
     0
  9
$DIMSAH
 70
     0
  9
$DIMBLK1
  1

  9
$DIMBLK2
  1

  9
$DIMSTYLE
  2
Standard
  9
$DIMCLRD
 70
     0
  9
$DIMCLRE
 70
     0
  9
$DIMCLRT
 70
     0
  9
$DIMTFAC
 40
1.0
  9
$DIMGAP
 40
0.09
  9
$DIMJUST
 70
     0
  9
$DIMSD1
 70
     0
  9
$DIMSD2
 70
     0
  9
$DIMTOLJ
 70
     1
  9
$DIMTZIN
 70
     0
  9
$DIMALTZ
 70
     0
  9
$DIMALTTZ
 70
     0
  9
$DIMUPT
 70
     0
  9
$DIMDEC
 70
     4
  9
$DIMTDEC
 70
     4
  9
$DIMALTU
 70
     2
  9
$DIMALTTD
 70
     2
  9
$DIMTXSTY
  7
Standard
  9
$DIMAUNIT
 70
     0
  9
$DIMADEC
 70
     0
  9
$DIMALTRND
 40
0.0
  9
$DIMAZIN
 70
     0
  9
$DIMDSEP
 70
    46
  9
$DIMATFIT
 70
     3
  9
$DIMFRAC
 70
     0
  9
$DIMLDRBLK
  1

  9
$DIMLUNIT
 70
     2
  9
$DIMLWD
 70
    -2
  9
$DIMLWE
 70
    -2
  9
$DIMTMOVE
 70
     0
  9
$DIMFXL
 40
1.0
  9
$DIMFXLON
 70
     0
  9
$DIMJOGANG
 40
0.7853981633974483
  9
$DIMTFILL
 70
     0
  9
$DIMTFILLCLR
 70
     0
  9
$DIMARCSYM
 70
     0
  9
$DIMLTYPE
  6

  9
$DIMLTEX1
  6

  9
$DIMLTEX2
  6

  9
$DIMTXTDIRECTION
 70
     0
  9
$LUNITS
 70
     2
  9
$LUPREC
 70
     4
  9
$SKETCHINC
 40
0.1
  9
$FILLETRAD
 40
0.5
  9
$AUNITS
 70
     0
  9
$AUPREC
 70
     0
  9
$MENU
  1
.
  9
$ELEVATION
 40
0.0
  9
$PELEVATION
 40
0.0
  9
$THICKNESS
 40
0.0
  9
$LIMCHECK
 70
     0
  9
$CHAMFERA
 40
0.5
  9
$CHAMFERB
 40
0.5
  9
$CHAMFERC
 40
1.0
  9
$CHAMFERD
 40
0.0
  9
$SKPOLY
 70
     0
  9
$TDCREATE
 40
2457917.612094908
  9
$TDUCREATE
 40
2457917.237094908
  9
$TDUPDATE
 40
2457917.612094908
  9
$TDUUPDATE
 40
2457917.237094908
  9
$TDINDWG
 40
0.0000000116
  9
$TDUSRTIMER
 40
0.0000000116
  9
$USRTIMER
 70
     1
  9
$ANGBASE
 50
0.0
  9
$ANGDIR
 70
     0
  9
$PDMODE
 70
     0
  9
$PDSIZE
 40
0.0
  9
$PLINEWID
 40
0.0
  9
$SPLFRAME
 70
     0
  9
$SPLINETYPE
 70
     6
  9
$SPLINESEGS
 70
     8
  9
$HANDSEED
  5
13B
  9
$SURFTAB1
 70
     6
  9
$SURFTAB2
 70
     6
  9
$SURFTYPE
 70
     6
  9
$SURFU
 70
     6
  9
$SURFV
 70
     6
  9
$UCSBASE
  2

  9
$UCSNAME
  2

  9
$UCSORG
 10
0.0
 20
0.0
 30
0.0
  9
$UCSXDIR
 10
1.0
 20
0.0
 30
0.0
  9
$UCSYDIR
 10
0.0
 20
1.0
 30
0.0
  9
$UCSORTHOREF
  2

  9
$UCSORTHOVIEW
 70
     0
  9
$UCSORGTOP
 10
0.0
 20
0.0
 30
0.0
  9
$UCSORGBOTTOM
 10
0.0
 20
0.0
 30
0.0
  9
$UCSORGLEFT
 10
0.0
 20
0.0
 30
0.0
  9
$UCSORGRIGHT
 10
0.0
 20
0.0
 30
0.0
  9
$UCSORGFRONT
 10
0.0
 20
0.0
 30
0.0
  9
$UCSORGBACK
 10
0.0
 20
0.0
 30
0.0
  9
$PUCSBASE
  2

  9
$PUCSNAME
  2

  9
$PUCSORG
 10
0.0
 20
0.0
 30
0.0
  9
$PUCSXDIR
 10
1.0
 20
0.0
 30
0.0
  9
$PUCSYDIR
 10
0.0
 20
1.0
 30
0.0
  9
$PUCSORTHOREF
  2

  9
$PUCSORTHOVIEW
 70
     0
  9
$PUCSORGTOP
 10
0.0
 20
0.0
 30
0.0
  9
$PUCSORGBOTTOM
 10
0.0
 20
0.0
 30
0.0
  9
$PUCSORGLEFT
 10
0.0
 20
0.0
 30
0.0
  9
$PUCSORGRIGHT
 10
0.0
 20
0.0
 30
0.0
  9
$PUCSORGFRONT
 10
0.0
 20
0.0
 30
0.0
  9
$PUCSORGBACK
 10
0.0
 20
0.0
 30
0.0
  9
$USERI1
 70
     0
  9
$USERI2
 70
     0
  9
$USERI3
 70
     0
  9
$USERI4
 70
     0
  9
$USERI5
 70
     0
  9
$USERR1
 40
0.0
  9
$USERR2
 40
0.0
  9
$USERR3
 40
0.0
  9
$USERR4
 40
0.0
  9
$USERR5
 40
0.0
  9
$WORLDVIEW
 70
     1
  9
$SHADEDGE
 70
     3
  9
$SHADEDIF
 70
    70
  9
$TILEMODE
 70
     1
  9
$MAXACTVP
 70
    64
  9
$PINSBASE
 10
0.0
 20
0.0
 30
0.0
  9
$PLIMCHECK
 70
     0
  9
$PEXTMIN
 10
1.000000000000000E+20
 20
1.000000000000000E+20
 30
1.000000000000000E+20
  9
$PEXTMAX
 10
-1.000000000000000E+20
 20
-1.000000000000000E+20
 30
-1.000000000000000E+20
  9
$PLIMMIN
 10
0.0
 20
0.0
  9
$PLIMMAX
 10
12.0
 20
9.0
  9
$UNITMODE
 70
     0
  9
$VISRETAIN
 70
     1
  9
$PLINEGEN
 70
     0
  9
$PSLTSCALE
 70
     1
  9
$TREEDEPTH
 70
  3020
  9
$CMLSTYLE
  2
Standard
  9
$CMLJUST
 70
     0
  9
$CMLSCALE
 40
1.0
  9
$PROXYGRAPHICS
 70
     1
  9
$MEASUREMENT
 70
     0
  9
$CELWEIGHT
370
    -1
  9
$ENDCAPS
280
     0
  9
$JOINSTYLE
280
     0
  9
$LWDISPLAY
290
     1
  9
$INSUNITS
 70
     1
  9
$HYPERLINKBASE
  1

  9
$STYLESHEET
  1

  9
$XEDIT
290
     1
  9
$CEPSNTYPE
380
     0
  9
$PSTYLEMODE
290
     1
  9
$FINGERPRINTGUID
  2
{6D87E65A-D9EA-4EAF-17DB-FD975A6656A8}
  9
$VERSIONGUID
  2
{FAEB1C32-E019-11D5-929B-00C0DF256EC4}
  9
$EXTNAMES
290
     1
  9
$PSVPSCALE
 40
0.0
  9
$OLESTARTUP
290
     0
  9
$SORTENTS
280
   127
  9
$INDEXCTL
280
     0
  9
$HIDETEXT
280
     1
  9
$XCLIPFRAME
280
     2
  9
$HALOGAP
280
     0
  9
$OBSCOLOR
 70
   257
  9
$OBSLTYPE
280
     0
  9
$INTERSECTIONDISPLAY
280
     0
  9
$INTERSECTIONCOLOR
 70
   257
  9
$DIMASSOC
280
     2
  9
$PROJECTNAME
  1

  9
$CAMERADISPLAY
290
     0
  9
$LENSLENGTH
 40
50.0
  9
$CAMERAHEIGHT
 40
0.0
  9
$STEPSPERSEC
 40
2.0
  9
$STEPSIZE
 40
6.0
  9
$3DDWFPREC
 40
2.0
  9
$PSOLWIDTH
 40
0.25
  9
$PSOLHEIGHT
 40
4.0
  9
$LOFTANG1
 40
1.570796326794897
  9
$LOFTANG2
 40
1.570796326794897
  9
$LOFTMAG1
 40
0.0
  9
$LOFTMAG2
 40
0.0
  9
$LOFTPARAM
 70
     7
  9
$LOFTNORMALS
280
     1
  9
$LATITUDE
 40
37.795
  9
$LONGITUDE
 40
-122.394
  9
$NORTHDIRECTION
 40
0.0
  9
$TIMEZONE
 70
 -8000
  9
$LIGHTGLYPHDISPLAY
280
     1
  9
$TILEMODELIGHTSYNCH
280
     1
  9
$CMATERIAL
347
3C
  9
$SOLIDHIST
280
     1
  9
$SHOWHIST
280
     1
  9
$DWFFRAME
280
     2
  9
$DGNFRAME
280
     2
  9
$REALWORLDSCALE
290
     1
  9
$INTERFERECOLOR
 62
   256
  9
$CSHADOW
280
     0
  9
$SHADOWPLANELOCATION
 40
0.0
  0
ENDSEC
  0
SECTION
  2
CLASSES
  0
CLASS
  1
ACDBDICTIONARYWDFLT
  2
AcDbDictionaryWithDefault
  3
ObjectDBX Classes
 90
        0
 91
        4
280
     0
281
     0
  0
CLASS
  1
VISUALSTYLE
  2
AcDbVisualStyle
  3
ObjectDBX Classes
 90
     4095
 91
        4
280
     0
281
     0
  0
CLASS
  1
MATERIAL
  2
AcDbMaterial
  3
ObjectDBX Classes
 90
     1153
 91
        4
280
     0
281
     0
  0
CLASS
  1
SUN
  2
AcDbSun
  3
SCENEOE
 90
     1024
 91
        4
280
     0
281
     0
  0
ENDSEC
  0
SECTION
  2
TABLES
  0
TABLE
  2
VPORT
  5
8
330
0
100
AcDbSymbolTable
 70
     1
  0
VPORT
  5
29
330
8
100
AcDbSymbolTableRecord
100
AcDbViewportTableRecord
  2
*Active
 70
     0
 10
0.0
 20
0.0
 11
1.0
 21
1.0
 12
0.0
 22
0.0
 13
0.0
 23
0.0
 14
0.5
 24
0.5
 15
0.5
 25
0.5
 16
0.0
 26
0.0
 36
1.0
 17
91.00082462281999
 27
-128.4993055234307
 37
0.0
 40
256.9986110468615
 41
0.7081814508812795
 42
50.0
 43
0.0
 44
0.0
 50
0.0
 51
0.0
 71
     0
 72
   100
 73
     1
 74
     3
 75
     0
 76
     0
 77
     0
 78
     0
281
     0
 65
     1
110
0.0
120
0.0
130
0.0
111
1.0
121
0.0
131
0.0
112
0.0
122
1.0
132
0.0
 79
     0
146
0.0
 60
     3
 61
     5
292
     1
282
     1
141
0.0
142
0.0
 63
   250
361
3F
  0
ENDTAB
  0
TABLE
  2
LTYPE
  5
5
330
0
100
AcDbSymbolTable
 70
     1
  0
LTYPE
  5
14
330
5
100
AcDbSymbolTableRecord
100
AcDbLinetypeTableRecord
  2
ByBlock
 70
     0
  3

 72
    65
 73
     0
 40
0.0
  0
LTYPE
  5
15
330
5
100
AcDbSymbolTableRecord
100
AcDbLinetypeTableRecord
  2
ByLayer
 70
     0
  3

 72
    65
 73
     0
 40
0.0
  0
LTYPE
  5
16
330
5
100
AcDbSymbolTableRecord
100
AcDbLinetypeTableRecord
  2
Continuous
 70
     0
  3
Solid line
 72
    65
 73
     0
 40
0.0
  0
ENDTAB
  0
TABLE
  2
LAYER
  5
2
330
0
100
AcDbSymbolTable
 70
     2
  0
LAYER
  5
10
330
2
100
AcDbSymbolTableRecord
100
AcDbLayerTableRecord
  2
0
 70
     0
 62
     7
  6
Continuous
370
    -3
390
F
347
3E
  0
LAYER
  5
40
330
2
100
AcDbSymbolTableRecord
100
AcDbLayerTableRecord
  2
_U+30EC_U+30A4_U+30E4_U+30FC 1
 70
     0
 62
     7
  6
Continuous
370
    -3
390
F
347
3E
  0
ENDTAB
  0
TABLE
  2
STYLE
  5
3
330
0
100
AcDbSymbolTable
 70
     1
  0
STYLE
  5
11
330
3
100
AcDbSymbolTableRecord
100
AcDbTextStyleTableRecord
  2
Standard
 70
     0
 40
0.0
 41
1.0
 50
0.0
 71
     0
 42
0.2
  3
txt
  4

  0
ENDTAB
  0
TABLE
  2
VIEW
  5
6
330
0
100
AcDbSymbolTable
 70
     0
  0
ENDTAB
  0
TABLE
  2
UCS
  5
7
330
0
100
AcDbSymbolTable
 70
     0
  0
ENDTAB
  0
TABLE
  2
APPID
  5
9
330
0
100
AcDbSymbolTable
 70
     1
  0
APPID
  5
12
330
9
100
AcDbSymbolTableRecord
100
AcDbRegAppTableRecord
  2
ACAD
 70
     0
  0
ENDTAB
  0
TABLE
  2
DIMSTYLE
  5
A
330
0
100
AcDbSymbolTable
 70
     1
100
AcDbDimStyleTable
  0
DIMSTYLE
105
27
330
A
100
AcDbSymbolTableRecord
100
AcDbDimStyleTableRecord
  2
Standard
 70
     0
178
     0
340
11
  0
ENDTAB
  0
TABLE
  2
BLOCK_RECORD
  5
1
330
0
100
AcDbSymbolTable
 70
     9
  0
BLOCK_RECORD
  5
1F
330
1
100
AcDbSymbolTableRecord
100
AcDbBlockTableRecord
  2
*Model_Space
340
22
 70
     0
280
     1
281
     0
  0
BLOCK_RECORD
  5
1B
330
1
100
AcDbSymbolTableRecord
100
AcDbBlockTableRecord
  2
*Paper_Space
340
1E
 70
     0
280
     1
281
     0
  0
BLOCK_RECORD
  5
23
330
1
100
AcDbSymbolTableRecord
100
AcDbBlockTableRecord
  2
*Paper_Space0
340
26
 70
     0
280
     1
281
     0
  0
BLOCK_RECORD
  5
F6
330
1
100
AcDbSymbolTableRecord
100
AcDbBlockTableRecord
  2
block 2
340
0
102
{BLKREFS
331
F7
102
}
 70
     0
280
     1
281
     0
  0
BLOCK_RECORD
  5
106
330
1
100
AcDbSymbolTableRecord
100
AcDbBlockTableRecord
  2
block 3
340
0
102
{BLKREFS
331
107
102
}
 70
     0
280
     1
281
     0
  0
BLOCK_RECORD
  5
10C
330
1
100
AcDbSymbolTableRecord
100
AcDbBlockTableRecord
  2
block 4
340
0
102
{BLKREFS
331
10D
102
}
 70
     0
280
     1
281
     0
  0
BLOCK_RECORD
  5
112
330
1
100
AcDbSymbolTableRecord
100
AcDbBlockTableRecord
  2
block 5
340
0
102
{BLKREFS
331
113
102
}
 70
     0
280
     1
281
     0
  0
BLOCK_RECORD
  5
11B
330
1
100
AcDbSymbolTableRecord
100
AcDbBlockTableRecord
  2
block 6
340
0
102
{BLKREFS
331
11C
102
}
 70
     0
280
     1
281
     0
  0
BLOCK_RECORD
  5
124
330
1
100
AcDbSymbolTableRecord
100
AcDbBlockTableRecord
  2
block 7
340
0
102
{BLKREFS
331
125
102
}
 70
     0
280
     1
281
     0
  0
BLOCK_RECORD
  5
12A
330
1
100
AcDbSymbolTableRecord
100
AcDbBlockTableRecord
  2
block 8
340
0
102
{BLKREFS
331
12B
102
}
 70
     0
280
     1
281
     0
  0
BLOCK_RECORD
  5
130
330
1
100
AcDbSymbolTableRecord
100
AcDbBlockTableRecord
  2
block 9
340
0
102
{BLKREFS
331
131
102
}
 70
     0
280
     1
281
     0
  0
ENDTAB
  0
ENDSEC
  0
SECTION
  2
BLOCKS
  0
BLOCK
  5
20
330
1F
100
AcDbEntity
  8
0
100
AcDbBlockBegin
  2
*Model_Space
 70
     0
 10
0.0
 20
0.0
 30
0.0
  3
*Model_Space
  1

  0
ENDBLK
  5
21
330
1F
100
AcDbEntity
  8
0
100
AcDbBlockEnd
  0
BLOCK
  5
1C
330
1B
100
AcDbEntity
 67
     1
  8
0
100
AcDbBlockBegin
  2
*Paper_Space
 70
     0
 10
0.0
 20
0.0
 30
0.0
  3
*Paper_Space
  1

  0
ENDBLK
  5
1D
330
1B
100
AcDbEntity
 67
     1
  8
0
100
AcDbBlockEnd
  0
BLOCK
  5
24
330
23
100
AcDbEntity
  8
0
100
AcDbBlockBegin
  2
*Paper_Space0
 70
     0
 10
0.0
 20
0.0
 30
0.0
  3
*Paper_Space0
  1

  0
ENDBLK
  5
25
330
23
100
AcDbEntity
  8
0
100
AcDbBlockEnd
  0
BLOCK
  5
F8
330
F6
100
AcDbEntity
  8
0
100
AcDbBlockBegin
  2
block 2
 70
     0
 10
0.0
 20
0.0
 30
0.0
  3
block 2
  1

  0
SPLINE
  5
FA
330
F6
100
AcDbEntity
  8
_U+30EC_U+30A4_U+30E4_U+30FC 1
370
     0
100
AcDbSpline
210
0.0
220
0.0
230
1.0
 70
    11
 71
     3
 72
    26
 73
    22
 74
     0
 42
0.0000000001
 43
0.0000000001
 12
1.0
 22
0.0
 32
0.0
 13
1.0
 23
0.0
 33
0.0
 40
0.0
 40
0.0
 40
0.0
 40
0.0
 40
1.0
 40
1.0
 40
1.0
 40
2.0
 40
2.0
 40
2.0
 40
3.0
 40
3.0
 40
3.0
 40
4.0
 40
4.0
 40
4.0
 40
5.0
 40
5.0
 40
5.0
 40
6.0
 40
6.0
 40
6.0
 40
7.0
 40
7.0
 40
7.0
 40
7.0
 10
92.34406193437927
 20
-94.47898760658859
 30
0.0
 10
92.34406193437927
 20
-94.47898760658859
 30
0.0
 10
92.34406193437927
 20
-93.37466224879175
 30
0.0
 10
92.34406193437927
 20
-93.37466224879175
 30
0.0
 10
92.34406193437927
 20
-93.37466224879175
 30
0.0
 10
92.05295136587566
 20
-93.37466224879175
 30
0.0
 10
92.05295136587566
 20
-93.37466224879175
 30
0.0
 10
92.05295136587566
 20
-93.37466224879175
 30
0.0
 10
92.05295136587566
 20
-93.22669539770027
 30
0.0
 10
92.05295136587566
 20
-93.22669539770027
 30
0.0
 10
92.34612899167041
 20
-93.2118814871137
 30
0.0
 10
92.38712562794488
 20
-93.04892847066138
 30
0.0
 10
92.41330835363279
 20
-92.93472355532535
 30
0.0
 10
92.41330835363279
 20
-92.93472355532535
 30
0.0
 10
92.54215492478113
 20
-92.93472355532535
 30
0.0
 10
92.54215492478113
 20
-92.93472355532535
 30
0.0
 10
92.54215492478113
 20
-92.93472355532535
 30
0.0
 10
92.54215492478113
 20
-94.47898760658859
 30
0.0
 10
92.54215492478113
 20
-94.47898760658859
 30
0.0
 10
92.54215492478113
 20
-94.47898760658859
 30
0.0
 10
92.34406193437927
 20
-94.47898760658859
 30
0.0
 10
92.34406193437927
 20
-94.47898760658859
 30
0.0
  0
HATCH
  5
FB
330
F6
100
AcDbEntity
  8
_U+30EC_U+30A4_U+30E4_U+30FC 1
 62
   179
420
  2234388
100
AcDbHatch
 10
0.0
 20
0.0
 30
0.0
210
0.0
220
0.0
230
1.0
  2
SOLID
 70
     1
 71
     0
 91
        1
 92
        1
 93
        1
 72
     4
 94
        3
 73
     0
 74
     1
 95
       26
 96
       22
 40
0.0
 40
0.0
 40
0.0
 40
0.0
 40
1.0
 40
1.0
 40
1.0
 40
2.0
 40
2.0
 40
2.0
 40
3.0
 40
3.0
 40
3.0
 40
4.0
 40
4.0
 40
4.0
 40
5.0
 40
5.0
 40
5.0
 40
6.0
 40
6.0
 40
6.0
 40
7.0
 40
7.0
 40
7.0
 40
7.0
 10
92.34406193437927
 20
-94.47898760658859
 10
92.34406193437927
 20
-94.47898760658859
 10
92.34406193437927
 20
-93.37466224879175
 10
92.34406193437927
 20
-93.37466224879175
 10
92.34406193437927
 20
-93.37466224879175
 10
92.05295136587566
 20
-93.37466224879175
 10
92.05295136587566
 20
-93.37466224879175
 10
92.05295136587566
 20
-93.37466224879175
 10
92.05295136587566
 20
-93.22669539770027
 10
92.05295136587566
 20
-93.22669539770027
 10
92.34612899167041
 20
-93.2118814871137
 10
92.38712562794488
 20
-93.04892847066138
 10
92.41330835363279
 20
-92.93472355532535
 10
92.41330835363279
 20
-92.93472355532535
 10
92.54215492478113
 20
-92.93472355532535
 10
92.54215492478113
 20
-92.93472355532535
 10
92.54215492478113
 20
-92.93472355532535
 10
92.54215492478113
 20
-94.47898760658859
 10
92.54215492478113
 20
-94.47898760658859
 10
92.54215492478113
 20
-94.47898760658859
 10
92.34406193437927
 20
-94.47898760658859
 10
92.34406193437927
 20
-94.47898760658859
 97
        0
 97
        0
 75
     2
 76
     1
 98
        0
  0
POLYLINE
  5
FC
330
F6
100
AcDbEntity
  8
_U+30EC_U+30A4_U+30E4_U+30FC 1
370
     0
100
AcDb2dPolyline
 66
     1
 10
0.0
 20
0.0
 30
0.0
  0
VERTEX
  5
FD
330
FC
100
AcDbEntity
  8
_U+30EC_U+30A4_U+30E4_U+30FC 1
370
     0
100
AcDbVertex
100
AcDb2dVertex
 10
93.03824867465711
 20
-94.47898760658859
 30
0.0
  0
VERTEX
  5
FE
330
FC
100
AcDbEntity
  8
_U+30EC_U+30A4_U+30E4_U+30FC 1
370
     0
100
AcDbVertex
100
AcDb2dVertex
 10
93.03824867465711
 20
-94.22732338139109
 30
0.0
  0
VERTEX
  5
FF
330
FC
100
AcDbEntity
  8
_U+30EC_U+30A4_U+30E4_U+30FC 1
370
     0
100
AcDbVertex
100
AcDb2dVertex
 10
93.26045733345572
 20
-94.22732338139109
 30
0.0
  0
VERTEX
  5
100
330
FC
100
AcDbEntity
  8
_U+30EC_U+30A4_U+30E4_U+30FC 1
370
     0
100
AcDbVertex
100
AcDb2dVertex
 10
93.26045733345572
 20
-94.47898760658859
 30
0.0
  0
VERTEX
  5
101
330
FC
100
AcDbEntity
  8
_U+30EC_U+30A4_U+30E4_U+30FC 1
370
     0
100
AcDbVertex
100
AcDb2dVertex
 10
93.03824867465711
 20
-94.47898760658859
 30
0.0
  0
SEQEND
  5
102
330
FC
100
AcDbEntity
  8
_U+30EC_U+30A4_U+30E4_U+30FC 1
370
     0
  0
HATCH
  5
103
330
F6
100
AcDbEntity
  8
_U+30EC_U+30A4_U+30E4_U+30FC 1
 62
   179
420
  2234388
100
AcDbHatch
 10
0.0
 20
0.0
 30
0.0
210
0.0
220
0.0
230
1.0
  2
SOLID
 70
     1
 71
     0
 91
        1
 92
        1
 93
        4
 72
     1
 10
93.03824867465711
 20
-94.47898760658859
 11
93.03824867465711
 21
-94.22732338139109
 72
     1
 10
93.03824867465711
 20
-94.22732338139109
 11
93.26045733345572
 21
-94.22732338139109
 72
     1
 10
93.26045733345572
 20
-94.22732338139109
 11
93.26045733345572
 21
-94.47898760658859
 72
     1
 10
93.26045733345572
 20
-94.47898760658859
 11
93.03824867465711
 21
-94.47898760658859
 97
        0
 75
     2
 76
     1
 98
        0
  0
SPLINE
  5
104
330
F6
100
AcDbEntity
  8
_U+30EC_U+30A4_U+30E4_U+30FC 1
370
     0
100
AcDbSpline
210
0.0
220
0.0
230
1.0
 70
    11
 71
     3
 72
    44
 73
    40
 74
     0
 42
0.0000000001
 43
0.0000000001
 12
1.0
 22
0.0
 32
0.0
 13
1.0
 23
0.0
 33
0.0
 40
0.0
 40
0.0
 40
0.0
 40
0.0
 40
1.0
 40
1.0
 40
1.0
 40
2.0
 40
2.0
 40
2.0
 40
3.0
 40
3.0
 40
3.0
 40
4.0
 40
4.0
 40
4.0
 40
5.0
 40
5.0
 40
5.0
 40
6.0
 40
6.0
 40
6.0
 40
7.0
 40
7.0
 40
7.0
 40
8.0
 40
8.0
 40
8.0
 40
9.0
 40
9.0
 40
9.0
 40
10.0
 40
10.0
 40
10.0
 40
11.0
 40
11.0
 40
11.0
 40
12.0
 40
12.0
 40
12.0
 40
13.0
 40
13.0
 40
13.0
 40
13.0
 10
93.99357365271689
 20
-93.89728323390416
 30
0.0
 10
93.80099281509142
 20
-94.05592988099991
 30
0.0
 10
93.71899954254248
 20
-94.12999943393278
 30
0.0
 10
93.67593584897685
 20
-94.27383217044196
 30
0.0
 10
93.67593584897685
 20
-94.27383217044196
 30
0.0
 10
94.3632323982842
 20
-94.27383217044196
 30
0.0
 10
94.3632323982842
 20
-94.27383217044196
 30
0.0
 10
94.3632323982842
 20
-94.27383217044196
 30
0.0
 10
94.3632323982842
 20
-94.47898760658859
 30
0.0
 10
94.3632323982842
 20
-94.47898760658859
 30
0.0
 10
94.3632323982842
 20
-94.47898760658859
 30
0.0
 10
93.45544973792086
 20
-94.47898760658859
 30
0.0
 10
93.45544973792086
 20
-94.47898760658859
 30
0.0
 10
93.48335501135139
 20
-94.12138669521966
 30
0.0
 10
93.54123261550359
 20
-94.04318302770449
 30
0.0
 10
93.88126353989774
 20
-93.74483775868185
 30
0.0
 10
94.10726180373014
 20
-93.54605574918294
 30
0.0
 10
94.16513940788234
 20
-93.47835962289777
 30
0.0
 10
94.16513940788234
 20
-93.3409003130363
 30
0.0
 10
94.16513940788234
 20
-93.22238902834371
 30
0.0
 10
94.10174965095374
 20
-93.09130314512996
 30
0.0
 10
93.92811683849715
 20
-93.09130314512996
 30
0.0
 10
93.69832896963098
 20
-93.09130314512996
 30
0.0
 10
93.69074975956343
 20
-93.32178003309318
 30
0.0
 10
93.68696015452966
 20
-93.43822426049462
 30
0.0
 10
93.68696015452966
 20
-93.43822426049462
 30
0.0
 10
93.48921167367631
 20
-93.43822426049462
 30
0.0
 10
93.48921167367631
 20
-93.43822426049462
 30
0.0
 10
93.49644637419534
 20
-93.31127249186316
 30
0.0
 10
93.50574813200551
 20
-93.19913463381828
 30
0.0
 10
93.57706160855018
 20
-93.08062334912569
 30
0.0
 10
93.6738687916857
 20
-92.91990964473878
 30
0.0
 10
93.83854435588064
 20
-92.88597545420906
 30
0.0
 10
93.9412082013411
 20
-92.88597545420906
 30
0.0
 10
94.18580998079383
 20
-92.88597545420906
 30
0.0
 10
94.3687445510606
 20
-93.07011580789568
 30
0.0
 10
94.3687445510606
 20
-93.34296737032746
 30
0.0
 10
94.3687445510606
 20
-93.57137720099952
 30
0.0
 10
94.26608070560015
 20
-93.67094046052324
 30
0.0
 10
93.99357365271689
 20
-93.89728323390416
 30
0.0
  0
HATCH
  5
105
330
F6
100
AcDbEntity
  8
_U+30EC_U+30A4_U+30E4_U+30FC 1
 62
   179
420
  2234388
100
AcDbHatch
 10
0.0
 20
0.0
 30
0.0
210
0.0
220
0.0
230
1.0
  2
SOLID
 70
     1
 71
     0
 91
        1
 92
        1
 93
        1
 72
     4
 94
        3
 73
     0
 74
     1
 95
       44
 96
       40
 40
0.0
 40
0.0
 40
0.0
 40
0.0
 40
1.0
 40
1.0
 40
1.0
 40
2.0
 40
2.0
 40
2.0
 40
3.0
 40
3.0
 40
3.0
 40
4.0
 40
4.0
 40
4.0
 40
5.0
 40
5.0
 40
5.0
 40
6.0
 40
6.0
 40
6.0
 40
7.0
 40
7.0
 40
7.0
 40
8.0
 40
8.0
 40
8.0
 40
9.0
 40
9.0
 40
9.0
 40
10.0
 40
10.0
 40
10.0
 40
11.0
 40
11.0
 40
11.0
 40
12.0
 40
12.0
 40
12.0
 40
13.0
 40
13.0
 40
13.0
 40
13.0
 10
93.99357365271689
 20
-93.89728323390416
 10
93.80099281509142
 20
-94.05592988099991
 10
93.71899954254248
 20
-94.12999943393278
 10
93.67593584897685
 20
-94.27383217044196
 10
93.67593584897685
 20
-94.27383217044196
 10
94.3632323982842
 20
-94.27383217044196
 10
94.3632323982842
 20
-94.27383217044196
 10
94.3632323982842
 20
-94.27383217044196
 10
94.3632323982842
 20
-94.47898760658859
 10
94.3632323982842
 20
-94.47898760658859
 10
94.3632323982842
 20
-94.47898760658859
 10
93.45544973792086
 20
-94.47898760658859
 10
93.45544973792086
 20
-94.47898760658859
 10
93.48335501135139
 20
-94.12138669521966
 10
93.54123261550359
 20
-94.04318302770449
 10
93.88126353989774
 20
-93.74483775868185
 10
94.10726180373014
 20
-93.54605574918294
 10
94.16513940788234
 20
-93.47835962289777
 10
94.16513940788234
 20
-93.3409003130363
 10
94.16513940788234
 20
-93.22238902834371
 10
94.10174965095374
 20
-93.09130314512996
 10
93.92811683849715
 20
-93.09130314512996
 10
93.69832896963098
 20
-93.09130314512996
 10
93.69074975956343
 20
-93.32178003309318
 10
93.68696015452966
 20
-93.43822426049462
 10
93.68696015452966
 20
-93.43822426049462
 10
93.48921167367631
 20
-93.43822426049462
 10
93.48921167367631
 20
-93.43822426049462
 10
93.49644637419534
 20
-93.31127249186316
 10
93.50574813200551
 20
-93.19913463381828
 10
93.57706160855018
 20
-93.08062334912569
 10
93.6738687916857
 20
-92.91990964473878
 10
93.83854435588064
 20
-92.88597545420906
 10
93.9412082013411
 20
-92.88597545420906
 10
94.18580998079383
 20
-92.88597545420906
 10
94.3687445510606
 20
-93.07011580789568
 10
94.3687445510606
 20
-93.34296737032746
 10
94.3687445510606
 20
-93.57137720099952
 10
94.26608070560015
 20
-93.67094046052324
 10
93.99357365271689
 20
-93.89728323390416
 97
        0
 97
        0
 75
     2
 76
     1
 98
        0
  0
ENDBLK
  5
F9
330
F6
100
AcDbEntity
  8
0
100
AcDbBlockEnd
  0
BLOCK
  5
108
330
106
100
AcDbEntity
  8
0
100
AcDbBlockBegin
  2
block 3
 70
     0
 10
0.0
 20
0.0
 30
0.0
  3
block 3
  1

  0
SPLINE
  5
10A
330
106
100
AcDbEntity
  8
_U+30EC_U+30A4_U+30E4_U+30FC 1
370
     0
100
AcDbSpline
210
0.0
220
0.0
230
1.0
 70
    11
 71
     3
 72
    62
 73
    58
 74
     0
 42
0.0000000001
 43
0.0000000001
 12
1.0
 22
0.0
 32
0.0
 13
1.0
 23
0.0
 33
0.0
 40
0.0
 40
0.0
 40
0.0
 40
0.0
 40
1.0
 40
1.0
 40
1.0
 40
2.0
 40
2.0
 40
2.0
 40
3.0
 40
3.0
 40
3.0
 40
4.0
 40
4.0
 40
4.0
 40
5.0
 40
5.0
 40
5.0
 40
6.0
 40
6.0
 40
6.0
 40
7.0
 40
7.0
 40
7.0
 40
8.0
 40
8.0
 40
8.0
 40
9.0
 40
9.0
 40
9.0
 40
10.0
 40
10.0
 40
10.0
 40
11.0
 40
11.0
 40
11.0
 40
12.0
 40
12.0
 40
12.0
 40
13.0
 40
13.0
 40
13.0
 40
14.0
 40
14.0
 40
14.0
 40
15.0
 40
15.0
 40
15.0
 40
16.0
 40
16.0
 40
16.0
 40
17.0
 40
17.0
 40
17.0
 40
18.0
 40
18.0
 40
18.0
 40
19.0
 40
19.0
 40
19.0
 40
19.0
 10
83.96920706451118
 20
-135.6761284383032
 30
0.0
 10
83.88514673467108
 20
-135.6761284383032
 30
0.0
 10
83.69256589704561
 20
-135.6551133558432
 30
0.0
 10
83.58232284151762
 20
-135.4687336900912
 30
0.0
 10
83.51721053684639
 20
-135.3567680868205
 30
0.0
 10
83.51342093181262
 20
-135.2572048272968
 30
0.0
 10
83.50963132677884
 20
-135.1727999879082
 30
0.0
 10
83.50963132677884
 20
-135.1727999879082
 30
0.0
 10
83.70393471214693
 20
-135.1727999879082
 30
0.0
 10
83.70393471214693
 20
-135.1727999879082
 30
0.0
 10
83.70565725988956
 20
-135.2468695408411
 30
0.0
 10
83.71495901769974
 20
-135.4814805433866
 30
0.0
 10
83.9654174594774
 20
-135.4814805433866
 30
0.0
 10
84.08668482055819
 20
-135.4814805433866
 30
0.0
 10
84.22138805403146
 20
-135.4118896145845
 30
0.0
 10
84.22138805403146
 20
-135.1831352743639
 30
0.0
 10
84.22138805403146
 20
-135.067035556511
 30
0.0
 10
84.18762611827601
 20
-135.0181152006205
 30
0.0
 10
84.1597208448455
 20
-134.9864203221562
 30
0.0
 10
84.09426403062574
 20
-134.9123507692233
 30
0.0
 10
83.9916001851653
 20
-134.8999484254764
 30
0.0
 10
83.94302433882328
 20
-134.8999484254764
 30
0.0
 10
83.92614337094555
 20
-134.8999484254764
 30
0.0
 10
83.89444849248126
 20
-134.9020154827676
 30
0.0
 10
83.86998831453597
 20
-134.9061495973499
 30
0.0
 10
83.86998831453597
 20
-134.9061495973499
 30
0.0
 10
83.86998831453597
 20
-134.7115017024333
 30
0.0
 10
83.86998831453597
 20
-134.7115017024333
 30
0.0
 10
83.90375025029142
 20
-134.7177028743067
 30
0.0
 10
83.94095728153212
 20
-134.7201144411464
 30
0.0
 10
83.94681394385705
 20
-134.7201144411464
 30
0.0
 10
84.00469154800925
 20
-134.7201144411464
 30
0.0
 10
84.18004690820847
 20
-134.6987548491378
 30
0.0
 10
84.18004690820847
 20
-134.4617322797526
 30
0.0
 10
84.18004690820847
 20
-134.2843098622623
 30
0.0
 10
84.06429169990408
 20
-134.2291883344983
 30
0.0
 10
83.96714000722002
 20
-134.2291883344983
 30
0.0
 10
83.73356253332008
 20
-134.2291883344983
 30
0.0
 10
83.72632783280106
 20
-134.4617322797526
 30
0.0
 10
83.72253822776729
 20
-134.5337347753944
 30
0.0
 10
83.72253822776729
 20
-134.5337347753944
 30
0.0
 10
83.54304875298577
 20
-134.5337347753944
 30
0.0
 10
83.54304875298577
 20
-134.5337347753944
 30
0.0
 10
83.55062796305332
 20
-134.4090223188283
 30
0.0
 10
83.57508814099859
 20
-134.0324733822905
 30
0.0
 10
83.97850882232134
 20
-134.0324733822905
 30
0.0
 10
84.1762573031747
 20
-134.0324733822905
 30
0.0
 10
84.38950871371165
 20
-134.1592528961477
 30
0.0
 10
84.38950871371165
 20
-134.4555311078792
 30
0.0
 10
84.38950871371165
 20
-134.6415662640827
 30
0.0
 10
84.30544838387156
 20
-134.7242485557287
 30
0.0
 10
84.21759844899769
 20
-134.7855712553661
 30
0.0
 10
84.27168644811611
 20
-134.8131320192481
 30
0.0
 10
84.43222789772875
 20
-134.8934027440544
 30
0.0
 10
84.43222789772875
 20
-135.170732930617
 30
0.0
 10
84.43222789772875
 20
-135.5090413072686
 30
0.0
 10
84.21380884396392
 20
-135.6761284383032
 30
0.0
 10
83.96920706451118
 20
-135.6761284383032
 30
0.0
  0
HATCH
  5
10B
330
106
100
AcDbEntity
  8
_U+30EC_U+30A4_U+30E4_U+30FC 1
 62
   179
420
  2234388
100
AcDbHatch
 10
0.0
 20
0.0
 30
0.0
210
0.0
220
0.0
230
1.0
  2
SOLID
 70
     1
 71
     0
 91
        1
 92
        1
 93
        1
 72
     4
 94
        3
 73
     0
 74
     1
 95
       62
 96
       58
 40
0.0
 40
0.0
 40
0.0
 40
0.0
 40
1.0
 40
1.0
 40
1.0
 40
2.0
 40
2.0
 40
2.0
 40
3.0
 40
3.0
 40
3.0
 40
4.0
 40
4.0
 40
4.0
 40
5.0
 40
5.0
 40
5.0
 40
6.0
 40
6.0
 40
6.0
 40
7.0
 40
7.0
 40
7.0
 40
8.0
 40
8.0
 40
8.0
 40
9.0
 40
9.0
 40
9.0
 40
10.0
 40
10.0
 40
10.0
 40
11.0
 40
11.0
 40
11.0
 40
12.0
 40
12.0
 40
12.0
 40
13.0
 40
13.0
 40
13.0
 40
14.0
 40
14.0
 40
14.0
 40
15.0
 40
15.0
 40
15.0
 40
16.0
 40
16.0
 40
16.0
 40
17.0
 40
17.0
 40
17.0
 40
18.0
 40
18.0
 40
18.0
 40
19.0
 40
19.0
 40
19.0
 40
19.0
 10
83.96920706451118
 20
-135.6761284383032
 10
83.88514673467108
 20
-135.6761284383032
 10
83.69256589704561
 20
-135.6551133558432
 10
83.58232284151762
 20
-135.4687336900912
 10
83.51721053684639
 20
-135.3567680868205
 10
83.51342093181262
 20
-135.2572048272968
 10
83.50963132677884
 20
-135.1727999879082
 10
83.50963132677884
 20
-135.1727999879082
 10
83.70393471214693
 20
-135.1727999879082
 10
83.70393471214693
 20
-135.1727999879082
 10
83.70565725988956
 20
-135.2468695408411
 10
83.71495901769974
 20
-135.4814805433866
 10
83.9654174594774
 20
-135.4814805433866
 10
84.08668482055819
 20
-135.4814805433866
 10
84.22138805403146
 20
-135.4118896145845
 10
84.22138805403146
 20
-135.1831352743639
 10
84.22138805403146
 20
-135.067035556511
 10
84.18762611827601
 20
-135.0181152006205
 10
84.1597208448455
 20
-134.9864203221562
 10
84.09426403062574
 20
-134.9123507692233
 10
83.9916001851653
 20
-134.8999484254764
 10
83.94302433882328
 20
-134.8999484254764
 10
83.92614337094555
 20
-134.8999484254764
 10
83.89444849248126
 20
-134.9020154827676
 10
83.86998831453597
 20
-134.9061495973499
 10
83.86998831453597
 20
-134.9061495973499
 10
83.86998831453597
 20
-134.7115017024333
 10
83.86998831453597
 20
-134.7115017024333
 10
83.90375025029142
 20
-134.7177028743067
 10
83.94095728153212
 20
-134.7201144411464
 10
83.94681394385705
 20
-134.7201144411464
 10
84.00469154800925
 20
-134.7201144411464
 10
84.18004690820847
 20
-134.6987548491378
 10
84.18004690820847
 20
-134.4617322797526
 10
84.18004690820847
 20
-134.2843098622623
 10
84.06429169990408
 20
-134.2291883344983
 10
83.96714000722002
 20
-134.2291883344983
 10
83.73356253332008
 20
-134.2291883344983
 10
83.72632783280106
 20
-134.4617322797526
 10
83.72253822776729
 20
-134.5337347753944
 10
83.72253822776729
 20
-134.5337347753944
 10
83.54304875298577
 20
-134.5337347753944
 10
83.54304875298577
 20
-134.5337347753944
 10
83.55062796305332
 20
-134.4090223188283
 10
83.57508814099859
 20
-134.0324733822905
 10
83.97850882232134
 20
-134.0324733822905
 10
84.1762573031747
 20
-134.0324733822905
 10
84.38950871371165
 20
-134.1592528961477
 10
84.38950871371165
 20
-134.4555311078792
 10
84.38950871371165
 20
-134.6415662640827
 10
84.30544838387156
 20
-134.7242485557287
 10
84.21759844899769
 20
-134.7855712553661
 10
84.27168644811611
 20
-134.8131320192481
 10
84.43222789772875
 20
-134.8934027440544
 10
84.43222789772875
 20
-135.170732930617
 10
84.43222789772875
 20
-135.5090413072686
 10
84.21380884396392
 20
-135.6761284383032
 10
83.96920706451118
 20
-135.6761284383032
 97
        0
 97
        0
 75
     2
 76
     1
 98
        0
  0
ENDBLK
  5
109
330
106
100
AcDbEntity
  8
0
100
AcDbBlockEnd
  0
BLOCK
  5
10E
330
10C
100
AcDbEntity
  8
0
100
AcDbBlockBegin
  2
block 4
 70
     0
 10
0.0
 20
0.0
 30
0.0
  3
block 4
  1

  0
SPLINE
  5
110
330
10C
100
AcDbEntity
  8
_U+30EC_U+30A4_U+30E4_U+30FC 1
370
     0
100
AcDbSpline
210
0.0
220
0.0
230
1.0
 70
    11
 71
     3
 72
    26
 73
    22
 74
     0
 42
0.0000000001
 43
0.0000000001
 12
1.0
 22
0.0
 32
0.0
 13
1.0
 23
0.0
 33
0.0
 40
0.0
 40
0.0
 40
0.0
 40
0.0
 40
1.0
 40
1.0
 40
1.0
 40
2.0
 40
2.0
 40
2.0
 40
3.0
 40
3.0
 40
3.0
 40
4.0
 40
4.0
 40
4.0
 40
5.0
 40
5.0
 40
5.0
 40
6.0
 40
6.0
 40
6.0
 40
7.0
 40
7.0
 40
7.0
 40
7.0
 10
88.89896644912943
 20
-135.62548553467
 30
0.0
 10
88.89896644912943
 20
-135.62548553467
 30
0.0
 10
88.68950464362624
 20
-135.62548553467
 30
0.0
 10
88.68950464362624
 20
-135.62548553467
 30
0.0
 10
88.71189776428037
 20
-135.3164604696431
 30
0.0
 10
88.8820854812517
 20
-134.7983181086615
 30
0.0
 10
89.24071992126622
 20
-134.2925780914269
 30
0.0
 10
89.24071992126622
 20
-134.2925780914269
 30
0.0
 10
88.50105792058308
 20
-134.2925780914269
 30
0.0
 10
88.50105792058308
 20
-134.2925780914269
 30
0.0
 10
88.50105792058308
 20
-134.2925780914269
 30
0.0
 10
88.50105792058308
 20
-134.0810492286325
 30
0.0
 10
88.50105792058308
 20
-134.0810492286325
 30
0.0
 10
88.50105792058308
 20
-134.0810492286325
 30
0.0
 10
89.44983721722087
 20
-134.0810492286325
 30
0.0
 10
89.44983721722087
 20
-134.0810492286325
 30
0.0
 10
89.44983721722087
 20
-134.0810492286325
 30
0.0
 10
89.44983721722087
 20
-134.2925780914269
 30
0.0
 10
89.44983721722087
 20
-134.2925780914269
 30
0.0
 10
89.16389429194514
 20
-134.5823106217364
 30
0.0
 10
88.92859427030258
 20
-135.1748670451993
 30
0.0
 10
88.89896644912943
 20
-135.62548553467
 30
0.0
  0
HATCH
  5
111
330
10C
100
AcDbEntity
  8
_U+30EC_U+30A4_U+30E4_U+30FC 1
 62
   179
420
  2234388
100
AcDbHatch
 10
0.0
 20
0.0
 30
0.0
210
0.0
220
0.0
230
1.0
  2
SOLID
 70
     1
 71
     0
 91
        1
 92
        1
 93
        1
 72
     4
 94
        3
 73
     0
 74
     1
 95
       26
 96
       22
 40
0.0
 40
0.0
 40
0.0
 40
0.0
 40
1.0
 40
1.0
 40
1.0
 40
2.0
 40
2.0
 40
2.0
 40
3.0
 40
3.0
 40
3.0
 40
4.0
 40
4.0
 40
4.0
 40
5.0
 40
5.0
 40
5.0
 40
6.0
 40
6.0
 40
6.0
 40
7.0
 40
7.0
 40
7.0
 40
7.0
 10
88.89896644912943
 20
-135.62548553467
 10
88.89896644912943
 20
-135.62548553467
 10
88.68950464362624
 20
-135.62548553467
 10
88.68950464362624
 20
-135.62548553467
 10
88.71189776428037
 20
-135.3164604696431
 10
88.8820854812517
 20
-134.7983181086615
 10
89.24071992126622
 20
-134.2925780914269
 10
89.24071992126622
 20
-134.2925780914269
 10
88.50105792058308
 20
-134.2925780914269
 10
88.50105792058308
 20
-134.2925780914269
 10
88.50105792058308
 20
-134.2925780914269
 10
88.50105792058308
 20
-134.0810492286325
 10
88.50105792058308
 20
-134.0810492286325
 10
88.50105792058308
 20
-134.0810492286325
 10
89.44983721722087
 20
-134.0810492286325
 10
89.44983721722087
 20
-134.0810492286325
 10
89.44983721722087
 20
-134.0810492286325
 10
89.44983721722087
 20
-134.2925780914269
 10
89.44983721722087
 20
-134.2925780914269
 10
89.16389429194514
 20
-134.5823106217364
 10
88.92859427030258
 20
-135.1748670451993
 10
88.89896644912943
 20
-135.62548553467
 97
        0
 97
        0
 75
     2
 76
     1
 98
        0
  0
ENDBLK
  5
10F
330
10C
100
AcDbEntity
  8
0
100
AcDbBlockEnd
  0
BLOCK
  5
114
330
112
100
AcDbEntity
  8
0
100
AcDbBlockBegin
  2
block 5
 70
     0
 10
0.0
 20
0.0
 30
0.0
  3
block 5
  1

  0
SPLINE
  5
116
330
112
100
AcDbEntity
  8
_U+30EC_U+30A4_U+30E4_U+30FC 1
370
     0
100
AcDbSpline
210
0.0
220
0.0
230
1.0
 70
    11
 71
     3
 72
    44
 73
    40
 74
     0
 42
0.0000000001
 43
0.0000000001
 12
1.0
 22
0.0
 32
0.0
 13
1.0
 23
0.0
 33
0.0
 40
0.0
 40
0.0
 40
0.0
 40
0.0
 40
1.0
 40
1.0
 40
1.0
 40
2.0
 40
2.0
 40
2.0
 40
3.0
 40
3.0
 40
3.0
 40
4.0
 40
4.0
 40
4.0
 40
5.0
 40
5.0
 40
5.0
 40
6.0
 40
6.0
 40
6.0
 40
7.0
 40
7.0
 40
7.0
 40
8.0
 40
8.0
 40
8.0
 40
9.0
 40
9.0
 40
9.0
 40
10.0
 40
10.0
 40
10.0
 40
11.0
 40
11.0
 40
11.0
 40
12.0
 40
12.0
 40
12.0
 40
13.0
 40
13.0
 40
13.0
 40
13.0
 10
92.03951549348318
 20
-163.0436224635794
 30
0.0
 10
91.84693465585771
 20
-163.2024413654494
 30
0.0
 10
91.76494138330877
 20
-163.2765109183823
 30
0.0
 10
91.72187768974315
 20
-163.4201714001172
 30
0.0
 10
91.72187768974315
 20
-163.4201714001172
 30
0.0
 10
92.40917423905049
 20
-163.4201714001172
 30
0.0
 10
92.40917423905049
 20
-163.4201714001172
 30
0.0
 10
92.40917423905049
 20
-163.4201714001172
 30
0.0
 10
92.40917423905049
 20
-163.6254990910381
 30
0.0
 10
92.40917423905049
 20
-163.6254990910381
 30
0.0
 10
92.40917423905049
 20
-163.6254990910381
 30
0.0
 10
91.50139157868716
 20
-163.6254990910381
 30
0.0
 10
91.50139157868716
 20
-163.6254990910381
 30
0.0
 10
91.52964136166621
 20
-163.2678981796691
 30
0.0
 10
91.5875189658184
 20
-163.189694512154
 30
0.0
 10
91.92754989021256
 20
-162.8913492431313
 30
0.0
 10
92.15354815404496
 20
-162.6925672336324
 30
0.0
 10
92.21142575819715
 20
-162.624698852573
 30
0.0
 10
92.21142575819715
 20
-162.4872395427115
 30
0.0
 10
92.21142575819715
 20
-162.3687282580189
 30
0.0
 10
92.14769149172002
 20
-162.2378146295794
 30
0.0
 10
91.97405867926344
 20
-162.2378146295794
 30
0.0
 10
91.74427081039727
 20
-162.2378146295794
 30
0.0
 10
91.73669160032972
 20
-162.4682915175427
 30
0.0
 10
91.73324650484447
 20
-162.5847357449441
 30
0.0
 10
91.73324650484447
 20
-162.5847357449441
 30
0.0
 10
91.5351535144426
 20
-162.5847357449441
 30
0.0
 10
91.5351535144426
 20
-162.5847357449441
 30
0.0
 10
91.54273272451016
 20
-162.4576117215384
 30
0.0
 10
91.55203448232032
 20
-162.3456461182678
 30
0.0
 10
91.62300344931647
 20
-162.2271348335752
 30
0.0
 10
91.72015514200052
 20
-162.066248874414
 30
0.0
 10
91.88448619664693
 20
-162.0324869386586
 30
0.0
 10
91.98715004210739
 20
-162.0324869386586
 30
0.0
 10
92.23175182156012
 20
-162.0324869386586
 30
0.0
 10
92.41503090137542
 20
-162.2164550375709
 30
0.0
 10
92.41503090137542
 20
-162.4893066000027
 30
0.0
 10
92.41503090137542
 20
-162.7180609402233
 30
0.0
 10
92.31202254636645
 20
-162.8172796901985
 30
0.0
 10
92.03951549348318
 20
-163.0436224635794
 30
0.0
  0
HATCH
  5
117
330
112
100
AcDbEntity
  8
_U+30EC_U+30A4_U+30E4_U+30FC 1
 62
   179
420
  2234388
100
AcDbHatch
 10
0.0
 20
0.0
 30
0.0
210
0.0
220
0.0
230
1.0
  2
SOLID
 70
     1
 71
     0
 91
        1
 92
        1
 93
        1
 72
     4
 94
        3
 73
     0
 74
     1
 95
       44
 96
       40
 40
0.0
 40
0.0
 40
0.0
 40
0.0
 40
1.0
 40
1.0
 40
1.0
 40
2.0
 40
2.0
 40
2.0
 40
3.0
 40
3.0
 40
3.0
 40
4.0
 40
4.0
 40
4.0
 40
5.0
 40
5.0
 40
5.0
 40
6.0
 40
6.0
 40
6.0
 40
7.0
 40
7.0
 40
7.0
 40
8.0
 40
8.0
 40
8.0
 40
9.0
 40
9.0
 40
9.0
 40
10.0
 40
10.0
 40
10.0
 40
11.0
 40
11.0
 40
11.0
 40
12.0
 40
12.0
 40
12.0
 40
13.0
 40
13.0
 40
13.0
 40
13.0
 10
92.03951549348318
 20
-163.0436224635794
 10
91.84693465585771
 20
-163.2024413654494
 10
91.76494138330877
 20
-163.2765109183823
 10
91.72187768974315
 20
-163.4201714001172
 10
91.72187768974315
 20
-163.4201714001172
 10
92.40917423905049
 20
-163.4201714001172
 10
92.40917423905049
 20
-163.4201714001172
 10
92.40917423905049
 20
-163.4201714001172
 10
92.40917423905049
 20
-163.6254990910381
 10
92.40917423905049
 20
-163.6254990910381
 10
92.40917423905049
 20
-163.6254990910381
 10
91.50139157868716
 20
-163.6254990910381
 10
91.50139157868716
 20
-163.6254990910381
 10
91.52964136166621
 20
-163.2678981796691
 10
91.5875189658184
 20
-163.189694512154
 10
91.92754989021256
 20
-162.8913492431313
 10
92.15354815404496
 20
-162.6925672336324
 10
92.21142575819715
 20
-162.624698852573
 10
92.21142575819715
 20
-162.4872395427115
 10
92.21142575819715
 20
-162.3687282580189
 10
92.14769149172002
 20
-162.2378146295794
 10
91.97405867926344
 20
-162.2378146295794
 10
91.74427081039727
 20
-162.2378146295794
 10
91.73669160032972
 20
-162.4682915175427
 10
91.73324650484447
 20
-162.5847357449441
 10
91.73324650484447
 20
-162.5847357449441
 10
91.5351535144426
 20
-162.5847357449441
 10
91.5351535144426
 20
-162.5847357449441
 10
91.54273272451016
 20
-162.4576117215384
 10
91.55203448232032
 20
-162.3456461182678
 10
91.62300344931647
 20
-162.2271348335752
 10
91.72015514200052
 20
-162.066248874414
 10
91.88448619664693
 20
-162.0324869386586
 10
91.98715004210739
 20
-162.0324869386586
 10
92.23175182156012
 20
-162.0324869386586
 10
92.41503090137542
 20
-162.2164550375709
 10
92.41503090137542
 20
-162.4893066000027
 10
92.41503090137542
 20
-162.7180609402233
 10
92.31202254636645
 20
-162.8172796901985
 10
92.03951549348318
 20
-163.0436224635794
 97
        0
 97
        0
 75
     2
 76
     1
 98
        0
  0
SPLINE
  5
118
330
112
100
AcDbEntity
  8
_U+30EC_U+30A4_U+30E4_U+30FC 1
370
     0
100
AcDbSpline
210
0.0
220
0.0
230
1.0
 70
    11
 71
     3
 72
    29
 73
    25
 74
     0
 42
0.0000000001
 43
0.0000000001
 12
1.0
 22
0.0
 32
0.0
 13
1.0
 23
0.0
 33
0.0
 40
0.0
 40
0.0
 40
0.0
 40
0.0
 40
1.0
 40
1.0
 40
1.0
 40
2.0
 40
2.0
 40
2.0
 40
3.0
 40
3.0
 40
3.0
 40
4.0
 40
4.0
 40
4.0
 40
5.0
 40
5.0
 40
5.0
 40
6.0
 40
6.0
 40
6.0
 40
7.0
 40
7.0
 40
7.0
 40
8.0
 40
8.0
 40
8.0
 40
8.0
 10
93.34830726832959
 20
-163.4477321639992
 30
0.0
 10
93.25287812338817
 20
-163.6571939695024
 30
0.0
 10
93.09957137429456
 20
-163.6761419946712
 30
0.0
 10
92.99690752883411
 20
-163.6761419946712
 30
0.0
 10
92.85496959484182
 20
-163.6761419946712
 30
0.0
 10
92.72991262872725
 20
-163.6296332056204
 30
0.0
 10
92.64585229888715
 20
-163.4477321639992
 30
0.0
 10
92.5542127589795
 20
-163.2530842690826
 30
0.0
 10
92.53733179110178
 20
-163.0160616996974
 30
0.0
 10
92.53733179110178
 20
-162.8534531927936
 30
0.0
 10
92.53733179110178
 20
-162.7094482015102
 30
0.0
 10
92.55249021123689
 20
-162.4576117215384
 30
0.0
 10
92.64585229888715
 20
-162.2588297120395
 30
0.0
 10
92.74093693428004
 20
-162.0559135879583
 30
0.0
 10
92.88321937782086
 20
-162.0324869386586
 30
0.0
 10
92.99690752883411
 20
-162.0324869386586
 30
0.0
 10
93.13712291508378
 20
-162.0324869386586
 30
0.0
 10
93.26424693848949
 20
-162.0769286704183
 30
0.0
 10
93.34830726832959
 20
-162.2588297120395
 30
0.0
 10
93.43581269365494
 20
-162.4514105496649
 30
0.0
 10
93.45648326656644
 20
-162.679820380337
 30
0.0
 10
93.45648326656644
 20
-162.8534531927936
 30
0.0
 10
93.45648326656644
 20
-163.0246744384105
 30
0.0
 10
93.4378797509461
 20
-163.2551513263737
 30
0.0
 10
93.34830726832959
 20
-163.4477321639992
 30
0.0
  0
SPLINE
  5
119
330
112
100
AcDbEntity
  8
_U+30EC_U+30A4_U+30E4_U+30FC 1
370
     0
100
AcDbSpline
210
0.0
220
0.0
230
1.0
 70
    11
 71
     3
 72
    17
 73
    13
 74
     0
 42
0.0000000001
 43
0.0000000001
 12
1.0
 22
0.0
 32
0.0
 13
1.0
 23
0.0
 33
0.0
 40
0.0
 40
0.0
 40
0.0
 40
0.0
 40
1.0
 40
1.0
 40
1.0
 40
2.0
 40
2.0
 40
2.0
 40
3.0
 40
3.0
 40
3.0
 40
4.0
 40
4.0
 40
4.0
 40
4.0
 10
92.99690752883411
 20
-162.225067776284
 30
0.0
 10
92.77642141777812
 20
-162.225067776284
 30
0.0
 10
92.73542478150365
 20
-162.5085991347201
 30
0.0
 10
92.73542478150365
 20
-162.8534531927936
 30
0.0
 10
92.73542478150365
 20
-163.1728135442762
 30
0.0
 10
92.76711965996795
 20
-163.4814940997546
 30
0.0
 10
92.99690752883411
 20
-163.4814940997546
 30
0.0
 10
93.21567109214747
 20
-163.4814940997546
 30
0.0
 10
93.25839027616458
 20
-163.2003743081582
 30
0.0
 10
93.25839027616458
 20
-162.8534531927936
 30
0.0
 10
93.25839027616458
 20
-162.5337483317624
 30
0.0
 10
93.22497284995765
 20
-162.225067776284
 30
0.0
 10
92.99690752883411
 20
-162.225067776284
 30
0.0
  0
HATCH
  5
11A
330
112
100
AcDbEntity
  8
_U+30EC_U+30A4_U+30E4_U+30FC 1
 62
   179
420
  2234388
100
AcDbHatch
 10
0.0
 20
0.0
 30
0.0
210
0.0
220
0.0
230
1.0
  2
SOLID
 70
     1
 71
     0
 91
        2
 92
        1
 93
        1
 72
     4
 94
        3
 73
     0
 74
     1
 95
       29
 96
       25
 40
0.0
 40
0.0
 40
0.0
 40
0.0
 40
1.0
 40
1.0
 40
1.0
 40
2.0
 40
2.0
 40
2.0
 40
3.0
 40
3.0
 40
3.0
 40
4.0
 40
4.0
 40
4.0
 40
5.0
 40
5.0
 40
5.0
 40
6.0
 40
6.0
 40
6.0
 40
7.0
 40
7.0
 40
7.0
 40
8.0
 40
8.0
 40
8.0
 40
8.0
 10
93.34830726832959
 20
-163.4477321639992
 10
93.25287812338817
 20
-163.6571939695024
 10
93.09957137429456
 20
-163.6761419946712
 10
92.99690752883411
 20
-163.6761419946712
 10
92.85496959484182
 20
-163.6761419946712
 10
92.72991262872725
 20
-163.6296332056204
 10
92.64585229888715
 20
-163.4477321639992
 10
92.5542127589795
 20
-163.2530842690826
 10
92.53733179110178
 20
-163.0160616996974
 10
92.53733179110178
 20
-162.8534531927936
 10
92.53733179110178
 20
-162.7094482015102
 10
92.55249021123689
 20
-162.4576117215384
 10
92.64585229888715
 20
-162.2588297120395
 10
92.74093693428004
 20
-162.0559135879583
 10
92.88321937782086
 20
-162.0324869386586
 10
92.99690752883411
 20
-162.0324869386586
 10
93.13712291508378
 20
-162.0324869386586
 10
93.26424693848949
 20
-162.0769286704183
 10
93.34830726832959
 20
-162.2588297120395
 10
93.43581269365494
 20
-162.4514105496649
 10
93.45648326656644
 20
-162.679820380337
 10
93.45648326656644
 20
-162.8534531927936
 10
93.45648326656644
 20
-163.0246744384105
 10
93.4378797509461
 20
-163.2551513263737
 10
93.34830726832959
 20
-163.4477321639992
 97
        0
 97
        0
 92
        1
 93
        1
 72
     4
 94
        3
 73
     0
 74
     1
 95
       17
 96
       13
 40
0.0
 40
0.0
 40
0.0
 40
0.0
 40
1.0
 40
1.0
 40
1.0
 40
2.0
 40
2.0
 40
2.0
 40
3.0
 40
3.0
 40
3.0
 40
4.0
 40
4.0
 40
4.0
 40
4.0
 10
92.99690752883411
 20
-162.225067776284
 10
92.77642141777812
 20
-162.225067776284
 10
92.73542478150365
 20
-162.5085991347201
 10
92.73542478150365
 20
-162.8534531927936
 10
92.73542478150365
 20
-163.1728135442762
 10
92.76711965996795
 20
-163.4814940997546
 10
92.99690752883411
 20
-163.4814940997546
 10
93.21567109214747
 20
-163.4814940997546
 10
93.25839027616458
 20
-163.2003743081582
 10
93.25839027616458
 20
-162.8534531927936
 10
93.25839027616458
 20
-162.5337483317624
 10
93.22497284995765
 20
-162.225067776284
 10
92.99690752883411
 20
-162.225067776284
 97
        0
 97
        0
 75
     2
 76
     1
 98
        0
  0
ENDBLK
  5
115
330
112
100
AcDbEntity
  8
0
100
AcDbBlockEnd
  0
BLOCK
  5
11D
330
11B
100
AcDbEntity
  8
0
100
AcDbBlockBegin
  2
block 6
 70
     0
 10
0.0
 20
0.0
 30
0.0
  3
block 6
  1

  0
SPLINE
  5
11F
330
11B
100
AcDbEntity
  8
_U+30EC_U+30A4_U+30E4_U+30FC 1
370
     0
100
AcDbSpline
210
0.0
220
0.0
230
1.0
 70
    11
 71
     3
 72
    44
 73
    40
 74
     0
 42
0.0000000001
 43
0.0000000001
 12
1.0
 22
0.0
 32
0.0
 13
1.0
 23
0.0
 33
0.0
 40
0.0
 40
0.0
 40
0.0
 40
0.0
 40
1.0
 40
1.0
 40
1.0
 40
2.0
 40
2.0
 40
2.0
 40
3.0
 40
3.0
 40
3.0
 40
4.0
 40
4.0
 40
4.0
 40
5.0
 40
5.0
 40
5.0
 40
6.0
 40
6.0
 40
6.0
 40
7.0
 40
7.0
 40
7.0
 40
8.0
 40
8.0
 40
8.0
 40
9.0
 40
9.0
 40
9.0
 40
10.0
 40
10.0
 40
10.0
 40
11.0
 40
11.0
 40
11.0
 40
12.0
 40
12.0
 40
12.0
 40
13.0
 40
13.0
 40
13.0
 40
13.0
 10
77.23938528884987
 20
-150.7098361168364
 30
0.0
 10
77.3982041907199
 20
-150.9024169544619
 30
0.0
 10
77.47227374365276
 20
-150.9844102270108
 30
0.0
 10
77.61593422538769
 20
-151.0274739205765
 30
0.0
 10
77.61593422538769
 20
-151.0274739205765
 30
0.0
 10
77.61593422538769
 20
-150.3401773712691
 30
0.0
 10
77.61593422538769
 20
-150.3401773712691
 30
0.0
 10
77.61593422538769
 20
-150.3401773712691
 30
0.0
 10
77.82126191630857
 20
-150.3401773712691
 30
0.0
 10
77.82126191630857
 20
-150.3401773712691
 30
0.0
 10
77.82126191630857
 20
-150.3401773712691
 30
0.0
 10
77.82126191630857
 20
-151.2479600316325
 30
0.0
 10
77.82126191630857
 20
-151.2479600316325
 30
0.0
 10
77.46366100493964
 20
-151.2197102486534
 30
0.0
 10
77.38545733742447
 20
-151.1618326445012
 30
0.0
 10
77.08711206840184
 20
-150.8218017201071
 30
0.0
 10
76.88833005890292
 20
-150.5958034562747
 30
0.0
 10
76.8204616778435
 20
-150.5379258521225
 30
0.0
 10
76.68300236798203
 20
-150.5379258521225
 30
0.0
 10
76.56449108328944
 20
-150.5379258521225
 30
0.0
 10
76.43357745484994
 20
-150.6016601185996
 30
0.0
 10
76.43357745484994
 20
-150.7752929310562
 30
0.0
 10
76.43357745484994
 20
-151.0050807999224
 30
0.0
 10
76.66405434281316
 20
-151.0123155004414
 30
0.0
 10
76.7804985702146
 20
-151.0161051054751
 30
0.0
 10
76.7804985702146
 20
-151.0161051054751
 30
0.0
 10
76.7804985702146
 20
-151.214198095877
 30
0.0
 10
76.7804985702146
 20
-151.214198095877
 30
0.0
 10
76.65337454680888
 20
-151.2066188858095
 30
0.0
 10
76.54140894353826
 20
-151.1973171279993
 30
0.0
 10
76.42289765884567
 20
-151.1263481610031
 30
0.0
 10
76.2620116996845
 20
-151.0291964683191
 30
0.0
 10
76.22824976392906
 20
-150.8648654136727
 30
0.0
 10
76.22824976392906
 20
-150.7622015682122
 30
0.0
 10
76.22824976392906
 20
-150.5175997887595
 30
0.0
 10
76.41221786284139
 20
-150.3343207089442
 30
0.0
 10
76.68506942527318
 20
-150.3343207089442
 30
0.0
 10
76.91382376549377
 20
-150.3343207089442
 30
0.0
 10
77.01304251546897
 20
-150.4373290639532
 30
0.0
 10
77.23938528884987
 20
-150.7098361168364
 30
0.0
  0
HATCH
  5
120
330
11B
100
AcDbEntity
  8
_U+30EC_U+30A4_U+30E4_U+30FC 1
 62
   179
420
  2234388
100
AcDbHatch
 10
0.0
 20
0.0
 30
0.0
210
0.0
220
0.0
230
1.0
  2
SOLID
 70
     1
 71
     0
 91
        1
 92
        1
 93
        1
 72
     4
 94
        3
 73
     0
 74
     1
 95
       44
 96
       40
 40
0.0
 40
0.0
 40
0.0
 40
0.0
 40
1.0
 40
1.0
 40
1.0
 40
2.0
 40
2.0
 40
2.0
 40
3.0
 40
3.0
 40
3.0
 40
4.0
 40
4.0
 40
4.0
 40
5.0
 40
5.0
 40
5.0
 40
6.0
 40
6.0
 40
6.0
 40
7.0
 40
7.0
 40
7.0
 40
8.0
 40
8.0
 40
8.0
 40
9.0
 40
9.0
 40
9.0
 40
10.0
 40
10.0
 40
10.0
 40
11.0
 40
11.0
 40
11.0
 40
12.0
 40
12.0
 40
12.0
 40
13.0
 40
13.0
 40
13.0
 40
13.0
 10
77.23938528884987
 20
-150.7098361168364
 10
77.3982041907199
 20
-150.9024169544619
 10
77.47227374365276
 20
-150.9844102270108
 10
77.61593422538769
 20
-151.0274739205765
 10
77.61593422538769
 20
-151.0274739205765
 10
77.61593422538769
 20
-150.3401773712691
 10
77.61593422538769
 20
-150.3401773712691
 10
77.61593422538769
 20
-150.3401773712691
 10
77.82126191630857
 20
-150.3401773712691
 10
77.82126191630857
 20
-150.3401773712691
 10
77.82126191630857
 20
-150.3401773712691
 10
77.82126191630857
 20
-151.2479600316325
 10
77.82126191630857
 20
-151.2479600316325
 10
77.46366100493964
 20
-151.2197102486534
 10
77.38545733742447
 20
-151.1618326445012
 10
77.08711206840184
 20
-150.8218017201071
 10
76.88833005890292
 20
-150.5958034562747
 10
76.8204616778435
 20
-150.5379258521225
 10
76.68300236798203
 20
-150.5379258521225
 10
76.56449108328944
 20
-150.5379258521225
 10
76.43357745484994
 20
-150.6016601185996
 10
76.43357745484994
 20
-150.7752929310562
 10
76.43357745484994
 20
-151.0050807999224
 10
76.66405434281316
 20
-151.0123155004414
 10
76.7804985702146
 20
-151.0161051054751
 10
76.7804985702146
 20
-151.0161051054751
 10
76.7804985702146
 20
-151.214198095877
 10
76.7804985702146
 20
-151.214198095877
 10
76.65337454680888
 20
-151.2066188858095
 10
76.54140894353826
 20
-151.1973171279993
 10
76.42289765884567
 20
-151.1263481610031
 10
76.2620116996845
 20
-151.0291964683191
 10
76.22824976392906
 20
-150.8648654136727
 10
76.22824976392906
 20
-150.7622015682122
 10
76.22824976392906
 20
-150.5175997887595
 10
76.41221786284139
 20
-150.3343207089442
 10
76.68506942527318
 20
-150.3343207089442
 10
76.91382376549377
 20
-150.3343207089442
 10
77.01304251546897
 20
-150.4373290639532
 10
77.23938528884987
 20
-150.7098361168364
 97
        0
 97
        0
 75
     2
 76
     1
 98
        0
  0
SPLINE
  5
121
330
11B
100
AcDbEntity
  8
_U+30EC_U+30A4_U+30E4_U+30FC 1
370
     0
100
AcDbSpline
210
0.0
220
0.0
230
1.0
 70
    11
 71
     3
 72
    29
 73
    25
 74
     0
 42
0.0000000001
 43
0.0000000001
 12
1.0
 22
0.0
 32
0.0
 13
1.0
 23
0.0
 33
0.0
 40
0.0
 40
0.0
 40
0.0
 40
0.0
 40
1.0
 40
1.0
 40
1.0
 40
2.0
 40
2.0
 40
2.0
 40
3.0
 40
3.0
 40
3.0
 40
4.0
 40
4.0
 40
4.0
 40
5.0
 40
5.0
 40
5.0
 40
6.0
 40
6.0
 40
6.0
 40
7.0
 40
7.0
 40
7.0
 40
8.0
 40
8.0
 40
8.0
 40
8.0
 10
77.64349498926968
 20
-149.40104434199
 30
0.0
 10
77.85295679477288
 20
-149.4964734869314
 30
0.0
 10
77.87190481994175
 20
-149.6497802360251
 30
0.0
 10
77.87190481994175
 20
-149.7524440814855
 30
0.0
 10
77.87190481994175
 20
-149.8943820154778
 30
0.0
 10
77.82539603089087
 20
-150.0194389815924
 30
0.0
 10
77.64349498926968
 20
-150.1034993114325
 30
0.0
 10
77.44884709435307
 20
-150.1951388513401
 30
0.0
 10
77.2121690345164
 20
-150.2116753096693
 30
0.0
 10
77.04921601806409
 20
-150.2116753096693
 30
0.0
 10
76.90521102678065
 20
-150.2116753096693
 30
0.0
 10
76.65337454680888
 20
-150.1968613990827
 30
0.0
 10
76.45459253730996
 20
-150.1034993114325
 30
0.0
 10
76.25167641322875
 20
-150.0084146760396
 30
0.0
 10
76.22824976392906
 20
-149.8661322324988
 30
0.0
 10
76.22824976392906
 20
-149.7524440814855
 30
0.0
 10
76.22824976392906
 20
-149.6122286952358
 30
0.0
 10
76.27269149568878
 20
-149.4851046718301
 30
0.0
 10
76.45459253730996
 20
-149.40104434199
 30
0.0
 10
76.64717337493543
 20
-149.3135389166647
 30
0.0
 10
76.8755832056075
 20
-149.2928683437532
 30
0.0
 10
77.04921601806409
 20
-149.2928683437532
 30
0.0
 10
77.220437263681
 20
-149.2928683437532
 30
0.0
 10
77.45091415164421
 20
-149.3114718593735
 30
0.0
 10
77.64349498926968
 20
-149.40104434199
 30
0.0
  0
SPLINE
  5
122
330
11B
100
AcDbEntity
  8
_U+30EC_U+30A4_U+30E4_U+30FC 1
370
     0
100
AcDbSpline
210
0.0
220
0.0
230
1.0
 70
    11
 71
     3
 72
    17
 73
    13
 74
     0
 42
0.0000000001
 43
0.0000000001
 12
1.0
 22
0.0
 32
0.0
 13
1.0
 23
0.0
 33
0.0
 40
0.0
 40
0.0
 40
0.0
 40
0.0
 40
1.0
 40
1.0
 40
1.0
 40
2.0
 40
2.0
 40
2.0
 40
3.0
 40
3.0
 40
3.0
 40
4.0
 40
4.0
 40
4.0
 40
4.0
 10
76.42083060155451
 20
-149.7524440814855
 30
0.0
 10
76.42083060155451
 20
-149.972585682993
 30
0.0
 10
76.70436195999058
 20
-150.013926828816
 30
0.0
 10
77.04921601806409
 20
-150.013926828816
 30
0.0
 10
77.36857636954674
 20
-150.013926828816
 30
0.0
 10
77.67725692502513
 20
-149.9822319503517
 30
0.0
 10
77.67725692502513
 20
-149.7524440814855
 30
0.0
 10
77.67725692502513
 20
-149.5336805181721
 30
0.0
 10
77.39613713342875
 20
-149.490961334155
 30
0.0
 10
77.04921601806409
 20
-149.490961334155
 30
0.0
 10
76.7295111570329
 20
-149.490961334155
 30
0.0
 10
76.42083060155451
 20
-149.524378760362
 30
0.0
 10
76.42083060155451
 20
-149.7524440814855
 30
0.0
  0
HATCH
  5
123
330
11B
100
AcDbEntity
  8
_U+30EC_U+30A4_U+30E4_U+30FC 1
 62
   179
420
  2234388
100
AcDbHatch
 10
0.0
 20
0.0
 30
0.0
210
0.0
220
0.0
230
1.0
  2
SOLID
 70
     1
 71
     0
 91
        2
 92
        1
 93
        1
 72
     4
 94
        3
 73
     0
 74
     1
 95
       29
 96
       25
 40
0.0
 40
0.0
 40
0.0
 40
0.0
 40
1.0
 40
1.0
 40
1.0
 40
2.0
 40
2.0
 40
2.0
 40
3.0
 40
3.0
 40
3.0
 40
4.0
 40
4.0
 40
4.0
 40
5.0
 40
5.0
 40
5.0
 40
6.0
 40
6.0
 40
6.0
 40
7.0
 40
7.0
 40
7.0
 40
8.0
 40
8.0
 40
8.0
 40
8.0
 10
77.64349498926968
 20
-149.40104434199
 10
77.85295679477288
 20
-149.4964734869314
 10
77.87190481994175
 20
-149.6497802360251
 10
77.87190481994175
 20
-149.7524440814855
 10
77.87190481994175
 20
-149.8943820154778
 10
77.82539603089087
 20
-150.0194389815924
 10
77.64349498926968
 20
-150.1034993114325
 10
77.44884709435307
 20
-150.1951388513401
 10
77.2121690345164
 20
-150.2116753096693
 10
77.04921601806409
 20
-150.2116753096693
 10
76.90521102678065
 20
-150.2116753096693
 10
76.65337454680888
 20
-150.1968613990827
 10
76.45459253730996
 20
-150.1034993114325
 10
76.25167641322875
 20
-150.0084146760396
 10
76.22824976392906
 20
-149.8661322324988
 10
76.22824976392906
 20
-149.7524440814855
 10
76.22824976392906
 20
-149.6122286952358
 10
76.27269149568878
 20
-149.4851046718301
 10
76.45459253730996
 20
-149.40104434199
 10
76.64717337493543
 20
-149.3135389166647
 10
76.8755832056075
 20
-149.2928683437532
 10
77.04921601806409
 20
-149.2928683437532
 10
77.220437263681
 20
-149.2928683437532
 10
77.45091415164421
 20
-149.3114718593735
 10
77.64349498926968
 20
-149.40104434199
 97
        0
 97
        0
 92
        1
 93
        1
 72
     4
 94
        3
 73
     0
 74
     1
 95
       17
 96
       13
 40
0.0
 40
0.0
 40
0.0
 40
0.0
 40
1.0
 40
1.0
 40
1.0
 40
2.0
 40
2.0
 40
2.0
 40
3.0
 40
3.0
 40
3.0
 40
4.0
 40
4.0
 40
4.0
 40
4.0
 10
76.42083060155451
 20
-149.7524440814855
 10
76.42083060155451
 20
-149.972585682993
 10
76.70436195999058
 20
-150.013926828816
 10
77.04921601806409
 20
-150.013926828816
 10
77.36857636954674
 20
-150.013926828816
 10
77.67725692502513
 20
-149.9822319503517
 10
77.67725692502513
 20
-149.7524440814855
 10
77.67725692502513
 20
-149.5336805181721
 10
77.39613713342875
 20
-149.490961334155
 10
77.04921601806409
 20
-149.490961334155
 10
76.7295111570329
 20
-149.490961334155
 10
76.42083060155451
 20
-149.524378760362
 10
76.42083060155451
 20
-149.7524440814855
 97
        0
 97
        0
 75
     2
 76
     1
 98
        0
  0
ENDBLK
  5
11E
330
11B
100
AcDbEntity
  8
0
100
AcDbBlockEnd
  0
BLOCK
  5
126
330
124
100
AcDbEntity
  8
0
100
AcDbBlockBegin
  2
block 7
 70
     0
 10
0.0
 20
0.0
 30
0.0
  3
block 7
  1

  0
SPLINE
  5
128
330
124
100
AcDbEntity
  8
_U+30EC_U+30A4_U+30E4_U+30FC 1
370
     0
100
AcDbSpline
210
0.0
220
0.0
230
1.0
 70
    11
 71
     3
 72
    62
 73
    58
 74
     0
 42
0.0000000001
 43
0.0000000001
 12
1.0
 22
0.0
 32
0.0
 13
1.0
 23
0.0
 33
0.0
 40
0.0
 40
0.0
 40
0.0
 40
0.0
 40
1.0
 40
1.0
 40
1.0
 40
2.0
 40
2.0
 40
2.0
 40
3.0
 40
3.0
 40
3.0
 40
4.0
 40
4.0
 40
4.0
 40
5.0
 40
5.0
 40
5.0
 40
6.0
 40
6.0
 40
6.0
 40
7.0
 40
7.0
 40
7.0
 40
8.0
 40
8.0
 40
8.0
 40
9.0
 40
9.0
 40
9.0
 40
10.0
 40
10.0
 40
10.0
 40
11.0
 40
11.0
 40
11.0
 40
12.0
 40
12.0
 40
12.0
 40
13.0
 40
13.0
 40
13.0
 40
14.0
 40
14.0
 40
14.0
 40
15.0
 40
15.0
 40
15.0
 40
16.0
 40
16.0
 40
16.0
 40
17.0
 40
17.0
 40
17.0
 40
18.0
 40
18.0
 40
18.0
 40
19.0
 40
19.0
 40
19.0
 40
19.0
 10
105.7348035759969
 20
-158.7792832719371
 30
0.0
 10
105.7348035759969
 20
-158.8633436017772
 30
0.0
 10
105.7137884935368
 20
-159.0559244394027
 30
0.0
 10
105.5277533373334
 20
-159.1661674949307
 30
0.0
 10
105.4154432245142
 20
-159.2316243091504
 30
0.0
 10
105.316224474539
 20
-159.2350694046357
 30
0.0
 10
105.2314751256019
 20
-159.2388590096695
 30
0.0
 10
105.2314751256019
 20
-159.2388590096695
 30
0.0
 10
105.2314751256019
 20
-159.0445556243014
 30
0.0
 10
105.2314751256019
 20
-159.0445556243014
 30
0.0
 10
105.3055446785347
 20
-159.0428330765587
 30
0.0
 10
105.5401556810803
 20
-159.0335313187486
 30
0.0
 10
105.5401556810803
 20
-158.7830728769709
 30
0.0
 10
105.5401556810803
 20
-158.6618055158901
 30
0.0
 10
105.4705647522782
 20
-158.5271022824168
 30
0.0
 10
105.2421549216061
 20
-158.5271022824168
 30
0.0
 10
105.1257106942047
 20
-158.5271022824168
 30
0.0
 10
105.0771348478627
 20
-158.5608642181723
 30
0.0
 10
105.0454399693984
 20
-158.5887694916028
 30
0.0
 10
104.9713704164655
 20
-158.6542263058226
 30
0.0
 10
104.9586235631701
 20
-158.756890151283
 30
0.0
 10
104.9586235631701
 20
-158.805465997625
 30
0.0
 10
104.9586235631701
 20
-158.8223469655028
 30
0.0
 10
104.9606906204612
 20
-158.8540418439671
 30
0.0
 10
104.9648247350435
 20
-158.8785020219123
 30
0.0
 10
104.9648247350435
 20
-158.8785020219123
 30
0.0
 10
104.7701768401269
 20
-158.8785020219123
 30
0.0
 10
104.7701768401269
 20
-158.8785020219123
 30
0.0
 10
104.7767225215489
 20
-158.8447400861569
 30
0.0
 10
104.77878957884
 20
-158.8075330549162
 30
0.0
 10
104.77878957884
 20
-158.8016763925912
 30
0.0
 10
104.77878957884
 20
-158.7437987884391
 30
0.0
 10
104.7574299868315
 20
-158.5684434282398
 30
0.0
 10
104.5207519269948
 20
-158.5684434282398
 30
0.0
 10
104.3429849999559
 20
-158.5684434282398
 30
0.0
 10
104.2878634721919
 20
-158.6841986365442
 30
0.0
 10
104.2878634721919
 20
-158.7813503292283
 30
0.0
 10
104.2878634721919
 20
-159.0149278031282
 30
0.0
 10
104.5207519269948
 20
-159.0221625036473
 30
0.0
 10
104.592409913088
 20
-159.025952108681
 30
0.0
 10
104.592409913088
 20
-159.025952108681
 30
0.0
 10
104.592409913088
 20
-159.2054415834625
 30
0.0
 10
104.592409913088
 20
-159.2054415834625
 30
0.0
 10
104.467697456522
 20
-159.197862373395
 30
0.0
 10
104.0911485199842
 20
-159.1734021954497
 30
0.0
 10
104.0911485199842
 20
-158.769981514127
 30
0.0
 10
104.0911485199842
 20
-158.5722330332736
 30
0.0
 10
104.2182725433899
 20
-158.3589816227366
 30
0.0
 10
104.5142062455728
 20
-158.3589816227366
 30
0.0
 10
104.7005859113249
 20
-158.3589816227366
 30
0.0
 10
104.7829236934223
 20
-158.4430419525767
 30
0.0
 10
104.8442463930598
 20
-158.5308918874506
 30
0.0
 10
104.8718071569418
 20
-158.4768038883322
 30
0.0
 10
104.9520778817481
 20
-158.3162624387195
 30
0.0
 10
105.2294080683107
 20
-158.3162624387195
 30
0.0
 10
105.5677164449622
 20
-158.3162624387195
 30
0.0
 10
105.7348035759969
 20
-158.5346814924844
 30
0.0
 10
105.7348035759969
 20
-158.7792832719371
 30
0.0
  0
HATCH
  5
129
330
124
100
AcDbEntity
  8
_U+30EC_U+30A4_U+30E4_U+30FC 1
 62
   179
420
  2234388
100
AcDbHatch
 10
0.0
 20
0.0
 30
0.0
210
0.0
220
0.0
230
1.0
  2
SOLID
 70
     1
 71
     0
 91
        1
 92
        1
 93
        1
 72
     4
 94
        3
 73
     0
 74
     1
 95
       62
 96
       58
 40
0.0
 40
0.0
 40
0.0
 40
0.0
 40
1.0
 40
1.0
 40
1.0
 40
2.0
 40
2.0
 40
2.0
 40
3.0
 40
3.0
 40
3.0
 40
4.0
 40
4.0
 40
4.0
 40
5.0
 40
5.0
 40
5.0
 40
6.0
 40
6.0
 40
6.0
 40
7.0
 40
7.0
 40
7.0
 40
8.0
 40
8.0
 40
8.0
 40
9.0
 40
9.0
 40
9.0
 40
10.0
 40
10.0
 40
10.0
 40
11.0
 40
11.0
 40
11.0
 40
12.0
 40
12.0
 40
12.0
 40
13.0
 40
13.0
 40
13.0
 40
14.0
 40
14.0
 40
14.0
 40
15.0
 40
15.0
 40
15.0
 40
16.0
 40
16.0
 40
16.0
 40
17.0
 40
17.0
 40
17.0
 40
18.0
 40
18.0
 40
18.0
 40
19.0
 40
19.0
 40
19.0
 40
19.0
 10
105.7348035759969
 20
-158.7792832719371
 10
105.7348035759969
 20
-158.8633436017772
 10
105.7137884935368
 20
-159.0559244394027
 10
105.5277533373334
 20
-159.1661674949307
 10
105.4154432245142
 20
-159.2316243091504
 10
105.316224474539
 20
-159.2350694046357
 10
105.2314751256019
 20
-159.2388590096695
 10
105.2314751256019
 20
-159.2388590096695
 10
105.2314751256019
 20
-159.0445556243014
 10
105.2314751256019
 20
-159.0445556243014
 10
105.3055446785347
 20
-159.0428330765587
 10
105.5401556810803
 20
-159.0335313187486
 10
105.5401556810803
 20
-158.7830728769709
 10
105.5401556810803
 20
-158.6618055158901
 10
105.4705647522782
 20
-158.5271022824168
 10
105.2421549216061
 20
-158.5271022824168
 10
105.1257106942047
 20
-158.5271022824168
 10
105.0771348478627
 20
-158.5608642181723
 10
105.0454399693984
 20
-158.5887694916028
 10
104.9713704164655
 20
-158.6542263058226
 10
104.9586235631701
 20
-158.756890151283
 10
104.9586235631701
 20
-158.805465997625
 10
104.9586235631701
 20
-158.8223469655028
 10
104.9606906204612
 20
-158.8540418439671
 10
104.9648247350435
 20
-158.8785020219123
 10
104.9648247350435
 20
-158.8785020219123
 10
104.7701768401269
 20
-158.8785020219123
 10
104.7701768401269
 20
-158.8785020219123
 10
104.7767225215489
 20
-158.8447400861569
 10
104.77878957884
 20
-158.8075330549162
 10
104.77878957884
 20
-158.8016763925912
 10
104.77878957884
 20
-158.7437987884391
 10
104.7574299868315
 20
-158.5684434282398
 10
104.5207519269948
 20
-158.5684434282398
 10
104.3429849999559
 20
-158.5684434282398
 10
104.2878634721919
 20
-158.6841986365442
 10
104.2878634721919
 20
-158.7813503292283
 10
104.2878634721919
 20
-159.0149278031282
 10
104.5207519269948
 20
-159.0221625036473
 10
104.592409913088
 20
-159.025952108681
 10
104.592409913088
 20
-159.025952108681
 10
104.592409913088
 20
-159.2054415834625
 10
104.592409913088
 20
-159.2054415834625
 10
104.467697456522
 20
-159.197862373395
 10
104.0911485199842
 20
-159.1734021954497
 10
104.0911485199842
 20
-158.769981514127
 10
104.0911485199842
 20
-158.5722330332736
 10
104.2182725433899
 20
-158.3589816227366
 10
104.5142062455728
 20
-158.3589816227366
 10
104.7005859113249
 20
-158.3589816227366
 10
104.7829236934223
 20
-158.4430419525767
 10
104.8442463930598
 20
-158.5308918874506
 10
104.8718071569418
 20
-158.4768038883322
 10
104.9520778817481
 20
-158.3162624387195
 10
105.2294080683107
 20
-158.3162624387195
 10
105.5677164449622
 20
-158.3162624387195
 10
105.7348035759969
 20
-158.5346814924844
 10
105.7348035759969
 20
-158.7792832719371
 97
        0
 97
        0
 75
     2
 76
     1
 98
        0
  0
ENDBLK
  5
127
330
124
100
AcDbEntity
  8
0
100
AcDbBlockEnd
  0
BLOCK
  5
12C
330
12A
100
AcDbEntity
  8
0
100
AcDbBlockBegin
  2
block 8
 70
     0
 10
0.0
 20
0.0
 30
0.0
  3
block 8
  1

  0
SPLINE
  5
12E
330
12A
100
AcDbEntity
  8
_U+30EC_U+30A4_U+30E4_U+30FC 1
370
     0
100
AcDbSpline
210
0.0
220
0.0
230
1.0
 70
    11
 71
     3
 72
    26
 73
    22
 74
     0
 42
0.0000000001
 43
0.0000000001
 12
1.0
 22
0.0
 32
0.0
 13
1.0
 23
0.0
 33
0.0
 40
0.0
 40
0.0
 40
0.0
 40
0.0
 40
1.0
 40
1.0
 40
1.0
 40
2.0
 40
2.0
 40
2.0
 40
3.0
 40
3.0
 40
3.0
 40
4.0
 40
4.0
 40
4.0
 40
5.0
 40
5.0
 40
5.0
 40
6.0
 40
6.0
 40
6.0
 40
7.0
 40
7.0
 40
7.0
 40
7.0
 10
105.6841606723637
 20
-153.8503851611902
 30
0.0
 10
105.6841606723637
 20
-153.8503851611902
 30
0.0
 10
105.6841606723637
 20
-154.0598469666934
 30
0.0
 10
105.6841606723637
 20
-154.0598469666934
 30
0.0
 10
105.3751356073368
 20
-154.0374538460393
 30
0.0
 10
104.8569932463552
 20
-153.8672661290679
 30
0.0
 10
104.3512532291205
 20
-153.5086316890534
 30
0.0
 10
104.3512532291205
 20
-153.5086316890534
 30
0.0
 10
104.3512532291205
 20
-154.2482936897366
 30
0.0
 10
104.3512532291205
 20
-154.2482936897366
 30
0.0
 10
104.3512532291205
 20
-154.2482936897366
 30
0.0
 10
104.1397243663262
 20
-154.2482936897366
 30
0.0
 10
104.1397243663262
 20
-154.2482936897366
 30
0.0
 10
104.1397243663262
 20
-154.2482936897366
 30
0.0
 10
104.1397243663262
 20
-153.2995143930987
 30
0.0
 10
104.1397243663262
 20
-153.2995143930987
 30
0.0
 10
104.1397243663262
 20
-153.2995143930987
 30
0.0
 10
104.3512532291205
 20
-153.2995143930987
 30
0.0
 10
104.3512532291205
 20
-153.2995143930987
 30
0.0
 10
104.6413302689786
 20
-153.5854573183745
 30
0.0
 10
105.233542182893
 20
-153.8207573400171
 30
0.0
 10
105.6841606723637
 20
-153.8503851611902
 30
0.0
  0
HATCH
  5
12F
330
12A
100
AcDbEntity
  8
_U+30EC_U+30A4_U+30E4_U+30FC 1
 62
   179
420
  2234388
100
AcDbHatch
 10
0.0
 20
0.0
 30
0.0
210
0.0
220
0.0
230
1.0
  2
SOLID
 70
     1
 71
     0
 91
        1
 92
        1
 93
        1
 72
     4
 94
        3
 73
     0
 74
     1
 95
       26
 96
       22
 40
0.0
 40
0.0
 40
0.0
 40
0.0
 40
1.0
 40
1.0
 40
1.0
 40
2.0
 40
2.0
 40
2.0
 40
3.0
 40
3.0
 40
3.0
 40
4.0
 40
4.0
 40
4.0
 40
5.0
 40
5.0
 40
5.0
 40
6.0
 40
6.0
 40
6.0
 40
7.0
 40
7.0
 40
7.0
 40
7.0
 10
105.6841606723637
 20
-153.8503851611902
 10
105.6841606723637
 20
-153.8503851611902
 10
105.6841606723637
 20
-154.0598469666934
 10
105.6841606723637
 20
-154.0598469666934
 10
105.3751356073368
 20
-154.0374538460393
 10
104.8569932463552
 20
-153.8672661290679
 10
104.3512532291205
 20
-153.5086316890534
 10
104.3512532291205
 20
-153.5086316890534
 10
104.3512532291205
 20
-154.2482936897366
 10
104.3512532291205
 20
-154.2482936897366
 10
104.3512532291205
 20
-154.2482936897366
 10
104.1397243663262
 20
-154.2482936897366
 10
104.1397243663262
 20
-154.2482936897366
 10
104.1397243663262
 20
-154.2482936897366
 10
104.1397243663262
 20
-153.2995143930987
 10
104.1397243663262
 20
-153.2995143930987
 10
104.1397243663262
 20
-153.2995143930987
 10
104.3512532291205
 20
-153.2995143930987
 10
104.3512532291205
 20
-153.2995143930987
 10
104.6413302689786
 20
-153.5854573183745
 10
105.233542182893
 20
-153.8207573400171
 10
105.6841606723637
 20
-153.8503851611902
 97
        0
 97
        0
 75
     2
 76
     1
 98
        0
  0
ENDBLK
  5
12D
330
12A
100
AcDbEntity
  8
0
100
AcDbBlockEnd
  0
BLOCK
  5
132
330
130
100
AcDbEntity
  8
0
100
AcDbBlockBegin
  2
block 9
 70
     0
 10
0.0
 20
0.0
 30
0.0
  3
block 9
  1

  0
SPLINE
  5
134
330
130
100
AcDbEntity
  8
_U+30EC_U+30A4_U+30E4_U+30FC 1
370
     0
100
AcDbSpline
210
0.0
220
0.0
230
1.0
 70
    11
 71
     3
 72
    53
 73
    49
 74
     0
 42
0.0000000001
 43
0.0000000001
 12
1.0
 22
0.0
 32
0.0
 13
1.0
 23
0.0
 33
0.0
 40
0.0
 40
0.0
 40
0.0
 40
0.0
 40
1.0
 40
1.0
 40
1.0
 40
2.0
 40
2.0
 40
2.0
 40
3.0
 40
3.0
 40
3.0
 40
4.0
 40
4.0
 40
4.0
 40
5.0
 40
5.0
 40
5.0
 40
6.0
 40
6.0
 40
6.0
 40
7.0
 40
7.0
 40
7.0
 40
8.0
 40
8.0
 40
8.0
 40
9.0
 40
9.0
 40
9.0
 40
10.0
 40
10.0
 40
10.0
 40
11.0
 40
11.0
 40
11.0
 40
12.0
 40
12.0
 40
12.0
 40
13.0
 40
13.0
 40
13.0
 40
14.0
 40
14.0
 40
14.0
 40
15.0
 40
15.0
 40
15.0
 40
16.0
 40
16.0
 40
16.0
 40
16.0
 10
105.7348035759969
 20
-125.8086859494506
 30
0.0
 10
105.7348035759969
 20
-125.8775878591556
 30
0.0
 10
105.7179226081191
 20
-125.9671603417721
 30
0.0
 10
105.6545328511905
 20
-126.0570773339371
 30
0.0
 10
105.5446343052111
 20
-126.2100395734822
 30
0.0
 10
105.413376167223
 20
-126.2286430891026
 30
0.0
 10
105.3055446785347
 20
-126.2455240569803
 30
0.0
 10
105.3055446785347
 20
-126.2455240569803
 30
0.0
 10
105.3055446785347
 20
-126.0494981238696
 30
0.0
 10
105.3055446785347
 20
-126.0494981238696
 30
0.0
 10
105.5043266880336
 20
-126.0009222775276
 30
0.0
 10
105.5339545092068
 20
-125.8889566742569
 30
0.0
 10
105.5339545092068
 20
-125.8066188921595
 30
0.0
 10
105.5339545092068
 20
-125.6832844737875
 30
0.0
 10
105.4343912496831
 20
-125.5489257498628
 30
0.0
 10
105.2018473044287
 20
-125.5489257498628
 30
0.0
 10
104.9458767098747
 20
-125.5489257498628
 30
0.0
 10
104.8759412715241
 20
-125.7077446517328
 30
0.0
 10
104.8759412715241
 20
-125.814198102227
 30
0.0
 10
104.8759412715241
 20
-125.8421033756575
 30
0.0
 10
104.8759412715241
 20
-125.9671603417721
 30
0.0
 10
105.0051323522209
 20
-126.0457085188358
 30
0.0
 10
105.0051323522209
 20
-126.0457085188358
 30
0.0
 10
104.9861843270521
 20
-126.200737815672
 30
0.0
 10
104.9861843270521
 20
-126.200737815672
 30
0.0
 10
104.9861843270521
 20
-126.200737815672
 30
0.0
 10
104.1397243663262
 20
-126.0942843651778
 30
0.0
 10
104.1397243663262
 20
-126.0942843651778
 30
0.0
 10
104.1397243663262
 20
-126.0942843651778
 30
0.0
 10
104.1397243663262
 20
-125.4069878158705
 30
0.0
 10
104.1397243663262
 20
-125.4069878158705
 30
0.0
 10
104.1397243663262
 20
-125.4069878158705
 30
0.0
 10
104.3343722612428
 20
-125.4069878158705
 30
0.0
 10
104.3343722612428
 20
-125.4069878158705
 30
0.0
 10
104.3343722612428
 20
-125.4069878158705
 30
0.0
 10
104.3343722612428
 20
-125.9506238834429
 30
0.0
 10
104.3343722612428
 20
-125.9506238834429
 30
0.0
 10
104.3343722612428
 20
-125.9506238834429
 30
0.0
 10
104.7574299868315
 20
-126.0085014875951
 30
0.0
 10
104.7574299868315
 20
-126.0085014875951
 30
0.0
 10
104.723668051076
 20
-125.9540689789281
 30
0.0
 10
104.6833604338986
 20
-125.8813774641894
 30
0.0
 10
104.6833604338986
 20
-125.7766465614378
 30
0.0
 10
104.6833604338986
 20
-125.5527153548965
 30
0.0
 10
104.8697400996506
 20
-125.3432535493934
 30
0.0
 10
105.1828992792598
 20
-125.3432535493934
 30
0.0
 10
105.5001925734513
 20
-125.3432535493934
 30
0.0
 10
105.7348035759969
 20
-125.5413465397952
 30
0.0
 10
105.7348035759969
 20
-125.8086859494506
 30
0.0
  0
HATCH
  5
135
330
130
100
AcDbEntity
  8
_U+30EC_U+30A4_U+30E4_U+30FC 1
 62
   179
420
  2234388
100
AcDbHatch
 10
0.0
 20
0.0
 30
0.0
210
0.0
220
0.0
230
1.0
  2
SOLID
 70
     1
 71
     0
 91
        1
 92
        1
 93
        1
 72
     4
 94
        3
 73
     0
 74
     1
 95
       53
 96
       49
 40
0.0
 40
0.0
 40
0.0
 40
0.0
 40
1.0
 40
1.0
 40
1.0
 40
2.0
 40
2.0
 40
2.0
 40
3.0
 40
3.0
 40
3.0
 40
4.0
 40
4.0
 40
4.0
 40
5.0
 40
5.0
 40
5.0
 40
6.0
 40
6.0
 40
6.0
 40
7.0
 40
7.0
 40
7.0
 40
8.0
 40
8.0
 40
8.0
 40
9.0
 40
9.0
 40
9.0
 40
10.0
 40
10.0
 40
10.0
 40
11.0
 40
11.0
 40
11.0
 40
12.0
 40
12.0
 40
12.0
 40
13.0
 40
13.0
 40
13.0
 40
14.0
 40
14.0
 40
14.0
 40
15.0
 40
15.0
 40
15.0
 40
16.0
 40
16.0
 40
16.0
 40
16.0
 10
105.7348035759969
 20
-125.8086859494506
 10
105.7348035759969
 20
-125.8775878591556
 10
105.7179226081191
 20
-125.9671603417721
 10
105.6545328511905
 20
-126.0570773339371
 10
105.5446343052111
 20
-126.2100395734822
 10
105.413376167223
 20
-126.2286430891026
 10
105.3055446785347
 20
-126.2455240569803
 10
105.3055446785347
 20
-126.2455240569803
 10
105.3055446785347
 20
-126.0494981238696
 10
105.3055446785347
 20
-126.0494981238696
 10
105.5043266880336
 20
-126.0009222775276
 10
105.5339545092068
 20
-125.8889566742569
 10
105.5339545092068
 20
-125.8066188921595
 10
105.5339545092068
 20
-125.6832844737875
 10
105.4343912496831
 20
-125.5489257498628
 10
105.2018473044287
 20
-125.5489257498628
 10
104.9458767098747
 20
-125.5489257498628
 10
104.8759412715241
 20
-125.7077446517328
 10
104.8759412715241
 20
-125.814198102227
 10
104.8759412715241
 20
-125.8421033756575
 10
104.8759412715241
 20
-125.9671603417721
 10
105.0051323522209
 20
-126.0457085188358
 10
105.0051323522209
 20
-126.0457085188358
 10
104.9861843270521
 20
-126.200737815672
 10
104.9861843270521
 20
-126.200737815672
 10
104.9861843270521
 20
-126.200737815672
 10
104.1397243663262
 20
-126.0942843651778
 10
104.1397243663262
 20
-126.0942843651778
 10
104.1397243663262
 20
-126.0942843651778
 10
104.1397243663262
 20
-125.4069878158705
 10
104.1397243663262
 20
-125.4069878158705
 10
104.1397243663262
 20
-125.4069878158705
 10
104.3343722612428
 20
-125.4069878158705
 10
104.3343722612428
 20
-125.4069878158705
 10
104.3343722612428
 20
-125.4069878158705
 10
104.3343722612428
 20
-125.9506238834429
 10
104.3343722612428
 20
-125.9506238834429
 10
104.3343722612428
 20
-125.9506238834429
 10
104.7574299868315
 20
-126.0085014875951
 10
104.7574299868315
 20
-126.0085014875951
 10
104.723668051076
 20
-125.9540689789281
 10
104.6833604338986
 20
-125.8813774641894
 10
104.6833604338986
 20
-125.7766465614378
 10
104.6833604338986
 20
-125.5527153548965
 10
104.8697400996506
 20
-125.3432535493934
 10
105.1828992792598
 20
-125.3432535493934
 10
105.5001925734513
 20
-125.3432535493934
 10
105.7348035759969
 20
-125.5413465397952
 10
105.7348035759969
 20
-125.8086859494506
 97
        0
 97
        0
 75
     2
 76
     1
 98
        0
  0
SPLINE
  5
136
330
130
100
AcDbEntity
  8
_U+30EC_U+30A4_U+30E4_U+30FC 1
370
     0
100
AcDbSpline
210
0.0
220
0.0
230
1.0
 70
    11
 71
     3
 72
    29
 73
    25
 74
     0
 42
0.0000000001
 43
0.0000000001
 12
1.0
 22
0.0
 32
0.0
 13
1.0
 23
0.0
 33
0.0
 40
0.0
 40
0.0
 40
0.0
 40
0.0
 40
1.0
 40
1.0
 40
1.0
 40
2.0
 40
2.0
 40
2.0
 40
3.0
 40
3.0
 40
3.0
 40
4.0
 40
4.0
 40
4.0
 40
5.0
 40
5.0
 40
5.0
 40
6.0
 40
6.0
 40
6.0
 40
7.0
 40
7.0
 40
7.0
 40
8.0
 40
8.0
 40
8.0
 40
8.0
 10
105.5063937453248
 20
-124.400675424629
 30
0.0
 10
105.715855550828
 20
-124.4961045695704
 30
0.0
 10
105.7348035759969
 20
-124.649411318664
 30
0.0
 10
105.7348035759969
 20
-124.7520751641245
 30
0.0
 10
105.7348035759969
 20
-124.8940130981168
 30
0.0
 10
105.688294786946
 20
-125.0190700642313
 30
0.0
 10
105.5063937453248
 20
-125.1031303940714
 30
0.0
 10
105.3117458504082
 20
-125.1947699339791
 30
0.0
 10
105.074723281023
 20
-125.2113063923083
 30
0.0
 10
104.9121147741192
 20
-125.2113063923083
 30
0.0
 10
104.7681097828358
 20
-125.2113063923083
 30
0.0
 10
104.516273302864
 20
-125.1964924817217
 30
0.0
 10
104.3174912933651
 20
-125.1031303940714
 30
0.0
 10
104.1145751692839
 20
-125.0080457586785
 30
0.0
 10
104.0911485199842
 20
-124.8657633151377
 30
0.0
 10
104.0911485199842
 20
-124.7520751641245
 30
0.0
 10
104.0911485199842
 20
-124.6118597778748
 30
0.0
 10
104.1355902517439
 20
-124.4847357544691
 30
0.0
 10
104.3174912933651
 20
-124.400675424629
 30
0.0
 10
104.5100721309905
 20
-124.3131699993037
 30
0.0
 10
104.7384819616626
 20
-124.2924994263922
 30
0.0
 10
104.9121147741192
 20
-124.2924994263922
 30
0.0
 10
105.0833360197361
 20
-124.2924994263922
 30
0.0
 10
105.3138129076993
 20
-124.3111029420125
 30
0.0
 10
105.5063937453248
 20
-124.400675424629
 30
0.0
  0
SPLINE
  5
137
330
130
100
AcDbEntity
  8
_U+30EC_U+30A4_U+30E4_U+30FC 1
370
     0
100
AcDbSpline
210
0.0
220
0.0
230
1.0
 70
    11
 71
     3
 72
    17
 73
    13
 74
     0
 42
0.0000000001
 43
0.0000000001
 12
1.0
 22
0.0
 32
0.0
 13
1.0
 23
0.0
 33
0.0
 40
0.0
 40
0.0
 40
0.0
 40
0.0
 40
1.0
 40
1.0
 40
1.0
 40
2.0
 40
2.0
 40
2.0
 40
3.0
 40
3.0
 40
3.0
 40
4.0
 40
4.0
 40
4.0
 40
4.0
 10
104.2837293576096
 20
-124.7520751641245
 30
0.0
 10
104.2837293576096
 20
-124.972216765632
 30
0.0
 10
104.5672607160457
 20
-125.013557911455
 30
0.0
 10
104.9121147741192
 20
-125.013557911455
 30
0.0
 10
105.2314751256019
 20
-125.013557911455
 30
0.0
 10
105.5401556810803
 20
-124.9818630329906
 30
0.0
 10
105.5401556810803
 20
-124.7520751641245
 30
0.0
 10
105.5401556810803
 20
-124.5333116008111
 30
0.0
 10
105.2590358894839
 20
-124.490592416794
 30
0.0
 10
104.9121147741192
 20
-124.490592416794
 30
0.0
 10
104.592409913088
 20
-124.490592416794
 30
0.0
 10
104.2837293576096
 20
-124.524009843001
 30
0.0
 10
104.2837293576096
 20
-124.7520751641245
 30
0.0
  0
HATCH
  5
138
330
130
100
AcDbEntity
  8
_U+30EC_U+30A4_U+30E4_U+30FC 1
 62
   179
420
  2234388
100
AcDbHatch
 10
0.0
 20
0.0
 30
0.0
210
0.0
220
0.0
230
1.0
  2
SOLID
 70
     1
 71
     0
 91
        2
 92
        1
 93
        1
 72
     4
 94
        3
 73
     0
 74
     1
 95
       29
 96
       25
 40
0.0
 40
0.0
 40
0.0
 40
0.0
 40
1.0
 40
1.0
 40
1.0
 40
2.0
 40
2.0
 40
2.0
 40
3.0
 40
3.0
 40
3.0
 40
4.0
 40
4.0
 40
4.0
 40
5.0
 40
5.0
 40
5.0
 40
6.0
 40
6.0
 40
6.0
 40
7.0
 40
7.0
 40
7.0
 40
8.0
 40
8.0
 40
8.0
 40
8.0
 10
105.5063937453248
 20
-124.400675424629
 10
105.715855550828
 20
-124.4961045695704
 10
105.7348035759969
 20
-124.649411318664
 10
105.7348035759969
 20
-124.7520751641245
 10
105.7348035759969
 20
-124.8940130981168
 10
105.688294786946
 20
-125.0190700642313
 10
105.5063937453248
 20
-125.1031303940714
 10
105.3117458504082
 20
-125.1947699339791
 10
105.074723281023
 20
-125.2113063923083
 10
104.9121147741192
 20
-125.2113063923083
 10
104.7681097828358
 20
-125.2113063923083
 10
104.516273302864
 20
-125.1964924817217
 10
104.3174912933651
 20
-125.1031303940714
 10
104.1145751692839
 20
-125.0080457586785
 10
104.0911485199842
 20
-124.8657633151377
 10
104.0911485199842
 20
-124.7520751641245
 10
104.0911485199842
 20
-124.6118597778748
 10
104.1355902517439
 20
-124.4847357544691
 10
104.3174912933651
 20
-124.400675424629
 10
104.5100721309905
 20
-124.3131699993037
 10
104.7384819616626
 20
-124.2924994263922
 10
104.9121147741192
 20
-124.2924994263922
 10
105.0833360197361
 20
-124.2924994263922
 10
105.3138129076993
 20
-124.3111029420125
 10
105.5063937453248
 20
-124.400675424629
 97
        0
 97
        0
 92
        1
 93
        1
 72
     4
 94
        3
 73
     0
 74
     1
 95
       17
 96
       13
 40
0.0
 40
0.0
 40
0.0
 40
0.0
 40
1.0
 40
1.0
 40
1.0
 40
2.0
 40
2.0
 40
2.0
 40
3.0
 40
3.0
 40
3.0
 40
4.0
 40
4.0
 40
4.0
 40
4.0
 10
104.2837293576096
 20
-124.7520751641245
 10
104.2837293576096
 20
-124.972216765632
 10
104.5672607160457
 20
-125.013557911455
 10
104.9121147741192
 20
-125.013557911455
 10
105.2314751256019
 20
-125.013557911455
 10
105.5401556810803
 20
-124.9818630329906
 10
105.5401556810803
 20
-124.7520751641245
 10
105.5401556810803
 20
-124.5333116008111
 10
105.2590358894839
 20
-124.490592416794
 10
104.9121147741192
 20
-124.490592416794
 10
104.592409913088
 20
-124.490592416794
 10
104.2837293576096
 20
-124.524009843001
 10
104.2837293576096
 20
-124.7520751641245
 97
        0
 97
        0
 75
     2
 76
     1
 98
        0
  0
ENDBLK
  5
133
330
130
100
AcDbEntity
  8
0
100
AcDbBlockEnd
  0
ENDSEC
  0
SECTION
  2
ENTITIES
  0
POLYLINE
  5
41
330
1F
100
AcDbEntity
  8
_U+30EC_U+30A4_U+30E4_U+30FC 1
370
     0
100
AcDb2dPolyline
 66
     1
 10
0.0
 20
0.0
 30
0.0
  0
VERTEX
  5
42
330
41
100
AcDbEntity
  8
_U+30EC_U+30A4_U+30E4_U+30FC 1
370
     0
100
AcDbVertex
100
AcDb2dVertex
 10
85.47745365262182
 20
-141.2716602424596
 30
0.0
  0
VERTEX
  5
43
330
41
100
AcDbEntity
  8
_U+30EC_U+30A4_U+30E4_U+30FC 1
370
     0
100
AcDbVertex
100
AcDb2dVertex
 10
83.47723898142932
 20
-141.2716602424596
 30
0.0
  0
VERTEX
  5
44
330
41
100
AcDbEntity
  8
_U+30EC_U+30A4_U+30E4_U+30FC 1
370
     0
100
AcDbVertex
100
AcDb2dVertex
 10
83.47723898142932
 20
-149.271496073793
 30
0.0
  0
VERTEX
  5
45
330
41
100
AcDbEntity
  8
_U+30EC_U+30A4_U+30E4_U+30FC 1
370
     0
100
AcDbVertex
100
AcDb2dVertex
 10
92.47737597403892
 20
-149.271496073793
 30
0.0
  0
VERTEX
  5
46
330
41
100
AcDbEntity
  8
_U+30EC_U+30A4_U+30E4_U+30FC 1
370
     0
100
AcDbVertex
100
AcDb2dVertex
 10
92.47737597403892
 20
-100.2712271971544
 30
0.0
  0
VERTEX
  5
47
330
41
100
AcDbEntity
  8
_U+30EC_U+30A4_U+30E4_U+30FC 1
370
     0
100
AcDbVertex
100
AcDb2dVertex
 10
93.67766942102492
 20
-100.2712271971544
 30
0.0
  0
VERTEX
  5
48
330
41
100
AcDbEntity
  8
_U+30EC_U+30A4_U+30E4_U+30FC 1
370
     0
100
AcDbVertex
100
AcDb2dVertex
 10
93.67766942102492
 20
-150.2712682957655
 30
0.0
  0
VERTEX
  5
49
330
41
100
AcDbEntity
  8
_U+30EC_U+30A4_U+30E4_U+30FC 1
370
     0
100
AcDbVertex
100
AcDb2dVertex
 10
83.47723898142932
 20
-150.2712682957655
 30
0.0
  0
VERTEX
  5
4A
330
41
100
AcDbEntity
  8
_U+30EC_U+30A4_U+30E4_U+30FC 1
370
     0
100
AcDbVertex
100
AcDb2dVertex
 10
83.47723898142932
 20
-159.2712291268492
 30
0.0
  0
VERTEX
  5
4B
330
41
100
AcDbEntity
  8
_U+30EC_U+30A4_U+30E4_U+30FC 1
370
     0
100
AcDbVertex
100
AcDb2dVertex
 10
101.4773365777641
 20
-159.2712291268492
 30
0.0
  0
VERTEX
  5
4C
330
41
100
AcDbEntity
  8
_U+30EC_U+30A4_U+30E4_U+30FC 1
370
     0
100
AcDbVertex
100
AcDb2dVertex
 10
101.4773365777641
 20
-157.2717199606822
 30
0.0
  0
VERTEX
  5
4D
330
41
100
AcDbEntity
  8
_U+30EC_U+30A4_U+30E4_U+30FC 1
370
     0
100
AcDbVertex
100
AcDb2dVertex
 10
102.47710877448
 20
-157.2717199606822
 30
0.0
  0
VERTEX
  5
4E
330
41
100
AcDbEntity
  8
_U+30EC_U+30A4_U+30E4_U+30FC 1
370
     0
100
AcDbVertex
100
AcDb2dVertex
 10
102.47710877448
 20
-160.2717069043766
 30
0.0
  0
VERTEX
  5
4F
330
41
100
AcDbEntity
  8
_U+30EC_U+30A4_U+30E4_U+30FC 1
370
     0
100
AcDbVertex
100
AcDb2dVertex
 10
82.47746678471341
 20
-160.2717069043766
 30
0.0
  0
VERTEX
  5
50
330
41
100
AcDbEntity
  8
_U+30EC_U+30A4_U+30E4_U+30FC 1
370
     0
100
AcDbVertex
100
AcDb2dVertex
 10
82.47746678471341
 20
-140.2711824649322
 30
0.0
  0
VERTEX
  5
51
330
41
100
AcDbEntity
  8
_U+30EC_U+30A4_U+30E4_U+30FC 1
370
     0
100
AcDbVertex
100
AcDb2dVertex
 10
85.47745365262182
 20
-140.2711824649322
 30
0.0
  0
VERTEX
  5
52
330
41
100
AcDbEntity
  8
_U+30EC_U+30A4_U+30E4_U+30FC 1
370
     0
100
AcDbVertex
100
AcDb2dVertex
 10
85.47745365262182
 20
-141.2716602424596
 30
0.0
  0
SEQEND
  5
54
330
41
100
AcDbEntity
  8
_U+30EC_U+30A4_U+30E4_U+30FC 1
370
     0
  0
HATCH
  5
53
330
1F
100
AcDbEntity
  8
_U+30EC_U+30A4_U+30E4_U+30FC 1
 62
   253
420
 11711154
100
AcDbHatch
 10
0.0
 20
0.0
 30
0.0
210
0.0
220
0.0
230
1.0
  2
SOLID
 70
     1
 71
     0
 91
        1
 92
        1
 93
       16
 72
     1
 10
85.47745365262182
 20
-141.2716602424596
 11
83.47723898142932
 21
-141.2716602424596
 72
     1
 10
83.47723898142932
 20
-141.2716602424596
 11
83.47723898142932
 21
-149.271496073793
 72
     1
 10
83.47723898142932
 20
-149.271496073793
 11
92.47737597403892
 21
-149.271496073793
 72
     1
 10
92.47737597403892
 20
-149.271496073793
 11
92.47737597403892
 21
-100.2712271971544
 72
     1
 10
92.47737597403892
 20
-100.2712271971544
 11
93.67766942102492
 21
-100.2712271971544
 72
     1
 10
93.67766942102492
 20
-100.2712271971544
 11
93.67766942102492
 21
-150.2712682957655
 72
     1
 10
93.67766942102492
 20
-150.2712682957655
 11
83.47723898142932
 21
-150.2712682957655
 72
     1
 10
83.47723898142932
 20
-150.2712682957655
 11
83.47723898142932
 21
-159.2712291268492
 72
     1
 10
83.47723898142932
 20
-159.2712291268492
 11
101.4773365777641
 21
-159.2712291268492
 72
     1
 10
101.4773365777641
 20
-159.2712291268492
 11
101.4773365777641
 21
-157.2717199606822
 72
     1
 10
101.4773365777641
 20
-157.2717199606822
 11
102.47710877448
 21
-157.2717199606822
 72
     1
 10
102.47710877448
 20
-157.2717199606822
 11
102.47710877448
 21
-160.2717069043766
 72
     1
 10
102.47710877448
 20
-160.2717069043766
 11
82.47746678471341
 21
-160.2717069043766
 72
     1
 10
82.47746678471341
 20
-160.2717069043766
 11
82.47746678471341
 21
-140.2711824649322
 72
     1
 10
82.47746678471341
 20
-140.2711824649322
 11
85.47745365262182
 21
-140.2711824649322
 72
     1
 10
85.47745365262182
 20
-140.2711824649322
 11
85.47745365262182
 21
-141.2716602424596
 97
        0
 75
     2
 76
     1
 98
        0
  0
POLYLINE
  5
55
330
1F
100
AcDbEntity
  8
_U+30EC_U+30A4_U+30E4_U+30FC 1
 62
   179
420
  2234388
370
    25
100
AcDb2dPolyline
 66
     1
 10
0.0
 20
0.0
 30
0.0
  0
VERTEX
  5
56
330
55
100
AcDbEntity
  8
_U+30EC_U+30A4_U+30E4_U+30FC 1
 62
   179
420
  2234388
370
    25
100
AcDbVertex
100
AcDb2dVertex
 10
92.47737597403892
 20
-100.2712271971544
 30
0.0
  0
VERTEX
  5
57
330
55
100
AcDbEntity
  8
_U+30EC_U+30A4_U+30E4_U+30FC 1
 62
   179
420
  2234388
370
    25
100
AcDbVertex
100
AcDb2dVertex
 10
92.47737597403892
 20
-149.271496073793
 30
0.0
  0
SEQEND
  5
58
330
55
100
AcDbEntity
  8
_U+30EC_U+30A4_U+30E4_U+30FC 1
 62
   179
420
  2234388
370
    25
  0
POLYLINE
  5
59
330
1F
100
AcDbEntity
  8
_U+30EC_U+30A4_U+30E4_U+30FC 1
 62
   179
420
  2234388
370
    25
100
AcDb2dPolyline
 66
     1
 10
0.0
 20
0.0
 30
0.0
  0
VERTEX
  5
5A
330
59
100
AcDbEntity
  8
_U+30EC_U+30A4_U+30E4_U+30FC 1
 62
   179
420
  2234388
370
    25
100
AcDbVertex
100
AcDb2dVertex
 10
93.67766942102492
 20
-100.2712271971544
 30
0.0
  0
VERTEX
  5
5B
330
59
100
AcDbEntity
  8
_U+30EC_U+30A4_U+30E4_U+30FC 1
 62
   179
420
  2234388
370
    25
100
AcDbVertex
100
AcDb2dVertex
 10
92.47737597403892
 20
-100.2712271971544
 30
0.0
  0
SEQEND
  5
5C
330
59
100
AcDbEntity
  8
_U+30EC_U+30A4_U+30E4_U+30FC 1
 62
   179
420
  2234388
370
    25
  0
POLYLINE
  5
5D
330
1F
100
AcDbEntity
  8
_U+30EC_U+30A4_U+30E4_U+30FC 1
 62
   179
420
  2234388
370
    25
100
AcDb2dPolyline
 66
     1
 10
0.0
 20
0.0
 30
0.0
  0
VERTEX
  5
5E
330
5D
100
AcDbEntity
  8
_U+30EC_U+30A4_U+30E4_U+30FC 1
 62
   179
420
  2234388
370
    25
100
AcDbVertex
100
AcDb2dVertex
 10
93.67766942102492
 20
-100.2712271971544
 30
0.0
  0
VERTEX
  5
5F
330
5D
100
AcDbEntity
  8
_U+30EC_U+30A4_U+30E4_U+30FC 1
 62
   179
420
  2234388
370
    25
100
AcDbVertex
100
AcDb2dVertex
 10
93.67766942102492
 20
-150.2712682957655
 30
0.0
  0
SEQEND
  5
60
330
5D
100
AcDbEntity
  8
_U+30EC_U+30A4_U+30E4_U+30FC 1
 62
   179
420
  2234388
370
    25
  0
POLYLINE
  5
61
330
1F
100
AcDbEntity
  8
_U+30EC_U+30A4_U+30E4_U+30FC 1
 62
   179
420
  2234388
370
    25
100
AcDb2dPolyline
 66
     1
 10
0.0
 20
0.0
 30
0.0
  0
VERTEX
  5
62
330
61
100
AcDbEntity
  8
_U+30EC_U+30A4_U+30E4_U+30FC 1
 62
   179
420
  2234388
370
    25
100
AcDbVertex
100
AcDb2dVertex
 10
93.67766942102492
 20
-150.2712682957655
 30
0.0
  0
VERTEX
  5
63
330
61
100
AcDbEntity
  8
_U+30EC_U+30A4_U+30E4_U+30FC 1
 62
   179
420
  2234388
370
    25
100
AcDbVertex
100
AcDb2dVertex
 10
83.47723898142932
 20
-150.2712682957655
 30
0.0
  0
SEQEND
  5
64
330
61
100
AcDbEntity
  8
_U+30EC_U+30A4_U+30E4_U+30FC 1
 62
   179
420
  2234388
370
    25
  0
POLYLINE
  5
65
330
1F
100
AcDbEntity
  8
_U+30EC_U+30A4_U+30E4_U+30FC 1
 62
   179
420
  2234388
370
    25
100
AcDb2dPolyline
 66
     1
 10
0.0
 20
0.0
 30
0.0
  0
VERTEX
  5
66
330
65
100
AcDbEntity
  8
_U+30EC_U+30A4_U+30E4_U+30FC 1
 62
   179
420
  2234388
370
    25
100
AcDbVertex
100
AcDb2dVertex
 10
102.47710877448
 20
-157.2717199606822
 30
0.0
  0
VERTEX
  5
67
330
65
100
AcDbEntity
  8
_U+30EC_U+30A4_U+30E4_U+30FC 1
 62
   179
420
  2234388
370
    25
100
AcDbVertex
100
AcDb2dVertex
 10
101.4773365777641
 20
-157.2717199606822
 30
0.0
  0
SEQEND
  5
68
330
65
100
AcDbEntity
  8
_U+30EC_U+30A4_U+30E4_U+30FC 1
 62
   179
420
  2234388
370
    25
  0
POLYLINE
  5
69
330
1F
100
AcDbEntity
  8
_U+30EC_U+30A4_U+30E4_U+30FC 1
 62
   179
420
  2234388
370
    25
100
AcDb2dPolyline
 66
     1
 10
0.0
 20
0.0
 30
0.0
  0
VERTEX
  5
6A
330
69
100
AcDbEntity
  8
_U+30EC_U+30A4_U+30E4_U+30FC 1
 62
   179
420
  2234388
370
    25
100
AcDbVertex
100
AcDb2dVertex
 10
102.47710877448
 20
-160.2717069043766
 30
0.0
  0
VERTEX
  5
6B
330
69
100
AcDbEntity
  8
_U+30EC_U+30A4_U+30E4_U+30FC 1
 62
   179
420
  2234388
370
    25
100
AcDbVertex
100
AcDb2dVertex
 10
82.47746678471341
 20
-160.2717069043766
 30
0.0
  0
SEQEND
  5
6C
330
69
100
AcDbEntity
  8
_U+30EC_U+30A4_U+30E4_U+30FC 1
 62
   179
420
  2234388
370
    25
  0
POLYLINE
  5
6D
330
1F
100
AcDbEntity
  8
_U+30EC_U+30A4_U+30E4_U+30FC 1
 62
   179
420
  2234388
370
    25
100
AcDb2dPolyline
 66
     1
 10
0.0
 20
0.0
 30
0.0
  0
VERTEX
  5
6E
330
6D
100
AcDbEntity
  8
_U+30EC_U+30A4_U+30E4_U+30FC 1
 62
   179
420
  2234388
370
    25
100
AcDbVertex
100
AcDb2dVertex
 10
85.47745365262182
 20
-140.2711824649322
 30
0.0
  0
VERTEX
  5
6F
330
6D
100
AcDbEntity
  8
_U+30EC_U+30A4_U+30E4_U+30FC 1
 62
   179
420
  2234388
370
    25
100
AcDbVertex
100
AcDb2dVertex
 10
85.47745365262182
 20
-141.2716602424596
 30
0.0
  0
SEQEND
  5
70
330
6D
100
AcDbEntity
  8
_U+30EC_U+30A4_U+30E4_U+30FC 1
 62
   179
420
  2234388
370
    25
  0
POLYLINE
  5
71
330
1F
100
AcDbEntity
  8
_U+30EC_U+30A4_U+30E4_U+30FC 1
 62
   179
420
  2234388
370
    25
100
AcDb2dPolyline
 66
     1
 10
0.0
 20
0.0
 30
0.0
  0
VERTEX
  5
72
330
71
100
AcDbEntity
  8
_U+30EC_U+30A4_U+30E4_U+30FC 1
 62
   179
420
  2234388
370
    25
100
AcDbVertex
100
AcDb2dVertex
 10
82.47746678471341
 20
-140.2711824649322
 30
0.0
  0
VERTEX
  5
73
330
71
100
AcDbEntity
  8
_U+30EC_U+30A4_U+30E4_U+30FC 1
 62
   179
420
  2234388
370
    25
100
AcDbVertex
100
AcDb2dVertex
 10
82.47746678471341
 20
-160.2717069043766
 30
0.0
  0
SEQEND
  5
74
330
71
100
AcDbEntity
  8
_U+30EC_U+30A4_U+30E4_U+30FC 1
 62
   179
420
  2234388
370
    25
  0
POLYLINE
  5
75
330
1F
100
AcDbEntity
  8
_U+30EC_U+30A4_U+30E4_U+30FC 1
 62
   179
420
  2234388
370
    25
100
AcDb2dPolyline
 66
     1
 10
0.0
 20
0.0
 30
0.0
  0
VERTEX
  5
76
330
75
100
AcDbEntity
  8
_U+30EC_U+30A4_U+30E4_U+30FC 1
 62
   179
420
  2234388
370
    25
100
AcDbVertex
100
AcDb2dVertex
 10
85.47745365262182
 20
-140.2711824649322
 30
0.0
  0
VERTEX
  5
77
330
75
100
AcDbEntity
  8
_U+30EC_U+30A4_U+30E4_U+30FC 1
 62
   179
420
  2234388
370
    25
100
AcDbVertex
100
AcDb2dVertex
 10
82.47746678471341
 20
-140.2711824649322
 30
0.0
  0
SEQEND
  5
78
330
75
100
AcDbEntity
  8
_U+30EC_U+30A4_U+30E4_U+30FC 1
 62
   179
420
  2234388
370
    25
  0
POLYLINE
  5
79
330
1F
100
AcDbEntity
  8
_U+30EC_U+30A4_U+30E4_U+30FC 1
 62
   179
420
  2234388
370
    25
100
AcDb2dPolyline
 66
     1
 10
0.0
 20
0.0
 30
0.0
  0
VERTEX
  5
7A
330
79
100
AcDbEntity
  8
_U+30EC_U+30A4_U+30E4_U+30FC 1
 62
   179
420
  2234388
370
    25
100
AcDbVertex
100
AcDb2dVertex
 10
102.47710877448
 20
-157.2717199606822
 30
0.0
  0
VERTEX
  5
7B
330
79
100
AcDbEntity
  8
_U+30EC_U+30A4_U+30E4_U+30FC 1
 62
   179
420
  2234388
370
    25
100
AcDbVertex
100
AcDb2dVertex
 10
102.47710877448
 20
-160.2717069043766
 30
0.0
  0
SEQEND
  5
7C
330
79
100
AcDbEntity
  8
_U+30EC_U+30A4_U+30E4_U+30FC 1
 62
   179
420
  2234388
370
    25
  0
POLYLINE
  5
7D
330
1F
100
AcDbEntity
  8
_U+30EC_U+30A4_U+30E4_U+30FC 1
 62
   179
420
  2234388
370
    25
100
AcDb2dPolyline
 66
     1
 10
0.0
 20
0.0
 30
0.0
  0
VERTEX
  5
7E
330
7D
100
AcDbEntity
  8
_U+30EC_U+30A4_U+30E4_U+30FC 1
 62
   179
420
  2234388
370
    25
100
AcDbVertex
100
AcDb2dVertex
 10
83.47723898142932
 20
-141.2716602424596
 30
0.0
  0
VERTEX
  5
7F
330
7D
100
AcDbEntity
  8
_U+30EC_U+30A4_U+30E4_U+30FC 1
 62
   179
420
  2234388
370
    25
100
AcDbVertex
100
AcDb2dVertex
 10
83.47723898142932
 20
-149.271496073793
 30
0.0
  0
SEQEND
  5
80
330
7D
100
AcDbEntity
  8
_U+30EC_U+30A4_U+30E4_U+30FC 1
 62
   179
420
  2234388
370
    25
  0
POLYLINE
  5
81
330
1F
100
AcDbEntity
  8
_U+30EC_U+30A4_U+30E4_U+30FC 1
 62
   179
420
  2234388
370
    25
100
AcDb2dPolyline
 66
     1
 10
0.0
 20
0.0
 30
0.0
  0
VERTEX
  5
82
330
81
100
AcDbEntity
  8
_U+30EC_U+30A4_U+30E4_U+30FC 1
 62
   179
420
  2234388
370
    25
100
AcDbVertex
100
AcDb2dVertex
 10
92.47737597403892
 20
-149.271496073793
 30
0.0
  0
VERTEX
  5
83
330
81
100
AcDbEntity
  8
_U+30EC_U+30A4_U+30E4_U+30FC 1
 62
   179
420
  2234388
370
    25
100
AcDbVertex
100
AcDb2dVertex
 10
83.47723898142932
 20
-149.271496073793
 30
0.0
  0
SEQEND
  5
84
330
81
100
AcDbEntity
  8
_U+30EC_U+30A4_U+30E4_U+30FC 1
 62
   179
420
  2234388
370
    25
  0
POLYLINE
  5
85
330
1F
100
AcDbEntity
  8
_U+30EC_U+30A4_U+30E4_U+30FC 1
 62
   179
420
  2234388
370
    25
100
AcDb2dPolyline
 66
     1
 10
0.0
 20
0.0
 30
0.0
  0
VERTEX
  5
86
330
85
100
AcDbEntity
  8
_U+30EC_U+30A4_U+30E4_U+30FC 1
 62
   179
420
  2234388
370
    25
100
AcDbVertex
100
AcDb2dVertex
 10
85.47745365262182
 20
-141.2716602424596
 30
0.0
  0
VERTEX
  5
87
330
85
100
AcDbEntity
  8
_U+30EC_U+30A4_U+30E4_U+30FC 1
 62
   179
420
  2234388
370
    25
100
AcDbVertex
100
AcDb2dVertex
 10
83.47723898142932
 20
-141.2716602424596
 30
0.0
  0
SEQEND
  5
88
330
85
100
AcDbEntity
  8
_U+30EC_U+30A4_U+30E4_U+30FC 1
 62
   179
420
  2234388
370
    25
  0
POLYLINE
  5
89
330
1F
100
AcDbEntity
  8
_U+30EC_U+30A4_U+30E4_U+30FC 1
 62
   179
420
  2234388
370
    25
100
AcDb2dPolyline
 66
     1
 10
0.0
 20
0.0
 30
0.0
  0
VERTEX
  5
8A
330
89
100
AcDbEntity
  8
_U+30EC_U+30A4_U+30E4_U+30FC 1
 62
   179
420
  2234388
370
    25
100
AcDbVertex
100
AcDb2dVertex
 10
101.4773365777641
 20
-157.2717199606822
 30
0.0
  0
VERTEX
  5
8B
330
89
100
AcDbEntity
  8
_U+30EC_U+30A4_U+30E4_U+30FC 1
 62
   179
420
  2234388
370
    25
100
AcDbVertex
100
AcDb2dVertex
 10
101.4773365777641
 20
-159.2712291268492
 30
0.0
  0
SEQEND
  5
8C
330
89
100
AcDbEntity
  8
_U+30EC_U+30A4_U+30E4_U+30FC 1
 62
   179
420
  2234388
370
    25
  0
POLYLINE
  5
8D
330
1F
100
AcDbEntity
  8
_U+30EC_U+30A4_U+30E4_U+30FC 1
 62
   179
420
  2234388
370
    25
100
AcDb2dPolyline
 66
     1
 10
0.0
 20
0.0
 30
0.0
  0
VERTEX
  5
8E
330
8D
100
AcDbEntity
  8
_U+30EC_U+30A4_U+30E4_U+30FC 1
 62
   179
420
  2234388
370
    25
100
AcDbVertex
100
AcDb2dVertex
 10
101.4773365777641
 20
-159.2712291268492
 30
0.0
  0
VERTEX
  5
8F
330
8D
100
AcDbEntity
  8
_U+30EC_U+30A4_U+30E4_U+30FC 1
 62
   179
420
  2234388
370
    25
100
AcDbVertex
100
AcDb2dVertex
 10
83.47723898142932
 20
-159.2712291268492
 30
0.0
  0
SEQEND
  5
90
330
8D
100
AcDbEntity
  8
_U+30EC_U+30A4_U+30E4_U+30FC 1
 62
   179
420
  2234388
370
    25
  0
POLYLINE
  5
91
330
1F
100
AcDbEntity
  8
_U+30EC_U+30A4_U+30E4_U+30FC 1
 62
   179
420
  2234388
370
    25
100
AcDb2dPolyline
 66
     1
 10
0.0
 20
0.0
 30
0.0
  0
VERTEX
  5
92
330
91
100
AcDbEntity
  8
_U+30EC_U+30A4_U+30E4_U+30FC 1
 62
   179
420
  2234388
370
    25
100
AcDbVertex
100
AcDb2dVertex
 10
83.47723898142932
 20
-150.2712682957655
 30
0.0
  0
VERTEX
  5
93
330
91
100
AcDbEntity
  8
_U+30EC_U+30A4_U+30E4_U+30FC 1
 62
   179
420
  2234388
370
    25
100
AcDbVertex
100
AcDb2dVertex
 10
83.47723898142932
 20
-159.2712291268492
 30
0.0
  0
SEQEND
  5
94
330
91
100
AcDbEntity
  8
_U+30EC_U+30A4_U+30E4_U+30FC 1
 62
   179
420
  2234388
370
    25
  0
SPLINE
  5
95
330
1F
100
AcDbEntity
  8
_U+30EC_U+30A4_U+30E4_U+30FC 1
 62
   179
420
  2234388
370
     9
100
AcDbSpline
210
0.0
220
0.0
230
1.0
 70
    11
 71
     3
 72
    17
 73
    13
 74
     0
 42
0.0000000001
 43
0.0000000001
 12
1.0
 22
0.0
 32
0.0
 13
1.0
 23
0.0
 33
0.0
 40
0.0
 40
0.0
 40
0.0
 40
0.0
 40
1.0
 40
1.0
 40
1.0
 40
2.0
 40
2.0
 40
2.0
 40
3.0
 40
3.0
 40
3.0
 40
4.0
 40
4.0
 40
4.0
 40
4.0
 10
92.37746930992108
 20
-96.27146803148756
 30
0.0
 10
92.37746930992108
 20
-96.21636414261265
 30
0.0
 10
92.42227208655585
 20
-96.17156136484593
 30
0.0
 10
92.47737597403892
 20
-96.17156136484593
 30
0.0
 10
92.53251513929887
 20
-96.17156136484593
 30
0.0
 10
92.57728263815676
 20
-96.21636414261265
 30
0.0
 10
92.57728263815676
 20
-96.27146803148756
 30
0.0
 10
92.57728263815676
 20
-96.32660719814064
 30
0.0
 10
92.53251513929887
 20
-96.37137469812951
 30
0.0
 10
92.47737597403892
 20
-96.37137469812951
 30
0.0
 10
92.42227208655585
 20
-96.37137469812951
 30
0.0
 10
92.37746930992108
 20
-96.32660719814064
 30
0.0
 10
92.37746930992108
 20
-96.27146803148756
 30
0.0
  0
SPLINE
  5
96
330
1F
100
AcDbEntity
  8
_U+30EC_U+30A4_U+30E4_U+30FC 1
 62
   179
420
  2234388
370
     9
100
AcDbSpline
210
0.0
220
0.0
230
1.0
 70
    11
 71
     3
 72
    17
 73
    13
 74
     0
 42
0.0000000001
 43
0.0000000001
 12
1.0
 22
0.0
 32
0.0
 13
1.0
 23
0.0
 33
0.0
 40
0.0
 40
0.0
 40
0.0
 40
0.0
 40
1.0
 40
1.0
 40
1.0
 40
2.0
 40
2.0
 40
2.0
 40
3.0
 40
3.0
 40
3.0
 40
4.0
 40
4.0
 40
4.0
 40
4.0
 10
93.57776039041022
 20
-96.27146803148756
 30
0.0
 10
93.57776039041022
 20
-96.21636414261265
 30
0.0
 10
93.6225278892681
 20
-96.17156136484593
 30
0.0
 10
93.67766942102492
 20
-96.17156136484593
 30
0.0
 10
93.73277094201113
 20
-96.17156136484593
 30
0.0
 10
93.77757371864588
 20
-96.21636414261265
 30
0.0
 10
93.77757371864588
 20
-96.27146803148756
 30
0.0
 10
93.77757371864588
 20
-96.32660719814064
 30
0.0
 10
93.73277094201113
 20
-96.37137469812951
 30
0.0
 10
93.67766942102492
 20
-96.37137469812951
 30
0.0
 10
93.6225278892681
 20
-96.37137469812951
 30
0.0
 10
93.57776039041022
 20
-96.32660719814064
 30
0.0
 10
93.57776039041022
 20
-96.27146803148756
 30
0.0
  0
SPLINE
  5
97
330
1F
100
AcDbEntity
  8
_U+30EC_U+30A4_U+30E4_U+30FC 1
 62
   179
420
  2234388
370
     9
100
AcDbSpline
210
0.0
220
0.0
230
1.0
 70
    11
 71
     3
 72
    17
 73
    13
 74
     0
 42
0.0000000001
 43
0.0000000001
 12
1.0
 22
0.0
 32
0.0
 13
1.0
 23
0.0
 33
0.0
 40
0.0
 40
0.0
 40
0.0
 40
0.0
 40
1.0
 40
1.0
 40
1.0
 40
2.0
 40
2.0
 40
2.0
 40
3.0
 40
3.0
 40
3.0
 40
4.0
 40
4.0
 40
4.0
 40
4.0
 10
106.3769638622944
 20
-100.2712271971544
 30
0.0
 10
106.3769638622944
 20
-100.2160880305017
 30
0.0
 10
106.4217666400611
 20
-100.1713205305128
 30
0.0
 10
106.4768678391043
 20
-100.1713205305128
 30
0.0
 10
106.5320070043643
 20
-100.1713205305128
 30
0.0
 10
106.5767745032222
 20
-100.2160880305017
 30
0.0
 10
106.5767745032222
 20
-100.2712271971544
 30
0.0
 10
106.5767745032222
 20
-100.3270366415849
 30
0.0
 10
106.5320070043643
 20
-100.3718394193516
 30
0.0
 10
106.4768678391043
 20
-100.3718394193516
 30
0.0
 10
106.4217666400611
 20
-100.3718394193516
 30
0.0
 10
106.3769638622944
 20
-100.3270366415849
 30
0.0
 10
106.3769638622944
 20
-100.2712271971544
 30
0.0
  0
SPLINE
  5
98
330
1F
100
AcDbEntity
  8
_U+30EC_U+30A4_U+30E4_U+30FC 1
 62
   179
420
  2234388
370
     9
100
AcDbSpline
210
0.0
220
0.0
230
1.0
 70
    11
 71
     3
 72
    17
 73
    13
 74
     0
 42
0.0000000001
 43
0.0000000001
 12
1.0
 22
0.0
 32
0.0
 13
1.0
 23
0.0
 33
0.0
 40
0.0
 40
0.0
 40
0.0
 40
0.0
 40
1.0
 40
1.0
 40
1.0
 40
2.0
 40
2.0
 40
2.0
 40
3.0
 40
3.0
 40
3.0
 40
4.0
 40
4.0
 40
4.0
 40
4.0
 10
78.37713077821059
 20
-140.2711824649322
 30
0.0
 10
78.37713077821059
 20
-140.2160785760572
 30
0.0
 10
78.42189827706848
 20
-140.1712757982905
 30
0.0
 10
78.47703744232842
 20
-140.1712757982905
 30
0.0
 10
78.5321413298115
 20
-140.1712757982905
 30
0.0
 10
78.57694410644626
 20
-140.2160785760572
 30
0.0
 10
78.57694410644626
 20
-140.2711824649322
 30
0.0
 10
78.57694410644626
 20
-140.3263216315852
 30
0.0
 10
78.5321413298115
 20
-140.3710891315738
 30
0.0
 10
78.47703744232842
 20
-140.3710891315738
 30
0.0
 10
78.42189827706848
 20
-140.3710891315738
 30
0.0
 10
78.37713077821059
 20
-140.3263216315852
 30
0.0
 10
78.37713077821059
 20
-140.2711824649322
 30
0.0
  0
SPLINE
  5
99
330
1F
100
AcDbEntity
  8
_U+30EC_U+30A4_U+30E4_U+30FC 1
 62
   179
420
  2234388
370
     9
100
AcDbSpline
210
0.0
220
0.0
230
1.0
 70
    11
 71
     3
 72
    17
 73
    13
 74
     0
 42
0.0000000001
 43
0.0000000001
 12
1.0
 22
0.0
 32
0.0
 13
1.0
 23
0.0
 33
0.0
 40
0.0
 40
0.0
 40
0.0
 40
0.0
 40
1.0
 40
1.0
 40
1.0
 40
2.0
 40
2.0
 40
2.0
 40
3.0
 40
3.0
 40
3.0
 40
4.0
 40
4.0
 40
4.0
 40
4.0
 10
82.3768898428349
 20
-136.2714585770435
 30
0.0
 10
82.3768898428349
 20
-136.2163194103904
 30
0.0
 10
82.42165734169278
 20
-136.1715166326236
 30
0.0
 10
82.47746678471341
 20
-136.1715166326236
 30
0.0
 10
82.53260594997336
 20
-136.1715166326236
 30
0.0
 10
82.57737344883125
 20
-136.2163194103904
 30
0.0
 10
82.57737344883125
 20
-136.2714585770435
 30
0.0
 10
82.57737344883125
 20
-136.3265624659184
 30
0.0
 10
82.53260594997336
 20
-136.3713652436851
 30
0.0
 10
82.47746678471341
 20
-136.3713652436851
 30
0.0
 10
82.42165734169278
 20
-136.3713652436851
 30
0.0
 10
82.3768898428349
 20
-136.3265624659184
 30
0.0
 10
82.3768898428349
 20
-136.2714585770435
 30
0.0
  0
SPLINE
  5
9A
330
1F
100
AcDbEntity
  8
_U+30EC_U+30A4_U+30E4_U+30FC 1
 62
   179
420
  2234388
370
     9
100
AcDbSpline
210
0.0
220
0.0
230
1.0
 70
    11
 71
     3
 72
    17
 73
    13
 74
     0
 42
0.0000000001
 43
0.0000000001
 12
1.0
 22
0.0
 32
0.0
 13
1.0
 23
0.0
 33
0.0
 40
0.0
 40
0.0
 40
0.0
 40
0.0
 40
1.0
 40
1.0
 40
1.0
 40
2.0
 40
2.0
 40
2.0
 40
3.0
 40
3.0
 40
3.0
 40
4.0
 40
4.0
 40
4.0
 40
4.0
 10
85.37722948851209
 20
-136.2714585770435
 30
0.0
 10
85.37722948851209
 20
-136.2163194103904
 30
0.0
 10
85.42199698736997
 20
-136.1715166326236
 30
0.0
 10
85.47745365262182
 20
-136.1715166326236
 30
0.0
 10
85.53259281788176
 20
-136.1715166326236
 30
0.0
 10
85.57736031673964
 20
-136.2163194103904
 30
0.0
 10
85.57736031673964
 20
-136.2714585770435
 30
0.0
 10
85.57736031673964
 20
-136.3265624659184
 30
0.0
 10
85.53259281788176
 20
-136.3713652436851
 30
0.0
 10
85.47745365262182
 20
-136.3713652436851
 30
0.0
 10
85.42199698736997
 20
-136.3713652436851
 30
0.0
 10
85.37722948851209
 20
-136.3265624659184
 30
0.0
 10
85.37722948851209
 20
-136.2714585770435
 30
0.0
  0
SPLINE
  5
9B
330
1F
100
AcDbEntity
  8
_U+30EC_U+30A4_U+30E4_U+30FC 1
 62
   179
420
  2234388
370
     9
100
AcDbSpline
210
0.0
220
0.0
230
1.0
 70
    11
 71
     3
 72
    17
 73
    13
 74
     0
 42
0.0000000001
 43
0.0000000001
 12
1.0
 22
0.0
 32
0.0
 13
1.0
 23
0.0
 33
0.0
 40
0.0
 40
0.0
 40
0.0
 40
0.0
 40
1.0
 40
1.0
 40
1.0
 40
2.0
 40
2.0
 40
2.0
 40
3.0
 40
3.0
 40
3.0
 40
4.0
 40
4.0
 40
4.0
 40
4.0
 10
92.37746930992108
 20
-137.2715482990156
 30
0.0
 10
92.37746930992108
 20
-137.21644441014
 30
0.0
 10
92.42227208655585
 20
-137.171641632374
 30
0.0
 10
92.47737597403892
 20
-137.171641632374
 30
0.0
 10
92.53251513929887
 20
-137.171641632374
 30
0.0
 10
92.57728263815676
 20
-137.21644441014
 30
0.0
 10
92.57728263815676
 20
-137.2715482990156
 30
0.0
 10
92.57728263815676
 20
-137.326687465668
 30
0.0
 10
92.53251513929887
 20
-137.3714549656572
 30
0.0
 10
92.47737597403892
 20
-137.3714549656572
 30
0.0
 10
92.42227208655585
 20
-137.3714549656572
 30
0.0
 10
92.37746930992108
 20
-137.326687465668
 30
0.0
 10
92.37746930992108
 20
-137.2715482990156
 30
0.0
  0
SPLINE
  5
9C
330
1F
100
AcDbEntity
  8
_U+30EC_U+30A4_U+30E4_U+30FC 1
 62
   179
420
  2234388
370
     9
100
AcDbSpline
210
0.0
220
0.0
230
1.0
 70
    11
 71
     3
 72
    17
 73
    13
 74
     0
 42
0.0000000001
 43
0.0000000001
 12
1.0
 22
0.0
 32
0.0
 13
1.0
 23
0.0
 33
0.0
 40
0.0
 40
0.0
 40
0.0
 40
0.0
 40
1.0
 40
1.0
 40
1.0
 40
2.0
 40
2.0
 40
2.0
 40
3.0
 40
3.0
 40
3.0
 40
4.0
 40
4.0
 40
4.0
 40
4.0
 10
106.3769638622944
 20
-150.2712682957655
 30
0.0
 10
106.3769638622944
 20
-150.2161644068906
 30
0.0
 10
106.4217666400611
 20
-150.1713616291239
 30
0.0
 10
106.4768678391043
 20
-150.1713616291239
 30
0.0
 10
106.5320070043643
 20
-150.1713616291239
 30
0.0
 10
106.5767745032222
 20
-150.2161644068906
 30
0.0
 10
106.5767745032222
 20
-150.2712682957655
 30
0.0
 10
106.5767745032222
 20
-150.3270777401959
 30
0.0
 10
106.5320070043643
 20
-150.3711749624071
 30
0.0
 10
106.4768678391043
 20
-150.3711749624071
 30
0.0
 10
106.4217666400611
 20
-150.3711749624071
 30
0.0
 10
106.3769638622944
 20
-150.3270777401959
 30
0.0
 10
106.3769638622944
 20
-150.2712682957655
 30
0.0
  0
SPLINE
  5
9D
330
1F
100
AcDbEntity
  8
_U+30EC_U+30A4_U+30E4_U+30FC 1
 62
   179
420
  2234388
370
     9
100
AcDbSpline
210
0.0
220
0.0
230
1.0
 70
    11
 71
     3
 72
    17
 73
    13
 74
     0
 42
0.0000000001
 43
0.0000000001
 12
1.0
 22
0.0
 32
0.0
 13
1.0
 23
0.0
 33
0.0
 40
0.0
 40
0.0
 40
0.0
 40
0.0
 40
1.0
 40
1.0
 40
1.0
 40
2.0
 40
2.0
 40
2.0
 40
3.0
 40
3.0
 40
3.0
 40
4.0
 40
4.0
 40
4.0
 40
4.0
 10
102.3772021103622
 20
-164.2714660700435
 30
0.0
 10
102.3772021103622
 20
-164.2163269033904
 30
0.0
 10
102.422004886997
 20
-164.1715594034018
 30
0.0
 10
102.47710877448
 20
-164.1715594034018
 30
0.0
 10
102.53224793974
 20
-164.1715594034018
 30
0.0
 10
102.5770154385979
 20
-164.2163269033904
 30
0.0
 10
102.5770154385979
 20
-164.2714660700435
 30
0.0
 10
102.5770154385979
 20
-164.3265699589184
 30
0.0
 10
102.53224793974
 20
-164.3713727366851
 30
0.0
 10
102.47710877448
 20
-164.3713727366851
 30
0.0
 10
102.422004886997
 20
-164.3713727366851
 30
0.0
 10
102.3772021103622
 20
-164.3265699589184
 30
0.0
 10
102.3772021103622
 20
-164.2714660700435
 30
0.0
  0
SPLINE
  5
9E
330
1F
100
AcDbEntity
  8
_U+30EC_U+30A4_U+30E4_U+30FC 1
 62
   179
420
  2234388
370
     9
100
AcDbSpline
210
0.0
220
0.0
230
1.0
 70
    11
 71
     3
 72
    17
 73
    13
 74
     0
 42
0.0000000001
 43
0.0000000001
 12
1.0
 22
0.0
 32
0.0
 13
1.0
 23
0.0
 33
0.0
 40
0.0
 40
0.0
 40
0.0
 40
0.0
 40
1.0
 40
1.0
 40
1.0
 40
2.0
 40
2.0
 40
2.0
 40
3.0
 40
3.0
 40
3.0
 40
4.0
 40
4.0
 40
4.0
 40
4.0
 10
106.3769638622944
 20
-160.2717069043766
 30
0.0
 10
106.3769638622944
 20
-160.2158974599461
 30
0.0
 10
106.4217666400611
 20
-160.171800237735
 30
0.0
 10
106.4768678391043
 20
-160.171800237735
 30
0.0
 10
106.5320070043643
 20
-160.171800237735
 30
0.0
 10
106.5767745032222
 20
-160.2158974599461
 30
0.0
 10
106.5767745032222
 20
-160.2717069043766
 30
0.0
 10
106.5767745032222
 20
-160.3268107932515
 30
0.0
 10
106.5320070043643
 20
-160.3716135710182
 30
0.0
 10
106.4768678391043
 20
-160.3716135710182
 30
0.0
 10
106.4217666400611
 20
-160.3716135710182
 30
0.0
 10
106.3769638622944
 20
-160.3268107932515
 30
0.0
 10
106.3769638622944
 20
-160.2717069043766
 30
0.0
  0
SPLINE
  5
9F
330
1F
100
AcDbEntity
  8
_U+30EC_U+30A4_U+30E4_U+30FC 1
 62
   179
420
  2234388
370
     9
100
AcDbSpline
210
0.0
220
0.0
230
1.0
 70
    11
 71
     3
 72
    17
 73
    13
 74
     0
 42
0.0000000001
 43
0.0000000001
 12
1.0
 22
0.0
 32
0.0
 13
1.0
 23
0.0
 33
0.0
 40
0.0
 40
0.0
 40
0.0
 40
0.0
 40
1.0
 40
1.0
 40
1.0
 40
2.0
 40
2.0
 40
2.0
 40
3.0
 40
3.0
 40
3.0
 40
4.0
 40
4.0
 40
4.0
 40
4.0
 10
106.3769638622944
 20
-157.2717199606822
 30
0.0
 10
106.3769638622944
 20
-157.2159105162518
 30
0.0
 10
106.4217666400611
 20
-157.1711077384851
 30
0.0
 10
106.4768678391043
 20
-157.1711077384851
 30
0.0
 10
106.5320070043643
 20
-157.1711077384851
 30
0.0
 10
106.5767745032222
 20
-157.2159105162518
 30
0.0
 10
106.5767745032222
 20
-157.2717199606822
 30
0.0
 10
106.5767745032222
 20
-157.3268238495572
 30
0.0
 10
106.5320070043643
 20
-157.3716266273239
 30
0.0
 10
106.4768678391043
 20
-157.3716266273239
 30
0.0
 10
106.4217666400611
 20
-157.3716266273239
 30
0.0
 10
106.3769638622944
 20
-157.3268238495572
 30
0.0
 10
106.3769638622944
 20
-157.2717199606822
 30
0.0
  0
SPLINE
  5
A0
330
1F
100
AcDbEntity
  8
_U+30EC_U+30A4_U+30E4_U+30FC 1
 62
   179
420
  2234388
370
     9
100
AcDbSpline
210
0.0
220
0.0
230
1.0
 70
    11
 71
     3
 72
    17
 73
    13
 74
     0
 42
0.0000000001
 43
0.0000000001
 12
1.0
 22
0.0
 32
0.0
 13
1.0
 23
0.0
 33
0.0
 40
0.0
 40
0.0
 40
0.0
 40
0.0
 40
1.0
 40
1.0
 40
1.0
 40
2.0
 40
2.0
 40
2.0
 40
3.0
 40
3.0
 40
3.0
 40
4.0
 40
4.0
 40
4.0
 40
4.0
 10
78.37713077821059
 20
-160.2717069043766
 30
0.0
 10
78.37713077821059
 20
-160.2158974599461
 30
0.0
 10
78.42189827706848
 20
-160.171800237735
 30
0.0
 10
78.47703744232842
 20
-160.171800237735
 30
0.0
 10
78.5321413298115
 20
-160.171800237735
 30
0.0
 10
78.57694410644626
 20
-160.2158974599461
 30
0.0
 10
78.57694410644626
 20
-160.2717069043766
 30
0.0
 10
78.57694410644626
 20
-160.3268107932515
 30
0.0
 10
78.5321413298115
 20
-160.3716135710182
 30
0.0
 10
78.47703744232842
 20
-160.3716135710182
 30
0.0
 10
78.42189827706848
 20
-160.3716135710182
 30
0.0
 10
78.37713077821059
 20
-160.3268107932515
 30
0.0
 10
78.37713077821059
 20
-160.2717069043766
 30
0.0
  0
SPLINE
  5
A1
330
1F
100
AcDbEntity
  8
_U+30EC_U+30A4_U+30E4_U+30FC 1
 62
   179
420
  2234388
370
     9
100
AcDbSpline
210
0.0
220
0.0
230
1.0
 70
    11
 71
     3
 72
    17
 73
    13
 74
     0
 42
0.0000000001
 43
0.0000000001
 12
1.0
 22
0.0
 32
0.0
 13
1.0
 23
0.0
 33
0.0
 40
0.0
 40
0.0
 40
0.0
 40
0.0
 40
1.0
 40
1.0
 40
1.0
 40
2.0
 40
2.0
 40
2.0
 40
3.0
 40
3.0
 40
3.0
 40
4.0
 40
4.0
 40
4.0
 40
4.0
 10
82.3768898428349
 20
-164.2714660700435
 30
0.0
 10
82.3768898428349
 20
-164.2163269033904
 30
0.0
 10
82.42165734169278
 20
-164.1715594034018
 30
0.0
 10
82.47746678471341
 20
-164.1715594034018
 30
0.0
 10
82.53260594997336
 20
-164.1715594034018
 30
0.0
 10
82.57737344883125
 20
-164.2163269033904
 30
0.0
 10
82.57737344883125
 20
-164.2714660700435
 30
0.0
 10
82.57737344883125
 20
-164.3265699589184
 30
0.0
 10
82.53260594997336
 20
-164.3713727366851
 30
0.0
 10
82.47746678471341
 20
-164.3713727366851
 30
0.0
 10
82.42165734169278
 20
-164.3713727366851
 30
0.0
 10
82.3768898428349
 20
-164.3265699589184
 30
0.0
 10
82.3768898428349
 20
-164.2714660700435
 30
0.0
  0
POLYLINE
  5
A2
330
1F
100
AcDbEntity
  8
_U+30EC_U+30A4_U+30E4_U+30FC 1
 62
   179
420
  2234388
370
     9
100
AcDb2dPolyline
 66
     1
 10
0.0
 20
0.0
 30
0.0
  0
VERTEX
  5
A3
330
A2
100
AcDbEntity
  8
_U+30EC_U+30A4_U+30E4_U+30FC 1
 62
   179
420
  2234388
370
     9
100
AcDbVertex
100
AcDb2dVertex
 10
93.67766942102492
 20
-96.27146803148756
 30
0.0
  0
VERTEX
  5
A4
330
A2
100
AcDbEntity
  8
_U+30EC_U+30A4_U+30E4_U+30FC 1
 62
   179
420
  2234388
370
     9
100
AcDbVertex
100
AcDb2dVertex
 10
98.93557275372103
 20
-96.27146803148756
 30
0.0
  0
SEQEND
  5
A5
330
A2
100
AcDbEntity
  8
_U+30EC_U+30A4_U+30E4_U+30FC 1
 62
   179
420
  2234388
370
     9
  0
POLYLINE
  5
A6
330
1F
100
AcDbEntity
  8
_U+30EC_U+30A4_U+30E4_U+30FC 1
 62
   179
420
  2234388
370
     9
100
AcDb2dPolyline
 66
     1
 10
0.0
 20
0.0
 30
0.0
  0
VERTEX
  5
A7
330
A6
100
AcDbEntity
  8
_U+30EC_U+30A4_U+30E4_U+30FC 1
 62
   179
420
  2234388
370
     9
100
AcDbVertex
100
AcDb2dVertex
 10
93.67766942102492
 20
-96.27146803148756
 30
0.0
  0
VERTEX
  5
A8
330
A6
100
AcDbEntity
  8
_U+30EC_U+30A4_U+30E4_U+30FC 1
 62
   179
420
  2234388
370
     9
100
AcDbVertex
100
AcDb2dVertex
 10
91.47760377732301
 20
-96.27146803148756
 30
0.0
  0
SEQEND
  5
A9
330
A6
100
AcDbEntity
  8
_U+30EC_U+30A4_U+30E4_U+30FC 1
 62
   179
420
  2234388
370
     9
  0
POLYLINE
  5
AA
330
1F
100
AcDbEntity
  8
_U+30EC_U+30A4_U+30E4_U+30FC 1
 62
   179
420
  2234388
370
     9
100
AcDb2dPolyline
 66
     1
 10
0.0
 20
0.0
 30
0.0
  0
VERTEX
  5
AB
330
AA
100
AcDbEntity
  8
_U+30EC_U+30A4_U+30E4_U+30FC 1
 62
   179
420
  2234388
370
     9
100
AcDbVertex
100
AcDb2dVertex
 10
93.67766942102492
 20
-97.73150942001159
 30
0.0
  0
VERTEX
  5
AC
330
AA
100
AcDbEntity
  8
_U+30EC_U+30A4_U+30E4_U+30FC 1
 62
   179
420
  2234388
370
     9
100
AcDbVertex
100
AcDb2dVertex
 10
93.67766942102492
 20
-95.27169580951534
 30
0.0
  0
SEQEND
  5
AD
330
AA
100
AcDbEntity
  8
_U+30EC_U+30A4_U+30E4_U+30FC 1
 62
   179
420
  2234388
370
     9
  0
POLYLINE
  5
AE
330
1F
100
AcDbEntity
  8
_U+30EC_U+30A4_U+30E4_U+30FC 1
 62
   179
420
  2234388
370
     9
100
AcDb2dPolyline
 66
     1
 10
0.0
 20
0.0
 30
0.0
  0
VERTEX
  5
AF
330
AE
100
AcDbEntity
  8
_U+30EC_U+30A4_U+30E4_U+30FC 1
 62
   179
420
  2234388
370
     9
100
AcDbVertex
100
AcDb2dVertex
 10
92.47737597403892
 20
-97.73150942001159
 30
0.0
  0
VERTEX
  5
B0
330
AE
100
AcDbEntity
  8
_U+30EC_U+30A4_U+30E4_U+30FC 1
 62
   179
420
  2234388
370
     9
100
AcDbVertex
100
AcDb2dVertex
 10
92.47737597403892
 20
-95.27169580951534
 30
0.0
  0
SEQEND
  5
B1
330
AE
100
AcDbEntity
  8
_U+30EC_U+30A4_U+30E4_U+30FC 1
 62
   179
420
  2234388
370
     9
  0
POLYLINE
  5
B2
330
1F
100
AcDbEntity
  8
_U+30EC_U+30A4_U+30E4_U+30FC 1
 62
   179
420
  2234388
370
     9
100
AcDb2dPolyline
 66
     1
 10
0.0
 20
0.0
 30
0.0
  0
VERTEX
  5
B3
330
B2
100
AcDbEntity
  8
_U+30EC_U+30A4_U+30E4_U+30FC 1
 62
   179
420
  2234388
370
     9
100
AcDbVertex
100
AcDb2dVertex
 10
85.47745365262182
 20
-136.2714585770435
 30
0.0
  0
VERTEX
  5
B4
330
B2
100
AcDbEntity
  8
_U+30EC_U+30A4_U+30E4_U+30FC 1
 62
   179
420
  2234388
370
     9
100
AcDbVertex
100
AcDb2dVertex
 10
82.47746678471341
 20
-136.2714585770435
 30
0.0
  0
SEQEND
  5
B5
330
B2
100
AcDbEntity
  8
_U+30EC_U+30A4_U+30E4_U+30FC 1
 62
   179
420
  2234388
370
     9
  0
POLYLINE
  5
B6
330
1F
100
AcDbEntity
  8
_U+30EC_U+30A4_U+30E4_U+30FC 1
 62
   179
420
  2234388
370
     9
100
AcDb2dPolyline
 66
     1
 10
0.0
 20
0.0
 30
0.0
  0
VERTEX
  5
B7
330
B6
100
AcDbEntity
  8
_U+30EC_U+30A4_U+30E4_U+30FC 1
 62
   179
420
  2234388
370
     9
100
AcDbVertex
100
AcDb2dVertex
 10
85.47745365262182
 20
-137.7314646877896
 30
0.0
  0
VERTEX
  5
B8
330
B6
100
AcDbEntity
  8
_U+30EC_U+30A4_U+30E4_U+30FC 1
 62
   179
420
  2234388
370
     9
100
AcDbVertex
100
AcDb2dVertex
 10
85.47745365262182
 20
-135.2716863550709
 30
0.0
  0
SEQEND
  5
B9
330
B6
100
AcDbEntity
  8
_U+30EC_U+30A4_U+30E4_U+30FC 1
 62
   179
420
  2234388
370
     9
  0
POLYLINE
  5
BA
330
1F
100
AcDbEntity
  8
_U+30EC_U+30A4_U+30E4_U+30FC 1
 62
   179
420
  2234388
370
     9
100
AcDb2dPolyline
 66
     1
 10
0.0
 20
0.0
 30
0.0
  0
VERTEX
  5
BB
330
BA
100
AcDbEntity
  8
_U+30EC_U+30A4_U+30E4_U+30FC 1
 62
   179
420
  2234388
370
     9
100
AcDbVertex
100
AcDb2dVertex
 10
82.47746678471341
 20
-137.7314646877896
 30
0.0
  0
VERTEX
  5
BC
330
BA
100
AcDbEntity
  8
_U+30EC_U+30A4_U+30E4_U+30FC 1
 62
   179
420
  2234388
370
     9
100
AcDbVertex
100
AcDb2dVertex
 10
82.47746678471341
 20
-135.2716863550709
 30
0.0
  0
SEQEND
  5
BD
330
BA
100
AcDbEntity
  8
_U+30EC_U+30A4_U+30E4_U+30FC 1
 62
   179
420
  2234388
370
     9
  0
POLYLINE
  5
BE
330
1F
100
AcDbEntity
  8
_U+30EC_U+30A4_U+30E4_U+30FC 1
 62
   179
420
  2234388
370
     9
100
AcDb2dPolyline
 66
     1
 10
0.0
 20
0.0
 30
0.0
  0
VERTEX
  5
BF
330
BE
100
AcDbEntity
  8
_U+30EC_U+30A4_U+30E4_U+30FC 1
 62
   179
420
  2234388
370
     9
100
AcDbVertex
100
AcDb2dVertex
 10
85.47745365262182
 20
-136.2714585770435
 30
0.0
  0
VERTEX
  5
C0
330
BE
100
AcDbEntity
  8
_U+30EC_U+30A4_U+30E4_U+30FC 1
 62
   179
420
  2234388
370
     9
100
AcDbVertex
100
AcDb2dVertex
 10
92.47737597403892
 20
-136.2714585770435
 30
0.0
  0
SEQEND
  5
C1
330
BE
100
AcDbEntity
  8
_U+30EC_U+30A4_U+30E4_U+30FC 1
 62
   179
420
  2234388
370
     9
  0
POLYLINE
  5
C2
330
1F
100
AcDbEntity
  8
_U+30EC_U+30A4_U+30E4_U+30FC 1
 62
   179
420
  2234388
370
     9
100
AcDb2dPolyline
 66
     1
 10
0.0
 20
0.0
 30
0.0
  0
VERTEX
  5
C3
330
C2
100
AcDbEntity
  8
_U+30EC_U+30A4_U+30E4_U+30FC 1
 62
   179
420
  2234388
370
     9
100
AcDbVertex
100
AcDb2dVertex
 10
102.47710877448
 20
-164.2714660700435
 30
0.0
  0
VERTEX
  5
C4
330
C2
100
AcDbEntity
  8
_U+30EC_U+30A4_U+30E4_U+30FC 1
 62
   179
420
  2234388
370
     9
100
AcDbVertex
100
AcDb2dVertex
 10
82.47746678471341
 20
-164.2714660700435
 30
0.0
  0
SEQEND
  5
C5
330
C2
100
AcDbEntity
  8
_U+30EC_U+30A4_U+30E4_U+30FC 1
 62
   179
420
  2234388
370
     9
  0
POLYLINE
  5
C6
330
1F
100
AcDbEntity
  8
_U+30EC_U+30A4_U+30E4_U+30FC 1
 62
   179
420
  2234388
370
     9
100
AcDb2dPolyline
 66
     1
 10
0.0
 20
0.0
 30
0.0
  0
VERTEX
  5
C7
330
C6
100
AcDbEntity
  8
_U+30EC_U+30A4_U+30E4_U+30FC 1
 62
   179
420
  2234388
370
     9
100
AcDbVertex
100
AcDb2dVertex
 10
102.47710877448
 20
-162.8114246815191
 30
0.0
  0
VERTEX
  5
C8
330
C6
100
AcDbEntity
  8
_U+30EC_U+30A4_U+30E4_U+30FC 1
 62
   179
420
  2234388
370
     9
100
AcDbVertex
100
AcDb2dVertex
 10
102.47710877448
 20
-165.2712382920154
 30
0.0
  0
SEQEND
  5
C9
330
C6
100
AcDbEntity
  8
_U+30EC_U+30A4_U+30E4_U+30FC 1
 62
   179
420
  2234388
370
     9
  0
POLYLINE
  5
CA
330
1F
100
AcDbEntity
  8
_U+30EC_U+30A4_U+30E4_U+30FC 1
 62
   179
420
  2234388
370
     9
100
AcDb2dPolyline
 66
     1
 10
0.0
 20
0.0
 30
0.0
  0
VERTEX
  5
CB
330
CA
100
AcDbEntity
  8
_U+30EC_U+30A4_U+30E4_U+30FC 1
 62
   179
420
  2234388
370
     9
100
AcDbVertex
100
AcDb2dVertex
 10
82.47746678471341
 20
-162.8114246815191
 30
0.0
  0
VERTEX
  5
CC
330
CA
100
AcDbEntity
  8
_U+30EC_U+30A4_U+30E4_U+30FC 1
 62
   179
420
  2234388
370
     9
100
AcDbVertex
100
AcDb2dVertex
 10
82.47746678471341
 20
-165.2712382920154
 30
0.0
  0
SEQEND
  5
CD
330
CA
100
AcDbEntity
  8
_U+30EC_U+30A4_U+30E4_U+30FC 1
 62
   179
420
  2234388
370
     9
  0
POLYLINE
  5
CE
330
1F
100
AcDbEntity
  8
_U+30EC_U+30A4_U+30E4_U+30FC 1
 62
   179
420
  2234388
370
     9
100
AcDb2dPolyline
 66
     1
 10
0.0
 20
0.0
 30
0.0
  0
VERTEX
  5
CF
330
CE
100
AcDbEntity
  8
_U+30EC_U+30A4_U+30E4_U+30FC 1
 62
   179
420
  2234388
370
     9
100
AcDbVertex
100
AcDb2dVertex
 10
78.47703744232842
 20
-160.2717069043766
 30
0.0
  0
VERTEX
  5
D0
330
CE
100
AcDbEntity
  8
_U+30EC_U+30A4_U+30E4_U+30FC 1
 62
   179
420
  2234388
370
     9
100
AcDbVertex
100
AcDb2dVertex
 10
78.47703744232842
 20
-140.2711824649322
 30
0.0
  0
SEQEND
  5
D1
330
CE
100
AcDbEntity
  8
_U+30EC_U+30A4_U+30E4_U+30FC 1
 62
   179
420
  2234388
370
     9
  0
POLYLINE
  5
D2
330
1F
100
AcDbEntity
  8
_U+30EC_U+30A4_U+30E4_U+30FC 1
 62
   179
420
  2234388
370
     9
100
AcDb2dPolyline
 66
     1
 10
0.0
 20
0.0
 30
0.0
  0
VERTEX
  5
D3
330
D2
100
AcDbEntity
  8
_U+30EC_U+30A4_U+30E4_U+30FC 1
 62
   179
420
  2234388
370
     9
100
AcDbVertex
100
AcDb2dVertex
 10
79.93707879396855
 20
-160.2717069043766
 30
0.0
  0
VERTEX
  5
D4
330
D2
100
AcDbEntity
  8
_U+30EC_U+30A4_U+30E4_U+30FC 1
 62
   179
420
  2234388
370
     9
100
AcDbVertex
100
AcDb2dVertex
 10
77.47726524561251
 20
-160.2717069043766
 30
0.0
  0
SEQEND
  5
D5
330
D2
100
AcDbEntity
  8
_U+30EC_U+30A4_U+30E4_U+30FC 1
 62
   179
420
  2234388
370
     9
  0
POLYLINE
  5
D6
330
1F
100
AcDbEntity
  8
_U+30EC_U+30A4_U+30E4_U+30FC 1
 62
   179
420
  2234388
370
     9
100
AcDb2dPolyline
 66
     1
 10
0.0
 20
0.0
 30
0.0
  0
VERTEX
  5
D7
330
D6
100
AcDbEntity
  8
_U+30EC_U+30A4_U+30E4_U+30FC 1
 62
   179
420
  2234388
370
     9
100
AcDbVertex
100
AcDb2dVertex
 10
79.93707879396855
 20
-140.2711824649322
 30
0.0
  0
VERTEX
  5
D8
330
D6
100
AcDbEntity
  8
_U+30EC_U+30A4_U+30E4_U+30FC 1
 62
   179
420
  2234388
370
     9
100
AcDbVertex
100
AcDb2dVertex
 10
77.47726524561251
 20
-140.2711824649322
 30
0.0
  0
SEQEND
  5
D9
330
D6
100
AcDbEntity
  8
_U+30EC_U+30A4_U+30E4_U+30FC 1
 62
   179
420
  2234388
370
     9
  0
POLYLINE
  5
DA
330
1F
100
AcDbEntity
  8
_U+30EC_U+30A4_U+30E4_U+30FC 1
 62
   179
420
  2234388
370
     9
100
AcDb2dPolyline
 66
     1
 10
0.0
 20
0.0
 30
0.0
  0
VERTEX
  5
DB
330
DA
100
AcDbEntity
  8
_U+30EC_U+30A4_U+30E4_U+30FC 1
 62
   179
420
  2234388
370
     9
100
AcDbVertex
100
AcDb2dVertex
 10
106.4768678391043
 20
-157.2717199606822
 30
0.0
  0
VERTEX
  5
DC
330
DA
100
AcDbEntity
  8
_U+30EC_U+30A4_U+30E4_U+30FC 1
 62
   179
420
  2234388
370
     9
100
AcDbVertex
100
AcDb2dVertex
 10
106.4768678391043
 20
-160.2717069043766
 30
0.0
  0
SEQEND
  5
DD
330
DA
100
AcDbEntity
  8
_U+30EC_U+30A4_U+30E4_U+30FC 1
 62
   179
420
  2234388
370
     9
  0
POLYLINE
  5
DE
330
1F
100
AcDbEntity
  8
_U+30EC_U+30A4_U+30E4_U+30FC 1
 62
   179
420
  2234388
370
     9
100
AcDb2dPolyline
 66
     1
 10
0.0
 20
0.0
 30
0.0
  0
VERTEX
  5
DF
330
DE
100
AcDbEntity
  8
_U+30EC_U+30A4_U+30E4_U+30FC 1
 62
   179
420
  2234388
370
     9
100
AcDbVertex
100
AcDb2dVertex
 10
105.0168264874642
 20
-157.2717199606822
 30
0.0
  0
VERTEX
  5
E0
330
DE
100
AcDbEntity
  8
_U+30EC_U+30A4_U+30E4_U+30FC 1
 62
   179
420
  2234388
370
     9
100
AcDbVertex
100
AcDb2dVertex
 10
107.4773455913578
 20
-157.2717199606822
 30
0.0
  0
SEQEND
  5
E1
330
DE
100
AcDbEntity
  8
_U+30EC_U+30A4_U+30E4_U+30FC 1
 62
   179
420
  2234388
370
     9
  0
POLYLINE
  5
E2
330
1F
100
AcDbEntity
  8
_U+30EC_U+30A4_U+30E4_U+30FC 1
 62
   179
420
  2234388
370
     9
100
AcDb2dPolyline
 66
     1
 10
0.0
 20
0.0
 30
0.0
  0
VERTEX
  5
E3
330
E2
100
AcDbEntity
  8
_U+30EC_U+30A4_U+30E4_U+30FC 1
 62
   179
420
  2234388
370
     9
100
AcDbVertex
100
AcDb2dVertex
 10
105.0168264874642
 20
-160.2717069043766
 30
0.0
  0
VERTEX
  5
E4
330
E2
100
AcDbEntity
  8
_U+30EC_U+30A4_U+30E4_U+30FC 1
 62
   179
420
  2234388
370
     9
100
AcDbVertex
100
AcDb2dVertex
 10
107.4773455913578
 20
-160.2717069043766
 30
0.0
  0
SEQEND
  5
E5
330
E2
100
AcDbEntity
  8
_U+30EC_U+30A4_U+30E4_U+30FC 1
 62
   179
420
  2234388
370
     9
  0
POLYLINE
  5
E6
330
1F
100
AcDbEntity
  8
_U+30EC_U+30A4_U+30E4_U+30FC 1
 62
   179
420
  2234388
370
     9
100
AcDb2dPolyline
 66
     1
 10
0.0
 20
0.0
 30
0.0
  0
VERTEX
  5
E7
330
E6
100
AcDbEntity
  8
_U+30EC_U+30A4_U+30E4_U+30FC 1
 62
   179
420
  2234388
370
     9
100
AcDbVertex
100
AcDb2dVertex
 10
106.4768678391043
 20
-157.2717199606822
 30
0.0
  0
VERTEX
  5
E8
330
E6
100
AcDbEntity
  8
_U+30EC_U+30A4_U+30E4_U+30FC 1
 62
   179
420
  2234388
370
     9
100
AcDbVertex
100
AcDb2dVertex
 10
106.4768678391043
 20
-150.2712682957655
 30
0.0
  0
SEQEND
  5
E9
330
E6
100
AcDbEntity
  8
_U+30EC_U+30A4_U+30E4_U+30FC 1
 62
   179
420
  2234388
370
     9
  0
POLYLINE
  5
EA
330
1F
100
AcDbEntity
  8
_U+30EC_U+30A4_U+30E4_U+30FC 1
 62
   179
420
  2234388
370
     9
100
AcDb2dPolyline
 66
     1
 10
0.0
 20
0.0
 30
0.0
  0
VERTEX
  5
EB
330
EA
100
AcDbEntity
  8
_U+30EC_U+30A4_U+30E4_U+30FC 1
 62
   179
420
  2234388
370
     9
100
AcDbVertex
100
AcDb2dVertex
 10
96.17741504630972
 20
-150.2712682957655
 30
0.0
  0
VERTEX
  5
EC
330
EA
100
AcDbEntity
  8
_U+30EC_U+30A4_U+30E4_U+30FC 1
 62
   179
420
  2234388
370
     9
100
AcDbVertex
100
AcDb2dVertex
 10
107.4773455913578
 20
-150.2712682957655
 30
0.0
  0
SEQEND
  5
ED
330
EA
100
AcDbEntity
  8
_U+30EC_U+30A4_U+30E4_U+30FC 1
 62
   179
420
  2234388
370
     9
  0
POLYLINE
  5
EE
330
1F
100
AcDbEntity
  8
_U+30EC_U+30A4_U+30E4_U+30FC 1
 62
   179
420
  2234388
370
     9
100
AcDb2dPolyline
 66
     1
 10
0.0
 20
0.0
 30
0.0
  0
VERTEX
  5
EF
330
EE
100
AcDbEntity
  8
_U+30EC_U+30A4_U+30E4_U+30FC 1
 62
   179
420
  2234388
370
     9
100
AcDbVertex
100
AcDb2dVertex
 10
106.4768678391043
 20
-150.2712682957655
 30
0.0
  0
VERTEX
  5
F0
330
EE
100
AcDbEntity
  8
_U+30EC_U+30A4_U+30E4_U+30FC 1
 62
   179
420
  2234388
370
     9
100
AcDbVertex
100
AcDb2dVertex
 10
106.4768678391043
 20
-100.2712271971544
 30
0.0
  0
SEQEND
  5
F1
330
EE
100
AcDbEntity
  8
_U+30EC_U+30A4_U+30E4_U+30FC 1
 62
   179
420
  2234388
370
     9
  0
POLYLINE
  5
F2
330
1F
100
AcDbEntity
  8
_U+30EC_U+30A4_U+30E4_U+30FC 1
 62
   179
420
  2234388
370
     9
100
AcDb2dPolyline
 66
     1
 10
0.0
 20
0.0
 30
0.0
  0
VERTEX
  5
F3
330
F2
100
AcDbEntity
  8
_U+30EC_U+30A4_U+30E4_U+30FC 1
 62
   179
420
  2234388
370
     9
100
AcDbVertex
100
AcDb2dVertex
 10
96.17741504630972
 20
-100.2712271971544
 30
0.0
  0
VERTEX
  5
F4
330
F2
100
AcDbEntity
  8
_U+30EC_U+30A4_U+30E4_U+30FC 1
 62
   179
420
  2234388
370
     9
100
AcDbVertex
100
AcDb2dVertex
 10
107.4773455913578
 20
-100.2712271971544
 30
0.0
  0
SEQEND
  5
F5
330
F2
100
AcDbEntity
  8
_U+30EC_U+30A4_U+30E4_U+30FC 1
 62
   179
420
  2234388
370
     9
  0
INSERT
  5
F7
330
1F
100
AcDbEntity
  8
_U+30EC_U+30A4_U+30E4_U+30FC 1
100
AcDbBlockReference
  2
block 2
 10
0.0
 20
0.0
 30
0.0
  0
INSERT
  5
107
330
1F
100
AcDbEntity
  8
_U+30EC_U+30A4_U+30E4_U+30FC 1
100
AcDbBlockReference
  2
block 3
 10
0.0
 20
0.0
 30
0.0
  0
INSERT
  5
10D
330
1F
100
AcDbEntity
  8
_U+30EC_U+30A4_U+30E4_U+30FC 1
100
AcDbBlockReference
  2
block 4
 10
0.0
 20
0.0
 30
0.0
  0
INSERT
  5
113
330
1F
100
AcDbEntity
  8
_U+30EC_U+30A4_U+30E4_U+30FC 1
100
AcDbBlockReference
  2
block 5
 10
0.0
 20
0.0
 30
0.0
  0
INSERT
  5
11C
330
1F
100
AcDbEntity
  8
_U+30EC_U+30A4_U+30E4_U+30FC 1
100
AcDbBlockReference
  2
block 6
 10
0.0
 20
0.0
 30
0.0
  0
INSERT
  5
125
330
1F
100
AcDbEntity
  8
_U+30EC_U+30A4_U+30E4_U+30FC 1
100
AcDbBlockReference
  2
block 7
 10
0.0
 20
0.0
 30
0.0
  0
INSERT
  5
12B
330
1F
100
AcDbEntity
  8
_U+30EC_U+30A4_U+30E4_U+30FC 1
100
AcDbBlockReference
  2
block 8
 10
0.0
 20
0.0
 30
0.0
  0
INSERT
  5
131
330
1F
100
AcDbEntity
  8
_U+30EC_U+30A4_U+30E4_U+30FC 1
100
AcDbBlockReference
  2
block 9
 10
0.0
 20
0.0
 30
0.0
  0
ENDSEC
  0
SECTION
  2
OBJECTS
  0
DICTIONARY
  5
C
330
0
100
AcDbDictionary
281
     1
  3
ACAD_GROUP
350
D
  3
ACAD_LAYOUT
350
1A
  3
ACAD_MATERIAL
350
3B
  3
ACAD_MLEADERSTYLE
350
13A
  3
ACAD_MLINESTYLE
350
17
  3
ACAD_PLOTSETTINGS
350
19
  3
ACAD_PLOTSTYLENAME
350
E
  3
ACAD_TABLESTYLE
350
139
  3
ACAD_VISUALSTYLE
350
2A
  0
SUN
  5
3F
330
29
100
AcDbSun
 90
        1
290
     0
 63
     7
421
 16777215
 40
1.0
291
     1
 91
  2455826
 92
 54000000
292
     0
 70
     2
 71
   256
280
     1
  0
DICTIONARY
  5
D
102
{ACAD_REACTORS
330
C
102
}
330
C
100
AcDbDictionary
281
     1
  0
DICTIONARY
  5
1A
102
{ACAD_REACTORS
330
C
102
}
330
C
100
AcDbDictionary
281
     1
  3
Layout1
350
1E
  3
Layout2
350
26
  3
Model
350
22
  0
DICTIONARY
  5
3B
102
{ACAD_REACTORS
330
C
102
}
330
C
100
AcDbDictionary
281
     1
  3
ByBlock
350
3D
  3
ByLayer
350
3C
  3
Global
350
3E
  0
DICTIONARY
  5
13A
102
{ACAD_REACTORS
330
C
102
}
330
C
100
AcDbDictionary
281
     1
  0
DICTIONARY
  5
17
102
{ACAD_REACTORS
330
C
102
}
330
C
100
AcDbDictionary
281
     1
  3
Standard
350
18
  0
DICTIONARY
  5
19
102
{ACAD_REACTORS
330
C
102
}
330
C
100
AcDbDictionary
281
     1
  0
ACDBDICTIONARYWDFLT
  5
E
102
{ACAD_REACTORS
330
C
102
}
330
C
100
AcDbDictionary
281
     1
  3
Normal
350
F
100
AcDbDictionaryWithDefault
340
F
  0
DICTIONARY
  5
139
102
{ACAD_REACTORS
330
C
102
}
330
C
100
AcDbDictionary
281
     1
  0
DICTIONARY
  5
2A
102
{ACAD_REACTORS
330
C
102
}
330
C
100
AcDbDictionary
281
     1
  3
2dWireframe
350
2F
  3
3D Hidden
350
31
  3
3dWireframe
350
30
  3
Basic
350
32
  3
Brighten
350
36
  3
ColorChange
350
3A
  3
Conceptual
350
34
  3
Dim
350
35
  3
Facepattern
350
39
  3
Flat
350
2B
  3
FlatWithEdges
350
2C
  3
Gouraud
350
2D
  3
GouraudWithEdges
350
2E
  3
Linepattern
350
38
  3
Realistic
350
33
  3
Thicken
350
37
  0
LAYOUT
  5
1E
102
{ACAD_REACTORS
330
1A
102
}
330
1A
100
AcDbPlotSettings
  1

  2
none_device
  4

  6

 40
0.0
 41
0.0
 42
0.0
 43
0.0
 44
0.0
 45
0.0
 46
0.0
 47
0.0
 48
0.0
 49
0.0
140
0.0
141
0.0
142
1.0
143
1.0
 70
   688
 72
     0
 73
     0
 74
     5
  7

 75
    16
 76
     0
 77
     2
 78
   300
147
1.0
148
0.0
149
0.0
100
AcDbLayout
  1
Layout1
 70
     1
 71
     1
 10
0.0
 20
0.0
 11
12.0
 21
9.0
 12
0.0
 22
0.0
 32
0.0
 14
1.000000000000000E+20
 24
1.000000000000000E+20
 34
1.000000000000000E+20
 15
-1.000000000000000E+20
 25
-1.000000000000000E+20
 35
-1.000000000000000E+20
146
0.0
 13
0.0
 23
0.0
 33
0.0
 16
1.0
 26
0.0
 36
0.0
 17
0.0
 27
1.0
 37
0.0
 76
     0
330
1B
  0
LAYOUT
  5
26
102
{ACAD_REACTORS
330
1A
102
}
330
1A
100
AcDbPlotSettings
  1

  2
none_device
  4

  6

 40
0.0
 41
0.0
 42
0.0
 43
0.0
 44
0.0
 45
0.0
 46
0.0
 47
0.0
 48
0.0
 49
0.0
140
0.0
141
0.0
142
1.0
143
1.0
 70
   688
 72
     0
 73
     0
 74
     5
  7

 75
    16
 76
     0
 77
     2
 78
   300
147
1.0
148
0.0
149
0.0
100
AcDbLayout
  1
Layout2
 70
     1
 71
     2
 10
0.0
 20
0.0
 11
0.0
 21
0.0
 12
0.0
 22
0.0
 32
0.0
 14
0.0
 24
0.0
 34
0.0
 15
0.0
 25
0.0
 35
0.0
146
0.0
 13
0.0
 23
0.0
 33
0.0
 16
1.0
 26
0.0
 36
0.0
 17
0.0
 27
1.0
 37
0.0
 76
     0
330
23
  0
LAYOUT
  5
22
102
{ACAD_REACTORS
330
1A
102
}
330
1A
100
AcDbPlotSettings
  1

  2
none_device
  4

  6

 40
0.0
 41
0.0
 42
0.0
 43
0.0
 44
0.0
 45
0.0
 46
0.0
 47
0.0
 48
0.0
 49
0.0
140
0.0
141
0.0
142
1.0
143
1.0
 70
  1712
 72
     0
 73
     0
 74
     0
  7

 75
     0
 76
     0
 77
     2
 78
   300
147
1.0
148
0.0
149
0.0
100
AcDbLayout
  1
Model
 70
     1
 71
     0
 10
0.0
 20
0.0
 11
12.0
 21
9.0
 12
0.0
 22
0.0
 32
0.0
 14
1.000000000000000E+20
 24
1.000000000000000E+20
 34
1.000000000000000E+20
 15
-1.000000000000000E+20
 25
-1.000000000000000E+20
 35
-1.000000000000000E+20
146
0.0
 13
0.0
 23
0.0
 33
0.0
 16
1.0
 26
0.0
 36
0.0
 17
0.0
 27
1.0
 37
0.0
 76
     0
330
1F
331
29
  0
MATERIAL
  5
3D
102
{ACAD_REACTORS
330
3B
102
}
330
3B
100
AcDbMaterial
  1
ByBlock
 72
     1
 94
      127
  0
MATERIAL
  5
3C
102
{ACAD_REACTORS
330
3B
102
}
330
3B
100
AcDbMaterial
  1
ByLayer
 72
     1
 94
      127
  0
MATERIAL
  5
3E
102
{ACAD_REACTORS
330
3B
102
}
330
3B
100
AcDbMaterial
  1
Global
 72
     1
 94
      127
  0
MLINESTYLE
  5
18
102
{ACAD_REACTORS
330
17
102
}
330
17
100
AcDbMlineStyle
  2
Standard
 70
     0
  3

 62
   256
 51
90.0
 52
90.0
 71
     2
 49
0.5
 62
   256
  6
BYLAYER
 49
-0.5
 62
   256
  6
BYLAYER
  0
ACDBPLACEHOLDER
  5
F
102
{ACAD_REACTORS
330
E
102
}
330
E
  0
VISUALSTYLE
  5
2F
102
{ACAD_REACTORS
330
2A
102
}
330
2A
100
AcDbVisualStyle
  2
2dWireframe
 70
     4
177
     2
291
     0
 71
     0
176
     1
 72
     2
176
     1
 73
     0
176
     1
 90
        0
176
     1
 40
-0.6
176
     1
 41
-30.0
176
     1
 62
     5
 63
     7
421
 16777215
176
     1
 74
     1
176
     1
 91
        4
176
     1
 64
     7
176
     1
 65
   257
176
     1
 75
     1
176
     1
175
     1
176
     1
 42
1.0
176
     1
 92
        0
176
     1
 66
   257
176
     1
 43
1.0
176
     1
 76
     1
176
     1
 77
     6
176
     1
 78
     2
176
     1
 67
     7
176
     1
 79
     5
176
     1
170
     0
176
     1
171
     0
176
     1
290
     0
176
     1
 93
        1
176
     1
 44
0.0
176
     1
173
     0
176
     1
  0
VISUALSTYLE
  5
31
102
{ACAD_REACTORS
330
2A
102
}
330
2A
100
AcDbVisualStyle
  2
3D Hidden
 70
     6
177
     2
291
     0
 71
     1
176
     1
 72
     2
176
     1
 73
     2
176
     1
 90
        0
176
     1
 40
-0.6
176
     1
 41
-30.0
176
     1
 62
     5
 63
     7
421
 16777215
176
     1
 74
     2
176
     1
 91
        2
176
     1
 64
     7
176
     1
 65
   257
176
     1
 75
     2
176
     1
175
     1
176
     1
 42
40.0
176
     1
 92
        0
176
     1
 66
   257
176
     1
 43
1.0
176
     1
 76
     1
176
     1
 77
     6
176
     1
 78
     2
176
     1
 67
     7
176
     1
 79
     3
176
     1
170
     0
176
     1
171
     0
176
     1
290
     0
176
     1
 93
        1
176
     1
 44
0.0
176
     1
173
     0
176
     1
  0
VISUALSTYLE
  5
30
102
{ACAD_REACTORS
330
2A
102
}
330
2A
100
AcDbVisualStyle
  2
3dWireframe
 70
     5
177
     2
291
     0
 71
     0
176
     1
 72
     2
176
     1
 73
     0
176
     1
 90
        0
176
     1
 40
-0.6
176
     1
 41
-30.0
176
     1
 62
     5
 63
     7
421
 16777215
176
     1
 74
     1
176
     1
 91
        4
176
     1
 64
     7
176
     1
 65
   257
176
     1
 75
     1
176
     1
175
     1
176
     1
 42
1.0
176
     1
 92
        0
176
     1
 66
   257
176
     1
 43
1.0
176
     1
 76
     1
176
     1
 77
     6
176
     1
 78
     2
176
     1
 67
     7
176
     1
 79
     5
176
     1
170
     0
176
     1
171
     0
176
     1
290
     0
176
     1
 93
        1
176
     1
 44
0.0
176
     1
173
     0
176
     1
  0
VISUALSTYLE
  5
32
102
{ACAD_REACTORS
330
2A
102
}
330
2A
100
AcDbVisualStyle
  2
Basic
 70
     7
177
     2
291
     1
 71
     1
176
     1
 72
     0
176
     1
 73
     1
176
     1
 90
        0
176
     1
 40
-0.6
176
     1
 41
-30.0
176
     1
 62
     5
 63
     7
421
 16777215
176
     1
 74
     0
176
     1
 91
        4
176
     1
 64
     7
176
     1
 65
   257
176
     1
 75
     1
176
     1
175
     1
176
     1
 42
1.0
176
     1
 92
        8
176
     1
 66
     7
176
     1
 43
1.0
176
     1
 76
     1
176
     1
 77
     6
176
     1
 78
     2
176
     1
 67
     7
176
     1
 79
     5
176
     1
170
     0
176
     1
171
     0
176
     1
290
     0
176
     1
 93
        1
176
     1
 44
0.0
176
     1
173
     0
176
     1
  0
VISUALSTYLE
  5
36
102
{ACAD_REACTORS
330
2A
102
}
330
2A
100
AcDbVisualStyle
  2
Brighten
 70
    12
177
     2
291
     1
 71
     2
176
     1
 72
     2
176
     1
 73
     0
176
     1
 90
        0
176
     1
 40
-0.6
176
     1
 41
-30.0
176
     1
 62
     5
 63
     7
421
 16777215
176
     1
 74
     1
176
     1
 91
        4
176
     1
 64
     7
176
     1
 65
   257
176
     1
 75
     1
176
     1
175
     1
176
     1
 42
1.0
176
     1
 92
        8
176
     1
 66
     7
176
     1
 43
1.0
176
     1
 76
     1
176
     1
 77
     6
176
     1
 78
     2
176
     1
 67
     7
176
     1
 79
     5
176
     1
170
     0
176
     1
171
     0
176
     1
290
     0
176
     1
 93
        1
176
     1
 44
50.0
176
     1
173
     0
176
     1
  0
VISUALSTYLE
  5
3A
102
{ACAD_REACTORS
330
2A
102
}
330
2A
100
AcDbVisualStyle
  2
ColorChange
 70
    16
177
     2
291
     1
 71
     2
176
     1
 72
     2
176
     1
 73
     3
176
     1
 90
        0
176
     1
 40
-0.6
176
     1
 41
-30.0
176
     1
 62
     5
 63
     8
421
  8421504
176
     1
 74
     1
176
     1
 91
        4
176
     1
 64
     7
176
     1
 65
   257
176
     1
 75
     1
176
     1
175
     1
176
     1
 42
1.0
176
     1
 92
        8
176
     1
 66
     8
424
  8421504
176
     1
 43
1.0
176
     1
 76
     1
176
     1
 77
     6
176
     1
 78
     2
176
     1
 67
     7
176
     1
 79
     5
176
     1
170
     0
176
     1
171
     0
176
     1
290
     0
176
     1
 93
        1
176
     1
 44
0.0
176
     1
173
     0
176
     1
  0
VISUALSTYLE
  5
34
102
{ACAD_REACTORS
330
2A
102
}
330
2A
100
AcDbVisualStyle
  2
Conceptual
 70
     9
177
     2
291
     0
 71
     3
176
     1
 72
     2
176
     1
 73
     0
176
     1
 90
        0
176
     1
 40
-0.6
176
     1
 41
-30.0
176
     1
 62
     5
 63
     7
421
 16777215
176
     1
 74
     2
176
     1
 91
        2
176
     1
 64
     7
176
     1
 65
   257
176
     1
 75
     1
176
     1
175
     1
176
     1
 42
40.0
176
     1
 92
        8
176
     1
 66
     7
176
     1
 43
1.0
176
     1
 76
     1
176
     1
 77
     6
176
     1
 78
     2
176
     1
 67
     7
176
     1
 79
     3
176
     1
170
     0
176
     1
171
     0
176
     1
290
     0
176
     1
 93
        1
176
     1
 44
0.0
176
     1
173
     0
176
     1
  0
VISUALSTYLE
  5
35
102
{ACAD_REACTORS
330
2A
102
}
330
2A
100
AcDbVisualStyle
  2
Dim
 70
    11
177
     2
291
     1
 71
     2
176
     1
 72
     2
176
     1
 73
     0
176
     1
 90
        0
176
     1
 40
-0.6
176
     1
 41
-30.0
176
     1
 62
     5
 63
     7
421
 16777215
176
     1
 74
     1
176
     1
 91
        4
176
     1
 64
     7
176
     1
 65
   257
176
     1
 75
     1
176
     1
175
     1
176
     1
 42
1.0
176
     1
 92
        8
176
     1
 66
     7
176
     1
 43
1.0
176
     1
 76
     1
176
     1
 77
     6
176
     1
 78
     2
176
     1
 67
     7
176
     1
 79
     5
176
     1
170
     0
176
     1
171
     0
176
     1
290
     0
176
     1
 93
        1
176
     1
 44
-50.0
176
     1
173
     0
176
     1
  0
VISUALSTYLE
  5
39
102
{ACAD_REACTORS
330
2A
102
}
330
2A
100
AcDbVisualStyle
  2
Facepattern
 70
    15
177
     2
291
     1
 71
     2
176
     1
 72
     2
176
     1
 73
     0
176
     1
 90
        0
176
     1
 40
-0.6
176
     1
 41
-30.0
176
     1
 62
     5
 63
     7
421
 16777215
176
     1
 74
     1
176
     1
 91
        4
176
     1
 64
     7
176
     1
 65
   257
176
     1
 75
     1
176
     1
175
     1
176
     1
 42
1.0
176
     1
 92
        8
176
     1
 66
     7
176
     1
 43
1.0
176
     1
 76
     1
176
     1
 77
     6
176
     1
 78
     2
176
     1
 67
     7
176
     1
 79
     5
176
     1
170
     0
176
     1
171
     0
176
     1
290
     0
176
     1
 93
        1
176
     1
 44
0.0
176
     1
173
     0
176
     1
  0
VISUALSTYLE
  5
2B
102
{ACAD_REACTORS
330
2A
102
}
330
2A
100
AcDbVisualStyle
  2
Flat
 70
     0
177
     2
291
     1
 71
     2
176
     1
 72
     1
176
     1
 73
     1
176
     1
 90
        2
176
     1
 40
-0.6
176
     1
 41
30.0
176
     1
 62
     5
 63
     7
421
 16777215
176
     1
 74
     0
176
     1
 91
        4
176
     1
 64
     7
176
     1
 65
   257
176
     1
 75
     1
176
     1
175
     1
176
     1
 42
1.0
176
     1
 92
        8
176
     1
 66
     7
176
     1
 43
1.0
176
     1
 76
     1
176
     1
 77
     6
176
     1
 78
     2
176
     1
 67
     7
176
     1
 79
     5
176
     1
170
     0
176
     1
171
     0
176
     1
290
     0
176
     1
 93
       13
176
     1
 44
0.0
176
     1
173
     0
176
     1
  0
VISUALSTYLE
  5
2C
102
{ACAD_REACTORS
330
2A
102
}
330
2A
100
AcDbVisualStyle
  2
FlatWithEdges
 70
     1
177
     2
291
     1
 71
     2
176
     1
 72
     1
176
     1
 73
     1
176
     1
 90
        2
176
     1
 40
-0.6
176
     1
 41
30.0
176
     1
 62
     5
 63
     7
421
 16777215
176
     1
 74
     1
176
     1
 91
        4
176
     1
 64
     7
176
     1
 65
   257
176
     1
 75
     1
176
     1
175
     1
176
     1
 42
1.0
176
     1
 92
        0
176
     1
 66
   257
176
     1
 43
1.0
176
     1
 76
     1
176
     1
 77
     6
176
     1
 78
     2
176
     1
 67
     7
176
     1
 79
     5
176
     1
170
     0
176
     1
171
     0
176
     1
290
     0
176
     1
 93
       13
176
     1
 44
0.0
176
     1
173
     0
176
     1
  0
VISUALSTYLE
  5
2D
102
{ACAD_REACTORS
330
2A
102
}
330
2A
100
AcDbVisualStyle
  2
Gouraud
 70
     2
177
     2
291
     1
 71
     2
176
     1
 72
     2
176
     1
 73
     1
176
     1
 90
        2
176
     1
 40
-0.6
176
     1
 41
30.0
176
     1
 62
     5
 63
     7
421
 16777215
176
     1
 74
     0
176
     1
 91
        4
176
     1
 64
     7
176
     1
 65
   257
176
     1
 75
     1
176
     1
175
     1
176
     1
 42
1.0
176
     1
 92
        0
176
     1
 66
     7
176
     1
 43
1.0
176
     1
 76
     1
176
     1
 77
     6
176
     1
 78
     2
176
     1
 67
     7
176
     1
 79
     5
176
     1
170
     0
176
     1
171
     0
176
     1
290
     0
176
     1
 93
       13
176
     1
 44
0.0
176
     1
173
     0
176
     1
  0
VISUALSTYLE
  5
2E
102
{ACAD_REACTORS
330
2A
102
}
330
2A
100
AcDbVisualStyle
  2
GouraudWithEdges
 70
     3
177
     2
291
     1
 71
     2
176
     1
 72
     2
176
     1
 73
     1
176
     1
 90
        2
176
     1
 40
-0.6
176
     1
 41
30.0
176
     1
 62
     5
 63
     7
421
 16777215
176
     1
 74
     1
176
     1
 91
        4
176
     1
 64
     7
176
     1
 65
   257
176
     1
 75
     1
176
     1
175
     1
176
     1
 42
1.0
176
     1
 92
        0
176
     1
 66
   257
176
     1
 43
1.0
176
     1
 76
     1
176
     1
 77
     6
176
     1
 78
     2
176
     1
 67
     7
176
     1
 79
     5
176
     1
170
     0
176
     1
171
     0
176
     1
290
     0
176
     1
 93
       13
176
     1
 44
0.0
176
     1
173
     0
176
     1
  0
VISUALSTYLE
  5
38
102
{ACAD_REACTORS
330
2A
102
}
330
2A
100
AcDbVisualStyle
  2
Linepattern
 70
    14
177
     2
291
     1
 71
     2
176
     1
 72
     2
176
     1
 73
     0
176
     1
 90
        0
176
     1
 40
-0.6
176
     1
 41
-30.0
176
     1
 62
     5
 63
     7
421
 16777215
176
     1
 74
     1
176
     1
 91
        4
176
     1
 64
     7
176
     1
 65
   257
176
     1
 75
     7
176
     1
175
     7
176
     1
 42
1.0
176
     1
 92
        8
176
     1
 66
     7
176
     1
 43
1.0
176
     1
 76
     1
176
     1
 77
     6
176
     1
 78
     2
176
     1
 67
     7
176
     1
 79
     5
176
     1
170
     0
176
     1
171
     0
176
     1
290
     0
176
     1
 93
        1
176
     1
 44
0.0
176
     1
173
     0
176
     1
  0
VISUALSTYLE
  5
33
102
{ACAD_REACTORS
330
2A
102
}
330
2A
100
AcDbVisualStyle
  2
Realistic
 70
     8
177
     2
291
     0
 71
     2
176
     1
 72
     2
176
     1
 73
     0
176
     1
 90
        0
176
     1
 40
-0.6
176
     1
 41
-30.0
176
     1
 62
     5
 63
     7
421
 16777215
176
     1
 74
     1
176
     1
 91
        0
176
     1
 64
     7
176
     1
 65
   257
176
     1
 75
     1
176
     1
175
     1
176
     1
 42
1.0
176
     1
 92
        8
176
     1
 66
     8
424
  7895160
176
     1
 43
1.0
176
     1
 76
     1
176
     1
 77
     6
176
     1
 78
     2
176
     1
 67
     7
176
     1
 79
     5
176
     1
170
     0
176
     1
171
     0
176
     1
290
     0
176
     1
 93
       13
176
     1
 44
0.0
176
     1
173
     0
176
     1
  0
VISUALSTYLE
  5
37
102
{ACAD_REACTORS
330
2A
102
}
330
2A
100
AcDbVisualStyle
  2
Thicken
 70
    13
177
     2
291
     1
 71
     2
176
     1
 72
     2
176
     1
 73
     0
176
     1
 90
        0
176
     1
 40
-0.6
176
     1
 41
-30.0
176
     1
 62
     5
 63
     7
421
 16777215
176
     1
 74
     1
176
     1
 91
        4
176
     1
 64
     7
176
     1
 65
   257
176
     1
 75
     1
176
     1
175
     1
176
     1
 42
1.0
176
     1
 92
       12
176
     1
 66
     7
176
     1
 43
1.0
176
     1
 76
     1
176
     1
 77
     6
176
     1
 78
     2
176
     1
 67
     7
176
     1
 79
     5
176
     1
170
     0
176
     1
171
     0
176
     1
290
     0
176
     1
 93
        1
176
     1
 44
0.0
176
     1
173
     0
176
     1
  0
ENDSEC
  0
EOF
