  0
SECTION
  2
HEADER
  9
$ACADVER
  1
AC1024
  9
$ACADMAINTVER
 70
     6
  9
$DWGCODEPAGE
  3
UNDEFINED
  9
$INSBASE
 10
0.0
 20
0.0
 30
0.0
  9
$EXTMIN
 10
1.000000000000000E+20
 20
1.000000000000000E+20
 30
1.000000000000000E+20
  9
$EXTMAX
 10
-1.000000000000000E+20
 20
-1.000000000000000E+20
 30
-1.000000000000000E+20
  9
$LIMMIN
 10
0.0
 20
0.0
  9
$LIMMAX
 10
12.0
 20
9.0
  9
$ORTHOMODE
 70
     0
  9
$REGENMODE
 70
     1
  9
$FILLMODE
 70
     1
  9
$QTEXTMODE
 70
     0
  9
$MIRRTEXT
 70
     1
  9
$LTSCALE
 40
1.0
  9
$ATTMODE
 70
     1
  9
$TEXTSIZE
 40
0.2
  9
$TRACEWID
 40
0.05
  9
$TEXTSTYLE
  7
Standard
  9
$CLAYER
  8
0
  9
$CELTYPE
  6
ByLayer
  9
$CECOLOR
 62
   256
  9
$CELTSCALE
 40
1.0
  9
$DISPSILH
 70
     0
  9
$DIMSCALE
 40
1.0
  9
$DIMASZ
 40
0.18
  9
$DIMEXO
 40
0.0625
  9
$DIMDLI
 40
0.38
  9
$DIMRND
 40
0.0
  9
$DIMDLE
 40
0.0
  9
$DIMEXE
 40
0.18
  9
$DIMTP
 40
0.0
  9
$DIMTM
 40
0.0
  9
$DIMTXT
 40
0.18
  9
$DIMCEN
 40
0.09
  9
$DIMTSZ
 40
0.0
  9
$DIMTOL
 70
     0
  9
$DIMLIM
 70
     0
  9
$DIMTIH
 70
     1
  9
$DIMTOH
 70
     1
  9
$DIMSE1
 70
     0
  9
$DIMSE2
 70
     0
  9
$DIMTAD
 70
     0
  9
$DIMZIN
 70
     0
  9
$DIMBLK
  1

  9
$DIMASO
 70
     1
  9
$DIMSHO
 70
     1
  9
$DIMPOST
  1

  9
$DIMAPOST
  1

  9
$DIMALT
 70
     0
  9
$DIMALTD
 70
     2
  9
$DIMALTF
 40
25.4
  9
$DIMLFAC
 40
1.0
  9
$DIMTOFL
 70
     0
  9
$DIMTVP
 40
0.0
  9
$DIMTIX
 70
     0
  9
$DIMSOXD
 70
     0
  9
$DIMSAH
 70
     0
  9
$DIMBLK1
  1

  9
$DIMBLK2
  1

  9
$DIMSTYLE
  2
Standard
  9
$DIMCLRD
 70
     0
  9
$DIMCLRE
 70
     0
  9
$DIMCLRT
 70
     0
  9
$DIMTFAC
 40
1.0
  9
$DIMGAP
 40
0.09
  9
$DIMJUST
 70
     0
  9
$DIMSD1
 70
     0
  9
$DIMSD2
 70
     0
  9
$DIMTOLJ
 70
     1
  9
$DIMTZIN
 70
     0
  9
$DIMALTZ
 70
     0
  9
$DIMALTTZ
 70
     0
  9
$DIMUPT
 70
     0
  9
$DIMDEC
 70
     4
  9
$DIMTDEC
 70
     4
  9
$DIMALTU
 70
     2
  9
$DIMALTTD
 70
     2
  9
$DIMTXSTY
  7
Standard
  9
$DIMAUNIT
 70
     0
  9
$DIMADEC
 70
     0
  9
$DIMALTRND
 40
0.0
  9
$DIMAZIN
 70
     0
  9
$DIMDSEP
 70
    46
  9
$DIMATFIT
 70
     3
  9
$DIMFRAC
 70
     0
  9
$DIMLDRBLK
  1

  9
$DIMLUNIT
 70
     2
  9
$DIMLWD
 70
    -2
  9
$DIMLWE
 70
    -2
  9
$DIMTMOVE
 70
     0
  9
$DIMFXL
 40
1.0
  9
$DIMFXLON
 70
     0
  9
$DIMJOGANG
 40
0.7853981633974483
  9
$DIMTFILL
 70
     0
  9
$DIMTFILLCLR
 70
     0
  9
$DIMARCSYM
 70
     0
  9
$DIMLTYPE
  6

  9
$DIMLTEX1
  6

  9
$DIMLTEX2
  6

  9
$DIMTXTDIRECTION
 70
     0
  9
$LUNITS
 70
     2
  9
$LUPREC
 70
     4
  9
$SKETCHINC
 40
0.1
  9
$FILLETRAD
 40
0.5
  9
$AUNITS
 70
     0
  9
$AUPREC
 70
     0
  9
$MENU
  1
.
  9
$ELEVATION
 40
0.0
  9
$PELEVATION
 40
0.0
  9
$THICKNESS
 40
0.0
  9
$LIMCHECK
 70
     0
  9
$CHAMFERA
 40
0.5
  9
$CHAMFERB
 40
0.5
  9
$CHAMFERC
 40
1.0
  9
$CHAMFERD
 40
0.0
  9
$SKPOLY
 70
     0
  9
$TDCREATE
 40
2457917.612071748
  9
$TDUCREATE
 40
2457917.237071759
  9
$TDUPDATE
 40
2457917.612071748
  9
$TDUUPDATE
 40
2457917.237071759
  9
$TDINDWG
 40
0.0000000116
  9
$TDUSRTIMER
 40
0.0000000116
  9
$USRTIMER
 70
     1
  9
$ANGBASE
 50
0.0
  9
$ANGDIR
 70
     0
  9
$PDMODE
 70
     0
  9
$PDSIZE
 40
0.0
  9
$PLINEWID
 40
0.0
  9
$SPLFRAME
 70
     0
  9
$SPLINETYPE
 70
     6
  9
$SPLINESEGS
 70
     8
  9
$HANDSEED
  5
14D
  9
$SURFTAB1
 70
     6
  9
$SURFTAB2
 70
     6
  9
$SURFTYPE
 70
     6
  9
$SURFU
 70
     6
  9
$SURFV
 70
     6
  9
$UCSBASE
  2

  9
$UCSNAME
  2

  9
$UCSORG
 10
0.0
 20
0.0
 30
0.0
  9
$UCSXDIR
 10
1.0
 20
0.0
 30
0.0
  9
$UCSYDIR
 10
0.0
 20
1.0
 30
0.0
  9
$UCSORTHOREF
  2

  9
$UCSORTHOVIEW
 70
     0
  9
$UCSORGTOP
 10
0.0
 20
0.0
 30
0.0
  9
$UCSORGBOTTOM
 10
0.0
 20
0.0
 30
0.0
  9
$UCSORGLEFT
 10
0.0
 20
0.0
 30
0.0
  9
$UCSORGRIGHT
 10
0.0
 20
0.0
 30
0.0
  9
$UCSORGFRONT
 10
0.0
 20
0.0
 30
0.0
  9
$UCSORGBACK
 10
0.0
 20
0.0
 30
0.0
  9
$PUCSBASE
  2

  9
$PUCSNAME
  2

  9
$PUCSORG
 10
0.0
 20
0.0
 30
0.0
  9
$PUCSXDIR
 10
1.0
 20
0.0
 30
0.0
  9
$PUCSYDIR
 10
0.0
 20
1.0
 30
0.0
  9
$PUCSORTHOREF
  2

  9
$PUCSORTHOVIEW
 70
     0
  9
$PUCSORGTOP
 10
0.0
 20
0.0
 30
0.0
  9
$PUCSORGBOTTOM
 10
0.0
 20
0.0
 30
0.0
  9
$PUCSORGLEFT
 10
0.0
 20
0.0
 30
0.0
  9
$PUCSORGRIGHT
 10
0.0
 20
0.0
 30
0.0
  9
$PUCSORGFRONT
 10
0.0
 20
0.0
 30
0.0
  9
$PUCSORGBACK
 10
0.0
 20
0.0
 30
0.0
  9
$USERI1
 70
     0
  9
$USERI2
 70
     0
  9
$USERI3
 70
     0
  9
$USERI4
 70
     0
  9
$USERI5
 70
     0
  9
$USERR1
 40
0.0
  9
$USERR2
 40
0.0
  9
$USERR3
 40
0.0
  9
$USERR4
 40
0.0
  9
$USERR5
 40
0.0
  9
$WORLDVIEW
 70
     1
  9
$SHADEDGE
 70
     3
  9
$SHADEDIF
 70
    70
  9
$TILEMODE
 70
     1
  9
$MAXACTVP
 70
    64
  9
$PINSBASE
 10
0.0
 20
0.0
 30
0.0
  9
$PLIMCHECK
 70
     0
  9
$PEXTMIN
 10
1.000000000000000E+20
 20
1.000000000000000E+20
 30
1.000000000000000E+20
  9
$PEXTMAX
 10
-1.000000000000000E+20
 20
-1.000000000000000E+20
 30
-1.000000000000000E+20
  9
$PLIMMIN
 10
0.0
 20
0.0
  9
$PLIMMAX
 10
12.0
 20
9.0
  9
$UNITMODE
 70
     0
  9
$VISRETAIN
 70
     1
  9
$PLINEGEN
 70
     0
  9
$PSLTSCALE
 70
     1
  9
$TREEDEPTH
 70
  3020
  9
$CMLSTYLE
  2
Standard
  9
$CMLJUST
 70
     0
  9
$CMLSCALE
 40
1.0
  9
$PROXYGRAPHICS
 70
     1
  9
$MEASUREMENT
 70
     0
  9
$CELWEIGHT
370
    -1
  9
$ENDCAPS
280
     0
  9
$JOINSTYLE
280
     0
  9
$LWDISPLAY
290
     1
  9
$INSUNITS
 70
     1
  9
$HYPERLINKBASE
  1

  9
$STYLESHEET
  1

  9
$XEDIT
290
     1
  9
$CEPSNTYPE
380
     0
  9
$PSTYLEMODE
290
     1
  9
$FINGERPRINTGUID
  2
{15527844-FD79-BC10-2C32-99B884348ADF}
  9
$VERSIONGUID
  2
{FAEB1C32-E019-11D5-929B-00C0DF256EC4}
  9
$EXTNAMES
290
     1
  9
$PSVPSCALE
 40
0.0
  9
$OLESTARTUP
290
     0
  9
$SORTENTS
280
   127
  9
$INDEXCTL
280
     0
  9
$HIDETEXT
280
     1
  9
$XCLIPFRAME
280
     2
  9
$HALOGAP
280
     0
  9
$OBSCOLOR
 70
   257
  9
$OBSLTYPE
280
     0
  9
$INTERSECTIONDISPLAY
280
     0
  9
$INTERSECTIONCOLOR
 70
   257
  9
$DIMASSOC
280
     2
  9
$PROJECTNAME
  1

  9
$CAMERADISPLAY
290
     0
  9
$LENSLENGTH
 40
50.0
  9
$CAMERAHEIGHT
 40
0.0
  9
$STEPSPERSEC
 40
2.0
  9
$STEPSIZE
 40
6.0
  9
$3DDWFPREC
 40
2.0
  9
$PSOLWIDTH
 40
0.25
  9
$PSOLHEIGHT
 40
4.0
  9
$LOFTANG1
 40
1.570796326794897
  9
$LOFTANG2
 40
1.570796326794897
  9
$LOFTMAG1
 40
0.0
  9
$LOFTMAG2
 40
0.0
  9
$LOFTPARAM
 70
     7
  9
$LOFTNORMALS
280
     1
  9
$LATITUDE
 40
37.795
  9
$LONGITUDE
 40
-122.394
  9
$NORTHDIRECTION
 40
0.0
  9
$TIMEZONE
 70
 -8000
  9
$LIGHTGLYPHDISPLAY
280
     1
  9
$TILEMODELIGHTSYNCH
280
     1
  9
$CMATERIAL
347
3C
  9
$SOLIDHIST
280
     1
  9
$SHOWHIST
280
     1
  9
$DWFFRAME
280
     2
  9
$DGNFRAME
280
     2
  9
$REALWORLDSCALE
290
     1
  9
$INTERFERECOLOR
 62
   256
  9
$CSHADOW
280
     0
  9
$SHADOWPLANELOCATION
 40
0.0
  0
ENDSEC
  0
SECTION
  2
CLASSES
  0
CLASS
  1
ACDBDICTIONARYWDFLT
  2
AcDbDictionaryWithDefault
  3
ObjectDBX Classes
 90
        0
 91
        4
280
     0
281
     0
  0
CLASS
  1
VISUALSTYLE
  2
AcDbVisualStyle
  3
ObjectDBX Classes
 90
     4095
 91
        4
280
     0
281
     0
  0
CLASS
  1
MATERIAL
  2
AcDbMaterial
  3
ObjectDBX Classes
 90
     1153
 91
        4
280
     0
281
     0
  0
CLASS
  1
SUN
  2
AcDbSun
  3
SCENEOE
 90
     1024
 91
        4
280
     0
281
     0
  0
ENDSEC
  0
SECTION
  2
TABLES
  0
TABLE
  2
VPORT
  5
8
330
0
100
AcDbSymbolTable
 70
     1
  0
VPORT
  5
29
330
8
100
AcDbSymbolTableRecord
100
AcDbViewportTableRecord
  2
*Active
 70
     0
 10
0.0
 20
0.0
 11
1.0
 21
1.0
 12
0.0
 22
0.0
 13
0.0
 23
0.0
 14
0.5
 24
0.5
 15
0.5
 25
0.5
 16
0.0
 26
0.0
 36
1.0
 17
91.00082462281999
 27
-128.4993055234307
 37
0.0
 40
256.9986110468615
 41
0.7081814508812795
 42
50.0
 43
0.0
 44
0.0
 50
0.0
 51
0.0
 71
     0
 72
   100
 73
     1
 74
     3
 75
     0
 76
     0
 77
     0
 78
     0
281
     0
 65
     1
110
0.0
120
0.0
130
0.0
111
1.0
121
0.0
131
0.0
112
0.0
122
1.0
132
0.0
 79
     0
146
0.0
 60
     3
 61
     5
292
     1
282
     1
141
0.0
142
0.0
 63
   250
361
3F
  0
ENDTAB
  0
TABLE
  2
LTYPE
  5
5
330
0
100
AcDbSymbolTable
 70
     1
  0
LTYPE
  5
14
330
5
100
AcDbSymbolTableRecord
100
AcDbLinetypeTableRecord
  2
ByBlock
 70
     0
  3

 72
    65
 73
     0
 40
0.0
  0
LTYPE
  5
15
330
5
100
AcDbSymbolTableRecord
100
AcDbLinetypeTableRecord
  2
ByLayer
 70
     0
  3

 72
    65
 73
     0
 40
0.0
  0
LTYPE
  5
16
330
5
100
AcDbSymbolTableRecord
100
AcDbLinetypeTableRecord
  2
Continuous
 70
     0
  3
Solid line
 72
    65
 73
     0
 40
0.0
  0
ENDTAB
  0
TABLE
  2
LAYER
  5
2
330
0
100
AcDbSymbolTable
 70
     2
  0
LAYER
  5
10
330
2
100
AcDbSymbolTableRecord
100
AcDbLayerTableRecord
  2
0
 70
     0
 62
     7
  6
Continuous
370
    -3
390
F
347
3E
  0
LAYER
  5
40
330
2
100
AcDbSymbolTableRecord
100
AcDbLayerTableRecord
  2
_U+30EC_U+30A4_U+30E4_U+30FC 1
 70
     0
 62
     7
  6
Continuous
370
    -3
390
F
347
3E
  0
ENDTAB
  0
TABLE
  2
STYLE
  5
3
330
0
100
AcDbSymbolTable
 70
     1
  0
STYLE
  5
11
330
3
100
AcDbSymbolTableRecord
100
AcDbTextStyleTableRecord
  2
Standard
 70
     0
 40
0.0
 41
1.0
 50
0.0
 71
     0
 42
0.2
  3
txt
  4

  0
ENDTAB
  0
TABLE
  2
VIEW
  5
6
330
0
100
AcDbSymbolTable
 70
     0
  0
ENDTAB
  0
TABLE
  2
UCS
  5
7
330
0
100
AcDbSymbolTable
 70
     0
  0
ENDTAB
  0
TABLE
  2
APPID
  5
9
330
0
100
AcDbSymbolTable
 70
     1
  0
APPID
  5
12
330
9
100
AcDbSymbolTableRecord
100
AcDbRegAppTableRecord
  2
ACAD
 70
     0
  0
ENDTAB
  0
TABLE
  2
DIMSTYLE
  5
A
330
0
100
AcDbSymbolTable
 70
     1
100
AcDbDimStyleTable
  0
DIMSTYLE
105
27
330
A
100
AcDbSymbolTableRecord
100
AcDbDimStyleTableRecord
  2
Standard
 70
     0
178
     0
340
11
  0
ENDTAB
  0
TABLE
  2
BLOCK_RECORD
  5
1
330
0
100
AcDbSymbolTable
 70
     9
  0
BLOCK_RECORD
  5
1F
330
1
100
AcDbSymbolTableRecord
100
AcDbBlockTableRecord
  2
*Model_Space
340
22
 70
     0
280
     1
281
     0
  0
BLOCK_RECORD
  5
1B
330
1
100
AcDbSymbolTableRecord
100
AcDbBlockTableRecord
  2
*Paper_Space
340
1E
 70
     0
280
     1
281
     0
  0
BLOCK_RECORD
  5
23
330
1
100
AcDbSymbolTableRecord
100
AcDbBlockTableRecord
  2
*Paper_Space0
340
26
 70
     0
280
     1
281
     0
  0
BLOCK_RECORD
  5
F6
330
1
100
AcDbSymbolTableRecord
100
AcDbBlockTableRecord
  2
block 2
340
0
102
{BLKREFS
331
F7
102
}
 70
     0
280
     1
281
     0
  0
BLOCK_RECORD
  5
106
330
1
100
AcDbSymbolTableRecord
100
AcDbBlockTableRecord
  2
block 3
340
0
102
{BLKREFS
331
107
102
}
 70
     0
280
     1
281
     0
  0
BLOCK_RECORD
  5
10F
330
1
100
AcDbSymbolTableRecord
100
AcDbBlockTableRecord
  2
block 4
340
0
102
{BLKREFS
331
110
102
}
 70
     0
280
     1
281
     0
  0
BLOCK_RECORD
  5
11F
330
1
100
AcDbSymbolTableRecord
100
AcDbBlockTableRecord
  2
block 5
340
0
102
{BLKREFS
331
120
102
}
 70
     0
280
     1
281
     0
  0
BLOCK_RECORD
  5
125
330
1
100
AcDbSymbolTableRecord
100
AcDbBlockTableRecord
  2
block 6
340
0
102
{BLKREFS
331
126
102
}
 70
     0
280
     1
281
     0
  0
BLOCK_RECORD
  5
12D
330
1
100
AcDbSymbolTableRecord
100
AcDbBlockTableRecord
  2
block 7
340
0
102
{BLKREFS
331
12E
102
}
 70
     0
280
     1
281
     0
  0
BLOCK_RECORD
  5
133
330
1
100
AcDbSymbolTableRecord
100
AcDbBlockTableRecord
  2
block 8
340
0
102
{BLKREFS
331
134
102
}
 70
     0
280
     1
281
     0
  0
BLOCK_RECORD
  5
143
330
1
100
AcDbSymbolTableRecord
100
AcDbBlockTableRecord
  2
block 9
340
0
102
{BLKREFS
331
144
102
}
 70
     0
280
     1
281
     0
  0
ENDTAB
  0
ENDSEC
  0
SECTION
  2
BLOCKS
  0
BLOCK
  5
20
330
1F
100
AcDbEntity
  8
0
100
AcDbBlockBegin
  2
*Model_Space
 70
     0
 10
0.0
 20
0.0
 30
0.0
  3
*Model_Space
  1

  0
ENDBLK
  5
21
330
1F
100
AcDbEntity
  8
0
100
AcDbBlockEnd
  0
BLOCK
  5
1C
330
1B
100
AcDbEntity
 67
     1
  8
0
100
AcDbBlockBegin
  2
*Paper_Space
 70
     0
 10
0.0
 20
0.0
 30
0.0
  3
*Paper_Space
  1

  0
ENDBLK
  5
1D
330
1B
100
AcDbEntity
 67
     1
  8
0
100
AcDbBlockEnd
  0
BLOCK
  5
24
330
23
100
AcDbEntity
  8
0
100
AcDbBlockBegin
  2
*Paper_Space0
 70
     0
 10
0.0
 20
0.0
 30
0.0
  3
*Paper_Space0
  1

  0
ENDBLK
  5
25
330
23
100
AcDbEntity
  8
0
100
AcDbBlockEnd
  0
BLOCK
  5
F8
330
F6
100
AcDbEntity
  8
0
100
AcDbBlockBegin
  2
block 2
 70
     0
 10
0.0
 20
0.0
 30
0.0
  3
block 2
  1

  0
SPLINE
  5
FA
330
F6
100
AcDbEntity
  8
_U+30EC_U+30A4_U+30E4_U+30FC 1
370
     0
100
AcDbSpline
210
0.0
220
0.0
230
1.0
 70
    11
 71
     3
 72
    26
 73
    22
 74
     0
 42
0.0000000001
 43
0.0000000001
 12
1.0
 22
0.0
 32
0.0
 13
1.0
 23
0.0
 33
0.0
 40
0.0
 40
0.0
 40
0.0
 40
0.0
 40
1.0
 40
1.0
 40
1.0
 40
2.0
 40
2.0
 40
2.0
 40
3.0
 40
3.0
 40
3.0
 40
4.0
 40
4.0
 40
4.0
 40
5.0
 40
5.0
 40
5.0
 40
6.0
 40
6.0
 40
6.0
 40
7.0
 40
7.0
 40
7.0
 40
7.0
 10
93.7772216562432
 20
-95.59244246742134
 30
0.0
 10
93.7772216562432
 20
-95.59244246742134
 30
0.0
 10
93.7772216562432
 20
-94.4881171096245
 30
0.0
 10
93.7772216562432
 20
-94.4881171096245
 30
0.0
 10
93.7772216562432
 20
-94.4881171096245
 30
0.0
 10
93.44718150875626
 20
-94.4881171096245
 30
0.0
 10
93.44718150875626
 20
-94.4881171096245
 30
0.0
 10
93.44718150875626
 20
-94.4881171096245
 30
0.0
 10
93.44718150875626
 20
-94.34015025853303
 30
0.0
 10
93.44718150875626
 20
-94.34015025853303
 30
0.0
 10
93.77928871353434
 20
-94.32533634794645
 30
0.0
 10
93.82579750258522
 20
-94.16238333149413
 30
0.0
 10
93.85542532375837
 20
-94.0481784161581
 30
0.0
 10
93.85542532375837
 20
-94.0481784161581
 30
0.0
 10
94.00149737233296
 20
-94.0481784161581
 30
0.0
 10
94.00149737233296
 20
-94.0481784161581
 30
0.0
 10
94.00149737233296
 20
-94.0481784161581
 30
0.0
 10
94.00149737233296
 20
-95.59244246742134
 30
0.0
 10
94.00149737233296
 20
-95.59244246742134
 30
0.0
 10
94.00149737233296
 20
-95.59244246742134
 30
0.0
 10
93.7772216562432
 20
-95.59244246742134
 30
0.0
 10
93.7772216562432
 20
-95.59244246742134
 30
0.0
  0
HATCH
  5
FB
330
F6
100
AcDbEntity
  8
_U+30EC_U+30A4_U+30E4_U+30FC 1
 62
   179
420
  2234388
100
AcDbHatch
 10
0.0
 20
0.0
 30
0.0
210
0.0
220
0.0
230
1.0
  2
SOLID
 70
     1
 71
     0
 91
        1
 92
        1
 93
        1
 72
     4
 94
        3
 73
     0
 74
     1
 95
       26
 96
       22
 40
0.0
 40
0.0
 40
0.0
 40
0.0
 40
1.0
 40
1.0
 40
1.0
 40
2.0
 40
2.0
 40
2.0
 40
3.0
 40
3.0
 40
3.0
 40
4.0
 40
4.0
 40
4.0
 40
5.0
 40
5.0
 40
5.0
 40
6.0
 40
6.0
 40
6.0
 40
7.0
 40
7.0
 40
7.0
 40
7.0
 10
93.7772216562432
 20
-95.59244246742134
 10
93.7772216562432
 20
-95.59244246742134
 10
93.7772216562432
 20
-94.4881171096245
 10
93.7772216562432
 20
-94.4881171096245
 10
93.7772216562432
 20
-94.4881171096245
 10
93.44718150875626
 20
-94.4881171096245
 10
93.44718150875626
 20
-94.4881171096245
 10
93.44718150875626
 20
-94.4881171096245
 10
93.44718150875626
 20
-94.34015025853303
 10
93.44718150875626
 20
-94.34015025853303
 10
93.77928871353434
 20
-94.32533634794645
 10
93.82579750258522
 20
-94.16238333149413
 10
93.85542532375837
 20
-94.0481784161581
 10
93.85542532375837
 20
-94.0481784161581
 10
94.00149737233296
 20
-94.0481784161581
 10
94.00149737233296
 20
-94.0481784161581
 10
94.00149737233296
 20
-94.0481784161581
 10
94.00149737233296
 20
-95.59244246742134
 10
94.00149737233296
 20
-95.59244246742134
 10
94.00149737233296
 20
-95.59244246742134
 10
93.7772216562432
 20
-95.59244246742134
 10
93.7772216562432
 20
-95.59244246742134
 97
        0
 97
        0
 75
     2
 76
     1
 98
        0
  0
POLYLINE
  5
FC
330
F6
100
AcDbEntity
  8
_U+30EC_U+30A4_U+30E4_U+30FC 1
370
     0
100
AcDb2dPolyline
 66
     1
 10
0.0
 20
0.0
 30
0.0
  0
VERTEX
  5
FD
330
FC
100
AcDbEntity
  8
_U+30EC_U+30A4_U+30E4_U+30FC 1
370
     0
100
AcDbVertex
100
AcDb2dVertex
 10
94.56270342688016
 20
-95.59244246742134
 30
0.0
  0
VERTEX
  5
FE
330
FC
100
AcDbEntity
  8
_U+30EC_U+30A4_U+30E4_U+30FC 1
370
     0
100
AcDbVertex
100
AcDb2dVertex
 10
94.56270342688016
 20
-95.34077824222383
 30
0.0
  0
VERTEX
  5
FF
330
FC
100
AcDbEntity
  8
_U+30EC_U+30A4_U+30E4_U+30FC 1
370
     0
100
AcDbVertex
100
AcDb2dVertex
 10
94.8141953973034
 20
-95.34077824222383
 30
0.0
  0
VERTEX
  5
100
330
FC
100
AcDbEntity
  8
_U+30EC_U+30A4_U+30E4_U+30FC 1
370
     0
100
AcDbVertex
100
AcDb2dVertex
 10
94.8141953973034
 20
-95.59244246742134
 30
0.0
  0
VERTEX
  5
101
330
FC
100
AcDbEntity
  8
_U+30EC_U+30A4_U+30E4_U+30FC 1
370
     0
100
AcDbVertex
100
AcDb2dVertex
 10
94.56270342688016
 20
-95.59244246742134
 30
0.0
  0
SEQEND
  5
102
330
FC
100
AcDbEntity
  8
_U+30EC_U+30A4_U+30E4_U+30FC 1
370
     0
  0
HATCH
  5
103
330
F6
100
AcDbEntity
  8
_U+30EC_U+30A4_U+30E4_U+30FC 1
 62
   179
420
  2234388
100
AcDbHatch
 10
0.0
 20
0.0
 30
0.0
210
0.0
220
0.0
230
1.0
  2
SOLID
 70
     1
 71
     0
 91
        1
 92
        1
 93
        4
 72
     1
 10
94.56270342688016
 20
-95.59244246742134
 11
94.56270342688016
 21
-95.34077824222383
 72
     1
 10
94.56270342688016
 20
-95.34077824222383
 11
94.8141953973034
 21
-95.34077824222383
 72
     1
 10
94.8141953973034
 20
-95.34077824222383
 11
94.8141953973034
 21
-95.59244246742134
 72
     1
 10
94.8141953973034
 20
-95.59244246742134
 11
94.56270342688016
 21
-95.59244246742134
 97
        0
 75
     2
 76
     1
 98
        0
  0
SPLINE
  5
104
330
F6
100
AcDbEntity
  8
_U+30EC_U+30A4_U+30E4_U+30FC 1
370
     0
100
AcDbSpline
210
0.0
220
0.0
230
1.0
 70
    11
 71
     3
 72
    44
 73
    40
 74
     0
 42
0.0000000001
 43
0.0000000001
 12
1.0
 22
0.0
 32
0.0
 13
1.0
 23
0.0
 33
0.0
 40
0.0
 40
0.0
 40
0.0
 40
0.0
 40
1.0
 40
1.0
 40
1.0
 40
2.0
 40
2.0
 40
2.0
 40
3.0
 40
3.0
 40
3.0
 40
4.0
 40
4.0
 40
4.0
 40
5.0
 40
5.0
 40
5.0
 40
6.0
 40
6.0
 40
6.0
 40
7.0
 40
7.0
 40
7.0
 40
8.0
 40
8.0
 40
8.0
 40
9.0
 40
9.0
 40
9.0
 40
10.0
 40
10.0
 40
10.0
 40
11.0
 40
11.0
 40
11.0
 40
12.0
 40
12.0
 40
12.0
 40
13.0
 40
13.0
 40
13.0
 40
13.0
 10
95.64377439015156
 20
-95.01073809473691
 30
0.0
 10
95.42604435548377
 20
-95.16938474183266
 30
0.0
 10
95.3326822678335
 20
-95.24345429476553
 30
0.0
 10
95.28410642149147
 20
-95.38728703127471
 30
0.0
 10
95.28410642149147
 20
-95.38728703127471
 30
0.0
 10
96.06269800115794
 20
-95.38728703127471
 30
0.0
 10
96.06269800115794
 20
-95.38728703127471
 30
0.0
 10
96.06269800115794
 20
-95.38728703127471
 30
0.0
 10
96.06269800115794
 20
-95.59244246742134
 30
0.0
 10
96.06269800115794
 20
-95.59244246742134
 30
0.0
 10
96.06269800115794
 20
-95.59244246742134
 30
0.0
 10
95.03468150835938
 20
-95.59244246742134
 30
0.0
 10
95.03468150835938
 20
-95.59244246742134
 30
0.0
 10
95.06637638682369
 20
-95.2348415560524
 30
0.0
 10
95.13183320104343
 20
-95.15663788853723
 30
0.0
 10
95.51699487629436
 20
-94.8582926195146
 30
0.0
 10
95.77296547084843
 20
-94.65951061001569
 30
0.0
 10
95.83842228506818
 20
-94.59181448373052
 30
0.0
 10
95.83842228506818
 20
-94.45435517386906
 30
0.0
 10
95.83842228506818
 20
-94.33584388917646
 30
0.0
 10
95.76641978942645
 20
-94.2047580059627
 30
0.0
 10
95.5697048372187
 20
-94.2047580059627
 30
0.0
 10
95.30960012808232
 20
-94.2047580059627
 30
0.0
 10
95.3009873893692
 20
-94.43523489392592
 30
0.0
 10
95.2968532747869
 20
-94.55167912132737
 30
0.0
 10
95.2968532747869
 20
-94.55167912132737
 30
0.0
 10
95.07257755869713
 20
-94.55167912132737
 30
0.0
 10
95.07257755869713
 20
-94.55167912132737
 30
0.0
 10
95.08119029741026
 20
-94.42472735269591
 30
0.0
 10
95.09152558386602
 20
-94.31258949465102
 30
0.0
 10
95.17214081822085
 20
-94.19407820995843
 30
0.0
 10
95.28203936420033
 20
-94.03336450557153
 30
0.0
 10
95.46807452040382
 20
-93.99943031504182
 30
0.0
 10
95.58451874780526
 20
-93.99943031504182
 30
0.0
 10
95.86184893436787
 20
-93.99943031504182
 30
0.0
 10
96.0688991730314
 20
-94.18357066872842
 30
0.0
 10
96.0688991730314
 20
-94.4564222311602
 30
0.0
 10
96.0688991730314
 20
-94.68483206183227
 30
0.0
 10
95.95279945517846
 20
-94.78439532135599
 30
0.0
 10
95.64377439015156
 20
-95.01073809473691
 30
0.0
  0
HATCH
  5
105
330
F6
100
AcDbEntity
  8
_U+30EC_U+30A4_U+30E4_U+30FC 1
 62
   179
420
  2234388
100
AcDbHatch
 10
0.0
 20
0.0
 30
0.0
210
0.0
220
0.0
230
1.0
  2
SOLID
 70
     1
 71
     0
 91
        1
 92
        1
 93
        1
 72
     4
 94
        3
 73
     0
 74
     1
 95
       44
 96
       40
 40
0.0
 40
0.0
 40
0.0
 40
0.0
 40
1.0
 40
1.0
 40
1.0
 40
2.0
 40
2.0
 40
2.0
 40
3.0
 40
3.0
 40
3.0
 40
4.0
 40
4.0
 40
4.0
 40
5.0
 40
5.0
 40
5.0
 40
6.0
 40
6.0
 40
6.0
 40
7.0
 40
7.0
 40
7.0
 40
8.0
 40
8.0
 40
8.0
 40
9.0
 40
9.0
 40
9.0
 40
10.0
 40
10.0
 40
10.0
 40
11.0
 40
11.0
 40
11.0
 40
12.0
 40
12.0
 40
12.0
 40
13.0
 40
13.0
 40
13.0
 40
13.0
 10
95.64377439015156
 20
-95.01073809473691
 10
95.42604435548377
 20
-95.16938474183266
 10
95.3326822678335
 20
-95.24345429476553
 10
95.28410642149147
 20
-95.38728703127471
 10
95.28410642149147
 20
-95.38728703127471
 10
96.06269800115794
 20
-95.38728703127471
 10
96.06269800115794
 20
-95.38728703127471
 10
96.06269800115794
 20
-95.38728703127471
 10
96.06269800115794
 20
-95.59244246742134
 10
96.06269800115794
 20
-95.59244246742134
 10
96.06269800115794
 20
-95.59244246742134
 10
95.03468150835938
 20
-95.59244246742134
 10
95.03468150835938
 20
-95.59244246742134
 10
95.06637638682369
 20
-95.2348415560524
 10
95.13183320104343
 20
-95.15663788853723
 10
95.51699487629436
 20
-94.8582926195146
 10
95.77296547084843
 20
-94.65951061001569
 10
95.83842228506818
 20
-94.59181448373052
 10
95.83842228506818
 20
-94.45435517386906
 10
95.83842228506818
 20
-94.33584388917646
 10
95.76641978942645
 20
-94.2047580059627
 10
95.5697048372187
 20
-94.2047580059627
 10
95.30960012808232
 20
-94.2047580059627
 10
95.3009873893692
 20
-94.43523489392592
 10
95.2968532747869
 20
-94.55167912132737
 10
95.2968532747869
 20
-94.55167912132737
 10
95.07257755869713
 20
-94.55167912132737
 10
95.07257755869713
 20
-94.55167912132737
 10
95.08119029741026
 20
-94.42472735269591
 10
95.09152558386602
 20
-94.31258949465102
 10
95.17214081822085
 20
-94.19407820995843
 10
95.28203936420033
 20
-94.03336450557153
 10
95.46807452040382
 20
-93.99943031504182
 10
95.58451874780526
 20
-93.99943031504182
 10
95.86184893436787
 20
-93.99943031504182
 10
96.0688991730314
 20
-94.18357066872842
 10
96.0688991730314
 20
-94.4564222311602
 10
96.0688991730314
 20
-94.68483206183227
 10
95.95279945517846
 20
-94.78439532135599
 10
95.64377439015156
 20
-95.01073809473691
 97
        0
 97
        0
 75
     2
 76
     1
 98
        0
  0
ENDBLK
  5
F9
330
F6
100
AcDbEntity
  8
0
100
AcDbBlockEnd
  0
BLOCK
  5
108
330
106
100
AcDbEntity
  8
0
100
AcDbBlockBegin
  2
block 3
 70
     0
 10
0.0
 20
0.0
 30
0.0
  3
block 3
  1

  0
SPLINE
  5
10A
330
106
100
AcDbEntity
  8
_U+30EC_U+30A4_U+30E4_U+30FC 1
370
     0
100
AcDbSpline
210
0.0
220
0.0
230
1.0
 70
    11
 71
     3
 72
    53
 73
    49
 74
     0
 42
0.0000000001
 43
0.0000000001
 12
1.0
 22
0.0
 32
0.0
 13
1.0
 23
0.0
 33
0.0
 40
0.0
 40
0.0
 40
0.0
 40
0.0
 40
1.0
 40
1.0
 40
1.0
 40
2.0
 40
2.0
 40
2.0
 40
3.0
 40
3.0
 40
3.0
 40
4.0
 40
4.0
 40
4.0
 40
5.0
 40
5.0
 40
5.0
 40
6.0
 40
6.0
 40
6.0
 40
7.0
 40
7.0
 40
7.0
 40
8.0
 40
8.0
 40
8.0
 40
9.0
 40
9.0
 40
9.0
 40
10.0
 40
10.0
 40
10.0
 40
11.0
 40
11.0
 40
11.0
 40
12.0
 40
12.0
 40
12.0
 40
13.0
 40
13.0
 40
13.0
 40
14.0
 40
14.0
 40
14.0
 40
15.0
 40
15.0
 40
15.0
 40
16.0
 40
16.0
 40
16.0
 40
16.0
 10
102.0034206559228
 20
-126.6523898337883
 30
0.0
 10
102.0034206559228
 20
-126.7305935013035
 30
0.0
 10
101.986539688045
 20
-126.8322238181183
 30
0.0
 10
101.9231499311164
 20
-126.9338541349332
 30
0.0
 10
101.813251385137
 20
-127.1071424378413
 30
0.0
 10
101.681993247149
 20
-127.1285020298498
 30
0.0
 10
101.5741617584606
 20
-127.1474500550187
 30
0.0
 10
101.5741617584606
 20
-127.1474500550187
 30
0.0
 10
101.5741617584606
 20
-126.9252413962201
 30
0.0
 10
101.5741617584606
 20
-126.9252413962201
 30
0.0
 10
101.7729437679595
 20
-126.8704643780046
 30
0.0
 10
101.8025715891327
 20
-126.7433403545989
 30
0.0
 10
101.8025715891327
 20
-126.6503227764971
 30
0.0
 10
101.8025715891327
 20
-126.5107964093445
 30
0.0
 10
101.703008329609
 20
-126.3585231888965
 30
0.0
 10
101.4704643843546
 20
-126.3585231888965
 30
0.0
 10
101.2144937898005
 20
-126.3585231888965
 30
0.0
 10
101.14455835145
 20
-126.5383571732265
 30
0.0
 10
101.14455835145
 20
-126.6589355152103
 30
0.0
 10
101.14455835145
 20
-126.6906303936746
 30
0.0
 10
101.14455835145
 20
-126.8322238181183
 30
0.0
 10
101.2737494321468
 20
-126.9211072816378
 30
0.0
 10
101.2737494321468
 20
-126.9211072816378
 30
0.0
 10
101.254801406978
 20
-127.0968071513855
 30
0.0
 10
101.254801406978
 20
-127.0968071513855
 30
0.0
 10
101.254801406978
 20
-127.0968071513855
 30
0.0
 10
100.4083414462521
 20
-126.9762288094018
 30
0.0
 10
100.4083414462521
 20
-126.9762288094018
 30
0.0
 10
100.4083414462521
 20
-126.9762288094018
 30
0.0
 10
100.4083414462521
 20
-126.1976372297353
 30
0.0
 10
100.4083414462521
 20
-126.1976372297353
 30
0.0
 10
100.4083414462521
 20
-126.1976372297353
 30
0.0
 10
100.6029893411687
 20
-126.1976372297353
 30
0.0
 10
100.6029893411687
 20
-126.1976372297353
 30
0.0
 10
100.6029893411687
 20
-126.1976372297353
 30
0.0
 10
100.6029893411687
 20
-126.8132757929495
 30
0.0
 10
100.6029893411687
 20
-126.8132757929495
 30
0.0
 10
100.6029893411687
 20
-126.8132757929495
 30
0.0
 10
101.0260470667574
 20
-126.8787326071692
 30
0.0
 10
101.0260470667574
 20
-126.8787326071692
 30
0.0
 10
100.9922851310019
 20
-126.8174099075318
 30
0.0
 10
100.9519775138245
 20
-126.7350721254343
 30
0.0
 10
100.9519775138245
 20
-126.6165608407417
 30
0.0
 10
100.9519775138245
 20
-126.3626573034788
 30
0.0
 10
101.1383571795765
 20
-126.1256347340936
 30
0.0
 10
101.4515163591857
 20
-126.1256347340936
 30
0.0
 10
101.7688096533772
 20
-126.1256347340936
 30
0.0
 10
102.0034206559228
 20
-126.3499104501834
 30
0.0
 10
102.0034206559228
 20
-126.6523898337883
 30
0.0
  0
HATCH
  5
10B
330
106
100
AcDbEntity
  8
_U+30EC_U+30A4_U+30E4_U+30FC 1
 62
   179
420
  2234388
100
AcDbHatch
 10
0.0
 20
0.0
 30
0.0
210
0.0
220
0.0
230
1.0
  2
SOLID
 70
     1
 71
     0
 91
        1
 92
        1
 93
        1
 72
     4
 94
        3
 73
     0
 74
     1
 95
       53
 96
       49
 40
0.0
 40
0.0
 40
0.0
 40
0.0
 40
1.0
 40
1.0
 40
1.0
 40
2.0
 40
2.0
 40
2.0
 40
3.0
 40
3.0
 40
3.0
 40
4.0
 40
4.0
 40
4.0
 40
5.0
 40
5.0
 40
5.0
 40
6.0
 40
6.0
 40
6.0
 40
7.0
 40
7.0
 40
7.0
 40
8.0
 40
8.0
 40
8.0
 40
9.0
 40
9.0
 40
9.0
 40
10.0
 40
10.0
 40
10.0
 40
11.0
 40
11.0
 40
11.0
 40
12.0
 40
12.0
 40
12.0
 40
13.0
 40
13.0
 40
13.0
 40
14.0
 40
14.0
 40
14.0
 40
15.0
 40
15.0
 40
15.0
 40
16.0
 40
16.0
 40
16.0
 40
16.0
 10
102.0034206559228
 20
-126.6523898337883
 10
102.0034206559228
 20
-126.7305935013035
 10
101.986539688045
 20
-126.8322238181183
 10
101.9231499311164
 20
-126.9338541349332
 10
101.813251385137
 20
-127.1071424378413
 10
101.681993247149
 20
-127.1285020298498
 10
101.5741617584606
 20
-127.1474500550187
 10
101.5741617584606
 20
-127.1474500550187
 10
101.5741617584606
 20
-126.9252413962201
 10
101.5741617584606
 20
-126.9252413962201
 10
101.7729437679595
 20
-126.8704643780046
 10
101.8025715891327
 20
-126.7433403545989
 10
101.8025715891327
 20
-126.6503227764971
 10
101.8025715891327
 20
-126.5107964093445
 10
101.703008329609
 20
-126.3585231888965
 10
101.4704643843546
 20
-126.3585231888965
 10
101.2144937898005
 20
-126.3585231888965
 10
101.14455835145
 20
-126.5383571732265
 10
101.14455835145
 20
-126.6589355152103
 10
101.14455835145
 20
-126.6906303936746
 10
101.14455835145
 20
-126.8322238181183
 10
101.2737494321468
 20
-126.9211072816378
 10
101.2737494321468
 20
-126.9211072816378
 10
101.254801406978
 20
-127.0968071513855
 10
101.254801406978
 20
-127.0968071513855
 10
101.254801406978
 20
-127.0968071513855
 10
100.4083414462521
 20
-126.9762288094018
 10
100.4083414462521
 20
-126.9762288094018
 10
100.4083414462521
 20
-126.9762288094018
 10
100.4083414462521
 20
-126.1976372297353
 10
100.4083414462521
 20
-126.1976372297353
 10
100.4083414462521
 20
-126.1976372297353
 10
100.6029893411687
 20
-126.1976372297353
 10
100.6029893411687
 20
-126.1976372297353
 10
100.6029893411687
 20
-126.1976372297353
 10
100.6029893411687
 20
-126.8132757929495
 10
100.6029893411687
 20
-126.8132757929495
 10
100.6029893411687
 20
-126.8132757929495
 10
101.0260470667574
 20
-126.8787326071692
 10
101.0260470667574
 20
-126.8787326071692
 10
100.9922851310019
 20
-126.8174099075318
 10
100.9519775138245
 20
-126.7350721254343
 10
100.9519775138245
 20
-126.6165608407417
 10
100.9519775138245
 20
-126.3626573034788
 10
101.1383571795765
 20
-126.1256347340936
 10
101.4515163591857
 20
-126.1256347340936
 10
101.7688096533772
 20
-126.1256347340936
 10
102.0034206559228
 20
-126.3499104501834
 10
102.0034206559228
 20
-126.6523898337883
 97
        0
 97
        0
 75
     2
 76
     1
 98
        0
  0
SPLINE
  5
10C
330
106
100
AcDbEntity
  8
_U+30EC_U+30A4_U+30E4_U+30FC 1
370
     0
100
AcDbSpline
210
0.0
220
0.0
230
1.0
 70
    11
 71
     3
 72
    29
 73
    25
 74
     0
 42
0.0000000001
 43
0.0000000001
 12
1.0
 22
0.0
 32
0.0
 13
1.0
 23
0.0
 33
0.0
 40
0.0
 40
0.0
 40
0.0
 40
0.0
 40
1.0
 40
1.0
 40
1.0
 40
2.0
 40
2.0
 40
2.0
 40
3.0
 40
3.0
 40
3.0
 40
4.0
 40
4.0
 40
4.0
 40
5.0
 40
5.0
 40
5.0
 40
6.0
 40
6.0
 40
6.0
 40
7.0
 40
7.0
 40
7.0
 40
8.0
 40
8.0
 40
8.0
 40
8.0
 10
101.7750108252507
 20
-125.0586886623117
 30
0.0
 10
101.9844726307539
 20
-125.1668646605486
 30
0.0
 10
102.0034206559228
 20
-125.3401529634566
 30
0.0
 10
102.0034206559228
 20
-125.4565971908581
 30
0.0
 10
102.0034206559228
 20
-125.6174831500192
 30
0.0
 10
101.9569118668719
 20
-125.759076574463
 30
0.0
 10
101.7750108252507
 20
-125.8541612098559
 30
0.0
 10
101.5803629303341
 20
-125.9578585839619
 30
0.0
 10
101.3433403609489
 20
-125.9768066091308
 30
0.0
 10
101.1807318540451
 20
-125.9768066091308
 30
0.0
 10
101.0367268627617
 20
-125.9768066091308
 30
0.0
 10
100.7848903827899
 20
-125.9599256412531
 30
0.0
 10
100.586108373291
 20
-125.8541612098559
 30
0.0
 10
100.3831922492098
 20
-125.7463297211676
 30
0.0
 10
100.3597655999101
 20
-125.5854437620064
 30
0.0
 10
100.3597655999101
 20
-125.4565971908581
 30
0.0
 10
100.3597655999101
 20
-125.2977782889881
 30
0.0
 10
100.4042073316698
 20
-125.1541178072531
 30
0.0
 10
100.586108373291
 20
-125.0586886623117
 30
0.0
 10
100.7786892109164
 20
-124.9594699123365
 30
0.0
 10
101.0070990415885
 20
-124.9360432630368
 30
0.0
 10
101.1807318540451
 20
-124.9360432630368
 30
0.0
 10
101.351953099662
 20
-124.9360432630368
 30
0.0
 10
101.5824299876252
 20
-124.9574028550454
 30
0.0
 10
101.7750108252507
 20
-125.0586886623117
 30
0.0
  0
SPLINE
  5
10D
330
106
100
AcDbEntity
  8
_U+30EC_U+30A4_U+30E4_U+30FC 1
370
     0
100
AcDbSpline
210
0.0
220
0.0
230
1.0
 70
    11
 71
     3
 72
    17
 73
    13
 74
     0
 42
0.0000000001
 43
0.0000000001
 12
1.0
 22
0.0
 32
0.0
 13
1.0
 23
0.0
 33
0.0
 40
0.0
 40
0.0
 40
0.0
 40
0.0
 40
1.0
 40
1.0
 40
1.0
 40
2.0
 40
2.0
 40
2.0
 40
3.0
 40
3.0
 40
3.0
 40
4.0
 40
4.0
 40
4.0
 40
4.0
 10
100.5523464375355
 20
-125.4565971908581
 30
0.0
 10
100.5523464375355
 20
-125.7060221039902
 30
0.0
 10
100.8358777959716
 20
-125.7528754025896
 30
0.0
 10
101.1807318540451
 20
-125.7528754025896
 30
0.0
 10
101.5000922055278
 20
-125.7528754025896
 30
0.0
 10
101.8087727610061
 20
-125.7167018999944
 30
0.0
 10
101.8087727610061
 20
-125.4565971908581
 30
0.0
 10
101.8087727610061
 20
-125.2088948254686
 30
0.0
 10
101.5276529694098
 20
-125.1603189791266
 30
0.0
 10
101.1807318540451
 20
-125.1603189791266
 30
0.0
 10
100.8610269930139
 20
-125.1603189791266
 30
0.0
 10
100.5523464375355
 20
-125.1985595390129
 30
0.0
 10
100.5523464375355
 20
-125.4565971908581
 30
0.0
  0
HATCH
  5
10E
330
106
100
AcDbEntity
  8
_U+30EC_U+30A4_U+30E4_U+30FC 1
 62
   179
420
  2234388
100
AcDbHatch
 10
0.0
 20
0.0
 30
0.0
210
0.0
220
0.0
230
1.0
  2
SOLID
 70
     1
 71
     0
 91
        2
 92
        1
 93
        1
 72
     4
 94
        3
 73
     0
 74
     1
 95
       29
 96
       25
 40
0.0
 40
0.0
 40
0.0
 40
0.0
 40
1.0
 40
1.0
 40
1.0
 40
2.0
 40
2.0
 40
2.0
 40
3.0
 40
3.0
 40
3.0
 40
4.0
 40
4.0
 40
4.0
 40
5.0
 40
5.0
 40
5.0
 40
6.0
 40
6.0
 40
6.0
 40
7.0
 40
7.0
 40
7.0
 40
8.0
 40
8.0
 40
8.0
 40
8.0
 10
101.7750108252507
 20
-125.0586886623117
 10
101.9844726307539
 20
-125.1668646605486
 10
102.0034206559228
 20
-125.3401529634566
 10
102.0034206559228
 20
-125.4565971908581
 10
102.0034206559228
 20
-125.6174831500192
 10
101.9569118668719
 20
-125.759076574463
 10
101.7750108252507
 20
-125.8541612098559
 10
101.5803629303341
 20
-125.9578585839619
 10
101.3433403609489
 20
-125.9768066091308
 10
101.1807318540451
 20
-125.9768066091308
 10
101.0367268627617
 20
-125.9768066091308
 10
100.7848903827899
 20
-125.9599256412531
 10
100.586108373291
 20
-125.8541612098559
 10
100.3831922492098
 20
-125.7463297211676
 10
100.3597655999101
 20
-125.5854437620064
 10
100.3597655999101
 20
-125.4565971908581
 10
100.3597655999101
 20
-125.2977782889881
 10
100.4042073316698
 20
-125.1541178072531
 10
100.586108373291
 20
-125.0586886623117
 10
100.7786892109164
 20
-124.9594699123365
 10
101.0070990415885
 20
-124.9360432630368
 10
101.1807318540451
 20
-124.9360432630368
 10
101.351953099662
 20
-124.9360432630368
 10
101.5824299876252
 20
-124.9574028550454
 10
101.7750108252507
 20
-125.0586886623117
 97
        0
 97
        0
 92
        1
 93
        1
 72
     4
 94
        3
 73
     0
 74
     1
 95
       17
 96
       13
 40
0.0
 40
0.0
 40
0.0
 40
0.0
 40
1.0
 40
1.0
 40
1.0
 40
2.0
 40
2.0
 40
2.0
 40
3.0
 40
3.0
 40
3.0
 40
4.0
 40
4.0
 40
4.0
 40
4.0
 10
100.5523464375355
 20
-125.4565971908581
 10
100.5523464375355
 20
-125.7060221039902
 10
100.8358777959716
 20
-125.7528754025896
 10
101.1807318540451
 20
-125.7528754025896
 10
101.5000922055278
 20
-125.7528754025896
 10
101.8087727610061
 20
-125.7167018999944
 10
101.8087727610061
 20
-125.4565971908581
 10
101.8087727610061
 20
-125.2088948254686
 10
101.5276529694098
 20
-125.1603189791266
 10
101.1807318540451
 20
-125.1603189791266
 10
100.8610269930139
 20
-125.1603189791266
 10
100.5523464375355
 20
-125.1985595390129
 10
100.5523464375355
 20
-125.4565971908581
 97
        0
 97
        0
 75
     2
 76
     1
 98
        0
  0
ENDBLK
  5
109
330
106
100
AcDbEntity
  8
0
100
AcDbBlockEnd
  0
BLOCK
  5
111
330
10F
100
AcDbEntity
  8
0
100
AcDbBlockBegin
  2
block 4
 70
     0
 10
0.0
 20
0.0
 30
0.0
  3
block 4
  1

  0
SPLINE
  5
113
330
10F
100
AcDbEntity
  8
_U+30EC_U+30A4_U+30E4_U+30FC 1
370
     0
100
AcDbSpline
210
0.0
220
0.0
230
1.0
 70
    11
 71
     3
 72
    53
 73
    49
 74
     0
 42
0.0000000001
 43
0.0000000001
 12
1.0
 22
0.0
 32
0.0
 13
1.0
 23
0.0
 33
0.0
 40
0.0
 40
0.0
 40
0.0
 40
0.0
 40
1.0
 40
1.0
 40
1.0
 40
2.0
 40
2.0
 40
2.0
 40
3.0
 40
3.0
 40
3.0
 40
4.0
 40
4.0
 40
4.0
 40
5.0
 40
5.0
 40
5.0
 40
6.0
 40
6.0
 40
6.0
 40
7.0
 40
7.0
 40
7.0
 40
8.0
 40
8.0
 40
8.0
 40
9.0
 40
9.0
 40
9.0
 40
10.0
 40
10.0
 40
10.0
 40
11.0
 40
11.0
 40
11.0
 40
12.0
 40
12.0
 40
12.0
 40
13.0
 40
13.0
 40
13.0
 40
14.0
 40
14.0
 40
14.0
 40
15.0
 40
15.0
 40
15.0
 40
16.0
 40
16.0
 40
16.0
 40
16.0
 10
102.0034206559228
 20
-154.5762667799323
 30
0.0
 10
102.0034206559228
 20
-154.6544704474475
 30
0.0
 10
101.986539688045
 20
-154.7561007642624
 30
0.0
 10
101.9231499311164
 20
-154.8577310810772
 30
0.0
 10
101.813251385137
 20
-155.0310193839853
 30
0.0
 10
101.681993247149
 20
-155.0523789759939
 30
0.0
 10
101.5741617584606
 20
-155.0713270011627
 30
0.0
 10
101.5741617584606
 20
-155.0713270011627
 30
0.0
 10
101.5741617584606
 20
-154.8491183423641
 30
0.0
 10
101.5741617584606
 20
-154.8491183423641
 30
0.0
 10
101.7729437679595
 20
-154.7943413241486
 30
0.0
 10
101.8025715891327
 20
-154.6672173007429
 30
0.0
 10
101.8025715891327
 20
-154.5741997226412
 30
0.0
 10
101.8025715891327
 20
-154.4346733554886
 30
0.0
 10
101.703008329609
 20
-154.2824001350405
 30
0.0
 10
101.4704643843546
 20
-154.2824001350405
 30
0.0
 10
101.2144937898005
 20
-154.2824001350405
 30
0.0
 10
101.14455835145
 20
-154.4622341193705
 30
0.0
 10
101.14455835145
 20
-154.5828124613543
 30
0.0
 10
101.14455835145
 20
-154.6145073398186
 30
0.0
 10
101.14455835145
 20
-154.7561007642624
 30
0.0
 10
101.2737494321468
 20
-154.8449842277818
 30
0.0
 10
101.2737494321468
 20
-154.8449842277818
 30
0.0
 10
101.254801406978
 20
-155.0206840975296
 30
0.0
 10
101.254801406978
 20
-155.0206840975296
 30
0.0
 10
101.254801406978
 20
-155.0206840975296
 30
0.0
 10
100.4083414462521
 20
-154.9001057555458
 30
0.0
 10
100.4083414462521
 20
-154.9001057555458
 30
0.0
 10
100.4083414462521
 20
-154.9001057555458
 30
0.0
 10
100.4083414462521
 20
-154.1215141758794
 30
0.0
 10
100.4083414462521
 20
-154.1215141758794
 30
0.0
 10
100.4083414462521
 20
-154.1215141758794
 30
0.0
 10
100.6029893411687
 20
-154.1215141758794
 30
0.0
 10
100.6029893411687
 20
-154.1215141758794
 30
0.0
 10
100.6029893411687
 20
-154.1215141758794
 30
0.0
 10
100.6029893411687
 20
-154.7371527390935
 30
0.0
 10
100.6029893411687
 20
-154.7371527390935
 30
0.0
 10
100.6029893411687
 20
-154.7371527390935
 30
0.0
 10
101.0260470667574
 20
-154.8026095533132
 30
0.0
 10
101.0260470667574
 20
-154.8026095533132
 30
0.0
 10
100.9922851310019
 20
-154.7412868536758
 30
0.0
 10
100.9519775138245
 20
-154.6589490715783
 30
0.0
 10
100.9519775138245
 20
-154.5404377868857
 30
0.0
 10
100.9519775138245
 20
-154.2865342496228
 30
0.0
 10
101.1383571795765
 20
-154.0495116802376
 30
0.0
 10
101.4515163591857
 20
-154.0495116802376
 30
0.0
 10
101.7688096533772
 20
-154.0495116802376
 30
0.0
 10
102.0034206559228
 20
-154.2737873963274
 30
0.0
 10
102.0034206559228
 20
-154.5762667799323
 30
0.0
  0
HATCH
  5
114
330
10F
100
AcDbEntity
  8
_U+30EC_U+30A4_U+30E4_U+30FC 1
 62
   179
420
  2234388
100
AcDbHatch
 10
0.0
 20
0.0
 30
0.0
210
0.0
220
0.0
230
1.0
  2
SOLID
 70
     1
 71
     0
 91
        1
 92
        1
 93
        1
 72
     4
 94
        3
 73
     0
 74
     1
 95
       53
 96
       49
 40
0.0
 40
0.0
 40
0.0
 40
0.0
 40
1.0
 40
1.0
 40
1.0
 40
2.0
 40
2.0
 40
2.0
 40
3.0
 40
3.0
 40
3.0
 40
4.0
 40
4.0
 40
4.0
 40
5.0
 40
5.0
 40
5.0
 40
6.0
 40
6.0
 40
6.0
 40
7.0
 40
7.0
 40
7.0
 40
8.0
 40
8.0
 40
8.0
 40
9.0
 40
9.0
 40
9.0
 40
10.0
 40
10.0
 40
10.0
 40
11.0
 40
11.0
 40
11.0
 40
12.0
 40
12.0
 40
12.0
 40
13.0
 40
13.0
 40
13.0
 40
14.0
 40
14.0
 40
14.0
 40
15.0
 40
15.0
 40
15.0
 40
16.0
 40
16.0
 40
16.0
 40
16.0
 10
102.0034206559228
 20
-154.5762667799323
 10
102.0034206559228
 20
-154.6544704474475
 10
101.986539688045
 20
-154.7561007642624
 10
101.9231499311164
 20
-154.8577310810772
 10
101.813251385137
 20
-155.0310193839853
 10
101.681993247149
 20
-155.0523789759939
 10
101.5741617584606
 20
-155.0713270011627
 10
101.5741617584606
 20
-155.0713270011627
 10
101.5741617584606
 20
-154.8491183423641
 10
101.5741617584606
 20
-154.8491183423641
 10
101.7729437679595
 20
-154.7943413241486
 10
101.8025715891327
 20
-154.6672173007429
 10
101.8025715891327
 20
-154.5741997226412
 10
101.8025715891327
 20
-154.4346733554886
 10
101.703008329609
 20
-154.2824001350405
 10
101.4704643843546
 20
-154.2824001350405
 10
101.2144937898005
 20
-154.2824001350405
 10
101.14455835145
 20
-154.4622341193705
 10
101.14455835145
 20
-154.5828124613543
 10
101.14455835145
 20
-154.6145073398186
 10
101.14455835145
 20
-154.7561007642624
 10
101.2737494321468
 20
-154.8449842277818
 10
101.2737494321468
 20
-154.8449842277818
 10
101.254801406978
 20
-155.0206840975296
 10
101.254801406978
 20
-155.0206840975296
 10
101.254801406978
 20
-155.0206840975296
 10
100.4083414462521
 20
-154.9001057555458
 10
100.4083414462521
 20
-154.9001057555458
 10
100.4083414462521
 20
-154.9001057555458
 10
100.4083414462521
 20
-154.1215141758794
 10
100.4083414462521
 20
-154.1215141758794
 10
100.4083414462521
 20
-154.1215141758794
 10
100.6029893411687
 20
-154.1215141758794
 10
100.6029893411687
 20
-154.1215141758794
 10
100.6029893411687
 20
-154.1215141758794
 10
100.6029893411687
 20
-154.7371527390935
 10
100.6029893411687
 20
-154.7371527390935
 10
100.6029893411687
 20
-154.7371527390935
 10
101.0260470667574
 20
-154.8026095533132
 10
101.0260470667574
 20
-154.8026095533132
 10
100.9922851310019
 20
-154.7412868536758
 10
100.9519775138245
 20
-154.6589490715783
 10
100.9519775138245
 20
-154.5404377868857
 10
100.9519775138245
 20
-154.2865342496228
 10
101.1383571795765
 20
-154.0495116802376
 10
101.4515163591857
 20
-154.0495116802376
 10
101.7688096533772
 20
-154.0495116802376
 10
102.0034206559228
 20
-154.2737873963274
 10
102.0034206559228
 20
-154.5762667799323
 97
        0
 97
        0
 75
     2
 76
     1
 98
        0
  0
POLYLINE
  5
115
330
10F
100
AcDbEntity
  8
_U+30EC_U+30A4_U+30E4_U+30FC 1
370
     0
100
AcDb2dPolyline
 66
     1
 10
0.0
 20
0.0
 30
0.0
  0
VERTEX
  5
116
330
115
100
AcDbEntity
  8
_U+30EC_U+30A4_U+30E4_U+30FC 1
370
     0
100
AcDbVertex
100
AcDb2dVertex
 10
101.9527777522896
 20
-153.8204128304685
 30
0.0
  0
VERTEX
  5
117
330
115
100
AcDbEntity
  8
_U+30EC_U+30A4_U+30E4_U+30FC 1
370
     0
100
AcDbVertex
100
AcDb2dVertex
 10
101.7009412723178
 20
-153.8204128304685
 30
0.0
  0
VERTEX
  5
118
330
115
100
AcDbEntity
  8
_U+30EC_U+30A4_U+30E4_U+30FC 1
370
     0
100
AcDbVertex
100
AcDb2dVertex
 10
101.7009412723178
 20
-153.5685763504968
 30
0.0
  0
VERTEX
  5
119
330
115
100
AcDbEntity
  8
_U+30EC_U+30A4_U+30E4_U+30FC 1
370
     0
100
AcDbVertex
100
AcDb2dVertex
 10
101.9527777522896
 20
-153.5685763504968
 30
0.0
  0
VERTEX
  5
11A
330
115
100
AcDbEntity
  8
_U+30EC_U+30A4_U+30E4_U+30FC 1
370
     0
100
AcDbVertex
100
AcDb2dVertex
 10
101.9527777522896
 20
-153.8204128304685
 30
0.0
  0
SEQEND
  5
11B
330
115
100
AcDbEntity
  8
_U+30EC_U+30A4_U+30E4_U+30FC 1
370
     0
  0
HATCH
  5
11C
330
10F
100
AcDbEntity
  8
_U+30EC_U+30A4_U+30E4_U+30FC 1
 62
   179
420
  2234388
100
AcDbHatch
 10
0.0
 20
0.0
 30
0.0
210
0.0
220
0.0
230
1.0
  2
SOLID
 70
     1
 71
     0
 91
        1
 92
        1
 93
        4
 72
     1
 10
101.9527777522896
 20
-153.8204128304685
 11
101.7009412723178
 21
-153.8204128304685
 72
     1
 10
101.7009412723178
 20
-153.8204128304685
 11
101.7009412723178
 21
-153.5685763504968
 72
     1
 10
101.7009412723178
 20
-153.5685763504968
 11
101.9527777522896
 21
-153.5685763504968
 72
     1
 10
101.9527777522896
 20
-153.5685763504968
 11
101.9527777522896
 21
-153.8204128304685
 97
        0
 75
     2
 76
     1
 98
        0
  0
SPLINE
  5
11D
330
10F
100
AcDbEntity
  8
_U+30EC_U+30A4_U+30E4_U+30FC 1
370
     0
100
AcDbSpline
210
0.0
220
0.0
230
1.0
 70
    11
 71
     3
 72
    53
 73
    49
 74
     0
 42
0.0000000001
 43
0.0000000001
 12
1.0
 22
0.0
 32
0.0
 13
1.0
 23
0.0
 33
0.0
 40
0.0
 40
0.0
 40
0.0
 40
0.0
 40
1.0
 40
1.0
 40
1.0
 40
2.0
 40
2.0
 40
2.0
 40
3.0
 40
3.0
 40
3.0
 40
4.0
 40
4.0
 40
4.0
 40
5.0
 40
5.0
 40
5.0
 40
6.0
 40
6.0
 40
6.0
 40
7.0
 40
7.0
 40
7.0
 40
8.0
 40
8.0
 40
8.0
 40
9.0
 40
9.0
 40
9.0
 40
10.0
 40
10.0
 40
10.0
 40
11.0
 40
11.0
 40
11.0
 40
12.0
 40
12.0
 40
12.0
 40
13.0
 40
13.0
 40
13.0
 40
14.0
 40
14.0
 40
14.0
 40
15.0
 40
15.0
 40
15.0
 40
16.0
 40
16.0
 40
16.0
 40
16.0
 10
102.0034206559228
 20
-152.8513074704677
 30
0.0
 10
102.0034206559228
 20
-152.9295111379829
 30
0.0
 10
101.986539688045
 20
-153.0311414547978
 30
0.0
 10
101.9231499311164
 20
-153.1327717716127
 30
0.0
 10
101.813251385137
 20
-153.3060600745207
 30
0.0
 10
101.681993247149
 20
-153.3274196665293
 30
0.0
 10
101.5741617584606
 20
-153.3463676916981
 30
0.0
 10
101.5741617584606
 20
-153.3463676916981
 30
0.0
 10
101.5741617584606
 20
-153.1241590328995
 30
0.0
 10
101.5741617584606
 20
-153.1241590328995
 30
0.0
 10
101.7729437679595
 20
-153.069382014684
 30
0.0
 10
101.8025715891327
 20
-152.9422579912783
 30
0.0
 10
101.8025715891327
 20
-152.8492404131766
 30
0.0
 10
101.8025715891327
 20
-152.709714046024
 30
0.0
 10
101.703008329609
 20
-152.5574408255759
 30
0.0
 10
101.4704643843546
 20
-152.5574408255759
 30
0.0
 10
101.2144937898005
 20
-152.5574408255759
 30
0.0
 10
101.14455835145
 20
-152.737274809906
 30
0.0
 10
101.14455835145
 20
-152.8578531518897
 30
0.0
 10
101.14455835145
 20
-152.889548030354
 30
0.0
 10
101.14455835145
 20
-153.0311414547978
 30
0.0
 10
101.2737494321468
 20
-153.1200249183172
 30
0.0
 10
101.2737494321468
 20
-153.1200249183172
 30
0.0
 10
101.254801406978
 20
-153.295724788065
 30
0.0
 10
101.254801406978
 20
-153.295724788065
 30
0.0
 10
101.254801406978
 20
-153.295724788065
 30
0.0
 10
100.4083414462521
 20
-153.1751464460812
 30
0.0
 10
100.4083414462521
 20
-153.1751464460812
 30
0.0
 10
100.4083414462521
 20
-153.1751464460812
 30
0.0
 10
100.4083414462521
 20
-152.3965548664148
 30
0.0
 10
100.4083414462521
 20
-152.3965548664148
 30
0.0
 10
100.4083414462521
 20
-152.3965548664148
 30
0.0
 10
100.6029893411687
 20
-152.3965548664148
 30
0.0
 10
100.6029893411687
 20
-152.3965548664148
 30
0.0
 10
100.6029893411687
 20
-152.3965548664148
 30
0.0
 10
100.6029893411687
 20
-153.0121934296289
 30
0.0
 10
100.6029893411687
 20
-153.0121934296289
 30
0.0
 10
100.6029893411687
 20
-153.0121934296289
 30
0.0
 10
101.0260470667574
 20
-153.0776502438486
 30
0.0
 10
101.0260470667574
 20
-153.0776502438486
 30
0.0
 10
100.9922851310019
 20
-153.0163275442112
 30
0.0
 10
100.9519775138245
 20
-152.9339897621137
 30
0.0
 10
100.9519775138245
 20
-152.8154784774211
 30
0.0
 10
100.9519775138245
 20
-152.5615749401582
 30
0.0
 10
101.1383571795765
 20
-152.324552370773
 30
0.0
 10
101.4515163591857
 20
-152.324552370773
 30
0.0
 10
101.7688096533772
 20
-152.324552370773
 30
0.0
 10
102.0034206559228
 20
-152.5488280868628
 30
0.0
 10
102.0034206559228
 20
-152.8513074704677
 30
0.0
  0
HATCH
  5
11E
330
10F
100
AcDbEntity
  8
_U+30EC_U+30A4_U+30E4_U+30FC 1
 62
   179
420
  2234388
100
AcDbHatch
 10
0.0
 20
0.0
 30
0.0
210
0.0
220
0.0
230
1.0
  2
SOLID
 70
     1
 71
     0
 91
        1
 92
        1
 93
        1
 72
     4
 94
        3
 73
     0
 74
     1
 95
       53
 96
       49
 40
0.0
 40
0.0
 40
0.0
 40
0.0
 40
1.0
 40
1.0
 40
1.0
 40
2.0
 40
2.0
 40
2.0
 40
3.0
 40
3.0
 40
3.0
 40
4.0
 40
4.0
 40
4.0
 40
5.0
 40
5.0
 40
5.0
 40
6.0
 40
6.0
 40
6.0
 40
7.0
 40
7.0
 40
7.0
 40
8.0
 40
8.0
 40
8.0
 40
9.0
 40
9.0
 40
9.0
 40
10.0
 40
10.0
 40
10.0
 40
11.0
 40
11.0
 40
11.0
 40
12.0
 40
12.0
 40
12.0
 40
13.0
 40
13.0
 40
13.0
 40
14.0
 40
14.0
 40
14.0
 40
15.0
 40
15.0
 40
15.0
 40
16.0
 40
16.0
 40
16.0
 40
16.0
 10
102.0034206559228
 20
-152.8513074704677
 10
102.0034206559228
 20
-152.9295111379829
 10
101.986539688045
 20
-153.0311414547978
 10
101.9231499311164
 20
-153.1327717716127
 10
101.813251385137
 20
-153.3060600745207
 10
101.681993247149
 20
-153.3274196665293
 10
101.5741617584606
 20
-153.3463676916981
 10
101.5741617584606
 20
-153.3463676916981
 10
101.5741617584606
 20
-153.1241590328995
 10
101.5741617584606
 20
-153.1241590328995
 10
101.7729437679595
 20
-153.069382014684
 10
101.8025715891327
 20
-152.9422579912783
 10
101.8025715891327
 20
-152.8492404131766
 10
101.8025715891327
 20
-152.709714046024
 10
101.703008329609
 20
-152.5574408255759
 10
101.4704643843546
 20
-152.5574408255759
 10
101.2144937898005
 20
-152.5574408255759
 10
101.14455835145
 20
-152.737274809906
 10
101.14455835145
 20
-152.8578531518897
 10
101.14455835145
 20
-152.889548030354
 10
101.14455835145
 20
-153.0311414547978
 10
101.2737494321468
 20
-153.1200249183172
 10
101.2737494321468
 20
-153.1200249183172
 10
101.254801406978
 20
-153.295724788065
 10
101.254801406978
 20
-153.295724788065
 10
101.254801406978
 20
-153.295724788065
 10
100.4083414462521
 20
-153.1751464460812
 10
100.4083414462521
 20
-153.1751464460812
 10
100.4083414462521
 20
-153.1751464460812
 10
100.4083414462521
 20
-152.3965548664148
 10
100.4083414462521
 20
-152.3965548664148
 10
100.4083414462521
 20
-152.3965548664148
 10
100.6029893411687
 20
-152.3965548664148
 10
100.6029893411687
 20
-152.3965548664148
 10
100.6029893411687
 20
-152.3965548664148
 10
100.6029893411687
 20
-153.0121934296289
 10
100.6029893411687
 20
-153.0121934296289
 10
100.6029893411687
 20
-153.0121934296289
 10
101.0260470667574
 20
-153.0776502438486
 10
101.0260470667574
 20
-153.0776502438486
 10
100.9922851310019
 20
-153.0163275442112
 10
100.9519775138245
 20
-152.9339897621137
 10
100.9519775138245
 20
-152.8154784774211
 10
100.9519775138245
 20
-152.5615749401582
 10
101.1383571795765
 20
-152.324552370773
 10
101.4515163591857
 20
-152.324552370773
 10
101.7688096533772
 20
-152.324552370773
 10
102.0034206559228
 20
-152.5488280868628
 10
102.0034206559228
 20
-152.8513074704677
 97
        0
 97
        0
 75
     2
 76
     1
 98
        0
  0
ENDBLK
  5
112
330
10F
100
AcDbEntity
  8
0
100
AcDbBlockEnd
  0
BLOCK
  5
121
330
11F
100
AcDbEntity
  8
0
100
AcDbBlockBegin
  2
block 5
 70
     0
 10
0.0
 20
0.0
 30
0.0
  3
block 5
  1

  0
SPLINE
  5
123
330
11F
100
AcDbEntity
  8
_U+30EC_U+30A4_U+30E4_U+30FC 1
370
     0
100
AcDbSpline
210
0.0
220
0.0
230
1.0
 70
    11
 71
     3
 72
    62
 73
    58
 74
     0
 42
0.0000000001
 43
0.0000000001
 12
1.0
 22
0.0
 32
0.0
 13
1.0
 23
0.0
 33
0.0
 40
0.0
 40
0.0
 40
0.0
 40
0.0
 40
1.0
 40
1.0
 40
1.0
 40
2.0
 40
2.0
 40
2.0
 40
3.0
 40
3.0
 40
3.0
 40
4.0
 40
4.0
 40
4.0
 40
5.0
 40
5.0
 40
5.0
 40
6.0
 40
6.0
 40
6.0
 40
7.0
 40
7.0
 40
7.0
 40
8.0
 40
8.0
 40
8.0
 40
9.0
 40
9.0
 40
9.0
 40
10.0
 40
10.0
 40
10.0
 40
11.0
 40
11.0
 40
11.0
 40
12.0
 40
12.0
 40
12.0
 40
13.0
 40
13.0
 40
13.0
 40
14.0
 40
14.0
 40
14.0
 40
15.0
 40
15.0
 40
15.0
 40
16.0
 40
16.0
 40
16.0
 40
17.0
 40
17.0
 40
17.0
 40
18.0
 40
18.0
 40
18.0
 40
19.0
 40
19.0
 40
19.0
 40
19.0
 10
102.0034206559228
 20
-157.9521158459286
 30
0.0
 10
102.0034206559228
 20
-158.0475449908701
 30
0.0
 10
101.9824055734627
 20
-158.2652750255378
 30
0.0
 10
101.7963704172592
 20
-158.3903319916524
 30
0.0
 10
101.6840603044401
 20
-158.4640570350368
 30
0.0
 10
101.5848415544649
 20
-158.4685356591676
 30
0.0
 10
101.5000922055278
 20
-158.4726697737499
 30
0.0
 10
101.5000922055278
 20
-158.4726697737499
 30
0.0
 10
101.5000922055278
 20
-158.2525281722424
 30
0.0
 10
101.5000922055278
 20
-158.2525281722424
 30
0.0
 10
101.5741617584606
 20
-158.2504611149513
 30
0.0
 10
101.8087727610061
 20
-158.2401258284955
 30
0.0
 10
101.8087727610061
 20
-157.9565944700595
 30
0.0
 10
101.8087727610061
 20
-157.819135160198
 30
0.0
 10
101.7391818322041
 20
-157.6665174302014
 30
0.0
 10
101.510772001532
 20
-157.6665174302014
 30
0.0
 10
101.3943277741306
 20
-157.6665174302014
 30
0.0
 10
101.3457519277886
 20
-157.7047579900877
 30
0.0
 10
101.3140570493243
 20
-157.736452868552
 30
0.0
 10
101.2399874963914
 20
-157.8105224214849
 30
0.0
 10
101.227240643096
 20
-157.9269666488863
 30
0.0
 10
101.227240643096
 20
-157.9817436671018
 30
0.0
 10
101.227240643096
 20
-158.0010362018192
 30
0.0
 10
101.2293077003871
 20
-158.0368651948658
 30
0.0
 10
101.2334418149694
 20
-158.0644259587478
 30
0.0
 10
101.2334418149694
 20
-158.0644259587478
 30
0.0
 10
101.0387939200528
 20
-158.0644259587478
 30
0.0
 10
101.0387939200528
 20
-158.0644259587478
 30
0.0
 10
101.0453396014748
 20
-158.0261853988615
 30
0.0
 10
101.0474066587659
 20
-157.9841552339415
 30
0.0
 10
101.0474066587659
 20
-157.9776095525195
 30
0.0
 10
101.0474066587659
 20
-157.9121527382997
 30
0.0
 10
101.0260470667574
 20
-157.7133707288008
 30
0.0
 10
100.7893690069207
 20
-157.7133707288008
 30
0.0
 10
100.6116020798818
 20
-157.7133707288008
 30
0.0
 10
100.5564805521178
 20
-157.8442843572403
 30
0.0
 10
100.5564805521178
 20
-157.9545274127683
 30
0.0
 10
100.5564805521178
 20
-158.218766236487
 30
0.0
 10
100.7893690069207
 20
-158.2273789752001
 30
0.0
 10
100.8610269930139
 20
-158.2315130897824
 30
0.0
 10
100.8610269930139
 20
-158.2315130897824
 30
0.0
 10
100.8610269930139
 20
-158.4347737234121
 30
0.0
 10
100.8610269930139
 20
-158.4347737234121
 30
0.0
 10
100.7363145364479
 20
-158.426160984699
 30
0.0
 10
100.3597655999101
 20
-158.398600220817
 30
0.0
 10
100.3597655999101
 20
-157.9417805594729
 30
0.0
 10
100.3597655999101
 20
-157.7175048433831
 30
0.0
 10
100.4868896233158
 20
-157.4763481594156
 30
0.0
 10
100.7828233254987
 20
-157.4763481594156
 30
0.0
 10
100.9692029912508
 20
-157.4763481594156
 30
0.0
 10
101.0515407733482
 20
-157.5714327948085
 30
0.0
 10
101.1128634729857
 20
-157.6709960543322
 30
0.0
 10
101.1404242368677
 20
-157.6096733546948
 30
0.0
 10
101.220694961674
 20
-157.4277723130736
 30
0.0
 10
101.4980251482366
 20
-157.4277723130736
 30
0.0
 10
101.8363335248881
 20
-157.4277723130736
 30
0.0
 10
102.0034206559228
 20
-157.6751301689146
 30
0.0
 10
102.0034206559228
 20
-157.9521158459286
 30
0.0
  0
HATCH
  5
124
330
11F
100
AcDbEntity
  8
_U+30EC_U+30A4_U+30E4_U+30FC 1
 62
   179
420
  2234388
100
AcDbHatch
 10
0.0
 20
0.0
 30
0.0
210
0.0
220
0.0
230
1.0
  2
SOLID
 70
     1
 71
     0
 91
        1
 92
        1
 93
        1
 72
     4
 94
        3
 73
     0
 74
     1
 95
       62
 96
       58
 40
0.0
 40
0.0
 40
0.0
 40
0.0
 40
1.0
 40
1.0
 40
1.0
 40
2.0
 40
2.0
 40
2.0
 40
3.0
 40
3.0
 40
3.0
 40
4.0
 40
4.0
 40
4.0
 40
5.0
 40
5.0
 40
5.0
 40
6.0
 40
6.0
 40
6.0
 40
7.0
 40
7.0
 40
7.0
 40
8.0
 40
8.0
 40
8.0
 40
9.0
 40
9.0
 40
9.0
 40
10.0
 40
10.0
 40
10.0
 40
11.0
 40
11.0
 40
11.0
 40
12.0
 40
12.0
 40
12.0
 40
13.0
 40
13.0
 40
13.0
 40
14.0
 40
14.0
 40
14.0
 40
15.0
 40
15.0
 40
15.0
 40
16.0
 40
16.0
 40
16.0
 40
17.0
 40
17.0
 40
17.0
 40
18.0
 40
18.0
 40
18.0
 40
19.0
 40
19.0
 40
19.0
 40
19.0
 10
102.0034206559228
 20
-157.9521158459286
 10
102.0034206559228
 20
-158.0475449908701
 10
101.9824055734627
 20
-158.2652750255378
 10
101.7963704172592
 20
-158.3903319916524
 10
101.6840603044401
 20
-158.4640570350368
 10
101.5848415544649
 20
-158.4685356591676
 10
101.5000922055278
 20
-158.4726697737499
 10
101.5000922055278
 20
-158.4726697737499
 10
101.5000922055278
 20
-158.2525281722424
 10
101.5000922055278
 20
-158.2525281722424
 10
101.5741617584606
 20
-158.2504611149513
 10
101.8087727610061
 20
-158.2401258284955
 10
101.8087727610061
 20
-157.9565944700595
 10
101.8087727610061
 20
-157.819135160198
 10
101.7391818322041
 20
-157.6665174302014
 10
101.510772001532
 20
-157.6665174302014
 10
101.3943277741306
 20
-157.6665174302014
 10
101.3457519277886
 20
-157.7047579900877
 10
101.3140570493243
 20
-157.736452868552
 10
101.2399874963914
 20
-157.8105224214849
 10
101.227240643096
 20
-157.9269666488863
 10
101.227240643096
 20
-157.9817436671018
 10
101.227240643096
 20
-158.0010362018192
 10
101.2293077003871
 20
-158.0368651948658
 10
101.2334418149694
 20
-158.0644259587478
 10
101.2334418149694
 20
-158.0644259587478
 10
101.0387939200528
 20
-158.0644259587478
 10
101.0387939200528
 20
-158.0644259587478
 10
101.0453396014748
 20
-158.0261853988615
 10
101.0474066587659
 20
-157.9841552339415
 10
101.0474066587659
 20
-157.9776095525195
 10
101.0474066587659
 20
-157.9121527382997
 10
101.0260470667574
 20
-157.7133707288008
 10
100.7893690069207
 20
-157.7133707288008
 10
100.6116020798818
 20
-157.7133707288008
 10
100.5564805521178
 20
-157.8442843572403
 10
100.5564805521178
 20
-157.9545274127683
 10
100.5564805521178
 20
-158.218766236487
 10
100.7893690069207
 20
-158.2273789752001
 10
100.8610269930139
 20
-158.2315130897824
 10
100.8610269930139
 20
-158.2315130897824
 10
100.8610269930139
 20
-158.4347737234121
 10
100.8610269930139
 20
-158.4347737234121
 10
100.7363145364479
 20
-158.426160984699
 10
100.3597655999101
 20
-158.398600220817
 10
100.3597655999101
 20
-157.9417805594729
 10
100.3597655999101
 20
-157.7175048433831
 10
100.4868896233158
 20
-157.4763481594156
 10
100.7828233254987
 20
-157.4763481594156
 10
100.9692029912508
 20
-157.4763481594156
 10
101.0515407733482
 20
-157.5714327948085
 10
101.1128634729857
 20
-157.6709960543322
 10
101.1404242368677
 20
-157.6096733546948
 10
101.220694961674
 20
-157.4277723130736
 10
101.4980251482366
 20
-157.4277723130736
 10
101.8363335248881
 20
-157.4277723130736
 10
102.0034206559228
 20
-157.6751301689146
 10
102.0034206559228
 20
-157.9521158459286
 97
        0
 97
        0
 75
     2
 76
     1
 98
        0
  0
ENDBLK
  5
122
330
11F
100
AcDbEntity
  8
0
100
AcDbBlockEnd
  0
BLOCK
  5
127
330
125
100
AcDbEntity
  8
0
100
AcDbBlockBegin
  2
block 6
 70
     0
 10
0.0
 20
0.0
 30
0.0
  3
block 6
  1

  0
SPLINE
  5
129
330
125
100
AcDbEntity
  8
_U+30EC_U+30A4_U+30E4_U+30FC 1
370
     0
100
AcDbSpline
210
0.0
220
0.0
230
1.0
 70
    11
 71
     3
 72
    26
 73
    22
 74
     0
 42
0.0000000001
 43
0.0000000001
 12
1.0
 22
0.0
 32
0.0
 13
1.0
 23
0.0
 33
0.0
 40
0.0
 40
0.0
 40
0.0
 40
0.0
 40
1.0
 40
1.0
 40
1.0
 40
2.0
 40
2.0
 40
2.0
 40
3.0
 40
3.0
 40
3.0
 40
4.0
 40
4.0
 40
4.0
 40
5.0
 40
5.0
 40
5.0
 40
6.0
 40
6.0
 40
6.0
 40
7.0
 40
7.0
 40
7.0
 40
7.0
 10
81.09995928962084
 20
-153.5813232037922
 30
0.0
 10
81.09995928962084
 20
-153.5813232037922
 30
0.0
 10
79.99580618659827
 20
-153.5813232037922
 30
0.0
 10
79.99580618659827
 20
-153.5813232037922
 30
0.0
 10
79.99580618659827
 20
-153.5813232037922
 30
0.0
 10
79.99580618659827
 20
-153.9113633512791
 30
0.0
 10
79.99580618659827
 20
-153.9113633512791
 30
0.0
 10
79.99580618659827
 20
-153.9113633512791
 30
0.0
 10
79.84766708073253
 20
-153.9113633512791
 30
0.0
 10
79.84766708073253
 20
-153.9113633512791
 30
0.0
 10
79.83285317014595
 20
-153.579256146501
 30
0.0
 10
79.66990015369365
 20
-153.5327473574501
 30
0.0
 10
79.55552298358334
 20
-153.503119536277
 30
0.0
 10
79.55552298358334
 20
-153.503119536277
 30
0.0
 10
79.55552298358334
 20
-153.3570474877024
 30
0.0
 10
79.55552298358334
 20
-153.3570474877024
 30
0.0
 10
79.55552298358334
 20
-153.3570474877024
 30
0.0
 10
81.09995928962084
 20
-153.3570474877024
 30
0.0
 10
81.09995928962084
 20
-153.3570474877024
 30
0.0
 10
81.09995928962084
 20
-153.3570474877024
 30
0.0
 10
81.09995928962084
 20
-153.5813232037922
 30
0.0
 10
81.09995928962084
 20
-153.5813232037922
 30
0.0
  0
HATCH
  5
12A
330
125
100
AcDbEntity
  8
_U+30EC_U+30A4_U+30E4_U+30FC 1
 62
   179
420
  2234388
100
AcDbHatch
 10
0.0
 20
0.0
 30
0.0
210
0.0
220
0.0
230
1.0
  2
SOLID
 70
     1
 71
     0
 91
        1
 92
        1
 93
        1
 72
     4
 94
        3
 73
     0
 74
     1
 95
       26
 96
       22
 40
0.0
 40
0.0
 40
0.0
 40
0.0
 40
1.0
 40
1.0
 40
1.0
 40
2.0
 40
2.0
 40
2.0
 40
3.0
 40
3.0
 40
3.0
 40
4.0
 40
4.0
 40
4.0
 40
5.0
 40
5.0
 40
5.0
 40
6.0
 40
6.0
 40
6.0
 40
7.0
 40
7.0
 40
7.0
 40
7.0
 10
81.09995928962084
 20
-153.5813232037922
 10
81.09995928962084
 20
-153.5813232037922
 10
79.99580618659827
 20
-153.5813232037922
 10
79.99580618659827
 20
-153.5813232037922
 10
79.99580618659827
 20
-153.5813232037922
 10
79.99580618659827
 20
-153.9113633512791
 10
79.99580618659827
 20
-153.9113633512791
 10
79.99580618659827
 20
-153.9113633512791
 10
79.84766708073253
 20
-153.9113633512791
 10
79.84766708073253
 20
-153.9113633512791
 10
79.83285317014595
 20
-153.579256146501
 10
79.66990015369365
 20
-153.5327473574501
 10
79.55552298358334
 20
-153.503119536277
 10
79.55552298358334
 20
-153.503119536277
 10
79.55552298358334
 20
-153.3570474877024
 10
79.55552298358334
 20
-153.3570474877024
 10
79.55552298358334
 20
-153.3570474877024
 10
81.09995928962084
 20
-153.3570474877024
 10
81.09995928962084
 20
-153.3570474877024
 10
81.09995928962084
 20
-153.3570474877024
 10
81.09995928962084
 20
-153.5813232037922
 10
81.09995928962084
 20
-153.5813232037922
 97
        0
 97
        0
 75
     2
 76
     1
 98
        0
  0
SPLINE
  5
12B
330
125
100
AcDbEntity
  8
_U+30EC_U+30A4_U+30E4_U+30FC 1
370
     0
100
AcDbSpline
210
0.0
220
0.0
230
1.0
 70
    11
 71
     3
 72
    62
 73
    58
 74
     0
 42
0.0000000001
 43
0.0000000001
 12
1.0
 22
0.0
 32
0.0
 13
1.0
 23
0.0
 33
0.0
 40
0.0
 40
0.0
 40
0.0
 40
0.0
 40
1.0
 40
1.0
 40
1.0
 40
2.0
 40
2.0
 40
2.0
 40
3.0
 40
3.0
 40
3.0
 40
4.0
 40
4.0
 40
4.0
 40
5.0
 40
5.0
 40
5.0
 40
6.0
 40
6.0
 40
6.0
 40
7.0
 40
7.0
 40
7.0
 40
8.0
 40
8.0
 40
8.0
 40
9.0
 40
9.0
 40
9.0
 40
10.0
 40
10.0
 40
10.0
 40
11.0
 40
11.0
 40
11.0
 40
12.0
 40
12.0
 40
12.0
 40
13.0
 40
13.0
 40
13.0
 40
14.0
 40
14.0
 40
14.0
 40
15.0
 40
15.0
 40
15.0
 40
16.0
 40
16.0
 40
16.0
 40
17.0
 40
17.0
 40
17.0
 40
18.0
 40
18.0
 40
18.0
 40
19.0
 40
19.0
 40
19.0
 40
19.0
 10
81.15060219325402
 20
-152.3641709688534
 30
0.0
 10
81.15060219325402
 20
-152.4596001137948
 30
0.0
 10
81.12958711079399
 20
-152.6773301484626
 30
0.0
 10
80.9435519545905
 20
-152.8023871145772
 30
0.0
 10
80.83124184177136
 20
-152.8761121579615
 30
0.0
 10
80.73202309179617
 20
-152.8805907820924
 30
0.0
 10
80.64727374285901
 20
-152.8847248966747
 30
0.0
 10
80.64727374285901
 20
-152.8847248966747
 30
0.0
 10
80.64727374285901
 20
-152.6645832951672
 30
0.0
 10
80.64727374285901
 20
-152.6645832951672
 30
0.0
 10
80.7213432957919
 20
-152.662516237876
 30
0.0
 10
80.9559542983374
 20
-152.6521809514203
 30
0.0
 10
80.9559542983374
 20
-152.3686495929842
 30
0.0
 10
80.9559542983374
 20
-152.2311902831228
 30
0.0
 10
80.88636336953536
 20
-152.0785725531262
 30
0.0
 10
80.6579535388633
 20
-152.0785725531262
 30
0.0
 10
80.54150931146185
 20
-152.0785725531262
 30
0.0
 10
80.49293346511982
 20
-152.1168131130125
 30
0.0
 10
80.46123858665553
 20
-152.1485079914768
 30
0.0
 10
80.38716903372266
 20
-152.2225775444096
 30
0.0
 10
80.37442218042723
 20
-152.3390217718111
 30
0.0
 10
80.37442218042723
 20
-152.3937987900266
 30
0.0
 10
80.37442218042723
 20
-152.413091324744
 30
0.0
 10
80.37648923771839
 20
-152.4489203177906
 30
0.0
 10
80.38062335230069
 20
-152.4764810816725
 30
0.0
 10
80.38062335230069
 20
-152.4764810816725
 30
0.0
 10
80.18597545738406
 20
-152.4764810816725
 30
0.0
 10
80.18597545738406
 20
-152.4764810816725
 30
0.0
 10
80.19252113880604
 20
-152.4382405217863
 30
0.0
 10
80.19458819609719
 20
-152.3962103568662
 30
0.0
 10
80.19458819609719
 20
-152.3896646754443
 30
0.0
 10
80.19458819609719
 20
-152.3242078612245
 30
0.0
 10
80.17322860408864
 20
-152.1254258517256
 30
0.0
 10
79.93655054425197
 20
-152.1254258517256
 30
0.0
 10
79.75878361721308
 20
-152.1254258517256
 30
0.0
 10
79.70366208944908
 20
-152.2563394801651
 30
0.0
 10
79.70366208944908
 20
-152.3665825356931
 30
0.0
 10
79.70366208944908
 20
-152.6308213594118
 30
0.0
 10
79.93655054425197
 20
-152.6394340981249
 30
0.0
 10
80.00820853034517
 20
-152.6435682127072
 30
0.0
 10
80.00820853034517
 20
-152.6435682127072
 30
0.0
 10
80.00820853034517
 20
-152.8468288463369
 30
0.0
 10
80.00820853034517
 20
-152.8468288463369
 30
0.0
 10
79.88349607377913
 20
-152.8382161076238
 30
0.0
 10
79.50694713724133
 20
-152.8106553437418
 30
0.0
 10
79.50694713724133
 20
-152.3538356823977
 30
0.0
 10
79.50694713724133
 20
-152.1295599663079
 30
0.0
 10
79.63407116064704
 20
-151.8884032823404
 30
0.0
 10
79.93000486283
 20
-151.8884032823404
 30
0.0
 10
80.11638452858202
 20
-151.8884032823404
 30
0.0
 10
80.19872231067949
 20
-151.9834879177333
 30
0.0
 10
80.26004501031694
 20
-152.083051177257
 30
0.0
 10
80.28760577419894
 20
-152.0217284776196
 30
0.0
 10
80.36787649900526
 20
-151.8398274359984
 30
0.0
 10
80.64520668556787
 20
-151.8398274359984
 30
0.0
 10
80.9835150622194
 20
-151.8398274359984
 30
0.0
 10
81.15060219325402
 20
-152.0871852918393
 30
0.0
 10
81.15060219325402
 20
-152.3641709688534
 30
0.0
  0
HATCH
  5
12C
330
125
100
AcDbEntity
  8
_U+30EC_U+30A4_U+30E4_U+30FC 1
 62
   179
420
  2234388
100
AcDbHatch
 10
0.0
 20
0.0
 30
0.0
210
0.0
220
0.0
230
1.0
  2
SOLID
 70
     1
 71
     0
 91
        1
 92
        1
 93
        1
 72
     4
 94
        3
 73
     0
 74
     1
 95
       62
 96
       58
 40
0.0
 40
0.0
 40
0.0
 40
0.0
 40
1.0
 40
1.0
 40
1.0
 40
2.0
 40
2.0
 40
2.0
 40
3.0
 40
3.0
 40
3.0
 40
4.0
 40
4.0
 40
4.0
 40
5.0
 40
5.0
 40
5.0
 40
6.0
 40
6.0
 40
6.0
 40
7.0
 40
7.0
 40
7.0
 40
8.0
 40
8.0
 40
8.0
 40
9.0
 40
9.0
 40
9.0
 40
10.0
 40
10.0
 40
10.0
 40
11.0
 40
11.0
 40
11.0
 40
12.0
 40
12.0
 40
12.0
 40
13.0
 40
13.0
 40
13.0
 40
14.0
 40
14.0
 40
14.0
 40
15.0
 40
15.0
 40
15.0
 40
16.0
 40
16.0
 40
16.0
 40
17.0
 40
17.0
 40
17.0
 40
18.0
 40
18.0
 40
18.0
 40
19.0
 40
19.0
 40
19.0
 40
19.0
 10
81.15060219325402
 20
-152.3641709688534
 10
81.15060219325402
 20
-152.4596001137948
 10
81.12958711079399
 20
-152.6773301484626
 10
80.9435519545905
 20
-152.8023871145772
 10
80.83124184177136
 20
-152.8761121579615
 10
80.73202309179617
 20
-152.8805907820924
 10
80.64727374285901
 20
-152.8847248966747
 10
80.64727374285901
 20
-152.8847248966747
 10
80.64727374285901
 20
-152.6645832951672
 10
80.64727374285901
 20
-152.6645832951672
 10
80.7213432957919
 20
-152.662516237876
 10
80.9559542983374
 20
-152.6521809514203
 10
80.9559542983374
 20
-152.3686495929842
 10
80.9559542983374
 20
-152.2311902831228
 10
80.88636336953536
 20
-152.0785725531262
 10
80.6579535388633
 20
-152.0785725531262
 10
80.54150931146185
 20
-152.0785725531262
 10
80.49293346511982
 20
-152.1168131130125
 10
80.46123858665553
 20
-152.1485079914768
 10
80.38716903372266
 20
-152.2225775444096
 10
80.37442218042723
 20
-152.3390217718111
 10
80.37442218042723
 20
-152.3937987900266
 10
80.37442218042723
 20
-152.413091324744
 10
80.37648923771839
 20
-152.4489203177906
 10
80.38062335230069
 20
-152.4764810816725
 10
80.38062335230069
 20
-152.4764810816725
 10
80.18597545738406
 20
-152.4764810816725
 10
80.18597545738406
 20
-152.4764810816725
 10
80.19252113880604
 20
-152.4382405217863
 10
80.19458819609719
 20
-152.3962103568662
 10
80.19458819609719
 20
-152.3896646754443
 10
80.19458819609719
 20
-152.3242078612245
 10
80.17322860408864
 20
-152.1254258517256
 10
79.93655054425197
 20
-152.1254258517256
 10
79.75878361721308
 20
-152.1254258517256
 10
79.70366208944908
 20
-152.2563394801651
 10
79.70366208944908
 20
-152.3665825356931
 10
79.70366208944908
 20
-152.6308213594118
 10
79.93655054425197
 20
-152.6394340981249
 10
80.00820853034517
 20
-152.6435682127072
 10
80.00820853034517
 20
-152.6435682127072
 10
80.00820853034517
 20
-152.8468288463369
 10
80.00820853034517
 20
-152.8468288463369
 10
79.88349607377913
 20
-152.8382161076238
 10
79.50694713724133
 20
-152.8106553437418
 10
79.50694713724133
 20
-152.3538356823977
 10
79.50694713724133
 20
-152.1295599663079
 10
79.63407116064704
 20
-151.8884032823404
 10
79.93000486283
 20
-151.8884032823404
 10
80.11638452858202
 20
-151.8884032823404
 10
80.19872231067949
 20
-151.9834879177333
 10
80.26004501031694
 20
-152.083051177257
 10
80.28760577419894
 20
-152.0217284776196
 10
80.36787649900526
 20
-151.8398274359984
 10
80.64520668556787
 20
-151.8398274359984
 10
80.9835150622194
 20
-151.8398274359984
 10
81.15060219325402
 20
-152.0871852918393
 10
81.15060219325402
 20
-152.3641709688534
 97
        0
 97
        0
 75
     2
 76
     1
 98
        0
  0
ENDBLK
  5
128
330
125
100
AcDbEntity
  8
0
100
AcDbBlockEnd
  0
BLOCK
  5
12F
330
12D
100
AcDbEntity
  8
0
100
AcDbBlockBegin
  2
block 7
 70
     0
 10
0.0
 20
0.0
 30
0.0
  3
block 7
  1

  0
SPLINE
  5
131
330
12D
100
AcDbEntity
  8
_U+30EC_U+30A4_U+30E4_U+30FC 1
370
     0
100
AcDbSpline
210
0.0
220
0.0
230
1.0
 70
    11
 71
     3
 72
    62
 73
    58
 74
     0
 42
0.0000000001
 43
0.0000000001
 12
1.0
 22
0.0
 32
0.0
 13
1.0
 23
0.0
 33
0.0
 40
0.0
 40
0.0
 40
0.0
 40
0.0
 40
1.0
 40
1.0
 40
1.0
 40
2.0
 40
2.0
 40
2.0
 40
3.0
 40
3.0
 40
3.0
 40
4.0
 40
4.0
 40
4.0
 40
5.0
 40
5.0
 40
5.0
 40
6.0
 40
6.0
 40
6.0
 40
7.0
 40
7.0
 40
7.0
 40
8.0
 40
8.0
 40
8.0
 40
9.0
 40
9.0
 40
9.0
 40
10.0
 40
10.0
 40
10.0
 40
11.0
 40
11.0
 40
11.0
 40
12.0
 40
12.0
 40
12.0
 40
13.0
 40
13.0
 40
13.0
 40
14.0
 40
14.0
 40
14.0
 40
15.0
 40
15.0
 40
15.0
 40
16.0
 40
16.0
 40
16.0
 40
17.0
 40
17.0
 40
17.0
 40
18.0
 40
18.0
 40
18.0
 40
19.0
 40
19.0
 40
19.0
 40
19.0
 10
87.2425645398213
 20
-142.2014837969149
 30
0.0
 10
87.14713539487988
 20
-142.2014837969149
 30
0.0
 10
86.9294053602121
 20
-142.1804687144549
 30
0.0
 10
86.80434839409753
 20
-141.9940890487029
 30
0.0
 10
86.73027884116466
 20
-141.8821234454323
 30
0.0
 10
86.72614472658236
 20
-141.7825601859085
 30
0.0
 10
86.72201061200006
 20
-141.6981553465199
 30
0.0
 10
86.72201061200006
 20
-141.6981553465199
 30
0.0
 10
86.94215221350753
 20
-141.6981553465199
 30
0.0
 10
86.94215221350753
 20
-141.6981553465199
 30
0.0
 10
86.94421927079867
 20
-141.7722248994528
 30
0.0
 10
86.95455455725443
 20
-142.0068359019983
 30
0.0
 10
87.23808591569048
 20
-142.0068359019983
 30
0.0
 10
87.37554522555195
 20
-142.0068359019983
 30
0.0
 10
87.52816295554852
 20
-141.9372449731962
 30
0.0
 10
87.52816295554852
 20
-141.7084906329757
 30
0.0
 10
87.52816295554852
 20
-141.5923909151227
 30
0.0
 10
87.48992239566225
 20
-141.5434705592322
 30
0.0
 10
87.45822751719794
 20
-141.5117756807679
 30
0.0
 10
87.38415796426507
 20
-141.437706127835
 30
0.0
 10
87.26771373686363
 20
-141.4253037840881
 30
0.0
 10
87.21293671864815
 20
-141.4253037840881
 30
0.0
 10
87.19364418393076
 20
-141.4253037840881
 30
0.0
 10
87.15781519088416
 20
-141.4273708413793
 30
0.0
 10
87.13025442700216
 20
-141.4315049559616
 30
0.0
 10
87.13025442700216
 20
-141.4315049559616
 30
0.0
 10
87.13025442700216
 20
-141.236857061045
 30
0.0
 10
87.13025442700216
 20
-141.236857061045
 30
0.0
 10
87.16849498688843
 20
-141.2430582329184
 30
0.0
 10
87.21052515180848
 20
-141.2454697997581
 30
0.0
 10
87.21707083323045
 20
-141.2454697997581
 30
0.0
 10
87.28252764745021
 20
-141.2454697997581
 30
0.0
 10
87.48130965694912
 20
-141.2241102077495
 30
0.0
 10
87.48130965694912
 20
-140.9870876383644
 30
0.0
 10
87.48130965694912
 20
-140.809665220874
 30
0.0
 10
87.35039602850962
 20
-140.75454369311
 30
0.0
 10
87.24015297298163
 20
-140.75454369311
 30
0.0
 10
86.97591414926298
 20
-140.75454369311
 30
0.0
 10
86.96730141054985
 20
-140.9870876383644
 30
0.0
 10
86.96316729596755
 20
-141.0590901340061
 30
0.0
 10
86.96316729596755
 20
-141.0590901340061
 30
0.0
 10
86.75990666233781
 20
-141.0590901340061
 30
0.0
 10
86.75990666233781
 20
-141.0590901340061
 30
0.0
 10
86.76851940105092
 20
-140.93437767744
 30
0.0
 10
86.79608016493293
 20
-140.5578287409022
 30
0.0
 10
87.25289982627706
 20
-140.5578287409022
 30
0.0
 10
87.47717554236682
 20
-140.5578287409022
 30
0.0
 10
87.71833222633431
 20
-140.6846082547594
 30
0.0
 10
87.71833222633431
 20
-140.9808864664909
 30
0.0
 10
87.71833222633431
 20
-141.1669216226944
 30
0.0
 10
87.62324759094142
 20
-141.2496039143404
 30
0.0
 10
87.5236843314177
 20
-141.3109266139778
 30
0.0
 10
87.58500703105514
 20
-141.3384873778598
 30
0.0
 10
87.76690807267633
 20
-141.4187581026661
 30
0.0
 10
87.76690807267633
 20
-141.6960882892288
 30
0.0
 10
87.76690807267633
 20
-142.0343966658803
 30
0.0
 10
87.5195502168354
 20
-142.2014837969149
 30
0.0
 10
87.2425645398213
 20
-142.2014837969149
 30
0.0
  0
HATCH
  5
132
330
12D
100
AcDbEntity
  8
_U+30EC_U+30A4_U+30E4_U+30FC 1
 62
   179
420
  2234388
100
AcDbHatch
 10
0.0
 20
0.0
 30
0.0
210
0.0
220
0.0
230
1.0
  2
SOLID
 70
     1
 71
     0
 91
        1
 92
        1
 93
        1
 72
     4
 94
        3
 73
     0
 74
     1
 95
       62
 96
       58
 40
0.0
 40
0.0
 40
0.0
 40
0.0
 40
1.0
 40
1.0
 40
1.0
 40
2.0
 40
2.0
 40
2.0
 40
3.0
 40
3.0
 40
3.0
 40
4.0
 40
4.0
 40
4.0
 40
5.0
 40
5.0
 40
5.0
 40
6.0
 40
6.0
 40
6.0
 40
7.0
 40
7.0
 40
7.0
 40
8.0
 40
8.0
 40
8.0
 40
9.0
 40
9.0
 40
9.0
 40
10.0
 40
10.0
 40
10.0
 40
11.0
 40
11.0
 40
11.0
 40
12.0
 40
12.0
 40
12.0
 40
13.0
 40
13.0
 40
13.0
 40
14.0
 40
14.0
 40
14.0
 40
15.0
 40
15.0
 40
15.0
 40
16.0
 40
16.0
 40
16.0
 40
17.0
 40
17.0
 40
17.0
 40
18.0
 40
18.0
 40
18.0
 40
19.0
 40
19.0
 40
19.0
 40
19.0
 10
87.2425645398213
 20
-142.2014837969149
 10
87.14713539487988
 20
-142.2014837969149
 10
86.9294053602121
 20
-142.1804687144549
 10
86.80434839409753
 20
-141.9940890487029
 10
86.73027884116466
 20
-141.8821234454323
 10
86.72614472658236
 20
-141.7825601859085
 10
86.72201061200006
 20
-141.6981553465199
 10
86.72201061200006
 20
-141.6981553465199
 10
86.94215221350753
 20
-141.6981553465199
 10
86.94215221350753
 20
-141.6981553465199
 10
86.94421927079867
 20
-141.7722248994528
 10
86.95455455725443
 20
-142.0068359019983
 10
87.23808591569048
 20
-142.0068359019983
 10
87.37554522555195
 20
-142.0068359019983
 10
87.52816295554852
 20
-141.9372449731962
 10
87.52816295554852
 20
-141.7084906329757
 10
87.52816295554852
 20
-141.5923909151227
 10
87.48992239566225
 20
-141.5434705592322
 10
87.45822751719794
 20
-141.5117756807679
 10
87.38415796426507
 20
-141.437706127835
 10
87.26771373686363
 20
-141.4253037840881
 10
87.21293671864815
 20
-141.4253037840881
 10
87.19364418393076
 20
-141.4253037840881
 10
87.15781519088416
 20
-141.4273708413793
 10
87.13025442700216
 20
-141.4315049559616
 10
87.13025442700216
 20
-141.4315049559616
 10
87.13025442700216
 20
-141.236857061045
 10
87.13025442700216
 20
-141.236857061045
 10
87.16849498688843
 20
-141.2430582329184
 10
87.21052515180848
 20
-141.2454697997581
 10
87.21707083323045
 20
-141.2454697997581
 10
87.28252764745021
 20
-141.2454697997581
 10
87.48130965694912
 20
-141.2241102077495
 10
87.48130965694912
 20
-140.9870876383644
 10
87.48130965694912
 20
-140.809665220874
 10
87.35039602850962
 20
-140.75454369311
 10
87.24015297298163
 20
-140.75454369311
 10
86.97591414926298
 20
-140.75454369311
 10
86.96730141054985
 20
-140.9870876383644
 10
86.96316729596755
 20
-141.0590901340061
 10
86.96316729596755
 20
-141.0590901340061
 10
86.75990666233781
 20
-141.0590901340061
 10
86.75990666233781
 20
-141.0590901340061
 10
86.76851940105092
 20
-140.93437767744
 10
86.79608016493293
 20
-140.5578287409022
 10
87.25289982627706
 20
-140.5578287409022
 10
87.47717554236682
 20
-140.5578287409022
 10
87.71833222633431
 20
-140.6846082547594
 10
87.71833222633431
 20
-140.9808864664909
 10
87.71833222633431
 20
-141.1669216226944
 10
87.62324759094142
 20
-141.2496039143404
 10
87.5236843314177
 20
-141.3109266139778
 10
87.58500703105514
 20
-141.3384873778598
 10
87.76690807267633
 20
-141.4187581026661
 10
87.76690807267633
 20
-141.6960882892288
 10
87.76690807267633
 20
-142.0343966658803
 10
87.5195502168354
 20
-142.2014837969149
 10
87.2425645398213
 20
-142.2014837969149
 97
        0
 97
        0
 75
     2
 76
     1
 98
        0
  0
ENDBLK
  5
130
330
12D
100
AcDbEntity
  8
0
100
AcDbBlockEnd
  0
BLOCK
  5
135
330
133
100
AcDbEntity
  8
0
100
AcDbBlockBegin
  2
block 8
 70
     0
 10
0.0
 20
0.0
 30
0.0
  3
block 8
  1

  0
SPLINE
  5
137
330
133
100
AcDbEntity
  8
_U+30EC_U+30A4_U+30E4_U+30FC 1
370
     0
100
AcDbSpline
210
0.0
220
0.0
230
1.0
 70
    11
 71
     3
 72
    53
 73
    49
 74
     0
 42
0.0000000001
 43
0.0000000001
 12
1.0
 22
0.0
 32
0.0
 13
1.0
 23
0.0
 33
0.0
 40
0.0
 40
0.0
 40
0.0
 40
0.0
 40
1.0
 40
1.0
 40
1.0
 40
2.0
 40
2.0
 40
2.0
 40
3.0
 40
3.0
 40
3.0
 40
4.0
 40
4.0
 40
4.0
 40
5.0
 40
5.0
 40
5.0
 40
6.0
 40
6.0
 40
6.0
 40
7.0
 40
7.0
 40
7.0
 40
8.0
 40
8.0
 40
8.0
 40
9.0
 40
9.0
 40
9.0
 40
10.0
 40
10.0
 40
10.0
 40
11.0
 40
11.0
 40
11.0
 40
12.0
 40
12.0
 40
12.0
 40
13.0
 40
13.0
 40
13.0
 40
14.0
 40
14.0
 40
14.0
 40
15.0
 40
15.0
 40
15.0
 40
16.0
 40
16.0
 40
16.0
 40
16.0
 10
90.61961938923746
 20
-142.2014837969149
 30
0.0
 10
90.54141572172229
 20
-142.2014837969149
 30
0.0
 10
90.43978540490743
 20
-142.1846028290372
 30
0.0
 10
90.33815508809255
 20
-142.1212130721086
 30
0.0
 10
90.16486678518449
 20
-142.0109700165806
 30
0.0
 10
90.14350719317594
 20
-141.8800563881411
 30
0.0
 10
90.12455916800705
 20
-141.7722248994528
 30
0.0
 10
90.12455916800705
 20
-141.7722248994528
 30
0.0
 10
90.34676782680567
 20
-141.7722248994528
 30
0.0
 10
90.34676782680567
 20
-141.7722248994528
 30
0.0
 10
90.40154484502115
 20
-141.9710069089517
 30
0.0
 10
90.52866886842686
 20
-142.0006347301249
 30
0.0
 10
90.62168644652861
 20
-142.0006347301249
 30
0.0
 10
90.76121281368123
 20
-142.0006347301249
 30
0.0
 10
90.91348603412928
 20
-141.9010714706011
 30
0.0
 10
90.91348603412928
 20
-141.6685275253468
 30
0.0
 10
90.91348603412928
 20
-141.4125569307927
 30
0.0
 10
90.73365204979923
 20
-141.3426214924421
 30
0.0
 10
90.61307370781549
 20
-141.3426214924421
 30
0.0
 10
90.58137882935118
 20
-141.3426214924421
 30
0.0
 10
90.43978540490743
 20
-141.3426214924421
 30
0.0
 10
90.35090194138797
 20
-141.471812573139
 30
0.0
 10
90.35090194138797
 20
-141.471812573139
 30
0.0
 10
90.17520207164023
 20
-141.4525200384216
 30
0.0
 10
90.17520207164023
 20
-141.4525200384216
 30
0.0
 10
90.17520207164023
 20
-141.4525200384216
 30
0.0
 10
90.29578041362397
 20
-140.6064045872442
 30
0.0
 10
90.29578041362397
 20
-140.6064045872442
 30
0.0
 10
90.29578041362397
 20
-140.6064045872442
 30
0.0
 10
91.07437199329044
 20
-140.6064045872442
 30
0.0
 10
91.07437199329044
 20
-140.6064045872442
 30
0.0
 10
91.07437199329044
 20
-140.6064045872442
 30
0.0
 10
91.07437199329044
 20
-140.8010524821609
 30
0.0
 10
91.07437199329044
 20
-140.8010524821609
 30
0.0
 10
91.07437199329044
 20
-140.8010524821609
 30
0.0
 10
90.4587334300763
 20
-140.8010524821609
 30
0.0
 10
90.4587334300763
 20
-140.8010524821609
 30
0.0
 10
90.4587334300763
 20
-140.8010524821609
 30
0.0
 10
90.39327661585655
 20
-141.2241102077495
 30
0.0
 10
90.39327661585655
 20
-141.2241102077495
 30
0.0
 10
90.454599315494
 20
-141.1903482719941
 30
0.0
 10
90.53693709759146
 20
-141.1500406548166
 30
0.0
 10
90.65544838228406
 20
-141.1500406548166
 30
0.0
 10
90.90935191954698
 20
-141.1500406548166
 30
0.0
 10
91.14637448893217
 20
-141.3364203205687
 30
0.0
 10
91.14637448893217
 20
-141.6492349906294
 30
0.0
 10
91.14637448893217
 20
-141.9668727943694
 30
0.0
 10
90.92209877284239
 20
-142.2014837969149
 30
0.0
 10
90.61961938923746
 20
-142.2014837969149
 30
0.0
  0
HATCH
  5
138
330
133
100
AcDbEntity
  8
_U+30EC_U+30A4_U+30E4_U+30FC 1
 62
   179
420
  2234388
100
AcDbHatch
 10
0.0
 20
0.0
 30
0.0
210
0.0
220
0.0
230
1.0
  2
SOLID
 70
     1
 71
     0
 91
        1
 92
        1
 93
        1
 72
     4
 94
        3
 73
     0
 74
     1
 95
       53
 96
       49
 40
0.0
 40
0.0
 40
0.0
 40
0.0
 40
1.0
 40
1.0
 40
1.0
 40
2.0
 40
2.0
 40
2.0
 40
3.0
 40
3.0
 40
3.0
 40
4.0
 40
4.0
 40
4.0
 40
5.0
 40
5.0
 40
5.0
 40
6.0
 40
6.0
 40
6.0
 40
7.0
 40
7.0
 40
7.0
 40
8.0
 40
8.0
 40
8.0
 40
9.0
 40
9.0
 40
9.0
 40
10.0
 40
10.0
 40
10.0
 40
11.0
 40
11.0
 40
11.0
 40
12.0
 40
12.0
 40
12.0
 40
13.0
 40
13.0
 40
13.0
 40
14.0
 40
14.0
 40
14.0
 40
15.0
 40
15.0
 40
15.0
 40
16.0
 40
16.0
 40
16.0
 40
16.0
 10
90.61961938923746
 20
-142.2014837969149
 10
90.54141572172229
 20
-142.2014837969149
 10
90.43978540490743
 20
-142.1846028290372
 10
90.33815508809255
 20
-142.1212130721086
 10
90.16486678518449
 20
-142.0109700165806
 10
90.14350719317594
 20
-141.8800563881411
 10
90.12455916800705
 20
-141.7722248994528
 10
90.12455916800705
 20
-141.7722248994528
 10
90.34676782680567
 20
-141.7722248994528
 10
90.34676782680567
 20
-141.7722248994528
 10
90.40154484502115
 20
-141.9710069089517
 10
90.52866886842686
 20
-142.0006347301249
 10
90.62168644652861
 20
-142.0006347301249
 10
90.76121281368123
 20
-142.0006347301249
 10
90.91348603412928
 20
-141.9010714706011
 10
90.91348603412928
 20
-141.6685275253468
 10
90.91348603412928
 20
-141.4125569307927
 10
90.73365204979923
 20
-141.3426214924421
 10
90.61307370781549
 20
-141.3426214924421
 10
90.58137882935118
 20
-141.3426214924421
 10
90.43978540490743
 20
-141.3426214924421
 10
90.35090194138797
 20
-141.471812573139
 10
90.35090194138797
 20
-141.471812573139
 10
90.17520207164023
 20
-141.4525200384216
 10
90.17520207164023
 20
-141.4525200384216
 10
90.17520207164023
 20
-141.4525200384216
 10
90.29578041362397
 20
-140.6064045872442
 10
90.29578041362397
 20
-140.6064045872442
 10
90.29578041362397
 20
-140.6064045872442
 10
91.07437199329044
 20
-140.6064045872442
 10
91.07437199329044
 20
-140.6064045872442
 10
91.07437199329044
 20
-140.6064045872442
 10
91.07437199329044
 20
-140.8010524821609
 10
91.07437199329044
 20
-140.8010524821609
 10
91.07437199329044
 20
-140.8010524821609
 10
90.4587334300763
 20
-140.8010524821609
 10
90.4587334300763
 20
-140.8010524821609
 10
90.4587334300763
 20
-140.8010524821609
 10
90.39327661585655
 20
-141.2241102077495
 10
90.39327661585655
 20
-141.2241102077495
 10
90.454599315494
 20
-141.1903482719941
 10
90.53693709759146
 20
-141.1500406548166
 10
90.65544838228406
 20
-141.1500406548166
 10
90.90935191954698
 20
-141.1500406548166
 10
91.14637448893217
 20
-141.3364203205687
 10
91.14637448893217
 20
-141.6492349906294
 10
91.14637448893217
 20
-141.9668727943694
 10
90.92209877284239
 20
-142.2014837969149
 10
90.61961938923746
 20
-142.2014837969149
 97
        0
 97
        0
 75
     2
 76
     1
 98
        0
  0
POLYLINE
  5
139
330
133
100
AcDbEntity
  8
_U+30EC_U+30A4_U+30E4_U+30FC 1
370
     0
100
AcDb2dPolyline
 66
     1
 10
0.0
 20
0.0
 30
0.0
  0
VERTEX
  5
13A
330
139
100
AcDbEntity
  8
_U+30EC_U+30A4_U+30E4_U+30FC 1
370
     0
100
AcDbVertex
100
AcDb2dVertex
 10
91.37564559347554
 20
-142.1508408932818
 30
0.0
  0
VERTEX
  5
13B
330
139
100
AcDbEntity
  8
_U+30EC_U+30A4_U+30E4_U+30FC 1
370
     0
100
AcDbVertex
100
AcDb2dVertex
 10
91.37564559347554
 20
-141.89900441331
 30
0.0
  0
VERTEX
  5
13C
330
139
100
AcDbEntity
  8
_U+30EC_U+30A4_U+30E4_U+30FC 1
370
     0
100
AcDbVertex
100
AcDb2dVertex
 10
91.6274820734473
 20
-141.89900441331
 30
0.0
  0
VERTEX
  5
13D
330
139
100
AcDbEntity
  8
_U+30EC_U+30A4_U+30E4_U+30FC 1
370
     0
100
AcDbVertex
100
AcDb2dVertex
 10
91.6274820734473
 20
-142.1508408932818
 30
0.0
  0
VERTEX
  5
13E
330
139
100
AcDbEntity
  8
_U+30EC_U+30A4_U+30E4_U+30FC 1
370
     0
100
AcDbVertex
100
AcDb2dVertex
 10
91.37564559347554
 20
-142.1508408932818
 30
0.0
  0
SEQEND
  5
13F
330
139
100
AcDbEntity
  8
_U+30EC_U+30A4_U+30E4_U+30FC 1
370
     0
  0
HATCH
  5
140
330
133
100
AcDbEntity
  8
_U+30EC_U+30A4_U+30E4_U+30FC 1
 62
   179
420
  2234388
100
AcDbHatch
 10
0.0
 20
0.0
 30
0.0
210
0.0
220
0.0
230
1.0
  2
SOLID
 70
     1
 71
     0
 91
        1
 92
        1
 93
        4
 72
     1
 10
91.37564559347554
 20
-142.1508408932818
 11
91.37564559347554
 21
-141.89900441331
 72
     1
 10
91.37564559347554
 20
-141.89900441331
 11
91.6274820734473
 21
-141.89900441331
 72
     1
 10
91.6274820734473
 20
-141.89900441331
 11
91.6274820734473
 21
-142.1508408932818
 72
     1
 10
91.6274820734473
 20
-142.1508408932818
 11
91.37564559347554
 21
-142.1508408932818
 97
        0
 75
     2
 76
     1
 98
        0
  0
SPLINE
  5
141
330
133
100
AcDbEntity
  8
_U+30EC_U+30A4_U+30E4_U+30FC 1
370
     0
100
AcDbSpline
210
0.0
220
0.0
230
1.0
 70
    11
 71
     3
 72
    53
 73
    49
 74
     0
 42
0.0000000001
 43
0.0000000001
 12
1.0
 22
0.0
 32
0.0
 13
1.0
 23
0.0
 33
0.0
 40
0.0
 40
0.0
 40
0.0
 40
0.0
 40
1.0
 40
1.0
 40
1.0
 40
2.0
 40
2.0
 40
2.0
 40
3.0
 40
3.0
 40
3.0
 40
4.0
 40
4.0
 40
4.0
 40
5.0
 40
5.0
 40
5.0
 40
6.0
 40
6.0
 40
6.0
 40
7.0
 40
7.0
 40
7.0
 40
8.0
 40
8.0
 40
8.0
 40
9.0
 40
9.0
 40
9.0
 40
10.0
 40
10.0
 40
10.0
 40
11.0
 40
11.0
 40
11.0
 40
12.0
 40
12.0
 40
12.0
 40
13.0
 40
13.0
 40
13.0
 40
14.0
 40
14.0
 40
14.0
 40
15.0
 40
15.0
 40
15.0
 40
16.0
 40
16.0
 40
16.0
 40
16.0
 10
92.34475095347632
 20
-142.2014837969149
 30
0.0
 10
92.26654728596114
 20
-142.2014837969149
 30
0.0
 10
92.16491696914628
 20
-142.1846028290372
 30
0.0
 10
92.0632866523314
 20
-142.1212130721086
 30
0.0
 10
91.88999834942334
 20
-142.0109700165806
 30
0.0
 10
91.86863875741479
 20
-141.8800563881411
 30
0.0
 10
91.84969073224592
 20
-141.7722248994528
 30
0.0
 10
91.84969073224592
 20
-141.7722248994528
 30
0.0
 10
92.07189939104452
 20
-141.7722248994528
 30
0.0
 10
92.07189939104452
 20
-141.7722248994528
 30
0.0
 10
92.12667640926
 20
-141.9710069089517
 30
0.0
 10
92.25380043266573
 20
-142.0006347301249
 30
0.0
 10
92.34681801076746
 20
-142.0006347301249
 30
0.0
 10
92.48634437792009
 20
-142.0006347301249
 30
0.0
 10
92.63861759836813
 20
-141.9010714706011
 30
0.0
 10
92.63861759836813
 20
-141.6685275253468
 30
0.0
 10
92.63861759836813
 20
-141.4125569307927
 30
0.0
 10
92.45878361403808
 20
-141.3426214924421
 30
0.0
 10
92.33820527205434
 20
-141.3426214924421
 30
0.0
 10
92.30651039359005
 20
-141.3426214924421
 30
0.0
 10
92.16491696914628
 20
-141.3426214924421
 30
0.0
 10
92.07603350562682
 20
-141.471812573139
 30
0.0
 10
92.07603350562682
 20
-141.471812573139
 30
0.0
 10
91.9003336358791
 20
-141.4525200384216
 30
0.0
 10
91.9003336358791
 20
-141.4525200384216
 30
0.0
 10
91.9003336358791
 20
-141.4525200384216
 30
0.0
 10
92.02091197786284
 20
-140.6064045872442
 30
0.0
 10
92.02091197786284
 20
-140.6064045872442
 30
0.0
 10
92.02091197786284
 20
-140.6064045872442
 30
0.0
 10
92.79950355752929
 20
-140.6064045872442
 30
0.0
 10
92.79950355752929
 20
-140.6064045872442
 30
0.0
 10
92.79950355752929
 20
-140.6064045872442
 30
0.0
 10
92.79950355752929
 20
-140.8010524821609
 30
0.0
 10
92.79950355752929
 20
-140.8010524821609
 30
0.0
 10
92.79950355752929
 20
-140.8010524821609
 30
0.0
 10
92.18386499431514
 20
-140.8010524821609
 30
0.0
 10
92.18386499431514
 20
-140.8010524821609
 30
0.0
 10
92.18386499431514
 20
-140.8010524821609
 30
0.0
 10
92.1184081800954
 20
-141.2241102077495
 30
0.0
 10
92.1184081800954
 20
-141.2241102077495
 30
0.0
 10
92.17973087973284
 20
-141.1903482719941
 30
0.0
 10
92.26206866183033
 20
-141.1500406548166
 30
0.0
 10
92.38057994652291
 20
-141.1500406548166
 30
0.0
 10
92.63448348378583
 20
-141.1500406548166
 30
0.0
 10
92.87150605317102
 20
-141.3364203205687
 30
0.0
 10
92.87150605317102
 20
-141.6492349906294
 30
0.0
 10
92.87150605317102
 20
-141.9668727943694
 30
0.0
 10
92.64723033708125
 20
-142.2014837969149
 30
0.0
 10
92.34475095347632
 20
-142.2014837969149
 30
0.0
  0
HATCH
  5
142
330
133
100
AcDbEntity
  8
_U+30EC_U+30A4_U+30E4_U+30FC 1
 62
   179
420
  2234388
100
AcDbHatch
 10
0.0
 20
0.0
 30
0.0
210
0.0
220
0.0
230
1.0
  2
SOLID
 70
     1
 71
     0
 91
        1
 92
        1
 93
        1
 72
     4
 94
        3
 73
     0
 74
     1
 95
       53
 96
       49
 40
0.0
 40
0.0
 40
0.0
 40
0.0
 40
1.0
 40
1.0
 40
1.0
 40
2.0
 40
2.0
 40
2.0
 40
3.0
 40
3.0
 40
3.0
 40
4.0
 40
4.0
 40
4.0
 40
5.0
 40
5.0
 40
5.0
 40
6.0
 40
6.0
 40
6.0
 40
7.0
 40
7.0
 40
7.0
 40
8.0
 40
8.0
 40
8.0
 40
9.0
 40
9.0
 40
9.0
 40
10.0
 40
10.0
 40
10.0
 40
11.0
 40
11.0
 40
11.0
 40
12.0
 40
12.0
 40
12.0
 40
13.0
 40
13.0
 40
13.0
 40
14.0
 40
14.0
 40
14.0
 40
15.0
 40
15.0
 40
15.0
 40
16.0
 40
16.0
 40
16.0
 40
16.0
 10
92.34475095347632
 20
-142.2014837969149
 10
92.26654728596114
 20
-142.2014837969149
 10
92.16491696914628
 20
-142.1846028290372
 10
92.0632866523314
 20
-142.1212130721086
 10
91.88999834942334
 20
-142.0109700165806
 10
91.86863875741479
 20
-141.8800563881411
 10
91.84969073224592
 20
-141.7722248994528
 10
91.84969073224592
 20
-141.7722248994528
 10
92.07189939104452
 20
-141.7722248994528
 10
92.07189939104452
 20
-141.7722248994528
 10
92.12667640926
 20
-141.9710069089517
 10
92.25380043266573
 20
-142.0006347301249
 10
92.34681801076746
 20
-142.0006347301249
 10
92.48634437792009
 20
-142.0006347301249
 10
92.63861759836813
 20
-141.9010714706011
 10
92.63861759836813
 20
-141.6685275253468
 10
92.63861759836813
 20
-141.4125569307927
 10
92.45878361403808
 20
-141.3426214924421
 10
92.33820527205434
 20
-141.3426214924421
 10
92.30651039359005
 20
-141.3426214924421
 10
92.16491696914628
 20
-141.3426214924421
 10
92.07603350562682
 20
-141.471812573139
 10
92.07603350562682
 20
-141.471812573139
 10
91.9003336358791
 20
-141.4525200384216
 10
91.9003336358791
 20
-141.4525200384216
 10
91.9003336358791
 20
-141.4525200384216
 10
92.02091197786284
 20
-140.6064045872442
 10
92.02091197786284
 20
-140.6064045872442
 10
92.02091197786284
 20
-140.6064045872442
 10
92.79950355752929
 20
-140.6064045872442
 10
92.79950355752929
 20
-140.6064045872442
 10
92.79950355752929
 20
-140.6064045872442
 10
92.79950355752929
 20
-140.8010524821609
 10
92.79950355752929
 20
-140.8010524821609
 10
92.79950355752929
 20
-140.8010524821609
 10
92.18386499431514
 20
-140.8010524821609
 10
92.18386499431514
 20
-140.8010524821609
 10
92.18386499431514
 20
-140.8010524821609
 10
92.1184081800954
 20
-141.2241102077495
 10
92.1184081800954
 20
-141.2241102077495
 10
92.17973087973284
 20
-141.1903482719941
 10
92.26206866183033
 20
-141.1500406548166
 10
92.38057994652291
 20
-141.1500406548166
 10
92.63448348378583
 20
-141.1500406548166
 10
92.87150605317102
 20
-141.3364203205687
 10
92.87150605317102
 20
-141.6492349906294
 10
92.87150605317102
 20
-141.9668727943694
 10
92.64723033708125
 20
-142.2014837969149
 10
92.34475095347632
 20
-142.2014837969149
 97
        0
 97
        0
 75
     2
 76
     1
 98
        0
  0
ENDBLK
  5
136
330
133
100
AcDbEntity
  8
0
100
AcDbBlockEnd
  0
BLOCK
  5
145
330
143
100
AcDbEntity
  8
0
100
AcDbBlockBegin
  2
block 9
 70
     0
 10
0.0
 20
0.0
 30
0.0
  3
block 9
  1

  0
SPLINE
  5
147
330
143
100
AcDbEntity
  8
_U+30EC_U+30A4_U+30E4_U+30FC 1
370
     0
100
AcDbSpline
210
0.0
220
0.0
230
1.0
 70
    11
 71
     3
 72
    26
 73
    22
 74
     0
 42
0.0000000001
 43
0.0000000001
 12
1.0
 22
0.0
 32
0.0
 13
1.0
 23
0.0
 33
0.0
 40
0.0
 40
0.0
 40
0.0
 40
0.0
 40
1.0
 40
1.0
 40
1.0
 40
2.0
 40
2.0
 40
2.0
 40
3.0
 40
3.0
 40
3.0
 40
4.0
 40
4.0
 40
4.0
 40
5.0
 40
5.0
 40
5.0
 40
6.0
 40
6.0
 40
6.0
 40
7.0
 40
7.0
 40
7.0
 40
7.0
 10
91.61370169150631
 20
-162.7986761745781
 30
0.0
 10
91.61370169150631
 20
-162.7986761745781
 30
0.0
 10
91.61370169150631
 20
-161.6945230715556
 30
0.0
 10
91.61370169150631
 20
-161.6945230715556
 30
0.0
 10
91.61370169150631
 20
-161.6945230715556
 30
0.0
 10
91.28383379879362
 20
-161.6945230715556
 30
0.0
 10
91.28383379879362
 20
-161.6945230715556
 30
0.0
 10
91.28383379879362
 20
-161.6945230715556
 30
0.0
 10
91.28383379879362
 20
-161.5463839656898
 30
0.0
 10
91.28383379879362
 20
-161.5463839656898
 30
0.0
 10
91.61576874879745
 20
-161.5315700551032
 30
0.0
 10
91.66227753784833
 20
-161.3686170386509
 30
0.0
 10
91.69190535902148
 20
-161.2542398685406
 30
0.0
 10
91.69190535902148
 20
-161.2542398685406
 30
0.0
 10
91.83797740759607
 20
-161.2542398685406
 30
0.0
 10
91.83797740759607
 20
-161.2542398685406
 30
0.0
 10
91.83797740759607
 20
-161.2542398685406
 30
0.0
 10
91.83797740759607
 20
-162.7986761745781
 30
0.0
 10
91.83797740759607
 20
-162.7986761745781
 30
0.0
 10
91.83797740759607
 20
-162.7986761745781
 30
0.0
 10
91.61370169150631
 20
-162.7986761745781
 30
0.0
 10
91.61370169150631
 20
-162.7986761745781
 30
0.0
  0
HATCH
  5
148
330
143
100
AcDbEntity
  8
_U+30EC_U+30A4_U+30E4_U+30FC 1
 62
   179
420
  2234388
100
AcDbHatch
 10
0.0
 20
0.0
 30
0.0
210
0.0
220
0.0
230
1.0
  2
SOLID
 70
     1
 71
     0
 91
        1
 92
        1
 93
        1
 72
     4
 94
        3
 73
     0
 74
     1
 95
       26
 96
       22
 40
0.0
 40
0.0
 40
0.0
 40
0.0
 40
1.0
 40
1.0
 40
1.0
 40
2.0
 40
2.0
 40
2.0
 40
3.0
 40
3.0
 40
3.0
 40
4.0
 40
4.0
 40
4.0
 40
5.0
 40
5.0
 40
5.0
 40
6.0
 40
6.0
 40
6.0
 40
7.0
 40
7.0
 40
7.0
 40
7.0
 10
91.61370169150631
 20
-162.7986761745781
 10
91.61370169150631
 20
-162.7986761745781
 10
91.61370169150631
 20
-161.6945230715556
 10
91.61370169150631
 20
-161.6945230715556
 10
91.61370169150631
 20
-161.6945230715556
 10
91.28383379879362
 20
-161.6945230715556
 10
91.28383379879362
 20
-161.6945230715556
 10
91.28383379879362
 20
-161.6945230715556
 10
91.28383379879362
 20
-161.5463839656898
 10
91.28383379879362
 20
-161.5463839656898
 10
91.61576874879745
 20
-161.5315700551032
 10
91.66227753784833
 20
-161.3686170386509
 10
91.69190535902148
 20
-161.2542398685406
 10
91.69190535902148
 20
-161.2542398685406
 10
91.83797740759607
 20
-161.2542398685406
 10
91.83797740759607
 20
-161.2542398685406
 10
91.83797740759607
 20
-161.2542398685406
 10
91.83797740759607
 20
-162.7986761745781
 10
91.83797740759607
 20
-162.7986761745781
 10
91.83797740759607
 20
-162.7986761745781
 10
91.61370169150631
 20
-162.7986761745781
 10
91.61370169150631
 20
-162.7986761745781
 97
        0
 97
        0
 75
     2
 76
     1
 98
        0
  0
SPLINE
  5
149
330
143
100
AcDbEntity
  8
_U+30EC_U+30A4_U+30E4_U+30FC 1
370
     0
100
AcDbSpline
210
0.0
220
0.0
230
1.0
 70
    11
 71
     3
 72
    62
 73
    58
 74
     0
 42
0.0000000001
 43
0.0000000001
 12
1.0
 22
0.0
 32
0.0
 13
1.0
 23
0.0
 33
0.0
 40
0.0
 40
0.0
 40
0.0
 40
0.0
 40
1.0
 40
1.0
 40
1.0
 40
2.0
 40
2.0
 40
2.0
 40
3.0
 40
3.0
 40
3.0
 40
4.0
 40
4.0
 40
4.0
 40
5.0
 40
5.0
 40
5.0
 40
6.0
 40
6.0
 40
6.0
 40
7.0
 40
7.0
 40
7.0
 40
8.0
 40
8.0
 40
8.0
 40
9.0
 40
9.0
 40
9.0
 40
10.0
 40
10.0
 40
10.0
 40
11.0
 40
11.0
 40
11.0
 40
12.0
 40
12.0
 40
12.0
 40
13.0
 40
13.0
 40
13.0
 40
14.0
 40
14.0
 40
14.0
 40
15.0
 40
15.0
 40
15.0
 40
16.0
 40
16.0
 40
16.0
 40
17.0
 40
17.0
 40
17.0
 40
18.0
 40
18.0
 40
18.0
 40
19.0
 40
19.0
 40
19.0
 40
19.0
 10
92.83085392644507
 20
-162.8493190782113
 30
0.0
 10
92.73542478150365
 20
-162.8493190782113
 30
0.0
 10
92.51769474683586
 20
-162.8283039957513
 30
0.0
 10
92.39263778072129
 20
-162.6422688395478
 30
0.0
 10
92.31891273733694
 20
-162.5299587267286
 30
0.0
 10
92.31443411320612
 20
-162.4307399767534
 30
0.0
 10
92.31029999862382
 20
-162.3459906278163
 30
0.0
 10
92.31029999862382
 20
-162.3459906278163
 30
0.0
 10
92.53044160013128
 20
-162.3459906278163
 30
0.0
 10
92.53044160013128
 20
-162.3459906278163
 30
0.0
 10
92.53250865742243
 20
-162.4200601807491
 30
0.0
 10
92.54284394387818
 20
-162.6546711832947
 30
0.0
 10
92.82637530231425
 20
-162.6546711832947
 30
0.0
 10
92.96383461217572
 20
-162.6546711832947
 30
0.0
 10
93.11645234217228
 20
-162.5850802544926
 30
0.0
 10
93.11645234217228
 20
-162.3566704238206
 30
0.0
 10
93.11645234217228
 20
-162.2402261964191
 30
0.0
 10
93.078211782286
 20
-162.1916503500771
 30
0.0
 10
93.04651690382171
 20
-162.1599554716128
 30
0.0
 10
92.97244735088884
 20
-162.0858859186799
 30
0.0
 10
92.8560031234874
 20
-162.0731390653845
 30
0.0
 10
92.80122610527192
 20
-162.0731390653845
 30
0.0
 10
92.78193357055451
 20
-162.0731390653845
 30
0.0
 10
92.74610457750792
 20
-162.0752061226756
 30
0.0
 10
92.71854381362593
 20
-162.079340237258
 30
0.0
 10
92.71854381362593
 20
-162.079340237258
 30
0.0
 10
92.71854381362593
 20
-161.8846923423413
 30
0.0
 10
92.71854381362593
 20
-161.8846923423413
 30
0.0
 10
92.7567843735122
 20
-161.8912380237633
 30
0.0
 10
92.79881453843224
 20
-161.8933050810545
 30
0.0
 10
92.80536021985422
 20
-161.8933050810545
 30
0.0
 10
92.87081703407397
 20
-161.8933050810545
 30
0.0
 10
93.06959904357288
 20
-161.8719454890459
 30
0.0
 10
93.06959904357288
 20
-161.6352674292093
 30
0.0
 10
93.06959904357288
 20
-161.4575005021703
 30
0.0
 10
92.93868541513339
 20
-161.4023789744064
 30
0.0
 10
92.82844235960539
 20
-161.4023789744064
 30
0.0
 10
92.56420353588673
 20
-161.4023789744064
 30
0.0
 10
92.55559079717361
 20
-161.6352674292093
 30
0.0
 10
92.55145668259131
 20
-161.7069254153024
 30
0.0
 10
92.55145668259131
 20
-161.7069254153024
 30
0.0
 10
92.34819604896157
 20
-161.7069254153024
 30
0.0
 10
92.34819604896157
 20
-161.7069254153024
 30
0.0
 10
92.3568087876747
 20
-161.5822129587364
 30
0.0
 10
92.38436955155669
 20
-161.2056640221986
 30
0.0
 10
92.84118921290082
 20
-161.2056640221986
 30
0.0
 10
93.06546492899058
 20
-161.2056640221986
 30
0.0
 10
93.30662161295807
 20
-161.3327880456043
 30
0.0
 10
93.30662161295807
 20
-161.6287217477873
 30
0.0
 10
93.30662161295807
 20
-161.8151014135393
 30
0.0
 10
93.21153697756517
 20
-161.8974391956368
 30
0.0
 10
93.11197371804145
 20
-161.9587618952742
 30
0.0
 10
93.1732964176789
 20
-161.9863226591562
 30
0.0
 10
93.3551974593001
 20
-162.0665933839625
 30
0.0
 10
93.3551974593001
 20
-162.3439235705251
 30
0.0
 10
93.3551974593001
 20
-162.6822319471767
 30
0.0
 10
93.10783960345915
 20
-162.8493190782113
 30
0.0
 10
92.83085392644507
 20
-162.8493190782113
 30
0.0
  0
HATCH
  5
14A
330
143
100
AcDbEntity
  8
_U+30EC_U+30A4_U+30E4_U+30FC 1
 62
   179
420
  2234388
100
AcDbHatch
 10
0.0
 20
0.0
 30
0.0
210
0.0
220
0.0
230
1.0
  2
SOLID
 70
     1
 71
     0
 91
        1
 92
        1
 93
        1
 72
     4
 94
        3
 73
     0
 74
     1
 95
       62
 96
       58
 40
0.0
 40
0.0
 40
0.0
 40
0.0
 40
1.0
 40
1.0
 40
1.0
 40
2.0
 40
2.0
 40
2.0
 40
3.0
 40
3.0
 40
3.0
 40
4.0
 40
4.0
 40
4.0
 40
5.0
 40
5.0
 40
5.0
 40
6.0
 40
6.0
 40
6.0
 40
7.0
 40
7.0
 40
7.0
 40
8.0
 40
8.0
 40
8.0
 40
9.0
 40
9.0
 40
9.0
 40
10.0
 40
10.0
 40
10.0
 40
11.0
 40
11.0
 40
11.0
 40
12.0
 40
12.0
 40
12.0
 40
13.0
 40
13.0
 40
13.0
 40
14.0
 40
14.0
 40
14.0
 40
15.0
 40
15.0
 40
15.0
 40
16.0
 40
16.0
 40
16.0
 40
17.0
 40
17.0
 40
17.0
 40
18.0
 40
18.0
 40
18.0
 40
19.0
 40
19.0
 40
19.0
 40
19.0
 10
92.83085392644507
 20
-162.8493190782113
 10
92.73542478150365
 20
-162.8493190782113
 10
92.51769474683586
 20
-162.8283039957513
 10
92.39263778072129
 20
-162.6422688395478
 10
92.31891273733694
 20
-162.5299587267286
 10
92.31443411320612
 20
-162.4307399767534
 10
92.31029999862382
 20
-162.3459906278163
 10
92.31029999862382
 20
-162.3459906278163
 10
92.53044160013128
 20
-162.3459906278163
 10
92.53044160013128
 20
-162.3459906278163
 10
92.53250865742243
 20
-162.4200601807491
 10
92.54284394387818
 20
-162.6546711832947
 10
92.82637530231425
 20
-162.6546711832947
 10
92.96383461217572
 20
-162.6546711832947
 10
93.11645234217228
 20
-162.5850802544926
 10
93.11645234217228
 20
-162.3566704238206
 10
93.11645234217228
 20
-162.2402261964191
 10
93.078211782286
 20
-162.1916503500771
 10
93.04651690382171
 20
-162.1599554716128
 10
92.97244735088884
 20
-162.0858859186799
 10
92.8560031234874
 20
-162.0731390653845
 10
92.80122610527192
 20
-162.0731390653845
 10
92.78193357055451
 20
-162.0731390653845
 10
92.74610457750792
 20
-162.0752061226756
 10
92.71854381362593
 20
-162.079340237258
 10
92.71854381362593
 20
-162.079340237258
 10
92.71854381362593
 20
-161.8846923423413
 10
92.71854381362593
 20
-161.8846923423413
 10
92.7567843735122
 20
-161.8912380237633
 10
92.79881453843224
 20
-161.8933050810545
 10
92.80536021985422
 20
-161.8933050810545
 10
92.87081703407397
 20
-161.8933050810545
 10
93.06959904357288
 20
-161.8719454890459
 10
93.06959904357288
 20
-161.6352674292093
 10
93.06959904357288
 20
-161.4575005021703
 10
92.93868541513339
 20
-161.4023789744064
 10
92.82844235960539
 20
-161.4023789744064
 10
92.56420353588673
 20
-161.4023789744064
 10
92.55559079717361
 20
-161.6352674292093
 10
92.55145668259131
 20
-161.7069254153024
 10
92.55145668259131
 20
-161.7069254153024
 10
92.34819604896157
 20
-161.7069254153024
 10
92.34819604896157
 20
-161.7069254153024
 10
92.3568087876747
 20
-161.5822129587364
 10
92.38436955155669
 20
-161.2056640221986
 10
92.84118921290082
 20
-161.2056640221986
 10
93.06546492899058
 20
-161.2056640221986
 10
93.30662161295807
 20
-161.3327880456043
 10
93.30662161295807
 20
-161.6287217477873
 10
93.30662161295807
 20
-161.8151014135393
 10
93.21153697756517
 20
-161.8974391956368
 10
93.11197371804145
 20
-161.9587618952742
 10
93.1732964176789
 20
-161.9863226591562
 10
93.3551974593001
 20
-162.0665933839625
 10
93.3551974593001
 20
-162.3439235705251
 10
93.3551974593001
 20
-162.6822319471767
 10
93.10783960345915
 20
-162.8493190782113
 10
92.83085392644507
 20
-162.8493190782113
 97
        0
 97
        0
 75
     2
 76
     1
 98
        0
  0
ENDBLK
  5
146
330
143
100
AcDbEntity
  8
0
100
AcDbBlockEnd
  0
ENDSEC
  0
SECTION
  2
ENTITIES
  0
POLYLINE
  5
41
330
1F
100
AcDbEntity
  8
_U+30EC_U+30A4_U+30E4_U+30FC 1
370
     0
100
AcDb2dPolyline
 66
     1
 10
0.0
 20
0.0
 30
0.0
  0
VERTEX
  5
42
330
41
100
AcDbEntity
  8
_U+30EC_U+30A4_U+30E4_U+30FC 1
370
     0
100
AcDbVertex
100
AcDb2dVertex
 10
88.75168995797797
 20
-147.4442130186947
 30
0.0
  0
VERTEX
  5
43
330
41
100
AcDbEntity
  8
_U+30EC_U+30A4_U+30E4_U+30FC 1
370
     0
100
AcDbVertex
100
AcDb2dVertex
 10
86.75165167566988
 20
-147.4442130186947
 30
0.0
  0
VERTEX
  5
44
330
41
100
AcDbEntity
  8
_U+30EC_U+30A4_U+30E4_U+30FC 1
370
     0
100
AcDbVertex
100
AcDb2dVertex
 10
86.75165167566988
 20
-149.9443491291806
 30
0.0
  0
VERTEX
  5
45
330
41
100
AcDbEntity
  8
_U+30EC_U+30A4_U+30E4_U+30FC 1
370
     0
100
AcDbVertex
100
AcDb2dVertex
 10
94.25160120655244
 20
-149.9443491291806
 30
0.0
  0
VERTEX
  5
46
330
41
100
AcDbEntity
  8
_U+30EC_U+30A4_U+30E4_U+30FC 1
370
     0
100
AcDbVertex
100
AcDb2dVertex
 10
94.25160120655244
 20
-100.9443977525417
 30
0.0
  0
VERTEX
  5
47
330
41
100
AcDbEntity
  8
_U+30EC_U+30A4_U+30E4_U+30FC 1
370
     0
100
AcDbVertex
100
AcDb2dVertex
 10
95.45189228704157
 20
-100.9443977525417
 30
0.0
  0
VERTEX
  5
48
330
41
100
AcDbEntity
  8
_U+30EC_U+30A4_U+30E4_U+30FC 1
370
     0
100
AcDbVertex
100
AcDb2dVertex
 10
95.45189228704157
 20
-150.944086073375
 30
0.0
  0
VERTEX
  5
49
330
41
100
AcDbEntity
  8
_U+30EC_U+30A4_U+30E4_U+30FC 1
370
     0
100
AcDbVertex
100
AcDb2dVertex
 10
86.75165167566988
 20
-150.944086073375
 30
0.0
  0
VERTEX
  5
4A
330
41
100
AcDbEntity
  8
_U+30EC_U+30A4_U+30E4_U+30FC 1
370
     0
100
AcDbVertex
100
AcDb2dVertex
 10
86.75165167566988
 20
-158.4444238492777
 30
0.0
  0
VERTEX
  5
4B
330
41
100
AcDbEntity
  8
_U+30EC_U+30A4_U+30E4_U+30FC 1
370
     0
100
AcDbVertex
100
AcDb2dVertex
 10
97.75182695058757
 20
-158.4444238492777
 30
0.0
  0
VERTEX
  5
4C
330
41
100
AcDbEntity
  8
_U+30EC_U+30A4_U+30E4_U+30FC 1
370
     0
100
AcDbVertex
100
AcDb2dVertex
 10
97.75182695058757
 20
-156.4438563497781
 30
0.0
  0
VERTEX
  5
4D
330
41
100
AcDbEntity
  8
_U+30EC_U+30A4_U+30E4_U+30FC 1
370
     0
100
AcDbVertex
100
AcDb2dVertex
 10
98.75159914730348
 20
-156.4438563497781
 30
0.0
  0
VERTEX
  5
4E
330
41
100
AcDbEntity
  8
_U+30EC_U+30A4_U+30E4_U+30FC 1
370
     0
100
AcDbVertex
100
AcDb2dVertex
 10
98.75159914730348
 20
-159.4441960712502
 30
0.0
  0
VERTEX
  5
4F
330
41
100
AcDbEntity
  8
_U+30EC_U+30A4_U+30E4_U+30FC 1
370
     0
100
AcDbVertex
100
AcDb2dVertex
 10
85.75152670118518
 20
-159.4441960712502
 30
0.0
  0
VERTEX
  5
50
330
41
100
AcDbEntity
  8
_U+30EC_U+30A4_U+30E4_U+30FC 1
370
     0
100
AcDbVertex
100
AcDb2dVertex
 10
85.75152670118518
 20
-146.4444760745003
 30
0.0
  0
VERTEX
  5
51
330
41
100
AcDbEntity
  8
_U+30EC_U+30A4_U+30E4_U+30FC 1
370
     0
100
AcDbVertex
100
AcDb2dVertex
 10
88.75168995797797
 20
-146.4444760745003
 30
0.0
  0
VERTEX
  5
52
330
41
100
AcDbEntity
  8
_U+30EC_U+30A4_U+30E4_U+30FC 1
370
     0
100
AcDbVertex
100
AcDb2dVertex
 10
88.75168995797797
 20
-147.4442130186947
 30
0.0
  0
SEQEND
  5
54
330
41
100
AcDbEntity
  8
_U+30EC_U+30A4_U+30E4_U+30FC 1
370
     0
  0
HATCH
  5
53
330
1F
100
AcDbEntity
  8
_U+30EC_U+30A4_U+30E4_U+30FC 1
 62
   253
420
 11711154
100
AcDbHatch
 10
0.0
 20
0.0
 30
0.0
210
0.0
220
0.0
230
1.0
  2
SOLID
 70
     1
 71
     0
 91
        1
 92
        1
 93
       16
 72
     1
 10
88.75168995797797
 20
-147.4442130186947
 11
86.75165167566988
 21
-147.4442130186947
 72
     1
 10
86.75165167566988
 20
-147.4442130186947
 11
86.75165167566988
 21
-149.9443491291806
 72
     1
 10
86.75165167566988
 20
-149.9443491291806
 11
94.25160120655244
 21
-149.9443491291806
 72
     1
 10
94.25160120655244
 20
-149.9443491291806
 11
94.25160120655244
 21
-100.9443977525417
 72
     1
 10
94.25160120655244
 20
-100.9443977525417
 11
95.45189228704157
 21
-100.9443977525417
 72
     1
 10
95.45189228704157
 20
-100.9443977525417
 11
95.45189228704157
 21
-150.944086073375
 72
     1
 10
95.45189228704157
 20
-150.944086073375
 11
86.75165167566988
 21
-150.944086073375
 72
     1
 10
86.75165167566988
 20
-150.944086073375
 11
86.75165167566988
 21
-158.4444238492777
 72
     1
 10
86.75165167566988
 20
-158.4444238492777
 11
97.75182695058757
 21
-158.4444238492777
 72
     1
 10
97.75182695058757
 20
-158.4444238492777
 11
97.75182695058757
 21
-156.4438563497781
 72
     1
 10
97.75182695058757
 20
-156.4438563497781
 11
98.75159914730348
 21
-156.4438563497781
 72
     1
 10
98.75159914730348
 20
-156.4438563497781
 11
98.75159914730348
 21
-159.4441960712502
 72
     1
 10
98.75159914730348
 20
-159.4441960712502
 11
85.75152670118518
 21
-159.4441960712502
 72
     1
 10
85.75152670118518
 20
-159.4441960712502
 11
85.75152670118518
 21
-146.4444760745003
 72
     1
 10
85.75152670118518
 20
-146.4444760745003
 11
88.75168995797797
 21
-146.4444760745003
 72
     1
 10
88.75168995797797
 20
-146.4444760745003
 11
88.75168995797797
 21
-147.4442130186947
 97
        0
 75
     2
 76
     1
 98
        0
  0
POLYLINE
  5
55
330
1F
100
AcDbEntity
  8
_U+30EC_U+30A4_U+30E4_U+30FC 1
 62
   179
420
  2234388
370
    25
100
AcDb2dPolyline
 66
     1
 10
0.0
 20
0.0
 30
0.0
  0
VERTEX
  5
56
330
55
100
AcDbEntity
  8
_U+30EC_U+30A4_U+30E4_U+30FC 1
 62
   179
420
  2234388
370
    25
100
AcDbVertex
100
AcDb2dVertex
 10
94.25160120655244
 20
-100.9443977525417
 30
0.0
  0
VERTEX
  5
57
330
55
100
AcDbEntity
  8
_U+30EC_U+30A4_U+30E4_U+30FC 1
 62
   179
420
  2234388
370
    25
100
AcDbVertex
100
AcDb2dVertex
 10
94.25160120655244
 20
-149.9443491291806
 30
0.0
  0
SEQEND
  5
58
330
55
100
AcDbEntity
  8
_U+30EC_U+30A4_U+30E4_U+30FC 1
 62
   179
420
  2234388
370
    25
  0
POLYLINE
  5
59
330
1F
100
AcDbEntity
  8
_U+30EC_U+30A4_U+30E4_U+30FC 1
 62
   179
420
  2234388
370
    25
100
AcDb2dPolyline
 66
     1
 10
0.0
 20
0.0
 30
0.0
  0
VERTEX
  5
5A
330
59
100
AcDbEntity
  8
_U+30EC_U+30A4_U+30E4_U+30FC 1
 62
   179
420
  2234388
370
    25
100
AcDbVertex
100
AcDb2dVertex
 10
95.45189228704157
 20
-100.9443977525417
 30
0.0
  0
VERTEX
  5
5B
330
59
100
AcDbEntity
  8
_U+30EC_U+30A4_U+30E4_U+30FC 1
 62
   179
420
  2234388
370
    25
100
AcDbVertex
100
AcDb2dVertex
 10
94.25160120655244
 20
-100.9443977525417
 30
0.0
  0
SEQEND
  5
5C
330
59
100
AcDbEntity
  8
_U+30EC_U+30A4_U+30E4_U+30FC 1
 62
   179
420
  2234388
370
    25
  0
POLYLINE
  5
5D
330
1F
100
AcDbEntity
  8
_U+30EC_U+30A4_U+30E4_U+30FC 1
 62
   179
420
  2234388
370
    25
100
AcDb2dPolyline
 66
     1
 10
0.0
 20
0.0
 30
0.0
  0
VERTEX
  5
5E
330
5D
100
AcDbEntity
  8
_U+30EC_U+30A4_U+30E4_U+30FC 1
 62
   179
420
  2234388
370
    25
100
AcDbVertex
100
AcDb2dVertex
 10
95.45189228704157
 20
-100.9443977525417
 30
0.0
  0
VERTEX
  5
5F
330
5D
100
AcDbEntity
  8
_U+30EC_U+30A4_U+30E4_U+30FC 1
 62
   179
420
  2234388
370
    25
100
AcDbVertex
100
AcDb2dVertex
 10
95.45189228704157
 20
-150.944086073375
 30
0.0
  0
SEQEND
  5
60
330
5D
100
AcDbEntity
  8
_U+30EC_U+30A4_U+30E4_U+30FC 1
 62
   179
420
  2234388
370
    25
  0
POLYLINE
  5
61
330
1F
100
AcDbEntity
  8
_U+30EC_U+30A4_U+30E4_U+30FC 1
 62
   179
420
  2234388
370
    25
100
AcDb2dPolyline
 66
     1
 10
0.0
 20
0.0
 30
0.0
  0
VERTEX
  5
62
330
61
100
AcDbEntity
  8
_U+30EC_U+30A4_U+30E4_U+30FC 1
 62
   179
420
  2234388
370
    25
100
AcDbVertex
100
AcDb2dVertex
 10
95.45189228704157
 20
-150.944086073375
 30
0.0
  0
VERTEX
  5
63
330
61
100
AcDbEntity
  8
_U+30EC_U+30A4_U+30E4_U+30FC 1
 62
   179
420
  2234388
370
    25
100
AcDbVertex
100
AcDb2dVertex
 10
86.75165167566988
 20
-150.944086073375
 30
0.0
  0
SEQEND
  5
64
330
61
100
AcDbEntity
  8
_U+30EC_U+30A4_U+30E4_U+30FC 1
 62
   179
420
  2234388
370
    25
  0
POLYLINE
  5
65
330
1F
100
AcDbEntity
  8
_U+30EC_U+30A4_U+30E4_U+30FC 1
 62
   179
420
  2234388
370
    25
100
AcDb2dPolyline
 66
     1
 10
0.0
 20
0.0
 30
0.0
  0
VERTEX
  5
66
330
65
100
AcDbEntity
  8
_U+30EC_U+30A4_U+30E4_U+30FC 1
 62
   179
420
  2234388
370
    25
100
AcDbVertex
100
AcDb2dVertex
 10
88.75168995797797
 20
-146.4444760745003
 30
0.0
  0
VERTEX
  5
67
330
65
100
AcDbEntity
  8
_U+30EC_U+30A4_U+30E4_U+30FC 1
 62
   179
420
  2234388
370
    25
100
AcDbVertex
100
AcDb2dVertex
 10
88.75168995797797
 20
-147.4442130186947
 30
0.0
  0
SEQEND
  5
68
330
65
100
AcDbEntity
  8
_U+30EC_U+30A4_U+30E4_U+30FC 1
 62
   179
420
  2234388
370
    25
  0
POLYLINE
  5
69
330
1F
100
AcDbEntity
  8
_U+30EC_U+30A4_U+30E4_U+30FC 1
 62
   179
420
  2234388
370
    25
100
AcDb2dPolyline
 66
     1
 10
0.0
 20
0.0
 30
0.0
  0
VERTEX
  5
6A
330
69
100
AcDbEntity
  8
_U+30EC_U+30A4_U+30E4_U+30FC 1
 62
   179
420
  2234388
370
    25
100
AcDbVertex
100
AcDb2dVertex
 10
85.75152670118518
 20
-146.4444760745003
 30
0.0
  0
VERTEX
  5
6B
330
69
100
AcDbEntity
  8
_U+30EC_U+30A4_U+30E4_U+30FC 1
 62
   179
420
  2234388
370
    25
100
AcDbVertex
100
AcDb2dVertex
 10
85.75152670118518
 20
-159.4441960712502
 30
0.0
  0
SEQEND
  5
6C
330
69
100
AcDbEntity
  8
_U+30EC_U+30A4_U+30E4_U+30FC 1
 62
   179
420
  2234388
370
    25
  0
POLYLINE
  5
6D
330
1F
100
AcDbEntity
  8
_U+30EC_U+30A4_U+30E4_U+30FC 1
 62
   179
420
  2234388
370
    25
100
AcDb2dPolyline
 66
     1
 10
0.0
 20
0.0
 30
0.0
  0
VERTEX
  5
6E
330
6D
100
AcDbEntity
  8
_U+30EC_U+30A4_U+30E4_U+30FC 1
 62
   179
420
  2234388
370
    25
100
AcDbVertex
100
AcDb2dVertex
 10
98.75159914730348
 20
-156.4438563497781
 30
0.0
  0
VERTEX
  5
6F
330
6D
100
AcDbEntity
  8
_U+30EC_U+30A4_U+30E4_U+30FC 1
 62
   179
420
  2234388
370
    25
100
AcDbVertex
100
AcDb2dVertex
 10
97.75182695058757
 20
-156.4438563497781
 30
0.0
  0
SEQEND
  5
70
330
6D
100
AcDbEntity
  8
_U+30EC_U+30A4_U+30E4_U+30FC 1
 62
   179
420
  2234388
370
    25
  0
POLYLINE
  5
71
330
1F
100
AcDbEntity
  8
_U+30EC_U+30A4_U+30E4_U+30FC 1
 62
   179
420
  2234388
370
    25
100
AcDb2dPolyline
 66
     1
 10
0.0
 20
0.0
 30
0.0
  0
VERTEX
  5
72
330
71
100
AcDbEntity
  8
_U+30EC_U+30A4_U+30E4_U+30FC 1
 62
   179
420
  2234388
370
    25
100
AcDbVertex
100
AcDb2dVertex
 10
98.75159914730348
 20
-159.4441960712502
 30
0.0
  0
VERTEX
  5
73
330
71
100
AcDbEntity
  8
_U+30EC_U+30A4_U+30E4_U+30FC 1
 62
   179
420
  2234388
370
    25
100
AcDbVertex
100
AcDb2dVertex
 10
85.75152670118518
 20
-159.4441960712502
 30
0.0
  0
SEQEND
  5
74
330
71
100
AcDbEntity
  8
_U+30EC_U+30A4_U+30E4_U+30FC 1
 62
   179
420
  2234388
370
    25
  0
POLYLINE
  5
75
330
1F
100
AcDbEntity
  8
_U+30EC_U+30A4_U+30E4_U+30FC 1
 62
   179
420
  2234388
370
    25
100
AcDb2dPolyline
 66
     1
 10
0.0
 20
0.0
 30
0.0
  0
VERTEX
  5
76
330
75
100
AcDbEntity
  8
_U+30EC_U+30A4_U+30E4_U+30FC 1
 62
   179
420
  2234388
370
    25
100
AcDbVertex
100
AcDb2dVertex
 10
88.75168995797797
 20
-146.4444760745003
 30
0.0
  0
VERTEX
  5
77
330
75
100
AcDbEntity
  8
_U+30EC_U+30A4_U+30E4_U+30FC 1
 62
   179
420
  2234388
370
    25
100
AcDbVertex
100
AcDb2dVertex
 10
85.75152670118518
 20
-146.4444760745003
 30
0.0
  0
SEQEND
  5
78
330
75
100
AcDbEntity
  8
_U+30EC_U+30A4_U+30E4_U+30FC 1
 62
   179
420
  2234388
370
    25
  0
POLYLINE
  5
79
330
1F
100
AcDbEntity
  8
_U+30EC_U+30A4_U+30E4_U+30FC 1
 62
   179
420
  2234388
370
    25
100
AcDb2dPolyline
 66
     1
 10
0.0
 20
0.0
 30
0.0
  0
VERTEX
  5
7A
330
79
100
AcDbEntity
  8
_U+30EC_U+30A4_U+30E4_U+30FC 1
 62
   179
420
  2234388
370
    25
100
AcDbVertex
100
AcDb2dVertex
 10
98.75159914730348
 20
-156.4438563497781
 30
0.0
  0
VERTEX
  5
7B
330
79
100
AcDbEntity
  8
_U+30EC_U+30A4_U+30E4_U+30FC 1
 62
   179
420
  2234388
370
    25
100
AcDbVertex
100
AcDb2dVertex
 10
98.75159914730348
 20
-159.4441960712502
 30
0.0
  0
SEQEND
  5
7C
330
79
100
AcDbEntity
  8
_U+30EC_U+30A4_U+30E4_U+30FC 1
 62
   179
420
  2234388
370
    25
  0
POLYLINE
  5
7D
330
1F
100
AcDbEntity
  8
_U+30EC_U+30A4_U+30E4_U+30FC 1
 62
   179
420
  2234388
370
    25
100
AcDb2dPolyline
 66
     1
 10
0.0
 20
0.0
 30
0.0
  0
VERTEX
  5
7E
330
7D
100
AcDbEntity
  8
_U+30EC_U+30A4_U+30E4_U+30FC 1
 62
   179
420
  2234388
370
    25
100
AcDbVertex
100
AcDb2dVertex
 10
94.25160120655244
 20
-149.9443491291806
 30
0.0
  0
VERTEX
  5
7F
330
7D
100
AcDbEntity
  8
_U+30EC_U+30A4_U+30E4_U+30FC 1
 62
   179
420
  2234388
370
    25
100
AcDbVertex
100
AcDb2dVertex
 10
86.75165167566988
 20
-149.9443491291806
 30
0.0
  0
SEQEND
  5
80
330
7D
100
AcDbEntity
  8
_U+30EC_U+30A4_U+30E4_U+30FC 1
 62
   179
420
  2234388
370
    25
  0
POLYLINE
  5
81
330
1F
100
AcDbEntity
  8
_U+30EC_U+30A4_U+30E4_U+30FC 1
 62
   179
420
  2234388
370
    25
100
AcDb2dPolyline
 66
     1
 10
0.0
 20
0.0
 30
0.0
  0
VERTEX
  5
82
330
81
100
AcDbEntity
  8
_U+30EC_U+30A4_U+30E4_U+30FC 1
 62
   179
420
  2234388
370
    25
100
AcDbVertex
100
AcDb2dVertex
 10
86.75165167566988
 20
-147.4442130186947
 30
0.0
  0
VERTEX
  5
83
330
81
100
AcDbEntity
  8
_U+30EC_U+30A4_U+30E4_U+30FC 1
 62
   179
420
  2234388
370
    25
100
AcDbVertex
100
AcDb2dVertex
 10
86.75165167566988
 20
-149.9443491291806
 30
0.0
  0
SEQEND
  5
84
330
81
100
AcDbEntity
  8
_U+30EC_U+30A4_U+30E4_U+30FC 1
 62
   179
420
  2234388
370
    25
  0
POLYLINE
  5
85
330
1F
100
AcDbEntity
  8
_U+30EC_U+30A4_U+30E4_U+30FC 1
 62
   179
420
  2234388
370
    25
100
AcDb2dPolyline
 66
     1
 10
0.0
 20
0.0
 30
0.0
  0
VERTEX
  5
86
330
85
100
AcDbEntity
  8
_U+30EC_U+30A4_U+30E4_U+30FC 1
 62
   179
420
  2234388
370
    25
100
AcDbVertex
100
AcDb2dVertex
 10
88.75168995797797
 20
-147.4442130186947
 30
0.0
  0
VERTEX
  5
87
330
85
100
AcDbEntity
  8
_U+30EC_U+30A4_U+30E4_U+30FC 1
 62
   179
420
  2234388
370
    25
100
AcDbVertex
100
AcDb2dVertex
 10
86.75165167566988
 20
-147.4442130186947
 30
0.0
  0
SEQEND
  5
88
330
85
100
AcDbEntity
  8
_U+30EC_U+30A4_U+30E4_U+30FC 1
 62
   179
420
  2234388
370
    25
  0
POLYLINE
  5
89
330
1F
100
AcDbEntity
  8
_U+30EC_U+30A4_U+30E4_U+30FC 1
 62
   179
420
  2234388
370
    25
100
AcDb2dPolyline
 66
     1
 10
0.0
 20
0.0
 30
0.0
  0
VERTEX
  5
8A
330
89
100
AcDbEntity
  8
_U+30EC_U+30A4_U+30E4_U+30FC 1
 62
   179
420
  2234388
370
    25
100
AcDbVertex
100
AcDb2dVertex
 10
97.75182695058757
 20
-158.4444238492777
 30
0.0
  0
VERTEX
  5
8B
330
89
100
AcDbEntity
  8
_U+30EC_U+30A4_U+30E4_U+30FC 1
 62
   179
420
  2234388
370
    25
100
AcDbVertex
100
AcDb2dVertex
 10
86.75165167566988
 20
-158.4444238492777
 30
0.0
  0
SEQEND
  5
8C
330
89
100
AcDbEntity
  8
_U+30EC_U+30A4_U+30E4_U+30FC 1
 62
   179
420
  2234388
370
    25
  0
POLYLINE
  5
8D
330
1F
100
AcDbEntity
  8
_U+30EC_U+30A4_U+30E4_U+30FC 1
 62
   179
420
  2234388
370
    25
100
AcDb2dPolyline
 66
     1
 10
0.0
 20
0.0
 30
0.0
  0
VERTEX
  5
8E
330
8D
100
AcDbEntity
  8
_U+30EC_U+30A4_U+30E4_U+30FC 1
 62
   179
420
  2234388
370
    25
100
AcDbVertex
100
AcDb2dVertex
 10
97.75182695058757
 20
-156.4438563497781
 30
0.0
  0
VERTEX
  5
8F
330
8D
100
AcDbEntity
  8
_U+30EC_U+30A4_U+30E4_U+30FC 1
 62
   179
420
  2234388
370
    25
100
AcDbVertex
100
AcDb2dVertex
 10
97.75182695058757
 20
-158.4444238492777
 30
0.0
  0
SEQEND
  5
90
330
8D
100
AcDbEntity
  8
_U+30EC_U+30A4_U+30E4_U+30FC 1
 62
   179
420
  2234388
370
    25
  0
POLYLINE
  5
91
330
1F
100
AcDbEntity
  8
_U+30EC_U+30A4_U+30E4_U+30FC 1
 62
   179
420
  2234388
370
    25
100
AcDb2dPolyline
 66
     1
 10
0.0
 20
0.0
 30
0.0
  0
VERTEX
  5
92
330
91
100
AcDbEntity
  8
_U+30EC_U+30A4_U+30E4_U+30FC 1
 62
   179
420
  2234388
370
    25
100
AcDbVertex
100
AcDb2dVertex
 10
86.75165167566988
 20
-150.944086073375
 30
0.0
  0
VERTEX
  5
93
330
91
100
AcDbEntity
  8
_U+30EC_U+30A4_U+30E4_U+30FC 1
 62
   179
420
  2234388
370
    25
100
AcDbVertex
100
AcDb2dVertex
 10
86.75165167566988
 20
-158.4444238492777
 30
0.0
  0
SEQEND
  5
94
330
91
100
AcDbEntity
  8
_U+30EC_U+30A4_U+30E4_U+30FC 1
 62
   179
420
  2234388
370
    25
  0
SPLINE
  5
95
330
1F
100
AcDbEntity
  8
_U+30EC_U+30A4_U+30E4_U+30FC 1
 62
   179
420
  2234388
370
     9
100
AcDbSpline
210
0.0
220
0.0
230
1.0
 70
    11
 71
     3
 72
    17
 73
    13
 74
     0
 42
0.0000000001
 43
0.0000000001
 12
1.0
 22
0.0
 32
0.0
 13
1.0
 23
0.0
 33
0.0
 40
0.0
 40
0.0
 40
0.0
 40
0.0
 40
1.0
 40
1.0
 40
1.0
 40
2.0
 40
2.0
 40
2.0
 40
3.0
 40
3.0
 40
3.0
 40
4.0
 40
4.0
 40
4.0
 40
4.0
 10
94.1516945424346
 20
-96.94396830909741
 30
0.0
 10
94.1516945424346
 20
-96.88882914244434
 30
0.0
 10
94.19649731906937
 20
-96.84406164245577
 30
0.0
 10
94.25160120655244
 20
-96.84406164245577
 30
0.0
 10
94.30674037181238
 20
-96.84406164245577
 30
0.0
 10
94.35150787067028
 20
-96.88882914244434
 30
0.0
 10
94.35150787067028
 20
-96.94396830909741
 30
0.0
 10
94.35150787067028
 20
-96.99907219797232
 30
0.0
 10
94.30674037181238
 20
-97.04387497573904
 30
0.0
 10
94.25160120655244
 20
-97.04387497573904
 30
0.0
 10
94.19649731906937
 20
-97.04387497573904
 30
0.0
 10
94.1516945424346
 20
-96.99907219797232
 30
0.0
 10
94.1516945424346
 20
-96.94396830909741
 30
0.0
  0
SPLINE
  5
96
330
1F
100
AcDbEntity
  8
_U+30EC_U+30A4_U+30E4_U+30FC 1
 62
   179
420
  2234388
370
     9
100
AcDbSpline
210
0.0
220
0.0
230
1.0
 70
    11
 71
     3
 72
    17
 73
    13
 74
     0
 42
0.0000000001
 43
0.0000000001
 12
1.0
 22
0.0
 32
0.0
 13
1.0
 23
0.0
 33
0.0
 40
0.0
 40
0.0
 40
0.0
 40
0.0
 40
1.0
 40
1.0
 40
1.0
 40
2.0
 40
2.0
 40
2.0
 40
3.0
 40
3.0
 40
3.0
 40
4.0
 40
4.0
 40
4.0
 40
4.0
 10
95.35198562292373
 20
-96.94396830909741
 30
0.0
 10
95.35198562292373
 20
-96.88882914244434
 30
0.0
 10
95.3967555317061
 20
-96.84406164245577
 30
0.0
 10
95.45189228704157
 20
-96.84406164245577
 30
0.0
 10
95.50699617452464
 20
-96.84406164245577
 30
0.0
 10
95.55179895115941
 20
-96.88882914244434
 30
0.0
 10
95.55179895115941
 20
-96.94396830909741
 30
0.0
 10
95.55179895115941
 20
-96.99907219797232
 30
0.0
 10
95.50699617452464
 20
-97.04387497573904
 30
0.0
 10
95.45189228704157
 20
-97.04387497573904
 30
0.0
 10
95.3967555317061
 20
-97.04387497573904
 30
0.0
 10
95.35198562292373
 20
-96.99907219797232
 30
0.0
 10
95.35198562292373
 20
-96.94396830909741
 30
0.0
  0
SPLINE
  5
97
330
1F
100
AcDbEntity
  8
_U+30EC_U+30A4_U+30E4_U+30FC 1
 62
   179
420
  2234388
370
     9
100
AcDbSpline
210
0.0
220
0.0
230
1.0
 70
    11
 71
     3
 72
    17
 73
    13
 74
     0
 42
0.0000000001
 43
0.0000000001
 12
1.0
 22
0.0
 32
0.0
 13
1.0
 23
0.0
 33
0.0
 40
0.0
 40
0.0
 40
0.0
 40
0.0
 40
1.0
 40
1.0
 40
1.0
 40
2.0
 40
2.0
 40
2.0
 40
3.0
 40
3.0
 40
3.0
 40
4.0
 40
4.0
 40
4.0
 40
4.0
 10
85.65162220080946
 20
-142.4440113532779
 30
0.0
 10
85.65162220080946
 20
-142.388907464403
 30
0.0
 10
85.69638753592524
 20
-142.3441046866362
 30
0.0
 10
85.75152670118518
 20
-142.3441046866362
 30
0.0
 10
85.80698336643704
 20
-142.3441046866362
 30
0.0
 10
85.85178614307179
 20
-142.388907464403
 30
0.0
 10
85.85178614307179
 20
-142.4440113532779
 30
0.0
 10
85.85178614307179
 20
-142.499150519931
 30
0.0
 10
85.80698336643704
 20
-142.5439180199195
 30
0.0
 10
85.75152670118518
 20
-142.5439180199195
 30
0.0
 10
85.69638753592524
 20
-142.5439180199195
 30
0.0
 10
85.65162220080946
 20
-142.499150519931
 30
0.0
 10
85.65162220080946
 20
-142.4440113532779
 30
0.0
  0
SPLINE
  5
98
330
1F
100
AcDbEntity
  8
_U+30EC_U+30A4_U+30E4_U+30FC 1
 62
   179
420
  2234388
370
     9
100
AcDbSpline
210
0.0
220
0.0
230
1.0
 70
    11
 71
     3
 72
    17
 73
    13
 74
     0
 42
0.0000000001
 43
0.0000000001
 12
1.0
 22
0.0
 32
0.0
 13
1.0
 23
0.0
 33
0.0
 40
0.0
 40
0.0
 40
0.0
 40
0.0
 40
1.0
 40
1.0
 40
1.0
 40
2.0
 40
2.0
 40
2.0
 40
3.0
 40
3.0
 40
3.0
 40
4.0
 40
4.0
 40
4.0
 40
4.0
 10
88.65178329386013
 20
-142.4440113532779
 30
0.0
 10
88.65178329386013
 20
-142.388907464403
 30
0.0
 10
88.69655079271803
 20
-142.3441046866362
 30
0.0
 10
88.75168995797797
 20
-142.3441046866362
 30
0.0
 10
88.80679384546104
 20
-142.3441046866362
 30
0.0
 10
88.85159662209581
 20
-142.388907464403
 30
0.0
 10
88.85159662209581
 20
-142.4440113532779
 30
0.0
 10
88.85159662209581
 20
-142.499150519931
 30
0.0
 10
88.80679384546104
 20
-142.5439180199195
 30
0.0
 10
88.75168995797797
 20
-142.5439180199195
 30
0.0
 10
88.69655079271803
 20
-142.5439180199195
 30
0.0
 10
88.65178329386013
 20
-142.499150519931
 30
0.0
 10
88.65178329386013
 20
-142.4440113532779
 30
0.0
  0
SPLINE
  5
99
330
1F
100
AcDbEntity
  8
_U+30EC_U+30A4_U+30E4_U+30FC 1
 62
   179
420
  2234388
370
     9
100
AcDbSpline
210
0.0
220
0.0
230
1.0
 70
    11
 71
     3
 72
    17
 73
    13
 74
     0
 42
0.0000000001
 43
0.0000000001
 12
1.0
 22
0.0
 32
0.0
 13
1.0
 23
0.0
 33
0.0
 40
0.0
 40
0.0
 40
0.0
 40
0.0
 40
1.0
 40
1.0
 40
1.0
 40
2.0
 40
2.0
 40
2.0
 40
3.0
 40
3.0
 40
3.0
 40
4.0
 40
4.0
 40
4.0
 40
4.0
 10
94.1516945424346
 20
-139.9439105205695
 30
0.0
 10
94.1516945424346
 20
-139.8888066316946
 30
0.0
 10
94.19649731906937
 20
-139.8440038539278
 30
0.0
 10
94.25160120655244
 20
-139.8440038539278
 30
0.0
 10
94.30674037181238
 20
-139.8440038539278
 30
0.0
 10
94.35150787067028
 20
-139.8888066316946
 30
0.0
 10
94.35150787067028
 20
-139.9439105205695
 30
0.0
 10
94.35150787067028
 20
-139.9990496872226
 30
0.0
 10
94.30674037181238
 20
-140.0438171872111
 30
0.0
 10
94.25160120655244
 20
-140.0438171872111
 30
0.0
 10
94.19649731906937
 20
-140.0438171872111
 30
0.0
 10
94.1516945424346
 20
-139.9990496872226
 30
0.0
 10
94.1516945424346
 20
-139.9439105205695
 30
0.0
  0
SPLINE
  5
9A
330
1F
100
AcDbEntity
  8
_U+30EC_U+30A4_U+30E4_U+30FC 1
 62
   179
420
  2234388
370
     9
100
AcDbSpline
210
0.0
220
0.0
230
1.0
 70
    11
 71
     3
 72
    17
 73
    13
 74
     0
 42
0.0000000001
 43
0.0000000001
 12
1.0
 22
0.0
 32
0.0
 13
1.0
 23
0.0
 33
0.0
 40
0.0
 40
0.0
 40
0.0
 40
0.0
 40
1.0
 40
1.0
 40
1.0
 40
2.0
 40
2.0
 40
2.0
 40
3.0
 40
3.0
 40
3.0
 40
4.0
 40
4.0
 40
4.0
 40
4.0
 10
81.65150819467426
 20
-159.4441960712502
 30
0.0
 10
81.65150819467426
 20
-159.3890569045971
 30
0.0
 10
81.69631097130902
 20
-159.3442894046086
 30
0.0
 10
81.75176763656087
 20
-159.3442894046086
 30
0.0
 10
81.80690680182082
 20
-159.3442894046086
 30
0.0
 10
81.85167430067871
 20
-159.3890569045971
 30
0.0
 10
81.85167430067871
 20
-159.4441960712502
 30
0.0
 10
81.85167430067871
 20
-159.4992999601251
 30
0.0
 10
81.80690680182082
 20
-159.5441027378918
 30
0.0
 10
81.75176763656087
 20
-159.5441027378918
 30
0.0
 10
81.69631097130902
 20
-159.5441027378918
 30
0.0
 10
81.65150819467426
 20
-159.4992999601251
 30
0.0
 10
81.65150819467426
 20
-159.4441960712502
 30
0.0
  0
SPLINE
  5
9B
330
1F
100
AcDbEntity
  8
_U+30EC_U+30A4_U+30E4_U+30FC 1
 62
   179
420
  2234388
370
     9
100
AcDbSpline
210
0.0
220
0.0
230
1.0
 70
    11
 71
     3
 72
    17
 73
    13
 74
     0
 42
0.0000000001
 43
0.0000000001
 12
1.0
 22
0.0
 32
0.0
 13
1.0
 23
0.0
 33
0.0
 40
0.0
 40
0.0
 40
0.0
 40
0.0
 40
1.0
 40
1.0
 40
1.0
 40
2.0
 40
2.0
 40
2.0
 40
3.0
 40
3.0
 40
3.0
 40
4.0
 40
4.0
 40
4.0
 40
4.0
 10
81.65150819467426
 20
-146.4444760745003
 30
0.0
 10
81.65150819467426
 20
-146.3893369078472
 30
0.0
 10
81.69631097130902
 20
-146.344569407858
 30
0.0
 10
81.75176763656087
 20
-146.344569407858
 30
0.0
 10
81.80690680182082
 20
-146.344569407858
 30
0.0
 10
81.85167430067871
 20
-146.3893369078472
 30
0.0
 10
81.85167430067871
 20
-146.4444760745003
 30
0.0
 10
81.85167430067871
 20
-146.4995799633752
 30
0.0
 10
81.80690680182082
 20
-146.5443827411419
 30
0.0
 10
81.75176763656087
 20
-146.5443827411419
 30
0.0
 10
81.69631097130902
 20
-146.5443827411419
 30
0.0
 10
81.65150819467426
 20
-146.4995799633752
 30
0.0
 10
81.65150819467426
 20
-146.4444760745003
 30
0.0
  0
SPLINE
  5
9C
330
1F
100
AcDbEntity
  8
_U+30EC_U+30A4_U+30E4_U+30FC 1
 62
   179
420
  2234388
370
     9
100
AcDbSpline
210
0.0
220
0.0
230
1.0
 70
    11
 71
     3
 72
    17
 73
    13
 74
     0
 42
0.0000000001
 43
0.0000000001
 12
1.0
 22
0.0
 32
0.0
 13
1.0
 23
0.0
 33
0.0
 40
0.0
 40
0.0
 40
0.0
 40
0.0
 40
1.0
 40
1.0
 40
1.0
 40
2.0
 40
2.0
 40
2.0
 40
3.0
 40
3.0
 40
3.0
 40
4.0
 40
4.0
 40
4.0
 40
4.0
 10
85.65162220080946
 20
-163.4446255146945
 30
0.0
 10
85.65162220080946
 20
-163.388816070264
 30
0.0
 10
85.69638753592524
 20
-163.3440485702748
 30
0.0
 10
85.75152670118518
 20
-163.3440485702748
 30
0.0
 10
85.80698336643704
 20
-163.3440485702748
 30
0.0
 10
85.85178614307179
 20
-163.388816070264
 30
0.0
 10
85.85178614307179
 20
-163.4446255146945
 30
0.0
 10
85.85178614307179
 20
-163.4997646813475
 30
0.0
 10
85.80698336643704
 20
-163.5445321813361
 30
0.0
 10
85.75152670118518
 20
-163.5445321813361
 30
0.0
 10
85.69638753592524
 20
-163.5445321813361
 30
0.0
 10
85.65162220080946
 20
-163.4997646813475
 30
0.0
 10
85.65162220080946
 20
-163.4446255146945
 30
0.0
  0
SPLINE
  5
9D
330
1F
100
AcDbEntity
  8
_U+30EC_U+30A4_U+30E4_U+30FC 1
 62
   179
420
  2234388
370
     9
100
AcDbSpline
210
0.0
220
0.0
230
1.0
 70
    11
 71
     3
 72
    17
 73
    13
 74
     0
 42
0.0000000001
 43
0.0000000001
 12
1.0
 22
0.0
 32
0.0
 13
1.0
 23
0.0
 33
0.0
 40
0.0
 40
0.0
 40
0.0
 40
0.0
 40
1.0
 40
1.0
 40
1.0
 40
2.0
 40
2.0
 40
2.0
 40
3.0
 40
3.0
 40
3.0
 40
4.0
 40
4.0
 40
4.0
 40
4.0
 10
102.6517690478019
 20
-159.4441960712502
 30
0.0
 10
102.6517690478019
 20
-159.3890569045971
 30
0.0
 10
102.6962190466678
 20
-159.3442894046086
 30
0.0
 10
102.7516757119197
 20
-159.3442894046086
 30
0.0
 10
102.8071676549484
 20
-159.3442894046086
 30
0.0
 10
102.8519351538063
 20
-159.3890569045971
 30
0.0
 10
102.8519351538063
 20
-159.4441960712502
 30
0.0
 10
102.8519351538063
 20
-159.4992999601251
 30
0.0
 10
102.8071676549484
 20
-159.5441027378918
 30
0.0
 10
102.7516757119197
 20
-159.5441027378918
 30
0.0
 10
102.6962190466678
 20
-159.5441027378918
 30
0.0
 10
102.6517690478019
 20
-159.4992999601251
 30
0.0
 10
102.6517690478019
 20
-159.4441960712502
 30
0.0
  0
SPLINE
  5
9E
330
1F
100
AcDbEntity
  8
_U+30EC_U+30A4_U+30E4_U+30FC 1
 62
   179
420
  2234388
370
     9
100
AcDbSpline
210
0.0
220
0.0
230
1.0
 70
    11
 71
     3
 72
    17
 73
    13
 74
     0
 42
0.0000000001
 43
0.0000000001
 12
1.0
 22
0.0
 32
0.0
 13
1.0
 23
0.0
 33
0.0
 40
0.0
 40
0.0
 40
0.0
 40
0.0
 40
1.0
 40
1.0
 40
1.0
 40
2.0
 40
2.0
 40
2.0
 40
3.0
 40
3.0
 40
3.0
 40
4.0
 40
4.0
 40
4.0
 40
4.0
 10
102.6517690478019
 20
-156.4438563497781
 30
0.0
 10
102.6517690478019
 20
-156.388717183125
 30
0.0
 10
102.6962190466678
 20
-156.3439496831365
 30
0.0
 10
102.7516757119197
 20
-156.3439496831365
 30
0.0
 10
102.8071676549484
 20
-156.3439496831365
 30
0.0
 10
102.8519351538063
 20
-156.388717183125
 30
0.0
 10
102.8519351538063
 20
-156.4438563497781
 30
0.0
 10
102.8519351538063
 20
-156.4996657942085
 30
0.0
 10
102.8071676549484
 20
-156.5444332941971
 30
0.0
 10
102.7516757119197
 20
-156.5444332941971
 30
0.0
 10
102.6962190466678
 20
-156.5444332941971
 30
0.0
 10
102.6517690478019
 20
-156.4996657942085
 30
0.0
 10
102.6517690478019
 20
-156.4438563497781
 30
0.0
  0
SPLINE
  5
9F
330
1F
100
AcDbEntity
  8
_U+30EC_U+30A4_U+30E4_U+30FC 1
 62
   179
420
  2234388
370
     9
100
AcDbSpline
210
0.0
220
0.0
230
1.0
 70
    11
 71
     3
 72
    17
 73
    13
 74
     0
 42
0.0000000001
 43
0.0000000001
 12
1.0
 22
0.0
 32
0.0
 13
1.0
 23
0.0
 33
0.0
 40
0.0
 40
0.0
 40
0.0
 40
0.0
 40
1.0
 40
1.0
 40
1.0
 40
2.0
 40
2.0
 40
2.0
 40
3.0
 40
3.0
 40
3.0
 40
4.0
 40
4.0
 40
4.0
 40
4.0
 10
98.65169248318564
 20
-163.4446255146945
 30
0.0
 10
98.65169248318564
 20
-163.388816070264
 30
0.0
 10
98.69645998204354
 20
-163.3440485702748
 30
0.0
 10
98.75159914730348
 20
-163.3440485702748
 30
0.0
 10
98.806705530854
 20
-163.3440485702748
 30
0.0
 10
98.85150830862072
 20
-163.388816070264
 30
0.0
 10
98.85150830862072
 20
-163.4446255146945
 30
0.0
 10
98.85150830862072
 20
-163.4997646813475
 30
0.0
 10
98.806705530854
 20
-163.5445321813361
 30
0.0
 10
98.75159914730348
 20
-163.5445321813361
 30
0.0
 10
98.69645998204354
 20
-163.5445321813361
 30
0.0
 10
98.65169248318564
 20
-163.4997646813475
 30
0.0
 10
98.65169248318564
 20
-163.4446255146945
 30
0.0
  0
SPLINE
  5
A0
330
1F
100
AcDbEntity
  8
_U+30EC_U+30A4_U+30E4_U+30FC 1
 62
   179
420
  2234388
370
     9
100
AcDbSpline
210
0.0
220
0.0
230
1.0
 70
    11
 71
     3
 72
    17
 73
    13
 74
     0
 42
0.0000000001
 43
0.0000000001
 12
1.0
 22
0.0
 32
0.0
 13
1.0
 23
0.0
 33
0.0
 40
0.0
 40
0.0
 40
0.0
 40
0.0
 40
1.0
 40
1.0
 40
1.0
 40
2.0
 40
2.0
 40
2.0
 40
3.0
 40
3.0
 40
3.0
 40
4.0
 40
4.0
 40
4.0
 40
4.0
 10
102.6517690478019
 20
-150.944086073375
 30
0.0
 10
102.6517690478019
 20
-150.8889821845
 30
0.0
 10
102.6962190466678
 20
-150.8441794067333
 30
0.0
 10
102.7516757119197
 20
-150.8441794067333
 30
0.0
 10
102.8071676549484
 20
-150.8441794067333
 30
0.0
 10
102.8519351538063
 20
-150.8889821845
 30
0.0
 10
102.8519351538063
 20
-150.944086073375
 30
0.0
 10
102.8519351538063
 20
-150.999225240028
 30
0.0
 10
102.8071676549484
 20
-151.0440280177947
 30
0.0
 10
102.7516757119197
 20
-151.0440280177947
 30
0.0
 10
102.6962190466678
 20
-151.0440280177947
 30
0.0
 10
102.6517690478019
 20
-150.999225240028
 30
0.0
 10
102.6517690478019
 20
-150.944086073375
 30
0.0
  0
SPLINE
  5
A1
330
1F
100
AcDbEntity
  8
_U+30EC_U+30A4_U+30E4_U+30FC 1
 62
   179
420
  2234388
370
     9
100
AcDbSpline
210
0.0
220
0.0
230
1.0
 70
    11
 71
     3
 72
    17
 73
    13
 74
     0
 42
0.0000000001
 43
0.0000000001
 12
1.0
 22
0.0
 32
0.0
 13
1.0
 23
0.0
 33
0.0
 40
0.0
 40
0.0
 40
0.0
 40
0.0
 40
1.0
 40
1.0
 40
1.0
 40
2.0
 40
2.0
 40
2.0
 40
3.0
 40
3.0
 40
3.0
 40
4.0
 40
4.0
 40
4.0
 40
4.0
 10
102.6517690478019
 20
-100.9443977525417
 30
0.0
 10
102.6517690478019
 20
-100.8892938636664
 30
0.0
 10
102.6962190466678
 20
-100.8444910859
 30
0.0
 10
102.7516757119197
 20
-100.8444910859
 30
0.0
 10
102.8071676549484
 20
-100.8444910859
 30
0.0
 10
102.8519351538063
 20
-100.8892938636664
 30
0.0
 10
102.8519351538063
 20
-100.9443977525417
 30
0.0
 10
102.8519351538063
 20
-100.9995369191944
 30
0.0
 10
102.8071676549484
 20
-101.0443044191833
 30
0.0
 10
102.7516757119197
 20
-101.0443044191833
 30
0.0
 10
102.6962190466678
 20
-101.0443044191833
 30
0.0
 10
102.6517690478019
 20
-100.9995369191944
 30
0.0
 10
102.6517690478019
 20
-100.9443977525417
 30
0.0
  0
POLYLINE
  5
A2
330
1F
100
AcDbEntity
  8
_U+30EC_U+30A4_U+30E4_U+30FC 1
 62
   179
420
  2234388
370
     9
100
AcDb2dPolyline
 66
     1
 10
0.0
 20
0.0
 30
0.0
  0
VERTEX
  5
A3
330
A2
100
AcDbEntity
  8
_U+30EC_U+30A4_U+30E4_U+30FC 1
 62
   179
420
  2234388
370
     9
100
AcDbVertex
100
AcDb2dVertex
 10
93.95188121419893
 20
-96.94396830909741
 30
0.0
  0
VERTEX
  5
A4
330
A2
100
AcDbEntity
  8
_U+30EC_U+30A4_U+30E4_U+30FC 1
 62
   179
420
  2234388
370
     9
100
AcDbVertex
100
AcDb2dVertex
 10
100.7094452084658
 20
-96.94396830909741
 30
0.0
  0
SEQEND
  5
A5
330
A2
100
AcDbEntity
  8
_U+30EC_U+30A4_U+30E4_U+30FC 1
 62
   179
420
  2234388
370
     9
  0
POLYLINE
  5
A6
330
1F
100
AcDbEntity
  8
_U+30EC_U+30A4_U+30E4_U+30FC 1
 62
   179
420
  2234388
370
     9
100
AcDb2dPolyline
 66
     1
 10
0.0
 20
0.0
 30
0.0
  0
VERTEX
  5
A7
330
A6
100
AcDbEntity
  8
_U+30EC_U+30A4_U+30E4_U+30FC 1
 62
   179
420
  2234388
370
     9
100
AcDbVertex
100
AcDb2dVertex
 10
93.95188121419893
 20
-96.94396830909741
 30
0.0
  0
VERTEX
  5
A8
330
A6
100
AcDbEntity
  8
_U+30EC_U+30A4_U+30E4_U+30FC 1
 62
   179
420
  2234388
370
     9
100
AcDbVertex
100
AcDb2dVertex
 10
93.25182900983653
 20
-96.94396830909741
 30
0.0
  0
SEQEND
  5
A9
330
A6
100
AcDbEntity
  8
_U+30EC_U+30A4_U+30E4_U+30FC 1
 62
   179
420
  2234388
370
     9
  0
POLYLINE
  5
AA
330
1F
100
AcDbEntity
  8
_U+30EC_U+30A4_U+30E4_U+30FC 1
 62
   179
420
  2234388
370
     9
100
AcDb2dPolyline
 66
     1
 10
0.0
 20
0.0
 30
0.0
  0
VERTEX
  5
AB
330
AA
100
AcDbEntity
  8
_U+30EC_U+30A4_U+30E4_U+30FC 1
 62
   179
420
  2234388
370
     9
100
AcDbVertex
100
AcDb2dVertex
 10
95.45189228704157
 20
-98.40397441984359
 30
0.0
  0
VERTEX
  5
AC
330
AA
100
AcDbEntity
  8
_U+30EC_U+30A4_U+30E4_U+30FC 1
 62
   179
420
  2234388
370
     9
100
AcDbVertex
100
AcDb2dVertex
 10
95.45189228704157
 20
-95.94419608712519
 30
0.0
  0
SEQEND
  5
AD
330
AA
100
AcDbEntity
  8
_U+30EC_U+30A4_U+30E4_U+30FC 1
 62
   179
420
  2234388
370
     9
  0
POLYLINE
  5
AE
330
1F
100
AcDbEntity
  8
_U+30EC_U+30A4_U+30E4_U+30FC 1
 62
   179
420
  2234388
370
     9
100
AcDb2dPolyline
 66
     1
 10
0.0
 20
0.0
 30
0.0
  0
VERTEX
  5
AF
330
AE
100
AcDbEntity
  8
_U+30EC_U+30A4_U+30E4_U+30FC 1
 62
   179
420
  2234388
370
     9
100
AcDbVertex
100
AcDb2dVertex
 10
94.25160120655244
 20
-98.40397441984359
 30
0.0
  0
VERTEX
  5
B0
330
AE
100
AcDbEntity
  8
_U+30EC_U+30A4_U+30E4_U+30FC 1
 62
   179
420
  2234388
370
     9
100
AcDbVertex
100
AcDb2dVertex
 10
94.25160120655244
 20
-95.94419608712519
 30
0.0
  0
SEQEND
  5
B1
330
AE
100
AcDbEntity
  8
_U+30EC_U+30A4_U+30E4_U+30FC 1
 62
   179
420
  2234388
370
     9
  0
POLYLINE
  5
B2
330
1F
100
AcDbEntity
  8
_U+30EC_U+30A4_U+30E4_U+30FC 1
 62
   179
420
  2234388
370
     9
100
AcDb2dPolyline
 66
     1
 10
0.0
 20
0.0
 30
0.0
  0
VERTEX
  5
B3
330
B2
100
AcDbEntity
  8
_U+30EC_U+30A4_U+30E4_U+30FC 1
 62
   179
420
  2234388
370
     9
100
AcDbVertex
100
AcDb2dVertex
 10
102.7516757119197
 20
-150.944086073375
 30
0.0
  0
VERTEX
  5
B4
330
B2
100
AcDbEntity
  8
_U+30EC_U+30A4_U+30E4_U+30FC 1
 62
   179
420
  2234388
370
     9
100
AcDbVertex
100
AcDb2dVertex
 10
102.7516757119197
 20
-100.9443977525417
 30
0.0
  0
SEQEND
  5
B5
330
B2
100
AcDbEntity
  8
_U+30EC_U+30A4_U+30E4_U+30FC 1
 62
   179
420
  2234388
370
     9
  0
POLYLINE
  5
B6
330
1F
100
AcDbEntity
  8
_U+30EC_U+30A4_U+30E4_U+30FC 1
 62
   179
420
  2234388
370
     9
100
AcDb2dPolyline
 66
     1
 10
0.0
 20
0.0
 30
0.0
  0
VERTEX
  5
B7
330
B6
100
AcDbEntity
  8
_U+30EC_U+30A4_U+30E4_U+30FC 1
 62
   179
420
  2234388
370
     9
100
AcDbVertex
100
AcDb2dVertex
 10
97.95164027882325
 20
-150.944086073375
 30
0.0
  0
VERTEX
  5
B8
330
B6
100
AcDbEntity
  8
_U+30EC_U+30A4_U+30E4_U+30FC 1
 62
   179
420
  2234388
370
     9
100
AcDbVertex
100
AcDb2dVertex
 10
103.7518006864044
 20
-150.944086073375
 30
0.0
  0
SEQEND
  5
B9
330
B6
100
AcDbEntity
  8
_U+30EC_U+30A4_U+30E4_U+30FC 1
 62
   179
420
  2234388
370
     9
  0
POLYLINE
  5
BA
330
1F
100
AcDbEntity
  8
_U+30EC_U+30A4_U+30E4_U+30FC 1
 62
   179
420
  2234388
370
     9
100
AcDb2dPolyline
 66
     1
 10
0.0
 20
0.0
 30
0.0
  0
VERTEX
  5
BB
330
BA
100
AcDbEntity
  8
_U+30EC_U+30A4_U+30E4_U+30FC 1
 62
   179
420
  2234388
370
     9
100
AcDbVertex
100
AcDb2dVertex
 10
97.99161000002576
 20
-100.9443977525417
 30
0.0
  0
VERTEX
  5
BC
330
BA
100
AcDbEntity
  8
_U+30EC_U+30A4_U+30E4_U+30FC 1
 62
   179
420
  2234388
370
     9
100
AcDbVertex
100
AcDb2dVertex
 10
103.7518006864044
 20
-100.9443977525417
 30
0.0
  0
SEQEND
  5
BD
330
BA
100
AcDbEntity
  8
_U+30EC_U+30A4_U+30E4_U+30FC 1
 62
   179
420
  2234388
370
     9
  0
POLYLINE
  5
BE
330
1F
100
AcDbEntity
  8
_U+30EC_U+30A4_U+30E4_U+30FC 1
 62
   179
420
  2234388
370
     9
100
AcDb2dPolyline
 66
     1
 10
0.0
 20
0.0
 30
0.0
  0
VERTEX
  5
BF
330
BE
100
AcDbEntity
  8
_U+30EC_U+30A4_U+30E4_U+30FC 1
 62
   179
420
  2234388
370
     9
100
AcDbVertex
100
AcDb2dVertex
 10
102.7516757119197
 20
-156.4438563497781
 30
0.0
  0
VERTEX
  5
C0
330
BE
100
AcDbEntity
  8
_U+30EC_U+30A4_U+30E4_U+30FC 1
 62
   179
420
  2234388
370
     9
100
AcDbVertex
100
AcDb2dVertex
 10
102.7516757119197
 20
-150.944086073375
 30
0.0
  0
SEQEND
  5
C1
330
BE
100
AcDbEntity
  8
_U+30EC_U+30A4_U+30E4_U+30FC 1
 62
   179
420
  2234388
370
     9
  0
POLYLINE
  5
C2
330
1F
100
AcDbEntity
  8
_U+30EC_U+30A4_U+30E4_U+30FC 1
 62
   179
420
  2234388
370
     9
100
AcDb2dPolyline
 66
     1
 10
0.0
 20
0.0
 30
0.0
  0
VERTEX
  5
C3
330
C2
100
AcDbEntity
  8
_U+30EC_U+30A4_U+30E4_U+30FC 1
 62
   179
420
  2234388
370
     9
100
AcDbVertex
100
AcDb2dVertex
 10
101.2916721968994
 20
-156.4438563497781
 30
0.0
  0
VERTEX
  5
C4
330
C2
100
AcDbEntity
  8
_U+30EC_U+30A4_U+30E4_U+30FC 1
 62
   179
420
  2234388
370
     9
100
AcDbVertex
100
AcDb2dVertex
 10
103.7518006864044
 20
-156.4438563497781
 30
0.0
  0
SEQEND
  5
C5
330
C2
100
AcDbEntity
  8
_U+30EC_U+30A4_U+30E4_U+30FC 1
 62
   179
420
  2234388
370
     9
  0
POLYLINE
  5
C6
330
1F
100
AcDbEntity
  8
_U+30EC_U+30A4_U+30E4_U+30FC 1
 62
   179
420
  2234388
370
     9
100
AcDb2dPolyline
 66
     1
 10
0.0
 20
0.0
 30
0.0
  0
VERTEX
  5
C7
330
C6
100
AcDbEntity
  8
_U+30EC_U+30A4_U+30E4_U+30FC 1
 62
   179
420
  2234388
370
     9
100
AcDbVertex
100
AcDb2dVertex
 10
102.7516757119197
 20
-156.4438563497781
 30
0.0
  0
VERTEX
  5
C8
330
C6
100
AcDbEntity
  8
_U+30EC_U+30A4_U+30E4_U+30FC 1
 62
   179
420
  2234388
370
     9
100
AcDbVertex
100
AcDb2dVertex
 10
102.7516757119197
 20
-159.4441960712502
 30
0.0
  0
SEQEND
  5
C9
330
C6
100
AcDbEntity
  8
_U+30EC_U+30A4_U+30E4_U+30FC 1
 62
   179
420
  2234388
370
     9
  0
POLYLINE
  5
CA
330
1F
100
AcDbEntity
  8
_U+30EC_U+30A4_U+30E4_U+30FC 1
 62
   179
420
  2234388
370
     9
100
AcDb2dPolyline
 66
     1
 10
0.0
 20
0.0
 30
0.0
  0
VERTEX
  5
CB
330
CA
100
AcDbEntity
  8
_U+30EC_U+30A4_U+30E4_U+30FC 1
 62
   179
420
  2234388
370
     9
100
AcDbVertex
100
AcDb2dVertex
 10
101.2916721968994
 20
-159.4441960712502
 30
0.0
  0
VERTEX
  5
CC
330
CA
100
AcDbEntity
  8
_U+30EC_U+30A4_U+30E4_U+30FC 1
 62
   179
420
  2234388
370
     9
100
AcDbVertex
100
AcDb2dVertex
 10
103.7518006864044
 20
-159.4441960712502
 30
0.0
  0
SEQEND
  5
CD
330
CA
100
AcDbEntity
  8
_U+30EC_U+30A4_U+30E4_U+30FC 1
 62
   179
420
  2234388
370
     9
  0
POLYLINE
  5
CE
330
1F
100
AcDbEntity
  8
_U+30EC_U+30A4_U+30E4_U+30FC 1
 62
   179
420
  2234388
370
     9
100
AcDb2dPolyline
 66
     1
 10
0.0
 20
0.0
 30
0.0
  0
VERTEX
  5
CF
330
CE
100
AcDbEntity
  8
_U+30EC_U+30A4_U+30E4_U+30FC 1
 62
   179
420
  2234388
370
     9
100
AcDbVertex
100
AcDb2dVertex
 10
81.75176763656087
 20
-146.4444760745003
 30
0.0
  0
VERTEX
  5
D0
330
CE
100
AcDbEntity
  8
_U+30EC_U+30A4_U+30E4_U+30FC 1
 62
   179
420
  2234388
370
     9
100
AcDbVertex
100
AcDb2dVertex
 10
81.75176763656087
 20
-159.4441960712502
 30
0.0
  0
SEQEND
  5
D1
330
CE
100
AcDbEntity
  8
_U+30EC_U+30A4_U+30E4_U+30FC 1
 62
   179
420
  2234388
370
     9
  0
POLYLINE
  5
D2
330
1F
100
AcDbEntity
  8
_U+30EC_U+30A4_U+30E4_U+30FC 1
 62
   179
420
  2234388
370
     9
100
AcDb2dPolyline
 66
     1
 10
0.0
 20
0.0
 30
0.0
  0
VERTEX
  5
D3
330
D2
100
AcDbEntity
  8
_U+30EC_U+30A4_U+30E4_U+30FC 1
 62
   179
420
  2234388
370
     9
100
AcDbVertex
100
AcDb2dVertex
 10
83.21181109030823
 20
-146.4444760745003
 30
0.0
  0
VERTEX
  5
D4
330
D2
100
AcDbEntity
  8
_U+30EC_U+30A4_U+30E4_U+30FC 1
 62
   179
420
  2234388
370
     9
100
AcDbVertex
100
AcDb2dVertex
 10
80.75164266207618
 20
-146.4444760745003
 30
0.0
  0
SEQEND
  5
D5
330
D2
100
AcDbEntity
  8
_U+30EC_U+30A4_U+30E4_U+30FC 1
 62
   179
420
  2234388
370
     9
  0
POLYLINE
  5
D6
330
1F
100
AcDbEntity
  8
_U+30EC_U+30A4_U+30E4_U+30FC 1
 62
   179
420
  2234388
370
     9
100
AcDb2dPolyline
 66
     1
 10
0.0
 20
0.0
 30
0.0
  0
VERTEX
  5
D7
330
D6
100
AcDbEntity
  8
_U+30EC_U+30A4_U+30E4_U+30FC 1
 62
   179
420
  2234388
370
     9
100
AcDbVertex
100
AcDb2dVertex
 10
83.21181109030823
 20
-159.4441960712502
 30
0.0
  0
VERTEX
  5
D8
330
D6
100
AcDbEntity
  8
_U+30EC_U+30A4_U+30E4_U+30FC 1
 62
   179
420
  2234388
370
     9
100
AcDbVertex
100
AcDb2dVertex
 10
80.75164266207618
 20
-159.4441960712502
 30
0.0
  0
SEQEND
  5
D9
330
D6
100
AcDbEntity
  8
_U+30EC_U+30A4_U+30E4_U+30FC 1
 62
   179
420
  2234388
370
     9
  0
POLYLINE
  5
DA
330
1F
100
AcDbEntity
  8
_U+30EC_U+30A4_U+30E4_U+30FC 1
 62
   179
420
  2234388
370
     9
100
AcDb2dPolyline
 66
     1
 10
0.0
 20
0.0
 30
0.0
  0
VERTEX
  5
DB
330
DA
100
AcDbEntity
  8
_U+30EC_U+30A4_U+30E4_U+30FC 1
 62
   179
420
  2234388
370
     9
100
AcDbVertex
100
AcDb2dVertex
 10
88.75168995797797
 20
-142.4440113532779
 30
0.0
  0
VERTEX
  5
DC
330
DA
100
AcDbEntity
  8
_U+30EC_U+30A4_U+30E4_U+30FC 1
 62
   179
420
  2234388
370
     9
100
AcDbVertex
100
AcDb2dVertex
 10
85.75152670118518
 20
-142.4440113532779
 30
0.0
  0
SEQEND
  5
DD
330
DA
100
AcDbEntity
  8
_U+30EC_U+30A4_U+30E4_U+30FC 1
 62
   179
420
  2234388
370
     9
  0
POLYLINE
  5
DE
330
1F
100
AcDbEntity
  8
_U+30EC_U+30A4_U+30E4_U+30FC 1
 62
   179
420
  2234388
370
     9
100
AcDb2dPolyline
 66
     1
 10
0.0
 20
0.0
 30
0.0
  0
VERTEX
  5
DF
330
DE
100
AcDbEntity
  8
_U+30EC_U+30A4_U+30E4_U+30FC 1
 62
   179
420
  2234388
370
     9
100
AcDbVertex
100
AcDb2dVertex
 10
88.75168995797797
 20
-143.9040527418016
 30
0.0
  0
VERTEX
  5
E0
330
DE
100
AcDbEntity
  8
_U+30EC_U+30A4_U+30E4_U+30FC 1
 62
   179
420
  2234388
370
     9
100
AcDbVertex
100
AcDb2dVertex
 10
88.75168995797797
 20
-141.4442391313053
 30
0.0
  0
SEQEND
  5
E1
330
DE
100
AcDbEntity
  8
_U+30EC_U+30A4_U+30E4_U+30FC 1
 62
   179
420
  2234388
370
     9
  0
POLYLINE
  5
E2
330
1F
100
AcDbEntity
  8
_U+30EC_U+30A4_U+30E4_U+30FC 1
 62
   179
420
  2234388
370
     9
100
AcDb2dPolyline
 66
     1
 10
0.0
 20
0.0
 30
0.0
  0
VERTEX
  5
E3
330
E2
100
AcDbEntity
  8
_U+30EC_U+30A4_U+30E4_U+30FC 1
 62
   179
420
  2234388
370
     9
100
AcDbVertex
100
AcDb2dVertex
 10
85.75152670118518
 20
-143.9040527418016
 30
0.0
  0
VERTEX
  5
E4
330
E2
100
AcDbEntity
  8
_U+30EC_U+30A4_U+30E4_U+30FC 1
 62
   179
420
  2234388
370
     9
100
AcDbVertex
100
AcDb2dVertex
 10
85.75152670118518
 20
-141.4442391313053
 30
0.0
  0
SEQEND
  5
E5
330
E2
100
AcDbEntity
  8
_U+30EC_U+30A4_U+30E4_U+30FC 1
 62
   179
420
  2234388
370
     9
  0
POLYLINE
  5
E6
330
1F
100
AcDbEntity
  8
_U+30EC_U+30A4_U+30E4_U+30FC 1
 62
   179
420
  2234388
370
     9
100
AcDb2dPolyline
 66
     1
 10
0.0
 20
0.0
 30
0.0
  0
VERTEX
  5
E7
330
E6
100
AcDbEntity
  8
_U+30EC_U+30A4_U+30E4_U+30FC 1
 62
   179
420
  2234388
370
     9
100
AcDbVertex
100
AcDb2dVertex
 10
88.75168995797797
 20
-142.4440113532779
 30
0.0
  0
VERTEX
  5
E8
330
E6
100
AcDbEntity
  8
_U+30EC_U+30A4_U+30E4_U+30FC 1
 62
   179
420
  2234388
370
     9
100
AcDbVertex
100
AcDb2dVertex
 10
94.25160120655244
 20
-142.4440113532779
 30
0.0
  0
SEQEND
  5
E9
330
E6
100
AcDbEntity
  8
_U+30EC_U+30A4_U+30E4_U+30FC 1
 62
   179
420
  2234388
370
     9
  0
POLYLINE
  5
EA
330
1F
100
AcDbEntity
  8
_U+30EC_U+30A4_U+30E4_U+30FC 1
 62
   179
420
  2234388
370
     9
100
AcDb2dPolyline
 66
     1
 10
0.0
 20
0.0
 30
0.0
  0
VERTEX
  5
EB
330
EA
100
AcDbEntity
  8
_U+30EC_U+30A4_U+30E4_U+30FC 1
 62
   179
420
  2234388
370
     9
100
AcDbVertex
100
AcDb2dVertex
 10
98.75159914730348
 20
-163.4446255146945
 30
0.0
  0
VERTEX
  5
EC
330
EA
100
AcDbEntity
  8
_U+30EC_U+30A4_U+30E4_U+30FC 1
 62
   179
420
  2234388
370
     9
100
AcDbVertex
100
AcDb2dVertex
 10
85.75152670118518
 20
-163.4446255146945
 30
0.0
  0
SEQEND
  5
ED
330
EA
100
AcDbEntity
  8
_U+30EC_U+30A4_U+30E4_U+30FC 1
 62
   179
420
  2234388
370
     9
  0
POLYLINE
  5
EE
330
1F
100
AcDbEntity
  8
_U+30EC_U+30A4_U+30E4_U+30FC 1
 62
   179
420
  2234388
370
     9
100
AcDb2dPolyline
 66
     1
 10
0.0
 20
0.0
 30
0.0
  0
VERTEX
  5
EF
330
EE
100
AcDbEntity
  8
_U+30EC_U+30A4_U+30E4_U+30FC 1
 62
   179
420
  2234388
370
     9
100
AcDbVertex
100
AcDb2dVertex
 10
98.75159914730348
 20
-161.9845841261707
 30
0.0
  0
VERTEX
  5
F0
330
EE
100
AcDbEntity
  8
_U+30EC_U+30A4_U+30E4_U+30FC 1
 62
   179
420
  2234388
370
     9
100
AcDbVertex
100
AcDb2dVertex
 10
98.75159914730348
 20
-164.444397736667
 30
0.0
  0
SEQEND
  5
F1
330
EE
100
AcDbEntity
  8
_U+30EC_U+30A4_U+30E4_U+30FC 1
 62
   179
420
  2234388
370
     9
  0
POLYLINE
  5
F2
330
1F
100
AcDbEntity
  8
_U+30EC_U+30A4_U+30E4_U+30FC 1
 62
   179
420
  2234388
370
     9
100
AcDb2dPolyline
 66
     1
 10
0.0
 20
0.0
 30
0.0
  0
VERTEX
  5
F3
330
F2
100
AcDbEntity
  8
_U+30EC_U+30A4_U+30E4_U+30FC 1
 62
   179
420
  2234388
370
     9
100
AcDbVertex
100
AcDb2dVertex
 10
85.75152670118518
 20
-161.9845841261707
 30
0.0
  0
VERTEX
  5
F4
330
F2
100
AcDbEntity
  8
_U+30EC_U+30A4_U+30E4_U+30FC 1
 62
   179
420
  2234388
370
     9
100
AcDbVertex
100
AcDb2dVertex
 10
85.75152670118518
 20
-164.444397736667
 30
0.0
  0
SEQEND
  5
F5
330
F2
100
AcDbEntity
  8
_U+30EC_U+30A4_U+30E4_U+30FC 1
 62
   179
420
  2234388
370
     9
  0
INSERT
  5
F7
330
1F
100
AcDbEntity
  8
_U+30EC_U+30A4_U+30E4_U+30FC 1
100
AcDbBlockReference
  2
block 2
 10
0.0
 20
0.0
 30
0.0
  0
INSERT
  5
107
330
1F
100
AcDbEntity
  8
_U+30EC_U+30A4_U+30E4_U+30FC 1
100
AcDbBlockReference
  2
block 3
 10
0.0
 20
0.0
 30
0.0
  0
INSERT
  5
110
330
1F
100
AcDbEntity
  8
_U+30EC_U+30A4_U+30E4_U+30FC 1
100
AcDbBlockReference
  2
block 4
 10
0.0
 20
0.0
 30
0.0
  0
INSERT
  5
120
330
1F
100
AcDbEntity
  8
_U+30EC_U+30A4_U+30E4_U+30FC 1
100
AcDbBlockReference
  2
block 5
 10
0.0
 20
0.0
 30
0.0
  0
INSERT
  5
126
330
1F
100
AcDbEntity
  8
_U+30EC_U+30A4_U+30E4_U+30FC 1
100
AcDbBlockReference
  2
block 6
 10
0.0
 20
0.0
 30
0.0
  0
INSERT
  5
12E
330
1F
100
AcDbEntity
  8
_U+30EC_U+30A4_U+30E4_U+30FC 1
100
AcDbBlockReference
  2
block 7
 10
0.0
 20
0.0
 30
0.0
  0
INSERT
  5
134
330
1F
100
AcDbEntity
  8
_U+30EC_U+30A4_U+30E4_U+30FC 1
100
AcDbBlockReference
  2
block 8
 10
0.0
 20
0.0
 30
0.0
  0
INSERT
  5
144
330
1F
100
AcDbEntity
  8
_U+30EC_U+30A4_U+30E4_U+30FC 1
100
AcDbBlockReference
  2
block 9
 10
0.0
 20
0.0
 30
0.0
  0
ENDSEC
  0
SECTION
  2
OBJECTS
  0
DICTIONARY
  5
C
330
0
100
AcDbDictionary
281
     1
  3
ACAD_GROUP
350
D
  3
ACAD_LAYOUT
350
1A
  3
ACAD_MATERIAL
350
3B
  3
ACAD_MLEADERSTYLE
350
14C
  3
ACAD_MLINESTYLE
350
17
  3
ACAD_PLOTSETTINGS
350
19
  3
ACAD_PLOTSTYLENAME
350
E
  3
ACAD_TABLESTYLE
350
14B
  3
ACAD_VISUALSTYLE
350
2A
  0
SUN
  5
3F
330
29
100
AcDbSun
 90
        1
290
     0
 63
     7
421
 16777215
 40
1.0
291
     1
 91
  2455826
 92
 54000000
292
     0
 70
     2
 71
   256
280
     1
  0
DICTIONARY
  5
D
102
{ACAD_REACTORS
330
C
102
}
330
C
100
AcDbDictionary
281
     1
  0
DICTIONARY
  5
1A
102
{ACAD_REACTORS
330
C
102
}
330
C
100
AcDbDictionary
281
     1
  3
Layout1
350
1E
  3
Layout2
350
26
  3
Model
350
22
  0
DICTIONARY
  5
3B
102
{ACAD_REACTORS
330
C
102
}
330
C
100
AcDbDictionary
281
     1
  3
ByBlock
350
3D
  3
ByLayer
350
3C
  3
Global
350
3E
  0
DICTIONARY
  5
14C
102
{ACAD_REACTORS
330
C
102
}
330
C
100
AcDbDictionary
281
     1
  0
DICTIONARY
  5
17
102
{ACAD_REACTORS
330
C
102
}
330
C
100
AcDbDictionary
281
     1
  3
Standard
350
18
  0
DICTIONARY
  5
19
102
{ACAD_REACTORS
330
C
102
}
330
C
100
AcDbDictionary
281
     1
  0
ACDBDICTIONARYWDFLT
  5
E
102
{ACAD_REACTORS
330
C
102
}
330
C
100
AcDbDictionary
281
     1
  3
Normal
350
F
100
AcDbDictionaryWithDefault
340
F
  0
DICTIONARY
  5
14B
102
{ACAD_REACTORS
330
C
102
}
330
C
100
AcDbDictionary
281
     1
  0
DICTIONARY
  5
2A
102
{ACAD_REACTORS
330
C
102
}
330
C
100
AcDbDictionary
281
     1
  3
2dWireframe
350
2F
  3
3D Hidden
350
31
  3
3dWireframe
350
30
  3
Basic
350
32
  3
Brighten
350
36
  3
ColorChange
350
3A
  3
Conceptual
350
34
  3
Dim
350
35
  3
Facepattern
350
39
  3
Flat
350
2B
  3
FlatWithEdges
350
2C
  3
Gouraud
350
2D
  3
GouraudWithEdges
350
2E
  3
Linepattern
350
38
  3
Realistic
350
33
  3
Thicken
350
37
  0
LAYOUT
  5
1E
102
{ACAD_REACTORS
330
1A
102
}
330
1A
100
AcDbPlotSettings
  1

  2
none_device
  4

  6

 40
0.0
 41
0.0
 42
0.0
 43
0.0
 44
0.0
 45
0.0
 46
0.0
 47
0.0
 48
0.0
 49
0.0
140
0.0
141
0.0
142
1.0
143
1.0
 70
   688
 72
     0
 73
     0
 74
     5
  7

 75
    16
 76
     0
 77
     2
 78
   300
147
1.0
148
0.0
149
0.0
100
AcDbLayout
  1
Layout1
 70
     1
 71
     1
 10
0.0
 20
0.0
 11
12.0
 21
9.0
 12
0.0
 22
0.0
 32
0.0
 14
1.000000000000000E+20
 24
1.000000000000000E+20
 34
1.000000000000000E+20
 15
-1.000000000000000E+20
 25
-1.000000000000000E+20
 35
-1.000000000000000E+20
146
0.0
 13
0.0
 23
0.0
 33
0.0
 16
1.0
 26
0.0
 36
0.0
 17
0.0
 27
1.0
 37
0.0
 76
     0
330
1B
  0
LAYOUT
  5
26
102
{ACAD_REACTORS
330
1A
102
}
330
1A
100
AcDbPlotSettings
  1

  2
none_device
  4

  6

 40
0.0
 41
0.0
 42
0.0
 43
0.0
 44
0.0
 45
0.0
 46
0.0
 47
0.0
 48
0.0
 49
0.0
140
0.0
141
0.0
142
1.0
143
1.0
 70
   688
 72
     0
 73
     0
 74
     5
  7

 75
    16
 76
     0
 77
     2
 78
   300
147
1.0
148
0.0
149
0.0
100
AcDbLayout
  1
Layout2
 70
     1
 71
     2
 10
0.0
 20
0.0
 11
0.0
 21
0.0
 12
0.0
 22
0.0
 32
0.0
 14
0.0
 24
0.0
 34
0.0
 15
0.0
 25
0.0
 35
0.0
146
0.0
 13
0.0
 23
0.0
 33
0.0
 16
1.0
 26
0.0
 36
0.0
 17
0.0
 27
1.0
 37
0.0
 76
     0
330
23
  0
LAYOUT
  5
22
102
{ACAD_REACTORS
330
1A
102
}
330
1A
100
AcDbPlotSettings
  1

  2
none_device
  4

  6

 40
0.0
 41
0.0
 42
0.0
 43
0.0
 44
0.0
 45
0.0
 46
0.0
 47
0.0
 48
0.0
 49
0.0
140
0.0
141
0.0
142
1.0
143
1.0
 70
  1712
 72
     0
 73
     0
 74
     0
  7

 75
     0
 76
     0
 77
     2
 78
   300
147
1.0
148
0.0
149
0.0
100
AcDbLayout
  1
Model
 70
     1
 71
     0
 10
0.0
 20
0.0
 11
12.0
 21
9.0
 12
0.0
 22
0.0
 32
0.0
 14
1.000000000000000E+20
 24
1.000000000000000E+20
 34
1.000000000000000E+20
 15
-1.000000000000000E+20
 25
-1.000000000000000E+20
 35
-1.000000000000000E+20
146
0.0
 13
0.0
 23
0.0
 33
0.0
 16
1.0
 26
0.0
 36
0.0
 17
0.0
 27
1.0
 37
0.0
 76
     0
330
1F
331
29
  0
MATERIAL
  5
3D
102
{ACAD_REACTORS
330
3B
102
}
330
3B
100
AcDbMaterial
  1
ByBlock
 72
     1
 94
      127
  0
MATERIAL
  5
3C
102
{ACAD_REACTORS
330
3B
102
}
330
3B
100
AcDbMaterial
  1
ByLayer
 72
     1
 94
      127
  0
MATERIAL
  5
3E
102
{ACAD_REACTORS
330
3B
102
}
330
3B
100
AcDbMaterial
  1
Global
 72
     1
 94
      127
  0
MLINESTYLE
  5
18
102
{ACAD_REACTORS
330
17
102
}
330
17
100
AcDbMlineStyle
  2
Standard
 70
     0
  3

 62
   256
 51
90.0
 52
90.0
 71
     2
 49
0.5
 62
   256
  6
BYLAYER
 49
-0.5
 62
   256
  6
BYLAYER
  0
ACDBPLACEHOLDER
  5
F
102
{ACAD_REACTORS
330
E
102
}
330
E
  0
VISUALSTYLE
  5
2F
102
{ACAD_REACTORS
330
2A
102
}
330
2A
100
AcDbVisualStyle
  2
2dWireframe
 70
     4
177
     2
291
     0
 71
     0
176
     1
 72
     2
176
     1
 73
     0
176
     1
 90
        0
176
     1
 40
-0.6
176
     1
 41
-30.0
176
     1
 62
     5
 63
     7
421
 16777215
176
     1
 74
     1
176
     1
 91
        4
176
     1
 64
     7
176
     1
 65
   257
176
     1
 75
     1
176
     1
175
     1
176
     1
 42
1.0
176
     1
 92
        0
176
     1
 66
   257
176
     1
 43
1.0
176
     1
 76
     1
176
     1
 77
     6
176
     1
 78
     2
176
     1
 67
     7
176
     1
 79
     5
176
     1
170
     0
176
     1
171
     0
176
     1
290
     0
176
     1
 93
        1
176
     1
 44
0.0
176
     1
173
     0
176
     1
  0
VISUALSTYLE
  5
31
102
{ACAD_REACTORS
330
2A
102
}
330
2A
100
AcDbVisualStyle
  2
3D Hidden
 70
     6
177
     2
291
     0
 71
     1
176
     1
 72
     2
176
     1
 73
     2
176
     1
 90
        0
176
     1
 40
-0.6
176
     1
 41
-30.0
176
     1
 62
     5
 63
     7
421
 16777215
176
     1
 74
     2
176
     1
 91
        2
176
     1
 64
     7
176
     1
 65
   257
176
     1
 75
     2
176
     1
175
     1
176
     1
 42
40.0
176
     1
 92
        0
176
     1
 66
   257
176
     1
 43
1.0
176
     1
 76
     1
176
     1
 77
     6
176
     1
 78
     2
176
     1
 67
     7
176
     1
 79
     3
176
     1
170
     0
176
     1
171
     0
176
     1
290
     0
176
     1
 93
        1
176
     1
 44
0.0
176
     1
173
     0
176
     1
  0
VISUALSTYLE
  5
30
102
{ACAD_REACTORS
330
2A
102
}
330
2A
100
AcDbVisualStyle
  2
3dWireframe
 70
     5
177
     2
291
     0
 71
     0
176
     1
 72
     2
176
     1
 73
     0
176
     1
 90
        0
176
     1
 40
-0.6
176
     1
 41
-30.0
176
     1
 62
     5
 63
     7
421
 16777215
176
     1
 74
     1
176
     1
 91
        4
176
     1
 64
     7
176
     1
 65
   257
176
     1
 75
     1
176
     1
175
     1
176
     1
 42
1.0
176
     1
 92
        0
176
     1
 66
   257
176
     1
 43
1.0
176
     1
 76
     1
176
     1
 77
     6
176
     1
 78
     2
176
     1
 67
     7
176
     1
 79
     5
176
     1
170
     0
176
     1
171
     0
176
     1
290
     0
176
     1
 93
        1
176
     1
 44
0.0
176
     1
173
     0
176
     1
  0
VISUALSTYLE
  5
32
102
{ACAD_REACTORS
330
2A
102
}
330
2A
100
AcDbVisualStyle
  2
Basic
 70
     7
177
     2
291
     1
 71
     1
176
     1
 72
     0
176
     1
 73
     1
176
     1
 90
        0
176
     1
 40
-0.6
176
     1
 41
-30.0
176
     1
 62
     5
 63
     7
421
 16777215
176
     1
 74
     0
176
     1
 91
        4
176
     1
 64
     7
176
     1
 65
   257
176
     1
 75
     1
176
     1
175
     1
176
     1
 42
1.0
176
     1
 92
        8
176
     1
 66
     7
176
     1
 43
1.0
176
     1
 76
     1
176
     1
 77
     6
176
     1
 78
     2
176
     1
 67
     7
176
     1
 79
     5
176
     1
170
     0
176
     1
171
     0
176
     1
290
     0
176
     1
 93
        1
176
     1
 44
0.0
176
     1
173
     0
176
     1
  0
VISUALSTYLE
  5
36
102
{ACAD_REACTORS
330
2A
102
}
330
2A
100
AcDbVisualStyle
  2
Brighten
 70
    12
177
     2
291
     1
 71
     2
176
     1
 72
     2
176
     1
 73
     0
176
     1
 90
        0
176
     1
 40
-0.6
176
     1
 41
-30.0
176
     1
 62
     5
 63
     7
421
 16777215
176
     1
 74
     1
176
     1
 91
        4
176
     1
 64
     7
176
     1
 65
   257
176
     1
 75
     1
176
     1
175
     1
176
     1
 42
1.0
176
     1
 92
        8
176
     1
 66
     7
176
     1
 43
1.0
176
     1
 76
     1
176
     1
 77
     6
176
     1
 78
     2
176
     1
 67
     7
176
     1
 79
     5
176
     1
170
     0
176
     1
171
     0
176
     1
290
     0
176
     1
 93
        1
176
     1
 44
50.0
176
     1
173
     0
176
     1
  0
VISUALSTYLE
  5
3A
102
{ACAD_REACTORS
330
2A
102
}
330
2A
100
AcDbVisualStyle
  2
ColorChange
 70
    16
177
     2
291
     1
 71
     2
176
     1
 72
     2
176
     1
 73
     3
176
     1
 90
        0
176
     1
 40
-0.6
176
     1
 41
-30.0
176
     1
 62
     5
 63
     8
421
  8421504
176
     1
 74
     1
176
     1
 91
        4
176
     1
 64
     7
176
     1
 65
   257
176
     1
 75
     1
176
     1
175
     1
176
     1
 42
1.0
176
     1
 92
        8
176
     1
 66
     8
424
  8421504
176
     1
 43
1.0
176
     1
 76
     1
176
     1
 77
     6
176
     1
 78
     2
176
     1
 67
     7
176
     1
 79
     5
176
     1
170
     0
176
     1
171
     0
176
     1
290
     0
176
     1
 93
        1
176
     1
 44
0.0
176
     1
173
     0
176
     1
  0
VISUALSTYLE
  5
34
102
{ACAD_REACTORS
330
2A
102
}
330
2A
100
AcDbVisualStyle
  2
Conceptual
 70
     9
177
     2
291
     0
 71
     3
176
     1
 72
     2
176
     1
 73
     0
176
     1
 90
        0
176
     1
 40
-0.6
176
     1
 41
-30.0
176
     1
 62
     5
 63
     7
421
 16777215
176
     1
 74
     2
176
     1
 91
        2
176
     1
 64
     7
176
     1
 65
   257
176
     1
 75
     1
176
     1
175
     1
176
     1
 42
40.0
176
     1
 92
        8
176
     1
 66
     7
176
     1
 43
1.0
176
     1
 76
     1
176
     1
 77
     6
176
     1
 78
     2
176
     1
 67
     7
176
     1
 79
     3
176
     1
170
     0
176
     1
171
     0
176
     1
290
     0
176
     1
 93
        1
176
     1
 44
0.0
176
     1
173
     0
176
     1
  0
VISUALSTYLE
  5
35
102
{ACAD_REACTORS
330
2A
102
}
330
2A
100
AcDbVisualStyle
  2
Dim
 70
    11
177
     2
291
     1
 71
     2
176
     1
 72
     2
176
     1
 73
     0
176
     1
 90
        0
176
     1
 40
-0.6
176
     1
 41
-30.0
176
     1
 62
     5
 63
     7
421
 16777215
176
     1
 74
     1
176
     1
 91
        4
176
     1
 64
     7
176
     1
 65
   257
176
     1
 75
     1
176
     1
175
     1
176
     1
 42
1.0
176
     1
 92
        8
176
     1
 66
     7
176
     1
 43
1.0
176
     1
 76
     1
176
     1
 77
     6
176
     1
 78
     2
176
     1
 67
     7
176
     1
 79
     5
176
     1
170
     0
176
     1
171
     0
176
     1
290
     0
176
     1
 93
        1
176
     1
 44
-50.0
176
     1
173
     0
176
     1
  0
VISUALSTYLE
  5
39
102
{ACAD_REACTORS
330
2A
102
}
330
2A
100
AcDbVisualStyle
  2
Facepattern
 70
    15
177
     2
291
     1
 71
     2
176
     1
 72
     2
176
     1
 73
     0
176
     1
 90
        0
176
     1
 40
-0.6
176
     1
 41
-30.0
176
     1
 62
     5
 63
     7
421
 16777215
176
     1
 74
     1
176
     1
 91
        4
176
     1
 64
     7
176
     1
 65
   257
176
     1
 75
     1
176
     1
175
     1
176
     1
 42
1.0
176
     1
 92
        8
176
     1
 66
     7
176
     1
 43
1.0
176
     1
 76
     1
176
     1
 77
     6
176
     1
 78
     2
176
     1
 67
     7
176
     1
 79
     5
176
     1
170
     0
176
     1
171
     0
176
     1
290
     0
176
     1
 93
        1
176
     1
 44
0.0
176
     1
173
     0
176
     1
  0
VISUALSTYLE
  5
2B
102
{ACAD_REACTORS
330
2A
102
}
330
2A
100
AcDbVisualStyle
  2
Flat
 70
     0
177
     2
291
     1
 71
     2
176
     1
 72
     1
176
     1
 73
     1
176
     1
 90
        2
176
     1
 40
-0.6
176
     1
 41
30.0
176
     1
 62
     5
 63
     7
421
 16777215
176
     1
 74
     0
176
     1
 91
        4
176
     1
 64
     7
176
     1
 65
   257
176
     1
 75
     1
176
     1
175
     1
176
     1
 42
1.0
176
     1
 92
        8
176
     1
 66
     7
176
     1
 43
1.0
176
     1
 76
     1
176
     1
 77
     6
176
     1
 78
     2
176
     1
 67
     7
176
     1
 79
     5
176
     1
170
     0
176
     1
171
     0
176
     1
290
     0
176
     1
 93
       13
176
     1
 44
0.0
176
     1
173
     0
176
     1
  0
VISUALSTYLE
  5
2C
102
{ACAD_REACTORS
330
2A
102
}
330
2A
100
AcDbVisualStyle
  2
FlatWithEdges
 70
     1
177
     2
291
     1
 71
     2
176
     1
 72
     1
176
     1
 73
     1
176
     1
 90
        2
176
     1
 40
-0.6
176
     1
 41
30.0
176
     1
 62
     5
 63
     7
421
 16777215
176
     1
 74
     1
176
     1
 91
        4
176
     1
 64
     7
176
     1
 65
   257
176
     1
 75
     1
176
     1
175
     1
176
     1
 42
1.0
176
     1
 92
        0
176
     1
 66
   257
176
     1
 43
1.0
176
     1
 76
     1
176
     1
 77
     6
176
     1
 78
     2
176
     1
 67
     7
176
     1
 79
     5
176
     1
170
     0
176
     1
171
     0
176
     1
290
     0
176
     1
 93
       13
176
     1
 44
0.0
176
     1
173
     0
176
     1
  0
VISUALSTYLE
  5
2D
102
{ACAD_REACTORS
330
2A
102
}
330
2A
100
AcDbVisualStyle
  2
Gouraud
 70
     2
177
     2
291
     1
 71
     2
176
     1
 72
     2
176
     1
 73
     1
176
     1
 90
        2
176
     1
 40
-0.6
176
     1
 41
30.0
176
     1
 62
     5
 63
     7
421
 16777215
176
     1
 74
     0
176
     1
 91
        4
176
     1
 64
     7
176
     1
 65
   257
176
     1
 75
     1
176
     1
175
     1
176
     1
 42
1.0
176
     1
 92
        0
176
     1
 66
     7
176
     1
 43
1.0
176
     1
 76
     1
176
     1
 77
     6
176
     1
 78
     2
176
     1
 67
     7
176
     1
 79
     5
176
     1
170
     0
176
     1
171
     0
176
     1
290
     0
176
     1
 93
       13
176
     1
 44
0.0
176
     1
173
     0
176
     1
  0
VISUALSTYLE
  5
2E
102
{ACAD_REACTORS
330
2A
102
}
330
2A
100
AcDbVisualStyle
  2
GouraudWithEdges
 70
     3
177
     2
291
     1
 71
     2
176
     1
 72
     2
176
     1
 73
     1
176
     1
 90
        2
176
     1
 40
-0.6
176
     1
 41
30.0
176
     1
 62
     5
 63
     7
421
 16777215
176
     1
 74
     1
176
     1
 91
        4
176
     1
 64
     7
176
     1
 65
   257
176
     1
 75
     1
176
     1
175
     1
176
     1
 42
1.0
176
     1
 92
        0
176
     1
 66
   257
176
     1
 43
1.0
176
     1
 76
     1
176
     1
 77
     6
176
     1
 78
     2
176
     1
 67
     7
176
     1
 79
     5
176
     1
170
     0
176
     1
171
     0
176
     1
290
     0
176
     1
 93
       13
176
     1
 44
0.0
176
     1
173
     0
176
     1
  0
VISUALSTYLE
  5
38
102
{ACAD_REACTORS
330
2A
102
}
330
2A
100
AcDbVisualStyle
  2
Linepattern
 70
    14
177
     2
291
     1
 71
     2
176
     1
 72
     2
176
     1
 73
     0
176
     1
 90
        0
176
     1
 40
-0.6
176
     1
 41
-30.0
176
     1
 62
     5
 63
     7
421
 16777215
176
     1
 74
     1
176
     1
 91
        4
176
     1
 64
     7
176
     1
 65
   257
176
     1
 75
     7
176
     1
175
     7
176
     1
 42
1.0
176
     1
 92
        8
176
     1
 66
     7
176
     1
 43
1.0
176
     1
 76
     1
176
     1
 77
     6
176
     1
 78
     2
176
     1
 67
     7
176
     1
 79
     5
176
     1
170
     0
176
     1
171
     0
176
     1
290
     0
176
     1
 93
        1
176
     1
 44
0.0
176
     1
173
     0
176
     1
  0
VISUALSTYLE
  5
33
102
{ACAD_REACTORS
330
2A
102
}
330
2A
100
AcDbVisualStyle
  2
Realistic
 70
     8
177
     2
291
     0
 71
     2
176
     1
 72
     2
176
     1
 73
     0
176
     1
 90
        0
176
     1
 40
-0.6
176
     1
 41
-30.0
176
     1
 62
     5
 63
     7
421
 16777215
176
     1
 74
     1
176
     1
 91
        0
176
     1
 64
     7
176
     1
 65
   257
176
     1
 75
     1
176
     1
175
     1
176
     1
 42
1.0
176
     1
 92
        8
176
     1
 66
     8
424
  7895160
176
     1
 43
1.0
176
     1
 76
     1
176
     1
 77
     6
176
     1
 78
     2
176
     1
 67
     7
176
     1
 79
     5
176
     1
170
     0
176
     1
171
     0
176
     1
290
     0
176
     1
 93
       13
176
     1
 44
0.0
176
     1
173
     0
176
     1
  0
VISUALSTYLE
  5
37
102
{ACAD_REACTORS
330
2A
102
}
330
2A
100
AcDbVisualStyle
  2
Thicken
 70
    13
177
     2
291
     1
 71
     2
176
     1
 72
     2
176
     1
 73
     0
176
     1
 90
        0
176
     1
 40
-0.6
176
     1
 41
-30.0
176
     1
 62
     5
 63
     7
421
 16777215
176
     1
 74
     1
176
     1
 91
        4
176
     1
 64
     7
176
     1
 65
   257
176
     1
 75
     1
176
     1
175
     1
176
     1
 42
1.0
176
     1
 92
       12
176
     1
 66
     7
176
     1
 43
1.0
176
     1
 76
     1
176
     1
 77
     6
176
     1
 78
     2
176
     1
 67
     7
176
     1
 79
     5
176
     1
170
     0
176
     1
171
     0
176
     1
290
     0
176
     1
 93
        1
176
     1
 44
0.0
176
     1
173
     0
176
     1
  0
ENDSEC
  0
EOF
