  0
SECTION
  2
HEADER
  9
$ACADVER
  1
AC1024
  9
$ACADMAINTVER
 70
     6
  9
$DWGCODEPAGE
  3
UNDEFINED
  9
$INSBASE
 10
0.0
 20
0.0
 30
0.0
  9
$EXTMIN
 10
1.000000000000000E+20
 20
1.000000000000000E+20
 30
1.000000000000000E+20
  9
$EXTMAX
 10
-1.000000000000000E+20
 20
-1.000000000000000E+20
 30
-1.000000000000000E+20
  9
$LIMMIN
 10
0.0
 20
0.0
  9
$LIMMAX
 10
12.0
 20
9.0
  9
$ORTHOMODE
 70
     0
  9
$REGENMODE
 70
     1
  9
$FILLMODE
 70
     1
  9
$QTEXTMODE
 70
     0
  9
$MIRRTEXT
 70
     1
  9
$LTSCALE
 40
1.0
  9
$ATTMODE
 70
     1
  9
$TEXTSIZE
 40
0.2
  9
$TRACEWID
 40
0.05
  9
$TEXTSTYLE
  7
Standard
  9
$CLAYER
  8
0
  9
$CELTYPE
  6
ByLayer
  9
$CECOLOR
 62
   256
  9
$CELTSCALE
 40
1.0
  9
$DISPSILH
 70
     0
  9
$DIMSCALE
 40
1.0
  9
$DIMASZ
 40
0.18
  9
$DIMEXO
 40
0.0625
  9
$DIMDLI
 40
0.38
  9
$DIMRND
 40
0.0
  9
$DIMDLE
 40
0.0
  9
$DIMEXE
 40
0.18
  9
$DIMTP
 40
0.0
  9
$DIMTM
 40
0.0
  9
$DIMTXT
 40
0.18
  9
$DIMCEN
 40
0.09
  9
$DIMTSZ
 40
0.0
  9
$DIMTOL
 70
     0
  9
$DIMLIM
 70
     0
  9
$DIMTIH
 70
     1
  9
$DIMTOH
 70
     1
  9
$DIMSE1
 70
     0
  9
$DIMSE2
 70
     0
  9
$DIMTAD
 70
     0
  9
$DIMZIN
 70
     0
  9
$DIMBLK
  1

  9
$DIMASO
 70
     1
  9
$DIMSHO
 70
     1
  9
$DIMPOST
  1

  9
$DIMAPOST
  1

  9
$DIMALT
 70
     0
  9
$DIMALTD
 70
     2
  9
$DIMALTF
 40
25.4
  9
$DIMLFAC
 40
1.0
  9
$DIMTOFL
 70
     0
  9
$DIMTVP
 40
0.0
  9
$DIMTIX
 70
     0
  9
$DIMSOXD
 70
     0
  9
$DIMSAH
 70
     0
  9
$DIMBLK1
  1

  9
$DIMBLK2
  1

  9
$DIMSTYLE
  2
Standard
  9
$DIMCLRD
 70
     0
  9
$DIMCLRE
 70
     0
  9
$DIMCLRT
 70
     0
  9
$DIMTFAC
 40
1.0
  9
$DIMGAP
 40
0.09
  9
$DIMJUST
 70
     0
  9
$DIMSD1
 70
     0
  9
$DIMSD2
 70
     0
  9
$DIMTOLJ
 70
     1
  9
$DIMTZIN
 70
     0
  9
$DIMALTZ
 70
     0
  9
$DIMALTTZ
 70
     0
  9
$DIMUPT
 70
     0
  9
$DIMDEC
 70
     4
  9
$DIMTDEC
 70
     4
  9
$DIMALTU
 70
     2
  9
$DIMALTTD
 70
     2
  9
$DIMTXSTY
  7
Standard
  9
$DIMAUNIT
 70
     0
  9
$DIMADEC
 70
     0
  9
$DIMALTRND
 40
0.0
  9
$DIMAZIN
 70
     0
  9
$DIMDSEP
 70
    46
  9
$DIMATFIT
 70
     3
  9
$DIMFRAC
 70
     0
  9
$DIMLDRBLK
  1

  9
$DIMLUNIT
 70
     2
  9
$DIMLWD
 70
    -2
  9
$DIMLWE
 70
    -2
  9
$DIMTMOVE
 70
     0
  9
$DIMFXL
 40
1.0
  9
$DIMFXLON
 70
     0
  9
$DIMJOGANG
 40
0.7853981633974483
  9
$DIMTFILL
 70
     0
  9
$DIMTFILLCLR
 70
     0
  9
$DIMARCSYM
 70
     0
  9
$DIMLTYPE
  6

  9
$DIMLTEX1
  6

  9
$DIMLTEX2
  6

  9
$DIMTXTDIRECTION
 70
     0
  9
$LUNITS
 70
     2
  9
$LUPREC
 70
     4
  9
$SKETCHINC
 40
0.1
  9
$FILLETRAD
 40
0.5
  9
$AUNITS
 70
     0
  9
$AUPREC
 70
     0
  9
$MENU
  1
.
  9
$ELEVATION
 40
0.0
  9
$PELEVATION
 40
0.0
  9
$THICKNESS
 40
0.0
  9
$LIMCHECK
 70
     0
  9
$CHAMFERA
 40
0.5
  9
$CHAMFERB
 40
0.5
  9
$CHAMFERC
 40
1.0
  9
$CHAMFERD
 40
0.0
  9
$SKPOLY
 70
     0
  9
$TDCREATE
 40
2457917.612048599
  9
$TDUCREATE
 40
2457917.237048611
  9
$TDUPDATE
 40
2457917.612048599
  9
$TDUUPDATE
 40
2457917.237048611
  9
$TDINDWG
 40
0.0000000116
  9
$TDUSRTIMER
 40
0.0000000116
  9
$USRTIMER
 70
     1
  9
$ANGBASE
 50
0.0
  9
$ANGDIR
 70
     0
  9
$PDMODE
 70
     0
  9
$PDSIZE
 40
0.0
  9
$PLINEWID
 40
0.0
  9
$SPLFRAME
 70
     0
  9
$SPLINETYPE
 70
     6
  9
$SPLINESEGS
 70
     8
  9
$HANDSEED
  5
121
  9
$SURFTAB1
 70
     6
  9
$SURFTAB2
 70
     6
  9
$SURFTYPE
 70
     6
  9
$SURFU
 70
     6
  9
$SURFV
 70
     6
  9
$UCSBASE
  2

  9
$UCSNAME
  2

  9
$UCSORG
 10
0.0
 20
0.0
 30
0.0
  9
$UCSXDIR
 10
1.0
 20
0.0
 30
0.0
  9
$UCSYDIR
 10
0.0
 20
1.0
 30
0.0
  9
$UCSORTHOREF
  2

  9
$UCSORTHOVIEW
 70
     0
  9
$UCSORGTOP
 10
0.0
 20
0.0
 30
0.0
  9
$UCSORGBOTTOM
 10
0.0
 20
0.0
 30
0.0
  9
$UCSORGLEFT
 10
0.0
 20
0.0
 30
0.0
  9
$UCSORGRIGHT
 10
0.0
 20
0.0
 30
0.0
  9
$UCSORGFRONT
 10
0.0
 20
0.0
 30
0.0
  9
$UCSORGBACK
 10
0.0
 20
0.0
 30
0.0
  9
$PUCSBASE
  2

  9
$PUCSNAME
  2

  9
$PUCSORG
 10
0.0
 20
0.0
 30
0.0
  9
$PUCSXDIR
 10
1.0
 20
0.0
 30
0.0
  9
$PUCSYDIR
 10
0.0
 20
1.0
 30
0.0
  9
$PUCSORTHOREF
  2

  9
$PUCSORTHOVIEW
 70
     0
  9
$PUCSORGTOP
 10
0.0
 20
0.0
 30
0.0
  9
$PUCSORGBOTTOM
 10
0.0
 20
0.0
 30
0.0
  9
$PUCSORGLEFT
 10
0.0
 20
0.0
 30
0.0
  9
$PUCSORGRIGHT
 10
0.0
 20
0.0
 30
0.0
  9
$PUCSORGFRONT
 10
0.0
 20
0.0
 30
0.0
  9
$PUCSORGBACK
 10
0.0
 20
0.0
 30
0.0
  9
$USERI1
 70
     0
  9
$USERI2
 70
     0
  9
$USERI3
 70
     0
  9
$USERI4
 70
     0
  9
$USERI5
 70
     0
  9
$USERR1
 40
0.0
  9
$USERR2
 40
0.0
  9
$USERR3
 40
0.0
  9
$USERR4
 40
0.0
  9
$USERR5
 40
0.0
  9
$WORLDVIEW
 70
     1
  9
$SHADEDGE
 70
     3
  9
$SHADEDIF
 70
    70
  9
$TILEMODE
 70
     1
  9
$MAXACTVP
 70
    64
  9
$PINSBASE
 10
0.0
 20
0.0
 30
0.0
  9
$PLIMCHECK
 70
     0
  9
$PEXTMIN
 10
1.000000000000000E+20
 20
1.000000000000000E+20
 30
1.000000000000000E+20
  9
$PEXTMAX
 10
-1.000000000000000E+20
 20
-1.000000000000000E+20
 30
-1.000000000000000E+20
  9
$PLIMMIN
 10
0.0
 20
0.0
  9
$PLIMMAX
 10
12.0
 20
9.0
  9
$UNITMODE
 70
     0
  9
$VISRETAIN
 70
     1
  9
$PLINEGEN
 70
     0
  9
$PSLTSCALE
 70
     1
  9
$TREEDEPTH
 70
  3020
  9
$CMLSTYLE
  2
Standard
  9
$CMLJUST
 70
     0
  9
$CMLSCALE
 40
1.0
  9
$PROXYGRAPHICS
 70
     1
  9
$MEASUREMENT
 70
     0
  9
$CELWEIGHT
370
    -1
  9
$ENDCAPS
280
     0
  9
$JOINSTYLE
280
     0
  9
$LWDISPLAY
290
     1
  9
$INSUNITS
 70
     1
  9
$HYPERLINKBASE
  1

  9
$STYLESHEET
  1

  9
$XEDIT
290
     1
  9
$CEPSNTYPE
380
     0
  9
$PSTYLEMODE
290
     1
  9
$FINGERPRINTGUID
  2
{AB8ED1E6-0374-6429-ACA7-68A2CB1EE663}
  9
$VERSIONGUID
  2
{FAEB1C32-E019-11D5-929B-00C0DF256EC4}
  9
$EXTNAMES
290
     1
  9
$PSVPSCALE
 40
0.0
  9
$OLESTARTUP
290
     0
  9
$SORTENTS
280
   127
  9
$INDEXCTL
280
     0
  9
$HIDETEXT
280
     1
  9
$XCLIPFRAME
280
     2
  9
$HALOGAP
280
     0
  9
$OBSCOLOR
 70
   257
  9
$OBSLTYPE
280
     0
  9
$INTERSECTIONDISPLAY
280
     0
  9
$INTERSECTIONCOLOR
 70
   257
  9
$DIMASSOC
280
     2
  9
$PROJECTNAME
  1

  9
$CAMERADISPLAY
290
     0
  9
$LENSLENGTH
 40
50.0
  9
$CAMERAHEIGHT
 40
0.0
  9
$STEPSPERSEC
 40
2.0
  9
$STEPSIZE
 40
6.0
  9
$3DDWFPREC
 40
2.0
  9
$PSOLWIDTH
 40
0.25
  9
$PSOLHEIGHT
 40
4.0
  9
$LOFTANG1
 40
1.570796326794897
  9
$LOFTANG2
 40
1.570796326794897
  9
$LOFTMAG1
 40
0.0
  9
$LOFTMAG2
 40
0.0
  9
$LOFTPARAM
 70
     7
  9
$LOFTNORMALS
280
     1
  9
$LATITUDE
 40
37.795
  9
$LONGITUDE
 40
-122.394
  9
$NORTHDIRECTION
 40
0.0
  9
$TIMEZONE
 70
 -8000
  9
$LIGHTGLYPHDISPLAY
280
     1
  9
$TILEMODELIGHTSYNCH
280
     1
  9
$CMATERIAL
347
3C
  9
$SOLIDHIST
280
     1
  9
$SHOWHIST
280
     1
  9
$DWFFRAME
280
     2
  9
$DGNFRAME
280
     2
  9
$REALWORLDSCALE
290
     1
  9
$INTERFERECOLOR
 62
   256
  9
$CSHADOW
280
     0
  9
$SHADOWPLANELOCATION
 40
0.0
  0
ENDSEC
  0
SECTION
  2
CLASSES
  0
CLASS
  1
ACDBDICTIONARYWDFLT
  2
AcDbDictionaryWithDefault
  3
ObjectDBX Classes
 90
        0
 91
        4
280
     0
281
     0
  0
CLASS
  1
VISUALSTYLE
  2
AcDbVisualStyle
  3
ObjectDBX Classes
 90
     4095
 91
        4
280
     0
281
     0
  0
CLASS
  1
MATERIAL
  2
AcDbMaterial
  3
ObjectDBX Classes
 90
     1153
 91
        4
280
     0
281
     0
  0
CLASS
  1
SUN
  2
AcDbSun
  3
SCENEOE
 90
     1024
 91
        4
280
     0
281
     0
  0
ENDSEC
  0
SECTION
  2
TABLES
  0
TABLE
  2
VPORT
  5
8
330
0
100
AcDbSymbolTable
 70
     1
  0
VPORT
  5
29
330
8
100
AcDbSymbolTableRecord
100
AcDbViewportTableRecord
  2
*Active
 70
     0
 10
0.0
 20
0.0
 11
1.0
 21
1.0
 12
0.0
 22
0.0
 13
0.0
 23
0.0
 14
0.5
 24
0.5
 15
0.5
 25
0.5
 16
0.0
 26
0.0
 36
1.0
 17
91.00082462281999
 27
-128.4993055234307
 37
0.0
 40
256.9986110468615
 41
0.7081814508812795
 42
50.0
 43
0.0
 44
0.0
 50
0.0
 51
0.0
 71
     0
 72
   100
 73
     1
 74
     3
 75
     0
 76
     0
 77
     0
 78
     0
281
     0
 65
     1
110
0.0
120
0.0
130
0.0
111
1.0
121
0.0
131
0.0
112
0.0
122
1.0
132
0.0
 79
     0
146
0.0
 60
     3
 61
     5
292
     1
282
     1
141
0.0
142
0.0
 63
   250
361
3F
  0
ENDTAB
  0
TABLE
  2
LTYPE
  5
5
330
0
100
AcDbSymbolTable
 70
     1
  0
LTYPE
  5
14
330
5
100
AcDbSymbolTableRecord
100
AcDbLinetypeTableRecord
  2
ByBlock
 70
     0
  3

 72
    65
 73
     0
 40
0.0
  0
LTYPE
  5
15
330
5
100
AcDbSymbolTableRecord
100
AcDbLinetypeTableRecord
  2
ByLayer
 70
     0
  3

 72
    65
 73
     0
 40
0.0
  0
LTYPE
  5
16
330
5
100
AcDbSymbolTableRecord
100
AcDbLinetypeTableRecord
  2
Continuous
 70
     0
  3
Solid line
 72
    65
 73
     0
 40
0.0
  0
ENDTAB
  0
TABLE
  2
LAYER
  5
2
330
0
100
AcDbSymbolTable
 70
     2
  0
LAYER
  5
10
330
2
100
AcDbSymbolTableRecord
100
AcDbLayerTableRecord
  2
0
 70
     0
 62
     7
  6
Continuous
370
    -3
390
F
347
3E
  0
LAYER
  5
40
330
2
100
AcDbSymbolTableRecord
100
AcDbLayerTableRecord
  2
_U+30EC_U+30A4_U+30E4_U+30FC 1
 70
     0
 62
     7
  6
Continuous
370
    -3
390
F
347
3E
  0
ENDTAB
  0
TABLE
  2
STYLE
  5
3
330
0
100
AcDbSymbolTable
 70
     1
  0
STYLE
  5
11
330
3
100
AcDbSymbolTableRecord
100
AcDbTextStyleTableRecord
  2
Standard
 70
     0
 40
0.0
 41
1.0
 50
0.0
 71
     0
 42
0.2
  3
txt
  4

  0
ENDTAB
  0
TABLE
  2
VIEW
  5
6
330
0
100
AcDbSymbolTable
 70
     0
  0
ENDTAB
  0
TABLE
  2
UCS
  5
7
330
0
100
AcDbSymbolTable
 70
     0
  0
ENDTAB
  0
TABLE
  2
APPID
  5
9
330
0
100
AcDbSymbolTable
 70
     1
  0
APPID
  5
12
330
9
100
AcDbSymbolTableRecord
100
AcDbRegAppTableRecord
  2
ACAD
 70
     0
  0
ENDTAB
  0
TABLE
  2
DIMSTYLE
  5
A
330
0
100
AcDbSymbolTable
 70
     1
100
AcDbDimStyleTable
  0
DIMSTYLE
105
27
330
A
100
AcDbSymbolTableRecord
100
AcDbDimStyleTableRecord
  2
Standard
 70
     0
178
     0
340
11
  0
ENDTAB
  0
TABLE
  2
BLOCK_RECORD
  5
1
330
0
100
AcDbSymbolTable
 70
     7
  0
BLOCK_RECORD
  5
1F
330
1
100
AcDbSymbolTableRecord
100
AcDbBlockTableRecord
  2
*Model_Space
340
22
 70
     0
280
     1
281
     0
  0
BLOCK_RECORD
  5
1B
330
1
100
AcDbSymbolTableRecord
100
AcDbBlockTableRecord
  2
*Paper_Space
340
1E
 70
     0
280
     1
281
     0
  0
BLOCK_RECORD
  5
23
330
1
100
AcDbSymbolTableRecord
100
AcDbBlockTableRecord
  2
*Paper_Space0
340
26
 70
     0
280
     1
281
     0
  0
BLOCK_RECORD
  5
F0
330
1
100
AcDbSymbolTableRecord
100
AcDbBlockTableRecord
  2
block 2
340
0
102
{BLKREFS
331
F1
102
}
 70
     0
280
     1
281
     0
  0
BLOCK_RECORD
  5
F6
330
1
100
AcDbSymbolTableRecord
100
AcDbBlockTableRecord
  2
block 3
340
0
102
{BLKREFS
331
F7
102
}
 70
     0
280
     1
281
     0
  0
BLOCK_RECORD
  5
FE
330
1
100
AcDbSymbolTableRecord
100
AcDbBlockTableRecord
  2
block 4
340
0
102
{BLKREFS
331
FF
102
}
 70
     0
280
     1
281
     0
  0
BLOCK_RECORD
  5
106
330
1
100
AcDbSymbolTableRecord
100
AcDbBlockTableRecord
  2
block 5
340
0
102
{BLKREFS
331
107
102
}
 70
     0
280
     1
281
     0
  0
BLOCK_RECORD
  5
10E
330
1
100
AcDbSymbolTableRecord
100
AcDbBlockTableRecord
  2
block 6
340
0
102
{BLKREFS
331
10F
102
}
 70
     0
280
     1
281
     0
  0
BLOCK_RECORD
  5
117
330
1
100
AcDbSymbolTableRecord
100
AcDbBlockTableRecord
  2
block 7
340
0
102
{BLKREFS
331
118
102
}
 70
     0
280
     1
281
     0
  0
ENDTAB
  0
ENDSEC
  0
SECTION
  2
BLOCKS
  0
BLOCK
  5
20
330
1F
100
AcDbEntity
  8
0
100
AcDbBlockBegin
  2
*Model_Space
 70
     0
 10
0.0
 20
0.0
 30
0.0
  3
*Model_Space
  1

  0
ENDBLK
  5
21
330
1F
100
AcDbEntity
  8
0
100
AcDbBlockEnd
  0
BLOCK
  5
1C
330
1B
100
AcDbEntity
 67
     1
  8
0
100
AcDbBlockBegin
  2
*Paper_Space
 70
     0
 10
0.0
 20
0.0
 30
0.0
  3
*Paper_Space
  1

  0
ENDBLK
  5
1D
330
1B
100
AcDbEntity
 67
     1
  8
0
100
AcDbBlockEnd
  0
BLOCK
  5
24
330
23
100
AcDbEntity
  8
0
100
AcDbBlockBegin
  2
*Paper_Space0
 70
     0
 10
0.0
 20
0.0
 30
0.0
  3
*Paper_Space0
  1

  0
ENDBLK
  5
25
330
23
100
AcDbEntity
  8
0
100
AcDbBlockEnd
  0
BLOCK
  5
F2
330
F0
100
AcDbEntity
  8
0
100
AcDbBlockBegin
  2
block 2
 70
     0
 10
0.0
 20
0.0
 30
0.0
  3
block 2
  1

  0
SPLINE
  5
F4
330
F0
100
AcDbEntity
  8
_U+30EC_U+30A4_U+30E4_U+30FC 1
370
     0
100
AcDbSpline
210
0.0
220
0.0
230
1.0
 70
    11
 71
     3
 72
    26
 73
    22
 74
     0
 42
0.0000000001
 43
0.0000000001
 12
1.0
 22
0.0
 32
0.0
 13
1.0
 23
0.0
 33
0.0
 40
0.0
 40
0.0
 40
0.0
 40
0.0
 40
1.0
 40
1.0
 40
1.0
 40
2.0
 40
2.0
 40
2.0
 40
3.0
 40
3.0
 40
3.0
 40
4.0
 40
4.0
 40
4.0
 40
5.0
 40
5.0
 40
5.0
 40
6.0
 40
6.0
 40
6.0
 40
7.0
 40
7.0
 40
7.0
 40
7.0
 10
99.35310869912006
 20
-106.6525770132674
 30
0.0
 10
99.35310869912006
 20
-106.6525770132674
 30
0.0
 10
99.35310869912006
 20
-105.5482516554706
 30
0.0
 10
99.35310869912006
 20
-105.5482516554706
 30
0.0
 10
99.35310869912006
 20
-105.5482516554706
 30
0.0
 10
99.02306855163313
 20
-105.5482516554706
 30
0.0
 10
99.02306855163313
 20
-105.5482516554706
 30
0.0
 10
99.02306855163313
 20
-105.5482516554706
 30
0.0
 10
99.02306855163313
 20
-105.4002848043791
 30
0.0
 10
99.02306855163313
 20
-105.4002848043791
 30
0.0
 10
99.35517575641121
 20
-105.3854708937925
 30
0.0
 10
99.40168454546209
 20
-105.2225178773402
 30
0.0
 10
99.43131236663523
 20
-105.1083129620042
 30
0.0
 10
99.43131236663523
 20
-105.1083129620042
 30
0.0
 10
99.57738441520982
 20
-105.1083129620042
 30
0.0
 10
99.57738441520982
 20
-105.1083129620042
 30
0.0
 10
99.57738441520982
 20
-105.1083129620042
 30
0.0
 10
99.57738441520982
 20
-106.6525770132674
 30
0.0
 10
99.57738441520982
 20
-106.6525770132674
 30
0.0
 10
99.57738441520982
 20
-106.6525770132674
 30
0.0
 10
99.35310869912006
 20
-106.6525770132674
 30
0.0
 10
99.35310869912006
 20
-106.6525770132674
 30
0.0
  0
HATCH
  5
F5
330
F0
100
AcDbEntity
  8
_U+30EC_U+30A4_U+30E4_U+30FC 1
 62
   179
420
  2234388
100
AcDbHatch
 10
0.0
 20
0.0
 30
0.0
210
0.0
220
0.0
230
1.0
  2
SOLID
 70
     1
 71
     0
 91
        1
 92
        1
 93
        1
 72
     4
 94
        3
 73
     0
 74
     1
 95
       26
 96
       22
 40
0.0
 40
0.0
 40
0.0
 40
0.0
 40
1.0
 40
1.0
 40
1.0
 40
2.0
 40
2.0
 40
2.0
 40
3.0
 40
3.0
 40
3.0
 40
4.0
 40
4.0
 40
4.0
 40
5.0
 40
5.0
 40
5.0
 40
6.0
 40
6.0
 40
6.0
 40
7.0
 40
7.0
 40
7.0
 40
7.0
 10
99.35310869912006
 20
-106.6525770132674
 10
99.35310869912006
 20
-106.6525770132674
 10
99.35310869912006
 20
-105.5482516554706
 10
99.35310869912006
 20
-105.5482516554706
 10
99.35310869912006
 20
-105.5482516554706
 10
99.02306855163313
 20
-105.5482516554706
 10
99.02306855163313
 20
-105.5482516554706
 10
99.02306855163313
 20
-105.5482516554706
 10
99.02306855163313
 20
-105.4002848043791
 10
99.02306855163313
 20
-105.4002848043791
 10
99.35517575641121
 20
-105.3854708937925
 10
99.40168454546209
 20
-105.2225178773402
 10
99.43131236663523
 20
-105.1083129620042
 10
99.43131236663523
 20
-105.1083129620042
 10
99.57738441520982
 20
-105.1083129620042
 10
99.57738441520982
 20
-105.1083129620042
 10
99.57738441520982
 20
-105.1083129620042
 10
99.57738441520982
 20
-106.6525770132674
 10
99.57738441520982
 20
-106.6525770132674
 10
99.57738441520982
 20
-106.6525770132674
 10
99.35310869912006
 20
-106.6525770132674
 10
99.35310869912006
 20
-106.6525770132674
 97
        0
 97
        0
 75
     2
 76
     1
 98
        0
  0
ENDBLK
  5
F3
330
F0
100
AcDbEntity
  8
0
100
AcDbBlockEnd
  0
BLOCK
  5
F8
330
F6
100
AcDbEntity
  8
0
100
AcDbBlockBegin
  2
block 3
 70
     0
 10
0.0
 20
0.0
 30
0.0
  3
block 3
  1

  0
SPLINE
  5
FA
330
F6
100
AcDbEntity
  8
_U+30EC_U+30A4_U+30E4_U+30FC 1
370
     0
100
AcDbSpline
210
0.0
220
0.0
230
1.0
 70
    11
 71
     3
 72
    26
 73
    22
 74
     0
 42
0.0000000001
 43
0.0000000001
 12
1.0
 22
0.0
 32
0.0
 13
1.0
 23
0.0
 33
0.0
 40
0.0
 40
0.0
 40
0.0
 40
0.0
 40
1.0
 40
1.0
 40
1.0
 40
2.0
 40
2.0
 40
2.0
 40
3.0
 40
3.0
 40
3.0
 40
4.0
 40
4.0
 40
4.0
 40
5.0
 40
5.0
 40
5.0
 40
6.0
 40
6.0
 40
6.0
 40
7.0
 40
7.0
 40
7.0
 40
7.0
 10
92.19247773302827
 20
-128.7990288306475
 30
0.0
 10
92.19247773302827
 20
-128.7990288306475
 30
0.0
 10
92.19247773302827
 20
-127.6947034728506
 30
0.0
 10
92.19247773302827
 20
-127.6947034728506
 30
0.0
 10
92.19247773302827
 20
-127.6947034728506
 30
0.0
 10
91.86243758554134
 20
-127.6947034728506
 30
0.0
 10
91.86243758554134
 20
-127.6947034728506
 30
0.0
 10
91.86243758554134
 20
-127.6947034728506
 30
0.0
 10
91.86243758554134
 20
-127.5467366217592
 30
0.0
 10
91.86243758554134
 20
-127.5467366217592
 30
0.0
 10
92.19454479031943
 20
-127.5319227111726
 30
0.0
 10
92.2410535793703
 20
-127.3689696947203
 30
0.0
 10
92.27068140054344
 20
-127.2547647793842
 30
0.0
 10
92.27068140054344
 20
-127.2547647793842
 30
0.0
 10
92.41675344911803
 20
-127.2547647793842
 30
0.0
 10
92.41675344911803
 20
-127.2547647793842
 30
0.0
 10
92.41675344911803
 20
-127.2547647793842
 30
0.0
 10
92.41675344911803
 20
-128.7990288306475
 30
0.0
 10
92.41675344911803
 20
-128.7990288306475
 30
0.0
 10
92.41675344911803
 20
-128.7990288306475
 30
0.0
 10
92.19247773302827
 20
-128.7990288306475
 30
0.0
 10
92.19247773302827
 20
-128.7990288306475
 30
0.0
  0
HATCH
  5
FB
330
F6
100
AcDbEntity
  8
_U+30EC_U+30A4_U+30E4_U+30FC 1
 62
   179
420
  2234388
100
AcDbHatch
 10
0.0
 20
0.0
 30
0.0
210
0.0
220
0.0
230
1.0
  2
SOLID
 70
     1
 71
     0
 91
        1
 92
        1
 93
        1
 72
     4
 94
        3
 73
     0
 74
     1
 95
       26
 96
       22
 40
0.0
 40
0.0
 40
0.0
 40
0.0
 40
1.0
 40
1.0
 40
1.0
 40
2.0
 40
2.0
 40
2.0
 40
3.0
 40
3.0
 40
3.0
 40
4.0
 40
4.0
 40
4.0
 40
5.0
 40
5.0
 40
5.0
 40
6.0
 40
6.0
 40
6.0
 40
7.0
 40
7.0
 40
7.0
 40
7.0
 10
92.19247773302827
 20
-128.7990288306475
 10
92.19247773302827
 20
-128.7990288306475
 10
92.19247773302827
 20
-127.6947034728506
 10
92.19247773302827
 20
-127.6947034728506
 10
92.19247773302827
 20
-127.6947034728506
 10
91.86243758554134
 20
-127.6947034728506
 10
91.86243758554134
 20
-127.6947034728506
 10
91.86243758554134
 20
-127.6947034728506
 10
91.86243758554134
 20
-127.5467366217592
 10
91.86243758554134
 20
-127.5467366217592
 10
92.19454479031943
 20
-127.5319227111726
 10
92.2410535793703
 20
-127.3689696947203
 10
92.27068140054344
 20
-127.2547647793842
 10
92.27068140054344
 20
-127.2547647793842
 10
92.41675344911803
 20
-127.2547647793842
 10
92.41675344911803
 20
-127.2547647793842
 10
92.41675344911803
 20
-127.2547647793842
 10
92.41675344911803
 20
-128.7990288306475
 10
92.41675344911803
 20
-128.7990288306475
 10
92.41675344911803
 20
-128.7990288306475
 10
92.19247773302827
 20
-128.7990288306475
 10
92.19247773302827
 20
-128.7990288306475
 97
        0
 97
        0
 75
     2
 76
     1
 98
        0
  0
SPLINE
  5
FC
330
F6
100
AcDbEntity
  8
_U+30EC_U+30A4_U+30E4_U+30FC 1
370
     0
100
AcDbSpline
210
0.0
220
0.0
230
1.0
 70
    11
 71
     3
 72
    62
 73
    58
 74
     0
 42
0.0000000001
 43
0.0000000001
 12
1.0
 22
0.0
 32
0.0
 13
1.0
 23
0.0
 33
0.0
 40
0.0
 40
0.0
 40
0.0
 40
0.0
 40
1.0
 40
1.0
 40
1.0
 40
2.0
 40
2.0
 40
2.0
 40
3.0
 40
3.0
 40
3.0
 40
4.0
 40
4.0
 40
4.0
 40
5.0
 40
5.0
 40
5.0
 40
6.0
 40
6.0
 40
6.0
 40
7.0
 40
7.0
 40
7.0
 40
8.0
 40
8.0
 40
8.0
 40
9.0
 40
9.0
 40
9.0
 40
10.0
 40
10.0
 40
10.0
 40
11.0
 40
11.0
 40
11.0
 40
12.0
 40
12.0
 40
12.0
 40
13.0
 40
13.0
 40
13.0
 40
14.0
 40
14.0
 40
14.0
 40
15.0
 40
15.0
 40
15.0
 40
16.0
 40
16.0
 40
16.0
 40
17.0
 40
17.0
 40
17.0
 40
18.0
 40
18.0
 40
18.0
 40
19.0
 40
19.0
 40
19.0
 40
19.0
 10
93.40962996796704
 20
-128.8500162438292
 30
0.0
 10
93.31420082302562
 20
-128.8500162438292
 30
0.0
 10
93.09647078835783
 20
-128.8286566518206
 30
0.0
 10
92.97141382224326
 20
-128.6424492408429
 30
0.0
 10
92.8973442693104
 20
-128.530311382798
 30
0.0
 10
92.8932101547281
 20
-128.4309203780485
 30
0.0
 10
92.8890760401458
 20
-128.3463432838856
 30
0.0
 10
92.8890760401458
 20
-128.3463432838856
 30
0.0
 10
93.10921764165326
 20
-128.3463432838856
 30
0.0
 10
93.10921764165326
 20
-128.3463432838856
 30
0.0
 10
93.1112846989444
 20
-128.4204128368185
 30
0.0
 10
93.12161998540016
 20
-128.6551960941383
 30
0.0
 10
93.40515134383622
 20
-128.6551960941383
 30
0.0
 10
93.54261065369768
 20
-128.6551960941383
 30
0.0
 10
93.69522838369426
 20
-128.585432910562
 30
0.0
 10
93.69522838369426
 20
-128.3568508251157
 30
0.0
 10
93.69522838369426
 20
-128.2405788524885
 30
0.0
 10
93.65698782380798
 20
-128.1918307513722
 30
0.0
 10
93.62529294534369
 20
-128.1601358729079
 30
0.0
 10
93.5512233924108
 20
-128.086066319975
 30
0.0
 10
93.43477916500936
 20
-128.0734917214538
 30
0.0
 10
93.3800021467939
 20
-128.0734917214538
 30
0.0
 10
93.36070961207649
 20
-128.0734917214538
 30
0.0
 10
93.3248806190299
 20
-128.075558778745
 30
0.0
 10
93.29731985514789
 20
-128.0796928933273
 30
0.0
 10
93.29731985514789
 20
-128.0796928933273
 30
0.0
 10
93.29731985514789
 20
-127.8850449984107
 30
0.0
 10
93.29731985514789
 20
-127.8850449984107
 30
0.0
 10
93.33556041503417
 20
-127.8914184250584
 30
0.0
 10
93.37759057995422
 20
-127.8936577371238
 30
0.0
 10
93.3841362613762
 20
-127.8936577371238
 30
0.0
 10
93.44959307559594
 20
-127.8936577371238
 30
0.0
 10
93.64837508509486
 20
-127.8724703998895
 30
0.0
 10
93.64837508509486
 20
-127.6354478305043
 30
0.0
 10
93.64837508509486
 20
-127.4578531582397
 30
0.0
 10
93.51746145665535
 20
-127.4027316304757
 30
0.0
 10
93.40721840112737
 20
-127.4027316304757
 30
0.0
 10
93.14297957740871
 20
-127.4027316304757
 30
0.0
 10
93.13436683869558
 20
-127.6354478305043
 30
0.0
 10
93.13023272411328
 20
-127.7074503261461
 30
0.0
 10
93.13023272411328
 20
-127.7074503261461
 30
0.0
 10
92.92697209048355
 20
-127.7074503261461
 30
0.0
 10
92.92697209048355
 20
-127.7074503261461
 30
0.0
 10
92.93558482919666
 20
-127.5825656148058
 30
0.0
 10
92.96314559307866
 20
-127.2060166782679
 30
0.0
 10
93.41996525442279
 20
-127.2060166782679
 30
0.0
 10
93.64424097051256
 20
-127.2060166782679
 30
0.0
 10
93.88539765448004
 20
-127.3329684468994
 30
0.0
 10
93.88539765448004
 20
-127.6290744038566
 30
0.0
 10
93.88539765448004
 20
-127.8152818148344
 30
0.0
 10
93.79031301908715
 20
-127.8977918517061
 30
0.0
 10
93.69074975956343
 20
-127.9591145513436
 30
0.0
 10
93.75207245920087
 20
-127.9866753152256
 30
0.0
 10
93.93397350082206
 20
-128.0671182948061
 30
0.0
 10
93.93397350082206
 20
-128.3442762265945
 30
0.0
 10
93.93397350082206
 20
-128.6827568580203
 30
0.0
 10
93.68661564498113
 20
-128.8500162438292
 30
0.0
 10
93.40962996796704
 20
-128.8500162438292
 30
0.0
  0
HATCH
  5
FD
330
F6
100
AcDbEntity
  8
_U+30EC_U+30A4_U+30E4_U+30FC 1
 62
   179
420
  2234388
100
AcDbHatch
 10
0.0
 20
0.0
 30
0.0
210
0.0
220
0.0
230
1.0
  2
SOLID
 70
     1
 71
     0
 91
        1
 92
        1
 93
        1
 72
     4
 94
        3
 73
     0
 74
     1
 95
       62
 96
       58
 40
0.0
 40
0.0
 40
0.0
 40
0.0
 40
1.0
 40
1.0
 40
1.0
 40
2.0
 40
2.0
 40
2.0
 40
3.0
 40
3.0
 40
3.0
 40
4.0
 40
4.0
 40
4.0
 40
5.0
 40
5.0
 40
5.0
 40
6.0
 40
6.0
 40
6.0
 40
7.0
 40
7.0
 40
7.0
 40
8.0
 40
8.0
 40
8.0
 40
9.0
 40
9.0
 40
9.0
 40
10.0
 40
10.0
 40
10.0
 40
11.0
 40
11.0
 40
11.0
 40
12.0
 40
12.0
 40
12.0
 40
13.0
 40
13.0
 40
13.0
 40
14.0
 40
14.0
 40
14.0
 40
15.0
 40
15.0
 40
15.0
 40
16.0
 40
16.0
 40
16.0
 40
17.0
 40
17.0
 40
17.0
 40
18.0
 40
18.0
 40
18.0
 40
19.0
 40
19.0
 40
19.0
 40
19.0
 10
93.40962996796704
 20
-128.8500162438292
 10
93.31420082302562
 20
-128.8500162438292
 10
93.09647078835783
 20
-128.8286566518206
 10
92.97141382224326
 20
-128.6424492408429
 10
92.8973442693104
 20
-128.530311382798
 10
92.8932101547281
 20
-128.4309203780485
 10
92.8890760401458
 20
-128.3463432838856
 10
92.8890760401458
 20
-128.3463432838856
 10
93.10921764165326
 20
-128.3463432838856
 10
93.10921764165326
 20
-128.3463432838856
 10
93.1112846989444
 20
-128.4204128368185
 10
93.12161998540016
 20
-128.6551960941383
 10
93.40515134383622
 20
-128.6551960941383
 10
93.54261065369768
 20
-128.6551960941383
 10
93.69522838369426
 20
-128.585432910562
 10
93.69522838369426
 20
-128.3568508251157
 10
93.69522838369426
 20
-128.2405788524885
 10
93.65698782380798
 20
-128.1918307513722
 10
93.62529294534369
 20
-128.1601358729079
 10
93.5512233924108
 20
-128.086066319975
 10
93.43477916500936
 20
-128.0734917214538
 10
93.3800021467939
 20
-128.0734917214538
 10
93.36070961207649
 20
-128.0734917214538
 10
93.3248806190299
 20
-128.075558778745
 10
93.29731985514789
 20
-128.0796928933273
 10
93.29731985514789
 20
-128.0796928933273
 10
93.29731985514789
 20
-127.8850449984107
 10
93.29731985514789
 20
-127.8850449984107
 10
93.33556041503417
 20
-127.8914184250584
 10
93.37759057995422
 20
-127.8936577371238
 10
93.3841362613762
 20
-127.8936577371238
 10
93.44959307559594
 20
-127.8936577371238
 10
93.64837508509486
 20
-127.8724703998895
 10
93.64837508509486
 20
-127.6354478305043
 10
93.64837508509486
 20
-127.4578531582397
 10
93.51746145665535
 20
-127.4027316304757
 10
93.40721840112737
 20
-127.4027316304757
 10
93.14297957740871
 20
-127.4027316304757
 10
93.13436683869558
 20
-127.6354478305043
 10
93.13023272411328
 20
-127.7074503261461
 10
93.13023272411328
 20
-127.7074503261461
 10
92.92697209048355
 20
-127.7074503261461
 10
92.92697209048355
 20
-127.7074503261461
 10
92.93558482919666
 20
-127.5825656148058
 10
92.96314559307866
 20
-127.2060166782679
 10
93.41996525442279
 20
-127.2060166782679
 10
93.64424097051256
 20
-127.2060166782679
 10
93.88539765448004
 20
-127.3329684468994
 10
93.88539765448004
 20
-127.6290744038566
 10
93.88539765448004
 20
-127.8152818148344
 10
93.79031301908715
 20
-127.8977918517061
 10
93.69074975956343
 20
-127.9591145513436
 10
93.75207245920087
 20
-127.9866753152256
 10
93.93397350082206
 20
-128.0671182948061
 10
93.93397350082206
 20
-128.3442762265945
 10
93.93397350082206
 20
-128.6827568580203
 10
93.68661564498113
 20
-128.8500162438292
 10
93.40962996796704
 20
-128.8500162438292
 97
        0
 97
        0
 75
     2
 76
     1
 98
        0
  0
ENDBLK
  5
F9
330
F6
100
AcDbEntity
  8
0
100
AcDbBlockEnd
  0
BLOCK
  5
100
330
FE
100
AcDbEntity
  8
0
100
AcDbBlockBegin
  2
block 4
 70
     0
 10
0.0
 20
0.0
 30
0.0
  3
block 4
  1

  0
SPLINE
  5
102
330
FE
100
AcDbEntity
  8
_U+30EC_U+30A4_U+30E4_U+30FC 1
370
     0
100
AcDbSpline
210
0.0
220
0.0
230
1.0
 70
    11
 71
     3
 72
    26
 73
    22
 74
     0
 42
0.0000000001
 43
0.0000000001
 12
1.0
 22
0.0
 32
0.0
 13
1.0
 23
0.0
 33
0.0
 40
0.0
 40
0.0
 40
0.0
 40
0.0
 40
1.0
 40
1.0
 40
1.0
 40
2.0
 40
2.0
 40
2.0
 40
3.0
 40
3.0
 40
3.0
 40
4.0
 40
4.0
 40
4.0
 40
5.0
 40
5.0
 40
5.0
 40
6.0
 40
6.0
 40
6.0
 40
7.0
 40
7.0
 40
7.0
 40
7.0
 10
91.69259437811853
 20
-151.7988307997239
 30
0.0
 10
91.69259437811853
 20
-151.7988307997239
 30
0.0
 10
91.69259437811853
 20
-150.6946776967013
 30
0.0
 10
91.69259437811853
 20
-150.6946776967013
 30
0.0
 10
91.69259437811853
 20
-150.6946776967013
 30
0.0
 10
91.36255423063159
 20
-150.6946776967013
 30
0.0
 10
91.36255423063159
 20
-150.6946776967013
 30
0.0
 10
91.36255423063159
 20
-150.6946776967013
 30
0.0
 10
91.36255423063159
 20
-150.5465385908356
 30
0.0
 10
91.36255423063159
 20
-150.5465385908356
 30
0.0
 10
91.69466143540967
 20
-150.531724680249
 30
0.0
 10
91.74117022446055
 20
-150.3687716637967
 30
0.0
 10
91.7707980456337
 20
-150.2543944936864
 30
0.0
 10
91.7707980456337
 20
-150.2543944936864
 30
0.0
 10
91.91687009420829
 20
-150.2543944936864
 30
0.0
 10
91.91687009420829
 20
-150.2543944936864
 30
0.0
 10
91.91687009420829
 20
-150.2543944936864
 30
0.0
 10
91.91687009420829
 20
-151.7988307997239
 30
0.0
 10
91.91687009420829
 20
-151.7988307997239
 30
0.0
 10
91.91687009420829
 20
-151.7988307997239
 30
0.0
 10
91.69259437811853
 20
-151.7988307997239
 30
0.0
 10
91.69259437811853
 20
-151.7988307997239
 30
0.0
  0
HATCH
  5
103
330
FE
100
AcDbEntity
  8
_U+30EC_U+30A4_U+30E4_U+30FC 1
 62
   179
420
  2234388
100
AcDbHatch
 10
0.0
 20
0.0
 30
0.0
210
0.0
220
0.0
230
1.0
  2
SOLID
 70
     1
 71
     0
 91
        1
 92
        1
 93
        1
 72
     4
 94
        3
 73
     0
 74
     1
 95
       26
 96
       22
 40
0.0
 40
0.0
 40
0.0
 40
0.0
 40
1.0
 40
1.0
 40
1.0
 40
2.0
 40
2.0
 40
2.0
 40
3.0
 40
3.0
 40
3.0
 40
4.0
 40
4.0
 40
4.0
 40
5.0
 40
5.0
 40
5.0
 40
6.0
 40
6.0
 40
6.0
 40
7.0
 40
7.0
 40
7.0
 40
7.0
 10
91.69259437811853
 20
-151.7988307997239
 10
91.69259437811853
 20
-151.7988307997239
 10
91.69259437811853
 20
-150.6946776967013
 10
91.69259437811853
 20
-150.6946776967013
 10
91.69259437811853
 20
-150.6946776967013
 10
91.36255423063159
 20
-150.6946776967013
 10
91.36255423063159
 20
-150.6946776967013
 10
91.36255423063159
 20
-150.6946776967013
 10
91.36255423063159
 20
-150.5465385908356
 10
91.36255423063159
 20
-150.5465385908356
 10
91.69466143540967
 20
-150.531724680249
 10
91.74117022446055
 20
-150.3687716637967
 10
91.7707980456337
 20
-150.2543944936864
 10
91.7707980456337
 20
-150.2543944936864
 10
91.91687009420829
 20
-150.2543944936864
 10
91.91687009420829
 20
-150.2543944936864
 10
91.91687009420829
 20
-150.2543944936864
 10
91.91687009420829
 20
-151.7988307997239
 10
91.91687009420829
 20
-151.7988307997239
 10
91.91687009420829
 20
-151.7988307997239
 10
91.69259437811853
 20
-151.7988307997239
 10
91.69259437811853
 20
-151.7988307997239
 97
        0
 97
        0
 75
     2
 76
     1
 98
        0
  0
SPLINE
  5
104
330
FE
100
AcDbEntity
  8
_U+30EC_U+30A4_U+30E4_U+30FC 1
370
     0
100
AcDbSpline
210
0.0
220
0.0
230
1.0
 70
    11
 71
     3
 72
    53
 73
    49
 74
     0
 42
0.0000000001
 43
0.0000000001
 12
1.0
 22
0.0
 32
0.0
 13
1.0
 23
0.0
 33
0.0
 40
0.0
 40
0.0
 40
0.0
 40
0.0
 40
1.0
 40
1.0
 40
1.0
 40
2.0
 40
2.0
 40
2.0
 40
3.0
 40
3.0
 40
3.0
 40
4.0
 40
4.0
 40
4.0
 40
5.0
 40
5.0
 40
5.0
 40
6.0
 40
6.0
 40
6.0
 40
7.0
 40
7.0
 40
7.0
 40
8.0
 40
8.0
 40
8.0
 40
9.0
 40
9.0
 40
9.0
 40
10.0
 40
10.0
 40
10.0
 40
11.0
 40
11.0
 40
11.0
 40
12.0
 40
12.0
 40
12.0
 40
13.0
 40
13.0
 40
13.0
 40
14.0
 40
14.0
 40
14.0
 40
15.0
 40
15.0
 40
15.0
 40
16.0
 40
16.0
 40
16.0
 40
16.0
 10
92.89906681705301
 20
-151.8494737033571
 30
0.0
 10
92.82086314953784
 20
-151.8494737033571
 30
0.0
 10
92.71923283272298
 20
-151.8325927354794
 30
0.0
 10
92.6176025159081
 20
-151.7692029785508
 30
0.0
 10
92.44431421300004
 20
-151.6593044325713
 30
0.0
 10
92.42295462099149
 20
-151.5280462945833
 30
0.0
 10
92.40400659582261
 20
-151.4202148058949
 30
0.0
 10
92.40400659582261
 20
-151.4202148058949
 30
0.0
 10
92.62621525462123
 20
-151.4202148058949
 30
0.0
 10
92.62621525462123
 20
-151.4202148058949
 30
0.0
 10
92.6809922728367
 20
-151.6189968153939
 30
0.0
 10
92.80811629624242
 20
-151.648624636567
 30
0.0
 10
92.90113387434417
 20
-151.648624636567
 30
0.0
 10
93.04066024149678
 20
-151.648624636567
 30
0.0
 10
93.19293346194483
 20
-151.5490613770433
 30
0.0
 10
93.19293346194483
 20
-151.3165174317889
 30
0.0
 10
93.19293346194483
 20
-151.0605468372349
 30
0.0
 10
93.01309947761479
 20
-150.9906113988843
 30
0.0
 10
92.89252113563104
 20
-150.9906113988843
 30
0.0
 10
92.86082625716674
 20
-150.9906113988843
 30
0.0
 10
92.71923283272298
 20
-150.9906113988843
 30
0.0
 10
92.63034936920353
 20
-151.1198024795812
 30
0.0
 10
92.63034936920353
 20
-151.1198024795812
 30
0.0
 10
92.45464949945578
 20
-151.1008544544123
 30
0.0
 10
92.45464949945578
 20
-151.1008544544123
 30
0.0
 10
92.45464949945578
 20
-151.1008544544123
 30
0.0
 10
92.57522784143953
 20
-150.2543944936864
 30
0.0
 10
92.57522784143953
 20
-150.2543944936864
 30
0.0
 10
92.57522784143953
 20
-150.2543944936864
 30
0.0
 10
93.353819421106
 20
-150.2543944936864
 30
0.0
 10
93.353819421106
 20
-150.2543944936864
 30
0.0
 10
93.353819421106
 20
-150.2543944936864
 30
0.0
 10
93.353819421106
 20
-150.449042388603
 30
0.0
 10
93.353819421106
 20
-150.449042388603
 30
0.0
 10
93.353819421106
 20
-150.449042388603
 30
0.0
 10
92.73818085789185
 20
-150.449042388603
 30
0.0
 10
92.73818085789185
 20
-150.449042388603
 30
0.0
 10
92.73818085789185
 20
-150.449042388603
 30
0.0
 10
92.6727240436721
 20
-150.8721001141917
 30
0.0
 10
92.6727240436721
 20
-150.8721001141917
 30
0.0
 10
92.73404674330955
 20
-150.8383381784363
 30
0.0
 10
92.81638452540702
 20
-150.7980305612588
 30
0.0
 10
92.93489581009962
 20
-150.7980305612588
 30
0.0
 10
93.18879934736253
 20
-150.7980305612588
 30
0.0
 10
93.42582191674772
 20
-150.9844102270108
 30
0.0
 10
93.42582191674772
 20
-151.2975694066201
 30
0.0
 10
93.42582191674772
 20
-151.6148627008116
 30
0.0
 10
93.20154620065794
 20
-151.8494737033571
 30
0.0
 10
92.89906681705301
 20
-151.8494737033571
 30
0.0
  0
HATCH
  5
105
330
FE
100
AcDbEntity
  8
_U+30EC_U+30A4_U+30E4_U+30FC 1
 62
   179
420
  2234388
100
AcDbHatch
 10
0.0
 20
0.0
 30
0.0
210
0.0
220
0.0
230
1.0
  2
SOLID
 70
     1
 71
     0
 91
        1
 92
        1
 93
        1
 72
     4
 94
        3
 73
     0
 74
     1
 95
       53
 96
       49
 40
0.0
 40
0.0
 40
0.0
 40
0.0
 40
1.0
 40
1.0
 40
1.0
 40
2.0
 40
2.0
 40
2.0
 40
3.0
 40
3.0
 40
3.0
 40
4.0
 40
4.0
 40
4.0
 40
5.0
 40
5.0
 40
5.0
 40
6.0
 40
6.0
 40
6.0
 40
7.0
 40
7.0
 40
7.0
 40
8.0
 40
8.0
 40
8.0
 40
9.0
 40
9.0
 40
9.0
 40
10.0
 40
10.0
 40
10.0
 40
11.0
 40
11.0
 40
11.0
 40
12.0
 40
12.0
 40
12.0
 40
13.0
 40
13.0
 40
13.0
 40
14.0
 40
14.0
 40
14.0
 40
15.0
 40
15.0
 40
15.0
 40
16.0
 40
16.0
 40
16.0
 40
16.0
 10
92.89906681705301
 20
-151.8494737033571
 10
92.82086314953784
 20
-151.8494737033571
 10
92.71923283272298
 20
-151.8325927354794
 10
92.6176025159081
 20
-151.7692029785508
 10
92.44431421300004
 20
-151.6593044325713
 10
92.42295462099149
 20
-151.5280462945833
 10
92.40400659582261
 20
-151.4202148058949
 10
92.40400659582261
 20
-151.4202148058949
 10
92.62621525462123
 20
-151.4202148058949
 10
92.62621525462123
 20
-151.4202148058949
 10
92.6809922728367
 20
-151.6189968153939
 10
92.80811629624242
 20
-151.648624636567
 10
92.90113387434417
 20
-151.648624636567
 10
93.04066024149678
 20
-151.648624636567
 10
93.19293346194483
 20
-151.5490613770433
 10
93.19293346194483
 20
-151.3165174317889
 10
93.19293346194483
 20
-151.0605468372349
 10
93.01309947761479
 20
-150.9906113988843
 10
92.89252113563104
 20
-150.9906113988843
 10
92.86082625716674
 20
-150.9906113988843
 10
92.71923283272298
 20
-150.9906113988843
 10
92.63034936920353
 20
-151.1198024795812
 10
92.63034936920353
 20
-151.1198024795812
 10
92.45464949945578
 20
-151.1008544544123
 10
92.45464949945578
 20
-151.1008544544123
 10
92.45464949945578
 20
-151.1008544544123
 10
92.57522784143953
 20
-150.2543944936864
 10
92.57522784143953
 20
-150.2543944936864
 10
92.57522784143953
 20
-150.2543944936864
 10
93.353819421106
 20
-150.2543944936864
 10
93.353819421106
 20
-150.2543944936864
 10
93.353819421106
 20
-150.2543944936864
 10
93.353819421106
 20
-150.449042388603
 10
93.353819421106
 20
-150.449042388603
 10
93.353819421106
 20
-150.449042388603
 10
92.73818085789185
 20
-150.449042388603
 10
92.73818085789185
 20
-150.449042388603
 10
92.73818085789185
 20
-150.449042388603
 10
92.6727240436721
 20
-150.8721001141917
 10
92.6727240436721
 20
-150.8721001141917
 10
92.73404674330955
 20
-150.8383381784363
 10
92.81638452540702
 20
-150.7980305612588
 10
92.93489581009962
 20
-150.7980305612588
 10
93.18879934736253
 20
-150.7980305612588
 10
93.42582191674772
 20
-150.9844102270108
 10
93.42582191674772
 20
-151.2975694066201
 10
93.42582191674772
 20
-151.6148627008116
 10
93.20154620065794
 20
-151.8494737033571
 10
92.89906681705301
 20
-151.8494737033571
 97
        0
 97
        0
 75
     2
 76
     1
 98
        0
  0
ENDBLK
  5
101
330
FE
100
AcDbEntity
  8
0
100
AcDbBlockEnd
  0
BLOCK
  5
108
330
106
100
AcDbEntity
  8
0
100
AcDbBlockBegin
  2
block 5
 70
     0
 10
0.0
 20
0.0
 30
0.0
  3
block 5
  1

  0
SPLINE
  5
10A
330
106
100
AcDbEntity
  8
_U+30EC_U+30A4_U+30E4_U+30FC 1
370
     0
100
AcDbSpline
210
0.0
220
0.0
230
1.0
 70
    11
 71
     3
 72
    26
 73
    22
 74
     0
 42
0.0000000001
 43
0.0000000001
 12
1.0
 22
0.0
 32
0.0
 13
1.0
 23
0.0
 33
0.0
 40
0.0
 40
0.0
 40
0.0
 40
0.0
 40
1.0
 40
1.0
 40
1.0
 40
2.0
 40
2.0
 40
2.0
 40
3.0
 40
3.0
 40
3.0
 40
4.0
 40
4.0
 40
4.0
 40
5.0
 40
5.0
 40
5.0
 40
6.0
 40
6.0
 40
6.0
 40
7.0
 40
7.0
 40
7.0
 40
7.0
 10
80.17460664228274
 20
-141.582744647764
 30
0.0
 10
80.17460664228274
 20
-141.582744647764
 30
0.0
 10
79.07045353926017
 20
-141.582744647764
 30
0.0
 10
79.07045353926017
 20
-141.582744647764
 30
0.0
 10
79.07045353926017
 20
-141.582744647764
 30
0.0
 10
79.07045353926017
 20
-141.912784795251
 30
0.0
 10
79.07045353926017
 20
-141.912784795251
 30
0.0
 10
79.07045353926017
 20
-141.912784795251
 30
0.0
 10
78.92231443339442
 20
-141.912784795251
 30
0.0
 10
78.92231443339442
 20
-141.912784795251
 30
0.0
 10
78.90750052280785
 20
-141.5806775904729
 30
0.0
 10
78.74454750635553
 20
-141.534168801422
 30
0.0
 10
78.63017033624524
 20
-141.5045409802489
 30
0.0
 10
78.63017033624524
 20
-141.5045409802489
 30
0.0
 10
78.63017033624524
 20
-141.3584689316743
 30
0.0
 10
78.63017033624524
 20
-141.3584689316743
 30
0.0
 10
78.63017033624524
 20
-141.3584689316743
 30
0.0
 10
80.17460664228274
 20
-141.3584689316743
 30
0.0
 10
80.17460664228274
 20
-141.3584689316743
 30
0.0
 10
80.17460664228274
 20
-141.3584689316743
 30
0.0
 10
80.17460664228274
 20
-141.582744647764
 30
0.0
 10
80.17460664228274
 20
-141.582744647764
 30
0.0
  0
HATCH
  5
10B
330
106
100
AcDbEntity
  8
_U+30EC_U+30A4_U+30E4_U+30FC 1
 62
   179
420
  2234388
100
AcDbHatch
 10
0.0
 20
0.0
 30
0.0
210
0.0
220
0.0
230
1.0
  2
SOLID
 70
     1
 71
     0
 91
        1
 92
        1
 93
        1
 72
     4
 94
        3
 73
     0
 74
     1
 95
       26
 96
       22
 40
0.0
 40
0.0
 40
0.0
 40
0.0
 40
1.0
 40
1.0
 40
1.0
 40
2.0
 40
2.0
 40
2.0
 40
3.0
 40
3.0
 40
3.0
 40
4.0
 40
4.0
 40
4.0
 40
5.0
 40
5.0
 40
5.0
 40
6.0
 40
6.0
 40
6.0
 40
7.0
 40
7.0
 40
7.0
 40
7.0
 10
80.17460664228274
 20
-141.582744647764
 10
80.17460664228274
 20
-141.582744647764
 10
79.07045353926017
 20
-141.582744647764
 10
79.07045353926017
 20
-141.582744647764
 10
79.07045353926017
 20
-141.582744647764
 10
79.07045353926017
 20
-141.912784795251
 10
79.07045353926017
 20
-141.912784795251
 10
79.07045353926017
 20
-141.912784795251
 10
78.92231443339442
 20
-141.912784795251
 10
78.92231443339442
 20
-141.912784795251
 10
78.90750052280785
 20
-141.5806775904729
 10
78.74454750635553
 20
-141.534168801422
 10
78.63017033624524
 20
-141.5045409802489
 10
78.63017033624524
 20
-141.5045409802489
 10
78.63017033624524
 20
-141.3584689316743
 10
78.63017033624524
 20
-141.3584689316743
 10
78.63017033624524
 20
-141.3584689316743
 10
80.17460664228274
 20
-141.3584689316743
 10
80.17460664228274
 20
-141.3584689316743
 10
80.17460664228274
 20
-141.3584689316743
 10
80.17460664228274
 20
-141.582744647764
 10
80.17460664228274
 20
-141.582744647764
 97
        0
 97
        0
 75
     2
 76
     1
 98
        0
  0
SPLINE
  5
10C
330
106
100
AcDbEntity
  8
_U+30EC_U+30A4_U+30E4_U+30FC 1
370
     0
100
AcDbSpline
210
0.0
220
0.0
230
1.0
 70
    11
 71
     3
 72
    53
 73
    49
 74
     0
 42
0.0000000001
 43
0.0000000001
 12
1.0
 22
0.0
 32
0.0
 13
1.0
 23
0.0
 33
0.0
 40
0.0
 40
0.0
 40
0.0
 40
0.0
 40
1.0
 40
1.0
 40
1.0
 40
2.0
 40
2.0
 40
2.0
 40
3.0
 40
3.0
 40
3.0
 40
4.0
 40
4.0
 40
4.0
 40
5.0
 40
5.0
 40
5.0
 40
6.0
 40
6.0
 40
6.0
 40
7.0
 40
7.0
 40
7.0
 40
8.0
 40
8.0
 40
8.0
 40
9.0
 40
9.0
 40
9.0
 40
10.0
 40
10.0
 40
10.0
 40
11.0
 40
11.0
 40
11.0
 40
12.0
 40
12.0
 40
12.0
 40
13.0
 40
13.0
 40
13.0
 40
14.0
 40
14.0
 40
14.0
 40
15.0
 40
15.0
 40
15.0
 40
16.0
 40
16.0
 40
16.0
 40
16.0
 10
80.22524954591591
 20
-140.3762722088296
 30
0.0
 10
80.22524954591591
 20
-140.4544758763447
 30
0.0
 10
80.20836857803819
 20
-140.5561061931596
 30
0.0
 10
80.14497882110959
 20
-140.6577365099745
 30
0.0
 10
80.03508027513013
 20
-140.8310248128825
 30
0.0
 10
79.9038221371421
 20
-140.8523844048911
 30
0.0
 10
79.79599064845378
 20
-140.87133243006
 30
0.0
 10
79.79599064845378
 20
-140.87133243006
 30
0.0
 10
79.79599064845378
 20
-140.6491237712613
 30
0.0
 10
79.79599064845378
 20
-140.6491237712613
 30
0.0
 10
79.9947726579527
 20
-140.5943467530459
 30
0.0
 10
80.02440047912584
 20
-140.4672227296402
 30
0.0
 10
80.02440047912584
 20
-140.3742051515384
 30
0.0
 10
80.02440047912584
 20
-140.2346787843858
 30
0.0
 10
79.92483721960213
 20
-140.0824055639377
 30
0.0
 10
79.69229327434776
 20
-140.0824055639377
 30
0.0
 10
79.4363226797937
 20
-140.0824055639377
 30
0.0
 10
79.36638724144314
 20
-140.2622395482678
 30
0.0
 10
79.36638724144314
 20
-140.3828178902515
 30
0.0
 10
79.36638724144314
 20
-140.4145127687158
 30
0.0
 10
79.36638724144314
 20
-140.5561061931596
 30
0.0
 10
79.49557832213999
 20
-140.644989656679
 30
0.0
 10
79.49557832213999
 20
-140.644989656679
 30
0.0
 10
79.47663029697112
 20
-140.8206895264268
 30
0.0
 10
79.47663029697112
 20
-140.8206895264268
 30
0.0
 10
79.47663029697112
 20
-140.8206895264268
 30
0.0
 10
78.63017033624524
 20
-140.700111184443
 30
0.0
 10
78.63017033624524
 20
-140.700111184443
 30
0.0
 10
78.63017033624524
 20
-140.700111184443
 30
0.0
 10
78.63017033624524
 20
-139.9215196047766
 30
0.0
 10
78.63017033624524
 20
-139.9215196047766
 30
0.0
 10
78.63017033624524
 20
-139.9215196047766
 30
0.0
 10
78.82481823116186
 20
-139.9215196047766
 30
0.0
 10
78.82481823116186
 20
-139.9215196047766
 30
0.0
 10
78.82481823116186
 20
-139.9215196047766
 30
0.0
 10
78.82481823116186
 20
-140.5371581679907
 30
0.0
 10
78.82481823116186
 20
-140.5371581679907
 30
0.0
 10
78.82481823116186
 20
-140.5371581679907
 30
0.0
 10
79.24787595675053
 20
-140.6026149822105
 30
0.0
 10
79.24787595675053
 20
-140.6026149822105
 30
0.0
 10
79.21411402099508
 20
-140.541292282573
 30
0.0
 10
79.17380640381766
 20
-140.4589545004756
 30
0.0
 10
79.17380640381766
 20
-140.340443215783
 30
0.0
 10
79.17380640381766
 20
-140.08653967852
 30
0.0
 10
79.36018606956968
 20
-139.8495171091348
 30
0.0
 10
79.6733452491789
 20
-139.8495171091348
 30
0.0
 10
79.9906385433704
 20
-139.8495171091348
 30
0.0
 10
80.22524954591591
 20
-140.0737928252246
 30
0.0
 10
80.22524954591591
 20
-140.3762722088296
 30
0.0
  0
HATCH
  5
10D
330
106
100
AcDbEntity
  8
_U+30EC_U+30A4_U+30E4_U+30FC 1
 62
   179
420
  2234388
100
AcDbHatch
 10
0.0
 20
0.0
 30
0.0
210
0.0
220
0.0
230
1.0
  2
SOLID
 70
     1
 71
     0
 91
        1
 92
        1
 93
        1
 72
     4
 94
        3
 73
     0
 74
     1
 95
       53
 96
       49
 40
0.0
 40
0.0
 40
0.0
 40
0.0
 40
1.0
 40
1.0
 40
1.0
 40
2.0
 40
2.0
 40
2.0
 40
3.0
 40
3.0
 40
3.0
 40
4.0
 40
4.0
 40
4.0
 40
5.0
 40
5.0
 40
5.0
 40
6.0
 40
6.0
 40
6.0
 40
7.0
 40
7.0
 40
7.0
 40
8.0
 40
8.0
 40
8.0
 40
9.0
 40
9.0
 40
9.0
 40
10.0
 40
10.0
 40
10.0
 40
11.0
 40
11.0
 40
11.0
 40
12.0
 40
12.0
 40
12.0
 40
13.0
 40
13.0
 40
13.0
 40
14.0
 40
14.0
 40
14.0
 40
15.0
 40
15.0
 40
15.0
 40
16.0
 40
16.0
 40
16.0
 40
16.0
 10
80.22524954591591
 20
-140.3762722088296
 10
80.22524954591591
 20
-140.4544758763447
 10
80.20836857803819
 20
-140.5561061931596
 10
80.14497882110959
 20
-140.6577365099745
 10
80.03508027513013
 20
-140.8310248128825
 10
79.9038221371421
 20
-140.8523844048911
 10
79.79599064845378
 20
-140.87133243006
 10
79.79599064845378
 20
-140.87133243006
 10
79.79599064845378
 20
-140.6491237712613
 10
79.79599064845378
 20
-140.6491237712613
 10
79.9947726579527
 20
-140.5943467530459
 10
80.02440047912584
 20
-140.4672227296402
 10
80.02440047912584
 20
-140.3742051515384
 10
80.02440047912584
 20
-140.2346787843858
 10
79.92483721960213
 20
-140.0824055639377
 10
79.69229327434776
 20
-140.0824055639377
 10
79.4363226797937
 20
-140.0824055639377
 10
79.36638724144314
 20
-140.2622395482678
 10
79.36638724144314
 20
-140.3828178902515
 10
79.36638724144314
 20
-140.4145127687158
 10
79.36638724144314
 20
-140.5561061931596
 10
79.49557832213999
 20
-140.644989656679
 10
79.49557832213999
 20
-140.644989656679
 10
79.47663029697112
 20
-140.8206895264268
 10
79.47663029697112
 20
-140.8206895264268
 10
79.47663029697112
 20
-140.8206895264268
 10
78.63017033624524
 20
-140.700111184443
 10
78.63017033624524
 20
-140.700111184443
 10
78.63017033624524
 20
-140.700111184443
 10
78.63017033624524
 20
-139.9215196047766
 10
78.63017033624524
 20
-139.9215196047766
 10
78.63017033624524
 20
-139.9215196047766
 10
78.82481823116186
 20
-139.9215196047766
 10
78.82481823116186
 20
-139.9215196047766
 10
78.82481823116186
 20
-139.9215196047766
 10
78.82481823116186
 20
-140.5371581679907
 10
78.82481823116186
 20
-140.5371581679907
 10
78.82481823116186
 20
-140.5371581679907
 10
79.24787595675053
 20
-140.6026149822105
 10
79.24787595675053
 20
-140.6026149822105
 10
79.21411402099508
 20
-140.541292282573
 10
79.17380640381766
 20
-140.4589545004756
 10
79.17380640381766
 20
-140.340443215783
 10
79.17380640381766
 20
-140.08653967852
 10
79.36018606956968
 20
-139.8495171091348
 10
79.6733452491789
 20
-139.8495171091348
 10
79.9906385433704
 20
-139.8495171091348
 10
80.22524954591591
 20
-140.0737928252246
 10
80.22524954591591
 20
-140.3762722088296
 97
        0
 97
        0
 75
     2
 76
     1
 98
        0
  0
ENDBLK
  5
109
330
106
100
AcDbEntity
  8
0
100
AcDbBlockEnd
  0
BLOCK
  5
110
330
10E
100
AcDbEntity
  8
0
100
AcDbBlockBegin
  2
block 6
 70
     0
 10
0.0
 20
0.0
 30
0.0
  3
block 6
  1

  0
SPLINE
  5
112
330
10E
100
AcDbEntity
  8
_U+30EC_U+30A4_U+30E4_U+30FC 1
370
     0
100
AcDbSpline
210
0.0
220
0.0
230
1.0
 70
    11
 71
     3
 72
    26
 73
    22
 74
     0
 42
0.0000000001
 43
0.0000000001
 12
1.0
 22
0.0
 32
0.0
 13
1.0
 23
0.0
 33
0.0
 40
0.0
 40
0.0
 40
0.0
 40
0.0
 40
1.0
 40
1.0
 40
1.0
 40
2.0
 40
2.0
 40
2.0
 40
3.0
 40
3.0
 40
3.0
 40
4.0
 40
4.0
 40
4.0
 40
5.0
 40
5.0
 40
5.0
 40
6.0
 40
6.0
 40
6.0
 40
7.0
 40
7.0
 40
7.0
 40
7.0
 10
103.0359157728521
 20
-142.8946370085472
 30
0.0
 10
103.0359157728521
 20
-142.8946370085472
 30
0.0
 10
101.9317626698296
 20
-142.8946370085472
 30
0.0
 10
101.9317626698296
 20
-142.8946370085472
 30
0.0
 10
101.9317626698296
 20
-142.8946370085472
 30
0.0
 10
101.9317626698296
 20
-143.2246771560341
 30
0.0
 10
101.9317626698296
 20
-143.2246771560341
 30
0.0
 10
101.9317626698296
 20
-143.2246771560341
 30
0.0
 10
101.7836235639638
 20
-143.2246771560341
 30
0.0
 10
101.7836235639638
 20
-143.2246771560341
 30
0.0
 10
101.7688096533772
 20
-142.892569951256
 30
0.0
 10
101.6058566369249
 20
-142.8460611622052
 30
0.0
 10
101.4914794668146
 20
-142.816433341032
 30
0.0
 10
101.4914794668146
 20
-142.816433341032
 30
0.0
 10
101.4914794668146
 20
-142.6703612924574
 30
0.0
 10
101.4914794668146
 20
-142.6703612924574
 30
0.0
 10
101.4914794668146
 20
-142.6703612924574
 30
0.0
 10
103.0359157728521
 20
-142.6703612924574
 30
0.0
 10
103.0359157728521
 20
-142.6703612924574
 30
0.0
 10
103.0359157728521
 20
-142.6703612924574
 30
0.0
 10
103.0359157728521
 20
-142.8946370085472
 30
0.0
 10
103.0359157728521
 20
-142.8946370085472
 30
0.0
  0
HATCH
  5
113
330
10E
100
AcDbEntity
  8
_U+30EC_U+30A4_U+30E4_U+30FC 1
 62
   179
420
  2234388
100
AcDbHatch
 10
0.0
 20
0.0
 30
0.0
210
0.0
220
0.0
230
1.0
  2
SOLID
 70
     1
 71
     0
 91
        1
 92
        1
 93
        1
 72
     4
 94
        3
 73
     0
 74
     1
 95
       26
 96
       22
 40
0.0
 40
0.0
 40
0.0
 40
0.0
 40
1.0
 40
1.0
 40
1.0
 40
2.0
 40
2.0
 40
2.0
 40
3.0
 40
3.0
 40
3.0
 40
4.0
 40
4.0
 40
4.0
 40
5.0
 40
5.0
 40
5.0
 40
6.0
 40
6.0
 40
6.0
 40
7.0
 40
7.0
 40
7.0
 40
7.0
 10
103.0359157728521
 20
-142.8946370085472
 10
103.0359157728521
 20
-142.8946370085472
 10
101.9317626698296
 20
-142.8946370085472
 10
101.9317626698296
 20
-142.8946370085472
 10
101.9317626698296
 20
-142.8946370085472
 10
101.9317626698296
 20
-143.2246771560341
 10
101.9317626698296
 20
-143.2246771560341
 10
101.9317626698296
 20
-143.2246771560341
 10
101.7836235639638
 20
-143.2246771560341
 10
101.7836235639638
 20
-143.2246771560341
 10
101.7688096533772
 20
-142.892569951256
 10
101.6058566369249
 20
-142.8460611622052
 10
101.4914794668146
 20
-142.816433341032
 10
101.4914794668146
 20
-142.816433341032
 10
101.4914794668146
 20
-142.6703612924574
 10
101.4914794668146
 20
-142.6703612924574
 10
101.4914794668146
 20
-142.6703612924574
 10
103.0359157728521
 20
-142.6703612924574
 10
103.0359157728521
 20
-142.6703612924574
 10
103.0359157728521
 20
-142.6703612924574
 10
103.0359157728521
 20
-142.8946370085472
 10
103.0359157728521
 20
-142.8946370085472
 97
        0
 97
        0
 75
     2
 76
     1
 98
        0
  0
SPLINE
  5
114
330
10E
100
AcDbEntity
  8
_U+30EC_U+30A4_U+30E4_U+30FC 1
370
     0
100
AcDbSpline
210
0.0
220
0.0
230
1.0
 70
    11
 71
     3
 72
    29
 73
    25
 74
     0
 42
0.0000000001
 43
0.0000000001
 12
1.0
 22
0.0
 32
0.0
 13
1.0
 23
0.0
 33
0.0
 40
0.0
 40
0.0
 40
0.0
 40
0.0
 40
1.0
 40
1.0
 40
1.0
 40
2.0
 40
2.0
 40
2.0
 40
3.0
 40
3.0
 40
3.0
 40
4.0
 40
4.0
 40
4.0
 40
5.0
 40
5.0
 40
5.0
 40
6.0
 40
6.0
 40
6.0
 40
7.0
 40
7.0
 40
7.0
 40
8.0
 40
8.0
 40
8.0
 40
8.0
 10
102.8581488458132
 20
-141.2713080158975
 30
0.0
 10
103.0676106513164
 20
-141.3794840141343
 30
0.0
 10
103.0865586764853
 20
-141.5527723170424
 30
0.0
 10
103.0865586764853
 20
-141.6692165444438
 30
0.0
 10
103.0865586764853
 20
-141.830102503605
 30
0.0
 10
103.0400498874344
 20
-141.9716959280487
 30
0.0
 10
102.8581488458132
 20
-142.0667805634417
 30
0.0
 10
102.6635009508966
 20
-142.1704779375477
 30
0.0
 10
102.4264783815114
 20
-142.1894259627165
 30
0.0
 10
102.2638698746076
 20
-142.1894259627165
 30
0.0
 10
102.1198648833242
 20
-142.1894259627165
 30
0.0
 10
101.8680284033524
 20
-142.1725449948388
 30
0.0
 10
101.6692463938535
 20
-142.0667805634417
 30
0.0
 10
101.4663302697723
 20
-141.9589490747533
 30
0.0
 10
101.4429036204726
 20
-141.7980631155922
 30
0.0
 10
101.4429036204726
 20
-141.6692165444438
 30
0.0
 10
101.4429036204726
 20
-141.5103976425738
 30
0.0
 10
101.4873453522323
 20
-141.3667371608389
 30
0.0
 10
101.6692463938535
 20
-141.2713080158975
 30
0.0
 10
101.861827231479
 20
-141.1720892659223
 30
0.0
 10
102.0902370621511
 20
-141.1486626166226
 30
0.0
 10
102.2638698746076
 20
-141.1486626166226
 30
0.0
 10
102.4350911202246
 20
-141.1486626166226
 30
0.0
 10
102.6655680081878
 20
-141.1700222086311
 30
0.0
 10
102.8581488458132
 20
-141.2713080158975
 30
0.0
  0
SPLINE
  5
115
330
10E
100
AcDbEntity
  8
_U+30EC_U+30A4_U+30E4_U+30FC 1
370
     0
100
AcDbSpline
210
0.0
220
0.0
230
1.0
 70
    11
 71
     3
 72
    17
 73
    13
 74
     0
 42
0.0000000001
 43
0.0000000001
 12
1.0
 22
0.0
 32
0.0
 13
1.0
 23
0.0
 33
0.0
 40
0.0
 40
0.0
 40
0.0
 40
0.0
 40
1.0
 40
1.0
 40
1.0
 40
2.0
 40
2.0
 40
2.0
 40
3.0
 40
3.0
 40
3.0
 40
4.0
 40
4.0
 40
4.0
 40
4.0
 10
101.6354844580981
 20
-141.6692165444438
 30
0.0
 10
101.6354844580981
 20
-141.9186414575759
 30
0.0
 10
101.9190158165341
 20
-141.9654947561753
 30
0.0
 10
102.2638698746076
 20
-141.9654947561753
 30
0.0
 10
102.5832302260903
 20
-141.9654947561753
 30
0.0
 10
102.8919107815687
 20
-141.9293212535802
 30
0.0
 10
102.8919107815687
 20
-141.6692165444438
 30
0.0
 10
102.8919107815687
 20
-141.4215141790544
 30
0.0
 10
102.6107909899723
 20
-141.3729383327123
 30
0.0
 10
102.2638698746076
 20
-141.3729383327123
 30
0.0
 10
101.9441650135765
 20
-141.3729383327123
 30
0.0
 10
101.6354844580981
 20
-141.4111788925986
 30
0.0
 10
101.6354844580981
 20
-141.6692165444438
 30
0.0
  0
HATCH
  5
116
330
10E
100
AcDbEntity
  8
_U+30EC_U+30A4_U+30E4_U+30FC 1
 62
   179
420
  2234388
100
AcDbHatch
 10
0.0
 20
0.0
 30
0.0
210
0.0
220
0.0
230
1.0
  2
SOLID
 70
     1
 71
     0
 91
        2
 92
        1
 93
        1
 72
     4
 94
        3
 73
     0
 74
     1
 95
       29
 96
       25
 40
0.0
 40
0.0
 40
0.0
 40
0.0
 40
1.0
 40
1.0
 40
1.0
 40
2.0
 40
2.0
 40
2.0
 40
3.0
 40
3.0
 40
3.0
 40
4.0
 40
4.0
 40
4.0
 40
5.0
 40
5.0
 40
5.0
 40
6.0
 40
6.0
 40
6.0
 40
7.0
 40
7.0
 40
7.0
 40
8.0
 40
8.0
 40
8.0
 40
8.0
 10
102.8581488458132
 20
-141.2713080158975
 10
103.0676106513164
 20
-141.3794840141343
 10
103.0865586764853
 20
-141.5527723170424
 10
103.0865586764853
 20
-141.6692165444438
 10
103.0865586764853
 20
-141.830102503605
 10
103.0400498874344
 20
-141.9716959280487
 10
102.8581488458132
 20
-142.0667805634417
 10
102.6635009508966
 20
-142.1704779375477
 10
102.4264783815114
 20
-142.1894259627165
 10
102.2638698746076
 20
-142.1894259627165
 10
102.1198648833242
 20
-142.1894259627165
 10
101.8680284033524
 20
-142.1725449948388
 10
101.6692463938535
 20
-142.0667805634417
 10
101.4663302697723
 20
-141.9589490747533
 10
101.4429036204726
 20
-141.7980631155922
 10
101.4429036204726
 20
-141.6692165444438
 10
101.4429036204726
 20
-141.5103976425738
 10
101.4873453522323
 20
-141.3667371608389
 10
101.6692463938535
 20
-141.2713080158975
 10
101.861827231479
 20
-141.1720892659223
 10
102.0902370621511
 20
-141.1486626166226
 10
102.2638698746076
 20
-141.1486626166226
 10
102.4350911202246
 20
-141.1486626166226
 10
102.6655680081878
 20
-141.1700222086311
 10
102.8581488458132
 20
-141.2713080158975
 97
        0
 97
        0
 92
        1
 93
        1
 72
     4
 94
        3
 73
     0
 74
     1
 95
       17
 96
       13
 40
0.0
 40
0.0
 40
0.0
 40
0.0
 40
1.0
 40
1.0
 40
1.0
 40
2.0
 40
2.0
 40
2.0
 40
3.0
 40
3.0
 40
3.0
 40
4.0
 40
4.0
 40
4.0
 40
4.0
 10
101.6354844580981
 20
-141.6692165444438
 10
101.6354844580981
 20
-141.9186414575759
 10
101.9190158165341
 20
-141.9654947561753
 10
102.2638698746076
 20
-141.9654947561753
 10
102.5832302260903
 20
-141.9654947561753
 10
102.8919107815687
 20
-141.9293212535802
 10
102.8919107815687
 20
-141.6692165444438
 10
102.8919107815687
 20
-141.4215141790544
 10
102.6107909899723
 20
-141.3729383327123
 10
102.2638698746076
 20
-141.3729383327123
 10
101.9441650135765
 20
-141.3729383327123
 10
101.6354844580981
 20
-141.4111788925986
 10
101.6354844580981
 20
-141.6692165444438
 97
        0
 97
        0
 75
     2
 76
     1
 98
        0
  0
ENDBLK
  5
111
330
10E
100
AcDbEntity
  8
0
100
AcDbBlockEnd
  0
BLOCK
  5
119
330
117
100
AcDbEntity
  8
0
100
AcDbBlockBegin
  2
block 7
 70
     0
 10
0.0
 20
0.0
 30
0.0
  3
block 7
  1

  0
SPLINE
  5
11B
330
117
100
AcDbEntity
  8
_U+30EC_U+30A4_U+30E4_U+30FC 1
370
     0
100
AcDbSpline
210
0.0
220
0.0
230
1.0
 70
    11
 71
     3
 72
    44
 73
    40
 74
     0
 42
0.0000000001
 43
0.0000000001
 12
1.0
 22
0.0
 32
0.0
 13
1.0
 23
0.0
 33
0.0
 40
0.0
 40
0.0
 40
0.0
 40
0.0
 40
1.0
 40
1.0
 40
1.0
 40
2.0
 40
2.0
 40
2.0
 40
3.0
 40
3.0
 40
3.0
 40
4.0
 40
4.0
 40
4.0
 40
5.0
 40
5.0
 40
5.0
 40
6.0
 40
6.0
 40
6.0
 40
7.0
 40
7.0
 40
7.0
 40
8.0
 40
8.0
 40
8.0
 40
9.0
 40
9.0
 40
9.0
 40
10.0
 40
10.0
 40
10.0
 40
11.0
 40
11.0
 40
11.0
 40
12.0
 40
12.0
 40
12.0
 40
13.0
 40
13.0
 40
13.0
 40
13.0
 10
102.4547281644905
 20
-125.4400607325289
 30
0.0
 10
102.6135470663605
 20
-125.6577907671967
 30
0.0
 10
102.6876166192934
 20
-125.7508083452984
 30
0.0
 10
102.8312771010283
 20
-125.799728701189
 30
0.0
 10
102.8312771010283
 20
-125.799728701189
 30
0.0
 10
102.8312771010283
 20
-125.0211371215225
 30
0.0
 10
102.8312771010283
 20
-125.0211371215225
 30
0.0
 10
102.8312771010283
 20
-125.0211371215225
 30
0.0
 10
103.0366047919492
 20
-125.0211371215225
 30
0.0
 10
103.0366047919492
 20
-125.0211371215225
 30
0.0
 10
103.0366047919492
 20
-125.0211371215225
 30
0.0
 10
103.0366047919492
 20
-126.0491536143211
 30
0.0
 10
103.0366047919492
 20
-126.0491536143211
 30
0.0
 10
102.6790038805803
 20
-126.0174587358567
 30
0.0
 10
102.6008002130651
 20
-125.952001921637
 30
0.0
 10
102.3024549440425
 20
-125.5668402463861
 30
0.0
 10
102.1036729345435
 20
-125.310869651832
 30
0.0
 10
102.0358045534841
 20
-125.2454128376123
 30
0.0
 10
101.8983452436226
 20
-125.2454128376123
 30
0.0
 10
101.77983395893
 20
-125.2454128376123
 30
0.0
 10
101.6489203304906
 20
-125.317415333254
 30
0.0
 10
101.6489203304906
 20
-125.5141302854617
 30
0.0
 10
101.6489203304906
 20
-125.7742349945981
 30
0.0
 10
101.8793972184538
 20
-125.7825032237627
 30
0.0
 10
101.9958414458552
 20
-125.7869818478935
 30
0.0
 10
101.9958414458552
 20
-125.7869818478935
 30
0.0
 10
101.9958414458552
 20
-126.0112575639833
 30
0.0
 10
101.9958414458552
 20
-126.0112575639833
 30
0.0
 10
101.8687174224495
 20
-126.0026448252702
 30
0.0
 10
101.7567518191789
 20
-125.9919650292659
 30
0.0
 10
101.6382405344863
 20
-125.9116943044596
 30
0.0
 10
101.4773545753251
 20
-125.8017957584801
 30
0.0
 10
101.4435926395697
 20
-125.6154160927281
 30
0.0
 10
101.4435926395697
 20
-125.4993163748752
 30
0.0
 10
101.4435926395697
 20
-125.2219861883126
 30
0.0
 10
101.627560738482
 20
-125.0145914401005
 30
0.0
 10
101.9004123009138
 20
-125.0145914401005
 30
0.0
 10
102.1291666411344
 20
-125.0145914401005
 30
0.0
 10
102.2283853911096
 20
-125.131035667502
 30
0.0
 10
102.4547281644905
 20
-125.4400607325289
 30
0.0
  0
HATCH
  5
11C
330
117
100
AcDbEntity
  8
_U+30EC_U+30A4_U+30E4_U+30FC 1
 62
   179
420
  2234388
100
AcDbHatch
 10
0.0
 20
0.0
 30
0.0
210
0.0
220
0.0
230
1.0
  2
SOLID
 70
     1
 71
     0
 91
        1
 92
        1
 93
        1
 72
     4
 94
        3
 73
     0
 74
     1
 95
       44
 96
       40
 40
0.0
 40
0.0
 40
0.0
 40
0.0
 40
1.0
 40
1.0
 40
1.0
 40
2.0
 40
2.0
 40
2.0
 40
3.0
 40
3.0
 40
3.0
 40
4.0
 40
4.0
 40
4.0
 40
5.0
 40
5.0
 40
5.0
 40
6.0
 40
6.0
 40
6.0
 40
7.0
 40
7.0
 40
7.0
 40
8.0
 40
8.0
 40
8.0
 40
9.0
 40
9.0
 40
9.0
 40
10.0
 40
10.0
 40
10.0
 40
11.0
 40
11.0
 40
11.0
 40
12.0
 40
12.0
 40
12.0
 40
13.0
 40
13.0
 40
13.0
 40
13.0
 10
102.4547281644905
 20
-125.4400607325289
 10
102.6135470663605
 20
-125.6577907671967
 10
102.6876166192934
 20
-125.7508083452984
 10
102.8312771010283
 20
-125.799728701189
 10
102.8312771010283
 20
-125.799728701189
 10
102.8312771010283
 20
-125.0211371215225
 10
102.8312771010283
 20
-125.0211371215225
 10
102.8312771010283
 20
-125.0211371215225
 10
103.0366047919492
 20
-125.0211371215225
 10
103.0366047919492
 20
-125.0211371215225
 10
103.0366047919492
 20
-125.0211371215225
 10
103.0366047919492
 20
-126.0491536143211
 10
103.0366047919492
 20
-126.0491536143211
 10
102.6790038805803
 20
-126.0174587358567
 10
102.6008002130651
 20
-125.952001921637
 10
102.3024549440425
 20
-125.5668402463861
 10
102.1036729345435
 20
-125.310869651832
 10
102.0358045534841
 20
-125.2454128376123
 10
101.8983452436226
 20
-125.2454128376123
 10
101.77983395893
 20
-125.2454128376123
 10
101.6489203304906
 20
-125.317415333254
 10
101.6489203304906
 20
-125.5141302854617
 10
101.6489203304906
 20
-125.7742349945981
 10
101.8793972184538
 20
-125.7825032237627
 10
101.9958414458552
 20
-125.7869818478935
 10
101.9958414458552
 20
-125.7869818478935
 10
101.9958414458552
 20
-126.0112575639833
 10
101.9958414458552
 20
-126.0112575639833
 10
101.8687174224495
 20
-126.0026448252702
 10
101.7567518191789
 20
-125.9919650292659
 10
101.6382405344863
 20
-125.9116943044596
 10
101.4773545753251
 20
-125.8017957584801
 10
101.4435926395697
 20
-125.6154160927281
 10
101.4435926395697
 20
-125.4993163748752
 10
101.4435926395697
 20
-125.2219861883126
 10
101.627560738482
 20
-125.0145914401005
 10
101.9004123009138
 20
-125.0145914401005
 10
102.1291666411344
 20
-125.0145914401005
 10
102.2283853911096
 20
-125.131035667502
 10
102.4547281644905
 20
-125.4400607325289
 97
        0
 97
        0
 75
     2
 76
     1
 98
        0
  0
SPLINE
  5
11D
330
117
100
AcDbEntity
  8
_U+30EC_U+30A4_U+30E4_U+30FC 1
370
     0
100
AcDbSpline
210
0.0
220
0.0
230
1.0
 70
    11
 71
     3
 72
    53
 73
    49
 74
     0
 42
0.0000000001
 43
0.0000000001
 12
1.0
 22
0.0
 32
0.0
 13
1.0
 23
0.0
 33
0.0
 40
0.0
 40
0.0
 40
0.0
 40
0.0
 40
1.0
 40
1.0
 40
1.0
 40
2.0
 40
2.0
 40
2.0
 40
3.0
 40
3.0
 40
3.0
 40
4.0
 40
4.0
 40
4.0
 40
5.0
 40
5.0
 40
5.0
 40
6.0
 40
6.0
 40
6.0
 40
7.0
 40
7.0
 40
7.0
 40
8.0
 40
8.0
 40
8.0
 40
9.0
 40
9.0
 40
9.0
 40
10.0
 40
10.0
 40
10.0
 40
11.0
 40
11.0
 40
11.0
 40
12.0
 40
12.0
 40
12.0
 40
13.0
 40
13.0
 40
13.0
 40
14.0
 40
14.0
 40
14.0
 40
15.0
 40
15.0
 40
15.0
 40
16.0
 40
16.0
 40
16.0
 40
16.0
 10
103.0872476955824
 20
-124.3751817180381
 30
0.0
 10
103.0872476955824
 20
-124.4533853855533
 30
0.0
 10
103.0703667277046
 20
-124.5550157023682
 30
0.0
 10
103.006976970776
 20
-124.6566460191831
 30
0.0
 10
102.8970784247966
 20
-124.8299343220911
 30
0.0
 10
102.7658202868085
 20
-124.8512939140997
 30
0.0
 10
102.6579887981202
 20
-124.8702419392686
 30
0.0
 10
102.6579887981202
 20
-124.8702419392686
 30
0.0
 10
102.6579887981202
 20
-124.6480332804699
 30
0.0
 10
102.6579887981202
 20
-124.6480332804699
 30
0.0
 10
102.8567708076191
 20
-124.5932562622545
 30
0.0
 10
102.8863986287923
 20
-124.4661322388487
 30
0.0
 10
102.8863986287923
 20
-124.373114660747
 30
0.0
 10
102.8863986287923
 20
-124.2335882935944
 30
0.0
 10
102.7868353692686
 20
-124.0813150731463
 30
0.0
 10
102.5542914240142
 20
-124.0813150731463
 30
0.0
 10
102.2983208294602
 20
-124.0813150731463
 30
0.0
 10
102.2283853911096
 20
-124.2611490574764
 30
0.0
 10
102.2283853911096
 20
-124.3817273994601
 30
0.0
 10
102.2283853911096
 20
-124.4134222779244
 30
0.0
 10
102.2283853911096
 20
-124.5550157023682
 30
0.0
 10
102.3575764718064
 20
-124.6438991658876
 30
0.0
 10
102.3575764718064
 20
-124.6438991658876
 30
0.0
 10
102.3386284466376
 20
-124.8195990356354
 30
0.0
 10
102.3386284466376
 20
-124.8195990356354
 30
0.0
 10
102.3386284466376
 20
-124.8195990356354
 30
0.0
 10
101.4921684859117
 20
-124.6990206936516
 30
0.0
 10
101.4921684859117
 20
-124.6990206936516
 30
0.0
 10
101.4921684859117
 20
-124.6990206936516
 30
0.0
 10
101.4921684859117
 20
-123.9204291139852
 30
0.0
 10
101.4921684859117
 20
-123.9204291139852
 30
0.0
 10
101.4921684859117
 20
-123.9204291139852
 30
0.0
 10
101.6868163808283
 20
-123.9204291139852
 30
0.0
 10
101.6868163808283
 20
-123.9204291139852
 30
0.0
 10
101.6868163808283
 20
-123.9204291139852
 30
0.0
 10
101.6868163808283
 20
-124.5360676771993
 30
0.0
 10
101.6868163808283
 20
-124.5360676771993
 30
0.0
 10
101.6868163808283
 20
-124.5360676771993
 30
0.0
 10
102.109874106417
 20
-124.6015244914191
 30
0.0
 10
102.109874106417
 20
-124.6015244914191
 30
0.0
 10
102.0761121706615
 20
-124.5402017917816
 30
0.0
 10
102.0358045534841
 20
-124.4578640096841
 30
0.0
 10
102.0358045534841
 20
-124.3393527249916
 30
0.0
 10
102.0358045534841
 20
-124.0854491877286
 30
0.0
 10
102.2221842192361
 20
-123.8484266183435
 30
0.0
 10
102.5353433988453
 20
-123.8484266183435
 30
0.0
 10
102.8526366930368
 20
-123.8484266183435
 30
0.0
 10
103.0872476955824
 20
-124.0727023344332
 30
0.0
 10
103.0872476955824
 20
-124.3751817180381
 30
0.0
  0
HATCH
  5
11E
330
117
100
AcDbEntity
  8
_U+30EC_U+30A4_U+30E4_U+30FC 1
 62
   179
420
  2234388
100
AcDbHatch
 10
0.0
 20
0.0
 30
0.0
210
0.0
220
0.0
230
1.0
  2
SOLID
 70
     1
 71
     0
 91
        1
 92
        1
 93
        1
 72
     4
 94
        3
 73
     0
 74
     1
 95
       53
 96
       49
 40
0.0
 40
0.0
 40
0.0
 40
0.0
 40
1.0
 40
1.0
 40
1.0
 40
2.0
 40
2.0
 40
2.0
 40
3.0
 40
3.0
 40
3.0
 40
4.0
 40
4.0
 40
4.0
 40
5.0
 40
5.0
 40
5.0
 40
6.0
 40
6.0
 40
6.0
 40
7.0
 40
7.0
 40
7.0
 40
8.0
 40
8.0
 40
8.0
 40
9.0
 40
9.0
 40
9.0
 40
10.0
 40
10.0
 40
10.0
 40
11.0
 40
11.0
 40
11.0
 40
12.0
 40
12.0
 40
12.0
 40
13.0
 40
13.0
 40
13.0
 40
14.0
 40
14.0
 40
14.0
 40
15.0
 40
15.0
 40
15.0
 40
16.0
 40
16.0
 40
16.0
 40
16.0
 10
103.0872476955824
 20
-124.3751817180381
 10
103.0872476955824
 20
-124.4533853855533
 10
103.0703667277046
 20
-124.5550157023682
 10
103.006976970776
 20
-124.6566460191831
 10
102.8970784247966
 20
-124.8299343220911
 10
102.7658202868085
 20
-124.8512939140997
 10
102.6579887981202
 20
-124.8702419392686
 10
102.6579887981202
 20
-124.8702419392686
 10
102.6579887981202
 20
-124.6480332804699
 10
102.6579887981202
 20
-124.6480332804699
 10
102.8567708076191
 20
-124.5932562622545
 10
102.8863986287923
 20
-124.4661322388487
 10
102.8863986287923
 20
-124.373114660747
 10
102.8863986287923
 20
-124.2335882935944
 10
102.7868353692686
 20
-124.0813150731463
 10
102.5542914240142
 20
-124.0813150731463
 10
102.2983208294602
 20
-124.0813150731463
 10
102.2283853911096
 20
-124.2611490574764
 10
102.2283853911096
 20
-124.3817273994601
 10
102.2283853911096
 20
-124.4134222779244
 10
102.2283853911096
 20
-124.5550157023682
 10
102.3575764718064
 20
-124.6438991658876
 10
102.3575764718064
 20
-124.6438991658876
 10
102.3386284466376
 20
-124.8195990356354
 10
102.3386284466376
 20
-124.8195990356354
 10
102.3386284466376
 20
-124.8195990356354
 10
101.4921684859117
 20
-124.6990206936516
 10
101.4921684859117
 20
-124.6990206936516
 10
101.4921684859117
 20
-124.6990206936516
 10
101.4921684859117
 20
-123.9204291139852
 10
101.4921684859117
 20
-123.9204291139852
 10
101.4921684859117
 20
-123.9204291139852
 10
101.6868163808283
 20
-123.9204291139852
 10
101.6868163808283
 20
-123.9204291139852
 10
101.6868163808283
 20
-123.9204291139852
 10
101.6868163808283
 20
-124.5360676771993
 10
101.6868163808283
 20
-124.5360676771993
 10
101.6868163808283
 20
-124.5360676771993
 10
102.109874106417
 20
-124.6015244914191
 10
102.109874106417
 20
-124.6015244914191
 10
102.0761121706615
 20
-124.5402017917816
 10
102.0358045534841
 20
-124.4578640096841
 10
102.0358045534841
 20
-124.3393527249916
 10
102.0358045534841
 20
-124.0854491877286
 10
102.2221842192361
 20
-123.8484266183435
 10
102.5353433988453
 20
-123.8484266183435
 10
102.8526366930368
 20
-123.8484266183435
 10
103.0872476955824
 20
-124.0727023344332
 10
103.0872476955824
 20
-124.3751817180381
 97
        0
 97
        0
 75
     2
 76
     1
 98
        0
  0
ENDBLK
  5
11A
330
117
100
AcDbEntity
  8
0
100
AcDbBlockEnd
  0
ENDSEC
  0
SECTION
  2
ENTITIES
  0
POLYLINE
  5
41
330
1F
100
AcDbEntity
  8
_U+30EC_U+30A4_U+30E4_U+30FC 1
 62
   179
420
  2234388
370
     9
100
AcDb2dPolyline
 66
     1
 10
0.0
 20
0.0
 30
0.0
  0
VERTEX
  5
42
330
41
100
AcDbEntity
  8
_U+30EC_U+30A4_U+30E4_U+30FC 1
 62
   179
420
  2234388
370
     9
100
AcDbVertex
100
AcDb2dVertex
 10
99.8298996753493
 20
-108.4447002506665
 30
0.0
  0
VERTEX
  5
43
330
41
100
AcDbEntity
  8
_U+30EC_U+30A4_U+30E4_U+30FC 1
 62
   179
420
  2234388
370
     9
100
AcDbVertex
100
AcDb2dVertex
 10
101.1872826962751
 20
-108.4447002506665
 30
0.0
  0
SEQEND
  5
44
330
41
100
AcDbEntity
  8
_U+30EC_U+30A4_U+30E4_U+30FC 1
 62
   179
420
  2234388
370
     9
  0
POLYLINE
  5
45
330
1F
100
AcDbEntity
  8
_U+30EC_U+30A4_U+30E4_U+30FC 1
 62
   179
420
  2234388
370
     9
100
AcDb2dPolyline
 66
     1
 10
0.0
 20
0.0
 30
0.0
  0
VERTEX
  5
46
330
45
100
AcDbEntity
  8
_U+30EC_U+30A4_U+30E4_U+30FC 1
 62
   179
420
  2234388
370
     9
100
AcDbVertex
100
AcDb2dVertex
 10
99.8298996753493
 20
-108.4447002506665
 30
0.0
  0
VERTEX
  5
47
330
45
100
AcDbEntity
  8
_U+30EC_U+30A4_U+30E4_U+30FC 1
 62
   179
420
  2234388
370
     9
100
AcDbVertex
100
AcDb2dVertex
 10
97.72977834003898
 20
-108.4447002506665
 30
0.0
  0
SEQEND
  5
48
330
45
100
AcDbEntity
  8
_U+30EC_U+30A4_U+30E4_U+30FC 1
 62
   179
420
  2234388
370
     9
  0
POLYLINE
  5
49
330
1F
100
AcDbEntity
  8
_U+30EC_U+30A4_U+30E4_U+30FC 1
370
     0
100
AcDb2dPolyline
 66
     1
 10
0.0
 20
0.0
 30
0.0
  0
VERTEX
  5
4A
330
49
100
AcDbEntity
  8
_U+30EC_U+30A4_U+30E4_U+30FC 1
370
     0
100
AcDbVertex
100
AcDb2dVertex
 10
85.8295611436388
 20
-134.4451985774996
 30
0.0
  0
VERTEX
  5
4B
330
49
100
AcDbEntity
  8
_U+30EC_U+30A4_U+30E4_U+30FC 1
370
     0
100
AcDbVertex
100
AcDb2dVertex
 10
85.8295611436388
 20
-134.4451985774996
 30
0.0
  0
VERTEX
  5
4C
330
49
100
AcDbEntity
  8
_U+30EC_U+30A4_U+30E4_U+30FC 1
370
     0
100
AcDbVertex
100
AcDb2dVertex
 10
85.8295611436388
 20
-136.4447430214441
 30
0.0
  0
VERTEX
  5
4D
330
49
100
AcDbEntity
  8
_U+30EC_U+30A4_U+30E4_U+30FC 1
370
     0
100
AcDbVertex
100
AcDb2dVertex
 10
98.82945720087271
 20
-136.4447430214441
 30
0.0
  0
VERTEX
  5
4E
330
49
100
AcDbEntity
  8
_U+30EC_U+30A4_U+30E4_U+30FC 1
370
     0
100
AcDbVertex
100
AcDb2dVertex
 10
98.82945720087271
 20
-112.4444594163334
 30
0.0
  0
VERTEX
  5
4F
330
49
100
AcDbEntity
  8
_U+30EC_U+30A4_U+30E4_U+30FC 1
370
     0
100
AcDbVertex
100
AcDb2dVertex
 10
99.8298996753493
 20
-112.4444594163334
 30
0.0
  0
VERTEX
  5
50
330
49
100
AcDbEntity
  8
_U+30EC_U+30A4_U+30E4_U+30FC 1
370
     0
100
AcDbVertex
100
AcDb2dVertex
 10
99.8298996753493
 20
-137.4444799656391
 30
0.0
  0
VERTEX
  5
51
330
49
100
AcDbEntity
  8
_U+30EC_U+30A4_U+30E4_U+30FC 1
370
     0
100
AcDbVertex
100
AcDb2dVertex
 10
85.8295611436388
 20
-137.4444799656391
 30
0.0
  0
VERTEX
  5
52
330
49
100
AcDbEntity
  8
_U+30EC_U+30A4_U+30E4_U+30FC 1
370
     0
100
AcDbVertex
100
AcDb2dVertex
 10
85.8295611436388
 20
-147.4445657964724
 30
0.0
  0
VERTEX
  5
53
330
49
100
AcDbEntity
  8
_U+30EC_U+30A4_U+30E4_U+30FC 1
370
     0
100
AcDbVertex
100
AcDb2dVertex
 10
98.82980997864149
 20
-147.4445657964724
 30
0.0
  0
VERTEX
  5
54
330
49
100
AcDbEntity
  8
_U+30EC_U+30A4_U+30E4_U+30FC 1
370
     0
100
AcDbVertex
100
AcDb2dVertex
 10
98.82980997864149
 20
-147.4449185742502
 30
0.0
  0
VERTEX
  5
55
330
49
100
AcDbEntity
  8
_U+30EC_U+30A4_U+30E4_U+30FC 1
370
     0
100
AcDbVertex
100
AcDb2dVertex
 10
99.82954689758053
 20
-147.4449185742502
 30
0.0
  0
VERTEX
  5
56
330
49
100
AcDbEntity
  8
_U+30EC_U+30A4_U+30E4_U+30FC 1
370
     0
100
AcDbVertex
100
AcDb2dVertex
 10
99.82954689758053
 20
-148.4450435739998
 30
0.0
  0
VERTEX
  5
57
330
49
100
AcDbEntity
  8
_U+30EC_U+30A4_U+30E4_U+30FC 1
370
     0
100
AcDbVertex
100
AcDb2dVertex
 10
84.82978894692289
 20
-148.4450435739998
 30
0.0
  0
VERTEX
  5
58
330
49
100
AcDbEntity
  8
_U+30EC_U+30A4_U+30E4_U+30FC 1
370
     0
100
AcDbVertex
100
AcDb2dVertex
 10
84.82978894692289
 20
-133.4447560777497
 30
0.0
  0
VERTEX
  5
59
330
49
100
AcDbEntity
  8
_U+30EC_U+30A4_U+30E4_U+30FC 1
370
     0
100
AcDbVertex
100
AcDb2dVertex
 10
85.8295611436388
 20
-133.4447560777497
 30
0.0
  0
VERTEX
  5
5A
330
49
100
AcDbEntity
  8
_U+30EC_U+30A4_U+30E4_U+30FC 1
370
     0
100
AcDbVertex
100
AcDb2dVertex
 10
85.8295611436388
 20
-134.4451985774996
 30
0.0
  0
SEQEND
  5
5C
330
49
100
AcDbEntity
  8
_U+30EC_U+30A4_U+30E4_U+30FC 1
370
     0
  0
HATCH
  5
5B
330
1F
100
AcDbEntity
  8
_U+30EC_U+30A4_U+30E4_U+30FC 1
 62
   253
420
 11711154
100
AcDbHatch
 10
0.0
 20
0.0
 30
0.0
210
0.0
220
0.0
230
1.0
  2
SOLID
 70
     1
 71
     0
 91
        1
 92
        1
 93
       15
 72
     1
 10
85.8295611436388
 20
-134.4451985774996
 11
85.8295611436388
 21
-136.4447430214441
 72
     1
 10
85.8295611436388
 20
-136.4447430214441
 11
98.82945720087271
 21
-136.4447430214441
 72
     1
 10
98.82945720087271
 20
-136.4447430214441
 11
98.82945720087271
 21
-112.4444594163334
 72
     1
 10
98.82945720087271
 20
-112.4444594163334
 11
99.8298996753493
 21
-112.4444594163334
 72
     1
 10
99.8298996753493
 20
-112.4444594163334
 11
99.8298996753493
 21
-137.4444799656391
 72
     1
 10
99.8298996753493
 20
-137.4444799656391
 11
85.8295611436388
 21
-137.4444799656391
 72
     1
 10
85.8295611436388
 20
-137.4444799656391
 11
85.8295611436388
 21
-147.4445657964724
 72
     1
 10
85.8295611436388
 20
-147.4445657964724
 11
98.82980997864149
 21
-147.4445657964724
 72
     1
 10
98.82980997864149
 20
-147.4445657964724
 11
98.82980997864149
 21
-147.4449185742502
 72
     1
 10
98.82980997864149
 20
-147.4449185742502
 11
99.82954689758053
 21
-147.4449185742502
 72
     1
 10
99.82954689758053
 20
-147.4449185742502
 11
99.82954689758053
 21
-148.4450435739998
 72
     1
 10
99.82954689758053
 20
-148.4450435739998
 11
84.82978894692289
 21
-148.4450435739998
 72
     1
 10
84.82978894692289
 20
-148.4450435739998
 11
84.82978894692289
 21
-133.4447560777497
 72
     1
 10
84.82978894692289
 20
-133.4447560777497
 11
85.8295611436388
 21
-133.4447560777497
 72
     1
 10
85.8295611436388
 20
-133.4447560777497
 11
85.8295611436388
 21
-134.4451985774996
 97
        0
 75
     2
 76
     1
 98
        0
  0
POLYLINE
  5
5D
330
1F
100
AcDbEntity
  8
_U+30EC_U+30A4_U+30E4_U+30FC 1
 62
   179
420
  2234388
370
    25
100
AcDb2dPolyline
 66
     1
 10
0.0
 20
0.0
 30
0.0
  0
VERTEX
  5
5E
330
5D
100
AcDbEntity
  8
_U+30EC_U+30A4_U+30E4_U+30FC 1
 62
   179
420
  2234388
370
    25
100
AcDbVertex
100
AcDb2dVertex
 10
98.82945720087271
 20
-112.4444594163334
 30
0.0
  0
VERTEX
  5
5F
330
5D
100
AcDbEntity
  8
_U+30EC_U+30A4_U+30E4_U+30FC 1
 62
   179
420
  2234388
370
    25
100
AcDbVertex
100
AcDb2dVertex
 10
98.82945720087271
 20
-136.4447430214441
 30
0.0
  0
SEQEND
  5
60
330
5D
100
AcDbEntity
  8
_U+30EC_U+30A4_U+30E4_U+30FC 1
 62
   179
420
  2234388
370
    25
  0
POLYLINE
  5
61
330
1F
100
AcDbEntity
  8
_U+30EC_U+30A4_U+30E4_U+30FC 1
 62
   179
420
  2234388
370
    25
100
AcDb2dPolyline
 66
     1
 10
0.0
 20
0.0
 30
0.0
  0
VERTEX
  5
62
330
61
100
AcDbEntity
  8
_U+30EC_U+30A4_U+30E4_U+30FC 1
 62
   179
420
  2234388
370
    25
100
AcDbVertex
100
AcDb2dVertex
 10
99.8298996753493
 20
-112.4444594163334
 30
0.0
  0
VERTEX
  5
63
330
61
100
AcDbEntity
  8
_U+30EC_U+30A4_U+30E4_U+30FC 1
 62
   179
420
  2234388
370
    25
100
AcDbVertex
100
AcDb2dVertex
 10
98.82945720087271
 20
-112.4444594163334
 30
0.0
  0
SEQEND
  5
64
330
61
100
AcDbEntity
  8
_U+30EC_U+30A4_U+30E4_U+30FC 1
 62
   179
420
  2234388
370
    25
  0
POLYLINE
  5
65
330
1F
100
AcDbEntity
  8
_U+30EC_U+30A4_U+30E4_U+30FC 1
 62
   179
420
  2234388
370
    25
100
AcDb2dPolyline
 66
     1
 10
0.0
 20
0.0
 30
0.0
  0
VERTEX
  5
66
330
65
100
AcDbEntity
  8
_U+30EC_U+30A4_U+30E4_U+30FC 1
 62
   179
420
  2234388
370
    25
100
AcDbVertex
100
AcDb2dVertex
 10
99.8298996753493
 20
-112.4444594163334
 30
0.0
  0
VERTEX
  5
67
330
65
100
AcDbEntity
  8
_U+30EC_U+30A4_U+30E4_U+30FC 1
 62
   179
420
  2234388
370
    25
100
AcDbVertex
100
AcDb2dVertex
 10
99.8298996753493
 20
-137.4444799656391
 30
0.0
  0
SEQEND
  5
68
330
65
100
AcDbEntity
  8
_U+30EC_U+30A4_U+30E4_U+30FC 1
 62
   179
420
  2234388
370
    25
  0
POLYLINE
  5
69
330
1F
100
AcDbEntity
  8
_U+30EC_U+30A4_U+30E4_U+30FC 1
 62
   179
420
  2234388
370
    25
100
AcDb2dPolyline
 66
     1
 10
0.0
 20
0.0
 30
0.0
  0
VERTEX
  5
6A
330
69
100
AcDbEntity
  8
_U+30EC_U+30A4_U+30E4_U+30FC 1
 62
   179
420
  2234388
370
    25
100
AcDbVertex
100
AcDb2dVertex
 10
99.8298996753493
 20
-137.4444799656391
 30
0.0
  0
VERTEX
  5
6B
330
69
100
AcDbEntity
  8
_U+30EC_U+30A4_U+30E4_U+30FC 1
 62
   179
420
  2234388
370
    25
100
AcDbVertex
100
AcDb2dVertex
 10
85.8295611436388
 20
-137.4444799656391
 30
0.0
  0
SEQEND
  5
6C
330
69
100
AcDbEntity
  8
_U+30EC_U+30A4_U+30E4_U+30FC 1
 62
   179
420
  2234388
370
    25
  0
POLYLINE
  5
6D
330
1F
100
AcDbEntity
  8
_U+30EC_U+30A4_U+30E4_U+30FC 1
 62
   179
420
  2234388
370
    25
100
AcDb2dPolyline
 66
     1
 10
0.0
 20
0.0
 30
0.0
  0
VERTEX
  5
6E
330
6D
100
AcDbEntity
  8
_U+30EC_U+30A4_U+30E4_U+30FC 1
 62
   179
420
  2234388
370
    25
100
AcDbVertex
100
AcDb2dVertex
 10
99.82954689758053
 20
-147.4449185742502
 30
0.0
  0
VERTEX
  5
6F
330
6D
100
AcDbEntity
  8
_U+30EC_U+30A4_U+30E4_U+30FC 1
 62
   179
420
  2234388
370
    25
100
AcDbVertex
100
AcDb2dVertex
 10
98.82980997864149
 20
-147.4449185742502
 30
0.0
  0
SEQEND
  5
70
330
6D
100
AcDbEntity
  8
_U+30EC_U+30A4_U+30E4_U+30FC 1
 62
   179
420
  2234388
370
    25
  0
POLYLINE
  5
71
330
1F
100
AcDbEntity
  8
_U+30EC_U+30A4_U+30E4_U+30FC 1
 62
   179
420
  2234388
370
    25
100
AcDb2dPolyline
 66
     1
 10
0.0
 20
0.0
 30
0.0
  0
VERTEX
  5
72
330
71
100
AcDbEntity
  8
_U+30EC_U+30A4_U+30E4_U+30FC 1
 62
   179
420
  2234388
370
    25
100
AcDbVertex
100
AcDb2dVertex
 10
99.82954689758053
 20
-148.4450435739998
 30
0.0
  0
VERTEX
  5
73
330
71
100
AcDbEntity
  8
_U+30EC_U+30A4_U+30E4_U+30FC 1
 62
   179
420
  2234388
370
    25
100
AcDbVertex
100
AcDb2dVertex
 10
84.82978894692289
 20
-148.4450435739998
 30
0.0
  0
SEQEND
  5
74
330
71
100
AcDbEntity
  8
_U+30EC_U+30A4_U+30E4_U+30FC 1
 62
   179
420
  2234388
370
    25
  0
POLYLINE
  5
75
330
1F
100
AcDbEntity
  8
_U+30EC_U+30A4_U+30E4_U+30FC 1
 62
   179
420
  2234388
370
    25
100
AcDb2dPolyline
 66
     1
 10
0.0
 20
0.0
 30
0.0
  0
VERTEX
  5
76
330
75
100
AcDbEntity
  8
_U+30EC_U+30A4_U+30E4_U+30FC 1
 62
   179
420
  2234388
370
    25
100
AcDbVertex
100
AcDb2dVertex
 10
85.8295611436388
 20
-133.4447560777497
 30
0.0
  0
VERTEX
  5
77
330
75
100
AcDbEntity
  8
_U+30EC_U+30A4_U+30E4_U+30FC 1
 62
   179
420
  2234388
370
    25
100
AcDbVertex
100
AcDb2dVertex
 10
85.8295611436388
 20
-134.4451985774996
 30
0.0
  0
SEQEND
  5
78
330
75
100
AcDbEntity
  8
_U+30EC_U+30A4_U+30E4_U+30FC 1
 62
   179
420
  2234388
370
    25
  0
POLYLINE
  5
79
330
1F
100
AcDbEntity
  8
_U+30EC_U+30A4_U+30E4_U+30FC 1
 62
   179
420
  2234388
370
    25
100
AcDb2dPolyline
 66
     1
 10
0.0
 20
0.0
 30
0.0
  0
VERTEX
  5
7A
330
79
100
AcDbEntity
  8
_U+30EC_U+30A4_U+30E4_U+30FC 1
 62
   179
420
  2234388
370
    25
100
AcDbVertex
100
AcDb2dVertex
 10
84.82978894692289
 20
-133.4447560777497
 30
0.0
  0
VERTEX
  5
7B
330
79
100
AcDbEntity
  8
_U+30EC_U+30A4_U+30E4_U+30FC 1
 62
   179
420
  2234388
370
    25
100
AcDbVertex
100
AcDb2dVertex
 10
84.82978894692289
 20
-148.4450435739998
 30
0.0
  0
SEQEND
  5
7C
330
79
100
AcDbEntity
  8
_U+30EC_U+30A4_U+30E4_U+30FC 1
 62
   179
420
  2234388
370
    25
  0
POLYLINE
  5
7D
330
1F
100
AcDbEntity
  8
_U+30EC_U+30A4_U+30E4_U+30FC 1
 62
   179
420
  2234388
370
    25
100
AcDb2dPolyline
 66
     1
 10
0.0
 20
0.0
 30
0.0
  0
VERTEX
  5
7E
330
7D
100
AcDbEntity
  8
_U+30EC_U+30A4_U+30E4_U+30FC 1
 62
   179
420
  2234388
370
    25
100
AcDbVertex
100
AcDb2dVertex
 10
85.8295611436388
 20
-133.4447560777497
 30
0.0
  0
VERTEX
  5
7F
330
7D
100
AcDbEntity
  8
_U+30EC_U+30A4_U+30E4_U+30FC 1
 62
   179
420
  2234388
370
    25
100
AcDbVertex
100
AcDb2dVertex
 10
84.82978894692289
 20
-133.4447560777497
 30
0.0
  0
SEQEND
  5
80
330
7D
100
AcDbEntity
  8
_U+30EC_U+30A4_U+30E4_U+30FC 1
 62
   179
420
  2234388
370
    25
  0
POLYLINE
  5
81
330
1F
100
AcDbEntity
  8
_U+30EC_U+30A4_U+30E4_U+30FC 1
 62
   179
420
  2234388
370
    25
100
AcDb2dPolyline
 66
     1
 10
0.0
 20
0.0
 30
0.0
  0
VERTEX
  5
82
330
81
100
AcDbEntity
  8
_U+30EC_U+30A4_U+30E4_U+30FC 1
 62
   179
420
  2234388
370
    25
100
AcDbVertex
100
AcDb2dVertex
 10
99.82954689758053
 20
-147.4449185742502
 30
0.0
  0
VERTEX
  5
83
330
81
100
AcDbEntity
  8
_U+30EC_U+30A4_U+30E4_U+30FC 1
 62
   179
420
  2234388
370
    25
100
AcDbVertex
100
AcDb2dVertex
 10
99.82954689758053
 20
-148.4450435739998
 30
0.0
  0
SEQEND
  5
84
330
81
100
AcDbEntity
  8
_U+30EC_U+30A4_U+30E4_U+30FC 1
 62
   179
420
  2234388
370
    25
  0
POLYLINE
  5
85
330
1F
100
AcDbEntity
  8
_U+30EC_U+30A4_U+30E4_U+30FC 1
 62
   179
420
  2234388
370
    25
100
AcDb2dPolyline
 66
     1
 10
0.0
 20
0.0
 30
0.0
  0
VERTEX
  5
86
330
85
100
AcDbEntity
  8
_U+30EC_U+30A4_U+30E4_U+30FC 1
 62
   179
420
  2234388
370
    25
100
AcDbVertex
100
AcDb2dVertex
 10
85.8295611436388
 20
-134.4451985774996
 30
0.0
  0
VERTEX
  5
87
330
85
100
AcDbEntity
  8
_U+30EC_U+30A4_U+30E4_U+30FC 1
 62
   179
420
  2234388
370
    25
100
AcDbVertex
100
AcDb2dVertex
 10
85.8295611436388
 20
-136.4447430214441
 30
0.0
  0
SEQEND
  5
88
330
85
100
AcDbEntity
  8
_U+30EC_U+30A4_U+30E4_U+30FC 1
 62
   179
420
  2234388
370
    25
  0
POLYLINE
  5
89
330
1F
100
AcDbEntity
  8
_U+30EC_U+30A4_U+30E4_U+30FC 1
 62
   179
420
  2234388
370
    25
100
AcDb2dPolyline
 66
     1
 10
0.0
 20
0.0
 30
0.0
  0
VERTEX
  5
8A
330
89
100
AcDbEntity
  8
_U+30EC_U+30A4_U+30E4_U+30FC 1
 62
   179
420
  2234388
370
    25
100
AcDbVertex
100
AcDb2dVertex
 10
98.82945720087271
 20
-136.4447430214441
 30
0.0
  0
VERTEX
  5
8B
330
89
100
AcDbEntity
  8
_U+30EC_U+30A4_U+30E4_U+30FC 1
 62
   179
420
  2234388
370
    25
100
AcDbVertex
100
AcDb2dVertex
 10
85.8295611436388
 20
-136.4447430214441
 30
0.0
  0
SEQEND
  5
8C
330
89
100
AcDbEntity
  8
_U+30EC_U+30A4_U+30E4_U+30FC 1
 62
   179
420
  2234388
370
    25
  0
POLYLINE
  5
8D
330
1F
100
AcDbEntity
  8
_U+30EC_U+30A4_U+30E4_U+30FC 1
 62
   179
420
  2234388
370
    25
100
AcDb2dPolyline
 66
     1
 10
0.0
 20
0.0
 30
0.0
  0
VERTEX
  5
8E
330
8D
100
AcDbEntity
  8
_U+30EC_U+30A4_U+30E4_U+30FC 1
 62
   179
420
  2234388
370
    25
100
AcDbVertex
100
AcDb2dVertex
 10
85.8295611436388
 20
-134.4451985774996
 30
0.0
  0
VERTEX
  5
8F
330
8D
100
AcDbEntity
  8
_U+30EC_U+30A4_U+30E4_U+30FC 1
 62
   179
420
  2234388
370
    25
100
AcDbVertex
100
AcDb2dVertex
 10
85.8295611436388
 20
-134.4451985774996
 30
0.0
  0
SEQEND
  5
90
330
8D
100
AcDbEntity
  8
_U+30EC_U+30A4_U+30E4_U+30FC 1
 62
   179
420
  2234388
370
    25
  0
POLYLINE
  5
91
330
1F
100
AcDbEntity
  8
_U+30EC_U+30A4_U+30E4_U+30FC 1
 62
   179
420
  2234388
370
    25
100
AcDb2dPolyline
 66
     1
 10
0.0
 20
0.0
 30
0.0
  0
VERTEX
  5
92
330
91
100
AcDbEntity
  8
_U+30EC_U+30A4_U+30E4_U+30FC 1
 62
   179
420
  2234388
370
    25
100
AcDbVertex
100
AcDb2dVertex
 10
98.82980997864149
 20
-147.4449185742502
 30
0.0
  0
VERTEX
  5
93
330
91
100
AcDbEntity
  8
_U+30EC_U+30A4_U+30E4_U+30FC 1
 62
   179
420
  2234388
370
    25
100
AcDbVertex
100
AcDb2dVertex
 10
98.82980997864149
 20
-147.4445657964724
 30
0.0
  0
SEQEND
  5
94
330
91
100
AcDbEntity
  8
_U+30EC_U+30A4_U+30E4_U+30FC 1
 62
   179
420
  2234388
370
    25
  0
POLYLINE
  5
95
330
1F
100
AcDbEntity
  8
_U+30EC_U+30A4_U+30E4_U+30FC 1
 62
   179
420
  2234388
370
    25
100
AcDb2dPolyline
 66
     1
 10
0.0
 20
0.0
 30
0.0
  0
VERTEX
  5
96
330
95
100
AcDbEntity
  8
_U+30EC_U+30A4_U+30E4_U+30FC 1
 62
   179
420
  2234388
370
    25
100
AcDbVertex
100
AcDb2dVertex
 10
98.82980997864149
 20
-147.4445657964724
 30
0.0
  0
VERTEX
  5
97
330
95
100
AcDbEntity
  8
_U+30EC_U+30A4_U+30E4_U+30FC 1
 62
   179
420
  2234388
370
    25
100
AcDbVertex
100
AcDb2dVertex
 10
85.8295611436388
 20
-147.4445657964724
 30
0.0
  0
SEQEND
  5
98
330
95
100
AcDbEntity
  8
_U+30EC_U+30A4_U+30E4_U+30FC 1
 62
   179
420
  2234388
370
    25
  0
POLYLINE
  5
99
330
1F
100
AcDbEntity
  8
_U+30EC_U+30A4_U+30E4_U+30FC 1
 62
   179
420
  2234388
370
    25
100
AcDb2dPolyline
 66
     1
 10
0.0
 20
0.0
 30
0.0
  0
VERTEX
  5
9A
330
99
100
AcDbEntity
  8
_U+30EC_U+30A4_U+30E4_U+30FC 1
 62
   179
420
  2234388
370
    25
100
AcDbVertex
100
AcDb2dVertex
 10
85.8295611436388
 20
-137.4444799656391
 30
0.0
  0
VERTEX
  5
9B
330
99
100
AcDbEntity
  8
_U+30EC_U+30A4_U+30E4_U+30FC 1
 62
   179
420
  2234388
370
    25
100
AcDbVertex
100
AcDb2dVertex
 10
85.8295611436388
 20
-147.4445657964724
 30
0.0
  0
SEQEND
  5
9C
330
99
100
AcDbEntity
  8
_U+30EC_U+30A4_U+30E4_U+30FC 1
 62
   179
420
  2234388
370
    25
  0
SPLINE
  5
9D
330
1F
100
AcDbEntity
  8
_U+30EC_U+30A4_U+30E4_U+30FC 1
 62
   179
420
  2234388
370
     9
100
AcDbSpline
210
0.0
220
0.0
230
1.0
 70
    11
 71
     3
 72
    17
 73
    13
 74
     0
 42
0.0000000001
 43
0.0000000001
 12
1.0
 22
0.0
 32
0.0
 13
1.0
 23
0.0
 33
0.0
 40
0.0
 40
0.0
 40
0.0
 40
0.0
 40
1.0
 40
1.0
 40
1.0
 40
2.0
 40
2.0
 40
2.0
 40
3.0
 40
3.0
 40
3.0
 40
4.0
 40
4.0
 40
4.0
 40
4.0
 10
98.72955053675487
 20
-108.4447002506665
 30
0.0
 10
98.72955053675487
 20
-108.3895963617916
 30
0.0
 10
98.77431803561277
 20
-108.3447935840249
 30
0.0
 10
98.82945720087271
 20
-108.3447935840249
 30
0.0
 10
98.88456108835578
 20
-108.3447935840249
 30
0.0
 10
98.92936386499055
 20
-108.3895963617916
 30
0.0
 10
98.92936386499055
 20
-108.4447002506665
 30
0.0
 10
98.92936386499055
 20
-108.4998394173196
 30
0.0
 10
98.88456108835578
 20
-108.5446069173082
 30
0.0
 10
98.82945720087271
 20
-108.5446069173082
 30
0.0
 10
98.77431803561277
 20
-108.5446069173082
 30
0.0
 10
98.72955053675487
 20
-108.4998394173196
 30
0.0
 10
98.72955053675487
 20
-108.4447002506665
 30
0.0
  0
SPLINE
  5
9E
330
1F
100
AcDbEntity
  8
_U+30EC_U+30A4_U+30E4_U+30FC 1
 62
   179
420
  2234388
370
     9
100
AcDbSpline
210
0.0
220
0.0
230
1.0
 70
    11
 71
     3
 72
    17
 73
    13
 74
     0
 42
0.0000000001
 43
0.0000000001
 12
1.0
 22
0.0
 32
0.0
 13
1.0
 23
0.0
 33
0.0
 40
0.0
 40
0.0
 40
0.0
 40
0.0
 40
1.0
 40
1.0
 40
1.0
 40
2.0
 40
2.0
 40
2.0
 40
3.0
 40
3.0
 40
3.0
 40
4.0
 40
4.0
 40
4.0
 40
4.0
 10
99.72999301123147
 20
-108.4447002506665
 30
0.0
 10
99.72999301123147
 20
-108.3895963617916
 30
0.0
 10
99.77479578786622
 20
-108.3447935840249
 30
0.0
 10
99.8298996753493
 20
-108.3447935840249
 30
0.0
 10
99.88503884060925
 20
-108.3447935840249
 30
0.0
 10
99.92980633946713
 20
-108.3895963617916
 30
0.0
 10
99.92980633946713
 20
-108.4447002506665
 30
0.0
 10
99.92980633946713
 20
-108.4998394173196
 30
0.0
 10
99.88503884060925
 20
-108.5446069173082
 30
0.0
 10
99.8298996753493
 20
-108.5446069173082
 30
0.0
 10
99.77479578786622
 20
-108.5446069173082
 30
0.0
 10
99.72999301123147
 20
-108.4998394173196
 30
0.0
 10
99.72999301123147
 20
-108.4447002506665
 30
0.0
  0
SPLINE
  5
9F
330
1F
100
AcDbEntity
  8
_U+30EC_U+30A4_U+30E4_U+30FC 1
 62
   179
420
  2234388
370
     9
100
AcDbSpline
210
0.0
220
0.0
230
1.0
 70
    11
 71
     3
 72
    17
 73
    13
 74
     0
 42
0.0000000001
 43
0.0000000001
 12
1.0
 22
0.0
 32
0.0
 13
1.0
 23
0.0
 33
0.0
 40
0.0
 40
0.0
 40
0.0
 40
0.0
 40
1.0
 40
1.0
 40
1.0
 40
2.0
 40
2.0
 40
2.0
 40
3.0
 40
3.0
 40
3.0
 40
4.0
 40
4.0
 40
4.0
 40
4.0
 10
103.729399298087
 20
-112.4444594163334
 30
0.0
 10
103.729399298087
 20
-112.3893555274582
 30
0.0
 10
103.7742020747218
 20
-112.3445527496918
 30
0.0
 10
103.8293059622048
 20
-112.3445527496918
 30
0.0
 10
103.8844451274648
 20
-112.3445527496918
 30
0.0
 10
103.9292126263227
 20
-112.3893555274582
 30
0.0
 10
103.9292126263227
 20
-112.4444594163334
 30
0.0
 10
103.9292126263227
 20
-112.5002688607638
 30
0.0
 10
103.8844451274648
 20
-112.5450716385306
 30
0.0
 10
103.8293059622048
 20
-112.5450716385306
 30
0.0
 10
103.7742020747218
 20
-112.5450716385306
 30
0.0
 10
103.729399298087
 20
-112.5002688607638
 30
0.0
 10
103.729399298087
 20
-112.4444594163334
 30
0.0
  0
SPLINE
  5
A0
330
1F
100
AcDbEntity
  8
_U+30EC_U+30A4_U+30E4_U+30FC 1
 62
   179
420
  2234388
370
     9
100
AcDbSpline
210
0.0
220
0.0
230
1.0
 70
    11
 71
     3
 72
    17
 73
    13
 74
     0
 42
0.0000000001
 43
0.0000000001
 12
1.0
 22
0.0
 32
0.0
 13
1.0
 23
0.0
 33
0.0
 40
0.0
 40
0.0
 40
0.0
 40
0.0
 40
1.0
 40
1.0
 40
1.0
 40
2.0
 40
2.0
 40
2.0
 40
3.0
 40
3.0
 40
3.0
 40
4.0
 40
4.0
 40
4.0
 40
4.0
 10
80.72945294042007
 20
-133.4447560777497
 30
0.0
 10
80.72945294042007
 20
-133.3896169110973
 30
0.0
 10
80.77422043927795
 20
-133.3448494111081
 30
0.0
 10
80.8293596045379
 20
-133.3448494111081
 30
0.0
 10
80.88446349202098
 20
-133.3448494111081
 30
0.0
 10
80.92926626865574
 20
-133.3896169110973
 30
0.0
 10
80.92926626865574
 20
-133.4447560777497
 30
0.0
 10
80.92926626865574
 20
-133.4998599666253
 30
0.0
 10
80.88446349202098
 20
-133.5446627443914
 30
0.0
 10
80.8293596045379
 20
-133.5446627443914
 30
0.0
 10
80.77422043927795
 20
-133.5446627443914
 30
0.0
 10
80.72945294042007
 20
-133.4998599666253
 30
0.0
 10
80.72945294042007
 20
-133.4447560777497
 30
0.0
  0
SPLINE
  5
A1
330
1F
100
AcDbEntity
  8
_U+30EC_U+30A4_U+30E4_U+30FC 1
 62
   179
420
  2234388
370
     9
100
AcDbSpline
210
0.0
220
0.0
230
1.0
 70
    11
 71
     3
 72
    17
 73
    13
 74
     0
 42
0.0000000001
 43
0.0000000001
 12
1.0
 22
0.0
 32
0.0
 13
1.0
 23
0.0
 33
0.0
 40
0.0
 40
0.0
 40
0.0
 40
0.0
 40
1.0
 40
1.0
 40
1.0
 40
2.0
 40
2.0
 40
2.0
 40
3.0
 40
3.0
 40
3.0
 40
4.0
 40
4.0
 40
4.0
 40
4.0
 10
85.72912531286781
 20
-129.4449969120835
 30
0.0
 10
85.72912531286781
 20
-129.3898577454304
 30
0.0
 10
85.77392808950256
 20
-129.3450902454412
 30
0.0
 10
85.8297375325232
 20
-129.3450902454412
 30
0.0
 10
85.88484142000627
 20
-129.3450902454412
 30
0.0
 10
85.92964419664102
 20
-129.3898577454304
 30
0.0
 10
85.92964419664102
 20
-129.4449969120835
 30
0.0
 10
85.92964419664102
 20
-129.5001008009584
 30
0.0
 10
85.88484142000627
 20
-129.5449035787251
 30
0.0
 10
85.8297375325232
 20
-129.5449035787251
 30
0.0
 10
85.77392808950256
 20
-129.5449035787251
 30
0.0
 10
85.72912531286781
 20
-129.5001008009584
 30
0.0
 10
85.72912531286781
 20
-129.4449969120835
 30
0.0
  0
SPLINE
  5
A2
330
1F
100
AcDbEntity
  8
_U+30EC_U+30A4_U+30E4_U+30FC 1
 62
   179
420
  2234388
370
     9
100
AcDbSpline
210
0.0
220
0.0
230
1.0
 70
    11
 71
     3
 72
    17
 73
    13
 74
     0
 42
0.0000000001
 43
0.0000000001
 12
1.0
 22
0.0
 32
0.0
 13
1.0
 23
0.0
 33
0.0
 40
0.0
 40
0.0
 40
0.0
 40
0.0
 40
1.0
 40
1.0
 40
1.0
 40
2.0
 40
2.0
 40
2.0
 40
3.0
 40
3.0
 40
3.0
 40
4.0
 40
4.0
 40
4.0
 40
4.0
 10
98.72955053675487
 20
-129.4449969120835
 30
0.0
 10
98.72955053675487
 20
-129.3898577454304
 30
0.0
 10
98.77431803561277
 20
-129.3450902454412
 30
0.0
 10
98.82945720087271
 20
-129.3450902454412
 30
0.0
 10
98.88456108835578
 20
-129.3450902454412
 30
0.0
 10
98.92936386499055
 20
-129.3898577454304
 30
0.0
 10
98.92936386499055
 20
-129.4449969120835
 30
0.0
 10
98.92936386499055
 20
-129.5001008009584
 30
0.0
 10
98.88456108835578
 20
-129.5449035787251
 30
0.0
 10
98.82945720087271
 20
-129.5449035787251
 30
0.0
 10
98.77431803561277
 20
-129.5449035787251
 30
0.0
 10
98.72955053675487
 20
-129.5001008009584
 30
0.0
 10
98.72955053675487
 20
-129.4449969120835
 30
0.0
  0
SPLINE
  5
A3
330
1F
100
AcDbEntity
  8
_U+30EC_U+30A4_U+30E4_U+30FC 1
 62
   179
420
  2234388
370
     9
100
AcDbSpline
210
0.0
220
0.0
230
1.0
 70
    11
 71
     3
 72
    17
 73
    13
 74
     0
 42
0.0000000001
 43
0.0000000001
 12
1.0
 22
0.0
 32
0.0
 13
1.0
 23
0.0
 33
0.0
 40
0.0
 40
0.0
 40
0.0
 40
0.0
 40
1.0
 40
1.0
 40
1.0
 40
2.0
 40
2.0
 40
2.0
 40
3.0
 40
3.0
 40
3.0
 40
4.0
 40
4.0
 40
4.0
 40
4.0
 10
103.729399298087
 20
-137.4444799656391
 30
0.0
 10
103.729399298087
 20
-137.3893760767635
 30
0.0
 10
103.7742020747218
 20
-137.3445732989975
 30
0.0
 10
103.8293059622048
 20
-137.3445732989975
 30
0.0
 10
103.8844451274648
 20
-137.3445732989975
 30
0.0
 10
103.9292126263227
 20
-137.3893760767635
 30
0.0
 10
103.9292126263227
 20
-137.4444799656391
 30
0.0
 10
103.9292126263227
 20
-137.5002894100695
 30
0.0
 10
103.8844451274648
 20
-137.5443866322807
 30
0.0
 10
103.8293059622048
 20
-137.5443866322807
 30
0.0
 10
103.7742020747218
 20
-137.5443866322807
 30
0.0
 10
103.729399298087
 20
-137.5002894100695
 30
0.0
 10
103.729399298087
 20
-137.4444799656391
 30
0.0
  0
SPLINE
  5
A4
330
1F
100
AcDbEntity
  8
_U+30EC_U+30A4_U+30E4_U+30FC 1
 62
   179
420
  2234388
370
     9
100
AcDbSpline
210
0.0
220
0.0
230
1.0
 70
    11
 71
     3
 72
    17
 73
    13
 74
     0
 42
0.0000000001
 43
0.0000000001
 12
1.0
 22
0.0
 32
0.0
 13
1.0
 23
0.0
 33
0.0
 40
0.0
 40
0.0
 40
0.0
 40
0.0
 40
1.0
 40
1.0
 40
1.0
 40
2.0
 40
2.0
 40
2.0
 40
3.0
 40
3.0
 40
3.0
 40
4.0
 40
4.0
 40
4.0
 40
4.0
 10
99.72964023346269
 20
-152.4448027396667
 30
0.0
 10
99.72964023346269
 20
-152.3896635730136
 30
0.0
 10
99.77444301009746
 20
-152.3448960730251
 30
0.0
 10
99.82954689758053
 20
-152.3448960730251
 30
0.0
 10
99.88468606284047
 20
-152.3448960730251
 30
0.0
 10
99.92945356169835
 20
-152.3896635730136
 30
0.0
 10
99.92945356169835
 20
-152.4448027396667
 30
0.0
 10
99.92945356169835
 20
-152.4999066285417
 30
0.0
 10
99.88468606284047
 20
-152.5447094063084
 30
0.0
 10
99.82954689758053
 20
-152.5447094063084
 30
0.0
 10
99.77444301009746
 20
-152.5447094063084
 30
0.0
 10
99.72964023346269
 20
-152.4999066285417
 30
0.0
 10
99.72964023346269
 20
-152.4448027396667
 30
0.0
  0
SPLINE
  5
A5
330
1F
100
AcDbEntity
  8
_U+30EC_U+30A4_U+30E4_U+30FC 1
 62
   179
420
  2234388
370
     9
100
AcDbSpline
210
0.0
220
0.0
230
1.0
 70
    11
 71
     3
 72
    17
 73
    13
 74
     0
 42
0.0000000001
 43
0.0000000001
 12
1.0
 22
0.0
 32
0.0
 13
1.0
 23
0.0
 33
0.0
 40
0.0
 40
0.0
 40
0.0
 40
0.0
 40
1.0
 40
1.0
 40
1.0
 40
2.0
 40
2.0
 40
2.0
 40
3.0
 40
3.0
 40
3.0
 40
4.0
 40
4.0
 40
4.0
 40
4.0
 10
103.729399298087
 20
-147.4449185742502
 30
0.0
 10
103.729399298087
 20
-147.3891091298191
 30
0.0
 10
103.7742020747218
 20
-147.3450119076079
 30
0.0
 10
103.8293059622048
 20
-147.3450119076079
 30
0.0
 10
103.8844451274648
 20
-147.3450119076079
 30
0.0
 10
103.9292126263227
 20
-147.3891091298191
 30
0.0
 10
103.9292126263227
 20
-147.4449185742502
 30
0.0
 10
103.9292126263227
 20
-147.5000577409026
 30
0.0
 10
103.8844451274648
 20
-147.5448252408918
 30
0.0
 10
103.8293059622048
 20
-147.5448252408918
 30
0.0
 10
103.7742020747218
 20
-147.5448252408918
 30
0.0
 10
103.729399298087
 20
-147.5000577409026
 30
0.0
 10
103.729399298087
 20
-147.4449185742502
 30
0.0
  0
SPLINE
  5
A6
330
1F
100
AcDbEntity
  8
_U+30EC_U+30A4_U+30E4_U+30FC 1
 62
   179
420
  2234388
370
     9
100
AcDbSpline
210
0.0
220
0.0
230
1.0
 70
    11
 71
     3
 72
    17
 73
    13
 74
     0
 42
0.0000000001
 43
0.0000000001
 12
1.0
 22
0.0
 32
0.0
 13
1.0
 23
0.0
 33
0.0
 40
0.0
 40
0.0
 40
0.0
 40
0.0
 40
1.0
 40
1.0
 40
1.0
 40
2.0
 40
2.0
 40
2.0
 40
3.0
 40
3.0
 40
3.0
 40
4.0
 40
4.0
 40
4.0
 40
4.0
 10
80.72945294042007
 20
-148.4450435739998
 30
0.0
 10
80.72945294042007
 20
-148.3892341295694
 30
0.0
 10
80.77422043927795
 20
-148.3451369073582
 30
0.0
 10
80.8293596045379
 20
-148.3451369073582
 30
0.0
 10
80.88446349202098
 20
-148.3451369073582
 30
0.0
 10
80.92926626865574
 20
-148.3892341295694
 30
0.0
 10
80.92926626865574
 20
-148.4450435739998
 30
0.0
 10
80.92926626865574
 20
-148.5001474628748
 30
0.0
 10
80.88446349202098
 20
-148.5449502406415
 30
0.0
 10
80.8293596045379
 20
-148.5449502406415
 30
0.0
 10
80.77422043927795
 20
-148.5449502406415
 30
0.0
 10
80.72945294042007
 20
-148.5001474628748
 30
0.0
 10
80.72945294042007
 20
-148.4450435739998
 30
0.0
  0
SPLINE
  5
A7
330
1F
100
AcDbEntity
  8
_U+30EC_U+30A4_U+30E4_U+30FC 1
 62
   179
420
  2234388
370
     9
100
AcDbSpline
210
0.0
220
0.0
230
1.0
 70
    11
 71
     3
 72
    17
 73
    13
 74
     0
 42
0.0000000001
 43
0.0000000001
 12
1.0
 22
0.0
 32
0.0
 13
1.0
 23
0.0
 33
0.0
 40
0.0
 40
0.0
 40
0.0
 40
0.0
 40
1.0
 40
1.0
 40
1.0
 40
2.0
 40
2.0
 40
2.0
 40
3.0
 40
3.0
 40
3.0
 40
4.0
 40
4.0
 40
4.0
 40
4.0
 10
84.7291767272675
 20
-152.4448027396667
 30
0.0
 10
84.7291767272675
 20
-152.3896635730136
 30
0.0
 10
84.77397950390227
 20
-152.3448960730251
 30
0.0
 10
84.82978894692289
 20
-152.3448960730251
 30
0.0
 10
84.88492811218285
 20
-152.3448960730251
 30
0.0
 10
84.92969561104073
 20
-152.3896635730136
 30
0.0
 10
84.92969561104073
 20
-152.4448027396667
 30
0.0
 10
84.92969561104073
 20
-152.4999066285417
 30
0.0
 10
84.88492811218285
 20
-152.5447094063084
 30
0.0
 10
84.82978894692289
 20
-152.5447094063084
 30
0.0
 10
84.77397950390227
 20
-152.5447094063084
 30
0.0
 10
84.7291767272675
 20
-152.4999066285417
 30
0.0
 10
84.7291767272675
 20
-152.4448027396667
 30
0.0
  0
POLYLINE
  5
A8
330
1F
100
AcDbEntity
  8
_U+30EC_U+30A4_U+30E4_U+30FC 1
 62
   179
420
  2234388
370
     9
100
AcDb2dPolyline
 66
     1
 10
0.0
 20
0.0
 30
0.0
  0
VERTEX
  5
A9
330
A8
100
AcDbEntity
  8
_U+30EC_U+30A4_U+30E4_U+30FC 1
 62
   179
420
  2234388
370
     9
100
AcDbVertex
100
AcDb2dVertex
 10
99.8298996753493
 20
-108.4447002506665
 30
0.0
  0
VERTEX
  5
AA
330
A8
100
AcDbEntity
  8
_U+30EC_U+30A4_U+30E4_U+30FC 1
 62
   179
420
  2234388
370
     9
100
AcDbVertex
100
AcDb2dVertex
 10
98.82945720087271
 20
-108.4447002506665
 30
0.0
  0
SEQEND
  5
AB
330
A8
100
AcDbEntity
  8
_U+30EC_U+30A4_U+30E4_U+30FC 1
 62
   179
420
  2234388
370
     9
  0
POLYLINE
  5
AC
330
1F
100
AcDbEntity
  8
_U+30EC_U+30A4_U+30E4_U+30FC 1
 62
   179
420
  2234388
370
     9
100
AcDb2dPolyline
 66
     1
 10
0.0
 20
0.0
 30
0.0
  0
VERTEX
  5
AD
330
AC
100
AcDbEntity
  8
_U+30EC_U+30A4_U+30E4_U+30FC 1
 62
   179
420
  2234388
370
     9
100
AcDbVertex
100
AcDb2dVertex
 10
99.8298996753493
 20
-109.9047416391905
 30
0.0
  0
VERTEX
  5
AE
330
AC
100
AcDbEntity
  8
_U+30EC_U+30A4_U+30E4_U+30FC 1
 62
   179
420
  2234388
370
     9
100
AcDbVertex
100
AcDb2dVertex
 10
99.8298996753493
 20
-107.4449633064721
 30
0.0
  0
SEQEND
  5
AF
330
AC
100
AcDbEntity
  8
_U+30EC_U+30A4_U+30E4_U+30FC 1
 62
   179
420
  2234388
370
     9
  0
POLYLINE
  5
B0
330
1F
100
AcDbEntity
  8
_U+30EC_U+30A4_U+30E4_U+30FC 1
 62
   179
420
  2234388
370
     9
100
AcDb2dPolyline
 66
     1
 10
0.0
 20
0.0
 30
0.0
  0
VERTEX
  5
B1
330
B0
100
AcDbEntity
  8
_U+30EC_U+30A4_U+30E4_U+30FC 1
 62
   179
420
  2234388
370
     9
100
AcDbVertex
100
AcDb2dVertex
 10
98.82945720087271
 20
-109.9047416391905
 30
0.0
  0
VERTEX
  5
B2
330
B0
100
AcDbEntity
  8
_U+30EC_U+30A4_U+30E4_U+30FC 1
 62
   179
420
  2234388
370
     9
100
AcDbVertex
100
AcDb2dVertex
 10
98.82945720087271
 20
-107.4449633064721
 30
0.0
  0
SEQEND
  5
B3
330
B0
100
AcDbEntity
  8
_U+30EC_U+30A4_U+30E4_U+30FC 1
 62
   179
420
  2234388
370
     9
  0
POLYLINE
  5
B4
330
1F
100
AcDbEntity
  8
_U+30EC_U+30A4_U+30E4_U+30FC 1
 62
   179
420
  2234388
370
     9
100
AcDb2dPolyline
 66
     1
 10
0.0
 20
0.0
 30
0.0
  0
VERTEX
  5
B5
330
B4
100
AcDbEntity
  8
_U+30EC_U+30A4_U+30E4_U+30FC 1
 62
   179
420
  2234388
370
     9
100
AcDbVertex
100
AcDb2dVertex
 10
87.8297758148313
 20
-129.4449969120835
 30
0.0
  0
VERTEX
  5
B6
330
B4
100
AcDbEntity
  8
_U+30EC_U+30A4_U+30E4_U+30FC 1
 62
   179
420
  2234388
370
     9
100
AcDbVertex
100
AcDb2dVertex
 10
85.8297375325232
 20
-129.4449969120835
 30
0.0
  0
SEQEND
  5
B7
330
B4
100
AcDbEntity
  8
_U+30EC_U+30A4_U+30E4_U+30FC 1
 62
   179
420
  2234388
370
     9
  0
POLYLINE
  5
B8
330
1F
100
AcDbEntity
  8
_U+30EC_U+30A4_U+30E4_U+30FC 1
 62
   179
420
  2234388
370
     9
100
AcDb2dPolyline
 66
     1
 10
0.0
 20
0.0
 30
0.0
  0
VERTEX
  5
B9
330
B8
100
AcDbEntity
  8
_U+30EC_U+30A4_U+30E4_U+30FC 1
 62
   179
420
  2234388
370
     9
100
AcDbVertex
100
AcDb2dVertex
 10
85.8297375325232
 20
-130.905003022829
 30
0.0
  0
VERTEX
  5
BA
330
B8
100
AcDbEntity
  8
_U+30EC_U+30A4_U+30E4_U+30FC 1
 62
   179
420
  2234388
370
     9
100
AcDbVertex
100
AcDb2dVertex
 10
85.8297375325232
 20
-128.4452246901109
 30
0.0
  0
SEQEND
  5
BB
330
B8
100
AcDbEntity
  8
_U+30EC_U+30A4_U+30E4_U+30FC 1
 62
   179
420
  2234388
370
     9
  0
POLYLINE
  5
BC
330
1F
100
AcDbEntity
  8
_U+30EC_U+30A4_U+30E4_U+30FC 1
 62
   179
420
  2234388
370
     9
100
AcDb2dPolyline
 66
     1
 10
0.0
 20
0.0
 30
0.0
  0
VERTEX
  5
BD
330
BC
100
AcDbEntity
  8
_U+30EC_U+30A4_U+30E4_U+30FC 1
 62
   179
420
  2234388
370
     9
100
AcDbVertex
100
AcDb2dVertex
 10
87.8297758148313
 20
-129.4449969120835
 30
0.0
  0
VERTEX
  5
BE
330
BC
100
AcDbEntity
  8
_U+30EC_U+30A4_U+30E4_U+30FC 1
 62
   179
420
  2234388
370
     9
100
AcDbVertex
100
AcDb2dVertex
 10
98.82945720087271
 20
-129.4449969120835
 30
0.0
  0
SEQEND
  5
BF
330
BC
100
AcDbEntity
  8
_U+30EC_U+30A4_U+30E4_U+30FC 1
 62
   179
420
  2234388
370
     9
  0
POLYLINE
  5
C0
330
1F
100
AcDbEntity
  8
_U+30EC_U+30A4_U+30E4_U+30FC 1
 62
   179
420
  2234388
370
     9
100
AcDb2dPolyline
 66
     1
 10
0.0
 20
0.0
 30
0.0
  0
VERTEX
  5
C1
330
C0
100
AcDbEntity
  8
_U+30EC_U+30A4_U+30E4_U+30FC 1
 62
   179
420
  2234388
370
     9
100
AcDbVertex
100
AcDb2dVertex
 10
99.82954689758053
 20
-152.4448027396667
 30
0.0
  0
VERTEX
  5
C2
330
C0
100
AcDbEntity
  8
_U+30EC_U+30A4_U+30E4_U+30FC 1
 62
   179
420
  2234388
370
     9
100
AcDbVertex
100
AcDb2dVertex
 10
84.82978894692289
 20
-152.4448027396667
 30
0.0
  0
SEQEND
  5
C3
330
C0
100
AcDbEntity
  8
_U+30EC_U+30A4_U+30E4_U+30FC 1
 62
   179
420
  2234388
370
     9
  0
POLYLINE
  5
C4
330
1F
100
AcDbEntity
  8
_U+30EC_U+30A4_U+30E4_U+30FC 1
 62
   179
420
  2234388
370
     9
100
AcDb2dPolyline
 66
     1
 10
0.0
 20
0.0
 30
0.0
  0
VERTEX
  5
C5
330
C4
100
AcDbEntity
  8
_U+30EC_U+30A4_U+30E4_U+30FC 1
 62
   179
420
  2234388
370
     9
100
AcDbVertex
100
AcDb2dVertex
 10
99.82954689758053
 20
-150.984761351143
 30
0.0
  0
VERTEX
  5
C6
330
C4
100
AcDbEntity
  8
_U+30EC_U+30A4_U+30E4_U+30FC 1
 62
   179
420
  2234388
370
     9
100
AcDbVertex
100
AcDb2dVertex
 10
99.82954689758053
 20
-153.4445396838611
 30
0.0
  0
SEQEND
  5
C7
330
C4
100
AcDbEntity
  8
_U+30EC_U+30A4_U+30E4_U+30FC 1
 62
   179
420
  2234388
370
     9
  0
POLYLINE
  5
C8
330
1F
100
AcDbEntity
  8
_U+30EC_U+30A4_U+30E4_U+30FC 1
 62
   179
420
  2234388
370
     9
100
AcDb2dPolyline
 66
     1
 10
0.0
 20
0.0
 30
0.0
  0
VERTEX
  5
C9
330
C8
100
AcDbEntity
  8
_U+30EC_U+30A4_U+30E4_U+30FC 1
 62
   179
420
  2234388
370
     9
100
AcDbVertex
100
AcDb2dVertex
 10
84.82978894692289
 20
-150.984761351143
 30
0.0
  0
VERTEX
  5
CA
330
C8
100
AcDbEntity
  8
_U+30EC_U+30A4_U+30E4_U+30FC 1
 62
   179
420
  2234388
370
     9
100
AcDbVertex
100
AcDb2dVertex
 10
84.82978894692289
 20
-153.4445396838611
 30
0.0
  0
SEQEND
  5
CB
330
C8
100
AcDbEntity
  8
_U+30EC_U+30A4_U+30E4_U+30FC 1
 62
   179
420
  2234388
370
     9
  0
POLYLINE
  5
CC
330
1F
100
AcDbEntity
  8
_U+30EC_U+30A4_U+30E4_U+30FC 1
 62
   179
420
  2234388
370
     9
100
AcDb2dPolyline
 66
     1
 10
0.0
 20
0.0
 30
0.0
  0
VERTEX
  5
CD
330
CC
100
AcDbEntity
  8
_U+30EC_U+30A4_U+30E4_U+30FC 1
 62
   179
420
  2234388
370
     9
100
AcDbVertex
100
AcDb2dVertex
 10
80.8293596045379
 20
-148.4450435739998
 30
0.0
  0
VERTEX
  5
CE
330
CC
100
AcDbEntity
  8
_U+30EC_U+30A4_U+30E4_U+30FC 1
 62
   179
420
  2234388
370
     9
100
AcDbVertex
100
AcDb2dVertex
 10
80.8293596045379
 20
-133.4447560777497
 30
0.0
  0
SEQEND
  5
CF
330
CC
100
AcDbEntity
  8
_U+30EC_U+30A4_U+30E4_U+30FC 1
 62
   179
420
  2234388
370
     9
  0
POLYLINE
  5
D0
330
1F
100
AcDbEntity
  8
_U+30EC_U+30A4_U+30E4_U+30FC 1
 62
   179
420
  2234388
370
     9
100
AcDb2dPolyline
 66
     1
 10
0.0
 20
0.0
 30
0.0
  0
VERTEX
  5
D1
330
D0
100
AcDbEntity
  8
_U+30EC_U+30A4_U+30E4_U+30FC 1
 62
   179
420
  2234388
370
     9
100
AcDbVertex
100
AcDb2dVertex
 10
82.28936567840115
 20
-148.4450435739998
 30
0.0
  0
VERTEX
  5
D2
330
D0
100
AcDbEntity
  8
_U+30EC_U+30A4_U+30E4_U+30FC 1
 62
   179
420
  2234388
370
     9
100
AcDbVertex
100
AcDb2dVertex
 10
79.829587407822
 20
-148.4450435739998
 30
0.0
  0
SEQEND
  5
D3
330
D0
100
AcDbEntity
  8
_U+30EC_U+30A4_U+30E4_U+30FC 1
 62
   179
420
  2234388
370
     9
  0
POLYLINE
  5
D4
330
1F
100
AcDbEntity
  8
_U+30EC_U+30A4_U+30E4_U+30FC 1
 62
   179
420
  2234388
370
     9
100
AcDb2dPolyline
 66
     1
 10
0.0
 20
0.0
 30
0.0
  0
VERTEX
  5
D5
330
D4
100
AcDbEntity
  8
_U+30EC_U+30A4_U+30E4_U+30FC 1
 62
   179
420
  2234388
370
     9
100
AcDbVertex
100
AcDb2dVertex
 10
82.28936567840115
 20
-133.4447560777497
 30
0.0
  0
VERTEX
  5
D6
330
D4
100
AcDbEntity
  8
_U+30EC_U+30A4_U+30E4_U+30FC 1
 62
   179
420
  2234388
370
     9
100
AcDbVertex
100
AcDb2dVertex
 10
79.829587407822
 20
-133.4447560777497
 30
0.0
  0
SEQEND
  5
D7
330
D4
100
AcDbEntity
  8
_U+30EC_U+30A4_U+30E4_U+30FC 1
 62
   179
420
  2234388
370
     9
  0
POLYLINE
  5
D8
330
1F
100
AcDbEntity
  8
_U+30EC_U+30A4_U+30E4_U+30FC 1
 62
   179
420
  2234388
370
     9
100
AcDb2dPolyline
 66
     1
 10
0.0
 20
0.0
 30
0.0
  0
VERTEX
  5
D9
330
D8
100
AcDbEntity
  8
_U+30EC_U+30A4_U+30E4_U+30FC 1
 62
   179
420
  2234388
370
     9
100
AcDbVertex
100
AcDb2dVertex
 10
103.8293059622048
 20
-145.4450566303055
 30
0.0
  0
VERTEX
  5
DA
330
D8
100
AcDbEntity
  8
_U+30EC_U+30A4_U+30E4_U+30FC 1
 62
   179
420
  2234388
370
     9
100
AcDbVertex
100
AcDb2dVertex
 10
103.8293059622048
 20
-147.4449185742502
 30
0.0
  0
SEQEND
  5
DB
330
D8
100
AcDbEntity
  8
_U+30EC_U+30A4_U+30E4_U+30FC 1
 62
   179
420
  2234388
370
     9
  0
POLYLINE
  5
DC
330
1F
100
AcDbEntity
  8
_U+30EC_U+30A4_U+30E4_U+30FC 1
 62
   179
420
  2234388
370
     9
100
AcDb2dPolyline
 66
     1
 10
0.0
 20
0.0
 30
0.0
  0
VERTEX
  5
DD
330
DC
100
AcDbEntity
  8
_U+30EC_U+30A4_U+30E4_U+30FC 1
 62
   179
420
  2234388
370
     9
100
AcDbVertex
100
AcDb2dVertex
 10
102.3692998883416
 20
-147.4449185742502
 30
0.0
  0
VERTEX
  5
DE
330
DC
100
AcDbEntity
  8
_U+30EC_U+30A4_U+30E4_U+30FC 1
 62
   179
420
  2234388
370
     9
100
AcDbVertex
100
AcDb2dVertex
 10
104.8297837144583
 20
-147.4449185742502
 30
0.0
  0
SEQEND
  5
DF
330
DC
100
AcDbEntity
  8
_U+30EC_U+30A4_U+30E4_U+30FC 1
 62
   179
420
  2234388
370
     9
  0
POLYLINE
  5
E0
330
1F
100
AcDbEntity
  8
_U+30EC_U+30A4_U+30E4_U+30FC 1
 62
   179
420
  2234388
370
     9
100
AcDb2dPolyline
 66
     1
 10
0.0
 20
0.0
 30
0.0
  0
VERTEX
  5
E1
330
E0
100
AcDbEntity
  8
_U+30EC_U+30A4_U+30E4_U+30FC 1
 62
   179
420
  2234388
370
     9
100
AcDbVertex
100
AcDb2dVertex
 10
103.8293059622048
 20
-145.4450566303055
 30
0.0
  0
VERTEX
  5
E2
330
E0
100
AcDbEntity
  8
_U+30EC_U+30A4_U+30E4_U+30FC 1
 62
   179
420
  2234388
370
     9
100
AcDbVertex
100
AcDb2dVertex
 10
103.8293059622048
 20
-137.4444799656391
 30
0.0
  0
SEQEND
  5
E3
330
E0
100
AcDbEntity
  8
_U+30EC_U+30A4_U+30E4_U+30FC 1
 62
   179
420
  2234388
370
     9
  0
POLYLINE
  5
E4
330
1F
100
AcDbEntity
  8
_U+30EC_U+30A4_U+30E4_U+30FC 1
 62
   179
420
  2234388
370
     9
100
AcDb2dPolyline
 66
     1
 10
0.0
 20
0.0
 30
0.0
  0
VERTEX
  5
E5
330
E4
100
AcDbEntity
  8
_U+30EC_U+30A4_U+30E4_U+30FC 1
 62
   179
420
  2234388
370
     9
100
AcDbVertex
100
AcDb2dVertex
 10
101.8294440687811
 20
-137.4444799656391
 30
0.0
  0
VERTEX
  5
E6
330
E4
100
AcDbEntity
  8
_U+30EC_U+30A4_U+30E4_U+30FC 1
 62
   179
420
  2234388
370
     9
100
AcDbVertex
100
AcDb2dVertex
 10
104.8297837144583
 20
-137.4444799656391
 30
0.0
  0
SEQEND
  5
E7
330
E4
100
AcDbEntity
  8
_U+30EC_U+30A4_U+30E4_U+30FC 1
 62
   179
420
  2234388
370
     9
  0
POLYLINE
  5
E8
330
1F
100
AcDbEntity
  8
_U+30EC_U+30A4_U+30E4_U+30FC 1
 62
   179
420
  2234388
370
     9
100
AcDb2dPolyline
 66
     1
 10
0.0
 20
0.0
 30
0.0
  0
VERTEX
  5
E9
330
E8
100
AcDbEntity
  8
_U+30EC_U+30A4_U+30E4_U+30FC 1
 62
   179
420
  2234388
370
     9
100
AcDbVertex
100
AcDb2dVertex
 10
103.8293059622048
 20
-137.4444799656391
 30
0.0
  0
VERTEX
  5
EA
330
E8
100
AcDbEntity
  8
_U+30EC_U+30A4_U+30E4_U+30FC 1
 62
   179
420
  2234388
370
     9
100
AcDbVertex
100
AcDb2dVertex
 10
103.8293059622048
 20
-112.4444594163334
 30
0.0
  0
SEQEND
  5
EB
330
E8
100
AcDbEntity
  8
_U+30EC_U+30A4_U+30E4_U+30FC 1
 62
   179
420
  2234388
370
     9
  0
POLYLINE
  5
EC
330
1F
100
AcDbEntity
  8
_U+30EC_U+30A4_U+30E4_U+30FC 1
 62
   179
420
  2234388
370
     9
100
AcDb2dPolyline
 66
     1
 10
0.0
 20
0.0
 30
0.0
  0
VERTEX
  5
ED
330
EC
100
AcDbEntity
  8
_U+30EC_U+30A4_U+30E4_U+30FC 1
 62
   179
420
  2234388
370
     9
100
AcDbVertex
100
AcDb2dVertex
 10
101.8294440687811
 20
-112.4444594163334
 30
0.0
  0
VERTEX
  5
EE
330
EC
100
AcDbEntity
  8
_U+30EC_U+30A4_U+30E4_U+30FC 1
 62
   179
420
  2234388
370
     9
100
AcDbVertex
100
AcDb2dVertex
 10
104.8297837144583
 20
-112.4444594163334
 30
0.0
  0
SEQEND
  5
EF
330
EC
100
AcDbEntity
  8
_U+30EC_U+30A4_U+30E4_U+30FC 1
 62
   179
420
  2234388
370
     9
  0
INSERT
  5
F1
330
1F
100
AcDbEntity
  8
_U+30EC_U+30A4_U+30E4_U+30FC 1
100
AcDbBlockReference
  2
block 2
 10
0.0
 20
0.0
 30
0.0
  0
INSERT
  5
F7
330
1F
100
AcDbEntity
  8
_U+30EC_U+30A4_U+30E4_U+30FC 1
100
AcDbBlockReference
  2
block 3
 10
0.0
 20
0.0
 30
0.0
  0
INSERT
  5
FF
330
1F
100
AcDbEntity
  8
_U+30EC_U+30A4_U+30E4_U+30FC 1
100
AcDbBlockReference
  2
block 4
 10
0.0
 20
0.0
 30
0.0
  0
INSERT
  5
107
330
1F
100
AcDbEntity
  8
_U+30EC_U+30A4_U+30E4_U+30FC 1
100
AcDbBlockReference
  2
block 5
 10
0.0
 20
0.0
 30
0.0
  0
INSERT
  5
10F
330
1F
100
AcDbEntity
  8
_U+30EC_U+30A4_U+30E4_U+30FC 1
100
AcDbBlockReference
  2
block 6
 10
0.0
 20
0.0
 30
0.0
  0
INSERT
  5
118
330
1F
100
AcDbEntity
  8
_U+30EC_U+30A4_U+30E4_U+30FC 1
100
AcDbBlockReference
  2
block 7
 10
0.0
 20
0.0
 30
0.0
  0
ENDSEC
  0
SECTION
  2
OBJECTS
  0
DICTIONARY
  5
C
330
0
100
AcDbDictionary
281
     1
  3
ACAD_GROUP
350
D
  3
ACAD_LAYOUT
350
1A
  3
ACAD_MATERIAL
350
3B
  3
ACAD_MLEADERSTYLE
350
120
  3
ACAD_MLINESTYLE
350
17
  3
ACAD_PLOTSETTINGS
350
19
  3
ACAD_PLOTSTYLENAME
350
E
  3
ACAD_TABLESTYLE
350
11F
  3
ACAD_VISUALSTYLE
350
2A
  0
SUN
  5
3F
330
29
100
AcDbSun
 90
        1
290
     0
 63
     7
421
 16777215
 40
1.0
291
     1
 91
  2455826
 92
 54000000
292
     0
 70
     2
 71
   256
280
     1
  0
DICTIONARY
  5
D
102
{ACAD_REACTORS
330
C
102
}
330
C
100
AcDbDictionary
281
     1
  0
DICTIONARY
  5
1A
102
{ACAD_REACTORS
330
C
102
}
330
C
100
AcDbDictionary
281
     1
  3
Layout1
350
1E
  3
Layout2
350
26
  3
Model
350
22
  0
DICTIONARY
  5
3B
102
{ACAD_REACTORS
330
C
102
}
330
C
100
AcDbDictionary
281
     1
  3
ByBlock
350
3D
  3
ByLayer
350
3C
  3
Global
350
3E
  0
DICTIONARY
  5
120
102
{ACAD_REACTORS
330
C
102
}
330
C
100
AcDbDictionary
281
     1
  0
DICTIONARY
  5
17
102
{ACAD_REACTORS
330
C
102
}
330
C
100
AcDbDictionary
281
     1
  3
Standard
350
18
  0
DICTIONARY
  5
19
102
{ACAD_REACTORS
330
C
102
}
330
C
100
AcDbDictionary
281
     1
  0
ACDBDICTIONARYWDFLT
  5
E
102
{ACAD_REACTORS
330
C
102
}
330
C
100
AcDbDictionary
281
     1
  3
Normal
350
F
100
AcDbDictionaryWithDefault
340
F
  0
DICTIONARY
  5
11F
102
{ACAD_REACTORS
330
C
102
}
330
C
100
AcDbDictionary
281
     1
  0
DICTIONARY
  5
2A
102
{ACAD_REACTORS
330
C
102
}
330
C
100
AcDbDictionary
281
     1
  3
2dWireframe
350
2F
  3
3D Hidden
350
31
  3
3dWireframe
350
30
  3
Basic
350
32
  3
Brighten
350
36
  3
ColorChange
350
3A
  3
Conceptual
350
34
  3
Dim
350
35
  3
Facepattern
350
39
  3
Flat
350
2B
  3
FlatWithEdges
350
2C
  3
Gouraud
350
2D
  3
GouraudWithEdges
350
2E
  3
Linepattern
350
38
  3
Realistic
350
33
  3
Thicken
350
37
  0
LAYOUT
  5
1E
102
{ACAD_REACTORS
330
1A
102
}
330
1A
100
AcDbPlotSettings
  1

  2
none_device
  4

  6

 40
0.0
 41
0.0
 42
0.0
 43
0.0
 44
0.0
 45
0.0
 46
0.0
 47
0.0
 48
0.0
 49
0.0
140
0.0
141
0.0
142
1.0
143
1.0
 70
   688
 72
     0
 73
     0
 74
     5
  7

 75
    16
 76
     0
 77
     2
 78
   300
147
1.0
148
0.0
149
0.0
100
AcDbLayout
  1
Layout1
 70
     1
 71
     1
 10
0.0
 20
0.0
 11
12.0
 21
9.0
 12
0.0
 22
0.0
 32
0.0
 14
1.000000000000000E+20
 24
1.000000000000000E+20
 34
1.000000000000000E+20
 15
-1.000000000000000E+20
 25
-1.000000000000000E+20
 35
-1.000000000000000E+20
146
0.0
 13
0.0
 23
0.0
 33
0.0
 16
1.0
 26
0.0
 36
0.0
 17
0.0
 27
1.0
 37
0.0
 76
     0
330
1B
  0
LAYOUT
  5
26
102
{ACAD_REACTORS
330
1A
102
}
330
1A
100
AcDbPlotSettings
  1

  2
none_device
  4

  6

 40
0.0
 41
0.0
 42
0.0
 43
0.0
 44
0.0
 45
0.0
 46
0.0
 47
0.0
 48
0.0
 49
0.0
140
0.0
141
0.0
142
1.0
143
1.0
 70
   688
 72
     0
 73
     0
 74
     5
  7

 75
    16
 76
     0
 77
     2
 78
   300
147
1.0
148
0.0
149
0.0
100
AcDbLayout
  1
Layout2
 70
     1
 71
     2
 10
0.0
 20
0.0
 11
0.0
 21
0.0
 12
0.0
 22
0.0
 32
0.0
 14
0.0
 24
0.0
 34
0.0
 15
0.0
 25
0.0
 35
0.0
146
0.0
 13
0.0
 23
0.0
 33
0.0
 16
1.0
 26
0.0
 36
0.0
 17
0.0
 27
1.0
 37
0.0
 76
     0
330
23
  0
LAYOUT
  5
22
102
{ACAD_REACTORS
330
1A
102
}
330
1A
100
AcDbPlotSettings
  1

  2
none_device
  4

  6

 40
0.0
 41
0.0
 42
0.0
 43
0.0
 44
0.0
 45
0.0
 46
0.0
 47
0.0
 48
0.0
 49
0.0
140
0.0
141
0.0
142
1.0
143
1.0
 70
  1712
 72
     0
 73
     0
 74
     0
  7

 75
     0
 76
     0
 77
     2
 78
   300
147
1.0
148
0.0
149
0.0
100
AcDbLayout
  1
Model
 70
     1
 71
     0
 10
0.0
 20
0.0
 11
12.0
 21
9.0
 12
0.0
 22
0.0
 32
0.0
 14
1.000000000000000E+20
 24
1.000000000000000E+20
 34
1.000000000000000E+20
 15
-1.000000000000000E+20
 25
-1.000000000000000E+20
 35
-1.000000000000000E+20
146
0.0
 13
0.0
 23
0.0
 33
0.0
 16
1.0
 26
0.0
 36
0.0
 17
0.0
 27
1.0
 37
0.0
 76
     0
330
1F
331
29
  0
MATERIAL
  5
3D
102
{ACAD_REACTORS
330
3B
102
}
330
3B
100
AcDbMaterial
  1
ByBlock
 72
     1
 94
      127
  0
MATERIAL
  5
3C
102
{ACAD_REACTORS
330
3B
102
}
330
3B
100
AcDbMaterial
  1
ByLayer
 72
     1
 94
      127
  0
MATERIAL
  5
3E
102
{ACAD_REACTORS
330
3B
102
}
330
3B
100
AcDbMaterial
  1
Global
 72
     1
 94
      127
  0
MLINESTYLE
  5
18
102
{ACAD_REACTORS
330
17
102
}
330
17
100
AcDbMlineStyle
  2
Standard
 70
     0
  3

 62
   256
 51
90.0
 52
90.0
 71
     2
 49
0.5
 62
   256
  6
BYLAYER
 49
-0.5
 62
   256
  6
BYLAYER
  0
ACDBPLACEHOLDER
  5
F
102
{ACAD_REACTORS
330
E
102
}
330
E
  0
VISUALSTYLE
  5
2F
102
{ACAD_REACTORS
330
2A
102
}
330
2A
100
AcDbVisualStyle
  2
2dWireframe
 70
     4
177
     2
291
     0
 71
     0
176
     1
 72
     2
176
     1
 73
     0
176
     1
 90
        0
176
     1
 40
-0.6
176
     1
 41
-30.0
176
     1
 62
     5
 63
     7
421
 16777215
176
     1
 74
     1
176
     1
 91
        4
176
     1
 64
     7
176
     1
 65
   257
176
     1
 75
     1
176
     1
175
     1
176
     1
 42
1.0
176
     1
 92
        0
176
     1
 66
   257
176
     1
 43
1.0
176
     1
 76
     1
176
     1
 77
     6
176
     1
 78
     2
176
     1
 67
     7
176
     1
 79
     5
176
     1
170
     0
176
     1
171
     0
176
     1
290
     0
176
     1
 93
        1
176
     1
 44
0.0
176
     1
173
     0
176
     1
  0
VISUALSTYLE
  5
31
102
{ACAD_REACTORS
330
2A
102
}
330
2A
100
AcDbVisualStyle
  2
3D Hidden
 70
     6
177
     2
291
     0
 71
     1
176
     1
 72
     2
176
     1
 73
     2
176
     1
 90
        0
176
     1
 40
-0.6
176
     1
 41
-30.0
176
     1
 62
     5
 63
     7
421
 16777215
176
     1
 74
     2
176
     1
 91
        2
176
     1
 64
     7
176
     1
 65
   257
176
     1
 75
     2
176
     1
175
     1
176
     1
 42
40.0
176
     1
 92
        0
176
     1
 66
   257
176
     1
 43
1.0
176
     1
 76
     1
176
     1
 77
     6
176
     1
 78
     2
176
     1
 67
     7
176
     1
 79
     3
176
     1
170
     0
176
     1
171
     0
176
     1
290
     0
176
     1
 93
        1
176
     1
 44
0.0
176
     1
173
     0
176
     1
  0
VISUALSTYLE
  5
30
102
{ACAD_REACTORS
330
2A
102
}
330
2A
100
AcDbVisualStyle
  2
3dWireframe
 70
     5
177
     2
291
     0
 71
     0
176
     1
 72
     2
176
     1
 73
     0
176
     1
 90
        0
176
     1
 40
-0.6
176
     1
 41
-30.0
176
     1
 62
     5
 63
     7
421
 16777215
176
     1
 74
     1
176
     1
 91
        4
176
     1
 64
     7
176
     1
 65
   257
176
     1
 75
     1
176
     1
175
     1
176
     1
 42
1.0
176
     1
 92
        0
176
     1
 66
   257
176
     1
 43
1.0
176
     1
 76
     1
176
     1
 77
     6
176
     1
 78
     2
176
     1
 67
     7
176
     1
 79
     5
176
     1
170
     0
176
     1
171
     0
176
     1
290
     0
176
     1
 93
        1
176
     1
 44
0.0
176
     1
173
     0
176
     1
  0
VISUALSTYLE
  5
32
102
{ACAD_REACTORS
330
2A
102
}
330
2A
100
AcDbVisualStyle
  2
Basic
 70
     7
177
     2
291
     1
 71
     1
176
     1
 72
     0
176
     1
 73
     1
176
     1
 90
        0
176
     1
 40
-0.6
176
     1
 41
-30.0
176
     1
 62
     5
 63
     7
421
 16777215
176
     1
 74
     0
176
     1
 91
        4
176
     1
 64
     7
176
     1
 65
   257
176
     1
 75
     1
176
     1
175
     1
176
     1
 42
1.0
176
     1
 92
        8
176
     1
 66
     7
176
     1
 43
1.0
176
     1
 76
     1
176
     1
 77
     6
176
     1
 78
     2
176
     1
 67
     7
176
     1
 79
     5
176
     1
170
     0
176
     1
171
     0
176
     1
290
     0
176
     1
 93
        1
176
     1
 44
0.0
176
     1
173
     0
176
     1
  0
VISUALSTYLE
  5
36
102
{ACAD_REACTORS
330
2A
102
}
330
2A
100
AcDbVisualStyle
  2
Brighten
 70
    12
177
     2
291
     1
 71
     2
176
     1
 72
     2
176
     1
 73
     0
176
     1
 90
        0
176
     1
 40
-0.6
176
     1
 41
-30.0
176
     1
 62
     5
 63
     7
421
 16777215
176
     1
 74
     1
176
     1
 91
        4
176
     1
 64
     7
176
     1
 65
   257
176
     1
 75
     1
176
     1
175
     1
176
     1
 42
1.0
176
     1
 92
        8
176
     1
 66
     7
176
     1
 43
1.0
176
     1
 76
     1
176
     1
 77
     6
176
     1
 78
     2
176
     1
 67
     7
176
     1
 79
     5
176
     1
170
     0
176
     1
171
     0
176
     1
290
     0
176
     1
 93
        1
176
     1
 44
50.0
176
     1
173
     0
176
     1
  0
VISUALSTYLE
  5
3A
102
{ACAD_REACTORS
330
2A
102
}
330
2A
100
AcDbVisualStyle
  2
ColorChange
 70
    16
177
     2
291
     1
 71
     2
176
     1
 72
     2
176
     1
 73
     3
176
     1
 90
        0
176
     1
 40
-0.6
176
     1
 41
-30.0
176
     1
 62
     5
 63
     8
421
  8421504
176
     1
 74
     1
176
     1
 91
        4
176
     1
 64
     7
176
     1
 65
   257
176
     1
 75
     1
176
     1
175
     1
176
     1
 42
1.0
176
     1
 92
        8
176
     1
 66
     8
424
  8421504
176
     1
 43
1.0
176
     1
 76
     1
176
     1
 77
     6
176
     1
 78
     2
176
     1
 67
     7
176
     1
 79
     5
176
     1
170
     0
176
     1
171
     0
176
     1
290
     0
176
     1
 93
        1
176
     1
 44
0.0
176
     1
173
     0
176
     1
  0
VISUALSTYLE
  5
34
102
{ACAD_REACTORS
330
2A
102
}
330
2A
100
AcDbVisualStyle
  2
Conceptual
 70
     9
177
     2
291
     0
 71
     3
176
     1
 72
     2
176
     1
 73
     0
176
     1
 90
        0
176
     1
 40
-0.6
176
     1
 41
-30.0
176
     1
 62
     5
 63
     7
421
 16777215
176
     1
 74
     2
176
     1
 91
        2
176
     1
 64
     7
176
     1
 65
   257
176
     1
 75
     1
176
     1
175
     1
176
     1
 42
40.0
176
     1
 92
        8
176
     1
 66
     7
176
     1
 43
1.0
176
     1
 76
     1
176
     1
 77
     6
176
     1
 78
     2
176
     1
 67
     7
176
     1
 79
     3
176
     1
170
     0
176
     1
171
     0
176
     1
290
     0
176
     1
 93
        1
176
     1
 44
0.0
176
     1
173
     0
176
     1
  0
VISUALSTYLE
  5
35
102
{ACAD_REACTORS
330
2A
102
}
330
2A
100
AcDbVisualStyle
  2
Dim
 70
    11
177
     2
291
     1
 71
     2
176
     1
 72
     2
176
     1
 73
     0
176
     1
 90
        0
176
     1
 40
-0.6
176
     1
 41
-30.0
176
     1
 62
     5
 63
     7
421
 16777215
176
     1
 74
     1
176
     1
 91
        4
176
     1
 64
     7
176
     1
 65
   257
176
     1
 75
     1
176
     1
175
     1
176
     1
 42
1.0
176
     1
 92
        8
176
     1
 66
     7
176
     1
 43
1.0
176
     1
 76
     1
176
     1
 77
     6
176
     1
 78
     2
176
     1
 67
     7
176
     1
 79
     5
176
     1
170
     0
176
     1
171
     0
176
     1
290
     0
176
     1
 93
        1
176
     1
 44
-50.0
176
     1
173
     0
176
     1
  0
VISUALSTYLE
  5
39
102
{ACAD_REACTORS
330
2A
102
}
330
2A
100
AcDbVisualStyle
  2
Facepattern
 70
    15
177
     2
291
     1
 71
     2
176
     1
 72
     2
176
     1
 73
     0
176
     1
 90
        0
176
     1
 40
-0.6
176
     1
 41
-30.0
176
     1
 62
     5
 63
     7
421
 16777215
176
     1
 74
     1
176
     1
 91
        4
176
     1
 64
     7
176
     1
 65
   257
176
     1
 75
     1
176
     1
175
     1
176
     1
 42
1.0
176
     1
 92
        8
176
     1
 66
     7
176
     1
 43
1.0
176
     1
 76
     1
176
     1
 77
     6
176
     1
 78
     2
176
     1
 67
     7
176
     1
 79
     5
176
     1
170
     0
176
     1
171
     0
176
     1
290
     0
176
     1
 93
        1
176
     1
 44
0.0
176
     1
173
     0
176
     1
  0
VISUALSTYLE
  5
2B
102
{ACAD_REACTORS
330
2A
102
}
330
2A
100
AcDbVisualStyle
  2
Flat
 70
     0
177
     2
291
     1
 71
     2
176
     1
 72
     1
176
     1
 73
     1
176
     1
 90
        2
176
     1
 40
-0.6
176
     1
 41
30.0
176
     1
 62
     5
 63
     7
421
 16777215
176
     1
 74
     0
176
     1
 91
        4
176
     1
 64
     7
176
     1
 65
   257
176
     1
 75
     1
176
     1
175
     1
176
     1
 42
1.0
176
     1
 92
        8
176
     1
 66
     7
176
     1
 43
1.0
176
     1
 76
     1
176
     1
 77
     6
176
     1
 78
     2
176
     1
 67
     7
176
     1
 79
     5
176
     1
170
     0
176
     1
171
     0
176
     1
290
     0
176
     1
 93
       13
176
     1
 44
0.0
176
     1
173
     0
176
     1
  0
VISUALSTYLE
  5
2C
102
{ACAD_REACTORS
330
2A
102
}
330
2A
100
AcDbVisualStyle
  2
FlatWithEdges
 70
     1
177
     2
291
     1
 71
     2
176
     1
 72
     1
176
     1
 73
     1
176
     1
 90
        2
176
     1
 40
-0.6
176
     1
 41
30.0
176
     1
 62
     5
 63
     7
421
 16777215
176
     1
 74
     1
176
     1
 91
        4
176
     1
 64
     7
176
     1
 65
   257
176
     1
 75
     1
176
     1
175
     1
176
     1
 42
1.0
176
     1
 92
        0
176
     1
 66
   257
176
     1
 43
1.0
176
     1
 76
     1
176
     1
 77
     6
176
     1
 78
     2
176
     1
 67
     7
176
     1
 79
     5
176
     1
170
     0
176
     1
171
     0
176
     1
290
     0
176
     1
 93
       13
176
     1
 44
0.0
176
     1
173
     0
176
     1
  0
VISUALSTYLE
  5
2D
102
{ACAD_REACTORS
330
2A
102
}
330
2A
100
AcDbVisualStyle
  2
Gouraud
 70
     2
177
     2
291
     1
 71
     2
176
     1
 72
     2
176
     1
 73
     1
176
     1
 90
        2
176
     1
 40
-0.6
176
     1
 41
30.0
176
     1
 62
     5
 63
     7
421
 16777215
176
     1
 74
     0
176
     1
 91
        4
176
     1
 64
     7
176
     1
 65
   257
176
     1
 75
     1
176
     1
175
     1
176
     1
 42
1.0
176
     1
 92
        0
176
     1
 66
     7
176
     1
 43
1.0
176
     1
 76
     1
176
     1
 77
     6
176
     1
 78
     2
176
     1
 67
     7
176
     1
 79
     5
176
     1
170
     0
176
     1
171
     0
176
     1
290
     0
176
     1
 93
       13
176
     1
 44
0.0
176
     1
173
     0
176
     1
  0
VISUALSTYLE
  5
2E
102
{ACAD_REACTORS
330
2A
102
}
330
2A
100
AcDbVisualStyle
  2
GouraudWithEdges
 70
     3
177
     2
291
     1
 71
     2
176
     1
 72
     2
176
     1
 73
     1
176
     1
 90
        2
176
     1
 40
-0.6
176
     1
 41
30.0
176
     1
 62
     5
 63
     7
421
 16777215
176
     1
 74
     1
176
     1
 91
        4
176
     1
 64
     7
176
     1
 65
   257
176
     1
 75
     1
176
     1
175
     1
176
     1
 42
1.0
176
     1
 92
        0
176
     1
 66
   257
176
     1
 43
1.0
176
     1
 76
     1
176
     1
 77
     6
176
     1
 78
     2
176
     1
 67
     7
176
     1
 79
     5
176
     1
170
     0
176
     1
171
     0
176
     1
290
     0
176
     1
 93
       13
176
     1
 44
0.0
176
     1
173
     0
176
     1
  0
VISUALSTYLE
  5
38
102
{ACAD_REACTORS
330
2A
102
}
330
2A
100
AcDbVisualStyle
  2
Linepattern
 70
    14
177
     2
291
     1
 71
     2
176
     1
 72
     2
176
     1
 73
     0
176
     1
 90
        0
176
     1
 40
-0.6
176
     1
 41
-30.0
176
     1
 62
     5
 63
     7
421
 16777215
176
     1
 74
     1
176
     1
 91
        4
176
     1
 64
     7
176
     1
 65
   257
176
     1
 75
     7
176
     1
175
     7
176
     1
 42
1.0
176
     1
 92
        8
176
     1
 66
     7
176
     1
 43
1.0
176
     1
 76
     1
176
     1
 77
     6
176
     1
 78
     2
176
     1
 67
     7
176
     1
 79
     5
176
     1
170
     0
176
     1
171
     0
176
     1
290
     0
176
     1
 93
        1
176
     1
 44
0.0
176
     1
173
     0
176
     1
  0
VISUALSTYLE
  5
33
102
{ACAD_REACTORS
330
2A
102
}
330
2A
100
AcDbVisualStyle
  2
Realistic
 70
     8
177
     2
291
     0
 71
     2
176
     1
 72
     2
176
     1
 73
     0
176
     1
 90
        0
176
     1
 40
-0.6
176
     1
 41
-30.0
176
     1
 62
     5
 63
     7
421
 16777215
176
     1
 74
     1
176
     1
 91
        0
176
     1
 64
     7
176
     1
 65
   257
176
     1
 75
     1
176
     1
175
     1
176
     1
 42
1.0
176
     1
 92
        8
176
     1
 66
     8
424
  7895160
176
     1
 43
1.0
176
     1
 76
     1
176
     1
 77
     6
176
     1
 78
     2
176
     1
 67
     7
176
     1
 79
     5
176
     1
170
     0
176
     1
171
     0
176
     1
290
     0
176
     1
 93
       13
176
     1
 44
0.0
176
     1
173
     0
176
     1
  0
VISUALSTYLE
  5
37
102
{ACAD_REACTORS
330
2A
102
}
330
2A
100
AcDbVisualStyle
  2
Thicken
 70
    13
177
     2
291
     1
 71
     2
176
     1
 72
     2
176
     1
 73
     0
176
     1
 90
        0
176
     1
 40
-0.6
176
     1
 41
-30.0
176
     1
 62
     5
 63
     7
421
 16777215
176
     1
 74
     1
176
     1
 91
        4
176
     1
 64
     7
176
     1
 65
   257
176
     1
 75
     1
176
     1
175
     1
176
     1
 42
1.0
176
     1
 92
       12
176
     1
 66
     7
176
     1
 43
1.0
176
     1
 76
     1
176
     1
 77
     6
176
     1
 78
     2
176
     1
 67
     7
176
     1
 79
     5
176
     1
170
     0
176
     1
171
     0
176
     1
290
     0
176
     1
 93
        1
176
     1
 44
0.0
176
     1
173
     0
176
     1
  0
ENDSEC
  0
EOF
