  0
SECTION
  2
HEADER
  9
$ACADVER
  1
AC1024
  9
$ACADMAINTVER
 70
     6
  9
$DWGCODEPAGE
  3
UNDEFINED
  9
$INSBASE
 10
0.0
 20
0.0
 30
0.0
  9
$EXTMIN
 10
1.000000000000000E+20
 20
1.000000000000000E+20
 30
1.000000000000000E+20
  9
$EXTMAX
 10
-1.000000000000000E+20
 20
-1.000000000000000E+20
 30
-1.000000000000000E+20
  9
$LIMMIN
 10
0.0
 20
0.0
  9
$LIMMAX
 10
12.0
 20
9.0
  9
$ORTHOMODE
 70
     0
  9
$REGENMODE
 70
     1
  9
$FILLMODE
 70
     1
  9
$QTEXTMODE
 70
     0
  9
$MIRRTEXT
 70
     1
  9
$LTSCALE
 40
1.0
  9
$ATTMODE
 70
     1
  9
$TEXTSIZE
 40
0.2
  9
$TRACEWID
 40
0.05
  9
$TEXTSTYLE
  7
Standard
  9
$CLAYER
  8
0
  9
$CELTYPE
  6
ByLayer
  9
$CECOLOR
 62
   256
  9
$CELTSCALE
 40
1.0
  9
$DISPSILH
 70
     0
  9
$DIMSCALE
 40
1.0
  9
$DIMASZ
 40
0.18
  9
$DIMEXO
 40
0.0625
  9
$DIMDLI
 40
0.38
  9
$DIMRND
 40
0.0
  9
$DIMDLE
 40
0.0
  9
$DIMEXE
 40
0.18
  9
$DIMTP
 40
0.0
  9
$DIMTM
 40
0.0
  9
$DIMTXT
 40
0.18
  9
$DIMCEN
 40
0.09
  9
$DIMTSZ
 40
0.0
  9
$DIMTOL
 70
     0
  9
$DIMLIM
 70
     0
  9
$DIMTIH
 70
     1
  9
$DIMTOH
 70
     1
  9
$DIMSE1
 70
     0
  9
$DIMSE2
 70
     0
  9
$DIMTAD
 70
     0
  9
$DIMZIN
 70
     0
  9
$DIMBLK
  1

  9
$DIMASO
 70
     1
  9
$DIMSHO
 70
     1
  9
$DIMPOST
  1

  9
$DIMAPOST
  1

  9
$DIMALT
 70
     0
  9
$DIMALTD
 70
     2
  9
$DIMALTF
 40
25.4
  9
$DIMLFAC
 40
1.0
  9
$DIMTOFL
 70
     0
  9
$DIMTVP
 40
0.0
  9
$DIMTIX
 70
     0
  9
$DIMSOXD
 70
     0
  9
$DIMSAH
 70
     0
  9
$DIMBLK1
  1

  9
$DIMBLK2
  1

  9
$DIMSTYLE
  2
Standard
  9
$DIMCLRD
 70
     0
  9
$DIMCLRE
 70
     0
  9
$DIMCLRT
 70
     0
  9
$DIMTFAC
 40
1.0
  9
$DIMGAP
 40
0.09
  9
$DIMJUST
 70
     0
  9
$DIMSD1
 70
     0
  9
$DIMSD2
 70
     0
  9
$DIMTOLJ
 70
     1
  9
$DIMTZIN
 70
     0
  9
$DIMALTZ
 70
     0
  9
$DIMALTTZ
 70
     0
  9
$DIMUPT
 70
     0
  9
$DIMDEC
 70
     4
  9
$DIMTDEC
 70
     4
  9
$DIMALTU
 70
     2
  9
$DIMALTTD
 70
     2
  9
$DIMTXSTY
  7
Standard
  9
$DIMAUNIT
 70
     0
  9
$DIMADEC
 70
     0
  9
$DIMALTRND
 40
0.0
  9
$DIMAZIN
 70
     0
  9
$DIMDSEP
 70
    46
  9
$DIMATFIT
 70
     3
  9
$DIMFRAC
 70
     0
  9
$DIMLDRBLK
  1

  9
$DIMLUNIT
 70
     2
  9
$DIMLWD
 70
    -2
  9
$DIMLWE
 70
    -2
  9
$DIMTMOVE
 70
     0
  9
$DIMFXL
 40
1.0
  9
$DIMFXLON
 70
     0
  9
$DIMJOGANG
 40
0.7853981633974483
  9
$DIMTFILL
 70
     0
  9
$DIMTFILLCLR
 70
     0
  9
$DIMARCSYM
 70
     0
  9
$DIMLTYPE
  6

  9
$DIMLTEX1
  6

  9
$DIMLTEX2
  6

  9
$DIMTXTDIRECTION
 70
     0
  9
$LUNITS
 70
     2
  9
$LUPREC
 70
     4
  9
$SKETCHINC
 40
0.1
  9
$FILLETRAD
 40
0.5
  9
$AUNITS
 70
     0
  9
$AUPREC
 70
     0
  9
$MENU
  1
.
  9
$ELEVATION
 40
0.0
  9
$PELEVATION
 40
0.0
  9
$THICKNESS
 40
0.0
  9
$LIMCHECK
 70
     0
  9
$CHAMFERA
 40
0.5
  9
$CHAMFERB
 40
0.5
  9
$CHAMFERC
 40
1.0
  9
$CHAMFERD
 40
0.0
  9
$SKPOLY
 70
     0
  9
$TDCREATE
 40
2457917.61193287
  9
$TDUCREATE
 40
2457917.23693287
  9
$TDUPDATE
 40
2457917.61193287
  9
$TDUUPDATE
 40
2457917.23693287
  9
$TDINDWG
 40
0.0000000116
  9
$TDUSRTIMER
 40
0.0000000116
  9
$USRTIMER
 70
     1
  9
$ANGBASE
 50
0.0
  9
$ANGDIR
 70
     0
  9
$PDMODE
 70
     0
  9
$PDSIZE
 40
0.0
  9
$PLINEWID
 40
0.0
  9
$SPLFRAME
 70
     0
  9
$SPLINETYPE
 70
     6
  9
$SPLINESEGS
 70
     8
  9
$HANDSEED
  5
CC
  9
$SURFTAB1
 70
     6
  9
$SURFTAB2
 70
     6
  9
$SURFTYPE
 70
     6
  9
$SURFU
 70
     6
  9
$SURFV
 70
     6
  9
$UCSBASE
  2

  9
$UCSNAME
  2

  9
$UCSORG
 10
0.0
 20
0.0
 30
0.0
  9
$UCSXDIR
 10
1.0
 20
0.0
 30
0.0
  9
$UCSYDIR
 10
0.0
 20
1.0
 30
0.0
  9
$UCSORTHOREF
  2

  9
$UCSORTHOVIEW
 70
     0
  9
$UCSORGTOP
 10
0.0
 20
0.0
 30
0.0
  9
$UCSORGBOTTOM
 10
0.0
 20
0.0
 30
0.0
  9
$UCSORGLEFT
 10
0.0
 20
0.0
 30
0.0
  9
$UCSORGRIGHT
 10
0.0
 20
0.0
 30
0.0
  9
$UCSORGFRONT
 10
0.0
 20
0.0
 30
0.0
  9
$UCSORGBACK
 10
0.0
 20
0.0
 30
0.0
  9
$PUCSBASE
  2

  9
$PUCSNAME
  2

  9
$PUCSORG
 10
0.0
 20
0.0
 30
0.0
  9
$PUCSXDIR
 10
1.0
 20
0.0
 30
0.0
  9
$PUCSYDIR
 10
0.0
 20
1.0
 30
0.0
  9
$PUCSORTHOREF
  2

  9
$PUCSORTHOVIEW
 70
     0
  9
$PUCSORGTOP
 10
0.0
 20
0.0
 30
0.0
  9
$PUCSORGBOTTOM
 10
0.0
 20
0.0
 30
0.0
  9
$PUCSORGLEFT
 10
0.0
 20
0.0
 30
0.0
  9
$PUCSORGRIGHT
 10
0.0
 20
0.0
 30
0.0
  9
$PUCSORGFRONT
 10
0.0
 20
0.0
 30
0.0
  9
$PUCSORGBACK
 10
0.0
 20
0.0
 30
0.0
  9
$USERI1
 70
     0
  9
$USERI2
 70
     0
  9
$USERI3
 70
     0
  9
$USERI4
 70
     0
  9
$USERI5
 70
     0
  9
$USERR1
 40
0.0
  9
$USERR2
 40
0.0
  9
$USERR3
 40
0.0
  9
$USERR4
 40
0.0
  9
$USERR5
 40
0.0
  9
$WORLDVIEW
 70
     1
  9
$SHADEDGE
 70
     3
  9
$SHADEDIF
 70
    70
  9
$TILEMODE
 70
     1
  9
$MAXACTVP
 70
    64
  9
$PINSBASE
 10
0.0
 20
0.0
 30
0.0
  9
$PLIMCHECK
 70
     0
  9
$PEXTMIN
 10
1.000000000000000E+20
 20
1.000000000000000E+20
 30
1.000000000000000E+20
  9
$PEXTMAX
 10
-1.000000000000000E+20
 20
-1.000000000000000E+20
 30
-1.000000000000000E+20
  9
$PLIMMIN
 10
0.0
 20
0.0
  9
$PLIMMAX
 10
12.0
 20
9.0
  9
$UNITMODE
 70
     0
  9
$VISRETAIN
 70
     1
  9
$PLINEGEN
 70
     0
  9
$PSLTSCALE
 70
     1
  9
$TREEDEPTH
 70
  3020
  9
$CMLSTYLE
  2
Standard
  9
$CMLJUST
 70
     0
  9
$CMLSCALE
 40
1.0
  9
$PROXYGRAPHICS
 70
     1
  9
$MEASUREMENT
 70
     0
  9
$CELWEIGHT
370
    -1
  9
$ENDCAPS
280
     0
  9
$JOINSTYLE
280
     0
  9
$LWDISPLAY
290
     1
  9
$INSUNITS
 70
     1
  9
$HYPERLINKBASE
  1

  9
$STYLESHEET
  1

  9
$XEDIT
290
     1
  9
$CEPSNTYPE
380
     0
  9
$PSTYLEMODE
290
     1
  9
$FINGERPRINTGUID
  2
{7E57C6A8-29E6-3791-A012-D9BA3881334D}
  9
$VERSIONGUID
  2
{FAEB1C32-E019-11D5-929B-00C0DF256EC4}
  9
$EXTNAMES
290
     1
  9
$PSVPSCALE
 40
0.0
  9
$OLESTARTUP
290
     0
  9
$SORTENTS
280
   127
  9
$INDEXCTL
280
     0
  9
$HIDETEXT
280
     1
  9
$XCLIPFRAME
280
     2
  9
$HALOGAP
280
     0
  9
$OBSCOLOR
 70
   257
  9
$OBSLTYPE
280
     0
  9
$INTERSECTIONDISPLAY
280
     0
  9
$INTERSECTIONCOLOR
 70
   257
  9
$DIMASSOC
280
     2
  9
$PROJECTNAME
  1

  9
$CAMERADISPLAY
290
     0
  9
$LENSLENGTH
 40
50.0
  9
$CAMERAHEIGHT
 40
0.0
  9
$STEPSPERSEC
 40
2.0
  9
$STEPSIZE
 40
6.0
  9
$3DDWFPREC
 40
2.0
  9
$PSOLWIDTH
 40
0.25
  9
$PSOLHEIGHT
 40
4.0
  9
$LOFTANG1
 40
1.570796326794897
  9
$LOFTANG2
 40
1.570796326794897
  9
$LOFTMAG1
 40
0.0
  9
$LOFTMAG2
 40
0.0
  9
$LOFTPARAM
 70
     7
  9
$LOFTNORMALS
280
     1
  9
$LATITUDE
 40
37.795
  9
$LONGITUDE
 40
-122.394
  9
$NORTHDIRECTION
 40
0.0
  9
$TIMEZONE
 70
 -8000
  9
$LIGHTGLYPHDISPLAY
280
     1
  9
$TILEMODELIGHTSYNCH
280
     1
  9
$CMATERIAL
347
3C
  9
$SOLIDHIST
280
     1
  9
$SHOWHIST
280
     1
  9
$DWFFRAME
280
     2
  9
$DGNFRAME
280
     2
  9
$REALWORLDSCALE
290
     1
  9
$INTERFERECOLOR
 62
   256
  9
$CSHADOW
280
     0
  9
$SHADOWPLANELOCATION
 40
0.0
  0
ENDSEC
  0
SECTION
  2
CLASSES
  0
CLASS
  1
ACDBDICTIONARYWDFLT
  2
AcDbDictionaryWithDefault
  3
ObjectDBX Classes
 90
        0
 91
        4
280
     0
281
     0
  0
CLASS
  1
VISUALSTYLE
  2
AcDbVisualStyle
  3
ObjectDBX Classes
 90
     4095
 91
        4
280
     0
281
     0
  0
CLASS
  1
MATERIAL
  2
AcDbMaterial
  3
ObjectDBX Classes
 90
     1153
 91
        4
280
     0
281
     0
  0
CLASS
  1
SUN
  2
AcDbSun
  3
SCENEOE
 90
     1024
 91
        4
280
     0
281
     0
  0
ENDSEC
  0
SECTION
  2
TABLES
  0
TABLE
  2
VPORT
  5
8
330
0
100
AcDbSymbolTable
 70
     1
  0
VPORT
  5
29
330
8
100
AcDbSymbolTableRecord
100
AcDbViewportTableRecord
  2
*Active
 70
     0
 10
0.0
 20
0.0
 11
1.0
 21
1.0
 12
0.0
 22
0.0
 13
0.0
 23
0.0
 14
0.5
 24
0.5
 15
0.5
 25
0.5
 16
0.0
 26
0.0
 36
1.0
 17
91.00082462281999
 27
-128.4993055234307
 37
0.0
 40
256.9986110468615
 41
0.7081814508812795
 42
50.0
 43
0.0
 44
0.0
 50
0.0
 51
0.0
 71
     0
 72
   100
 73
     1
 74
     3
 75
     0
 76
     0
 77
     0
 78
     0
281
     0
 65
     1
110
0.0
120
0.0
130
0.0
111
1.0
121
0.0
131
0.0
112
0.0
122
1.0
132
0.0
 79
     0
146
0.0
 60
     3
 61
     5
292
     1
282
     1
141
0.0
142
0.0
 63
   250
361
3F
  0
ENDTAB
  0
TABLE
  2
LTYPE
  5
5
330
0
100
AcDbSymbolTable
 70
     1
  0
LTYPE
  5
14
330
5
100
AcDbSymbolTableRecord
100
AcDbLinetypeTableRecord
  2
ByBlock
 70
     0
  3

 72
    65
 73
     0
 40
0.0
  0
LTYPE
  5
15
330
5
100
AcDbSymbolTableRecord
100
AcDbLinetypeTableRecord
  2
ByLayer
 70
     0
  3

 72
    65
 73
     0
 40
0.0
  0
LTYPE
  5
16
330
5
100
AcDbSymbolTableRecord
100
AcDbLinetypeTableRecord
  2
Continuous
 70
     0
  3
Solid line
 72
    65
 73
     0
 40
0.0
  0
ENDTAB
  0
TABLE
  2
LAYER
  5
2
330
0
100
AcDbSymbolTable
 70
     2
  0
LAYER
  5
10
330
2
100
AcDbSymbolTableRecord
100
AcDbLayerTableRecord
  2
0
 70
     0
 62
     7
  6
Continuous
370
    -3
390
F
347
3E
  0
LAYER
  5
40
330
2
100
AcDbSymbolTableRecord
100
AcDbLayerTableRecord
  2
_U+30EC_U+30A4_U+30E4_U+30FC 1
 70
     0
 62
     7
  6
Continuous
370
    -3
390
F
347
3E
  0
ENDTAB
  0
TABLE
  2
STYLE
  5
3
330
0
100
AcDbSymbolTable
 70
     1
  0
STYLE
  5
11
330
3
100
AcDbSymbolTableRecord
100
AcDbTextStyleTableRecord
  2
Standard
 70
     0
 40
0.0
 41
1.0
 50
0.0
 71
     0
 42
0.2
  3
txt
  4

  0
ENDTAB
  0
TABLE
  2
VIEW
  5
6
330
0
100
AcDbSymbolTable
 70
     0
  0
ENDTAB
  0
TABLE
  2
UCS
  5
7
330
0
100
AcDbSymbolTable
 70
     0
  0
ENDTAB
  0
TABLE
  2
APPID
  5
9
330
0
100
AcDbSymbolTable
 70
     1
  0
APPID
  5
12
330
9
100
AcDbSymbolTableRecord
100
AcDbRegAppTableRecord
  2
ACAD
 70
     0
  0
ENDTAB
  0
TABLE
  2
DIMSTYLE
  5
A
330
0
100
AcDbSymbolTable
 70
     1
100
AcDbDimStyleTable
  0
DIMSTYLE
105
27
330
A
100
AcDbSymbolTableRecord
100
AcDbDimStyleTableRecord
  2
Standard
 70
     0
178
     0
340
11
  0
ENDTAB
  0
TABLE
  2
BLOCK_RECORD
  5
1
330
0
100
AcDbSymbolTable
 70
     5
  0
BLOCK_RECORD
  5
1F
330
1
100
AcDbSymbolTableRecord
100
AcDbBlockTableRecord
  2
*Model_Space
340
22
 70
     0
280
     1
281
     0
  0
BLOCK_RECORD
  5
1B
330
1
100
AcDbSymbolTableRecord
100
AcDbBlockTableRecord
  2
*Paper_Space
340
1E
 70
     0
280
     1
281
     0
  0
BLOCK_RECORD
  5
23
330
1
100
AcDbSymbolTableRecord
100
AcDbBlockTableRecord
  2
*Paper_Space0
340
26
 70
     0
280
     1
281
     0
  0
BLOCK_RECORD
  5
84
330
1
100
AcDbSymbolTableRecord
100
AcDbBlockTableRecord
  2
block 2
340
0
102
{BLKREFS
331
85
102
}
 70
     0
280
     1
281
     0
  0
BLOCK_RECORD
  5
A0
330
1
100
AcDbSymbolTableRecord
100
AcDbBlockTableRecord
  2
block 3
340
0
102
{BLKREFS
331
A1
102
}
 70
     0
280
     1
281
     0
  0
BLOCK_RECORD
  5
B2
330
1
100
AcDbSymbolTableRecord
100
AcDbBlockTableRecord
  2
block 4
340
0
102
{BLKREFS
331
B3
102
}
 70
     0
280
     1
281
     0
  0
BLOCK_RECORD
  5
C2
330
1
100
AcDbSymbolTableRecord
100
AcDbBlockTableRecord
  2
block 5
340
0
102
{BLKREFS
331
C3
102
}
 70
     0
280
     1
281
     0
  0
ENDTAB
  0
ENDSEC
  0
SECTION
  2
BLOCKS
  0
BLOCK
  5
20
330
1F
100
AcDbEntity
  8
0
100
AcDbBlockBegin
  2
*Model_Space
 70
     0
 10
0.0
 20
0.0
 30
0.0
  3
*Model_Space
  1

  0
ENDBLK
  5
21
330
1F
100
AcDbEntity
  8
0
100
AcDbBlockEnd
  0
BLOCK
  5
1C
330
1B
100
AcDbEntity
 67
     1
  8
0
100
AcDbBlockBegin
  2
*Paper_Space
 70
     0
 10
0.0
 20
0.0
 30
0.0
  3
*Paper_Space
  1

  0
ENDBLK
  5
1D
330
1B
100
AcDbEntity
 67
     1
  8
0
100
AcDbBlockEnd
  0
BLOCK
  5
24
330
23
100
AcDbEntity
  8
0
100
AcDbBlockBegin
  2
*Paper_Space0
 70
     0
 10
0.0
 20
0.0
 30
0.0
  3
*Paper_Space0
  1

  0
ENDBLK
  5
25
330
23
100
AcDbEntity
  8
0
100
AcDbBlockEnd
  0
BLOCK
  5
86
330
84
100
AcDbEntity
  8
0
100
AcDbBlockBegin
  2
block 2
 70
     0
 10
0.0
 20
0.0
 30
0.0
  3
block 2
  1

  0
SPLINE
  5
88
330
84
100
AcDbEntity
  8
_U+30EC_U+30A4_U+30E4_U+30FC 1
370
     0
100
AcDbSpline
210
0.0
220
0.0
230
1.0
 70
    11
 71
     3
 72
    26
 73
    22
 74
     0
 42
0.0000000001
 43
0.0000000001
 12
1.0
 22
0.0
 32
0.0
 13
1.0
 23
0.0
 33
0.0
 40
0.0
 40
0.0
 40
0.0
 40
0.0
 40
1.0
 40
1.0
 40
1.0
 40
2.0
 40
2.0
 40
2.0
 40
3.0
 40
3.0
 40
3.0
 40
4.0
 40
4.0
 40
4.0
 40
5.0
 40
5.0
 40
5.0
 40
6.0
 40
6.0
 40
6.0
 40
7.0
 40
7.0
 40
7.0
 40
7.0
 10
51.74533418845256
 20
-109.7307698293381
 30
0.0
 10
51.74533418845256
 20
-109.7307698293381
 30
0.0
 10
51.74533418845256
 20
-108.6264444715413
 30
0.0
 10
51.74533418845256
 20
-108.6264444715413
 30
0.0
 10
51.74533418845256
 20
-108.6264444715413
 30
0.0
 10
51.41529404096563
 20
-108.6264444715413
 30
0.0
 10
51.41529404096563
 20
-108.6264444715413
 30
0.0
 10
51.41529404096563
 20
-108.6264444715413
 30
0.0
 10
51.41529404096563
 20
-108.4784776204498
 30
0.0
 10
51.41529404096563
 20
-108.4784776204498
 30
0.0
 10
51.74740124574371
 20
-108.4636637098633
 30
0.0
 10
51.79391003479458
 20
-108.3007106934109
 30
0.0
 10
51.82353785596773
 20
-108.1865057780749
 30
0.0
 10
51.82353785596773
 20
-108.1865057780749
 30
0.0
 10
51.96960990454232
 20
-108.1865057780749
 30
0.0
 10
51.96960990454232
 20
-108.1865057780749
 30
0.0
 10
51.96960990454232
 20
-108.1865057780749
 30
0.0
 10
51.96960990454232
 20
-109.7307698293381
 30
0.0
 10
51.96960990454232
 20
-109.7307698293381
 30
0.0
 10
51.96960990454232
 20
-109.7307698293381
 30
0.0
 10
51.74533418845256
 20
-109.7307698293381
 30
0.0
 10
51.74533418845256
 20
-109.7307698293381
 30
0.0
  0
HATCH
  5
89
330
84
100
AcDbEntity
  8
_U+30EC_U+30A4_U+30E4_U+30FC 1
 62
     7
420
 16777215
100
AcDbHatch
 10
0.0
 20
0.0
 30
0.0
210
0.0
220
0.0
230
1.0
  2
SOLID
 70
     1
 71
     0
 91
        1
 92
        1
 93
        1
 72
     4
 94
        3
 73
     0
 74
     1
 95
       26
 96
       22
 40
0.0
 40
0.0
 40
0.0
 40
0.0
 40
1.0
 40
1.0
 40
1.0
 40
2.0
 40
2.0
 40
2.0
 40
3.0
 40
3.0
 40
3.0
 40
4.0
 40
4.0
 40
4.0
 40
5.0
 40
5.0
 40
5.0
 40
6.0
 40
6.0
 40
6.0
 40
7.0
 40
7.0
 40
7.0
 40
7.0
 10
51.74533418845256
 20
-109.7307698293381
 10
51.74533418845256
 20
-109.7307698293381
 10
51.74533418845256
 20
-108.6264444715413
 10
51.74533418845256
 20
-108.6264444715413
 10
51.74533418845256
 20
-108.6264444715413
 10
51.41529404096563
 20
-108.6264444715413
 10
51.41529404096563
 20
-108.6264444715413
 10
51.41529404096563
 20
-108.6264444715413
 10
51.41529404096563
 20
-108.4784776204498
 10
51.41529404096563
 20
-108.4784776204498
 10
51.74740124574371
 20
-108.4636637098633
 10
51.79391003479458
 20
-108.3007106934109
 10
51.82353785596773
 20
-108.1865057780749
 10
51.82353785596773
 20
-108.1865057780749
 10
51.96960990454232
 20
-108.1865057780749
 10
51.96960990454232
 20
-108.1865057780749
 10
51.96960990454232
 20
-108.1865057780749
 10
51.96960990454232
 20
-109.7307698293381
 10
51.96960990454232
 20
-109.7307698293381
 10
51.96960990454232
 20
-109.7307698293381
 10
51.74533418845256
 20
-109.7307698293381
 10
51.74533418845256
 20
-109.7307698293381
 97
        0
 97
        0
 75
     2
 76
     1
 98
        0
  0
POLYLINE
  5
8A
330
84
100
AcDbEntity
  8
_U+30EC_U+30A4_U+30E4_U+30FC 1
370
     0
100
AcDb2dPolyline
 66
     1
 10
0.0
 20
0.0
 30
0.0
  0
VERTEX
  5
8B
330
8A
100
AcDbEntity
  8
_U+30EC_U+30A4_U+30E4_U+30FC 1
370
     0
100
AcDbVertex
100
AcDb2dVertex
 10
52.53081595908952
 20
-109.7307698293381
 30
0.0
  0
VERTEX
  5
8C
330
8A
100
AcDbEntity
  8
_U+30EC_U+30A4_U+30E4_U+30FC 1
370
     0
100
AcDbVertex
100
AcDb2dVertex
 10
52.53081595908952
 20
-109.4791056041406
 30
0.0
  0
VERTEX
  5
8D
330
8A
100
AcDbEntity
  8
_U+30EC_U+30A4_U+30E4_U+30FC 1
370
     0
100
AcDbVertex
100
AcDb2dVertex
 10
52.78248018428702
 20
-109.4791056041406
 30
0.0
  0
VERTEX
  5
8E
330
8A
100
AcDbEntity
  8
_U+30EC_U+30A4_U+30E4_U+30FC 1
370
     0
100
AcDbVertex
100
AcDb2dVertex
 10
52.78248018428702
 20
-109.7307698293381
 30
0.0
  0
VERTEX
  5
8F
330
8A
100
AcDbEntity
  8
_U+30EC_U+30A4_U+30E4_U+30FC 1
370
     0
100
AcDbVertex
100
AcDb2dVertex
 10
52.53081595908952
 20
-109.7307698293381
 30
0.0
  0
SEQEND
  5
90
330
8A
100
AcDbEntity
  8
_U+30EC_U+30A4_U+30E4_U+30FC 1
370
     0
  0
HATCH
  5
91
330
84
100
AcDbEntity
  8
_U+30EC_U+30A4_U+30E4_U+30FC 1
 62
     7
420
 16777215
100
AcDbHatch
 10
0.0
 20
0.0
 30
0.0
210
0.0
220
0.0
230
1.0
  2
SOLID
 70
     1
 71
     0
 91
        1
 92
        1
 93
        4
 72
     1
 10
52.53081595908952
 20
-109.7307698293381
 11
52.53081595908952
 21
-109.4791056041406
 72
     1
 10
52.53081595908952
 20
-109.4791056041406
 11
52.78248018428702
 21
-109.4791056041406
 72
     1
 10
52.78248018428702
 20
-109.4791056041406
 11
52.78248018428702
 21
-109.7307698293381
 72
     1
 10
52.78248018428702
 20
-109.7307698293381
 11
52.53081595908952
 21
-109.7307698293381
 97
        0
 75
     2
 76
     1
 98
        0
  0
SPLINE
  5
92
330
84
100
AcDbEntity
  8
_U+30EC_U+30A4_U+30E4_U+30FC 1
370
     0
100
AcDbSpline
210
0.0
220
0.0
230
1.0
 70
    11
 71
     3
 72
    44
 73
    40
 74
     0
 42
0.0000000001
 43
0.0000000001
 12
1.0
 22
0.0
 32
0.0
 13
1.0
 23
0.0
 33
0.0
 40
0.0
 40
0.0
 40
0.0
 40
0.0
 40
1.0
 40
1.0
 40
1.0
 40
2.0
 40
2.0
 40
2.0
 40
3.0
 40
3.0
 40
3.0
 40
4.0
 40
4.0
 40
4.0
 40
5.0
 40
5.0
 40
5.0
 40
6.0
 40
6.0
 40
6.0
 40
7.0
 40
7.0
 40
7.0
 40
8.0
 40
8.0
 40
8.0
 40
9.0
 40
9.0
 40
9.0
 40
10.0
 40
10.0
 40
10.0
 40
11.0
 40
11.0
 40
11.0
 40
12.0
 40
12.0
 40
12.0
 40
13.0
 40
13.0
 40
13.0
 40
13.0
 10
53.61205917713518
 20
-109.1490654566537
 30
0.0
 10
53.39415688769313
 20
-109.3077121037495
 30
0.0
 10
53.30096705481712
 20
-109.3817816566823
 30
0.0
 10
53.2523912084751
 20
-109.5256143931915
 30
0.0
 10
53.2523912084751
 20
-109.5256143931915
 30
0.0
 10
54.03098278814156
 20
-109.5256143931915
 30
0.0
 10
54.03098278814156
 20
-109.5256143931915
 30
0.0
 10
54.03098278814156
 20
-109.5256143931915
 30
0.0
 10
54.03098278814156
 20
-109.7307698293381
 30
0.0
 10
54.03098278814156
 20
-109.7307698293381
 30
0.0
 10
54.03098278814156
 20
-109.7307698293381
 30
0.0
 10
53.00279404056875
 20
-109.7307698293381
 30
0.0
 10
53.00279404056875
 20
-109.7307698293381
 30
0.0
 10
53.03448891903304
 20
-109.3731689179692
 30
0.0
 10
53.10011798802706
 20
-109.294965250454
 30
0.0
 10
53.48510740850372
 20
-108.9966199814314
 30
0.0
 10
53.74107800305779
 20
-108.7978379719325
 30
0.0
 10
53.8067070720518
 20
-108.7301418456473
 30
0.0
 10
53.8067070720518
 20
-108.5926825357859
 30
0.0
 10
53.8067070720518
 20
-108.4741712510933
 30
0.0
 10
53.73470457641007
 20
-108.3430853678795
 30
0.0
 10
53.53798962420231
 20
-108.3430853678795
 30
0.0
 10
53.27771266029168
 20
-108.3430853678795
 30
0.0
 10
53.26927217635282
 20
-108.5735622558427
 30
0.0
 10
53.26496580699626
 20
-108.6900064832442
 30
0.0
 10
53.26496580699626
 20
-108.6900064832442
 30
0.0
 10
53.04086234568076
 20
-108.6900064832442
 30
0.0
 10
53.04086234568076
 20
-108.6900064832442
 30
0.0
 10
53.04930282961962
 20
-108.5630547146127
 30
0.0
 10
53.05981037084963
 20
-108.4509168565678
 30
0.0
 10
53.14025335043021
 20
-108.3324055718752
 30
0.0
 10
53.25015189640968
 20
-108.1716918674883
 30
0.0
 10
53.43635930738744
 20
-108.1377576769586
 30
0.0
 10
53.55280353478889
 20
-108.1377576769586
 30
0.0
 10
53.82978921180298
 20
-108.1377576769586
 30
0.0
 10
54.03718396001501
 20
-108.3218980306452
 30
0.0
 10
54.03718396001501
 20
-108.594749593077
 30
0.0
 10
54.03718396001501
 20
-108.8231594237491
 30
0.0
 10
53.92073973261357
 20
-108.9227226832728
 30
0.0
 10
53.61205917713518
 20
-109.1490654566537
 30
0.0
  0
HATCH
  5
93
330
84
100
AcDbEntity
  8
_U+30EC_U+30A4_U+30E4_U+30FC 1
 62
     7
420
 16777215
100
AcDbHatch
 10
0.0
 20
0.0
 30
0.0
210
0.0
220
0.0
230
1.0
  2
SOLID
 70
     1
 71
     0
 91
        1
 92
        1
 93
        1
 72
     4
 94
        3
 73
     0
 74
     1
 95
       44
 96
       40
 40
0.0
 40
0.0
 40
0.0
 40
0.0
 40
1.0
 40
1.0
 40
1.0
 40
2.0
 40
2.0
 40
2.0
 40
3.0
 40
3.0
 40
3.0
 40
4.0
 40
4.0
 40
4.0
 40
5.0
 40
5.0
 40
5.0
 40
6.0
 40
6.0
 40
6.0
 40
7.0
 40
7.0
 40
7.0
 40
8.0
 40
8.0
 40
8.0
 40
9.0
 40
9.0
 40
9.0
 40
10.0
 40
10.0
 40
10.0
 40
11.0
 40
11.0
 40
11.0
 40
12.0
 40
12.0
 40
12.0
 40
13.0
 40
13.0
 40
13.0
 40
13.0
 10
53.61205917713518
 20
-109.1490654566537
 10
53.39415688769313
 20
-109.3077121037495
 10
53.30096705481712
 20
-109.3817816566823
 10
53.2523912084751
 20
-109.5256143931915
 10
53.2523912084751
 20
-109.5256143931915
 10
54.03098278814156
 20
-109.5256143931915
 10
54.03098278814156
 20
-109.5256143931915
 10
54.03098278814156
 20
-109.5256143931915
 10
54.03098278814156
 20
-109.7307698293381
 10
54.03098278814156
 20
-109.7307698293381
 10
54.03098278814156
 20
-109.7307698293381
 10
53.00279404056875
 20
-109.7307698293381
 10
53.00279404056875
 20
-109.7307698293381
 10
53.03448891903304
 20
-109.3731689179692
 10
53.10011798802706
 20
-109.294965250454
 10
53.48510740850372
 20
-108.9966199814314
 10
53.74107800305779
 20
-108.7978379719325
 10
53.8067070720518
 20
-108.7301418456473
 10
53.8067070720518
 20
-108.5926825357859
 10
53.8067070720518
 20
-108.4741712510933
 10
53.73470457641007
 20
-108.3430853678795
 10
53.53798962420231
 20
-108.3430853678795
 10
53.27771266029168
 20
-108.3430853678795
 10
53.26927217635282
 20
-108.5735622558427
 10
53.26496580699626
 20
-108.6900064832442
 10
53.26496580699626
 20
-108.6900064832442
 10
53.04086234568076
 20
-108.6900064832442
 10
53.04086234568076
 20
-108.6900064832442
 10
53.04930282961962
 20
-108.5630547146127
 10
53.05981037084963
 20
-108.4509168565678
 10
53.14025335043021
 20
-108.3324055718752
 10
53.25015189640968
 20
-108.1716918674883
 10
53.43635930738744
 20
-108.1377576769586
 10
53.55280353478889
 20
-108.1377576769586
 10
53.82978921180298
 20
-108.1377576769586
 10
54.03718396001501
 20
-108.3218980306452
 10
54.03718396001501
 20
-108.594749593077
 10
54.03718396001501
 20
-108.8231594237491
 10
53.92073973261357
 20
-108.9227226832728
 10
53.61205917713518
 20
-109.1490654566537
 97
        0
 97
        0
 75
     2
 76
     1
 98
        0
  0
ENDBLK
  5
87
330
84
100
AcDbEntity
  8
0
100
AcDbBlockEnd
  0
BLOCK
  5
A2
330
A0
100
AcDbEntity
  8
0
100
AcDbBlockBegin
  2
block 3
 70
     0
 10
0.0
 20
0.0
 30
0.0
  3
block 3
  1

  0
SPLINE
  5
A4
330
A0
100
AcDbEntity
  8
_U+30EC_U+30A4_U+30E4_U+30FC 1
370
     0
100
AcDbSpline
210
0.0
220
0.0
230
1.0
 70
    11
 71
     3
 72
    62
 73
    58
 74
     0
 42
0.0000000001
 43
0.0000000001
 12
1.0
 22
0.0
 32
0.0
 13
1.0
 23
0.0
 33
0.0
 40
0.0
 40
0.0
 40
0.0
 40
0.0
 40
1.0
 40
1.0
 40
1.0
 40
2.0
 40
2.0
 40
2.0
 40
3.0
 40
3.0
 40
3.0
 40
4.0
 40
4.0
 40
4.0
 40
5.0
 40
5.0
 40
5.0
 40
6.0
 40
6.0
 40
6.0
 40
7.0
 40
7.0
 40
7.0
 40
8.0
 40
8.0
 40
8.0
 40
9.0
 40
9.0
 40
9.0
 40
10.0
 40
10.0
 40
10.0
 40
11.0
 40
11.0
 40
11.0
 40
12.0
 40
12.0
 40
12.0
 40
13.0
 40
13.0
 40
13.0
 40
14.0
 40
14.0
 40
14.0
 40
15.0
 40
15.0
 40
15.0
 40
16.0
 40
16.0
 40
16.0
 40
17.0
 40
17.0
 40
17.0
 40
18.0
 40
18.0
 40
18.0
 40
19.0
 40
19.0
 40
19.0
 40
19.0
 10
129.7154242297239
 20
-143.8516845343496
 30
0.0
 10
129.7154242297239
 20
-143.947113679291
 30
0.0
 10
129.6944091472639
 20
-144.1648437139588
 30
0.0
 10
129.5083739910604
 20
-144.2899006800734
 30
0.0
 10
129.3960638782413
 20
-144.3639702330062
 30
0.0
 10
129.2968451282661
 20
-144.3681043475885
 30
0.0
 10
129.2120957793289
 20
-144.3722384621708
 30
0.0
 10
129.2120957793289
 20
-144.3722384621708
 30
0.0
 10
129.2120957793289
 20
-144.1520968606634
 30
0.0
 10
129.2120957793289
 20
-144.1520968606634
 30
0.0
 10
129.2861653322618
 20
-144.1500298033722
 30
0.0
 10
129.5207763348073
 20
-144.1396945169165
 30
0.0
 10
129.5207763348073
 20
-143.8561631584804
 30
0.0
 10
129.5207763348073
 20
-143.7187038486189
 30
0.0
 10
129.4511854060053
 20
-143.5660861186224
 30
0.0
 10
129.2227755753332
 20
-143.5660861186224
 30
0.0
 10
129.1063313479318
 20
-143.5660861186224
 30
0.0
 10
129.0577555015897
 20
-143.6043266785086
 30
0.0
 10
129.0260606231254
 20
-143.6360215569729
 30
0.0
 10
128.9519910701926
 20
-143.7100911099058
 30
0.0
 10
128.9392442168972
 20
-143.8265353373073
 30
0.0
 10
128.9392442168972
 20
-143.8813123555227
 30
0.0
 10
128.9392442168972
 20
-143.9006048902401
 30
0.0
 10
128.9413112741883
 20
-143.9364338832867
 30
0.0
 10
128.9454453887706
 20
-143.9639946471687
 30
0.0
 10
128.9454453887706
 20
-143.9639946471687
 30
0.0
 10
128.750797493854
 20
-143.9639946471687
 30
0.0
 10
128.750797493854
 20
-143.9639946471687
 30
0.0
 10
128.7573431752759
 20
-143.9257540872825
 30
0.0
 10
128.7594102325671
 20
-143.8837239223624
 30
0.0
 10
128.7594102325671
 20
-143.8771782409404
 30
0.0
 10
128.7594102325671
 20
-143.8117214267207
 30
0.0
 10
128.7380506405586
 20
-143.6129394172218
 30
0.0
 10
128.5013725807219
 20
-143.6129394172218
 30
0.0
 10
128.323605653683
 20
-143.6129394172218
 30
0.0
 10
128.268484125919
 20
-143.7438530456613
 30
0.0
 10
128.268484125919
 20
-143.8540961011893
 30
0.0
 10
128.268484125919
 20
-144.1183349249079
 30
0.0
 10
128.5013725807219
 20
-144.1269476636211
 30
0.0
 10
128.5730305668151
 20
-144.1310817782033
 30
0.0
 10
128.5730305668151
 20
-144.1310817782033
 30
0.0
 10
128.5730305668151
 20
-144.3343424118331
 30
0.0
 10
128.5730305668151
 20
-144.3343424118331
 30
0.0
 10
128.448318110249
 20
-144.32572967312
 30
0.0
 10
128.0717691737112
 20
-144.298168909238
 30
0.0
 10
128.0717691737112
 20
-143.8413492478938
 30
0.0
 10
128.0717691737112
 20
-143.6170735318041
 30
0.0
 10
128.1988931971169
 20
-143.3759168478366
 30
0.0
 10
128.4948268992999
 20
-143.3759168478366
 30
0.0
 10
128.6812065650519
 20
-143.3759168478366
 30
0.0
 10
128.7635443471494
 20
-143.4710014832295
 30
0.0
 10
128.8248670467868
 20
-143.5705647427532
 30
0.0
 10
128.8524278106688
 20
-143.5092420431158
 30
0.0
 10
128.9326985354752
 20
-143.3273410014946
 30
0.0
 10
129.2100287220378
 20
-143.3273410014946
 30
0.0
 10
129.5483370986893
 20
-143.3273410014946
 30
0.0
 10
129.7154242297239
 20
-143.5746988573355
 30
0.0
 10
129.7154242297239
 20
-143.8516845343496
 30
0.0
  0
HATCH
  5
A5
330
A0
100
AcDbEntity
  8
_U+30EC_U+30A4_U+30E4_U+30FC 1
 62
     7
420
 16777215
100
AcDbHatch
 10
0.0
 20
0.0
 30
0.0
210
0.0
220
0.0
230
1.0
  2
SOLID
 70
     1
 71
     0
 91
        1
 92
        1
 93
        1
 72
     4
 94
        3
 73
     0
 74
     1
 95
       62
 96
       58
 40
0.0
 40
0.0
 40
0.0
 40
0.0
 40
1.0
 40
1.0
 40
1.0
 40
2.0
 40
2.0
 40
2.0
 40
3.0
 40
3.0
 40
3.0
 40
4.0
 40
4.0
 40
4.0
 40
5.0
 40
5.0
 40
5.0
 40
6.0
 40
6.0
 40
6.0
 40
7.0
 40
7.0
 40
7.0
 40
8.0
 40
8.0
 40
8.0
 40
9.0
 40
9.0
 40
9.0
 40
10.0
 40
10.0
 40
10.0
 40
11.0
 40
11.0
 40
11.0
 40
12.0
 40
12.0
 40
12.0
 40
13.0
 40
13.0
 40
13.0
 40
14.0
 40
14.0
 40
14.0
 40
15.0
 40
15.0
 40
15.0
 40
16.0
 40
16.0
 40
16.0
 40
17.0
 40
17.0
 40
17.0
 40
18.0
 40
18.0
 40
18.0
 40
19.0
 40
19.0
 40
19.0
 40
19.0
 10
129.7154242297239
 20
-143.8516845343496
 10
129.7154242297239
 20
-143.947113679291
 10
129.6944091472639
 20
-144.1648437139588
 10
129.5083739910604
 20
-144.2899006800734
 10
129.3960638782413
 20
-144.3639702330062
 10
129.2968451282661
 20
-144.3681043475885
 10
129.2120957793289
 20
-144.3722384621708
 10
129.2120957793289
 20
-144.3722384621708
 10
129.2120957793289
 20
-144.1520968606634
 10
129.2120957793289
 20
-144.1520968606634
 10
129.2861653322618
 20
-144.1500298033722
 10
129.5207763348073
 20
-144.1396945169165
 10
129.5207763348073
 20
-143.8561631584804
 10
129.5207763348073
 20
-143.7187038486189
 10
129.4511854060053
 20
-143.5660861186224
 10
129.2227755753332
 20
-143.5660861186224
 10
129.1063313479318
 20
-143.5660861186224
 10
129.0577555015897
 20
-143.6043266785086
 10
129.0260606231254
 20
-143.6360215569729
 10
128.9519910701926
 20
-143.7100911099058
 10
128.9392442168972
 20
-143.8265353373073
 10
128.9392442168972
 20
-143.8813123555227
 10
128.9392442168972
 20
-143.9006048902401
 10
128.9413112741883
 20
-143.9364338832867
 10
128.9454453887706
 20
-143.9639946471687
 10
128.9454453887706
 20
-143.9639946471687
 10
128.750797493854
 20
-143.9639946471687
 10
128.750797493854
 20
-143.9639946471687
 10
128.7573431752759
 20
-143.9257540872825
 10
128.7594102325671
 20
-143.8837239223624
 10
128.7594102325671
 20
-143.8771782409404
 10
128.7594102325671
 20
-143.8117214267207
 10
128.7380506405586
 20
-143.6129394172218
 10
128.5013725807219
 20
-143.6129394172218
 10
128.323605653683
 20
-143.6129394172218
 10
128.268484125919
 20
-143.7438530456613
 10
128.268484125919
 20
-143.8540961011893
 10
128.268484125919
 20
-144.1183349249079
 10
128.5013725807219
 20
-144.1269476636211
 10
128.5730305668151
 20
-144.1310817782033
 10
128.5730305668151
 20
-144.1310817782033
 10
128.5730305668151
 20
-144.3343424118331
 10
128.5730305668151
 20
-144.3343424118331
 10
128.448318110249
 20
-144.32572967312
 10
128.0717691737112
 20
-144.298168909238
 10
128.0717691737112
 20
-143.8413492478938
 10
128.0717691737112
 20
-143.6170735318041
 10
128.1988931971169
 20
-143.3759168478366
 10
128.4948268992999
 20
-143.3759168478366
 10
128.6812065650519
 20
-143.3759168478366
 10
128.7635443471494
 20
-143.4710014832295
 10
128.8248670467868
 20
-143.5705647427532
 10
128.8524278106688
 20
-143.5092420431158
 10
128.9326985354752
 20
-143.3273410014946
 10
129.2100287220378
 20
-143.3273410014946
 10
129.5483370986893
 20
-143.3273410014946
 10
129.7154242297239
 20
-143.5746988573355
 10
129.7154242297239
 20
-143.8516845343496
 97
        0
 97
        0
 75
     2
 76
     1
 98
        0
  0
ENDBLK
  5
A3
330
A0
100
AcDbEntity
  8
0
100
AcDbBlockEnd
  0
BLOCK
  5
B4
330
B2
100
AcDbEntity
  8
0
100
AcDbBlockBegin
  2
block 4
 70
     0
 10
0.0
 20
0.0
 30
0.0
  3
block 4
  1

  0
SPLINE
  5
B6
330
B2
100
AcDbEntity
  8
_U+30EC_U+30A4_U+30E4_U+30FC 1
370
     0
100
AcDbSpline
210
0.0
220
0.0
230
1.0
 70
    11
 71
     3
 72
    26
 73
    22
 74
     0
 42
0.0000000001
 43
0.0000000001
 12
1.0
 22
0.0
 32
0.0
 13
1.0
 23
0.0
 33
0.0
 40
0.0
 40
0.0
 40
0.0
 40
0.0
 40
1.0
 40
1.0
 40
1.0
 40
2.0
 40
2.0
 40
2.0
 40
3.0
 40
3.0
 40
3.0
 40
4.0
 40
4.0
 40
4.0
 40
5.0
 40
5.0
 40
5.0
 40
6.0
 40
6.0
 40
6.0
 40
7.0
 40
7.0
 40
7.0
 40
7.0
 10
88.8765733284753
 20
-148.6972113343535
 30
0.0
 10
88.8765733284753
 20
-148.6972113343535
 30
0.0
 10
88.63955075909011
 20
-148.6972113343535
 30
0.0
 10
88.63955075909011
 20
-148.6972113343535
 30
0.0
 10
88.66504446568096
 20
-148.3881862693266
 30
0.0
 10
88.85762530330643
 20
-147.870043908345
 30
0.0
 10
89.26380206101739
 20
-147.3643038911103
 30
0.0
 10
89.26380206101739
 20
-147.3643038911103
 30
0.0
 10
88.42595483900463
 20
-147.3643038911103
 30
0.0
 10
88.42595483900463
 20
-147.3643038911103
 30
0.0
 10
88.42595483900463
 20
-147.3643038911103
 30
0.0
 10
88.42595483900463
 20
-147.152775028316
 30
0.0
 10
88.42595483900463
 20
-147.152775028316
 30
0.0
 10
88.42595483900463
 20
-147.152775028316
 30
0.0
 10
89.50082463040258
 20
-147.152775028316
 30
0.0
 10
89.50082463040258
 20
-147.152775028316
 30
0.0
 10
89.50082463040258
 20
-147.152775028316
 30
0.0
 10
89.50082463040258
 20
-147.3643038911103
 30
0.0
 10
89.50082463040258
 20
-147.3643038911103
 30
0.0
 10
89.17698565478909
 20
-147.6543809309684
 30
0.0
 10
88.91033526423075
 20
-148.2465928448828
 30
0.0
 10
88.8765733284753
 20
-148.6972113343535
 30
0.0
  0
HATCH
  5
B7
330
B2
100
AcDbEntity
  8
_U+30EC_U+30A4_U+30E4_U+30FC 1
 62
     7
420
 16777215
100
AcDbHatch
 10
0.0
 20
0.0
 30
0.0
210
0.0
220
0.0
230
1.0
  2
SOLID
 70
     1
 71
     0
 91
        1
 92
        1
 93
        1
 72
     4
 94
        3
 73
     0
 74
     1
 95
       26
 96
       22
 40
0.0
 40
0.0
 40
0.0
 40
0.0
 40
1.0
 40
1.0
 40
1.0
 40
2.0
 40
2.0
 40
2.0
 40
3.0
 40
3.0
 40
3.0
 40
4.0
 40
4.0
 40
4.0
 40
5.0
 40
5.0
 40
5.0
 40
6.0
 40
6.0
 40
6.0
 40
7.0
 40
7.0
 40
7.0
 40
7.0
 10
88.8765733284753
 20
-148.6972113343535
 10
88.8765733284753
 20
-148.6972113343535
 10
88.63955075909011
 20
-148.6972113343535
 10
88.63955075909011
 20
-148.6972113343535
 10
88.66504446568096
 20
-148.3881862693266
 10
88.85762530330643
 20
-147.870043908345
 10
89.26380206101739
 20
-147.3643038911103
 10
89.26380206101739
 20
-147.3643038911103
 10
88.42595483900463
 20
-147.3643038911103
 10
88.42595483900463
 20
-147.3643038911103
 10
88.42595483900463
 20
-147.3643038911103
 10
88.42595483900463
 20
-147.152775028316
 10
88.42595483900463
 20
-147.152775028316
 10
88.42595483900463
 20
-147.152775028316
 10
89.50082463040258
 20
-147.152775028316
 10
89.50082463040258
 20
-147.152775028316
 10
89.50082463040258
 20
-147.152775028316
 10
89.50082463040258
 20
-147.3643038911103
 10
89.50082463040258
 20
-147.3643038911103
 10
89.17698565478909
 20
-147.6543809309684
 10
88.91033526423075
 20
-148.2465928448828
 10
88.8765733284753
 20
-148.6972113343535
 97
        0
 97
        0
 75
     2
 76
     1
 98
        0
  0
SPLINE
  5
B8
330
B2
100
AcDbEntity
  8
_U+30EC_U+30A4_U+30E4_U+30FC 1
370
     0
100
AcDbSpline
210
0.0
220
0.0
230
1.0
 70
    11
 71
     3
 72
    53
 73
    49
 74
     0
 42
0.0000000001
 43
0.0000000001
 12
1.0
 22
0.0
 32
0.0
 13
1.0
 23
0.0
 33
0.0
 40
0.0
 40
0.0
 40
0.0
 40
0.0
 40
1.0
 40
1.0
 40
1.0
 40
2.0
 40
2.0
 40
2.0
 40
3.0
 40
3.0
 40
3.0
 40
4.0
 40
4.0
 40
4.0
 40
5.0
 40
5.0
 40
5.0
 40
6.0
 40
6.0
 40
6.0
 40
7.0
 40
7.0
 40
7.0
 40
8.0
 40
8.0
 40
8.0
 40
9.0
 40
9.0
 40
9.0
 40
10.0
 40
10.0
 40
10.0
 40
11.0
 40
11.0
 40
11.0
 40
12.0
 40
12.0
 40
12.0
 40
13.0
 40
13.0
 40
13.0
 40
14.0
 40
14.0
 40
14.0
 40
15.0
 40
15.0
 40
15.0
 40
16.0
 40
16.0
 40
16.0
 40
16.0
 10
90.12335338458722
 20
-148.7478542379866
 30
0.0
 10
90.04514971707205
 20
-148.7478542379866
 30
0.0
 10
89.94351940025717
 20
-148.7309732701089
 30
0.0
 10
89.84188908344231
 20
-148.6675835131803
 30
0.0
 10
89.66860078053425
 20
-148.5576849672009
 30
0.0
 10
89.6472411885257
 20
-148.4264268292129
 30
0.0
 10
89.62829316335682
 20
-148.3185953405245
 30
0.0
 10
89.62829316335682
 20
-148.3185953405245
 30
0.0
 10
89.85050182215544
 20
-148.3185953405245
 30
0.0
 10
89.85050182215544
 20
-148.3185953405245
 30
0.0
 10
89.90527884037091
 20
-148.5173773500235
 30
0.0
 10
90.03240286377662
 20
-148.5470051711966
 30
0.0
 10
90.12542044187838
 20
-148.5470051711966
 30
0.0
 10
90.26494680903099
 20
-148.5470051711966
 30
0.0
 10
90.41722002947903
 20
-148.4474419116729
 30
0.0
 10
90.41722002947903
 20
-148.2148979664185
 30
0.0
 10
90.41722002947903
 20
-147.9589273718644
 30
0.0
 10
90.237386045149
 20
-147.8889919335139
 30
0.0
 10
90.11680770316525
 20
-147.8889919335139
 30
0.0
 10
90.08511282470094
 20
-147.8889919335139
 30
0.0
 10
89.94351940025717
 20
-147.8889919335139
 30
0.0
 10
89.85463593673774
 20
-148.0181830142107
 30
0.0
 10
89.85463593673774
 20
-148.0181830142107
 30
0.0
 10
89.67893606698999
 20
-147.9992349890419
 30
0.0
 10
89.67893606698999
 20
-147.9992349890419
 30
0.0
 10
89.67893606698999
 20
-147.9992349890419
 30
0.0
 10
89.79951440897374
 20
-147.152775028316
 30
0.0
 10
89.79951440897374
 20
-147.152775028316
 30
0.0
 10
89.79951440897374
 20
-147.152775028316
 30
0.0
 10
90.5781059886402
 20
-147.152775028316
 30
0.0
 10
90.5781059886402
 20
-147.152775028316
 30
0.0
 10
90.5781059886402
 20
-147.152775028316
 30
0.0
 10
90.5781059886402
 20
-147.3474229232326
 30
0.0
 10
90.5781059886402
 20
-147.3474229232326
 30
0.0
 10
90.5781059886402
 20
-147.3474229232326
 30
0.0
 10
89.96246742542606
 20
-147.3474229232326
 30
0.0
 10
89.96246742542606
 20
-147.3474229232326
 30
0.0
 10
89.96246742542606
 20
-147.3474229232326
 30
0.0
 10
89.89701061120631
 20
-147.7704806488213
 30
0.0
 10
89.89701061120631
 20
-147.7704806488213
 30
0.0
 10
89.95833331084376
 20
-147.7367187130658
 30
0.0
 10
90.04067109294122
 20
-147.6964110958884
 30
0.0
 10
90.15918237763383
 20
-147.6964110958884
 30
0.0
 10
90.41308591489673
 20
-147.6964110958884
 30
0.0
 10
90.65010848428192
 20
-147.8827907616404
 30
0.0
 10
90.65010848428192
 20
-148.1959499412496
 30
0.0
 10
90.65010848428192
 20
-148.5132432354411
 30
0.0
 10
90.42583276819215
 20
-148.7478542379866
 30
0.0
 10
90.12335338458722
 20
-148.7478542379866
 30
0.0
  0
HATCH
  5
B9
330
B2
100
AcDbEntity
  8
_U+30EC_U+30A4_U+30E4_U+30FC 1
 62
     7
420
 16777215
100
AcDbHatch
 10
0.0
 20
0.0
 30
0.0
210
0.0
220
0.0
230
1.0
  2
SOLID
 70
     1
 71
     0
 91
        1
 92
        1
 93
        1
 72
     4
 94
        3
 73
     0
 74
     1
 95
       53
 96
       49
 40
0.0
 40
0.0
 40
0.0
 40
0.0
 40
1.0
 40
1.0
 40
1.0
 40
2.0
 40
2.0
 40
2.0
 40
3.0
 40
3.0
 40
3.0
 40
4.0
 40
4.0
 40
4.0
 40
5.0
 40
5.0
 40
5.0
 40
6.0
 40
6.0
 40
6.0
 40
7.0
 40
7.0
 40
7.0
 40
8.0
 40
8.0
 40
8.0
 40
9.0
 40
9.0
 40
9.0
 40
10.0
 40
10.0
 40
10.0
 40
11.0
 40
11.0
 40
11.0
 40
12.0
 40
12.0
 40
12.0
 40
13.0
 40
13.0
 40
13.0
 40
14.0
 40
14.0
 40
14.0
 40
15.0
 40
15.0
 40
15.0
 40
16.0
 40
16.0
 40
16.0
 40
16.0
 10
90.12335338458722
 20
-148.7478542379866
 10
90.04514971707205
 20
-148.7478542379866
 10
89.94351940025717
 20
-148.7309732701089
 10
89.84188908344231
 20
-148.6675835131803
 10
89.66860078053425
 20
-148.5576849672009
 10
89.6472411885257
 20
-148.4264268292129
 10
89.62829316335682
 20
-148.3185953405245
 10
89.62829316335682
 20
-148.3185953405245
 10
89.85050182215544
 20
-148.3185953405245
 10
89.85050182215544
 20
-148.3185953405245
 10
89.90527884037091
 20
-148.5173773500235
 10
90.03240286377662
 20
-148.5470051711966
 10
90.12542044187838
 20
-148.5470051711966
 10
90.26494680903099
 20
-148.5470051711966
 10
90.41722002947903
 20
-148.4474419116729
 10
90.41722002947903
 20
-148.2148979664185
 10
90.41722002947903
 20
-147.9589273718644
 10
90.237386045149
 20
-147.8889919335139
 10
90.11680770316525
 20
-147.8889919335139
 10
90.08511282470094
 20
-147.8889919335139
 10
89.94351940025717
 20
-147.8889919335139
 10
89.85463593673774
 20
-148.0181830142107
 10
89.85463593673774
 20
-148.0181830142107
 10
89.67893606698999
 20
-147.9992349890419
 10
89.67893606698999
 20
-147.9992349890419
 10
89.67893606698999
 20
-147.9992349890419
 10
89.79951440897374
 20
-147.152775028316
 10
89.79951440897374
 20
-147.152775028316
 10
89.79951440897374
 20
-147.152775028316
 10
90.5781059886402
 20
-147.152775028316
 10
90.5781059886402
 20
-147.152775028316
 10
90.5781059886402
 20
-147.152775028316
 10
90.5781059886402
 20
-147.3474229232326
 10
90.5781059886402
 20
-147.3474229232326
 10
90.5781059886402
 20
-147.3474229232326
 10
89.96246742542606
 20
-147.3474229232326
 10
89.96246742542606
 20
-147.3474229232326
 10
89.96246742542606
 20
-147.3474229232326
 10
89.89701061120631
 20
-147.7704806488213
 10
89.89701061120631
 20
-147.7704806488213
 10
89.95833331084376
 20
-147.7367187130658
 10
90.04067109294122
 20
-147.6964110958884
 10
90.15918237763383
 20
-147.6964110958884
 10
90.41308591489673
 20
-147.6964110958884
 10
90.65010848428192
 20
-147.8827907616404
 10
90.65010848428192
 20
-148.1959499412496
 10
90.65010848428192
 20
-148.5132432354411
 10
90.42583276819215
 20
-148.7478542379866
 10
90.12335338458722
 20
-148.7478542379866
 97
        0
 97
        0
 75
     2
 76
     1
 98
        0
  0
ENDBLK
  5
B5
330
B2
100
AcDbEntity
  8
0
100
AcDbBlockEnd
  0
BLOCK
  5
C4
330
C2
100
AcDbEntity
  8
0
100
AcDbBlockBegin
  2
block 5
 70
     0
 10
0.0
 20
0.0
 30
0.0
  3
block 5
  1

  0
SPLINE
  5
C6
330
C2
100
AcDbEntity
  8
_U+30EC_U+30A4_U+30E4_U+30FC 1
370
     0
100
AcDbSpline
210
0.0
220
0.0
230
1.0
 70
    11
 71
     3
 72
    44
 73
    40
 74
     0
 42
0.0000000001
 43
0.0000000001
 12
1.0
 22
0.0
 32
0.0
 13
1.0
 23
0.0
 33
0.0
 40
0.0
 40
0.0
 40
0.0
 40
0.0
 40
1.0
 40
1.0
 40
1.0
 40
2.0
 40
2.0
 40
2.0
 40
3.0
 40
3.0
 40
3.0
 40
4.0
 40
4.0
 40
4.0
 40
5.0
 40
5.0
 40
5.0
 40
6.0
 40
6.0
 40
6.0
 40
7.0
 40
7.0
 40
7.0
 40
8.0
 40
8.0
 40
8.0
 40
9.0
 40
9.0
 40
9.0
 40
10.0
 40
10.0
 40
10.0
 40
11.0
 40
11.0
 40
11.0
 40
12.0
 40
12.0
 40
12.0
 40
13.0
 40
13.0
 40
13.0
 40
13.0
 10
129.082215679535
 20
-129.0711913739822
 30
0.0
 10
129.241034581405
 20
-129.28892140865
 30
0.0
 10
129.3151041343379
 20
-129.3819389867517
 30
0.0
 10
129.4587646160728
 20
-129.4308593426423
 30
0.0
 10
129.4587646160728
 20
-129.4308593426423
 30
0.0
 10
129.4587646160728
 20
-128.6522677629758
 30
0.0
 10
129.4587646160728
 20
-128.6522677629758
 30
0.0
 10
129.4587646160728
 20
-128.6522677629758
 30
0.0
 10
129.6640923069937
 20
-128.6522677629758
 30
0.0
 10
129.6640923069937
 20
-128.6522677629758
 30
0.0
 10
129.6640923069937
 20
-128.6522677629758
 30
0.0
 10
129.6640923069937
 20
-129.6802842557744
 30
0.0
 10
129.6640923069937
 20
-129.6802842557744
 30
0.0
 10
129.3064913956248
 20
-129.6485893773101
 30
0.0
 10
129.2282877281096
 20
-129.5831325630903
 30
0.0
 10
128.929942459087
 20
-129.1979708878394
 30
0.0
 10
128.7311604495881
 20
-128.9420002932853
 30
0.0
 10
128.6632920685286
 20
-128.8765434790656
 30
0.0
 10
128.5258327586671
 20
-128.8765434790656
 30
0.0
 10
128.4073214739746
 20
-128.8765434790656
 30
0.0
 10
128.2764078455351
 20
-128.9485459747073
 30
0.0
 10
128.2764078455351
 20
-129.1452609269151
 30
0.0
 10
128.2764078455351
 20
-129.4053656360514
 30
0.0
 10
128.5068847334983
 20
-129.413633865216
 30
0.0
 10
128.6233289608997
 20
-129.4181124893469
 30
0.0
 10
128.6233289608997
 20
-129.4181124893469
 30
0.0
 10
128.6233289608997
 20
-129.6423882054366
 30
0.0
 10
128.6233289608997
 20
-129.6423882054366
 30
0.0
 10
128.496204937494
 20
-129.6337754667235
 30
0.0
 10
128.3842393342234
 20
-129.6230956707192
 30
0.0
 10
128.2657280495308
 20
-129.5428249459129
 30
0.0
 10
128.1048420903696
 20
-129.4329263999335
 30
0.0
 10
128.0710801546142
 20
-129.2465467341814
 30
0.0
 10
128.0710801546142
 20
-129.1304470163285
 30
0.0
 10
128.0710801546142
 20
-128.8531168297659
 30
0.0
 10
128.2550482535265
 20
-128.6457220815539
 30
0.0
 10
128.5278998159583
 20
-128.6457220815539
 30
0.0
 10
128.7566541561789
 20
-128.6457220815539
 30
0.0
 10
128.8558729061541
 20
-128.7621663089553
 30
0.0
 10
129.082215679535
 20
-129.0711913739822
 30
0.0
  0
HATCH
  5
C7
330
C2
100
AcDbEntity
  8
_U+30EC_U+30A4_U+30E4_U+30FC 1
 62
     7
420
 16777215
100
AcDbHatch
 10
0.0
 20
0.0
 30
0.0
210
0.0
220
0.0
230
1.0
  2
SOLID
 70
     1
 71
     0
 91
        1
 92
        1
 93
        1
 72
     4
 94
        3
 73
     0
 74
     1
 95
       44
 96
       40
 40
0.0
 40
0.0
 40
0.0
 40
0.0
 40
1.0
 40
1.0
 40
1.0
 40
2.0
 40
2.0
 40
2.0
 40
3.0
 40
3.0
 40
3.0
 40
4.0
 40
4.0
 40
4.0
 40
5.0
 40
5.0
 40
5.0
 40
6.0
 40
6.0
 40
6.0
 40
7.0
 40
7.0
 40
7.0
 40
8.0
 40
8.0
 40
8.0
 40
9.0
 40
9.0
 40
9.0
 40
10.0
 40
10.0
 40
10.0
 40
11.0
 40
11.0
 40
11.0
 40
12.0
 40
12.0
 40
12.0
 40
13.0
 40
13.0
 40
13.0
 40
13.0
 10
129.082215679535
 20
-129.0711913739822
 10
129.241034581405
 20
-129.28892140865
 10
129.3151041343379
 20
-129.3819389867517
 10
129.4587646160728
 20
-129.4308593426423
 10
129.4587646160728
 20
-129.4308593426423
 10
129.4587646160728
 20
-128.6522677629758
 10
129.4587646160728
 20
-128.6522677629758
 10
129.4587646160728
 20
-128.6522677629758
 10
129.6640923069937
 20
-128.6522677629758
 10
129.6640923069937
 20
-128.6522677629758
 10
129.6640923069937
 20
-128.6522677629758
 10
129.6640923069937
 20
-129.6802842557744
 10
129.6640923069937
 20
-129.6802842557744
 10
129.3064913956248
 20
-129.6485893773101
 10
129.2282877281096
 20
-129.5831325630903
 10
128.929942459087
 20
-129.1979708878394
 10
128.7311604495881
 20
-128.9420002932853
 10
128.6632920685286
 20
-128.8765434790656
 10
128.5258327586671
 20
-128.8765434790656
 10
128.4073214739746
 20
-128.8765434790656
 10
128.2764078455351
 20
-128.9485459747073
 10
128.2764078455351
 20
-129.1452609269151
 10
128.2764078455351
 20
-129.4053656360514
 10
128.5068847334983
 20
-129.413633865216
 10
128.6233289608997
 20
-129.4181124893469
 10
128.6233289608997
 20
-129.4181124893469
 10
128.6233289608997
 20
-129.6423882054366
 10
128.6233289608997
 20
-129.6423882054366
 10
128.496204937494
 20
-129.6337754667235
 10
128.3842393342234
 20
-129.6230956707192
 10
128.2657280495308
 20
-129.5428249459129
 10
128.1048420903696
 20
-129.4329263999335
 10
128.0710801546142
 20
-129.2465467341814
 10
128.0710801546142
 20
-129.1304470163285
 10
128.0710801546142
 20
-128.8531168297659
 10
128.2550482535265
 20
-128.6457220815539
 10
128.5278998159583
 20
-128.6457220815539
 10
128.7566541561789
 20
-128.6457220815539
 10
128.8558729061541
 20
-128.7621663089553
 10
129.082215679535
 20
-129.0711913739822
 97
        0
 97
        0
 75
     2
 76
     1
 98
        0
  0
SPLINE
  5
C8
330
C2
100
AcDbEntity
  8
_U+30EC_U+30A4_U+30E4_U+30FC 1
370
     0
100
AcDbSpline
210
0.0
220
0.0
230
1.0
 70
    11
 71
     3
 72
    26
 73
    22
 74
     0
 42
0.0000000001
 43
0.0000000001
 12
1.0
 22
0.0
 32
0.0
 13
1.0
 23
0.0
 33
0.0
 40
0.0
 40
0.0
 40
0.0
 40
0.0
 40
1.0
 40
1.0
 40
1.0
 40
2.0
 40
2.0
 40
2.0
 40
3.0
 40
3.0
 40
3.0
 40
4.0
 40
4.0
 40
4.0
 40
5.0
 40
5.0
 40
5.0
 40
6.0
 40
6.0
 40
6.0
 40
7.0
 40
7.0
 40
7.0
 40
7.0
 10
129.6640923069937
 20
-128.0762477978421
 30
0.0
 10
129.6640923069937
 20
-128.0762477978421
 30
0.0
 10
129.6640923069937
 20
-128.3132703672272
 30
0.0
 10
129.6640923069937
 20
-128.3132703672272
 30
0.0
 10
129.3550672419668
 20
-128.2877766606364
 30
0.0
 10
128.8369248809852
 20
-128.0951958230109
 30
0.0
 10
128.3311848637505
 20
-127.6890190653
 30
0.0
 10
128.3311848637505
 20
-127.6890190653
 30
0.0
 10
128.3311848637505
 20
-128.5268662873127
 30
0.0
 10
128.3311848637505
 20
-128.5268662873127
 30
0.0
 10
128.3311848637505
 20
-128.5268662873127
 30
0.0
 10
128.1196560009562
 20
-128.5268662873127
 30
0.0
 10
128.1196560009562
 20
-128.5268662873127
 30
0.0
 10
128.1196560009562
 20
-128.5268662873127
 30
0.0
 10
128.1196560009562
 20
-127.4519964959148
 30
0.0
 10
128.1196560009562
 20
-127.4519964959148
 30
0.0
 10
128.1196560009562
 20
-127.4519964959148
 30
0.0
 10
128.3311848637505
 20
-127.4519964959148
 30
0.0
 10
128.3311848637505
 20
-127.4519964959148
 30
0.0
 10
128.6212619036086
 20
-127.7758354715283
 30
0.0
 10
129.213473817523
 20
-128.0424858620866
 30
0.0
 10
129.6640923069937
 20
-128.0762477978421
 30
0.0
  0
HATCH
  5
C9
330
C2
100
AcDbEntity
  8
_U+30EC_U+30A4_U+30E4_U+30FC 1
 62
     7
420
 16777215
100
AcDbHatch
 10
0.0
 20
0.0
 30
0.0
210
0.0
220
0.0
230
1.0
  2
SOLID
 70
     1
 71
     0
 91
        1
 92
        1
 93
        1
 72
     4
 94
        3
 73
     0
 74
     1
 95
       26
 96
       22
 40
0.0
 40
0.0
 40
0.0
 40
0.0
 40
1.0
 40
1.0
 40
1.0
 40
2.0
 40
2.0
 40
2.0
 40
3.0
 40
3.0
 40
3.0
 40
4.0
 40
4.0
 40
4.0
 40
5.0
 40
5.0
 40
5.0
 40
6.0
 40
6.0
 40
6.0
 40
7.0
 40
7.0
 40
7.0
 40
7.0
 10
129.6640923069937
 20
-128.0762477978421
 10
129.6640923069937
 20
-128.0762477978421
 10
129.6640923069937
 20
-128.3132703672272
 10
129.6640923069937
 20
-128.3132703672272
 10
129.3550672419668
 20
-128.2877766606364
 10
128.8369248809852
 20
-128.0951958230109
 10
128.3311848637505
 20
-127.6890190653
 10
128.3311848637505
 20
-127.6890190653
 10
128.3311848637505
 20
-128.5268662873127
 10
128.3311848637505
 20
-128.5268662873127
 10
128.3311848637505
 20
-128.5268662873127
 10
128.1196560009562
 20
-128.5268662873127
 10
128.1196560009562
 20
-128.5268662873127
 10
128.1196560009562
 20
-128.5268662873127
 10
128.1196560009562
 20
-127.4519964959148
 10
128.1196560009562
 20
-127.4519964959148
 10
128.1196560009562
 20
-127.4519964959148
 10
128.3311848637505
 20
-127.4519964959148
 10
128.3311848637505
 20
-127.4519964959148
 10
128.6212619036086
 20
-127.7758354715283
 10
129.213473817523
 20
-128.0424858620866
 10
129.6640923069937
 20
-128.0762477978421
 97
        0
 97
        0
 75
     2
 76
     1
 98
        0
  0
ENDBLK
  5
C5
330
C2
100
AcDbEntity
  8
0
100
AcDbBlockEnd
  0
ENDSEC
  0
SECTION
  2
ENTITIES
  0
POLYLINE
  5
41
330
1F
100
AcDbEntity
  8
_U+30EC_U+30A4_U+30E4_U+30FC 1
370
     0
100
AcDb2dPolyline
 66
     1
 10
0.0
 20
0.0
 30
0.0
  0
VERTEX
  5
42
330
41
100
AcDbEntity
  8
_U+30EC_U+30A4_U+30E4_U+30FC 1
370
     0
100
AcDbVertex
100
AcDb2dVertex
 10
125.8290215120564
 20
-144.1352280195217
 30
0.0
  0
VERTEX
  5
43
330
41
100
AcDbEntity
  8
_U+30EC_U+30A4_U+30E4_U+30FC 1
370
     0
100
AcDbVertex
100
AcDb2dVertex
 10
53.25427498668655
 20
-144.1352280195217
 30
0.0
  0
VERTEX
  5
44
330
41
100
AcDbEntity
  8
_U+30EC_U+30A4_U+30E4_U+30FC 1
370
     0
100
AcDbVertex
100
AcDb2dVertex
 10
53.25427498668655
 20
-115.3469738600523
 30
0.0
  0
VERTEX
  5
45
330
41
100
AcDbEntity
  8
_U+30EC_U+30A4_U+30E4_U+30FC 1
370
     0
100
AcDbVertex
100
AcDb2dVertex
 10
52.05193644982224
 20
-115.3469738600523
 30
0.0
  0
VERTEX
  5
46
330
41
100
AcDbEntity
  8
_U+30EC_U+30A4_U+30E4_U+30FC 1
370
     0
100
AcDbVertex
100
AcDb2dVertex
 10
52.05193644982224
 20
-145.3427157969977
 30
0.0
  0
VERTEX
  5
47
330
41
100
AcDbEntity
  8
_U+30EC_U+30A4_U+30E4_U+30FC 1
370
     0
100
AcDbVertex
100
AcDb2dVertex
 10
127.0616623139425
 20
-145.3427157969977
 30
0.0
  0
VERTEX
  5
48
330
41
100
AcDbEntity
  8
_U+30EC_U+30A4_U+30E4_U+30FC 1
370
     0
100
AcDbVertex
100
AcDb2dVertex
 10
127.0616623139425
 20
-142.3389541310818
 30
0.0
  0
VERTEX
  5
49
330
41
100
AcDbEntity
  8
_U+30EC_U+30A4_U+30E4_U+30FC 1
370
     0
100
AcDbVertex
100
AcDb2dVertex
 10
125.8290215120564
 20
-142.3389541310818
 30
0.0
  0
VERTEX
  5
4A
330
41
100
AcDbEntity
  8
_U+30EC_U+30A4_U+30E4_U+30FC 1
370
     0
100
AcDbVertex
100
AcDb2dVertex
 10
125.8290215120564
 20
-144.1352280195217
 30
0.0
  0
SEQEND
  5
4C
330
41
100
AcDbEntity
  8
_U+30EC_U+30A4_U+30E4_U+30FC 1
370
     0
  0
HATCH
  5
4B
330
1F
100
AcDbEntity
  8
_U+30EC_U+30A4_U+30E4_U+30FC 1
 62
   253
420
 11711154
100
AcDbHatch
 10
0.0
 20
0.0
 30
0.0
210
0.0
220
0.0
230
1.0
  2
SOLID
 70
     1
 71
     0
 91
        1
 92
        1
 93
        8
 72
     1
 10
125.8290215120564
 20
-144.1352280195217
 11
53.25427498668655
 21
-144.1352280195217
 72
     1
 10
53.25427498668655
 20
-144.1352280195217
 11
53.25427498668655
 21
-115.3469738600523
 72
     1
 10
53.25427498668655
 20
-115.3469738600523
 11
52.05193644982224
 21
-115.3469738600523
 72
     1
 10
52.05193644982224
 20
-115.3469738600523
 11
52.05193644982224
 21
-145.3427157969977
 72
     1
 10
52.05193644982224
 20
-145.3427157969977
 11
127.0616623139425
 21
-145.3427157969977
 72
     1
 10
127.0616623139425
 20
-145.3427157969977
 11
127.0616623139425
 21
-142.3389541310818
 72
     1
 10
127.0616623139425
 20
-142.3389541310818
 11
125.8290215120564
 21
-142.3389541310818
 72
     1
 10
125.8290215120564
 20
-142.3389541310818
 11
125.8290215120564
 21
-144.1352280195217
 97
        0
 75
     2
 76
     1
 98
        0
  0
POLYLINE
  5
4D
330
1F
100
AcDbEntity
  8
_U+30EC_U+30A4_U+30E4_U+30FC 1
 62
     7
420
 16777215
370
    25
100
AcDb2dPolyline
 66
     1
 10
0.0
 20
0.0
 30
0.0
  0
VERTEX
  5
4E
330
4D
100
AcDbEntity
  8
_U+30EC_U+30A4_U+30E4_U+30FC 1
 62
     7
420
 16777215
370
    25
100
AcDbVertex
100
AcDb2dVertex
 10
52.05193644982224
 20
-145.3427157969977
 30
0.0
  0
VERTEX
  5
4F
330
4D
100
AcDbEntity
  8
_U+30EC_U+30A4_U+30E4_U+30FC 1
 62
     7
420
 16777215
370
    25
100
AcDbVertex
100
AcDb2dVertex
 10
127.0609920361818
 20
-145.3427157969977
 30
0.0
  0
SEQEND
  5
50
330
4D
100
AcDbEntity
  8
_U+30EC_U+30A4_U+30E4_U+30FC 1
 62
     7
420
 16777215
370
    25
  0
POLYLINE
  5
51
330
1F
100
AcDbEntity
  8
_U+30EC_U+30A4_U+30E4_U+30FC 1
 62
     7
420
 16777215
370
    25
100
AcDb2dPolyline
 66
     1
 10
0.0
 20
0.0
 30
0.0
  0
VERTEX
  5
52
330
51
100
AcDbEntity
  8
_U+30EC_U+30A4_U+30E4_U+30FC 1
 62
     7
420
 16777215
370
    25
100
AcDbVertex
100
AcDb2dVertex
 10
52.05193644982224
 20
-115.3469738600523
 30
0.0
  0
VERTEX
  5
53
330
51
100
AcDbEntity
  8
_U+30EC_U+30A4_U+30E4_U+30FC 1
 62
     7
420
 16777215
370
    25
100
AcDbVertex
100
AcDb2dVertex
 10
53.25427498668655
 20
-115.3469738600523
 30
0.0
  0
SEQEND
  5
54
330
51
100
AcDbEntity
  8
_U+30EC_U+30A4_U+30E4_U+30FC 1
 62
     7
420
 16777215
370
    25
  0
POLYLINE
  5
55
330
1F
100
AcDbEntity
  8
_U+30EC_U+30A4_U+30E4_U+30FC 1
 62
     7
420
 16777215
370
    25
100
AcDb2dPolyline
 66
     1
 10
0.0
 20
0.0
 30
0.0
  0
VERTEX
  5
56
330
55
100
AcDbEntity
  8
_U+30EC_U+30A4_U+30E4_U+30FC 1
 62
     7
420
 16777215
370
    25
100
AcDbVertex
100
AcDb2dVertex
 10
127.0609920361818
 20
-145.3427157969977
 30
0.0
  0
VERTEX
  5
57
330
55
100
AcDbEntity
  8
_U+30EC_U+30A4_U+30E4_U+30FC 1
 62
     7
420
 16777215
370
    25
100
AcDbVertex
100
AcDb2dVertex
 10
127.0609920361818
 20
-142.3389541310818
 30
0.0
  0
SEQEND
  5
58
330
55
100
AcDbEntity
  8
_U+30EC_U+30A4_U+30E4_U+30FC 1
 62
     7
420
 16777215
370
    25
  0
POLYLINE
  5
59
330
1F
100
AcDbEntity
  8
_U+30EC_U+30A4_U+30E4_U+30FC 1
 62
     7
420
 16777215
370
    25
100
AcDb2dPolyline
 66
     1
 10
0.0
 20
0.0
 30
0.0
  0
VERTEX
  5
5A
330
59
100
AcDbEntity
  8
_U+30EC_U+30A4_U+30E4_U+30FC 1
 62
     7
420
 16777215
370
    25
100
AcDbVertex
100
AcDb2dVertex
 10
52.05193644982224
 20
-145.3427157969977
 30
0.0
  0
VERTEX
  5
5B
330
59
100
AcDbEntity
  8
_U+30EC_U+30A4_U+30E4_U+30FC 1
 62
     7
420
 16777215
370
    25
100
AcDbVertex
100
AcDb2dVertex
 10
52.05193644982224
 20
-115.3469738600523
 30
0.0
  0
SEQEND
  5
5C
330
59
100
AcDbEntity
  8
_U+30EC_U+30A4_U+30E4_U+30FC 1
 62
     7
420
 16777215
370
    25
  0
POLYLINE
  5
5D
330
1F
100
AcDbEntity
  8
_U+30EC_U+30A4_U+30E4_U+30FC 1
 62
     7
420
 16777215
370
    25
100
AcDb2dPolyline
 66
     1
 10
0.0
 20
0.0
 30
0.0
  0
VERTEX
  5
5E
330
5D
100
AcDbEntity
  8
_U+30EC_U+30A4_U+30E4_U+30FC 1
 62
     7
420
 16777215
370
    25
100
AcDbVertex
100
AcDb2dVertex
 10
53.25427498668655
 20
-144.1352280195217
 30
0.0
  0
VERTEX
  5
5F
330
5D
100
AcDbEntity
  8
_U+30EC_U+30A4_U+30E4_U+30FC 1
 62
     7
420
 16777215
370
    25
100
AcDbVertex
100
AcDb2dVertex
 10
53.25427498668655
 20
-115.3469738600523
 30
0.0
  0
SEQEND
  5
60
330
5D
100
AcDbEntity
  8
_U+30EC_U+30A4_U+30E4_U+30FC 1
 62
     7
420
 16777215
370
    25
  0
POLYLINE
  5
61
330
1F
100
AcDbEntity
  8
_U+30EC_U+30A4_U+30E4_U+30FC 1
 62
     7
420
 16777215
370
    25
100
AcDb2dPolyline
 66
     1
 10
0.0
 20
0.0
 30
0.0
  0
VERTEX
  5
62
330
61
100
AcDbEntity
  8
_U+30EC_U+30A4_U+30E4_U+30FC 1
 62
     7
420
 16777215
370
    25
100
AcDbVertex
100
AcDb2dVertex
 10
125.8290215120564
 20
-142.3389541310818
 30
0.0
  0
VERTEX
  5
63
330
61
100
AcDbEntity
  8
_U+30EC_U+30A4_U+30E4_U+30FC 1
 62
     7
420
 16777215
370
    25
100
AcDbVertex
100
AcDb2dVertex
 10
127.0609920361818
 20
-142.3389541310818
 30
0.0
  0
SEQEND
  5
64
330
61
100
AcDbEntity
  8
_U+30EC_U+30A4_U+30E4_U+30FC 1
 62
     7
420
 16777215
370
    25
  0
POLYLINE
  5
65
330
1F
100
AcDbEntity
  8
_U+30EC_U+30A4_U+30E4_U+30FC 1
 62
     7
420
 16777215
370
    25
100
AcDb2dPolyline
 66
     1
 10
0.0
 20
0.0
 30
0.0
  0
VERTEX
  5
66
330
65
100
AcDbEntity
  8
_U+30EC_U+30A4_U+30E4_U+30FC 1
 62
     7
420
 16777215
370
    25
100
AcDbVertex
100
AcDb2dVertex
 10
125.8290215120564
 20
-144.1352280195217
 30
0.0
  0
VERTEX
  5
67
330
65
100
AcDbEntity
  8
_U+30EC_U+30A4_U+30E4_U+30FC 1
 62
     7
420
 16777215
370
    25
100
AcDbVertex
100
AcDb2dVertex
 10
125.8290215120564
 20
-142.3389541310818
 30
0.0
  0
SEQEND
  5
68
330
65
100
AcDbEntity
  8
_U+30EC_U+30A4_U+30E4_U+30FC 1
 62
     7
420
 16777215
370
    25
  0
POLYLINE
  5
69
330
1F
100
AcDbEntity
  8
_U+30EC_U+30A4_U+30E4_U+30FC 1
 62
     7
420
 16777215
370
    25
100
AcDb2dPolyline
 66
     1
 10
0.0
 20
0.0
 30
0.0
  0
VERTEX
  5
6A
330
69
100
AcDbEntity
  8
_U+30EC_U+30A4_U+30E4_U+30FC 1
 62
     7
420
 16777215
370
    25
100
AcDbVertex
100
AcDb2dVertex
 10
53.25427498668655
 20
-144.1352280195217
 30
0.0
  0
VERTEX
  5
6B
330
69
100
AcDbEntity
  8
_U+30EC_U+30A4_U+30E4_U+30FC 1
 62
     7
420
 16777215
370
    25
100
AcDbVertex
100
AcDb2dVertex
 10
125.8290215120564
 20
-144.1352280195217
 30
0.0
  0
SEQEND
  5
6C
330
69
100
AcDbEntity
  8
_U+30EC_U+30A4_U+30E4_U+30FC 1
 62
     7
420
 16777215
370
    25
  0
SPLINE
  5
6D
330
1F
100
AcDbEntity
  8
_U+30EC_U+30A4_U+30E4_U+30FC 1
 62
     7
420
 16777215
370
     9
100
AcDbSpline
210
0.0
220
0.0
230
1.0
 70
    11
 71
     3
 72
    17
 73
    13
 74
     0
 42
0.0000000001
 43
0.0000000001
 12
1.0
 22
0.0
 32
0.0
 13
1.0
 23
0.0
 33
0.0
 40
0.0
 40
0.0
 40
0.0
 40
0.0
 40
1.0
 40
1.0
 40
1.0
 40
2.0
 40
2.0
 40
2.0
 40
3.0
 40
3.0
 40
3.0
 40
4.0
 40
4.0
 40
4.0
 40
4.0
 10
53.33816419478562
 20
-111.3472146943854
 30
0.0
 10
53.33816419478562
 20
-111.2920755277326
 30
0.0
 10
53.29339669592773
 20
-111.2473080277438
 30
0.0
 10
53.23825753066779
 20
-111.2473080277438
 30
0.0
 10
53.18315364318471
 20
-111.2473080277438
 30
0.0
 10
53.13835086654995
 20
-111.2920755277326
 30
0.0
 10
53.13835086654995
 20
-111.3472146943854
 30
0.0
 10
53.13835086654995
 20
-111.4023185832606
 30
0.0
 10
53.18315364318471
 20
-111.447121361027
 30
0.0
 10
53.23825753066779
 20
-111.447121361027
 30
0.0
 10
53.29339669592773
 20
-111.447121361027
 30
0.0
 10
53.33816419478562
 20
-111.4023185832606
 30
0.0
 10
53.33816419478562
 20
-111.3472146943854
 30
0.0
  0
SPLINE
  5
6E
330
1F
100
AcDbEntity
  8
_U+30EC_U+30A4_U+30E4_U+30FC 1
 62
     7
420
 16777215
370
     9
100
AcDbSpline
210
0.0
220
0.0
230
1.0
 70
    11
 71
     3
 72
    17
 73
    13
 74
     0
 42
0.0000000001
 43
0.0000000001
 12
1.0
 22
0.0
 32
0.0
 13
1.0
 23
0.0
 33
0.0
 40
0.0
 40
0.0
 40
0.0
 40
0.0
 40
1.0
 40
1.0
 40
1.0
 40
2.0
 40
2.0
 40
2.0
 40
3.0
 40
3.0
 40
3.0
 40
4.0
 40
4.0
 40
4.0
 40
4.0
 10
52.15219720918405
 20
-111.3472146943854
 30
0.0
 10
52.15219720918405
 20
-111.2920755277326
 30
0.0
 10
52.10742839285097
 20
-111.2473080277438
 30
0.0
 10
52.05193644982224
 20
-111.2473080277438
 30
0.0
 10
51.99683256233917
 20
-111.2473080277438
 30
0.0
 10
51.95202978570441
 20
-111.2920755277326
 30
0.0
 10
51.95202978570441
 20
-111.3472146943854
 30
0.0
 10
51.95202978570441
 20
-111.4023185832606
 30
0.0
 10
51.99683256233917
 20
-111.447121361027
 30
0.0
 10
52.05193644982224
 20
-111.447121361027
 30
0.0
 10
52.10742839285097
 20
-111.447121361027
 30
0.0
 10
52.15219720918405
 20
-111.4023185832606
 30
0.0
 10
52.15219720918405
 20
-111.3472146943854
 30
0.0
  0
SPLINE
  5
6F
330
1F
100
AcDbEntity
  8
_U+30EC_U+30A4_U+30E4_U+30FC 1
 62
     7
420
 16777215
370
     9
100
AcDbSpline
210
0.0
220
0.0
230
1.0
 70
    11
 71
     3
 72
    17
 73
    13
 74
     0
 42
0.0000000001
 43
0.0000000001
 12
1.0
 22
0.0
 32
0.0
 13
1.0
 23
0.0
 33
0.0
 40
0.0
 40
0.0
 40
0.0
 40
0.0
 40
1.0
 40
1.0
 40
1.0
 40
2.0
 40
2.0
 40
2.0
 40
3.0
 40
3.0
 40
3.0
 40
4.0
 40
4.0
 40
4.0
 40
4.0
 10
127.1608987002996
 20
-149.3431805182195
 30
0.0
 10
127.1608987002996
 20
-149.288041351567
 30
0.0
 10
127.1160959236649
 20
-149.2432738515778
 30
0.0
 10
127.0609920361818
 20
-149.2432738515778
 30
0.0
 10
127.0058528709219
 20
-149.2432738515778
 30
0.0
 10
126.9610500942871
 20
-149.288041351567
 30
0.0
 10
126.9610500942871
 20
-149.3431805182195
 30
0.0
 10
126.9610500942871
 20
-149.398284407095
 30
0.0
 10
127.0058528709219
 20
-149.4430871848617
 30
0.0
 10
127.0609920361818
 20
-149.4430871848617
 30
0.0
 10
127.1160959236649
 20
-149.4430871848617
 30
0.0
 10
127.1608987002996
 20
-149.398284407095
 30
0.0
 10
127.1608987002996
 20
-149.3431805182195
 30
0.0
  0
SPLINE
  5
70
330
1F
100
AcDbEntity
  8
_U+30EC_U+30A4_U+30E4_U+30FC 1
 62
     7
420
 16777215
370
     9
100
AcDbSpline
210
0.0
220
0.0
230
1.0
 70
    11
 71
     3
 72
    17
 73
    13
 74
     0
 42
0.0000000001
 43
0.0000000001
 12
1.0
 22
0.0
 32
0.0
 13
1.0
 23
0.0
 33
0.0
 40
0.0
 40
0.0
 40
0.0
 40
0.0
 40
1.0
 40
1.0
 40
1.0
 40
2.0
 40
2.0
 40
2.0
 40
3.0
 40
3.0
 40
3.0
 40
4.0
 40
4.0
 40
4.0
 40
4.0
 10
52.15219720918405
 20
-149.3431805182195
 30
0.0
 10
52.15219720918405
 20
-149.288041351567
 30
0.0
 10
52.10742839285097
 20
-149.2432738515778
 30
0.0
 10
52.05193644982224
 20
-149.2432738515778
 30
0.0
 10
51.99683256233917
 20
-149.2432738515778
 30
0.0
 10
51.95202978570441
 20
-149.288041351567
 30
0.0
 10
51.95202978570441
 20
-149.3431805182195
 30
0.0
 10
51.95202978570441
 20
-149.398284407095
 30
0.0
 10
51.99683256233917
 20
-149.4430871848617
 30
0.0
 10
52.05193644982224
 20
-149.4430871848617
 30
0.0
 10
52.10742839285097
 20
-149.4430871848617
 30
0.0
 10
52.15219720918405
 20
-149.398284407095
 30
0.0
 10
52.15219720918405
 20
-149.3431805182195
 30
0.0
  0
SPLINE
  5
71
330
1F
100
AcDbEntity
  8
_U+30EC_U+30A4_U+30E4_U+30FC 1
 62
     7
420
 16777215
370
     9
100
AcDbSpline
210
0.0
220
0.0
230
1.0
 70
    11
 71
     3
 72
    17
 73
    13
 74
     0
 42
0.0000000001
 43
0.0000000001
 12
1.0
 22
0.0
 32
0.0
 13
1.0
 23
0.0
 33
0.0
 40
0.0
 40
0.0
 40
0.0
 40
0.0
 40
1.0
 40
1.0
 40
1.0
 40
2.0
 40
2.0
 40
2.0
 40
3.0
 40
3.0
 40
3.0
 40
4.0
 40
4.0
 40
4.0
 40
4.0
 10
131.411447480748
 20
-115.3469738600523
 30
0.0
 10
131.411447480748
 20
-115.2918346933992
 30
0.0
 10
131.3666447041132
 20
-115.2470671934103
 30
0.0
 10
131.3108352610926
 20
-115.2470671934103
 30
0.0
 10
131.2557313736095
 20
-115.2470671934103
 30
0.0
 10
131.2109285969748
 20
-115.2918346933992
 30
0.0
 10
131.2109285969748
 20
-115.3469738600523
 30
0.0
 10
131.2109285969748
 20
-115.4020777489272
 30
0.0
 10
131.2557313736095
 20
-115.4468805266939
 30
0.0
 10
131.3108352610926
 20
-115.4468805266939
 30
0.0
 10
131.3666447041132
 20
-115.4468805266939
 30
0.0
 10
131.411447480748
 20
-115.4020777489272
 30
0.0
 10
131.411447480748
 20
-115.3469738600523
 30
0.0
  0
SPLINE
  5
72
330
1F
100
AcDbEntity
  8
_U+30EC_U+30A4_U+30E4_U+30FC 1
 62
     7
420
 16777215
370
     9
100
AcDbSpline
210
0.0
220
0.0
230
1.0
 70
    11
 71
     3
 72
    17
 73
    13
 74
     0
 42
0.0000000001
 43
0.0000000001
 12
1.0
 22
0.0
 32
0.0
 13
1.0
 23
0.0
 33
0.0
 40
0.0
 40
0.0
 40
0.0
 40
0.0
 40
1.0
 40
1.0
 40
1.0
 40
2.0
 40
2.0
 40
2.0
 40
3.0
 40
3.0
 40
3.0
 40
4.0
 40
4.0
 40
4.0
 40
4.0
 10
131.411447480748
 20
-142.3427288533034
 30
0.0
 10
131.411447480748
 20
-142.2876249644278
 30
0.0
 10
131.3666447041132
 20
-142.2428221866617
 30
0.0
 10
131.3108352610926
 20
-142.2428221866617
 30
0.0
 10
131.2557313736095
 20
-142.2428221866617
 30
0.0
 10
131.2109285969748
 20
-142.2876249644278
 30
0.0
 10
131.2109285969748
 20
-142.3427288533034
 30
0.0
 10
131.2109285969748
 20
-142.3985382977338
 30
0.0
 10
131.2557313736095
 20
-142.4433410755005
 30
0.0
 10
131.3108352610926
 20
-142.4433410755005
 30
0.0
 10
131.3666447041132
 20
-142.4433410755005
 30
0.0
 10
131.411447480748
 20
-142.3985382977338
 30
0.0
 10
131.411447480748
 20
-142.3427288533034
 30
0.0
  0
SPLINE
  5
73
330
1F
100
AcDbEntity
  8
_U+30EC_U+30A4_U+30E4_U+30FC 1
 62
     7
420
 16777215
370
     9
100
AcDbSpline
210
0.0
220
0.0
230
1.0
 70
    11
 71
     3
 72
    17
 73
    13
 74
     0
 42
0.0000000001
 43
0.0000000001
 12
1.0
 22
0.0
 32
0.0
 13
1.0
 23
0.0
 33
0.0
 40
0.0
 40
0.0
 40
0.0
 40
0.0
 40
1.0
 40
1.0
 40
1.0
 40
2.0
 40
2.0
 40
2.0
 40
3.0
 40
3.0
 40
3.0
 40
4.0
 40
4.0
 40
4.0
 40
4.0
 10
131.411447480748
 20
-145.3427157969977
 30
0.0
 10
131.411447480748
 20
-145.2876119081228
 30
0.0
 10
131.3666447041132
 20
-145.2428091303561
 30
0.0
 10
131.3108352610926
 20
-145.2428091303561
 30
0.0
 10
131.2557313736095
 20
-145.2428091303561
 30
0.0
 10
131.2109285969748
 20
-145.2876119081228
 30
0.0
 10
131.2109285969748
 20
-145.3427157969977
 30
0.0
 10
131.2109285969748
 20
-145.3981724636504
 30
0.0
 10
131.2557313736095
 20
-145.4429752414171
 30
0.0
 10
131.3108352610926
 20
-145.4429752414171
 30
0.0
 10
131.3666447041132
 20
-145.4429752414171
 30
0.0
 10
131.411447480748
 20
-145.3981724636504
 30
0.0
 10
131.411447480748
 20
-145.3427157969977
 30
0.0
  0
POLYLINE
  5
74
330
1F
100
AcDbEntity
  8
_U+30EC_U+30A4_U+30E4_U+30FC 1
 62
     7
420
 16777215
370
     9
100
AcDb2dPolyline
 66
     1
 10
0.0
 20
0.0
 30
0.0
  0
VERTEX
  5
75
330
74
100
AcDbEntity
  8
_U+30EC_U+30A4_U+30E4_U+30FC 1
 62
     7
420
 16777215
370
     9
100
AcDbVertex
100
AcDb2dVertex
 10
53.05206142430693
 20
-111.3472146943854
 30
0.0
  0
VERTEX
  5
76
330
74
100
AcDbEntity
  8
_U+30EC_U+30A4_U+30E4_U+30FC 1
 62
     7
420
 16777215
370
     9
100
AcDbVertex
100
AcDb2dVertex
 10
56.82237382811825
 20
-111.3472146943854
 30
0.0
  0
SEQEND
  5
77
330
74
100
AcDbEntity
  8
_U+30EC_U+30A4_U+30E4_U+30FC 1
 62
     7
420
 16777215
370
     9
  0
POLYLINE
  5
78
330
1F
100
AcDbEntity
  8
_U+30EC_U+30A4_U+30E4_U+30FC 1
 62
     7
420
 16777215
370
     9
100
AcDb2dPolyline
 66
     1
 10
0.0
 20
0.0
 30
0.0
  0
VERTEX
  5
79
330
78
100
AcDbEntity
  8
_U+30EC_U+30A4_U+30E4_U+30FC 1
 62
     7
420
 16777215
370
     9
100
AcDbVertex
100
AcDb2dVertex
 10
51.05216425310634
 20
-111.3472146943854
 30
0.0
  0
VERTEX
  5
7A
330
78
100
AcDbEntity
  8
_U+30EC_U+30A4_U+30E4_U+30FC 1
 62
     7
420
 16777215
370
     9
100
AcDbVertex
100
AcDb2dVertex
 10
53.05206142430693
 20
-111.3472146943854
 30
0.0
  0
SEQEND
  5
7B
330
78
100
AcDbEntity
  8
_U+30EC_U+30A4_U+30E4_U+30FC 1
 62
     7
420
 16777215
370
     9
  0
POLYLINE
  5
7C
330
1F
100
AcDbEntity
  8
_U+30EC_U+30A4_U+30E4_U+30FC 1
 62
     7
420
 16777215
370
     9
100
AcDb2dPolyline
 66
     1
 10
0.0
 20
0.0
 30
0.0
  0
VERTEX
  5
7D
330
7C
100
AcDbEntity
  8
_U+30EC_U+30A4_U+30E4_U+30FC 1
 62
     7
420
 16777215
370
     9
100
AcDbVertex
100
AcDb2dVertex
 10
52.05193644982224
 20
-112.8069033051317
 30
0.0
  0
VERTEX
  5
7E
330
7C
100
AcDbEntity
  8
_U+30EC_U+30A4_U+30E4_U+30FC 1
 62
     7
420
 16777215
370
     9
100
AcDbVertex
100
AcDb2dVertex
 10
52.05193644982224
 20
-110.3474424724132
 30
0.0
  0
SEQEND
  5
7F
330
7C
100
AcDbEntity
  8
_U+30EC_U+30A4_U+30E4_U+30FC 1
 62
     7
420
 16777215
370
     9
  0
POLYLINE
  5
80
330
1F
100
AcDbEntity
  8
_U+30EC_U+30A4_U+30E4_U+30FC 1
 62
     7
420
 16777215
370
     9
100
AcDb2dPolyline
 66
     1
 10
0.0
 20
0.0
 30
0.0
  0
VERTEX
  5
81
330
80
100
AcDbEntity
  8
_U+30EC_U+30A4_U+30E4_U+30FC 1
 62
     7
420
 16777215
370
     9
100
AcDbVertex
100
AcDb2dVertex
 10
53.23825753066779
 20
-112.8069033051317
 30
0.0
  0
VERTEX
  5
82
330
80
100
AcDbEntity
  8
_U+30EC_U+30A4_U+30E4_U+30FC 1
 62
     7
420
 16777215
370
     9
100
AcDbVertex
100
AcDb2dVertex
 10
53.23825753066779
 20
-110.3474424724132
 30
0.0
  0
SEQEND
  5
83
330
80
100
AcDbEntity
  8
_U+30EC_U+30A4_U+30E4_U+30FC 1
 62
     7
420
 16777215
370
     9
  0
INSERT
  5
85
330
1F
100
AcDbEntity
  8
_U+30EC_U+30A4_U+30E4_U+30FC 1
100
AcDbBlockReference
  2
block 2
 10
0.0
 20
0.0
 30
0.0
  0
POLYLINE
  5
94
330
1F
100
AcDbEntity
  8
_U+30EC_U+30A4_U+30E4_U+30FC 1
 62
     7
420
 16777215
370
     9
100
AcDb2dPolyline
 66
     1
 10
0.0
 20
0.0
 30
0.0
  0
VERTEX
  5
95
330
94
100
AcDbEntity
  8
_U+30EC_U+30A4_U+30E4_U+30FC 1
 62
     7
420
 16777215
370
     9
100
AcDbVertex
100
AcDb2dVertex
 10
131.3108352610926
 20
-145.3427157969977
 30
0.0
  0
VERTEX
  5
96
330
94
100
AcDbEntity
  8
_U+30EC_U+30A4_U+30E4_U+30FC 1
 62
     7
420
 16777215
370
     9
100
AcDbVertex
100
AcDb2dVertex
 10
131.3108352610926
 20
-142.3427288533034
 30
0.0
  0
SEQEND
  5
97
330
94
100
AcDbEntity
  8
_U+30EC_U+30A4_U+30E4_U+30FC 1
 62
     7
420
 16777215
370
     9
  0
POLYLINE
  5
98
330
1F
100
AcDbEntity
  8
_U+30EC_U+30A4_U+30E4_U+30FC 1
 62
     7
420
 16777215
370
     9
100
AcDb2dPolyline
 66
     1
 10
0.0
 20
0.0
 30
0.0
  0
VERTEX
  5
99
330
98
100
AcDbEntity
  8
_U+30EC_U+30A4_U+30E4_U+30FC 1
 62
     7
420
 16777215
370
     9
100
AcDbVertex
100
AcDb2dVertex
 10
129.8508291872294
 20
-145.3427157969977
 30
0.0
  0
VERTEX
  5
9A
330
98
100
AcDbEntity
  8
_U+30EC_U+30A4_U+30E4_U+30FC 1
 62
     7
420
 16777215
370
     9
100
AcDbVertex
100
AcDb2dVertex
 10
132.3113130133461
 20
-145.3427157969977
 30
0.0
  0
SEQEND
  5
9B
330
98
100
AcDbEntity
  8
_U+30EC_U+30A4_U+30E4_U+30FC 1
 62
     7
420
 16777215
370
     9
  0
POLYLINE
  5
9C
330
1F
100
AcDbEntity
  8
_U+30EC_U+30A4_U+30E4_U+30FC 1
 62
     7
420
 16777215
370
     9
100
AcDb2dPolyline
 66
     1
 10
0.0
 20
0.0
 30
0.0
  0
VERTEX
  5
9D
330
9C
100
AcDbEntity
  8
_U+30EC_U+30A4_U+30E4_U+30FC 1
 62
     7
420
 16777215
370
     9
100
AcDbVertex
100
AcDb2dVertex
 10
129.8508291872294
 20
-142.346856353302
 30
0.0
  0
VERTEX
  5
9E
330
9C
100
AcDbEntity
  8
_U+30EC_U+30A4_U+30E4_U+30FC 1
 62
     7
420
 16777215
370
     9
100
AcDbVertex
100
AcDb2dVertex
 10
132.3113130133461
 20
-142.346856353302
 30
0.0
  0
SEQEND
  5
9F
330
9C
100
AcDbEntity
  8
_U+30EC_U+30A4_U+30E4_U+30FC 1
 62
     7
420
 16777215
370
     9
  0
INSERT
  5
A1
330
1F
100
AcDbEntity
  8
_U+30EC_U+30A4_U+30E4_U+30FC 1
100
AcDbBlockReference
  2
block 3
 10
0.0
 20
0.0
 30
0.0
  0
POLYLINE
  5
A6
330
1F
100
AcDbEntity
  8
_U+30EC_U+30A4_U+30E4_U+30FC 1
 62
     7
420
 16777215
370
     9
100
AcDb2dPolyline
 66
     1
 10
0.0
 20
0.0
 30
0.0
  0
VERTEX
  5
A7
330
A6
100
AcDbEntity
  8
_U+30EC_U+30A4_U+30E4_U+30FC 1
 62
     7
420
 16777215
370
     9
100
AcDbVertex
100
AcDb2dVertex
 10
52.05193644982224
 20
-149.3431805182195
 30
0.0
  0
VERTEX
  5
A8
330
A6
100
AcDbEntity
  8
_U+30EC_U+30A4_U+30E4_U+30FC 1
 62
     7
420
 16777215
370
     9
100
AcDbVertex
100
AcDb2dVertex
 10
127.0609920361818
 20
-149.3431805182195
 30
0.0
  0
SEQEND
  5
A9
330
A6
100
AcDbEntity
  8
_U+30EC_U+30A4_U+30E4_U+30FC 1
 62
     7
420
 16777215
370
     9
  0
POLYLINE
  5
AA
330
1F
100
AcDbEntity
  8
_U+30EC_U+30A4_U+30E4_U+30FC 1
 62
     7
420
 16777215
370
     9
100
AcDb2dPolyline
 66
     1
 10
0.0
 20
0.0
 30
0.0
  0
VERTEX
  5
AB
330
AA
100
AcDbEntity
  8
_U+30EC_U+30A4_U+30E4_U+30FC 1
 62
     7
420
 16777215
370
     9
100
AcDbVertex
100
AcDb2dVertex
 10
52.05193644982224
 20
-147.882786351918
 30
0.0
  0
VERTEX
  5
AC
330
AA
100
AcDbEntity
  8
_U+30EC_U+30A4_U+30E4_U+30FC 1
 62
     7
420
 16777215
370
     9
100
AcDbVertex
100
AcDb2dVertex
 10
52.05193644982224
 20
-150.3429174624145
 30
0.0
  0
SEQEND
  5
AD
330
AA
100
AcDbEntity
  8
_U+30EC_U+30A4_U+30E4_U+30FC 1
 62
     7
420
 16777215
370
     9
  0
POLYLINE
  5
AE
330
1F
100
AcDbEntity
  8
_U+30EC_U+30A4_U+30E4_U+30FC 1
 62
     7
420
 16777215
370
     9
100
AcDb2dPolyline
 66
     1
 10
0.0
 20
0.0
 30
0.0
  0
VERTEX
  5
AF
330
AE
100
AcDbEntity
  8
_U+30EC_U+30A4_U+30E4_U+30FC 1
 62
     7
420
 16777215
370
     9
100
AcDbVertex
100
AcDb2dVertex
 10
127.0609920361818
 20
-147.882786351918
 30
0.0
  0
VERTEX
  5
B0
330
AE
100
AcDbEntity
  8
_U+30EC_U+30A4_U+30E4_U+30FC 1
 62
     7
420
 16777215
370
     9
100
AcDbVertex
100
AcDb2dVertex
 10
127.0609920361818
 20
-150.3429174624145
 30
0.0
  0
SEQEND
  5
B1
330
AE
100
AcDbEntity
  8
_U+30EC_U+30A4_U+30E4_U+30FC 1
 62
     7
420
 16777215
370
     9
  0
INSERT
  5
B3
330
1F
100
AcDbEntity
  8
_U+30EC_U+30A4_U+30E4_U+30FC 1
100
AcDbBlockReference
  2
block 4
 10
0.0
 20
0.0
 30
0.0
  0
POLYLINE
  5
BA
330
1F
100
AcDbEntity
  8
_U+30EC_U+30A4_U+30E4_U+30FC 1
 62
     7
420
 16777215
370
     9
100
AcDb2dPolyline
 66
     1
 10
0.0
 20
0.0
 30
0.0
  0
VERTEX
  5
BB
330
BA
100
AcDbEntity
  8
_U+30EC_U+30A4_U+30E4_U+30FC 1
 62
     7
420
 16777215
370
     9
100
AcDbVertex
100
AcDb2dVertex
 10
131.3108352610926
 20
-115.3469738600523
 30
0.0
  0
VERTEX
  5
BC
330
BA
100
AcDbEntity
  8
_U+30EC_U+30A4_U+30E4_U+30FC 1
 62
     7
420
 16777215
370
     9
100
AcDbVertex
100
AcDb2dVertex
 10
131.3108352610926
 20
-142.3427288533034
 30
0.0
  0
SEQEND
  5
BD
330
BA
100
AcDbEntity
  8
_U+30EC_U+30A4_U+30E4_U+30FC 1
 62
     7
420
 16777215
370
     9
  0
POLYLINE
  5
BE
330
1F
100
AcDbEntity
  8
_U+30EC_U+30A4_U+30E4_U+30FC 1
 62
     7
420
 16777215
370
     9
100
AcDb2dPolyline
 66
     1
 10
0.0
 20
0.0
 30
0.0
  0
VERTEX
  5
BF
330
BE
100
AcDbEntity
  8
_U+30EC_U+30A4_U+30E4_U+30FC 1
 62
     7
420
 16777215
370
     9
100
AcDbVertex
100
AcDb2dVertex
 10
55.84207496423887
 20
-115.3469738600523
 30
0.0
  0
VERTEX
  5
C0
330
BE
100
AcDbEntity
  8
_U+30EC_U+30A4_U+30E4_U+30FC 1
 62
     7
420
 16777215
370
     9
100
AcDbVertex
100
AcDb2dVertex
 10
132.3113130133461
 20
-115.3469738600523
 30
0.0
  0
SEQEND
  5
C1
330
BE
100
AcDbEntity
  8
_U+30EC_U+30A4_U+30E4_U+30FC 1
 62
     7
420
 16777215
370
     9
  0
INSERT
  5
C3
330
1F
100
AcDbEntity
  8
_U+30EC_U+30A4_U+30E4_U+30FC 1
100
AcDbBlockReference
  2
block 5
 10
0.0
 20
0.0
 30
0.0
  0
ENDSEC
  0
SECTION
  2
OBJECTS
  0
DICTIONARY
  5
C
330
0
100
AcDbDictionary
281
     1
  3
ACAD_GROUP
350
D
  3
ACAD_LAYOUT
350
1A
  3
ACAD_MATERIAL
350
3B
  3
ACAD_MLEADERSTYLE
350
CB
  3
ACAD_MLINESTYLE
350
17
  3
ACAD_PLOTSETTINGS
350
19
  3
ACAD_PLOTSTYLENAME
350
E
  3
ACAD_TABLESTYLE
350
CA
  3
ACAD_VISUALSTYLE
350
2A
  0
SUN
  5
3F
330
29
100
AcDbSun
 90
        1
290
     0
 63
     7
421
 16777215
 40
1.0
291
     1
 91
  2455826
 92
 54000000
292
     0
 70
     2
 71
   256
280
     1
  0
DICTIONARY
  5
D
102
{ACAD_REACTORS
330
C
102
}
330
C
100
AcDbDictionary
281
     1
  0
DICTIONARY
  5
1A
102
{ACAD_REACTORS
330
C
102
}
330
C
100
AcDbDictionary
281
     1
  3
Layout1
350
1E
  3
Layout2
350
26
  3
Model
350
22
  0
DICTIONARY
  5
3B
102
{ACAD_REACTORS
330
C
102
}
330
C
100
AcDbDictionary
281
     1
  3
ByBlock
350
3D
  3
ByLayer
350
3C
  3
Global
350
3E
  0
DICTIONARY
  5
CB
102
{ACAD_REACTORS
330
C
102
}
330
C
100
AcDbDictionary
281
     1
  0
DICTIONARY
  5
17
102
{ACAD_REACTORS
330
C
102
}
330
C
100
AcDbDictionary
281
     1
  3
Standard
350
18
  0
DICTIONARY
  5
19
102
{ACAD_REACTORS
330
C
102
}
330
C
100
AcDbDictionary
281
     1
  0
ACDBDICTIONARYWDFLT
  5
E
102
{ACAD_REACTORS
330
C
102
}
330
C
100
AcDbDictionary
281
     1
  3
Normal
350
F
100
AcDbDictionaryWithDefault
340
F
  0
DICTIONARY
  5
CA
102
{ACAD_REACTORS
330
C
102
}
330
C
100
AcDbDictionary
281
     1
  0
DICTIONARY
  5
2A
102
{ACAD_REACTORS
330
C
102
}
330
C
100
AcDbDictionary
281
     1
  3
2dWireframe
350
2F
  3
3D Hidden
350
31
  3
3dWireframe
350
30
  3
Basic
350
32
  3
Brighten
350
36
  3
ColorChange
350
3A
  3
Conceptual
350
34
  3
Dim
350
35
  3
Facepattern
350
39
  3
Flat
350
2B
  3
FlatWithEdges
350
2C
  3
Gouraud
350
2D
  3
GouraudWithEdges
350
2E
  3
Linepattern
350
38
  3
Realistic
350
33
  3
Thicken
350
37
  0
LAYOUT
  5
1E
102
{ACAD_REACTORS
330
1A
102
}
330
1A
100
AcDbPlotSettings
  1

  2
none_device
  4

  6

 40
0.0
 41
0.0
 42
0.0
 43
0.0
 44
0.0
 45
0.0
 46
0.0
 47
0.0
 48
0.0
 49
0.0
140
0.0
141
0.0
142
1.0
143
1.0
 70
   688
 72
     0
 73
     0
 74
     5
  7

 75
    16
 76
     0
 77
     2
 78
   300
147
1.0
148
0.0
149
0.0
100
AcDbLayout
  1
Layout1
 70
     1
 71
     1
 10
0.0
 20
0.0
 11
12.0
 21
9.0
 12
0.0
 22
0.0
 32
0.0
 14
1.000000000000000E+20
 24
1.000000000000000E+20
 34
1.000000000000000E+20
 15
-1.000000000000000E+20
 25
-1.000000000000000E+20
 35
-1.000000000000000E+20
146
0.0
 13
0.0
 23
0.0
 33
0.0
 16
1.0
 26
0.0
 36
0.0
 17
0.0
 27
1.0
 37
0.0
 76
     0
330
1B
  0
LAYOUT
  5
26
102
{ACAD_REACTORS
330
1A
102
}
330
1A
100
AcDbPlotSettings
  1

  2
none_device
  4

  6

 40
0.0
 41
0.0
 42
0.0
 43
0.0
 44
0.0
 45
0.0
 46
0.0
 47
0.0
 48
0.0
 49
0.0
140
0.0
141
0.0
142
1.0
143
1.0
 70
   688
 72
     0
 73
     0
 74
     5
  7

 75
    16
 76
     0
 77
     2
 78
   300
147
1.0
148
0.0
149
0.0
100
AcDbLayout
  1
Layout2
 70
     1
 71
     2
 10
0.0
 20
0.0
 11
0.0
 21
0.0
 12
0.0
 22
0.0
 32
0.0
 14
0.0
 24
0.0
 34
0.0
 15
0.0
 25
0.0
 35
0.0
146
0.0
 13
0.0
 23
0.0
 33
0.0
 16
1.0
 26
0.0
 36
0.0
 17
0.0
 27
1.0
 37
0.0
 76
     0
330
23
  0
LAYOUT
  5
22
102
{ACAD_REACTORS
330
1A
102
}
330
1A
100
AcDbPlotSettings
  1

  2
none_device
  4

  6

 40
0.0
 41
0.0
 42
0.0
 43
0.0
 44
0.0
 45
0.0
 46
0.0
 47
0.0
 48
0.0
 49
0.0
140
0.0
141
0.0
142
1.0
143
1.0
 70
  1712
 72
     0
 73
     0
 74
     0
  7

 75
     0
 76
     0
 77
     2
 78
   300
147
1.0
148
0.0
149
0.0
100
AcDbLayout
  1
Model
 70
     1
 71
     0
 10
0.0
 20
0.0
 11
12.0
 21
9.0
 12
0.0
 22
0.0
 32
0.0
 14
1.000000000000000E+20
 24
1.000000000000000E+20
 34
1.000000000000000E+20
 15
-1.000000000000000E+20
 25
-1.000000000000000E+20
 35
-1.000000000000000E+20
146
0.0
 13
0.0
 23
0.0
 33
0.0
 16
1.0
 26
0.0
 36
0.0
 17
0.0
 27
1.0
 37
0.0
 76
     0
330
1F
331
29
  0
MATERIAL
  5
3D
102
{ACAD_REACTORS
330
3B
102
}
330
3B
100
AcDbMaterial
  1
ByBlock
 72
     1
 94
      127
  0
MATERIAL
  5
3C
102
{ACAD_REACTORS
330
3B
102
}
330
3B
100
AcDbMaterial
  1
ByLayer
 72
     1
 94
      127
  0
MATERIAL
  5
3E
102
{ACAD_REACTORS
330
3B
102
}
330
3B
100
AcDbMaterial
  1
Global
 72
     1
 94
      127
  0
MLINESTYLE
  5
18
102
{ACAD_REACTORS
330
17
102
}
330
17
100
AcDbMlineStyle
  2
Standard
 70
     0
  3

 62
   256
 51
90.0
 52
90.0
 71
     2
 49
0.5
 62
   256
  6
BYLAYER
 49
-0.5
 62
   256
  6
BYLAYER
  0
ACDBPLACEHOLDER
  5
F
102
{ACAD_REACTORS
330
E
102
}
330
E
  0
VISUALSTYLE
  5
2F
102
{ACAD_REACTORS
330
2A
102
}
330
2A
100
AcDbVisualStyle
  2
2dWireframe
 70
     4
177
     2
291
     0
 71
     0
176
     1
 72
     2
176
     1
 73
     0
176
     1
 90
        0
176
     1
 40
-0.6
176
     1
 41
-30.0
176
     1
 62
     5
 63
     7
421
 16777215
176
     1
 74
     1
176
     1
 91
        4
176
     1
 64
     7
176
     1
 65
   257
176
     1
 75
     1
176
     1
175
     1
176
     1
 42
1.0
176
     1
 92
        0
176
     1
 66
   257
176
     1
 43
1.0
176
     1
 76
     1
176
     1
 77
     6
176
     1
 78
     2
176
     1
 67
     7
176
     1
 79
     5
176
     1
170
     0
176
     1
171
     0
176
     1
290
     0
176
     1
 93
        1
176
     1
 44
0.0
176
     1
173
     0
176
     1
  0
VISUALSTYLE
  5
31
102
{ACAD_REACTORS
330
2A
102
}
330
2A
100
AcDbVisualStyle
  2
3D Hidden
 70
     6
177
     2
291
     0
 71
     1
176
     1
 72
     2
176
     1
 73
     2
176
     1
 90
        0
176
     1
 40
-0.6
176
     1
 41
-30.0
176
     1
 62
     5
 63
     7
421
 16777215
176
     1
 74
     2
176
     1
 91
        2
176
     1
 64
     7
176
     1
 65
   257
176
     1
 75
     2
176
     1
175
     1
176
     1
 42
40.0
176
     1
 92
        0
176
     1
 66
   257
176
     1
 43
1.0
176
     1
 76
     1
176
     1
 77
     6
176
     1
 78
     2
176
     1
 67
     7
176
     1
 79
     3
176
     1
170
     0
176
     1
171
     0
176
     1
290
     0
176
     1
 93
        1
176
     1
 44
0.0
176
     1
173
     0
176
     1
  0
VISUALSTYLE
  5
30
102
{ACAD_REACTORS
330
2A
102
}
330
2A
100
AcDbVisualStyle
  2
3dWireframe
 70
     5
177
     2
291
     0
 71
     0
176
     1
 72
     2
176
     1
 73
     0
176
     1
 90
        0
176
     1
 40
-0.6
176
     1
 41
-30.0
176
     1
 62
     5
 63
     7
421
 16777215
176
     1
 74
     1
176
     1
 91
        4
176
     1
 64
     7
176
     1
 65
   257
176
     1
 75
     1
176
     1
175
     1
176
     1
 42
1.0
176
     1
 92
        0
176
     1
 66
   257
176
     1
 43
1.0
176
     1
 76
     1
176
     1
 77
     6
176
     1
 78
     2
176
     1
 67
     7
176
     1
 79
     5
176
     1
170
     0
176
     1
171
     0
176
     1
290
     0
176
     1
 93
        1
176
     1
 44
0.0
176
     1
173
     0
176
     1
  0
VISUALSTYLE
  5
32
102
{ACAD_REACTORS
330
2A
102
}
330
2A
100
AcDbVisualStyle
  2
Basic
 70
     7
177
     2
291
     1
 71
     1
176
     1
 72
     0
176
     1
 73
     1
176
     1
 90
        0
176
     1
 40
-0.6
176
     1
 41
-30.0
176
     1
 62
     5
 63
     7
421
 16777215
176
     1
 74
     0
176
     1
 91
        4
176
     1
 64
     7
176
     1
 65
   257
176
     1
 75
     1
176
     1
175
     1
176
     1
 42
1.0
176
     1
 92
        8
176
     1
 66
     7
176
     1
 43
1.0
176
     1
 76
     1
176
     1
 77
     6
176
     1
 78
     2
176
     1
 67
     7
176
     1
 79
     5
176
     1
170
     0
176
     1
171
     0
176
     1
290
     0
176
     1
 93
        1
176
     1
 44
0.0
176
     1
173
     0
176
     1
  0
VISUALSTYLE
  5
36
102
{ACAD_REACTORS
330
2A
102
}
330
2A
100
AcDbVisualStyle
  2
Brighten
 70
    12
177
     2
291
     1
 71
     2
176
     1
 72
     2
176
     1
 73
     0
176
     1
 90
        0
176
     1
 40
-0.6
176
     1
 41
-30.0
176
     1
 62
     5
 63
     7
421
 16777215
176
     1
 74
     1
176
     1
 91
        4
176
     1
 64
     7
176
     1
 65
   257
176
     1
 75
     1
176
     1
175
     1
176
     1
 42
1.0
176
     1
 92
        8
176
     1
 66
     7
176
     1
 43
1.0
176
     1
 76
     1
176
     1
 77
     6
176
     1
 78
     2
176
     1
 67
     7
176
     1
 79
     5
176
     1
170
     0
176
     1
171
     0
176
     1
290
     0
176
     1
 93
        1
176
     1
 44
50.0
176
     1
173
     0
176
     1
  0
VISUALSTYLE
  5
3A
102
{ACAD_REACTORS
330
2A
102
}
330
2A
100
AcDbVisualStyle
  2
ColorChange
 70
    16
177
     2
291
     1
 71
     2
176
     1
 72
     2
176
     1
 73
     3
176
     1
 90
        0
176
     1
 40
-0.6
176
     1
 41
-30.0
176
     1
 62
     5
 63
     8
421
  8421504
176
     1
 74
     1
176
     1
 91
        4
176
     1
 64
     7
176
     1
 65
   257
176
     1
 75
     1
176
     1
175
     1
176
     1
 42
1.0
176
     1
 92
        8
176
     1
 66
     8
424
  8421504
176
     1
 43
1.0
176
     1
 76
     1
176
     1
 77
     6
176
     1
 78
     2
176
     1
 67
     7
176
     1
 79
     5
176
     1
170
     0
176
     1
171
     0
176
     1
290
     0
176
     1
 93
        1
176
     1
 44
0.0
176
     1
173
     0
176
     1
  0
VISUALSTYLE
  5
34
102
{ACAD_REACTORS
330
2A
102
}
330
2A
100
AcDbVisualStyle
  2
Conceptual
 70
     9
177
     2
291
     0
 71
     3
176
     1
 72
     2
176
     1
 73
     0
176
     1
 90
        0
176
     1
 40
-0.6
176
     1
 41
-30.0
176
     1
 62
     5
 63
     7
421
 16777215
176
     1
 74
     2
176
     1
 91
        2
176
     1
 64
     7
176
     1
 65
   257
176
     1
 75
     1
176
     1
175
     1
176
     1
 42
40.0
176
     1
 92
        8
176
     1
 66
     7
176
     1
 43
1.0
176
     1
 76
     1
176
     1
 77
     6
176
     1
 78
     2
176
     1
 67
     7
176
     1
 79
     3
176
     1
170
     0
176
     1
171
     0
176
     1
290
     0
176
     1
 93
        1
176
     1
 44
0.0
176
     1
173
     0
176
     1
  0
VISUALSTYLE
  5
35
102
{ACAD_REACTORS
330
2A
102
}
330
2A
100
AcDbVisualStyle
  2
Dim
 70
    11
177
     2
291
     1
 71
     2
176
     1
 72
     2
176
     1
 73
     0
176
     1
 90
        0
176
     1
 40
-0.6
176
     1
 41
-30.0
176
     1
 62
     5
 63
     7
421
 16777215
176
     1
 74
     1
176
     1
 91
        4
176
     1
 64
     7
176
     1
 65
   257
176
     1
 75
     1
176
     1
175
     1
176
     1
 42
1.0
176
     1
 92
        8
176
     1
 66
     7
176
     1
 43
1.0
176
     1
 76
     1
176
     1
 77
     6
176
     1
 78
     2
176
     1
 67
     7
176
     1
 79
     5
176
     1
170
     0
176
     1
171
     0
176
     1
290
     0
176
     1
 93
        1
176
     1
 44
-50.0
176
     1
173
     0
176
     1
  0
VISUALSTYLE
  5
39
102
{ACAD_REACTORS
330
2A
102
}
330
2A
100
AcDbVisualStyle
  2
Facepattern
 70
    15
177
     2
291
     1
 71
     2
176
     1
 72
     2
176
     1
 73
     0
176
     1
 90
        0
176
     1
 40
-0.6
176
     1
 41
-30.0
176
     1
 62
     5
 63
     7
421
 16777215
176
     1
 74
     1
176
     1
 91
        4
176
     1
 64
     7
176
     1
 65
   257
176
     1
 75
     1
176
     1
175
     1
176
     1
 42
1.0
176
     1
 92
        8
176
     1
 66
     7
176
     1
 43
1.0
176
     1
 76
     1
176
     1
 77
     6
176
     1
 78
     2
176
     1
 67
     7
176
     1
 79
     5
176
     1
170
     0
176
     1
171
     0
176
     1
290
     0
176
     1
 93
        1
176
     1
 44
0.0
176
     1
173
     0
176
     1
  0
VISUALSTYLE
  5
2B
102
{ACAD_REACTORS
330
2A
102
}
330
2A
100
AcDbVisualStyle
  2
Flat
 70
     0
177
     2
291
     1
 71
     2
176
     1
 72
     1
176
     1
 73
     1
176
     1
 90
        2
176
     1
 40
-0.6
176
     1
 41
30.0
176
     1
 62
     5
 63
     7
421
 16777215
176
     1
 74
     0
176
     1
 91
        4
176
     1
 64
     7
176
     1
 65
   257
176
     1
 75
     1
176
     1
175
     1
176
     1
 42
1.0
176
     1
 92
        8
176
     1
 66
     7
176
     1
 43
1.0
176
     1
 76
     1
176
     1
 77
     6
176
     1
 78
     2
176
     1
 67
     7
176
     1
 79
     5
176
     1
170
     0
176
     1
171
     0
176
     1
290
     0
176
     1
 93
       13
176
     1
 44
0.0
176
     1
173
     0
176
     1
  0
VISUALSTYLE
  5
2C
102
{ACAD_REACTORS
330
2A
102
}
330
2A
100
AcDbVisualStyle
  2
FlatWithEdges
 70
     1
177
     2
291
     1
 71
     2
176
     1
 72
     1
176
     1
 73
     1
176
     1
 90
        2
176
     1
 40
-0.6
176
     1
 41
30.0
176
     1
 62
     5
 63
     7
421
 16777215
176
     1
 74
     1
176
     1
 91
        4
176
     1
 64
     7
176
     1
 65
   257
176
     1
 75
     1
176
     1
175
     1
176
     1
 42
1.0
176
     1
 92
        0
176
     1
 66
   257
176
     1
 43
1.0
176
     1
 76
     1
176
     1
 77
     6
176
     1
 78
     2
176
     1
 67
     7
176
     1
 79
     5
176
     1
170
     0
176
     1
171
     0
176
     1
290
     0
176
     1
 93
       13
176
     1
 44
0.0
176
     1
173
     0
176
     1
  0
VISUALSTYLE
  5
2D
102
{ACAD_REACTORS
330
2A
102
}
330
2A
100
AcDbVisualStyle
  2
Gouraud
 70
     2
177
     2
291
     1
 71
     2
176
     1
 72
     2
176
     1
 73
     1
176
     1
 90
        2
176
     1
 40
-0.6
176
     1
 41
30.0
176
     1
 62
     5
 63
     7
421
 16777215
176
     1
 74
     0
176
     1
 91
        4
176
     1
 64
     7
176
     1
 65
   257
176
     1
 75
     1
176
     1
175
     1
176
     1
 42
1.0
176
     1
 92
        0
176
     1
 66
     7
176
     1
 43
1.0
176
     1
 76
     1
176
     1
 77
     6
176
     1
 78
     2
176
     1
 67
     7
176
     1
 79
     5
176
     1
170
     0
176
     1
171
     0
176
     1
290
     0
176
     1
 93
       13
176
     1
 44
0.0
176
     1
173
     0
176
     1
  0
VISUALSTYLE
  5
2E
102
{ACAD_REACTORS
330
2A
102
}
330
2A
100
AcDbVisualStyle
  2
GouraudWithEdges
 70
     3
177
     2
291
     1
 71
     2
176
     1
 72
     2
176
     1
 73
     1
176
     1
 90
        2
176
     1
 40
-0.6
176
     1
 41
30.0
176
     1
 62
     5
 63
     7
421
 16777215
176
     1
 74
     1
176
     1
 91
        4
176
     1
 64
     7
176
     1
 65
   257
176
     1
 75
     1
176
     1
175
     1
176
     1
 42
1.0
176
     1
 92
        0
176
     1
 66
   257
176
     1
 43
1.0
176
     1
 76
     1
176
     1
 77
     6
176
     1
 78
     2
176
     1
 67
     7
176
     1
 79
     5
176
     1
170
     0
176
     1
171
     0
176
     1
290
     0
176
     1
 93
       13
176
     1
 44
0.0
176
     1
173
     0
176
     1
  0
VISUALSTYLE
  5
38
102
{ACAD_REACTORS
330
2A
102
}
330
2A
100
AcDbVisualStyle
  2
Linepattern
 70
    14
177
     2
291
     1
 71
     2
176
     1
 72
     2
176
     1
 73
     0
176
     1
 90
        0
176
     1
 40
-0.6
176
     1
 41
-30.0
176
     1
 62
     5
 63
     7
421
 16777215
176
     1
 74
     1
176
     1
 91
        4
176
     1
 64
     7
176
     1
 65
   257
176
     1
 75
     7
176
     1
175
     7
176
     1
 42
1.0
176
     1
 92
        8
176
     1
 66
     7
176
     1
 43
1.0
176
     1
 76
     1
176
     1
 77
     6
176
     1
 78
     2
176
     1
 67
     7
176
     1
 79
     5
176
     1
170
     0
176
     1
171
     0
176
     1
290
     0
176
     1
 93
        1
176
     1
 44
0.0
176
     1
173
     0
176
     1
  0
VISUALSTYLE
  5
33
102
{ACAD_REACTORS
330
2A
102
}
330
2A
100
AcDbVisualStyle
  2
Realistic
 70
     8
177
     2
291
     0
 71
     2
176
     1
 72
     2
176
     1
 73
     0
176
     1
 90
        0
176
     1
 40
-0.6
176
     1
 41
-30.0
176
     1
 62
     5
 63
     7
421
 16777215
176
     1
 74
     1
176
     1
 91
        0
176
     1
 64
     7
176
     1
 65
   257
176
     1
 75
     1
176
     1
175
     1
176
     1
 42
1.0
176
     1
 92
        8
176
     1
 66
     8
424
  7895160
176
     1
 43
1.0
176
     1
 76
     1
176
     1
 77
     6
176
     1
 78
     2
176
     1
 67
     7
176
     1
 79
     5
176
     1
170
     0
176
     1
171
     0
176
     1
290
     0
176
     1
 93
       13
176
     1
 44
0.0
176
     1
173
     0
176
     1
  0
VISUALSTYLE
  5
37
102
{ACAD_REACTORS
330
2A
102
}
330
2A
100
AcDbVisualStyle
  2
Thicken
 70
    13
177
     2
291
     1
 71
     2
176
     1
 72
     2
176
     1
 73
     0
176
     1
 90
        0
176
     1
 40
-0.6
176
     1
 41
-30.0
176
     1
 62
     5
 63
     7
421
 16777215
176
     1
 74
     1
176
     1
 91
        4
176
     1
 64
     7
176
     1
 65
   257
176
     1
 75
     1
176
     1
175
     1
176
     1
 42
1.0
176
     1
 92
       12
176
     1
 66
     7
176
     1
 43
1.0
176
     1
 76
     1
176
     1
 77
     6
176
     1
 78
     2
176
     1
 67
     7
176
     1
 79
     5
176
     1
170
     0
176
     1
171
     0
176
     1
290
     0
176
     1
 93
        1
176
     1
 44
0.0
176
     1
173
     0
176
     1
  0
ENDSEC
  0
EOF
