  0
SECTION
  2
HEADER
  9
$ACADVER
  1
AC1024
  9
$ACADMAINTVER
 70
     6
  9
$DWGCODEPAGE
  3
UNDEFINED
  9
$INSBASE
 10
0.0
 20
0.0
 30
0.0
  9
$EXTMIN
 10
1.000000000000000E+20
 20
1.000000000000000E+20
 30
1.000000000000000E+20
  9
$EXTMAX
 10
-1.000000000000000E+20
 20
-1.000000000000000E+20
 30
-1.000000000000000E+20
  9
$LIMMIN
 10
0.0
 20
0.0
  9
$LIMMAX
 10
12.0
 20
9.0
  9
$ORTHOMODE
 70
     0
  9
$REGENMODE
 70
     1
  9
$FILLMODE
 70
     1
  9
$QTEXTMODE
 70
     0
  9
$MIRRTEXT
 70
     1
  9
$LTSCALE
 40
1.0
  9
$ATTMODE
 70
     1
  9
$TEXTSIZE
 40
0.2
  9
$TRACEWID
 40
0.05
  9
$TEXTSTYLE
  7
Standard
  9
$CLAYER
  8
0
  9
$CELTYPE
  6
ByLayer
  9
$CECOLOR
 62
   256
  9
$CELTSCALE
 40
1.0
  9
$DISPSILH
 70
     0
  9
$DIMSCALE
 40
1.0
  9
$DIMASZ
 40
0.18
  9
$DIMEXO
 40
0.0625
  9
$DIMDLI
 40
0.38
  9
$DIMRND
 40
0.0
  9
$DIMDLE
 40
0.0
  9
$DIMEXE
 40
0.18
  9
$DIMTP
 40
0.0
  9
$DIMTM
 40
0.0
  9
$DIMTXT
 40
0.18
  9
$DIMCEN
 40
0.09
  9
$DIMTSZ
 40
0.0
  9
$DIMTOL
 70
     0
  9
$DIMLIM
 70
     0
  9
$DIMTIH
 70
     1
  9
$DIMTOH
 70
     1
  9
$DIMSE1
 70
     0
  9
$DIMSE2
 70
     0
  9
$DIMTAD
 70
     0
  9
$DIMZIN
 70
     0
  9
$DIMBLK
  1

  9
$DIMASO
 70
     1
  9
$DIMSHO
 70
     1
  9
$DIMPOST
  1

  9
$DIMAPOST
  1

  9
$DIMALT
 70
     0
  9
$DIMALTD
 70
     2
  9
$DIMALTF
 40
25.4
  9
$DIMLFAC
 40
1.0
  9
$DIMTOFL
 70
     0
  9
$DIMTVP
 40
0.0
  9
$DIMTIX
 70
     0
  9
$DIMSOXD
 70
     0
  9
$DIMSAH
 70
     0
  9
$DIMBLK1
  1

  9
$DIMBLK2
  1

  9
$DIMSTYLE
  2
Standard
  9
$DIMCLRD
 70
     0
  9
$DIMCLRE
 70
     0
  9
$DIMCLRT
 70
     0
  9
$DIMTFAC
 40
1.0
  9
$DIMGAP
 40
0.09
  9
$DIMJUST
 70
     0
  9
$DIMSD1
 70
     0
  9
$DIMSD2
 70
     0
  9
$DIMTOLJ
 70
     1
  9
$DIMTZIN
 70
     0
  9
$DIMALTZ
 70
     0
  9
$DIMALTTZ
 70
     0
  9
$DIMUPT
 70
     0
  9
$DIMDEC
 70
     4
  9
$DIMTDEC
 70
     4
  9
$DIMALTU
 70
     2
  9
$DIMALTTD
 70
     2
  9
$DIMTXSTY
  7
Standard
  9
$DIMAUNIT
 70
     0
  9
$DIMADEC
 70
     0
  9
$DIMALTRND
 40
0.0
  9
$DIMAZIN
 70
     0
  9
$DIMDSEP
 70
    46
  9
$DIMATFIT
 70
     3
  9
$DIMFRAC
 70
     0
  9
$DIMLDRBLK
  1

  9
$DIMLUNIT
 70
     2
  9
$DIMLWD
 70
    -2
  9
$DIMLWE
 70
    -2
  9
$DIMTMOVE
 70
     0
  9
$DIMFXL
 40
1.0
  9
$DIMFXLON
 70
     0
  9
$DIMJOGANG
 40
0.7853981633974483
  9
$DIMTFILL
 70
     0
  9
$DIMTFILLCLR
 70
     0
  9
$DIMARCSYM
 70
     0
  9
$DIMLTYPE
  6

  9
$DIMLTEX1
  6

  9
$DIMLTEX2
  6

  9
$DIMTXTDIRECTION
 70
     0
  9
$LUNITS
 70
     2
  9
$LUPREC
 70
     4
  9
$SKETCHINC
 40
0.1
  9
$FILLETRAD
 40
0.5
  9
$AUNITS
 70
     0
  9
$AUPREC
 70
     0
  9
$MENU
  1
.
  9
$ELEVATION
 40
0.0
  9
$PELEVATION
 40
0.0
  9
$THICKNESS
 40
0.0
  9
$LIMCHECK
 70
     0
  9
$CHAMFERA
 40
0.5
  9
$CHAMFERB
 40
0.5
  9
$CHAMFERC
 40
1.0
  9
$CHAMFERD
 40
0.0
  9
$SKPOLY
 70
     0
  9
$TDCREATE
 40
2457917.611874988
  9
$TDUCREATE
 40
2457917.236875
  9
$TDUPDATE
 40
2457917.611874988
  9
$TDUUPDATE
 40
2457917.236875
  9
$TDINDWG
 40
0.0000000116
  9
$TDUSRTIMER
 40
0.0000000116
  9
$USRTIMER
 70
     1
  9
$ANGBASE
 50
0.0
  9
$ANGDIR
 70
     0
  9
$PDMODE
 70
     0
  9
$PDSIZE
 40
0.0
  9
$PLINEWID
 40
0.0
  9
$SPLFRAME
 70
     0
  9
$SPLINETYPE
 70
     6
  9
$SPLINESEGS
 70
     8
  9
$HANDSEED
  5
E4
  9
$SURFTAB1
 70
     6
  9
$SURFTAB2
 70
     6
  9
$SURFTYPE
 70
     6
  9
$SURFU
 70
     6
  9
$SURFV
 70
     6
  9
$UCSBASE
  2

  9
$UCSNAME
  2

  9
$UCSORG
 10
0.0
 20
0.0
 30
0.0
  9
$UCSXDIR
 10
1.0
 20
0.0
 30
0.0
  9
$UCSYDIR
 10
0.0
 20
1.0
 30
0.0
  9
$UCSORTHOREF
  2

  9
$UCSORTHOVIEW
 70
     0
  9
$UCSORGTOP
 10
0.0
 20
0.0
 30
0.0
  9
$UCSORGBOTTOM
 10
0.0
 20
0.0
 30
0.0
  9
$UCSORGLEFT
 10
0.0
 20
0.0
 30
0.0
  9
$UCSORGRIGHT
 10
0.0
 20
0.0
 30
0.0
  9
$UCSORGFRONT
 10
0.0
 20
0.0
 30
0.0
  9
$UCSORGBACK
 10
0.0
 20
0.0
 30
0.0
  9
$PUCSBASE
  2

  9
$PUCSNAME
  2

  9
$PUCSORG
 10
0.0
 20
0.0
 30
0.0
  9
$PUCSXDIR
 10
1.0
 20
0.0
 30
0.0
  9
$PUCSYDIR
 10
0.0
 20
1.0
 30
0.0
  9
$PUCSORTHOREF
  2

  9
$PUCSORTHOVIEW
 70
     0
  9
$PUCSORGTOP
 10
0.0
 20
0.0
 30
0.0
  9
$PUCSORGBOTTOM
 10
0.0
 20
0.0
 30
0.0
  9
$PUCSORGLEFT
 10
0.0
 20
0.0
 30
0.0
  9
$PUCSORGRIGHT
 10
0.0
 20
0.0
 30
0.0
  9
$PUCSORGFRONT
 10
0.0
 20
0.0
 30
0.0
  9
$PUCSORGBACK
 10
0.0
 20
0.0
 30
0.0
  9
$USERI1
 70
     0
  9
$USERI2
 70
     0
  9
$USERI3
 70
     0
  9
$USERI4
 70
     0
  9
$USERI5
 70
     0
  9
$USERR1
 40
0.0
  9
$USERR2
 40
0.0
  9
$USERR3
 40
0.0
  9
$USERR4
 40
0.0
  9
$USERR5
 40
0.0
  9
$WORLDVIEW
 70
     1
  9
$SHADEDGE
 70
     3
  9
$SHADEDIF
 70
    70
  9
$TILEMODE
 70
     1
  9
$MAXACTVP
 70
    64
  9
$PINSBASE
 10
0.0
 20
0.0
 30
0.0
  9
$PLIMCHECK
 70
     0
  9
$PEXTMIN
 10
1.000000000000000E+20
 20
1.000000000000000E+20
 30
1.000000000000000E+20
  9
$PEXTMAX
 10
-1.000000000000000E+20
 20
-1.000000000000000E+20
 30
-1.000000000000000E+20
  9
$PLIMMIN
 10
0.0
 20
0.0
  9
$PLIMMAX
 10
12.0
 20
9.0
  9
$UNITMODE
 70
     0
  9
$VISRETAIN
 70
     1
  9
$PLINEGEN
 70
     0
  9
$PSLTSCALE
 70
     1
  9
$TREEDEPTH
 70
  3020
  9
$CMLSTYLE
  2
Standard
  9
$CMLJUST
 70
     0
  9
$CMLSCALE
 40
1.0
  9
$PROXYGRAPHICS
 70
     1
  9
$MEASUREMENT
 70
     0
  9
$CELWEIGHT
370
    -1
  9
$ENDCAPS
280
     0
  9
$JOINSTYLE
280
     0
  9
$LWDISPLAY
290
     1
  9
$INSUNITS
 70
     1
  9
$HYPERLINKBASE
  1

  9
$STYLESHEET
  1

  9
$XEDIT
290
     1
  9
$CEPSNTYPE
380
     0
  9
$PSTYLEMODE
290
     1
  9
$FINGERPRINTGUID
  2
{3A55B8AF-4CAF-B037-14AA-CD5A6A444761}
  9
$VERSIONGUID
  2
{FAEB1C32-E019-11D5-929B-00C0DF256EC4}
  9
$EXTNAMES
290
     1
  9
$PSVPSCALE
 40
0.0
  9
$OLESTARTUP
290
     0
  9
$SORTENTS
280
   127
  9
$INDEXCTL
280
     0
  9
$HIDETEXT
280
     1
  9
$XCLIPFRAME
280
     2
  9
$HALOGAP
280
     0
  9
$OBSCOLOR
 70
   257
  9
$OBSLTYPE
280
     0
  9
$INTERSECTIONDISPLAY
280
     0
  9
$INTERSECTIONCOLOR
 70
   257
  9
$DIMASSOC
280
     2
  9
$PROJECTNAME
  1

  9
$CAMERADISPLAY
290
     0
  9
$LENSLENGTH
 40
50.0
  9
$CAMERAHEIGHT
 40
0.0
  9
$STEPSPERSEC
 40
2.0
  9
$STEPSIZE
 40
6.0
  9
$3DDWFPREC
 40
2.0
  9
$PSOLWIDTH
 40
0.25
  9
$PSOLHEIGHT
 40
4.0
  9
$LOFTANG1
 40
1.570796326794897
  9
$LOFTANG2
 40
1.570796326794897
  9
$LOFTMAG1
 40
0.0
  9
$LOFTMAG2
 40
0.0
  9
$LOFTPARAM
 70
     7
  9
$LOFTNORMALS
280
     1
  9
$LATITUDE
 40
37.795
  9
$LONGITUDE
 40
-122.394
  9
$NORTHDIRECTION
 40
0.0
  9
$TIMEZONE
 70
 -8000
  9
$LIGHTGLYPHDISPLAY
280
     1
  9
$TILEMODELIGHTSYNCH
280
     1
  9
$CMATERIAL
347
3C
  9
$SOLIDHIST
280
     1
  9
$SHOWHIST
280
     1
  9
$DWFFRAME
280
     2
  9
$DGNFRAME
280
     2
  9
$REALWORLDSCALE
290
     1
  9
$INTERFERECOLOR
 62
   256
  9
$CSHADOW
280
     0
  9
$SHADOWPLANELOCATION
 40
0.0
  0
ENDSEC
  0
SECTION
  2
CLASSES
  0
CLASS
  1
ACDBDICTIONARYWDFLT
  2
AcDbDictionaryWithDefault
  3
ObjectDBX Classes
 90
        0
 91
        4
280
     0
281
     0
  0
CLASS
  1
VISUALSTYLE
  2
AcDbVisualStyle
  3
ObjectDBX Classes
 90
     4095
 91
        4
280
     0
281
     0
  0
CLASS
  1
MATERIAL
  2
AcDbMaterial
  3
ObjectDBX Classes
 90
     1153
 91
        4
280
     0
281
     0
  0
CLASS
  1
SUN
  2
AcDbSun
  3
SCENEOE
 90
     1024
 91
        4
280
     0
281
     0
  0
ENDSEC
  0
SECTION
  2
TABLES
  0
TABLE
  2
VPORT
  5
8
330
0
100
AcDbSymbolTable
 70
     1
  0
VPORT
  5
29
330
8
100
AcDbSymbolTableRecord
100
AcDbViewportTableRecord
  2
*Active
 70
     0
 10
0.0
 20
0.0
 11
1.0
 21
1.0
 12
0.0
 22
0.0
 13
0.0
 23
0.0
 14
0.5
 24
0.5
 15
0.5
 25
0.5
 16
0.0
 26
0.0
 36
1.0
 17
91.00082462281999
 27
-128.4993055234307
 37
0.0
 40
256.9986110468615
 41
0.7081814508812795
 42
50.0
 43
0.0
 44
0.0
 50
0.0
 51
0.0
 71
     0
 72
   100
 73
     1
 74
     3
 75
     0
 76
     0
 77
     0
 78
     0
281
     0
 65
     1
110
0.0
120
0.0
130
0.0
111
1.0
121
0.0
131
0.0
112
0.0
122
1.0
132
0.0
 79
     0
146
0.0
 60
     3
 61
     5
292
     1
282
     1
141
0.0
142
0.0
 63
   250
361
3F
  0
ENDTAB
  0
TABLE
  2
LTYPE
  5
5
330
0
100
AcDbSymbolTable
 70
     1
  0
LTYPE
  5
14
330
5
100
AcDbSymbolTableRecord
100
AcDbLinetypeTableRecord
  2
ByBlock
 70
     0
  3

 72
    65
 73
     0
 40
0.0
  0
LTYPE
  5
15
330
5
100
AcDbSymbolTableRecord
100
AcDbLinetypeTableRecord
  2
ByLayer
 70
     0
  3

 72
    65
 73
     0
 40
0.0
  0
LTYPE
  5
16
330
5
100
AcDbSymbolTableRecord
100
AcDbLinetypeTableRecord
  2
Continuous
 70
     0
  3
Solid line
 72
    65
 73
     0
 40
0.0
  0
ENDTAB
  0
TABLE
  2
LAYER
  5
2
330
0
100
AcDbSymbolTable
 70
     2
  0
LAYER
  5
10
330
2
100
AcDbSymbolTableRecord
100
AcDbLayerTableRecord
  2
0
 70
     0
 62
     7
  6
Continuous
370
    -3
390
F
347
3E
  0
LAYER
  5
40
330
2
100
AcDbSymbolTableRecord
100
AcDbLayerTableRecord
  2
_U+30EC_U+30A4_U+30E4_U+30FC 1
 70
     0
 62
     7
  6
Continuous
370
    -3
390
F
347
3E
  0
ENDTAB
  0
TABLE
  2
STYLE
  5
3
330
0
100
AcDbSymbolTable
 70
     1
  0
STYLE
  5
11
330
3
100
AcDbSymbolTableRecord
100
AcDbTextStyleTableRecord
  2
Standard
 70
     0
 40
0.0
 41
1.0
 50
0.0
 71
     0
 42
0.2
  3
txt
  4

  0
ENDTAB
  0
TABLE
  2
VIEW
  5
6
330
0
100
AcDbSymbolTable
 70
     0
  0
ENDTAB
  0
TABLE
  2
UCS
  5
7
330
0
100
AcDbSymbolTable
 70
     0
  0
ENDTAB
  0
TABLE
  2
APPID
  5
9
330
0
100
AcDbSymbolTable
 70
     1
  0
APPID
  5
12
330
9
100
AcDbSymbolTableRecord
100
AcDbRegAppTableRecord
  2
ACAD
 70
     0
  0
ENDTAB
  0
TABLE
  2
DIMSTYLE
  5
A
330
0
100
AcDbSymbolTable
 70
     1
100
AcDbDimStyleTable
  0
DIMSTYLE
105
27
330
A
100
AcDbSymbolTableRecord
100
AcDbDimStyleTableRecord
  2
Standard
 70
     0
178
     0
340
11
  0
ENDTAB
  0
TABLE
  2
BLOCK_RECORD
  5
1
330
0
100
AcDbSymbolTable
 70
     6
  0
BLOCK_RECORD
  5
1F
330
1
100
AcDbSymbolTableRecord
100
AcDbBlockTableRecord
  2
*Model_Space
340
22
 70
     0
280
     1
281
     0
  0
BLOCK_RECORD
  5
1B
330
1
100
AcDbSymbolTableRecord
100
AcDbBlockTableRecord
  2
*Paper_Space
340
1E
 70
     0
280
     1
281
     0
  0
BLOCK_RECORD
  5
23
330
1
100
AcDbSymbolTableRecord
100
AcDbBlockTableRecord
  2
*Paper_Space0
340
26
 70
     0
280
     1
281
     0
  0
BLOCK_RECORD
  5
41
330
1
100
AcDbSymbolTableRecord
100
AcDbBlockTableRecord
  2
block 2
340
0
102
{BLKREFS
331
42
102
}
 70
     0
280
     1
281
     0
  0
BLOCK_RECORD
  5
55
330
1
100
AcDbSymbolTableRecord
100
AcDbBlockTableRecord
  2
block 3
340
0
102
{BLKREFS
331
56
102
}
 70
     0
280
     1
281
     0
  0
BLOCK_RECORD
  5
6E
330
1
100
AcDbSymbolTableRecord
100
AcDbBlockTableRecord
  2
block 4
340
0
102
{BLKREFS
331
6F
102
}
 70
     0
280
     1
281
     0
  0
BLOCK_RECORD
  5
A4
330
1
100
AcDbSymbolTableRecord
100
AcDbBlockTableRecord
  2
block 5
340
0
102
{BLKREFS
331
A5
102
}
 70
     0
280
     1
281
     0
  0
BLOCK_RECORD
  5
AA
330
1
100
AcDbSymbolTableRecord
100
AcDbBlockTableRecord
  2
block 6
340
0
102
{BLKREFS
331
AB
102
}
 70
     0
280
     1
281
     0
  0
ENDTAB
  0
ENDSEC
  0
SECTION
  2
BLOCKS
  0
BLOCK
  5
20
330
1F
100
AcDbEntity
  8
0
100
AcDbBlockBegin
  2
*Model_Space
 70
     0
 10
0.0
 20
0.0
 30
0.0
  3
*Model_Space
  1

  0
ENDBLK
  5
21
330
1F
100
AcDbEntity
  8
0
100
AcDbBlockEnd
  0
BLOCK
  5
1C
330
1B
100
AcDbEntity
 67
     1
  8
0
100
AcDbBlockBegin
  2
*Paper_Space
 70
     0
 10
0.0
 20
0.0
 30
0.0
  3
*Paper_Space
  1

  0
ENDBLK
  5
1D
330
1B
100
AcDbEntity
 67
     1
  8
0
100
AcDbBlockEnd
  0
BLOCK
  5
24
330
23
100
AcDbEntity
  8
0
100
AcDbBlockBegin
  2
*Paper_Space0
 70
     0
 10
0.0
 20
0.0
 30
0.0
  3
*Paper_Space0
  1

  0
ENDBLK
  5
25
330
23
100
AcDbEntity
  8
0
100
AcDbBlockEnd
  0
BLOCK
  5
43
330
41
100
AcDbEntity
  8
0
100
AcDbBlockBegin
  2
block 2
 70
     0
 10
0.0
 20
0.0
 30
0.0
  3
block 2
  1

  0
SPLINE
  5
45
330
41
100
AcDbEntity
  8
_U+30EC_U+30A4_U+30E4_U+30FC 1
370
     0
100
AcDbSpline
210
0.0
220
0.0
230
1.0
 70
    11
 71
     3
 72
    26
 73
    22
 74
     0
 42
0.0000000001
 43
0.0000000001
 12
1.0
 22
0.0
 32
0.0
 13
1.0
 23
0.0
 33
0.0
 40
0.0
 40
0.0
 40
0.0
 40
0.0
 40
1.0
 40
1.0
 40
1.0
 40
2.0
 40
2.0
 40
2.0
 40
3.0
 40
3.0
 40
3.0
 40
4.0
 40
4.0
 40
4.0
 40
5.0
 40
5.0
 40
5.0
 40
6.0
 40
6.0
 40
6.0
 40
7.0
 40
7.0
 40
7.0
 40
7.0
 10
84.91988116366586
 20
-142.3995767873168
 30
0.0
 10
84.91988116366586
 20
-142.3995767873168
 30
0.0
 10
84.91988116366586
 20
-141.2954236842942
 30
0.0
 10
84.91988116366586
 20
-141.2954236842942
 30
0.0
 10
84.91988116366586
 20
-141.2954236842942
 30
0.0
 10
84.58984101617894
 20
-141.2954236842942
 30
0.0
 10
84.58984101617894
 20
-141.2954236842942
 30
0.0
 10
84.58984101617894
 20
-141.2954236842942
 30
0.0
 10
84.58984101617894
 20
-141.1472845784285
 30
0.0
 10
84.58984101617894
 20
-141.1472845784285
 30
0.0
 10
84.92194822095702
 20
-141.1324706678419
 30
0.0
 10
84.9684570100079
 20
-140.9695176513896
 30
0.0
 10
84.99808483118103
 20
-140.8551404812793
 30
0.0
 10
84.99808483118103
 20
-140.8551404812793
 30
0.0
 10
85.14415687975563
 20
-140.8551404812793
 30
0.0
 10
85.14415687975563
 20
-140.8551404812793
 30
0.0
 10
85.14415687975563
 20
-140.8551404812793
 30
0.0
 10
85.14415687975563
 20
-142.3995767873168
 30
0.0
 10
85.14415687975563
 20
-142.3995767873168
 30
0.0
 10
85.14415687975563
 20
-142.3995767873168
 30
0.0
 10
84.91988116366586
 20
-142.3995767873168
 30
0.0
 10
84.91988116366586
 20
-142.3995767873168
 30
0.0
  0
HATCH
  5
46
330
41
100
AcDbEntity
  8
_U+30EC_U+30A4_U+30E4_U+30FC 1
 62
   179
420
  2234388
100
AcDbHatch
 10
0.0
 20
0.0
 30
0.0
210
0.0
220
0.0
230
1.0
  2
SOLID
 70
     1
 71
     0
 91
        1
 92
        1
 93
        1
 72
     4
 94
        3
 73
     0
 74
     1
 95
       26
 96
       22
 40
0.0
 40
0.0
 40
0.0
 40
0.0
 40
1.0
 40
1.0
 40
1.0
 40
2.0
 40
2.0
 40
2.0
 40
3.0
 40
3.0
 40
3.0
 40
4.0
 40
4.0
 40
4.0
 40
5.0
 40
5.0
 40
5.0
 40
6.0
 40
6.0
 40
6.0
 40
7.0
 40
7.0
 40
7.0
 40
7.0
 10
84.91988116366586
 20
-142.3995767873168
 10
84.91988116366586
 20
-142.3995767873168
 10
84.91988116366586
 20
-141.2954236842942
 10
84.91988116366586
 20
-141.2954236842942
 10
84.91988116366586
 20
-141.2954236842942
 10
84.58984101617894
 20
-141.2954236842942
 10
84.58984101617894
 20
-141.2954236842942
 10
84.58984101617894
 20
-141.2954236842942
 10
84.58984101617894
 20
-141.1472845784285
 10
84.58984101617894
 20
-141.1472845784285
 10
84.92194822095702
 20
-141.1324706678419
 10
84.9684570100079
 20
-140.9695176513896
 10
84.99808483118103
 20
-140.8551404812793
 10
84.99808483118103
 20
-140.8551404812793
 10
85.14415687975563
 20
-140.8551404812793
 10
85.14415687975563
 20
-140.8551404812793
 10
85.14415687975563
 20
-140.8551404812793
 10
85.14415687975563
 20
-142.3995767873168
 10
85.14415687975563
 20
-142.3995767873168
 10
85.14415687975563
 20
-142.3995767873168
 10
84.91988116366586
 20
-142.3995767873168
 10
84.91988116366586
 20
-142.3995767873168
 97
        0
 97
        0
 75
     2
 76
     1
 98
        0
  0
SPLINE
  5
47
330
41
100
AcDbEntity
  8
_U+30EC_U+30A4_U+30E4_U+30FC 1
370
     0
100
AcDbSpline
210
0.0
220
0.0
230
1.0
 70
    11
 71
     3
 72
    62
 73
    58
 74
     0
 42
0.0000000001
 43
0.0000000001
 12
1.0
 22
0.0
 32
0.0
 13
1.0
 23
0.0
 33
0.0
 40
0.0
 40
0.0
 40
0.0
 40
0.0
 40
1.0
 40
1.0
 40
1.0
 40
2.0
 40
2.0
 40
2.0
 40
3.0
 40
3.0
 40
3.0
 40
4.0
 40
4.0
 40
4.0
 40
5.0
 40
5.0
 40
5.0
 40
6.0
 40
6.0
 40
6.0
 40
7.0
 40
7.0
 40
7.0
 40
8.0
 40
8.0
 40
8.0
 40
9.0
 40
9.0
 40
9.0
 40
10.0
 40
10.0
 40
10.0
 40
11.0
 40
11.0
 40
11.0
 40
12.0
 40
12.0
 40
12.0
 40
13.0
 40
13.0
 40
13.0
 40
14.0
 40
14.0
 40
14.0
 40
15.0
 40
15.0
 40
15.0
 40
16.0
 40
16.0
 40
16.0
 40
17.0
 40
17.0
 40
17.0
 40
18.0
 40
18.0
 40
18.0
 40
19.0
 40
19.0
 40
19.0
 40
19.0
 10
86.13703339860463
 20
-142.45021969095
 30
0.0
 10
86.04160425366321
 20
-142.45021969095
 30
0.0
 10
85.82387421899543
 20
-142.4292046084899
 30
0.0
 10
85.69881725288086
 20
-142.2431694522864
 30
0.0
 10
85.62474769994799
 20
-142.1308593394673
 30
0.0
 10
85.62061358536569
 20
-142.0316405894921
 30
0.0
 10
85.61647947078339
 20
-141.9468912405549
 30
0.0
 10
85.61647947078339
 20
-141.9468912405549
 30
0.0
 10
85.83662107229085
 20
-141.9468912405549
 30
0.0
 10
85.83662107229085
 20
-141.9468912405549
 30
0.0
 10
85.838688129582
 20
-142.0209607934878
 30
0.0
 10
85.84902341603775
 20
-142.2555717960333
 30
0.0
 10
86.1325547744738
 20
-142.2555717960333
 30
0.0
 10
86.27001408433527
 20
-142.2555717960333
 30
0.0
 10
86.42263181433185
 20
-142.1859808672313
 30
0.0
 10
86.42263181433185
 20
-141.9575710365592
 30
0.0
 10
86.42263181433185
 20
-141.8411268091578
 30
0.0
 10
86.38439125444557
 20
-141.7925509628158
 30
0.0
 10
86.35269637598127
 20
-141.7608560843514
 30
0.0
 10
86.2786268230484
 20
-141.6867865314186
 30
0.0
 10
86.16218259564695
 20
-141.6740396781232
 30
0.0
 10
86.10740557743149
 20
-141.6740396781232
 30
0.0
 10
86.08811304271408
 20
-141.6740396781232
 30
0.0
 10
86.05228404966749
 20
-141.6761067354143
 30
0.0
 10
86.02472328578548
 20
-141.6802408499966
 30
0.0
 10
86.02472328578548
 20
-141.6802408499966
 30
0.0
 10
86.02472328578548
 20
-141.48559295508
 30
0.0
 10
86.02472328578548
 20
-141.48559295508
 30
0.0
 10
86.06296384567176
 20
-141.492138636502
 30
0.0
 10
86.10499401059181
 20
-141.4942056937931
 30
0.0
 10
86.11153969201379
 20
-141.4942056937931
 30
0.0
 10
86.17699650623354
 20
-141.4942056937931
 30
0.0
 10
86.37577851573245
 20
-141.4728461017846
 30
0.0
 10
86.37577851573245
 20
-141.2361680419479
 30
0.0
 10
86.37577851573245
 20
-141.058401114909
 30
0.0
 10
86.24486488729295
 20
-141.003279587145
 30
0.0
 10
86.13462183176496
 20
-141.003279587145
 30
0.0
 10
85.8703830080463
 20
-141.003279587145
 30
0.0
 10
85.86177026933318
 20
-141.2361680419479
 30
0.0
 10
85.85763615475088
 20
-141.3078260280411
 30
0.0
 10
85.85763615475088
 20
-141.3078260280411
 30
0.0
 10
85.65437552112114
 20
-141.3078260280411
 30
0.0
 10
85.65437552112114
 20
-141.3078260280411
 30
0.0
 10
85.66298825983425
 20
-141.183113571475
 30
0.0
 10
85.69054902371626
 20
-140.8065646349372
 30
0.0
 10
86.14736868506039
 20
-140.8065646349372
 30
0.0
 10
86.37164440115015
 20
-140.8065646349372
 30
0.0
 10
86.61280108511764
 20
-140.933688658343
 30
0.0
 10
86.61280108511764
 20
-141.2296223605259
 30
0.0
 10
86.61280108511764
 20
-141.4160020262779
 30
0.0
 10
86.51771644972474
 20
-141.4983398083754
 30
0.0
 10
86.41815319020102
 20
-141.5596625080129
 30
0.0
 10
86.47947588983847
 20
-141.5872232718949
 30
0.0
 10
86.66137693145966
 20
-141.6674939967012
 30
0.0
 10
86.66137693145966
 20
-141.9448241832638
 30
0.0
 10
86.66137693145966
 20
-142.2831325599153
 30
0.0
 10
86.41401907561873
 20
-142.45021969095
 30
0.0
 10
86.13703339860463
 20
-142.45021969095
 30
0.0
  0
HATCH
  5
48
330
41
100
AcDbEntity
  8
_U+30EC_U+30A4_U+30E4_U+30FC 1
 62
   179
420
  2234388
100
AcDbHatch
 10
0.0
 20
0.0
 30
0.0
210
0.0
220
0.0
230
1.0
  2
SOLID
 70
     1
 71
     0
 91
        1
 92
        1
 93
        1
 72
     4
 94
        3
 73
     0
 74
     1
 95
       62
 96
       58
 40
0.0
 40
0.0
 40
0.0
 40
0.0
 40
1.0
 40
1.0
 40
1.0
 40
2.0
 40
2.0
 40
2.0
 40
3.0
 40
3.0
 40
3.0
 40
4.0
 40
4.0
 40
4.0
 40
5.0
 40
5.0
 40
5.0
 40
6.0
 40
6.0
 40
6.0
 40
7.0
 40
7.0
 40
7.0
 40
8.0
 40
8.0
 40
8.0
 40
9.0
 40
9.0
 40
9.0
 40
10.0
 40
10.0
 40
10.0
 40
11.0
 40
11.0
 40
11.0
 40
12.0
 40
12.0
 40
12.0
 40
13.0
 40
13.0
 40
13.0
 40
14.0
 40
14.0
 40
14.0
 40
15.0
 40
15.0
 40
15.0
 40
16.0
 40
16.0
 40
16.0
 40
17.0
 40
17.0
 40
17.0
 40
18.0
 40
18.0
 40
18.0
 40
19.0
 40
19.0
 40
19.0
 40
19.0
 10
86.13703339860463
 20
-142.45021969095
 10
86.04160425366321
 20
-142.45021969095
 10
85.82387421899543
 20
-142.4292046084899
 10
85.69881725288086
 20
-142.2431694522864
 10
85.62474769994799
 20
-142.1308593394673
 10
85.62061358536569
 20
-142.0316405894921
 10
85.61647947078339
 20
-141.9468912405549
 10
85.61647947078339
 20
-141.9468912405549
 10
85.83662107229085
 20
-141.9468912405549
 10
85.83662107229085
 20
-141.9468912405549
 10
85.838688129582
 20
-142.0209607934878
 10
85.84902341603775
 20
-142.2555717960333
 10
86.1325547744738
 20
-142.2555717960333
 10
86.27001408433527
 20
-142.2555717960333
 10
86.42263181433185
 20
-142.1859808672313
 10
86.42263181433185
 20
-141.9575710365592
 10
86.42263181433185
 20
-141.8411268091578
 10
86.38439125444557
 20
-141.7925509628158
 10
86.35269637598127
 20
-141.7608560843514
 10
86.2786268230484
 20
-141.6867865314186
 10
86.16218259564695
 20
-141.6740396781232
 10
86.10740557743149
 20
-141.6740396781232
 10
86.08811304271408
 20
-141.6740396781232
 10
86.05228404966749
 20
-141.6761067354143
 10
86.02472328578548
 20
-141.6802408499966
 10
86.02472328578548
 20
-141.6802408499966
 10
86.02472328578548
 20
-141.48559295508
 10
86.02472328578548
 20
-141.48559295508
 10
86.06296384567176
 20
-141.492138636502
 10
86.10499401059181
 20
-141.4942056937931
 10
86.11153969201379
 20
-141.4942056937931
 10
86.17699650623354
 20
-141.4942056937931
 10
86.37577851573245
 20
-141.4728461017846
 10
86.37577851573245
 20
-141.2361680419479
 10
86.37577851573245
 20
-141.058401114909
 10
86.24486488729295
 20
-141.003279587145
 10
86.13462183176496
 20
-141.003279587145
 10
85.8703830080463
 20
-141.003279587145
 10
85.86177026933318
 20
-141.2361680419479
 10
85.85763615475088
 20
-141.3078260280411
 10
85.85763615475088
 20
-141.3078260280411
 10
85.65437552112114
 20
-141.3078260280411
 10
85.65437552112114
 20
-141.3078260280411
 10
85.66298825983425
 20
-141.183113571475
 10
85.69054902371626
 20
-140.8065646349372
 10
86.14736868506039
 20
-140.8065646349372
 10
86.37164440115015
 20
-140.8065646349372
 10
86.61280108511764
 20
-140.933688658343
 10
86.61280108511764
 20
-141.2296223605259
 10
86.61280108511764
 20
-141.4160020262779
 10
86.51771644972474
 20
-141.4983398083754
 10
86.41815319020102
 20
-141.5596625080129
 10
86.47947588983847
 20
-141.5872232718949
 10
86.66137693145966
 20
-141.6674939967012
 10
86.66137693145966
 20
-141.9448241832638
 10
86.66137693145966
 20
-142.2831325599153
 10
86.41401907561873
 20
-142.45021969095
 10
86.13703339860463
 20
-142.45021969095
 97
        0
 97
        0
 75
     2
 76
     1
 98
        0
  0
ENDBLK
  5
44
330
41
100
AcDbEntity
  8
0
100
AcDbBlockEnd
  0
BLOCK
  5
57
330
55
100
AcDbEntity
  8
0
100
AcDbBlockBegin
  2
block 3
 70
     0
 10
0.0
 20
0.0
 30
0.0
  3
block 3
  1

  0
SPLINE
  5
59
330
55
100
AcDbEntity
  8
_U+30EC_U+30A4_U+30E4_U+30FC 1
370
     0
100
AcDbSpline
210
0.0
220
0.0
230
1.0
 70
    11
 71
     3
 72
    26
 73
    22
 74
     0
 42
0.0000000001
 43
0.0000000001
 12
1.0
 22
0.0
 32
0.0
 13
1.0
 23
0.0
 33
0.0
 40
0.0
 40
0.0
 40
0.0
 40
0.0
 40
1.0
 40
1.0
 40
1.0
 40
2.0
 40
2.0
 40
2.0
 40
3.0
 40
3.0
 40
3.0
 40
4.0
 40
4.0
 40
4.0
 40
5.0
 40
5.0
 40
5.0
 40
6.0
 40
6.0
 40
6.0
 40
7.0
 40
7.0
 40
7.0
 40
7.0
 10
96.41754283613868
 20
-142.3995767873168
 30
0.0
 10
96.41754283613868
 20
-142.3995767873168
 30
0.0
 10
96.41754283613868
 20
-141.2954236842942
 30
0.0
 10
96.41754283613868
 20
-141.2954236842942
 30
0.0
 10
96.41754283613868
 20
-141.2954236842942
 30
0.0
 10
96.08750268865174
 20
-141.2954236842942
 30
0.0
 10
96.08750268865174
 20
-141.2954236842942
 30
0.0
 10
96.08750268865174
 20
-141.2954236842942
 30
0.0
 10
96.08750268865174
 20
-141.1472845784285
 30
0.0
 10
96.08750268865174
 20
-141.1472845784285
 30
0.0
 10
96.41960989342982
 20
-141.1324706678419
 30
0.0
 10
96.4661186824807
 20
-140.9695176513896
 30
0.0
 10
96.49574650365385
 20
-140.8551404812793
 30
0.0
 10
96.49574650365385
 20
-140.8551404812793
 30
0.0
 10
96.64181855222844
 20
-140.8551404812793
 30
0.0
 10
96.64181855222844
 20
-140.8551404812793
 30
0.0
 10
96.64181855222844
 20
-140.8551404812793
 30
0.0
 10
96.64181855222844
 20
-142.3995767873168
 30
0.0
 10
96.64181855222844
 20
-142.3995767873168
 30
0.0
 10
96.64181855222844
 20
-142.3995767873168
 30
0.0
 10
96.41754283613868
 20
-142.3995767873168
 30
0.0
 10
96.41754283613868
 20
-142.3995767873168
 30
0.0
  0
HATCH
  5
5A
330
55
100
AcDbEntity
  8
_U+30EC_U+30A4_U+30E4_U+30FC 1
 62
   179
420
  2234388
100
AcDbHatch
 10
0.0
 20
0.0
 30
0.0
210
0.0
220
0.0
230
1.0
  2
SOLID
 70
     1
 71
     0
 91
        1
 92
        1
 93
        1
 72
     4
 94
        3
 73
     0
 74
     1
 95
       26
 96
       22
 40
0.0
 40
0.0
 40
0.0
 40
0.0
 40
1.0
 40
1.0
 40
1.0
 40
2.0
 40
2.0
 40
2.0
 40
3.0
 40
3.0
 40
3.0
 40
4.0
 40
4.0
 40
4.0
 40
5.0
 40
5.0
 40
5.0
 40
6.0
 40
6.0
 40
6.0
 40
7.0
 40
7.0
 40
7.0
 40
7.0
 10
96.41754283613868
 20
-142.3995767873168
 10
96.41754283613868
 20
-142.3995767873168
 10
96.41754283613868
 20
-141.2954236842942
 10
96.41754283613868
 20
-141.2954236842942
 10
96.41754283613868
 20
-141.2954236842942
 10
96.08750268865174
 20
-141.2954236842942
 10
96.08750268865174
 20
-141.2954236842942
 10
96.08750268865174
 20
-141.2954236842942
 10
96.08750268865174
 20
-141.1472845784285
 10
96.08750268865174
 20
-141.1472845784285
 10
96.41960989342982
 20
-141.1324706678419
 10
96.4661186824807
 20
-140.9695176513896
 10
96.49574650365385
 20
-140.8551404812793
 10
96.49574650365385
 20
-140.8551404812793
 10
96.64181855222844
 20
-140.8551404812793
 10
96.64181855222844
 20
-140.8551404812793
 10
96.64181855222844
 20
-140.8551404812793
 10
96.64181855222844
 20
-142.3995767873168
 10
96.64181855222844
 20
-142.3995767873168
 10
96.64181855222844
 20
-142.3995767873168
 10
96.41754283613868
 20
-142.3995767873168
 10
96.41754283613868
 20
-142.3995767873168
 97
        0
 97
        0
 75
     2
 76
     1
 98
        0
  0
SPLINE
  5
5B
330
55
100
AcDbEntity
  8
_U+30EC_U+30A4_U+30E4_U+30FC 1
370
     0
100
AcDbSpline
210
0.0
220
0.0
230
1.0
 70
    11
 71
     3
 72
    29
 73
    25
 74
     0
 42
0.0000000001
 43
0.0000000001
 12
1.0
 22
0.0
 32
0.0
 13
1.0
 23
0.0
 33
0.0
 40
0.0
 40
0.0
 40
0.0
 40
0.0
 40
1.0
 40
1.0
 40
1.0
 40
2.0
 40
2.0
 40
2.0
 40
3.0
 40
3.0
 40
3.0
 40
4.0
 40
4.0
 40
4.0
 40
5.0
 40
5.0
 40
5.0
 40
6.0
 40
6.0
 40
6.0
 40
7.0
 40
7.0
 40
7.0
 40
8.0
 40
8.0
 40
8.0
 40
8.0
 10
98.04052731923987
 20
-142.2218098602779
 30
0.0
 10
97.93269583055155
 20
-142.4312716657811
 30
0.0
 10
97.75940752764349
 20
-142.45021969095
 30
0.0
 10
97.64296330024204
 20
-142.45021969095
 30
0.0
 10
97.48207734108087
 20
-142.45021969095
 30
0.0
 10
97.34048391663711
 20
-142.4037109018991
 30
0.0
 10
97.24505477169569
 20
-142.2218098602779
 30
0.0
 10
97.14170190713818
 20
-142.0271619653613
 30
0.0
 10
97.12240937242079
 20
-141.7904839055246
 30
0.0
 10
97.12240937242079
 20
-141.6275308890723
 30
0.0
 10
97.12240937242079
 20
-141.4835258977888
 30
0.0
 10
97.13929034029852
 20
-141.2316894178171
 30
0.0
 10
97.24505477169569
 20
-141.0329074083182
 30
0.0
 10
97.35323076993252
 20
-140.8299912842369
 30
0.0
 10
97.51377221954517
 20
-140.8065646349372
 30
0.0
 10
97.64296330024204
 20
-140.8065646349372
 30
0.0
 10
97.80143769256354
 20
-140.8065646349372
 30
0.0
 10
97.94544268384698
 20
-140.851006366697
 30
0.0
 10
98.04052731923987
 20
-141.0329074083182
 30
0.0
 10
98.14009057876359
 20
-141.2254882459436
 30
0.0
 10
98.16317271851477
 20
-141.4538980766157
 30
0.0
 10
98.16317271851477
 20
-141.6275308890723
 30
0.0
 10
98.16317271851477
 20
-141.7987521346892
 30
0.0
 10
98.14215763605475
 20
-142.0292290226524
 30
0.0
 10
98.04052731923987
 20
-142.2218098602779
 30
0.0
  0
SPLINE
  5
5C
330
55
100
AcDbEntity
  8
_U+30EC_U+30A4_U+30E4_U+30FC 1
370
     0
100
AcDbSpline
210
0.0
220
0.0
230
1.0
 70
    11
 71
     3
 72
    17
 73
    13
 74
     0
 42
0.0000000001
 43
0.0000000001
 12
1.0
 22
0.0
 32
0.0
 13
1.0
 23
0.0
 33
0.0
 40
0.0
 40
0.0
 40
0.0
 40
0.0
 40
1.0
 40
1.0
 40
1.0
 40
2.0
 40
2.0
 40
2.0
 40
3.0
 40
3.0
 40
3.0
 40
4.0
 40
4.0
 40
4.0
 40
4.0
 10
97.64296330024204
 20
-140.9991454725627
 30
0.0
 10
97.39319387756143
 20
-140.9991454725627
 30
0.0
 10
97.34668508851055
 20
-141.2826768309988
 30
0.0
 10
97.34668508851055
 20
-141.6275308890723
 30
0.0
 10
97.34668508851055
 20
-141.9468912405549
 30
0.0
 10
97.38285859110567
 20
-142.2555717960333
 30
0.0
 10
97.64296330024204
 20
-142.2555717960333
 30
0.0
 10
97.89032115608298
 20
-142.2555717960333
 30
0.0
 10
97.93924151197352
 20
-141.974452004437
 30
0.0
 10
97.93924151197352
 20
-141.6275308890723
 30
0.0
 10
97.93924151197352
 20
-141.3078260280411
 30
0.0
 10
97.90100095208726
 20
-140.9991454725627
 30
0.0
 10
97.64296330024204
 20
-140.9991454725627
 30
0.0
  0
HATCH
  5
5D
330
55
100
AcDbEntity
  8
_U+30EC_U+30A4_U+30E4_U+30FC 1
 62
   179
420
  2234388
100
AcDbHatch
 10
0.0
 20
0.0
 30
0.0
210
0.0
220
0.0
230
1.0
  2
SOLID
 70
     1
 71
     0
 91
        2
 92
        1
 93
        1
 72
     4
 94
        3
 73
     0
 74
     1
 95
       29
 96
       25
 40
0.0
 40
0.0
 40
0.0
 40
0.0
 40
1.0
 40
1.0
 40
1.0
 40
2.0
 40
2.0
 40
2.0
 40
3.0
 40
3.0
 40
3.0
 40
4.0
 40
4.0
 40
4.0
 40
5.0
 40
5.0
 40
5.0
 40
6.0
 40
6.0
 40
6.0
 40
7.0
 40
7.0
 40
7.0
 40
8.0
 40
8.0
 40
8.0
 40
8.0
 10
98.04052731923987
 20
-142.2218098602779
 10
97.93269583055155
 20
-142.4312716657811
 10
97.75940752764349
 20
-142.45021969095
 10
97.64296330024204
 20
-142.45021969095
 10
97.48207734108087
 20
-142.45021969095
 10
97.34048391663711
 20
-142.4037109018991
 10
97.24505477169569
 20
-142.2218098602779
 10
97.14170190713818
 20
-142.0271619653613
 10
97.12240937242079
 20
-141.7904839055246
 10
97.12240937242079
 20
-141.6275308890723
 10
97.12240937242079
 20
-141.4835258977888
 10
97.13929034029852
 20
-141.2316894178171
 10
97.24505477169569
 20
-141.0329074083182
 10
97.35323076993252
 20
-140.8299912842369
 10
97.51377221954517
 20
-140.8065646349372
 10
97.64296330024204
 20
-140.8065646349372
 10
97.80143769256354
 20
-140.8065646349372
 10
97.94544268384698
 20
-140.851006366697
 10
98.04052731923987
 20
-141.0329074083182
 10
98.14009057876359
 20
-141.2254882459436
 10
98.16317271851477
 20
-141.4538980766157
 10
98.16317271851477
 20
-141.6275308890723
 10
98.16317271851477
 20
-141.7987521346892
 10
98.14215763605475
 20
-142.0292290226524
 10
98.04052731923987
 20
-142.2218098602779
 97
        0
 97
        0
 92
        1
 93
        1
 72
     4
 94
        3
 73
     0
 74
     1
 95
       17
 96
       13
 40
0.0
 40
0.0
 40
0.0
 40
0.0
 40
1.0
 40
1.0
 40
1.0
 40
2.0
 40
2.0
 40
2.0
 40
3.0
 40
3.0
 40
3.0
 40
4.0
 40
4.0
 40
4.0
 40
4.0
 10
97.64296330024204
 20
-140.9991454725627
 10
97.39319387756143
 20
-140.9991454725627
 10
97.34668508851055
 20
-141.2826768309988
 10
97.34668508851055
 20
-141.6275308890723
 10
97.34668508851055
 20
-141.9468912405549
 10
97.38285859110567
 20
-142.2555717960333
 10
97.64296330024204
 20
-142.2555717960333
 10
97.89032115608298
 20
-142.2555717960333
 10
97.93924151197352
 20
-141.974452004437
 10
97.93924151197352
 20
-141.6275308890723
 10
97.93924151197352
 20
-141.3078260280411
 10
97.90100095208726
 20
-140.9991454725627
 10
97.64296330024204
 20
-140.9991454725627
 97
        0
 97
        0
 75
     2
 76
     1
 98
        0
  0
ENDBLK
  5
58
330
55
100
AcDbEntity
  8
0
100
AcDbBlockEnd
  0
BLOCK
  5
70
330
6E
100
AcDbEntity
  8
0
100
AcDbBlockBegin
  2
block 4
 70
     0
 10
0.0
 20
0.0
 30
0.0
  3
block 4
  1

  0
SPLINE
  5
72
330
6E
100
AcDbEntity
  8
_U+30EC_U+30A4_U+30E4_U+30FC 1
370
     0
100
AcDbSpline
210
0.0
220
0.0
230
1.0
 70
    11
 71
     3
 72
    26
 73
    22
 74
     0
 42
0.0000000001
 43
0.0000000001
 12
1.0
 22
0.0
 32
0.0
 13
1.0
 23
0.0
 33
0.0
 40
0.0
 40
0.0
 40
0.0
 40
0.0
 40
1.0
 40
1.0
 40
1.0
 40
2.0
 40
2.0
 40
2.0
 40
3.0
 40
3.0
 40
3.0
 40
4.0
 40
4.0
 40
4.0
 40
5.0
 40
5.0
 40
5.0
 40
6.0
 40
6.0
 40
6.0
 40
7.0
 40
7.0
 40
7.0
 40
7.0
 10
77.12965899764467
 20
-142.3995767873168
 30
0.0
 10
77.12965899764467
 20
-142.3995767873168
 30
0.0
 10
77.12965899764467
 20
-141.2954236842942
 30
0.0
 10
77.12965899764467
 20
-141.2954236842942
 30
0.0
 10
77.12965899764467
 20
-141.2954236842942
 30
0.0
 10
76.79961885015774
 20
-141.2954236842942
 30
0.0
 10
76.79961885015774
 20
-141.2954236842942
 30
0.0
 10
76.79961885015774
 20
-141.2954236842942
 30
0.0
 10
76.79961885015774
 20
-141.1472845784285
 30
0.0
 10
76.79961885015774
 20
-141.1472845784285
 30
0.0
 10
77.13172605493583
 20
-141.1324706678419
 30
0.0
 10
77.1782348439867
 20
-140.9695176513896
 30
0.0
 10
77.20786266515984
 20
-140.8551404812793
 30
0.0
 10
77.20786266515984
 20
-140.8551404812793
 30
0.0
 10
77.35393471373443
 20
-140.8551404812793
 30
0.0
 10
77.35393471373443
 20
-140.8551404812793
 30
0.0
 10
77.35393471373443
 20
-140.8551404812793
 30
0.0
 10
77.35393471373443
 20
-142.3995767873168
 30
0.0
 10
77.35393471373443
 20
-142.3995767873168
 30
0.0
 10
77.35393471373443
 20
-142.3995767873168
 30
0.0
 10
77.12965899764467
 20
-142.3995767873168
 30
0.0
 10
77.12965899764467
 20
-142.3995767873168
 30
0.0
  0
HATCH
  5
73
330
6E
100
AcDbEntity
  8
_U+30EC_U+30A4_U+30E4_U+30FC 1
 62
   179
420
  2234388
100
AcDbHatch
 10
0.0
 20
0.0
 30
0.0
210
0.0
220
0.0
230
1.0
  2
SOLID
 70
     1
 71
     0
 91
        1
 92
        1
 93
        1
 72
     4
 94
        3
 73
     0
 74
     1
 95
       26
 96
       22
 40
0.0
 40
0.0
 40
0.0
 40
0.0
 40
1.0
 40
1.0
 40
1.0
 40
2.0
 40
2.0
 40
2.0
 40
3.0
 40
3.0
 40
3.0
 40
4.0
 40
4.0
 40
4.0
 40
5.0
 40
5.0
 40
5.0
 40
6.0
 40
6.0
 40
6.0
 40
7.0
 40
7.0
 40
7.0
 40
7.0
 10
77.12965899764467
 20
-142.3995767873168
 10
77.12965899764467
 20
-142.3995767873168
 10
77.12965899764467
 20
-141.2954236842942
 10
77.12965899764467
 20
-141.2954236842942
 10
77.12965899764467
 20
-141.2954236842942
 10
76.79961885015774
 20
-141.2954236842942
 10
76.79961885015774
 20
-141.2954236842942
 10
76.79961885015774
 20
-141.2954236842942
 10
76.79961885015774
 20
-141.1472845784285
 10
76.79961885015774
 20
-141.1472845784285
 10
77.13172605493583
 20
-141.1324706678419
 10
77.1782348439867
 20
-140.9695176513896
 10
77.20786266515984
 20
-140.8551404812793
 10
77.20786266515984
 20
-140.8551404812793
 10
77.35393471373443
 20
-140.8551404812793
 10
77.35393471373443
 20
-140.8551404812793
 10
77.35393471373443
 20
-140.8551404812793
 10
77.35393471373443
 20
-142.3995767873168
 10
77.35393471373443
 20
-142.3995767873168
 10
77.35393471373443
 20
-142.3995767873168
 10
77.12965899764467
 20
-142.3995767873168
 10
77.12965899764467
 20
-142.3995767873168
 97
        0
 97
        0
 75
     2
 76
     1
 98
        0
  0
ENDBLK
  5
71
330
6E
100
AcDbEntity
  8
0
100
AcDbBlockEnd
  0
BLOCK
  5
A6
330
A4
100
AcDbEntity
  8
0
100
AcDbBlockBegin
  2
block 5
 70
     0
 10
0.0
 20
0.0
 30
0.0
  3
block 5
  1

  0
SPLINE
  5
A8
330
A4
100
AcDbEntity
  8
_U+30EC_U+30A4_U+30E4_U+30FC 1
370
     0
100
AcDbSpline
210
0.0
220
0.0
230
1.0
 70
    11
 71
     3
 72
    62
 73
    58
 74
     0
 42
0.0000000001
 43
0.0000000001
 12
1.0
 22
0.0
 32
0.0
 13
1.0
 23
0.0
 33
0.0
 40
0.0
 40
0.0
 40
0.0
 40
0.0
 40
1.0
 40
1.0
 40
1.0
 40
2.0
 40
2.0
 40
2.0
 40
3.0
 40
3.0
 40
3.0
 40
4.0
 40
4.0
 40
4.0
 40
5.0
 40
5.0
 40
5.0
 40
6.0
 40
6.0
 40
6.0
 40
7.0
 40
7.0
 40
7.0
 40
8.0
 40
8.0
 40
8.0
 40
9.0
 40
9.0
 40
9.0
 40
10.0
 40
10.0
 40
10.0
 40
11.0
 40
11.0
 40
11.0
 40
12.0
 40
12.0
 40
12.0
 40
13.0
 40
13.0
 40
13.0
 40
14.0
 40
14.0
 40
14.0
 40
15.0
 40
15.0
 40
15.0
 40
16.0
 40
16.0
 40
16.0
 40
17.0
 40
17.0
 40
17.0
 40
18.0
 40
18.0
 40
18.0
 40
19.0
 40
19.0
 40
19.0
 40
19.0
 10
110.2151502545643
 20
-115.5485025752795
 30
0.0
 10
110.2151502545643
 20
-115.643931720221
 30
0.0
 10
110.1941351721043
 20
-115.8616617548888
 30
0.0
 10
110.0081000159008
 20
-115.9867187210033
 30
0.0
 10
109.8957899030816
 20
-116.0604437643877
 30
0.0
 10
109.7965711531064
 20
-116.0649223885185
 30
0.0
 10
109.7118218041693
 20
-116.0690565031008
 30
0.0
 10
109.7118218041693
 20
-116.0690565031008
 30
0.0
 10
109.7118218041693
 20
-115.8489149015933
 30
0.0
 10
109.7118218041693
 20
-115.8489149015933
 30
0.0
 10
109.7858913571021
 20
-115.8468478443022
 30
0.0
 10
110.0205023596477
 20
-115.8365125578464
 30
0.0
 10
110.0205023596477
 20
-115.5529811994104
 30
0.0
 10
110.0205023596477
 20
-115.4155218895489
 30
0.0
 10
109.9509114308456
 20
-115.2629041595523
 30
0.0
 10
109.7225016001735
 20
-115.2629041595523
 30
0.0
 10
109.6060573727721
 20
-115.2629041595523
 30
0.0
 10
109.5574815264301
 20
-115.3011447194386
 30
0.0
 10
109.5257866479658
 20
-115.3328395979029
 30
0.0
 10
109.4517170950329
 20
-115.4069091508358
 30
0.0
 10
109.4389702417375
 20
-115.5233533782372
 30
0.0
 10
109.4389702417375
 20
-115.5781303964527
 30
0.0
 10
109.4389702417375
 20
-115.5974229311701
 30
0.0
 10
109.4410372990286
 20
-115.6332519242167
 30
0.0
 10
109.4451714136109
 20
-115.6608126880987
 30
0.0
 10
109.4451714136109
 20
-115.6608126880987
 30
0.0
 10
109.2505235186943
 20
-115.6608126880987
 30
0.0
 10
109.2505235186943
 20
-115.6608126880987
 30
0.0
 10
109.2570692001163
 20
-115.6225721282124
 30
0.0
 10
109.2591362574074
 20
-115.5805419632924
 30
0.0
 10
109.2591362574074
 20
-115.5739962818704
 30
0.0
 10
109.2591362574074
 20
-115.5085394676506
 30
0.0
 10
109.2377766653989
 20
-115.3097574581517
 30
0.0
 10
109.0010986055622
 20
-115.3097574581517
 30
0.0
 10
108.8233316785233
 20
-115.3097574581517
 30
0.0
 10
108.7682101507593
 20
-115.4406710865912
 30
0.0
 10
108.7682101507593
 20
-115.5509141421192
 30
0.0
 10
108.7682101507593
 20
-115.8151529658379
 30
0.0
 10
109.0010986055622
 20
-115.823765704551
 30
0.0
 10
109.0727565916554
 20
-115.8278998191333
 30
0.0
 10
109.0727565916554
 20
-115.8278998191333
 30
0.0
 10
109.0727565916554
 20
-116.031160452763
 30
0.0
 10
109.0727565916554
 20
-116.031160452763
 30
0.0
 10
108.9480441350894
 20
-116.0225477140499
 30
0.0
 10
108.5714951985516
 20
-115.9949869501679
 30
0.0
 10
108.5714951985516
 20
-115.5381672888238
 30
0.0
 10
108.5714951985516
 20
-115.313891572734
 30
0.0
 10
108.6986192219573
 20
-115.0727348887665
 30
0.0
 10
108.9945529241403
 20
-115.0727348887665
 30
0.0
 10
109.1809325898923
 20
-115.0727348887665
 30
0.0
 10
109.2632703719897
 20
-115.1678195241594
 30
0.0
 10
109.3245930716272
 20
-115.2673827836832
 30
0.0
 10
109.3521538355092
 20
-115.2060600840457
 30
0.0
 10
109.4324245603155
 20
-115.0241590424245
 30
0.0
 10
109.7097547468781
 20
-115.0241590424245
 30
0.0
 10
110.0480631235297
 20
-115.0241590424245
 30
0.0
 10
110.2151502545643
 20
-115.2715168982655
 30
0.0
 10
110.2151502545643
 20
-115.5485025752795
 30
0.0
  0
HATCH
  5
A9
330
A4
100
AcDbEntity
  8
_U+30EC_U+30A4_U+30E4_U+30FC 1
 62
   179
420
  2234388
100
AcDbHatch
 10
0.0
 20
0.0
 30
0.0
210
0.0
220
0.0
230
1.0
  2
SOLID
 70
     1
 71
     0
 91
        1
 92
        1
 93
        1
 72
     4
 94
        3
 73
     0
 74
     1
 95
       62
 96
       58
 40
0.0
 40
0.0
 40
0.0
 40
0.0
 40
1.0
 40
1.0
 40
1.0
 40
2.0
 40
2.0
 40
2.0
 40
3.0
 40
3.0
 40
3.0
 40
4.0
 40
4.0
 40
4.0
 40
5.0
 40
5.0
 40
5.0
 40
6.0
 40
6.0
 40
6.0
 40
7.0
 40
7.0
 40
7.0
 40
8.0
 40
8.0
 40
8.0
 40
9.0
 40
9.0
 40
9.0
 40
10.0
 40
10.0
 40
10.0
 40
11.0
 40
11.0
 40
11.0
 40
12.0
 40
12.0
 40
12.0
 40
13.0
 40
13.0
 40
13.0
 40
14.0
 40
14.0
 40
14.0
 40
15.0
 40
15.0
 40
15.0
 40
16.0
 40
16.0
 40
16.0
 40
17.0
 40
17.0
 40
17.0
 40
18.0
 40
18.0
 40
18.0
 40
19.0
 40
19.0
 40
19.0
 40
19.0
 10
110.2151502545643
 20
-115.5485025752795
 10
110.2151502545643
 20
-115.643931720221
 10
110.1941351721043
 20
-115.8616617548888
 10
110.0081000159008
 20
-115.9867187210033
 10
109.8957899030816
 20
-116.0604437643877
 10
109.7965711531064
 20
-116.0649223885185
 10
109.7118218041693
 20
-116.0690565031008
 10
109.7118218041693
 20
-116.0690565031008
 10
109.7118218041693
 20
-115.8489149015933
 10
109.7118218041693
 20
-115.8489149015933
 10
109.7858913571021
 20
-115.8468478443022
 10
110.0205023596477
 20
-115.8365125578464
 10
110.0205023596477
 20
-115.5529811994104
 10
110.0205023596477
 20
-115.4155218895489
 10
109.9509114308456
 20
-115.2629041595523
 10
109.7225016001735
 20
-115.2629041595523
 10
109.6060573727721
 20
-115.2629041595523
 10
109.5574815264301
 20
-115.3011447194386
 10
109.5257866479658
 20
-115.3328395979029
 10
109.4517170950329
 20
-115.4069091508358
 10
109.4389702417375
 20
-115.5233533782372
 10
109.4389702417375
 20
-115.5781303964527
 10
109.4389702417375
 20
-115.5974229311701
 10
109.4410372990286
 20
-115.6332519242167
 10
109.4451714136109
 20
-115.6608126880987
 10
109.4451714136109
 20
-115.6608126880987
 10
109.2505235186943
 20
-115.6608126880987
 10
109.2505235186943
 20
-115.6608126880987
 10
109.2570692001163
 20
-115.6225721282124
 10
109.2591362574074
 20
-115.5805419632924
 10
109.2591362574074
 20
-115.5739962818704
 10
109.2591362574074
 20
-115.5085394676506
 10
109.2377766653989
 20
-115.3097574581517
 10
109.0010986055622
 20
-115.3097574581517
 10
108.8233316785233
 20
-115.3097574581517
 10
108.7682101507593
 20
-115.4406710865912
 10
108.7682101507593
 20
-115.5509141421192
 10
108.7682101507593
 20
-115.8151529658379
 10
109.0010986055622
 20
-115.823765704551
 10
109.0727565916554
 20
-115.8278998191333
 10
109.0727565916554
 20
-115.8278998191333
 10
109.0727565916554
 20
-116.031160452763
 10
109.0727565916554
 20
-116.031160452763
 10
108.9480441350894
 20
-116.0225477140499
 10
108.5714951985516
 20
-115.9949869501679
 10
108.5714951985516
 20
-115.5381672888238
 10
108.5714951985516
 20
-115.313891572734
 10
108.6986192219573
 20
-115.0727348887665
 10
108.9945529241403
 20
-115.0727348887665
 10
109.1809325898923
 20
-115.0727348887665
 10
109.2632703719897
 20
-115.1678195241594
 10
109.3245930716272
 20
-115.2673827836832
 10
109.3521538355092
 20
-115.2060600840457
 10
109.4324245603155
 20
-115.0241590424245
 10
109.7097547468781
 20
-115.0241590424245
 10
110.0480631235297
 20
-115.0241590424245
 10
110.2151502545643
 20
-115.2715168982655
 10
110.2151502545643
 20
-115.5485025752795
 97
        0
 97
        0
 75
     2
 76
     1
 98
        0
  0
ENDBLK
  5
A7
330
A4
100
AcDbEntity
  8
0
100
AcDbBlockEnd
  0
BLOCK
  5
AC
330
AA
100
AcDbEntity
  8
0
100
AcDbBlockBegin
  2
block 6
 70
     0
 10
0.0
 20
0.0
 30
0.0
  3
block 6
  1

  0
SPLINE
  5
AE
330
AA
100
AcDbEntity
  8
_U+30EC_U+30A4_U+30E4_U+30FC 1
370
     0
100
AcDbSpline
210
0.0
220
0.0
230
1.0
 70
    11
 71
     3
 72
    44
 73
    40
 74
     0
 42
0.0000000001
 43
0.0000000001
 12
1.0
 22
0.0
 32
0.0
 13
1.0
 23
0.0
 33
0.0
 40
0.0
 40
0.0
 40
0.0
 40
0.0
 40
1.0
 40
1.0
 40
1.0
 40
2.0
 40
2.0
 40
2.0
 40
3.0
 40
3.0
 40
3.0
 40
4.0
 40
4.0
 40
4.0
 40
5.0
 40
5.0
 40
5.0
 40
6.0
 40
6.0
 40
6.0
 40
7.0
 40
7.0
 40
7.0
 40
8.0
 40
8.0
 40
8.0
 40
9.0
 40
9.0
 40
9.0
 40
10.0
 40
10.0
 40
10.0
 40
11.0
 40
11.0
 40
11.0
 40
12.0
 40
12.0
 40
12.0
 40
13.0
 40
13.0
 40
13.0
 40
13.0
 10
72.80141328475104
 20
-127.0416856236215
 30
0.0
 10
72.96023218662106
 20
-127.2594156582893
 30
0.0
 10
73.03430173955392
 20
-127.3524332363911
 30
0.0
 10
73.17796222128885
 20
-127.4013535922816
 30
0.0
 10
73.17796222128885
 20
-127.4013535922816
 30
0.0
 10
73.17796222128885
 20
-126.6227620126152
 30
0.0
 10
73.17796222128885
 20
-126.6227620126152
 30
0.0
 10
73.17796222128885
 20
-126.6227620126152
 30
0.0
 10
73.38328991220973
 20
-126.6227620126152
 30
0.0
 10
73.38328991220973
 20
-126.6227620126152
 30
0.0
 10
73.38328991220973
 20
-126.6227620126152
 30
0.0
 10
73.38328991220973
 20
-127.6507785054137
 30
0.0
 10
73.38328991220973
 20
-127.6507785054137
 30
0.0
 10
73.0256890008408
 20
-127.6190836269494
 30
0.0
 10
72.94748533332563
 20
-127.5536268127297
 30
0.0
 10
72.649140064303
 20
-127.1684651374787
 30
0.0
 10
72.45035805480408
 20
-126.9124945429247
 30
0.0
 10
72.38248967374466
 20
-126.8470377287049
 30
0.0
 10
72.24503036388319
 20
-126.8470377287049
 30
0.0
 10
72.1265190791906
 20
-126.8470377287049
 30
0.0
 10
71.9956054507511
 20
-126.9190402243466
 30
0.0
 10
71.9956054507511
 20
-127.1157551765544
 30
0.0
 10
71.9956054507511
 20
-127.3758598856908
 30
0.0
 10
72.22608233871432
 20
-127.3844726244039
 30
0.0
 10
72.34252656611577
 20
-127.3886067389862
 30
0.0
 10
72.34252656611577
 20
-127.3886067389862
 30
0.0
 10
72.34252656611577
 20
-127.6128824550759
 30
0.0
 10
72.34252656611577
 20
-127.6128824550759
 30
0.0
 10
72.21540254271004
 20
-127.6042697163628
 30
0.0
 10
72.10343693943942
 20
-127.5935899203586
 30
0.0
 10
71.98492565474683
 20
-127.5133191955522
 30
0.0
 10
71.82403969558565
 20
-127.4034206495728
 30
0.0
 10
71.79027775983022
 20
-127.2170409838208
 30
0.0
 10
71.79027775983022
 20
-127.1009412659678
 30
0.0
 10
71.79027775983022
 20
-126.8236110794052
 30
0.0
 10
71.97424585874255
 20
-126.6162163311932
 30
0.0
 10
72.24709742117435
 20
-126.6162163311932
 30
0.0
 10
72.47585176139494
 20
-126.6162163311932
 30
0.0
 10
72.57507051137013
 20
-126.7326605585946
 30
0.0
 10
72.80141328475104
 20
-127.0416856236215
 30
0.0
  0
HATCH
  5
AF
330
AA
100
AcDbEntity
  8
_U+30EC_U+30A4_U+30E4_U+30FC 1
 62
   179
420
  2234388
100
AcDbHatch
 10
0.0
 20
0.0
 30
0.0
210
0.0
220
0.0
230
1.0
  2
SOLID
 70
     1
 71
     0
 91
        1
 92
        1
 93
        1
 72
     4
 94
        3
 73
     0
 74
     1
 95
       44
 96
       40
 40
0.0
 40
0.0
 40
0.0
 40
0.0
 40
1.0
 40
1.0
 40
1.0
 40
2.0
 40
2.0
 40
2.0
 40
3.0
 40
3.0
 40
3.0
 40
4.0
 40
4.0
 40
4.0
 40
5.0
 40
5.0
 40
5.0
 40
6.0
 40
6.0
 40
6.0
 40
7.0
 40
7.0
 40
7.0
 40
8.0
 40
8.0
 40
8.0
 40
9.0
 40
9.0
 40
9.0
 40
10.0
 40
10.0
 40
10.0
 40
11.0
 40
11.0
 40
11.0
 40
12.0
 40
12.0
 40
12.0
 40
13.0
 40
13.0
 40
13.0
 40
13.0
 10
72.80141328475104
 20
-127.0416856236215
 10
72.96023218662106
 20
-127.2594156582893
 10
73.03430173955392
 20
-127.3524332363911
 10
73.17796222128885
 20
-127.4013535922816
 10
73.17796222128885
 20
-127.4013535922816
 10
73.17796222128885
 20
-126.6227620126152
 10
73.17796222128885
 20
-126.6227620126152
 10
73.17796222128885
 20
-126.6227620126152
 10
73.38328991220973
 20
-126.6227620126152
 10
73.38328991220973
 20
-126.6227620126152
 10
73.38328991220973
 20
-126.6227620126152
 10
73.38328991220973
 20
-127.6507785054137
 10
73.38328991220973
 20
-127.6507785054137
 10
73.0256890008408
 20
-127.6190836269494
 10
72.94748533332563
 20
-127.5536268127297
 10
72.649140064303
 20
-127.1684651374787
 10
72.45035805480408
 20
-126.9124945429247
 10
72.38248967374466
 20
-126.8470377287049
 10
72.24503036388319
 20
-126.8470377287049
 10
72.1265190791906
 20
-126.8470377287049
 10
71.9956054507511
 20
-126.9190402243466
 10
71.9956054507511
 20
-127.1157551765544
 10
71.9956054507511
 20
-127.3758598856908
 10
72.22608233871432
 20
-127.3844726244039
 10
72.34252656611577
 20
-127.3886067389862
 10
72.34252656611577
 20
-127.3886067389862
 10
72.34252656611577
 20
-127.6128824550759
 10
72.34252656611577
 20
-127.6128824550759
 10
72.21540254271004
 20
-127.6042697163628
 10
72.10343693943942
 20
-127.5935899203586
 10
71.98492565474683
 20
-127.5133191955522
 10
71.82403969558565
 20
-127.4034206495728
 10
71.79027775983022
 20
-127.2170409838208
 10
71.79027775983022
 20
-127.1009412659678
 10
71.79027775983022
 20
-126.8236110794052
 10
71.97424585874255
 20
-126.6162163311932
 10
72.24709742117435
 20
-126.6162163311932
 10
72.47585176139494
 20
-126.6162163311932
 10
72.57507051137013
 20
-126.7326605585946
 10
72.80141328475104
 20
-127.0416856236215
 97
        0
 97
        0
 75
     2
 76
     1
 98
        0
  0
SPLINE
  5
B0
330
AA
100
AcDbEntity
  8
_U+30EC_U+30A4_U+30E4_U+30FC 1
370
     0
100
AcDbSpline
210
0.0
220
0.0
230
1.0
 70
    11
 71
     3
 72
    53
 73
    49
 74
     0
 42
0.0000000001
 43
0.0000000001
 12
1.0
 22
0.0
 32
0.0
 13
1.0
 23
0.0
 33
0.0
 40
0.0
 40
0.0
 40
0.0
 40
0.0
 40
1.0
 40
1.0
 40
1.0
 40
2.0
 40
2.0
 40
2.0
 40
3.0
 40
3.0
 40
3.0
 40
4.0
 40
4.0
 40
4.0
 40
5.0
 40
5.0
 40
5.0
 40
6.0
 40
6.0
 40
6.0
 40
7.0
 40
7.0
 40
7.0
 40
8.0
 40
8.0
 40
8.0
 40
9.0
 40
9.0
 40
9.0
 40
10.0
 40
10.0
 40
10.0
 40
11.0
 40
11.0
 40
11.0
 40
12.0
 40
12.0
 40
12.0
 40
13.0
 40
13.0
 40
13.0
 40
14.0
 40
14.0
 40
14.0
 40
15.0
 40
15.0
 40
15.0
 40
16.0
 40
16.0
 40
16.0
 40
16.0
 10
73.43393281584291
 20
-125.9768066091308
 30
0.0
 10
73.43393281584291
 20
-126.055010276646
 30
0.0
 10
73.41705184796518
 20
-126.1566405934608
 30
0.0
 10
73.35366209103658
 20
-126.2582709102757
 30
0.0
 10
73.24376354505712
 20
-126.4315592131838
 30
0.0
 10
73.1125054070691
 20
-126.4529188051923
 30
0.0
 10
73.00467391838077
 20
-126.4718668303612
 30
0.0
 10
73.00467391838077
 20
-126.4718668303612
 30
0.0
 10
73.00467391838077
 20
-126.2496581715626
 30
0.0
 10
73.00467391838077
 20
-126.2496581715626
 30
0.0
 10
73.2034559278797
 20
-126.1948811533471
 30
0.0
 10
73.23308374905284
 20
-126.0677571299414
 30
0.0
 10
73.23308374905284
 20
-125.9747395518396
 30
0.0
 10
73.23308374905284
 20
-125.835213184687
 30
0.0
 10
73.13352048952912
 20
-125.682939964239
 30
0.0
 10
72.90097654427476
 20
-125.682939964239
 30
0.0
 10
72.6450059497207
 20
-125.682939964239
 30
0.0
 10
72.57507051137013
 20
-125.862773948569
 30
0.0
 10
72.57507051137013
 20
-125.9833522905528
 30
0.0
 10
72.57507051137013
 20
-126.0150471690171
 30
0.0
 10
72.57507051137013
 20
-126.1566405934608
 30
0.0
 10
72.704261592067
 20
-126.2455240569803
 30
0.0
 10
72.704261592067
 20
-126.2455240569803
 30
0.0
 10
72.68531356689812
 20
-126.421223926728
 30
0.0
 10
72.68531356689812
 20
-126.421223926728
 30
0.0
 10
72.68531356689812
 20
-126.421223926728
 30
0.0
 10
71.83885360617224
 20
-126.3006455847443
 30
0.0
 10
71.83885360617224
 20
-126.3006455847443
 30
0.0
 10
71.83885360617224
 20
-126.3006455847443
 30
0.0
 10
71.83885360617224
 20
-125.5220540050778
 30
0.0
 10
71.83885360617224
 20
-125.5220540050778
 30
0.0
 10
71.83885360617224
 20
-125.5220540050778
 30
0.0
 10
72.03350150108885
 20
-125.5220540050778
 30
0.0
 10
72.03350150108885
 20
-125.5220540050778
 30
0.0
 10
72.03350150108885
 20
-125.5220540050778
 30
0.0
 10
72.03350150108885
 20
-126.137692568292
 30
0.0
 10
72.03350150108885
 20
-126.137692568292
 30
0.0
 10
72.03350150108885
 20
-126.137692568292
 30
0.0
 10
72.45655922667753
 20
-126.2031493825117
 30
0.0
 10
72.45655922667753
 20
-126.2031493825117
 30
0.0
 10
72.42279729092208
 20
-126.1418266828743
 30
0.0
 10
72.38248967374466
 20
-126.0594889007768
 30
0.0
 10
72.38248967374466
 20
-125.9409776160842
 30
0.0
 10
72.38248967374466
 20
-125.6870740788213
 30
0.0
 10
72.56886933949667
 20
-125.4500515094361
 30
0.0
 10
72.88202851910589
 20
-125.4500515094361
 30
0.0
 10
73.1993218132974
 20
-125.4500515094361
 30
0.0
 10
73.43393281584291
 20
-125.6743272255259
 30
0.0
 10
73.43393281584291
 20
-125.9768066091308
 30
0.0
  0
HATCH
  5
B1
330
AA
100
AcDbEntity
  8
_U+30EC_U+30A4_U+30E4_U+30FC 1
 62
   179
420
  2234388
100
AcDbHatch
 10
0.0
 20
0.0
 30
0.0
210
0.0
220
0.0
230
1.0
  2
SOLID
 70
     1
 71
     0
 91
        1
 92
        1
 93
        1
 72
     4
 94
        3
 73
     0
 74
     1
 95
       53
 96
       49
 40
0.0
 40
0.0
 40
0.0
 40
0.0
 40
1.0
 40
1.0
 40
1.0
 40
2.0
 40
2.0
 40
2.0
 40
3.0
 40
3.0
 40
3.0
 40
4.0
 40
4.0
 40
4.0
 40
5.0
 40
5.0
 40
5.0
 40
6.0
 40
6.0
 40
6.0
 40
7.0
 40
7.0
 40
7.0
 40
8.0
 40
8.0
 40
8.0
 40
9.0
 40
9.0
 40
9.0
 40
10.0
 40
10.0
 40
10.0
 40
11.0
 40
11.0
 40
11.0
 40
12.0
 40
12.0
 40
12.0
 40
13.0
 40
13.0
 40
13.0
 40
14.0
 40
14.0
 40
14.0
 40
15.0
 40
15.0
 40
15.0
 40
16.0
 40
16.0
 40
16.0
 40
16.0
 10
73.43393281584291
 20
-125.9768066091308
 10
73.43393281584291
 20
-126.055010276646
 10
73.41705184796518
 20
-126.1566405934608
 10
73.35366209103658
 20
-126.2582709102757
 10
73.24376354505712
 20
-126.4315592131838
 10
73.1125054070691
 20
-126.4529188051923
 10
73.00467391838077
 20
-126.4718668303612
 10
73.00467391838077
 20
-126.4718668303612
 10
73.00467391838077
 20
-126.2496581715626
 10
73.00467391838077
 20
-126.2496581715626
 10
73.2034559278797
 20
-126.1948811533471
 10
73.23308374905284
 20
-126.0677571299414
 10
73.23308374905284
 20
-125.9747395518396
 10
73.23308374905284
 20
-125.835213184687
 10
73.13352048952912
 20
-125.682939964239
 10
72.90097654427476
 20
-125.682939964239
 10
72.6450059497207
 20
-125.682939964239
 10
72.57507051137013
 20
-125.862773948569
 10
72.57507051137013
 20
-125.9833522905528
 10
72.57507051137013
 20
-126.0150471690171
 10
72.57507051137013
 20
-126.1566405934608
 10
72.704261592067
 20
-126.2455240569803
 10
72.704261592067
 20
-126.2455240569803
 10
72.68531356689812
 20
-126.421223926728
 10
72.68531356689812
 20
-126.421223926728
 10
72.68531356689812
 20
-126.421223926728
 10
71.83885360617224
 20
-126.3006455847443
 10
71.83885360617224
 20
-126.3006455847443
 10
71.83885360617224
 20
-126.3006455847443
 10
71.83885360617224
 20
-125.5220540050778
 10
71.83885360617224
 20
-125.5220540050778
 10
71.83885360617224
 20
-125.5220540050778
 10
72.03350150108885
 20
-125.5220540050778
 10
72.03350150108885
 20
-125.5220540050778
 10
72.03350150108885
 20
-125.5220540050778
 10
72.03350150108885
 20
-126.137692568292
 10
72.03350150108885
 20
-126.137692568292
 10
72.03350150108885
 20
-126.137692568292
 10
72.45655922667753
 20
-126.2031493825117
 10
72.45655922667753
 20
-126.2031493825117
 10
72.42279729092208
 20
-126.1418266828743
 10
72.38248967374466
 20
-126.0594889007768
 10
72.38248967374466
 20
-125.9409776160842
 10
72.38248967374466
 20
-125.6870740788213
 10
72.56886933949667
 20
-125.4500515094361
 10
72.88202851910589
 20
-125.4500515094361
 10
73.1993218132974
 20
-125.4500515094361
 10
73.43393281584291
 20
-125.6743272255259
 10
73.43393281584291
 20
-125.9768066091308
 97
        0
 97
        0
 75
     2
 76
     1
 98
        0
  0
ENDBLK
  5
AD
330
AA
100
AcDbEntity
  8
0
100
AcDbBlockEnd
  0
ENDSEC
  0
SECTION
  2
ENTITIES
  0
INSERT
  5
42
330
1F
100
AcDbEntity
  8
_U+30EC_U+30A4_U+30E4_U+30FC 1
100
AcDbBlockReference
  2
block 2
 10
0.0
 20
0.0
 30
0.0
  0
POLYLINE
  5
49
330
1F
100
AcDbEntity
  8
_U+30EC_U+30A4_U+30E4_U+30FC 1
 62
   179
420
  2234388
370
     9
100
AcDb2dPolyline
 66
     1
 10
0.0
 20
0.0
 30
0.0
  0
VERTEX
  5
4A
330
49
100
AcDbEntity
  8
_U+30EC_U+30A4_U+30E4_U+30FC 1
 62
   179
420
  2234388
370
     9
100
AcDbVertex
100
AcDb2dVertex
 10
73.02877285910301
 20
-114.0461058048219
 30
0.0
  0
VERTEX
  5
4B
330
49
100
AcDbEntity
  8
_U+30EC_U+30A4_U+30E4_U+30FC 1
 62
   179
420
  2234388
370
     9
100
AcDbVertex
100
AcDb2dVertex
 10
75.52890890643033
 20
-114.0461058048219
 30
0.0
  0
SEQEND
  5
4C
330
49
100
AcDbEntity
  8
_U+30EC_U+30A4_U+30E4_U+30FC 1
 62
   179
420
  2234388
370
     9
  0
POLYLINE
  5
4D
330
1F
100
AcDbEntity
  8
_U+30EC_U+30A4_U+30E4_U+30FC 1
 62
   179
420
  2234388
370
     9
100
AcDb2dPolyline
 66
     1
 10
0.0
 20
0.0
 30
0.0
  0
VERTEX
  5
4E
330
4D
100
AcDbEntity
  8
_U+30EC_U+30A4_U+30E4_U+30FC 1
 62
   179
420
  2234388
370
     9
100
AcDbVertex
100
AcDb2dVertex
 10
105.9893995182074
 20
-117.0460927485163
 30
0.0
  0
VERTEX
  5
4F
330
4D
100
AcDbEntity
  8
_U+30EC_U+30A4_U+30E4_U+30FC 1
 62
   179
420
  2234388
370
     9
100
AcDbVertex
100
AcDb2dVertex
 10
105.9893995182074
 20
-114.0461058048219
 30
0.0
  0
SEQEND
  5
50
330
4D
100
AcDbEntity
  8
_U+30EC_U+30A4_U+30E4_U+30FC 1
 62
   179
420
  2234388
370
     9
  0
POLYLINE
  5
51
330
1F
100
AcDbEntity
  8
_U+30EC_U+30A4_U+30E4_U+30FC 1
 62
   179
420
  2234388
370
     9
100
AcDb2dPolyline
 66
     1
 10
0.0
 20
0.0
 30
0.0
  0
VERTEX
  5
52
330
51
100
AcDbEntity
  8
_U+30EC_U+30A4_U+30E4_U+30FC 1
 62
   179
420
  2234388
370
     9
100
AcDbVertex
100
AcDb2dVertex
 10
104.5293581665672
 20
-117.0460927485163
 30
0.0
  0
VERTEX
  5
53
330
51
100
AcDbEntity
  8
_U+30EC_U+30A4_U+30E4_U+30FC 1
 62
   179
420
  2234388
370
     9
100
AcDbVertex
100
AcDb2dVertex
 10
106.9898419926839
 20
-117.0460927485163
 30
0.0
  0
SEQEND
  5
54
330
51
100
AcDbEntity
  8
_U+30EC_U+30A4_U+30E4_U+30FC 1
 62
   179
420
  2234388
370
     9
  0
INSERT
  5
56
330
1F
100
AcDbEntity
  8
_U+30EC_U+30A4_U+30E4_U+30FC 1
100
AcDbBlockReference
  2
block 3
 10
0.0
 20
0.0
 30
0.0
  0
POLYLINE
  5
5E
330
1F
100
AcDbEntity
  8
_U+30EC_U+30A4_U+30E4_U+30FC 1
 62
   179
420
  2234388
370
     9
100
AcDb2dPolyline
 66
     1
 10
0.0
 20
0.0
 30
0.0
  0
VERTEX
  5
5F
330
5E
100
AcDbEntity
  8
_U+30EC_U+30A4_U+30E4_U+30FC 1
 62
   179
420
  2234388
370
     9
100
AcDbVertex
100
AcDb2dVertex
 10
78.02900967598079
 20
-143.0455327420161
 30
0.0
  0
VERTEX
  5
60
330
5E
100
AcDbEntity
  8
_U+30EC_U+30A4_U+30E4_U+30FC 1
 62
   179
420
  2234388
370
     9
100
AcDbVertex
100
AcDb2dVertex
 10
79.0287818726967
 20
-143.0455327420161
 30
0.0
  0
SEQEND
  5
61
330
5E
100
AcDbEntity
  8
_U+30EC_U+30A4_U+30E4_U+30FC 1
 62
   179
420
  2234388
370
     9
  0
POLYLINE
  5
62
330
1F
100
AcDbEntity
  8
_U+30EC_U+30A4_U+30E4_U+30FC 1
 62
   179
420
  2234388
370
     9
100
AcDb2dPolyline
 66
     1
 10
0.0
 20
0.0
 30
0.0
  0
VERTEX
  5
63
330
62
100
AcDbEntity
  8
_U+30EC_U+30A4_U+30E4_U+30FC 1
 62
   179
420
  2234388
370
     9
100
AcDbVertex
100
AcDb2dVertex
 10
79.0287818726967
 20
-143.0455327420161
 30
0.0
  0
VERTEX
  5
64
330
62
100
AcDbEntity
  8
_U+30EC_U+30A4_U+30E4_U+30FC 1
 62
   179
420
  2234388
370
     9
100
AcDbVertex
100
AcDb2dVertex
 10
92.02881904103812
 20
-143.0455327420161
 30
0.0
  0
SEQEND
  5
65
330
62
100
AcDbEntity
  8
_U+30EC_U+30A4_U+30E4_U+30FC 1
 62
   179
420
  2234388
370
     9
  0
POLYLINE
  5
66
330
1F
100
AcDbEntity
  8
_U+30EC_U+30A4_U+30E4_U+30FC 1
 62
   179
420
  2234388
370
     9
100
AcDb2dPolyline
 66
     1
 10
0.0
 20
0.0
 30
0.0
  0
VERTEX
  5
67
330
66
100
AcDbEntity
  8
_U+30EC_U+30A4_U+30E4_U+30FC 1
 62
   179
420
  2234388
370
     9
100
AcDbVertex
100
AcDb2dVertex
 10
79.0287818726967
 20
-141.5854913534924
 30
0.0
  0
VERTEX
  5
68
330
66
100
AcDbEntity
  8
_U+30EC_U+30A4_U+30E4_U+30FC 1
 62
   179
420
  2234388
370
     9
100
AcDbVertex
100
AcDb2dVertex
 10
79.0287818726967
 20
-144.0456577417664
 30
0.0
  0
SEQEND
  5
69
330
66
100
AcDbEntity
  8
_U+30EC_U+30A4_U+30E4_U+30FC 1
 62
   179
420
  2234388
370
     9
  0
POLYLINE
  5
6A
330
1F
100
AcDbEntity
  8
_U+30EC_U+30A4_U+30E4_U+30FC 1
 62
   179
420
  2234388
370
     9
100
AcDb2dPolyline
 66
     1
 10
0.0
 20
0.0
 30
0.0
  0
VERTEX
  5
6B
330
6A
100
AcDbEntity
  8
_U+30EC_U+30A4_U+30E4_U+30FC 1
 62
   179
420
  2234388
370
     9
100
AcDbVertex
100
AcDb2dVertex
 10
92.02917181880689
 20
-143.0455327420161
 30
0.0
  0
VERTEX
  5
6C
330
6A
100
AcDbEntity
  8
_U+30EC_U+30A4_U+30E4_U+30FC 1
 62
   179
420
  2234388
370
     9
100
AcDbVertex
100
AcDb2dVertex
 10
102.0292573970168
 20
-143.0455327420161
 30
0.0
  0
SEQEND
  5
6D
330
6A
100
AcDbEntity
  8
_U+30EC_U+30A4_U+30E4_U+30FC 1
 62
   179
420
  2234388
370
     9
  0
INSERT
  5
6F
330
1F
100
AcDbEntity
  8
_U+30EC_U+30A4_U+30E4_U+30FC 1
100
AcDbBlockReference
  2
block 4
 10
0.0
 20
0.0
 30
0.0
  0
POLYLINE
  5
74
330
1F
100
AcDbEntity
  8
_U+30EC_U+30A4_U+30E4_U+30FC 1
370
     0
100
AcDb2dPolyline
 66
     1
 10
0.0
 20
0.0
 30
0.0
  0
VERTEX
  5
75
330
74
100
AcDbEntity
  8
_U+30EC_U+30A4_U+30E4_U+30FC 1
370
     0
100
AcDbVertex
100
AcDb2dVertex
 10
79.0287818726967
 20
-139.0461263541276
 30
0.0
  0
VERTEX
  5
76
330
74
100
AcDbEntity
  8
_U+30EC_U+30A4_U+30E4_U+30FC 1
370
     0
100
AcDbVertex
100
AcDb2dVertex
 10
78.02900967598079
 20
-139.0461263541276
 30
0.0
  0
VERTEX
  5
77
330
74
100
AcDbEntity
  8
_U+30EC_U+30A4_U+30E4_U+30FC 1
370
     0
100
AcDbVertex
100
AcDb2dVertex
 10
78.02900967598079
 20
-114.0461058048219
 30
0.0
  0
VERTEX
  5
78
330
74
100
AcDbEntity
  8
_U+30EC_U+30A4_U+30E4_U+30FC 1
370
     0
100
AcDbVertex
100
AcDb2dVertex
 10
94.90342868992293
 20
-114.0461058048219
 30
0.0
  0
VERTEX
  5
79
330
74
100
AcDbEntity
  8
_U+30EC_U+30A4_U+30E4_U+30FC 1
370
     0
100
AcDbVertex
100
AcDb2dVertex
 10
93.82477775432127
 20
-116.0459677487663
 30
0.0
  0
VERTEX
  5
7A
330
74
100
AcDbEntity
  8
_U+30EC_U+30A4_U+30E4_U+30FC 1
370
     0
100
AcDbVertex
100
AcDb2dVertex
 10
101.0122721969694
 20
-116.0459677487663
 30
0.0
  0
VERTEX
  5
7B
330
74
100
AcDbEntity
  8
_U+30EC_U+30A4_U+30E4_U+30FC 1
370
     0
100
AcDbVertex
100
AcDb2dVertex
 10
101.0122721969694
 20
-115.076710804564
 30
0.0
  0
VERTEX
  5
7C
330
74
100
AcDbEntity
  8
_U+30EC_U+30A4_U+30E4_U+30FC 1
370
     0
100
AcDbVertex
100
AcDb2dVertex
 10
102.0123593418923
 20
-114.0459294159331
 30
0.0
  0
VERTEX
  5
7D
330
74
100
AcDbEntity
  8
_U+30EC_U+30A4_U+30E4_U+30FC 1
370
     0
100
AcDbVertex
100
AcDb2dVertex
 10
102.0123593418923
 20
-117.0459163596274
 30
0.0
  0
VERTEX
  5
7E
330
74
100
AcDbEntity
  8
_U+30EC_U+30A4_U+30E4_U+30FC 1
370
     0
100
AcDbVertex
100
AcDb2dVertex
 10
92.01195626369054
 20
-117.055899970736
 30
0.0
  0
VERTEX
  5
7F
330
74
100
AcDbEntity
  8
_U+30EC_U+30A4_U+30E4_U+30FC 1
370
     0
100
AcDbVertex
100
AcDb2dVertex
 10
93.18053262276656
 20
-115.0460191379052
 30
0.0
  0
VERTEX
  5
80
330
74
100
AcDbEntity
  8
_U+30EC_U+30A4_U+30E4_U+30FC 1
370
     0
100
AcDbVertex
100
AcDb2dVertex
 10
79.0287818726967
 20
-115.0460191379052
 30
0.0
  0
VERTEX
  5
81
330
74
100
AcDbEntity
  8
_U+30EC_U+30A4_U+30E4_U+30FC 1
370
     0
100
AcDbVertex
100
AcDb2dVertex
 10
79.0287818726967
 20
-139.0461263541276
 30
0.0
  0
SEQEND
  5
83
330
74
100
AcDbEntity
  8
_U+30EC_U+30A4_U+30E4_U+30FC 1
370
     0
  0
HATCH
  5
82
330
1F
100
AcDbEntity
  8
_U+30EC_U+30A4_U+30E4_U+30FC 1
 62
     9
420
 13224394
100
AcDbHatch
 10
0.0
 20
0.0
 30
0.0
210
0.0
220
0.0
230
1.0
  2
SOLID
 70
     1
 71
     0
 91
        1
 92
        1
 93
       12
 72
     1
 10
79.0287818726967
 20
-139.0461263541276
 11
78.02900967598079
 21
-139.0461263541276
 72
     1
 10
78.02900967598079
 20
-139.0461263541276
 11
78.02900967598079
 21
-114.0461058048219
 72
     1
 10
78.02900967598079
 20
-114.0461058048219
 11
94.90342868992293
 21
-114.0461058048219
 72
     1
 10
94.90342868992293
 20
-114.0461058048219
 11
93.82477775432127
 21
-116.0459677487663
 72
     1
 10
93.82477775432127
 20
-116.0459677487663
 11
101.0122721969694
 21
-116.0459677487663
 72
     1
 10
101.0122721969694
 20
-116.0459677487663
 11
101.0122721969694
 21
-115.076710804564
 72
     1
 10
101.0122721969694
 20
-115.076710804564
 11
102.0123593418923
 21
-114.0459294159331
 72
     1
 10
102.0123593418923
 20
-114.0459294159331
 11
102.0123593418923
 21
-117.0459163596274
 72
     1
 10
102.0123593418923
 20
-117.0459163596274
 11
92.01195626369054
 21
-117.055899970736
 72
     1
 10
92.01195626369054
 20
-117.055899970736
 11
93.18053262276656
 21
-115.0460191379052
 72
     1
 10
93.18053262276656
 20
-115.0460191379052
 11
79.0287818726967
 21
-115.0460191379052
 72
     1
 10
79.0287818726967
 20
-115.0460191379052
 11
79.0287818726967
 21
-139.0461263541276
 97
        0
 75
     2
 76
     1
 98
        0
  0
SPLINE
  5
84
330
1F
100
AcDbEntity
  8
_U+30EC_U+30A4_U+30E4_U+30FC 1
 62
   179
420
  2234388
370
    25
100
AcDbSpline
210
0.0
220
0.0
230
1.0
 70
    11
 71
     3
 72
    17
 73
    13
 74
     0
 42
0.0000000001
 43
0.0000000001
 12
1.0
 22
0.0
 32
0.0
 13
1.0
 23
0.0
 33
0.0
 40
0.0
 40
0.0
 40
0.0
 40
0.0
 40
1.0
 40
1.0
 40
1.0
 40
2.0
 40
2.0
 40
2.0
 40
3.0
 40
3.0
 40
3.0
 40
4.0
 40
4.0
 40
4.0
 40
4.0
 10
106.089658960094
 20
-117.0460927485163
 30
0.0
 10
106.089658960094
 20
-116.9909535818635
 30
0.0
 10
106.0448561834592
 20
-116.9461860818746
 30
0.0
 10
105.9897522959761
 20
-116.9461860818746
 30
0.0
 10
105.9346131307162
 20
-116.9461860818746
 30
0.0
 10
105.8898456318583
 20
-116.9909535818635
 30
0.0
 10
105.8898456318583
 20
-117.0460927485163
 30
0.0
 10
105.8898456318583
 20
-117.101549415169
 30
0.0
 10
105.9346131307162
 20
-117.1463521929357
 30
0.0
 10
105.9897522959761
 20
-117.1463521929357
 30
0.0
 10
106.0448561834592
 20
-117.1463521929357
 30
0.0
 10
106.089658960094
 20
-117.101549415169
 30
0.0
 10
106.089658960094
 20
-117.0460927485163
 30
0.0
  0
SPLINE
  5
85
330
1F
100
AcDbEntity
  8
_U+30EC_U+30A4_U+30E4_U+30FC 1
 62
   179
420
  2234388
370
    25
100
AcDbSpline
210
0.0
220
0.0
230
1.0
 70
    11
 71
     3
 72
    17
 73
    13
 74
     0
 42
0.0000000001
 43
0.0000000001
 12
1.0
 22
0.0
 32
0.0
 13
1.0
 23
0.0
 33
0.0
 40
0.0
 40
0.0
 40
0.0
 40
0.0
 40
1.0
 40
1.0
 40
1.0
 40
2.0
 40
2.0
 40
2.0
 40
3.0
 40
3.0
 40
3.0
 40
4.0
 40
4.0
 40
4.0
 40
4.0
 10
74.12915727547431
 20
-114.0459294159331
 30
0.0
 10
74.12915727547431
 20
-113.99079024928
 30
0.0
 10
74.08435449883955
 20
-113.9460227492914
 30
0.0
 10
74.02925061135647
 20
-113.9460227492914
 30
0.0
 10
73.97411144609653
 20
-113.9460227492914
 30
0.0
 10
73.92934394723864
 20
-113.99079024928
 30
0.0
 10
73.92934394723864
 20
-114.0459294159331
 30
0.0
 10
73.92934394723864
 20
-114.1013860825857
 30
0.0
 10
73.97411144609653
 20
-114.1461888603525
 30
0.0
 10
74.02925061135647
 20
-114.1461888603525
 30
0.0
 10
74.08435449883955
 20
-114.1461888603525
 30
0.0
 10
74.12915727547431
 20
-114.1013860825857
 30
0.0
 10
74.12915727547431
 20
-114.0459294159331
 30
0.0
  0
SPLINE
  5
86
330
1F
100
AcDbEntity
  8
_U+30EC_U+30A4_U+30E4_U+30FC 1
 62
   179
420
  2234388
370
    25
100
AcDbSpline
210
0.0
220
0.0
230
1.0
 70
    11
 71
     3
 72
    17
 73
    13
 74
     0
 42
0.0000000001
 43
0.0000000001
 12
1.0
 22
0.0
 32
0.0
 13
1.0
 23
0.0
 33
0.0
 40
0.0
 40
0.0
 40
0.0
 40
0.0
 40
1.0
 40
1.0
 40
1.0
 40
2.0
 40
2.0
 40
2.0
 40
3.0
 40
3.0
 40
3.0
 40
4.0
 40
4.0
 40
4.0
 40
4.0
 10
74.12915727547431
 20
-139.0461263541276
 30
0.0
 10
74.12915727547431
 20
-138.9909871874746
 30
0.0
 10
74.08435449883955
 20
-138.946219687486
 30
0.0
 10
74.02925061135647
 20
-138.946219687486
 30
0.0
 10
73.97411144609653
 20
-138.946219687486
 30
0.0
 10
73.92934394723864
 20
-138.9909871874746
 30
0.0
 10
73.92934394723864
 20
-139.0461263541276
 30
0.0
 10
73.92934394723864
 20
-139.1012302430025
 30
0.0
 10
73.97411144609653
 20
-139.1460330207693
 30
0.0
 10
74.02925061135647
 20
-139.1460330207693
 30
0.0
 10
74.08435449883955
 20
-139.1460330207693
 30
0.0
 10
74.12915727547431
 20
-139.1012302430025
 30
0.0
 10
74.12915727547431
 20
-139.0461263541276
 30
0.0
  0
SPLINE
  5
87
330
1F
100
AcDbEntity
  8
_U+30EC_U+30A4_U+30E4_U+30FC 1
 62
   179
420
  2234388
370
    25
100
AcDbSpline
210
0.0
220
0.0
230
1.0
 70
    11
 71
     3
 72
    17
 73
    13
 74
     0
 42
0.0000000001
 43
0.0000000001
 12
1.0
 22
0.0
 32
0.0
 13
1.0
 23
0.0
 33
0.0
 40
0.0
 40
0.0
 40
0.0
 40
0.0
 40
1.0
 40
1.0
 40
1.0
 40
2.0
 40
2.0
 40
2.0
 40
3.0
 40
3.0
 40
3.0
 40
4.0
 40
4.0
 40
4.0
 40
4.0
 10
106.089658960094
 20
-114.0455766381553
 30
0.0
 10
106.089658960094
 20
-113.9904727492801
 30
0.0
 10
106.0448561834592
 20
-113.9456699715137
 30
0.0
 10
105.9897522959761
 20
-113.9456699715137
 30
0.0
 10
105.9346131307162
 20
-113.9456699715137
 30
0.0
 10
105.8898456318583
 20
-113.9904727492801
 30
0.0
 10
105.8898456318583
 20
-114.0455766381553
 30
0.0
 10
105.8898456318583
 20
-114.101033304808
 30
0.0
 10
105.9346131307162
 20
-114.1458360825747
 30
0.0
 10
105.9897522959761
 20
-114.1458360825747
 30
0.0
 10
106.0448561834592
 20
-114.1458360825747
 30
0.0
 10
106.089658960094
 20
-114.101033304808
 30
0.0
 10
106.089658960094
 20
-114.0455766381553
 30
0.0
  0
SPLINE
  5
88
330
1F
100
AcDbEntity
  8
_U+30EC_U+30A4_U+30E4_U+30FC 1
 62
   179
420
  2234388
370
    25
100
AcDbSpline
210
0.0
220
0.0
230
1.0
 70
    11
 71
     3
 72
    17
 73
    13
 74
     0
 42
0.0000000001
 43
0.0000000001
 12
1.0
 22
0.0
 32
0.0
 13
1.0
 23
0.0
 33
0.0
 40
0.0
 40
0.0
 40
0.0
 40
0.0
 40
1.0
 40
1.0
 40
1.0
 40
2.0
 40
2.0
 40
2.0
 40
3.0
 40
3.0
 40
3.0
 40
4.0
 40
4.0
 40
4.0
 40
4.0
 10
79.12868853681452
 20
-143.0455327420161
 30
0.0
 10
79.12868853681452
 20
-142.9907463531414
 30
0.0
 10
79.08388576017977
 20
-142.9456260753745
 30
0.0
 10
79.0287818726967
 20
-142.9456260753745
 30
0.0
 10
78.97364270743674
 20
-142.9456260753745
 30
0.0
 10
78.92887520857886
 20
-142.9907463531414
 30
0.0
 10
78.92887520857886
 20
-143.0455327420161
 30
0.0
 10
78.92887520857886
 20
-143.1009894086694
 30
0.0
 10
78.97364270743674
 20
-143.1454394086584
 30
0.0
 10
79.0287818726967
 20
-143.1454394086584
 30
0.0
 10
79.08388576017977
 20
-143.1454394086584
 30
0.0
 10
79.12868853681452
 20
-143.1009894086694
 30
0.0
 10
79.12868853681452
 20
-143.0455327420161
 30
0.0
  0
SPLINE
  5
89
330
1F
100
AcDbEntity
  8
_U+30EC_U+30A4_U+30E4_U+30FC 1
 62
   179
420
  2234388
370
    25
100
AcDbSpline
210
0.0
220
0.0
230
1.0
 70
    11
 71
     3
 72
    17
 73
    13
 74
     0
 42
0.0000000001
 43
0.0000000001
 12
1.0
 22
0.0
 32
0.0
 13
1.0
 23
0.0
 33
0.0
 40
0.0
 40
0.0
 40
0.0
 40
0.0
 40
1.0
 40
1.0
 40
1.0
 40
2.0
 40
2.0
 40
2.0
 40
3.0
 40
3.0
 40
3.0
 40
4.0
 40
4.0
 40
4.0
 40
4.0
 10
92.12943126069351
 20
-143.0455327420161
 30
0.0
 10
92.12943126069351
 20
-142.9907463531414
 30
0.0
 10
92.08462848405874
 20
-142.9456260753745
 30
0.0
 10
92.02952459657567
 20
-142.9456260753745
 30
0.0
 10
91.97438543131572
 20
-142.9456260753745
 30
0.0
 10
91.92961793245783
 20
-142.9907463531414
 30
0.0
 10
91.92961793245783
 20
-143.0455327420161
 30
0.0
 10
91.92961793245783
 20
-143.1009894086694
 30
0.0
 10
91.97438543131572
 20
-143.1454394086584
 30
0.0
 10
92.02952459657567
 20
-143.1454394086584
 30
0.0
 10
92.08462848405874
 20
-143.1454394086584
 30
0.0
 10
92.12943126069351
 20
-143.1009894086694
 30
0.0
 10
92.12943126069351
 20
-143.0455327420161
 30
0.0
  0
SPLINE
  5
8A
330
1F
100
AcDbEntity
  8
_U+30EC_U+30A4_U+30E4_U+30FC 1
 62
   179
420
  2234388
370
    25
100
AcDbSpline
210
0.0
220
0.0
230
1.0
 70
    11
 71
     3
 72
    17
 73
    13
 74
     0
 42
0.0000000001
 43
0.0000000001
 12
1.0
 22
0.0
 32
0.0
 13
1.0
 23
0.0
 33
0.0
 40
0.0
 40
0.0
 40
0.0
 40
0.0
 40
1.0
 40
1.0
 40
1.0
 40
2.0
 40
2.0
 40
2.0
 40
3.0
 40
3.0
 40
3.0
 40
4.0
 40
4.0
 40
4.0
 40
4.0
 10
102.1291666411344
 20
-143.0455327420161
 30
0.0
 10
102.1291666411344
 20
-142.9907463531414
 30
0.0
 10
102.0843638633677
 20
-142.9456260753745
 30
0.0
 10
102.0292573970168
 20
-142.9456260753745
 30
0.0
 10
101.9741182317568
 20
-142.9456260753745
 30
0.0
 10
101.929350732899
 20
-142.9907463531414
 30
0.0
 10
101.929350732899
 20
-143.0455327420161
 30
0.0
 10
101.929350732899
 20
-143.1009894086694
 30
0.0
 10
101.9741182317568
 20
-143.1454394086584
 30
0.0
 10
102.0292573970168
 20
-143.1454394086584
 30
0.0
 10
102.0843638633677
 20
-143.1454394086584
 30
0.0
 10
102.1291666411344
 20
-143.1009894086694
 30
0.0
 10
102.1291666411344
 20
-143.0455327420161
 30
0.0
  0
SPLINE
  5
8B
330
1F
100
AcDbEntity
  8
_U+30EC_U+30A4_U+30E4_U+30FC 1
 62
   179
420
  2234388
370
    25
100
AcDbSpline
210
0.0
220
0.0
230
1.0
 70
    11
 71
     3
 72
    17
 73
    13
 74
     0
 42
0.0000000001
 43
0.0000000001
 12
1.0
 22
0.0
 32
0.0
 13
1.0
 23
0.0
 33
0.0
 40
0.0
 40
0.0
 40
0.0
 40
0.0
 40
1.0
 40
1.0
 40
1.0
 40
2.0
 40
2.0
 40
2.0
 40
3.0
 40
3.0
 40
3.0
 40
4.0
 40
4.0
 40
4.0
 40
4.0
 10
78.12891634009861
 20
-143.0455327420161
 30
0.0
 10
78.12891634009861
 20
-142.9907463531414
 30
0.0
 10
78.08411356346386
 20
-142.9456260753745
 30
0.0
 10
78.02900967598079
 20
-142.9456260753745
 30
0.0
 10
77.97387051072083
 20
-142.9456260753745
 30
0.0
 10
77.92910301186295
 20
-142.9907463531414
 30
0.0
 10
77.92910301186295
 20
-143.0455327420161
 30
0.0
 10
77.92910301186295
 20
-143.1009894086694
 30
0.0
 10
77.97387051072083
 20
-143.1454394086584
 30
0.0
 10
78.02900967598079
 20
-143.1454394086584
 30
0.0
 10
78.08411356346386
 20
-143.1454394086584
 30
0.0
 10
78.12891634009861
 20
-143.1009894086694
 30
0.0
 10
78.12891634009861
 20
-143.0455327420161
 30
0.0
  0
POLYLINE
  5
8C
330
1F
100
AcDbEntity
  8
_U+30EC_U+30A4_U+30E4_U+30FC 1
 62
   179
420
  2234388
370
     9
100
AcDb2dPolyline
 66
     1
 10
0.0
 20
0.0
 30
0.0
  0
VERTEX
  5
8D
330
8C
100
AcDbEntity
  8
_U+30EC_U+30A4_U+30E4_U+30FC 1
 62
   179
420
  2234388
370
     9
100
AcDbVertex
100
AcDb2dVertex
 10
78.02900967598079
 20
-141.5854913534924
 30
0.0
  0
VERTEX
  5
8E
330
8C
100
AcDbEntity
  8
_U+30EC_U+30A4_U+30E4_U+30FC 1
 62
   179
420
  2234388
370
     9
100
AcDbVertex
100
AcDb2dVertex
 10
78.02900967598079
 20
-144.0456577417664
 30
0.0
  0
SEQEND
  5
8F
330
8C
100
AcDbEntity
  8
_U+30EC_U+30A4_U+30E4_U+30FC 1
 62
   179
420
  2234388
370
     9
  0
POLYLINE
  5
90
330
1F
100
AcDbEntity
  8
_U+30EC_U+30A4_U+30E4_U+30FC 1
 62
   179
420
  2234388
370
     9
100
AcDb2dPolyline
 66
     1
 10
0.0
 20
0.0
 30
0.0
  0
VERTEX
  5
91
330
90
100
AcDbEntity
  8
_U+30EC_U+30A4_U+30E4_U+30FC 1
 62
   179
420
  2234388
370
     9
100
AcDbVertex
100
AcDb2dVertex
 10
92.02850154104621
 20
-119.5460171923358
 30
0.0
  0
VERTEX
  5
92
330
90
100
AcDbEntity
  8
_U+30EC_U+30A4_U+30E4_U+30FC 1
 62
   179
420
  2234388
370
     9
100
AcDbVertex
100
AcDb2dVertex
 10
92.02850154104621
 20
-144.0456577417664
 30
0.0
  0
SEQEND
  5
93
330
90
100
AcDbEntity
  8
_U+30EC_U+30A4_U+30E4_U+30FC 1
 62
   179
420
  2234388
370
     9
  0
POLYLINE
  5
94
330
1F
100
AcDbEntity
  8
_U+30EC_U+30A4_U+30E4_U+30FC 1
 62
   179
420
  2234388
370
     9
100
AcDb2dPolyline
 66
     1
 10
0.0
 20
0.0
 30
0.0
  0
VERTEX
  5
95
330
94
100
AcDbEntity
  8
_U+30EC_U+30A4_U+30E4_U+30FC 1
 62
   179
420
  2234388
370
     9
100
AcDbVertex
100
AcDb2dVertex
 10
102.0292573970168
 20
-119.5460171923358
 30
0.0
  0
VERTEX
  5
96
330
94
100
AcDbEntity
  8
_U+30EC_U+30A4_U+30E4_U+30FC 1
 62
   179
420
  2234388
370
     9
100
AcDbVertex
100
AcDb2dVertex
 10
102.0292573970168
 20
-144.0456577417664
 30
0.0
  0
SEQEND
  5
97
330
94
100
AcDbEntity
  8
_U+30EC_U+30A4_U+30E4_U+30FC 1
 62
   179
420
  2234388
370
     9
  0
POLYLINE
  5
98
330
1F
100
AcDbEntity
  8
_U+30EC_U+30A4_U+30E4_U+30FC 1
 62
   179
420
  2234388
370
     9
100
AcDb2dPolyline
 66
     1
 10
0.0
 20
0.0
 30
0.0
  0
VERTEX
  5
99
330
98
100
AcDbEntity
  8
_U+30EC_U+30A4_U+30E4_U+30FC 1
 62
   179
420
  2234388
370
     9
100
AcDbVertex
100
AcDb2dVertex
 10
74.02925061135647
 20
-114.0461058048219
 30
0.0
  0
VERTEX
  5
9A
330
98
100
AcDbEntity
  8
_U+30EC_U+30A4_U+30E4_U+30FC 1
 62
   179
420
  2234388
370
     9
100
AcDbVertex
100
AcDb2dVertex
 10
74.02925061135647
 20
-139.0461263541276
 30
0.0
  0
SEQEND
  5
9B
330
98
100
AcDbEntity
  8
_U+30EC_U+30A4_U+30E4_U+30FC 1
 62
   179
420
  2234388
370
     9
  0
POLYLINE
  5
9C
330
1F
100
AcDbEntity
  8
_U+30EC_U+30A4_U+30E4_U+30FC 1
 62
   179
420
  2234388
370
     9
100
AcDb2dPolyline
 66
     1
 10
0.0
 20
0.0
 30
0.0
  0
VERTEX
  5
9D
330
9C
100
AcDbEntity
  8
_U+30EC_U+30A4_U+30E4_U+30FC 1
 62
   179
420
  2234388
370
     9
100
AcDbVertex
100
AcDb2dVertex
 10
73.02877285910301
 20
-139.0461263541276
 30
0.0
  0
VERTEX
  5
9E
330
9C
100
AcDbEntity
  8
_U+30EC_U+30A4_U+30E4_U+30FC 1
 62
   179
420
  2234388
370
     9
100
AcDbVertex
100
AcDb2dVertex
 10
75.52890890643033
 20
-139.0461263541276
 30
0.0
  0
SEQEND
  5
9F
330
9C
100
AcDbEntity
  8
_U+30EC_U+30A4_U+30E4_U+30FC 1
 62
   179
420
  2234388
370
     9
  0
POLYLINE
  5
A0
330
1F
100
AcDbEntity
  8
_U+30EC_U+30A4_U+30E4_U+30FC 1
 62
   179
420
  2234388
370
     9
100
AcDb2dPolyline
 66
     1
 10
0.0
 20
0.0
 30
0.0
  0
VERTEX
  5
A1
330
A0
100
AcDbEntity
  8
_U+30EC_U+30A4_U+30E4_U+30FC 1
 62
   179
420
  2234388
370
     9
100
AcDbVertex
100
AcDb2dVertex
 10
104.5293581665672
 20
-114.0461058048219
 30
0.0
  0
VERTEX
  5
A2
330
A0
100
AcDbEntity
  8
_U+30EC_U+30A4_U+30E4_U+30FC 1
 62
   179
420
  2234388
370
     9
100
AcDbVertex
100
AcDb2dVertex
 10
106.9898419926839
 20
-114.0461058048219
 30
0.0
  0
SEQEND
  5
A3
330
A0
100
AcDbEntity
  8
_U+30EC_U+30A4_U+30E4_U+30FC 1
 62
   179
420
  2234388
370
     9
  0
INSERT
  5
A5
330
1F
100
AcDbEntity
  8
_U+30EC_U+30A4_U+30E4_U+30FC 1
100
AcDbBlockReference
  2
block 5
 10
0.0
 20
0.0
 30
0.0
  0
INSERT
  5
AB
330
1F
100
AcDbEntity
  8
_U+30EC_U+30A4_U+30E4_U+30FC 1
100
AcDbBlockReference
  2
block 6
 10
0.0
 20
0.0
 30
0.0
  0
POLYLINE
  5
B2
330
1F
100
AcDbEntity
  8
_U+30EC_U+30A4_U+30E4_U+30FC 1
 62
   179
420
  2234388
370
    25
100
AcDb2dPolyline
 66
     1
 10
0.0
 20
0.0
 30
0.0
  0
VERTEX
  5
B3
330
B2
100
AcDbEntity
  8
_U+30EC_U+30A4_U+30E4_U+30FC 1
 62
   179
420
  2234388
370
    25
100
AcDbVertex
100
AcDb2dVertex
 10
78.02900967598079
 20
-114.0461058048219
 30
0.0
  0
VERTEX
  5
B4
330
B2
100
AcDbEntity
  8
_U+30EC_U+30A4_U+30E4_U+30FC 1
 62
   179
420
  2234388
370
    25
100
AcDbVertex
100
AcDb2dVertex
 10
78.02900967598079
 20
-139.0461263541276
 30
0.0
  0
SEQEND
  5
B5
330
B2
100
AcDbEntity
  8
_U+30EC_U+30A4_U+30E4_U+30FC 1
 62
   179
420
  2234388
370
    25
  0
POLYLINE
  5
B6
330
1F
100
AcDbEntity
  8
_U+30EC_U+30A4_U+30E4_U+30FC 1
 62
   179
420
  2234388
370
    25
100
AcDb2dPolyline
 66
     1
 10
0.0
 20
0.0
 30
0.0
  0
VERTEX
  5
B7
330
B6
100
AcDbEntity
  8
_U+30EC_U+30A4_U+30E4_U+30FC 1
 62
   179
420
  2234388
370
    25
100
AcDbVertex
100
AcDb2dVertex
 10
79.0287818726967
 20
-115.0460191379052
 30
0.0
  0
VERTEX
  5
B8
330
B6
100
AcDbEntity
  8
_U+30EC_U+30A4_U+30E4_U+30FC 1
 62
   179
420
  2234388
370
    25
100
AcDbVertex
100
AcDb2dVertex
 10
79.0287818726967
 20
-139.0461263541276
 30
0.0
  0
SEQEND
  5
B9
330
B6
100
AcDbEntity
  8
_U+30EC_U+30A4_U+30E4_U+30FC 1
 62
   179
420
  2234388
370
    25
  0
POLYLINE
  5
BA
330
1F
100
AcDbEntity
  8
_U+30EC_U+30A4_U+30E4_U+30FC 1
 62
   179
420
  2234388
370
    25
100
AcDb2dPolyline
 66
     1
 10
0.0
 20
0.0
 30
0.0
  0
VERTEX
  5
BB
330
BA
100
AcDbEntity
  8
_U+30EC_U+30A4_U+30E4_U+30FC 1
 62
   179
420
  2234388
370
    25
100
AcDbVertex
100
AcDb2dVertex
 10
101.0291324225321
 20
-115.076710804564
 30
0.0
  0
VERTEX
  5
BC
330
BA
100
AcDbEntity
  8
_U+30EC_U+30A4_U+30E4_U+30FC 1
 62
   179
420
  2234388
370
    25
100
AcDbVertex
100
AcDb2dVertex
 10
101.0291324225321
 20
-116.0459677487663
 30
0.0
  0
SEQEND
  5
BD
330
BA
100
AcDbEntity
  8
_U+30EC_U+30A4_U+30E4_U+30FC 1
 62
   179
420
  2234388
370
    25
  0
POLYLINE
  5
BE
330
1F
100
AcDbEntity
  8
_U+30EC_U+30A4_U+30E4_U+30FC 1
 62
   179
420
  2234388
370
    25
100
AcDb2dPolyline
 66
     1
 10
0.0
 20
0.0
 30
0.0
  0
VERTEX
  5
BF
330
BE
100
AcDbEntity
  8
_U+30EC_U+30A4_U+30E4_U+30FC 1
 62
   179
420
  2234388
370
    25
100
AcDbVertex
100
AcDb2dVertex
 10
102.0292573970168
 20
-114.0459294159331
 30
0.0
  0
VERTEX
  5
C0
330
BE
100
AcDbEntity
  8
_U+30EC_U+30A4_U+30E4_U+30FC 1
 62
   179
420
  2234388
370
    25
100
AcDbVertex
100
AcDb2dVertex
 10
102.0292573970168
 20
-117.0459163596274
 30
0.0
  0
SEQEND
  5
C1
330
BE
100
AcDbEntity
  8
_U+30EC_U+30A4_U+30E4_U+30FC 1
 62
   179
420
  2234388
370
    25
  0
POLYLINE
  5
C2
330
1F
100
AcDbEntity
  8
_U+30EC_U+30A4_U+30E4_U+30FC 1
 62
   179
420
  2234388
370
    25
100
AcDb2dPolyline
 66
     1
 10
0.0
 20
0.0
 30
0.0
  0
VERTEX
  5
C3
330
C2
100
AcDbEntity
  8
_U+30EC_U+30A4_U+30E4_U+30FC 1
 62
   179
420
  2234388
370
    25
100
AcDbVertex
100
AcDb2dVertex
 10
93.19739540011413
 20
-115.0387871934624
 30
0.0
  0
VERTEX
  5
C4
330
C2
100
AcDbEntity
  8
_U+30EC_U+30A4_U+30E4_U+30FC 1
 62
   179
420
  2234388
370
    25
100
AcDbVertex
100
AcDb2dVertex
 10
92.04917431829658
 20
-117.0195638596339
 30
0.0
  0
SEQEND
  5
C5
330
C2
100
AcDbEntity
  8
_U+30EC_U+30A4_U+30E4_U+30FC 1
 62
   179
420
  2234388
370
    25
  0
POLYLINE
  5
C6
330
1F
100
AcDbEntity
  8
_U+30EC_U+30A4_U+30E4_U+30FC 1
 62
   179
420
  2234388
370
    25
100
AcDb2dPolyline
 66
     1
 10
0.0
 20
0.0
 30
0.0
  0
VERTEX
  5
C7
330
C6
100
AcDbEntity
  8
_U+30EC_U+30A4_U+30E4_U+30FC 1
 62
   179
420
  2234388
370
    25
100
AcDbVertex
100
AcDb2dVertex
 10
94.91997396727861
 20
-114.0461058048219
 30
0.0
  0
VERTEX
  5
C8
330
C6
100
AcDbEntity
  8
_U+30EC_U+30A4_U+30E4_U+30FC 1
 62
   179
420
  2234388
370
    25
100
AcDbVertex
100
AcDb2dVertex
 10
93.77584510757887
 20
-116.030304415437
 30
0.0
  0
SEQEND
  5
C9
330
C6
100
AcDbEntity
  8
_U+30EC_U+30A4_U+30E4_U+30FC 1
 62
   179
420
  2234388
370
    25
  0
POLYLINE
  5
CA
330
1F
100
AcDbEntity
  8
_U+30EC_U+30A4_U+30E4_U+30FC 1
 62
   179
420
  2234388
370
    25
100
AcDb2dPolyline
 66
     1
 10
0.0
 20
0.0
 30
0.0
  0
VERTEX
  5
CB
330
CA
100
AcDbEntity
  8
_U+30EC_U+30A4_U+30E4_U+30FC 1
 62
   179
420
  2234388
370
    25
100
AcDbVertex
100
AcDb2dVertex
 10
102.0292573970168
 20
-114.0459294159331
 30
0.0
  0
VERTEX
  5
CC
330
CA
100
AcDbEntity
  8
_U+30EC_U+30A4_U+30E4_U+30FC 1
 62
   179
420
  2234388
370
    25
100
AcDbVertex
100
AcDb2dVertex
 10
101.0291324225321
 20
-115.076710804564
 30
0.0
  0
SEQEND
  5
CD
330
CA
100
AcDbEntity
  8
_U+30EC_U+30A4_U+30E4_U+30FC 1
 62
   179
420
  2234388
370
    25
  0
POLYLINE
  5
CE
330
1F
100
AcDbEntity
  8
_U+30EC_U+30A4_U+30E4_U+30FC 1
 62
   179
420
  2234388
370
    25
100
AcDb2dPolyline
 66
     1
 10
0.0
 20
0.0
 30
0.0
  0
VERTEX
  5
CF
330
CE
100
AcDbEntity
  8
_U+30EC_U+30A4_U+30E4_U+30FC 1
 62
   179
420
  2234388
370
    25
100
AcDbVertex
100
AcDb2dVertex
 10
92.02917181880689
 20
-117.0459163596274
 30
0.0
  0
VERTEX
  5
D0
330
CE
100
AcDbEntity
  8
_U+30EC_U+30A4_U+30E4_U+30FC 1
 62
   179
420
  2234388
370
    25
100
AcDbVertex
100
AcDb2dVertex
 10
102.0292573970168
 20
-117.0459163596274
 30
0.0
  0
SEQEND
  5
D1
330
CE
100
AcDbEntity
  8
_U+30EC_U+30A4_U+30E4_U+30FC 1
 62
   179
420
  2234388
370
    25
  0
POLYLINE
  5
D2
330
1F
100
AcDbEntity
  8
_U+30EC_U+30A4_U+30E4_U+30FC 1
 62
   179
420
  2234388
370
    25
100
AcDb2dPolyline
 66
     1
 10
0.0
 20
0.0
 30
0.0
  0
VERTEX
  5
D3
330
D2
100
AcDbEntity
  8
_U+30EC_U+30A4_U+30E4_U+30FC 1
 62
   179
420
  2234388
370
    25
100
AcDbVertex
100
AcDb2dVertex
 10
93.77584510757887
 20
-116.0459677487663
 30
0.0
  0
VERTEX
  5
D4
330
D2
100
AcDbEntity
  8
_U+30EC_U+30A4_U+30E4_U+30FC 1
 62
   179
420
  2234388
370
    25
100
AcDbVertex
100
AcDb2dVertex
 10
100.9633393686551
 20
-116.0459677487663
 30
0.0
  0
SEQEND
  5
D5
330
D2
100
AcDbEntity
  8
_U+30EC_U+30A4_U+30E4_U+30FC 1
 62
   179
420
  2234388
370
    25
  0
POLYLINE
  5
D6
330
1F
100
AcDbEntity
  8
_U+30EC_U+30A4_U+30E4_U+30FC 1
 62
   179
420
  2234388
370
    25
100
AcDb2dPolyline
 66
     1
 10
0.0
 20
0.0
 30
0.0
  0
VERTEX
  5
D7
330
D6
100
AcDbEntity
  8
_U+30EC_U+30A4_U+30E4_U+30FC 1
 62
   179
420
  2234388
370
    25
100
AcDbVertex
100
AcDb2dVertex
 10
78.02900967598079
 20
-139.0461263541276
 30
0.0
  0
VERTEX
  5
D8
330
D6
100
AcDbEntity
  8
_U+30EC_U+30A4_U+30E4_U+30FC 1
 62
   179
420
  2234388
370
    25
100
AcDbVertex
100
AcDb2dVertex
 10
79.0287818726967
 20
-139.0461263541276
 30
0.0
  0
SEQEND
  5
D9
330
D6
100
AcDbEntity
  8
_U+30EC_U+30A4_U+30E4_U+30FC 1
 62
   179
420
  2234388
370
    25
  0
POLYLINE
  5
DA
330
1F
100
AcDbEntity
  8
_U+30EC_U+30A4_U+30E4_U+30FC 1
 62
   179
420
  2234388
370
    25
100
AcDb2dPolyline
 66
     1
 10
0.0
 20
0.0
 30
0.0
  0
VERTEX
  5
DB
330
DA
100
AcDbEntity
  8
_U+30EC_U+30A4_U+30E4_U+30FC 1
 62
   179
420
  2234388
370
    25
100
AcDbVertex
100
AcDb2dVertex
 10
78.02900967598079
 20
-114.0461058048219
 30
0.0
  0
VERTEX
  5
DC
330
DA
100
AcDbEntity
  8
_U+30EC_U+30A4_U+30E4_U+30FC 1
 62
   179
420
  2234388
370
    25
100
AcDbVertex
100
AcDb2dVertex
 10
94.91997396727861
 20
-114.0461058048219
 30
0.0
  0
SEQEND
  5
DD
330
DA
100
AcDbEntity
  8
_U+30EC_U+30A4_U+30E4_U+30FC 1
 62
   179
420
  2234388
370
    25
  0
POLYLINE
  5
DE
330
1F
100
AcDbEntity
  8
_U+30EC_U+30A4_U+30E4_U+30FC 1
 62
   179
420
  2234388
370
    25
100
AcDb2dPolyline
 66
     1
 10
0.0
 20
0.0
 30
0.0
  0
VERTEX
  5
DF
330
DE
100
AcDbEntity
  8
_U+30EC_U+30A4_U+30E4_U+30FC 1
 62
   179
420
  2234388
370
    25
100
AcDbVertex
100
AcDb2dVertex
 10
79.0287818726967
 20
-115.0460191379052
 30
0.0
  0
VERTEX
  5
E0
330
DE
100
AcDbEntity
  8
_U+30EC_U+30A4_U+30E4_U+30FC 1
 62
   179
420
  2234388
370
    25
100
AcDbVertex
100
AcDb2dVertex
 10
93.19739540011413
 20
-115.0460191379052
 30
0.0
  0
SEQEND
  5
E1
330
DE
100
AcDbEntity
  8
_U+30EC_U+30A4_U+30E4_U+30FC 1
 62
   179
420
  2234388
370
    25
  0
ENDSEC
  0
SECTION
  2
OBJECTS
  0
DICTIONARY
  5
C
330
0
100
AcDbDictionary
281
     1
  3
ACAD_GROUP
350
D
  3
ACAD_LAYOUT
350
1A
  3
ACAD_MATERIAL
350
3B
  3
ACAD_MLEADERSTYLE
350
E3
  3
ACAD_MLINESTYLE
350
17
  3
ACAD_PLOTSETTINGS
350
19
  3
ACAD_PLOTSTYLENAME
350
E
  3
ACAD_TABLESTYLE
350
E2
  3
ACAD_VISUALSTYLE
350
2A
  0
SUN
  5
3F
330
29
100
AcDbSun
 90
        1
290
     0
 63
     7
421
 16777215
 40
1.0
291
     1
 91
  2455826
 92
 54000000
292
     0
 70
     2
 71
   256
280
     1
  0
DICTIONARY
  5
D
102
{ACAD_REACTORS
330
C
102
}
330
C
100
AcDbDictionary
281
     1
  0
DICTIONARY
  5
1A
102
{ACAD_REACTORS
330
C
102
}
330
C
100
AcDbDictionary
281
     1
  3
Layout1
350
1E
  3
Layout2
350
26
  3
Model
350
22
  0
DICTIONARY
  5
3B
102
{ACAD_REACTORS
330
C
102
}
330
C
100
AcDbDictionary
281
     1
  3
ByBlock
350
3D
  3
ByLayer
350
3C
  3
Global
350
3E
  0
DICTIONARY
  5
E3
102
{ACAD_REACTORS
330
C
102
}
330
C
100
AcDbDictionary
281
     1
  0
DICTIONARY
  5
17
102
{ACAD_REACTORS
330
C
102
}
330
C
100
AcDbDictionary
281
     1
  3
Standard
350
18
  0
DICTIONARY
  5
19
102
{ACAD_REACTORS
330
C
102
}
330
C
100
AcDbDictionary
281
     1
  0
ACDBDICTIONARYWDFLT
  5
E
102
{ACAD_REACTORS
330
C
102
}
330
C
100
AcDbDictionary
281
     1
  3
Normal
350
F
100
AcDbDictionaryWithDefault
340
F
  0
DICTIONARY
  5
E2
102
{ACAD_REACTORS
330
C
102
}
330
C
100
AcDbDictionary
281
     1
  0
DICTIONARY
  5
2A
102
{ACAD_REACTORS
330
C
102
}
330
C
100
AcDbDictionary
281
     1
  3
2dWireframe
350
2F
  3
3D Hidden
350
31
  3
3dWireframe
350
30
  3
Basic
350
32
  3
Brighten
350
36
  3
ColorChange
350
3A
  3
Conceptual
350
34
  3
Dim
350
35
  3
Facepattern
350
39
  3
Flat
350
2B
  3
FlatWithEdges
350
2C
  3
Gouraud
350
2D
  3
GouraudWithEdges
350
2E
  3
Linepattern
350
38
  3
Realistic
350
33
  3
Thicken
350
37
  0
LAYOUT
  5
1E
102
{ACAD_REACTORS
330
1A
102
}
330
1A
100
AcDbPlotSettings
  1

  2
none_device
  4

  6

 40
0.0
 41
0.0
 42
0.0
 43
0.0
 44
0.0
 45
0.0
 46
0.0
 47
0.0
 48
0.0
 49
0.0
140
0.0
141
0.0
142
1.0
143
1.0
 70
   688
 72
     0
 73
     0
 74
     5
  7

 75
    16
 76
     0
 77
     2
 78
   300
147
1.0
148
0.0
149
0.0
100
AcDbLayout
  1
Layout1
 70
     1
 71
     1
 10
0.0
 20
0.0
 11
12.0
 21
9.0
 12
0.0
 22
0.0
 32
0.0
 14
1.000000000000000E+20
 24
1.000000000000000E+20
 34
1.000000000000000E+20
 15
-1.000000000000000E+20
 25
-1.000000000000000E+20
 35
-1.000000000000000E+20
146
0.0
 13
0.0
 23
0.0
 33
0.0
 16
1.0
 26
0.0
 36
0.0
 17
0.0
 27
1.0
 37
0.0
 76
     0
330
1B
  0
LAYOUT
  5
26
102
{ACAD_REACTORS
330
1A
102
}
330
1A
100
AcDbPlotSettings
  1

  2
none_device
  4

  6

 40
0.0
 41
0.0
 42
0.0
 43
0.0
 44
0.0
 45
0.0
 46
0.0
 47
0.0
 48
0.0
 49
0.0
140
0.0
141
0.0
142
1.0
143
1.0
 70
   688
 72
     0
 73
     0
 74
     5
  7

 75
    16
 76
     0
 77
     2
 78
   300
147
1.0
148
0.0
149
0.0
100
AcDbLayout
  1
Layout2
 70
     1
 71
     2
 10
0.0
 20
0.0
 11
0.0
 21
0.0
 12
0.0
 22
0.0
 32
0.0
 14
0.0
 24
0.0
 34
0.0
 15
0.0
 25
0.0
 35
0.0
146
0.0
 13
0.0
 23
0.0
 33
0.0
 16
1.0
 26
0.0
 36
0.0
 17
0.0
 27
1.0
 37
0.0
 76
     0
330
23
  0
LAYOUT
  5
22
102
{ACAD_REACTORS
330
1A
102
}
330
1A
100
AcDbPlotSettings
  1

  2
none_device
  4

  6

 40
0.0
 41
0.0
 42
0.0
 43
0.0
 44
0.0
 45
0.0
 46
0.0
 47
0.0
 48
0.0
 49
0.0
140
0.0
141
0.0
142
1.0
143
1.0
 70
  1712
 72
     0
 73
     0
 74
     0
  7

 75
     0
 76
     0
 77
     2
 78
   300
147
1.0
148
0.0
149
0.0
100
AcDbLayout
  1
Model
 70
     1
 71
     0
 10
0.0
 20
0.0
 11
12.0
 21
9.0
 12
0.0
 22
0.0
 32
0.0
 14
1.000000000000000E+20
 24
1.000000000000000E+20
 34
1.000000000000000E+20
 15
-1.000000000000000E+20
 25
-1.000000000000000E+20
 35
-1.000000000000000E+20
146
0.0
 13
0.0
 23
0.0
 33
0.0
 16
1.0
 26
0.0
 36
0.0
 17
0.0
 27
1.0
 37
0.0
 76
     0
330
1F
331
29
  0
MATERIAL
  5
3D
102
{ACAD_REACTORS
330
3B
102
}
330
3B
100
AcDbMaterial
  1
ByBlock
 72
     1
 94
      127
  0
MATERIAL
  5
3C
102
{ACAD_REACTORS
330
3B
102
}
330
3B
100
AcDbMaterial
  1
ByLayer
 72
     1
 94
      127
  0
MATERIAL
  5
3E
102
{ACAD_REACTORS
330
3B
102
}
330
3B
100
AcDbMaterial
  1
Global
 72
     1
 94
      127
  0
MLINESTYLE
  5
18
102
{ACAD_REACTORS
330
17
102
}
330
17
100
AcDbMlineStyle
  2
Standard
 70
     0
  3

 62
   256
 51
90.0
 52
90.0
 71
     2
 49
0.5
 62
   256
  6
BYLAYER
 49
-0.5
 62
   256
  6
BYLAYER
  0
ACDBPLACEHOLDER
  5
F
102
{ACAD_REACTORS
330
E
102
}
330
E
  0
VISUALSTYLE
  5
2F
102
{ACAD_REACTORS
330
2A
102
}
330
2A
100
AcDbVisualStyle
  2
2dWireframe
 70
     4
177
     2
291
     0
 71
     0
176
     1
 72
     2
176
     1
 73
     0
176
     1
 90
        0
176
     1
 40
-0.6
176
     1
 41
-30.0
176
     1
 62
     5
 63
     7
421
 16777215
176
     1
 74
     1
176
     1
 91
        4
176
     1
 64
     7
176
     1
 65
   257
176
     1
 75
     1
176
     1
175
     1
176
     1
 42
1.0
176
     1
 92
        0
176
     1
 66
   257
176
     1
 43
1.0
176
     1
 76
     1
176
     1
 77
     6
176
     1
 78
     2
176
     1
 67
     7
176
     1
 79
     5
176
     1
170
     0
176
     1
171
     0
176
     1
290
     0
176
     1
 93
        1
176
     1
 44
0.0
176
     1
173
     0
176
     1
  0
VISUALSTYLE
  5
31
102
{ACAD_REACTORS
330
2A
102
}
330
2A
100
AcDbVisualStyle
  2
3D Hidden
 70
     6
177
     2
291
     0
 71
     1
176
     1
 72
     2
176
     1
 73
     2
176
     1
 90
        0
176
     1
 40
-0.6
176
     1
 41
-30.0
176
     1
 62
     5
 63
     7
421
 16777215
176
     1
 74
     2
176
     1
 91
        2
176
     1
 64
     7
176
     1
 65
   257
176
     1
 75
     2
176
     1
175
     1
176
     1
 42
40.0
176
     1
 92
        0
176
     1
 66
   257
176
     1
 43
1.0
176
     1
 76
     1
176
     1
 77
     6
176
     1
 78
     2
176
     1
 67
     7
176
     1
 79
     3
176
     1
170
     0
176
     1
171
     0
176
     1
290
     0
176
     1
 93
        1
176
     1
 44
0.0
176
     1
173
     0
176
     1
  0
VISUALSTYLE
  5
30
102
{ACAD_REACTORS
330
2A
102
}
330
2A
100
AcDbVisualStyle
  2
3dWireframe
 70
     5
177
     2
291
     0
 71
     0
176
     1
 72
     2
176
     1
 73
     0
176
     1
 90
        0
176
     1
 40
-0.6
176
     1
 41
-30.0
176
     1
 62
     5
 63
     7
421
 16777215
176
     1
 74
     1
176
     1
 91
        4
176
     1
 64
     7
176
     1
 65
   257
176
     1
 75
     1
176
     1
175
     1
176
     1
 42
1.0
176
     1
 92
        0
176
     1
 66
   257
176
     1
 43
1.0
176
     1
 76
     1
176
     1
 77
     6
176
     1
 78
     2
176
     1
 67
     7
176
     1
 79
     5
176
     1
170
     0
176
     1
171
     0
176
     1
290
     0
176
     1
 93
        1
176
     1
 44
0.0
176
     1
173
     0
176
     1
  0
VISUALSTYLE
  5
32
102
{ACAD_REACTORS
330
2A
102
}
330
2A
100
AcDbVisualStyle
  2
Basic
 70
     7
177
     2
291
     1
 71
     1
176
     1
 72
     0
176
     1
 73
     1
176
     1
 90
        0
176
     1
 40
-0.6
176
     1
 41
-30.0
176
     1
 62
     5
 63
     7
421
 16777215
176
     1
 74
     0
176
     1
 91
        4
176
     1
 64
     7
176
     1
 65
   257
176
     1
 75
     1
176
     1
175
     1
176
     1
 42
1.0
176
     1
 92
        8
176
     1
 66
     7
176
     1
 43
1.0
176
     1
 76
     1
176
     1
 77
     6
176
     1
 78
     2
176
     1
 67
     7
176
     1
 79
     5
176
     1
170
     0
176
     1
171
     0
176
     1
290
     0
176
     1
 93
        1
176
     1
 44
0.0
176
     1
173
     0
176
     1
  0
VISUALSTYLE
  5
36
102
{ACAD_REACTORS
330
2A
102
}
330
2A
100
AcDbVisualStyle
  2
Brighten
 70
    12
177
     2
291
     1
 71
     2
176
     1
 72
     2
176
     1
 73
     0
176
     1
 90
        0
176
     1
 40
-0.6
176
     1
 41
-30.0
176
     1
 62
     5
 63
     7
421
 16777215
176
     1
 74
     1
176
     1
 91
        4
176
     1
 64
     7
176
     1
 65
   257
176
     1
 75
     1
176
     1
175
     1
176
     1
 42
1.0
176
     1
 92
        8
176
     1
 66
     7
176
     1
 43
1.0
176
     1
 76
     1
176
     1
 77
     6
176
     1
 78
     2
176
     1
 67
     7
176
     1
 79
     5
176
     1
170
     0
176
     1
171
     0
176
     1
290
     0
176
     1
 93
        1
176
     1
 44
50.0
176
     1
173
     0
176
     1
  0
VISUALSTYLE
  5
3A
102
{ACAD_REACTORS
330
2A
102
}
330
2A
100
AcDbVisualStyle
  2
ColorChange
 70
    16
177
     2
291
     1
 71
     2
176
     1
 72
     2
176
     1
 73
     3
176
     1
 90
        0
176
     1
 40
-0.6
176
     1
 41
-30.0
176
     1
 62
     5
 63
     8
421
  8421504
176
     1
 74
     1
176
     1
 91
        4
176
     1
 64
     7
176
     1
 65
   257
176
     1
 75
     1
176
     1
175
     1
176
     1
 42
1.0
176
     1
 92
        8
176
     1
 66
     8
424
  8421504
176
     1
 43
1.0
176
     1
 76
     1
176
     1
 77
     6
176
     1
 78
     2
176
     1
 67
     7
176
     1
 79
     5
176
     1
170
     0
176
     1
171
     0
176
     1
290
     0
176
     1
 93
        1
176
     1
 44
0.0
176
     1
173
     0
176
     1
  0
VISUALSTYLE
  5
34
102
{ACAD_REACTORS
330
2A
102
}
330
2A
100
AcDbVisualStyle
  2
Conceptual
 70
     9
177
     2
291
     0
 71
     3
176
     1
 72
     2
176
     1
 73
     0
176
     1
 90
        0
176
     1
 40
-0.6
176
     1
 41
-30.0
176
     1
 62
     5
 63
     7
421
 16777215
176
     1
 74
     2
176
     1
 91
        2
176
     1
 64
     7
176
     1
 65
   257
176
     1
 75
     1
176
     1
175
     1
176
     1
 42
40.0
176
     1
 92
        8
176
     1
 66
     7
176
     1
 43
1.0
176
     1
 76
     1
176
     1
 77
     6
176
     1
 78
     2
176
     1
 67
     7
176
     1
 79
     3
176
     1
170
     0
176
     1
171
     0
176
     1
290
     0
176
     1
 93
        1
176
     1
 44
0.0
176
     1
173
     0
176
     1
  0
VISUALSTYLE
  5
35
102
{ACAD_REACTORS
330
2A
102
}
330
2A
100
AcDbVisualStyle
  2
Dim
 70
    11
177
     2
291
     1
 71
     2
176
     1
 72
     2
176
     1
 73
     0
176
     1
 90
        0
176
     1
 40
-0.6
176
     1
 41
-30.0
176
     1
 62
     5
 63
     7
421
 16777215
176
     1
 74
     1
176
     1
 91
        4
176
     1
 64
     7
176
     1
 65
   257
176
     1
 75
     1
176
     1
175
     1
176
     1
 42
1.0
176
     1
 92
        8
176
     1
 66
     7
176
     1
 43
1.0
176
     1
 76
     1
176
     1
 77
     6
176
     1
 78
     2
176
     1
 67
     7
176
     1
 79
     5
176
     1
170
     0
176
     1
171
     0
176
     1
290
     0
176
     1
 93
        1
176
     1
 44
-50.0
176
     1
173
     0
176
     1
  0
VISUALSTYLE
  5
39
102
{ACAD_REACTORS
330
2A
102
}
330
2A
100
AcDbVisualStyle
  2
Facepattern
 70
    15
177
     2
291
     1
 71
     2
176
     1
 72
     2
176
     1
 73
     0
176
     1
 90
        0
176
     1
 40
-0.6
176
     1
 41
-30.0
176
     1
 62
     5
 63
     7
421
 16777215
176
     1
 74
     1
176
     1
 91
        4
176
     1
 64
     7
176
     1
 65
   257
176
     1
 75
     1
176
     1
175
     1
176
     1
 42
1.0
176
     1
 92
        8
176
     1
 66
     7
176
     1
 43
1.0
176
     1
 76
     1
176
     1
 77
     6
176
     1
 78
     2
176
     1
 67
     7
176
     1
 79
     5
176
     1
170
     0
176
     1
171
     0
176
     1
290
     0
176
     1
 93
        1
176
     1
 44
0.0
176
     1
173
     0
176
     1
  0
VISUALSTYLE
  5
2B
102
{ACAD_REACTORS
330
2A
102
}
330
2A
100
AcDbVisualStyle
  2
Flat
 70
     0
177
     2
291
     1
 71
     2
176
     1
 72
     1
176
     1
 73
     1
176
     1
 90
        2
176
     1
 40
-0.6
176
     1
 41
30.0
176
     1
 62
     5
 63
     7
421
 16777215
176
     1
 74
     0
176
     1
 91
        4
176
     1
 64
     7
176
     1
 65
   257
176
     1
 75
     1
176
     1
175
     1
176
     1
 42
1.0
176
     1
 92
        8
176
     1
 66
     7
176
     1
 43
1.0
176
     1
 76
     1
176
     1
 77
     6
176
     1
 78
     2
176
     1
 67
     7
176
     1
 79
     5
176
     1
170
     0
176
     1
171
     0
176
     1
290
     0
176
     1
 93
       13
176
     1
 44
0.0
176
     1
173
     0
176
     1
  0
VISUALSTYLE
  5
2C
102
{ACAD_REACTORS
330
2A
102
}
330
2A
100
AcDbVisualStyle
  2
FlatWithEdges
 70
     1
177
     2
291
     1
 71
     2
176
     1
 72
     1
176
     1
 73
     1
176
     1
 90
        2
176
     1
 40
-0.6
176
     1
 41
30.0
176
     1
 62
     5
 63
     7
421
 16777215
176
     1
 74
     1
176
     1
 91
        4
176
     1
 64
     7
176
     1
 65
   257
176
     1
 75
     1
176
     1
175
     1
176
     1
 42
1.0
176
     1
 92
        0
176
     1
 66
   257
176
     1
 43
1.0
176
     1
 76
     1
176
     1
 77
     6
176
     1
 78
     2
176
     1
 67
     7
176
     1
 79
     5
176
     1
170
     0
176
     1
171
     0
176
     1
290
     0
176
     1
 93
       13
176
     1
 44
0.0
176
     1
173
     0
176
     1
  0
VISUALSTYLE
  5
2D
102
{ACAD_REACTORS
330
2A
102
}
330
2A
100
AcDbVisualStyle
  2
Gouraud
 70
     2
177
     2
291
     1
 71
     2
176
     1
 72
     2
176
     1
 73
     1
176
     1
 90
        2
176
     1
 40
-0.6
176
     1
 41
30.0
176
     1
 62
     5
 63
     7
421
 16777215
176
     1
 74
     0
176
     1
 91
        4
176
     1
 64
     7
176
     1
 65
   257
176
     1
 75
     1
176
     1
175
     1
176
     1
 42
1.0
176
     1
 92
        0
176
     1
 66
     7
176
     1
 43
1.0
176
     1
 76
     1
176
     1
 77
     6
176
     1
 78
     2
176
     1
 67
     7
176
     1
 79
     5
176
     1
170
     0
176
     1
171
     0
176
     1
290
     0
176
     1
 93
       13
176
     1
 44
0.0
176
     1
173
     0
176
     1
  0
VISUALSTYLE
  5
2E
102
{ACAD_REACTORS
330
2A
102
}
330
2A
100
AcDbVisualStyle
  2
GouraudWithEdges
 70
     3
177
     2
291
     1
 71
     2
176
     1
 72
     2
176
     1
 73
     1
176
     1
 90
        2
176
     1
 40
-0.6
176
     1
 41
30.0
176
     1
 62
     5
 63
     7
421
 16777215
176
     1
 74
     1
176
     1
 91
        4
176
     1
 64
     7
176
     1
 65
   257
176
     1
 75
     1
176
     1
175
     1
176
     1
 42
1.0
176
     1
 92
        0
176
     1
 66
   257
176
     1
 43
1.0
176
     1
 76
     1
176
     1
 77
     6
176
     1
 78
     2
176
     1
 67
     7
176
     1
 79
     5
176
     1
170
     0
176
     1
171
     0
176
     1
290
     0
176
     1
 93
       13
176
     1
 44
0.0
176
     1
173
     0
176
     1
  0
VISUALSTYLE
  5
38
102
{ACAD_REACTORS
330
2A
102
}
330
2A
100
AcDbVisualStyle
  2
Linepattern
 70
    14
177
     2
291
     1
 71
     2
176
     1
 72
     2
176
     1
 73
     0
176
     1
 90
        0
176
     1
 40
-0.6
176
     1
 41
-30.0
176
     1
 62
     5
 63
     7
421
 16777215
176
     1
 74
     1
176
     1
 91
        4
176
     1
 64
     7
176
     1
 65
   257
176
     1
 75
     7
176
     1
175
     7
176
     1
 42
1.0
176
     1
 92
        8
176
     1
 66
     7
176
     1
 43
1.0
176
     1
 76
     1
176
     1
 77
     6
176
     1
 78
     2
176
     1
 67
     7
176
     1
 79
     5
176
     1
170
     0
176
     1
171
     0
176
     1
290
     0
176
     1
 93
        1
176
     1
 44
0.0
176
     1
173
     0
176
     1
  0
VISUALSTYLE
  5
33
102
{ACAD_REACTORS
330
2A
102
}
330
2A
100
AcDbVisualStyle
  2
Realistic
 70
     8
177
     2
291
     0
 71
     2
176
     1
 72
     2
176
     1
 73
     0
176
     1
 90
        0
176
     1
 40
-0.6
176
     1
 41
-30.0
176
     1
 62
     5
 63
     7
421
 16777215
176
     1
 74
     1
176
     1
 91
        0
176
     1
 64
     7
176
     1
 65
   257
176
     1
 75
     1
176
     1
175
     1
176
     1
 42
1.0
176
     1
 92
        8
176
     1
 66
     8
424
  7895160
176
     1
 43
1.0
176
     1
 76
     1
176
     1
 77
     6
176
     1
 78
     2
176
     1
 67
     7
176
     1
 79
     5
176
     1
170
     0
176
     1
171
     0
176
     1
290
     0
176
     1
 93
       13
176
     1
 44
0.0
176
     1
173
     0
176
     1
  0
VISUALSTYLE
  5
37
102
{ACAD_REACTORS
330
2A
102
}
330
2A
100
AcDbVisualStyle
  2
Thicken
 70
    13
177
     2
291
     1
 71
     2
176
     1
 72
     2
176
     1
 73
     0
176
     1
 90
        0
176
     1
 40
-0.6
176
     1
 41
-30.0
176
     1
 62
     5
 63
     7
421
 16777215
176
     1
 74
     1
176
     1
 91
        4
176
     1
 64
     7
176
     1
 65
   257
176
     1
 75
     1
176
     1
175
     1
176
     1
 42
1.0
176
     1
 92
       12
176
     1
 66
     7
176
     1
 43
1.0
176
     1
 76
     1
176
     1
 77
     6
176
     1
 78
     2
176
     1
 67
     7
176
     1
 79
     5
176
     1
170
     0
176
     1
171
     0
176
     1
290
     0
176
     1
 93
        1
176
     1
 44
0.0
176
     1
173
     0
176
     1
  0
ENDSEC
  0
EOF
