  0
SECTION
  2
HEADER
  9
$ACADVER
  1
AC1024
  9
$ACADMAINTVER
 70
     6
  9
$DWGCODEPAGE
  3
UNDEFINED
  9
$INSBASE
 10
0.0
 20
0.0
 30
0.0
  9
$EXTMIN
 10
1.000000000000000E+20
 20
1.000000000000000E+20
 30
1.000000000000000E+20
  9
$EXTMAX
 10
-1.000000000000000E+20
 20
-1.000000000000000E+20
 30
-1.000000000000000E+20
  9
$LIMMIN
 10
0.0
 20
0.0
  9
$LIMMAX
 10
12.0
 20
9.0
  9
$ORTHOMODE
 70
     0
  9
$REGENMODE
 70
     1
  9
$FILLMODE
 70
     1
  9
$QTEXTMODE
 70
     0
  9
$MIRRTEXT
 70
     1
  9
$LTSCALE
 40
1.0
  9
$ATTMODE
 70
     1
  9
$TEXTSIZE
 40
0.2
  9
$TRACEWID
 40
0.05
  9
$TEXTSTYLE
  7
Standard
  9
$CLAYER
  8
0
  9
$CELTYPE
  6
ByLayer
  9
$CECOLOR
 62
   256
  9
$CELTSCALE
 40
1.0
  9
$DISPSILH
 70
     0
  9
$DIMSCALE
 40
1.0
  9
$DIMASZ
 40
0.18
  9
$DIMEXO
 40
0.0625
  9
$DIMDLI
 40
0.38
  9
$DIMRND
 40
0.0
  9
$DIMDLE
 40
0.0
  9
$DIMEXE
 40
0.18
  9
$DIMTP
 40
0.0
  9
$DIMTM
 40
0.0
  9
$DIMTXT
 40
0.18
  9
$DIMCEN
 40
0.09
  9
$DIMTSZ
 40
0.0
  9
$DIMTOL
 70
     0
  9
$DIMLIM
 70
     0
  9
$DIMTIH
 70
     1
  9
$DIMTOH
 70
     1
  9
$DIMSE1
 70
     0
  9
$DIMSE2
 70
     0
  9
$DIMTAD
 70
     0
  9
$DIMZIN
 70
     0
  9
$DIMBLK
  1

  9
$DIMASO
 70
     1
  9
$DIMSHO
 70
     1
  9
$DIMPOST
  1

  9
$DIMAPOST
  1

  9
$DIMALT
 70
     0
  9
$DIMALTD
 70
     2
  9
$DIMALTF
 40
25.4
  9
$DIMLFAC
 40
1.0
  9
$DIMTOFL
 70
     0
  9
$DIMTVP
 40
0.0
  9
$DIMTIX
 70
     0
  9
$DIMSOXD
 70
     0
  9
$DIMSAH
 70
     0
  9
$DIMBLK1
  1

  9
$DIMBLK2
  1

  9
$DIMSTYLE
  2
Standard
  9
$DIMCLRD
 70
     0
  9
$DIMCLRE
 70
     0
  9
$DIMCLRT
 70
     0
  9
$DIMTFAC
 40
1.0
  9
$DIMGAP
 40
0.09
  9
$DIMJUST
 70
     0
  9
$DIMSD1
 70
     0
  9
$DIMSD2
 70
     0
  9
$DIMTOLJ
 70
     1
  9
$DIMTZIN
 70
     0
  9
$DIMALTZ
 70
     0
  9
$DIMALTTZ
 70
     0
  9
$DIMUPT
 70
     0
  9
$DIMDEC
 70
     4
  9
$DIMTDEC
 70
     4
  9
$DIMALTU
 70
     2
  9
$DIMALTTD
 70
     2
  9
$DIMTXSTY
  7
Standard
  9
$DIMAUNIT
 70
     0
  9
$DIMADEC
 70
     0
  9
$DIMALTRND
 40
0.0
  9
$DIMAZIN
 70
     0
  9
$DIMDSEP
 70
    46
  9
$DIMATFIT
 70
     3
  9
$DIMFRAC
 70
     0
  9
$DIMLDRBLK
  1

  9
$DIMLUNIT
 70
     2
  9
$DIMLWD
 70
    -2
  9
$DIMLWE
 70
    -2
  9
$DIMTMOVE
 70
     0
  9
$DIMFXL
 40
1.0
  9
$DIMFXLON
 70
     0
  9
$DIMJOGANG
 40
0.7853981633974483
  9
$DIMTFILL
 70
     0
  9
$DIMTFILLCLR
 70
     0
  9
$DIMARCSYM
 70
     0
  9
$DIMLTYPE
  6

  9
$DIMLTEX1
  6

  9
$DIMLTEX2
  6

  9
$DIMTXTDIRECTION
 70
     0
  9
$LUNITS
 70
     2
  9
$LUPREC
 70
     4
  9
$SKETCHINC
 40
0.1
  9
$FILLETRAD
 40
0.5
  9
$AUNITS
 70
     0
  9
$AUPREC
 70
     0
  9
$MENU
  1
.
  9
$ELEVATION
 40
0.0
  9
$PELEVATION
 40
0.0
  9
$THICKNESS
 40
0.0
  9
$LIMCHECK
 70
     0
  9
$CHAMFERA
 40
0.5
  9
$CHAMFERB
 40
0.5
  9
$CHAMFERC
 40
1.0
  9
$CHAMFERD
 40
0.0
  9
$SKPOLY
 70
     0
  9
$TDCREATE
 40
2457917.636724537
  9
$TDUCREATE
 40
2457917.261724537
  9
$TDUPDATE
 40
2457917.636724537
  9
$TDUUPDATE
 40
2457917.261724537
  9
$TDINDWG
 40
0.0000000116
  9
$TDUSRTIMER
 40
0.0000000116
  9
$USRTIMER
 70
     1
  9
$ANGBASE
 50
0.0
  9
$ANGDIR
 70
     0
  9
$PDMODE
 70
     0
  9
$PDSIZE
 40
0.0
  9
$PLINEWID
 40
0.0
  9
$SPLFRAME
 70
     0
  9
$SPLINETYPE
 70
     6
  9
$SPLINESEGS
 70
     8
  9
$HANDSEED
  5
9F
  9
$SURFTAB1
 70
     6
  9
$SURFTAB2
 70
     6
  9
$SURFTYPE
 70
     6
  9
$SURFU
 70
     6
  9
$SURFV
 70
     6
  9
$UCSBASE
  2

  9
$UCSNAME
  2

  9
$UCSORG
 10
0.0
 20
0.0
 30
0.0
  9
$UCSXDIR
 10
1.0
 20
0.0
 30
0.0
  9
$UCSYDIR
 10
0.0
 20
1.0
 30
0.0
  9
$UCSORTHOREF
  2

  9
$UCSORTHOVIEW
 70
     0
  9
$UCSORGTOP
 10
0.0
 20
0.0
 30
0.0
  9
$UCSORGBOTTOM
 10
0.0
 20
0.0
 30
0.0
  9
$UCSORGLEFT
 10
0.0
 20
0.0
 30
0.0
  9
$UCSORGRIGHT
 10
0.0
 20
0.0
 30
0.0
  9
$UCSORGFRONT
 10
0.0
 20
0.0
 30
0.0
  9
$UCSORGBACK
 10
0.0
 20
0.0
 30
0.0
  9
$PUCSBASE
  2

  9
$PUCSNAME
  2

  9
$PUCSORG
 10
0.0
 20
0.0
 30
0.0
  9
$PUCSXDIR
 10
1.0
 20
0.0
 30
0.0
  9
$PUCSYDIR
 10
0.0
 20
1.0
 30
0.0
  9
$PUCSORTHOREF
  2

  9
$PUCSORTHOVIEW
 70
     0
  9
$PUCSORGTOP
 10
0.0
 20
0.0
 30
0.0
  9
$PUCSORGBOTTOM
 10
0.0
 20
0.0
 30
0.0
  9
$PUCSORGLEFT
 10
0.0
 20
0.0
 30
0.0
  9
$PUCSORGRIGHT
 10
0.0
 20
0.0
 30
0.0
  9
$PUCSORGFRONT
 10
0.0
 20
0.0
 30
0.0
  9
$PUCSORGBACK
 10
0.0
 20
0.0
 30
0.0
  9
$USERI1
 70
     0
  9
$USERI2
 70
     0
  9
$USERI3
 70
     0
  9
$USERI4
 70
     0
  9
$USERI5
 70
     0
  9
$USERR1
 40
0.0
  9
$USERR2
 40
0.0
  9
$USERR3
 40
0.0
  9
$USERR4
 40
0.0
  9
$USERR5
 40
0.0
  9
$WORLDVIEW
 70
     1
  9
$SHADEDGE
 70
     3
  9
$SHADEDIF
 70
    70
  9
$TILEMODE
 70
     1
  9
$MAXACTVP
 70
    64
  9
$PINSBASE
 10
0.0
 20
0.0
 30
0.0
  9
$PLIMCHECK
 70
     0
  9
$PEXTMIN
 10
1.000000000000000E+20
 20
1.000000000000000E+20
 30
1.000000000000000E+20
  9
$PEXTMAX
 10
-1.000000000000000E+20
 20
-1.000000000000000E+20
 30
-1.000000000000000E+20
  9
$PLIMMIN
 10
0.0
 20
0.0
  9
$PLIMMAX
 10
12.0
 20
9.0
  9
$UNITMODE
 70
     0
  9
$VISRETAIN
 70
     1
  9
$PLINEGEN
 70
     0
  9
$PSLTSCALE
 70
     1
  9
$TREEDEPTH
 70
  3020
  9
$CMLSTYLE
  2
Standard
  9
$CMLJUST
 70
     0
  9
$CMLSCALE
 40
1.0
  9
$PROXYGRAPHICS
 70
     1
  9
$MEASUREMENT
 70
     0
  9
$CELWEIGHT
370
    -1
  9
$ENDCAPS
280
     0
  9
$JOINSTYLE
280
     0
  9
$LWDISPLAY
290
     1
  9
$INSUNITS
 70
     1
  9
$HYPERLINKBASE
  1

  9
$STYLESHEET
  1

  9
$XEDIT
290
     1
  9
$CEPSNTYPE
380
     0
  9
$PSTYLEMODE
290
     1
  9
$FINGERPRINTGUID
  2
{5C2B99E3-5062-127B-D845-6551758CC870}
  9
$VERSIONGUID
  2
{FAEB1C32-E019-11D5-929B-00C0DF256EC4}
  9
$EXTNAMES
290
     1
  9
$PSVPSCALE
 40
0.0
  9
$OLESTARTUP
290
     0
  9
$SORTENTS
280
   127
  9
$INDEXCTL
280
     0
  9
$HIDETEXT
280
     1
  9
$XCLIPFRAME
280
     2
  9
$HALOGAP
280
     0
  9
$OBSCOLOR
 70
   257
  9
$OBSLTYPE
280
     0
  9
$INTERSECTIONDISPLAY
280
     0
  9
$INTERSECTIONCOLOR
 70
   257
  9
$DIMASSOC
280
     2
  9
$PROJECTNAME
  1

  9
$CAMERADISPLAY
290
     0
  9
$LENSLENGTH
 40
50.0
  9
$CAMERAHEIGHT
 40
0.0
  9
$STEPSPERSEC
 40
2.0
  9
$STEPSIZE
 40
6.0
  9
$3DDWFPREC
 40
2.0
  9
$PSOLWIDTH
 40
0.25
  9
$PSOLHEIGHT
 40
4.0
  9
$LOFTANG1
 40
1.570796326794897
  9
$LOFTANG2
 40
1.570796326794897
  9
$LOFTMAG1
 40
0.0
  9
$LOFTMAG2
 40
0.0
  9
$LOFTPARAM
 70
     7
  9
$LOFTNORMALS
280
     1
  9
$LATITUDE
 40
37.795
  9
$LONGITUDE
 40
-122.394
  9
$NORTHDIRECTION
 40
0.0
  9
$TIMEZONE
 70
 -8000
  9
$LIGHTGLYPHDISPLAY
280
     1
  9
$TILEMODELIGHTSYNCH
280
     1
  9
$CMATERIAL
347
3C
  9
$SOLIDHIST
280
     1
  9
$SHOWHIST
280
     1
  9
$DWFFRAME
280
     2
  9
$DGNFRAME
280
     2
  9
$REALWORLDSCALE
290
     1
  9
$INTERFERECOLOR
 62
   256
  9
$CSHADOW
280
     0
  9
$SHADOWPLANELOCATION
 40
0.0
  0
ENDSEC
  0
SECTION
  2
CLASSES
  0
CLASS
  1
ACDBDICTIONARYWDFLT
  2
AcDbDictionaryWithDefault
  3
ObjectDBX Classes
 90
        0
 91
        4
280
     0
281
     0
  0
CLASS
  1
VISUALSTYLE
  2
AcDbVisualStyle
  3
ObjectDBX Classes
 90
     4095
 91
        4
280
     0
281
     0
  0
CLASS
  1
MATERIAL
  2
AcDbMaterial
  3
ObjectDBX Classes
 90
     1153
 91
        4
280
     0
281
     0
  0
CLASS
  1
SUN
  2
AcDbSun
  3
SCENEOE
 90
     1024
 91
        4
280
     0
281
     0
  0
ENDSEC
  0
SECTION
  2
TABLES
  0
TABLE
  2
VPORT
  5
8
330
0
100
AcDbSymbolTable
 70
     1
  0
VPORT
  5
29
330
8
100
AcDbSymbolTableRecord
100
AcDbViewportTableRecord
  2
*Active
 70
     0
 10
0.0
 20
0.0
 11
1.0
 21
1.0
 12
0.0
 22
0.0
 13
0.0
 23
0.0
 14
0.5
 24
0.5
 15
0.5
 25
0.5
 16
0.0
 26
0.0
 36
1.0
 17
91.00082462281999
 27
-128.4993055234307
 37
0.0
 40
256.9986110468615
 41
0.7081814508812795
 42
50.0
 43
0.0
 44
0.0
 50
0.0
 51
0.0
 71
     0
 72
   100
 73
     1
 74
     3
 75
     0
 76
     0
 77
     0
 78
     0
281
     0
 65
     1
110
0.0
120
0.0
130
0.0
111
1.0
121
0.0
131
0.0
112
0.0
122
1.0
132
0.0
 79
     0
146
0.0
 60
     3
 61
     5
292
     1
282
     1
141
0.0
142
0.0
 63
   250
361
3F
  0
ENDTAB
  0
TABLE
  2
LTYPE
  5
5
330
0
100
AcDbSymbolTable
 70
     1
  0
LTYPE
  5
14
330
5
100
AcDbSymbolTableRecord
100
AcDbLinetypeTableRecord
  2
ByBlock
 70
     0
  3

 72
    65
 73
     0
 40
0.0
  0
LTYPE
  5
15
330
5
100
AcDbSymbolTableRecord
100
AcDbLinetypeTableRecord
  2
ByLayer
 70
     0
  3

 72
    65
 73
     0
 40
0.0
  0
LTYPE
  5
16
330
5
100
AcDbSymbolTableRecord
100
AcDbLinetypeTableRecord
  2
Continuous
 70
     0
  3
Solid line
 72
    65
 73
     0
 40
0.0
  0
ENDTAB
  0
TABLE
  2
LAYER
  5
2
330
0
100
AcDbSymbolTable
 70
     2
  0
LAYER
  5
10
330
2
100
AcDbSymbolTableRecord
100
AcDbLayerTableRecord
  2
0
 70
     0
 62
     7
  6
Continuous
370
    -3
390
F
347
3E
  0
LAYER
  5
40
330
2
100
AcDbSymbolTableRecord
100
AcDbLayerTableRecord
  2
_U+30EC_U+30A4_U+30E4_U+30FC 1
 70
     0
 62
     7
  6
Continuous
370
    -3
390
F
347
3E
  0
ENDTAB
  0
TABLE
  2
STYLE
  5
3
330
0
100
AcDbSymbolTable
 70
     1
  0
STYLE
  5
11
330
3
100
AcDbSymbolTableRecord
100
AcDbTextStyleTableRecord
  2
Standard
 70
     0
 40
0.0
 41
1.0
 50
0.0
 71
     0
 42
0.2
  3
txt
  4

  0
ENDTAB
  0
TABLE
  2
VIEW
  5
6
330
0
100
AcDbSymbolTable
 70
     0
  0
ENDTAB
  0
TABLE
  2
UCS
  5
7
330
0
100
AcDbSymbolTable
 70
     0
  0
ENDTAB
  0
TABLE
  2
APPID
  5
9
330
0
100
AcDbSymbolTable
 70
     1
  0
APPID
  5
12
330
9
100
AcDbSymbolTableRecord
100
AcDbRegAppTableRecord
  2
ACAD
 70
     0
  0
ENDTAB
  0
TABLE
  2
DIMSTYLE
  5
A
330
0
100
AcDbSymbolTable
 70
     1
100
AcDbDimStyleTable
  0
DIMSTYLE
105
27
330
A
100
AcDbSymbolTableRecord
100
AcDbDimStyleTableRecord
  2
Standard
 70
     0
178
     0
340
11
  0
ENDTAB
  0
TABLE
  2
BLOCK_RECORD
  5
1
330
0
100
AcDbSymbolTable
 70
     4
  0
BLOCK_RECORD
  5
1F
330
1
100
AcDbSymbolTableRecord
100
AcDbBlockTableRecord
  2
*Model_Space
340
22
 70
     0
280
     1
281
     0
  0
BLOCK_RECORD
  5
1B
330
1
100
AcDbSymbolTableRecord
100
AcDbBlockTableRecord
  2
*Paper_Space
340
1E
 70
     0
280
     1
281
     0
  0
BLOCK_RECORD
  5
23
330
1
100
AcDbSymbolTableRecord
100
AcDbBlockTableRecord
  2
*Paper_Space0
340
26
 70
     0
280
     1
281
     0
  0
BLOCK_RECORD
  5
6D
330
1
100
AcDbSymbolTableRecord
100
AcDbBlockTableRecord
  2
block 2
340
0
102
{BLKREFS
331
6E
102
}
 70
     0
280
     1
281
     0
  0
BLOCK_RECORD
  5
85
330
1
100
AcDbSymbolTableRecord
100
AcDbBlockTableRecord
  2
block 3
340
0
102
{BLKREFS
331
86
102
}
 70
     0
280
     1
281
     0
  0
BLOCK_RECORD
  5
93
330
1
100
AcDbSymbolTableRecord
100
AcDbBlockTableRecord
  2
block 4
340
0
102
{BLKREFS
331
94
102
}
 70
     0
280
     1
281
     0
  0
ENDTAB
  0
ENDSEC
  0
SECTION
  2
BLOCKS
  0
BLOCK
  5
20
330
1F
100
AcDbEntity
  8
0
100
AcDbBlockBegin
  2
*Model_Space
 70
     0
 10
0.0
 20
0.0
 30
0.0
  3
*Model_Space
  1

  0
ENDBLK
  5
21
330
1F
100
AcDbEntity
  8
0
100
AcDbBlockEnd
  0
BLOCK
  5
1C
330
1B
100
AcDbEntity
 67
     1
  8
0
100
AcDbBlockBegin
  2
*Paper_Space
 70
     0
 10
0.0
 20
0.0
 30
0.0
  3
*Paper_Space
  1

  0
ENDBLK
  5
1D
330
1B
100
AcDbEntity
 67
     1
  8
0
100
AcDbBlockEnd
  0
BLOCK
  5
24
330
23
100
AcDbEntity
  8
0
100
AcDbBlockBegin
  2
*Paper_Space0
 70
     0
 10
0.0
 20
0.0
 30
0.0
  3
*Paper_Space0
  1

  0
ENDBLK
  5
25
330
23
100
AcDbEntity
  8
0
100
AcDbBlockEnd
  0
BLOCK
  5
6F
330
6D
100
AcDbEntity
  8
0
100
AcDbBlockBegin
  2
block 2
 70
     0
 10
0.0
 20
0.0
 30
0.0
  3
block 2
  1

  0
SPLINE
  5
71
330
6D
100
AcDbEntity
  8
_U+30EC_U+30A4_U+30E4_U+30FC 1
370
     0
100
AcDbSpline
210
0.0
220
0.0
230
1.0
 70
    11
 71
     3
 72
    62
 73
    58
 74
     0
 42
0.0000000001
 43
0.0000000001
 12
1.0
 22
0.0
 32
0.0
 13
1.0
 23
0.0
 33
0.0
 40
0.0
 40
0.0
 40
0.0
 40
0.0
 40
1.0
 40
1.0
 40
1.0
 40
2.0
 40
2.0
 40
2.0
 40
3.0
 40
3.0
 40
3.0
 40
4.0
 40
4.0
 40
4.0
 40
5.0
 40
5.0
 40
5.0
 40
6.0
 40
6.0
 40
6.0
 40
7.0
 40
7.0
 40
7.0
 40
8.0
 40
8.0
 40
8.0
 40
9.0
 40
9.0
 40
9.0
 40
10.0
 40
10.0
 40
10.0
 40
11.0
 40
11.0
 40
11.0
 40
12.0
 40
12.0
 40
12.0
 40
13.0
 40
13.0
 40
13.0
 40
14.0
 40
14.0
 40
14.0
 40
15.0
 40
15.0
 40
15.0
 40
16.0
 40
16.0
 40
16.0
 40
17.0
 40
17.0
 40
17.0
 40
18.0
 40
18.0
 40
18.0
 40
19.0
 40
19.0
 40
19.0
 40
19.0
 10
87.67699108051131
 20
-122.5971679381007
 30
0.0
 10
87.60963946377468
 20
-122.5299885761383
 30
0.0
 10
87.47045760617058
 20
-122.360489878264
 30
0.0
 10
87.51386580928474
 20
-122.1406927863051
 30
0.0
 10
87.54090980884395
 20
-122.0090901387686
 30
0.0
 10
87.60826142558058
 20
-121.9360541144813
 30
0.0
 10
87.6651055010872
 20
-121.8733533766497
 30
0.0
 10
87.6651055010872
 20
-121.8733533766497
 30
0.0
 10
87.82065156224623
 20
-122.0287271830345
 30
0.0
 10
87.82065156224623
 20
-122.0287271830345
 30
0.0
 10
87.76966414906454
 20
-122.0824706726044
 30
0.0
 10
87.61118975674304
 20
-122.256103485061
 30
0.0
 10
87.81169431398457
 20
-122.4566080423025
 30
0.0
 10
87.90884600666863
 20
-122.5537597349866
 30
0.0
 10
88.06594236079602
 20
-122.6119818486873
 30
0.0
 10
88.22751733905423
 20
-122.4504068704291
 30
0.0
 10
88.30968286637744
 20
-122.3680690883316
 30
0.0
 10
88.31726207644499
 20
-122.3067463886942
 30
0.0
 10
88.31726207644499
 20
-122.2619601473859
 30
0.0
 10
88.31726207644499
 20
-122.1572292446343
 30
0.0
 10
88.24388154260917
 20
-122.0662787238237
 30
0.0
 10
88.20495196362585
 20
-122.0270046352919
 30
0.0
 10
88.19151609123338
 20
-122.0139132724479
 30
0.0
 10
88.16481660122268
 20
-121.9897976040512
 30
0.0
 10
88.1422512257943
 20
-121.973261145722
 30
0.0
 10
88.1422512257943
 20
-121.973261145722
 30
0.0
 10
88.27988279043004
 20
-121.835457326312
 30
0.0
 10
88.27988279043004
 20
-121.835457326312
 30
0.0
 10
88.30227591108415
 20
-121.8671522047763
 30
0.0
 10
88.33069794883747
 20
-121.8988470832406
 30
0.0
 10
88.3351765729683
 20
-121.9029811978229
 30
0.0
 10
88.3815131072449
 20
-121.9494899868737
 30
0.0
 10
88.53705916840393
 20
-122.0752359720854
 30
0.0
 10
88.70466306376134
 20
-121.9074598219537
 30
0.0
 10
88.8302367941987
 20
-121.7817138367421
 30
0.0
 10
88.7764933046288
 20
-121.6501111892055
 30
0.0
 10
88.69880640143641
 20
-121.5722520312389
 30
0.0
 10
88.5119099713616
 20
-121.3855278559383
 30
0.0
 10
88.34120549006748
 20
-121.5440022482598
 30
0.0
 10
88.28746200049758
 20
-121.5918890755048
 30
0.0
 10
88.28746200049758
 20
-121.5918890755048
 30
0.0
 10
88.14380151876267
 20
-121.4482285937699
 30
0.0
 10
88.14380151876267
 20
-121.4482285937699
 30
0.0
 10
88.23802488028424
 20
-121.3662353212209
 30
0.0
 10
88.52379555078572
 20
-121.1192219749285
 30
0.0
 10
88.8467732525279
 20
-121.4420274218964
 30
0.0
 10
89.00541989962365
 20
-121.6008463237665
 30
0.0
 10
89.08620738875275
 20
-121.8609510329028
 30
0.0
 10
88.87674558324957
 20
-122.070412838406
 30
0.0
 10
88.74514293571302
 20
-122.2020154859426
 30
0.0
 10
88.61939695050141
 20
-122.1930582376809
 30
0.0
 10
88.50588105426242
 20
-122.166186492896
 30
0.0
 10
88.52965221311065
 20
-122.229231740276
 30
0.0
 10
88.60148245397811
 20
-122.414922386931
 30
0.0
 10
88.40562877564166
 20
-122.6106038104932
 30
0.0
 10
88.16619463941679
 20
-122.850037946718
 30
0.0
 10
87.87301701362203
 20
-122.7931938712114
 30
0.0
 10
87.67699108051131
 20
-122.5971679381007
 30
0.0
  0
HATCH
  5
72
330
6D
100
AcDbEntity
  8
_U+30EC_U+30A4_U+30E4_U+30FC 1
 62
   179
420
  2234388
100
AcDbHatch
 10
0.0
 20
0.0
 30
0.0
210
0.0
220
0.0
230
1.0
  2
SOLID
 70
     1
 71
     0
 91
        1
 92
        1
 93
        1
 72
     4
 94
        3
 73
     0
 74
     1
 95
       62
 96
       58
 40
0.0
 40
0.0
 40
0.0
 40
0.0
 40
1.0
 40
1.0
 40
1.0
 40
2.0
 40
2.0
 40
2.0
 40
3.0
 40
3.0
 40
3.0
 40
4.0
 40
4.0
 40
4.0
 40
5.0
 40
5.0
 40
5.0
 40
6.0
 40
6.0
 40
6.0
 40
7.0
 40
7.0
 40
7.0
 40
8.0
 40
8.0
 40
8.0
 40
9.0
 40
9.0
 40
9.0
 40
10.0
 40
10.0
 40
10.0
 40
11.0
 40
11.0
 40
11.0
 40
12.0
 40
12.0
 40
12.0
 40
13.0
 40
13.0
 40
13.0
 40
14.0
 40
14.0
 40
14.0
 40
15.0
 40
15.0
 40
15.0
 40
16.0
 40
16.0
 40
16.0
 40
17.0
 40
17.0
 40
17.0
 40
18.0
 40
18.0
 40
18.0
 40
19.0
 40
19.0
 40
19.0
 40
19.0
 10
87.67699108051131
 20
-122.5971679381007
 10
87.60963946377468
 20
-122.5299885761383
 10
87.47045760617058
 20
-122.360489878264
 10
87.51386580928474
 20
-122.1406927863051
 10
87.54090980884395
 20
-122.0090901387686
 10
87.60826142558058
 20
-121.9360541144813
 10
87.6651055010872
 20
-121.8733533766497
 10
87.6651055010872
 20
-121.8733533766497
 10
87.82065156224623
 20
-122.0287271830345
 10
87.82065156224623
 20
-122.0287271830345
 10
87.76966414906454
 20
-122.0824706726044
 10
87.61118975674304
 20
-122.256103485061
 10
87.81169431398457
 20
-122.4566080423025
 10
87.90884600666863
 20
-122.5537597349866
 10
88.06594236079602
 20
-122.6119818486873
 10
88.22751733905423
 20
-122.4504068704291
 10
88.30968286637744
 20
-122.3680690883316
 10
88.31726207644499
 20
-122.3067463886942
 10
88.31726207644499
 20
-122.2619601473859
 10
88.31726207644499
 20
-122.1572292446343
 10
88.24388154260917
 20
-122.0662787238237
 10
88.20495196362585
 20
-122.0270046352919
 10
88.19151609123338
 20
-122.0139132724479
 10
88.16481660122268
 20
-121.9897976040512
 10
88.1422512257943
 20
-121.973261145722
 10
88.1422512257943
 20
-121.973261145722
 10
88.27988279043004
 20
-121.835457326312
 10
88.27988279043004
 20
-121.835457326312
 10
88.30227591108415
 20
-121.8671522047763
 10
88.33069794883747
 20
-121.8988470832406
 10
88.3351765729683
 20
-121.9029811978229
 10
88.3815131072449
 20
-121.9494899868737
 10
88.53705916840393
 20
-122.0752359720854
 10
88.70466306376134
 20
-121.9074598219537
 10
88.8302367941987
 20
-121.7817138367421
 10
88.7764933046288
 20
-121.6501111892055
 10
88.69880640143641
 20
-121.5722520312389
 10
88.5119099713616
 20
-121.3855278559383
 10
88.34120549006748
 20
-121.5440022482598
 10
88.28746200049758
 20
-121.5918890755048
 10
88.28746200049758
 20
-121.5918890755048
 10
88.14380151876267
 20
-121.4482285937699
 10
88.14380151876267
 20
-121.4482285937699
 10
88.23802488028424
 20
-121.3662353212209
 10
88.52379555078572
 20
-121.1192219749285
 10
88.8467732525279
 20
-121.4420274218964
 10
89.00541989962365
 20
-121.6008463237665
 10
89.08620738875275
 20
-121.8609510329028
 10
88.87674558324957
 20
-122.070412838406
 10
88.74514293571302
 20
-122.2020154859426
 10
88.61939695050141
 20
-122.1930582376809
 10
88.50588105426242
 20
-122.166186492896
 10
88.52965221311065
 20
-122.229231740276
 10
88.60148245397811
 20
-122.414922386931
 10
88.40562877564166
 20
-122.6106038104932
 10
88.16619463941679
 20
-122.850037946718
 10
87.87301701362203
 20
-122.7931938712114
 10
87.67699108051131
 20
-122.5971679381007
 97
        0
 97
        0
 75
     2
 76
     1
 98
        0
  0
SPLINE
  5
73
330
6D
100
AcDbEntity
  8
_U+30EC_U+30A4_U+30E4_U+30FC 1
370
     0
100
AcDbSpline
210
0.0
220
0.0
230
1.0
 70
    11
 71
     3
 72
    29
 73
    25
 74
     0
 42
0.0000000001
 43
0.0000000001
 12
1.0
 22
0.0
 32
0.0
 13
1.0
 23
0.0
 33
0.0
 40
0.0
 40
0.0
 40
0.0
 40
0.0
 40
1.0
 40
1.0
 40
1.0
 40
2.0
 40
2.0
 40
2.0
 40
3.0
 40
3.0
 40
3.0
 40
4.0
 40
4.0
 40
4.0
 40
5.0
 40
5.0
 40
5.0
 40
6.0
 40
6.0
 40
6.0
 40
7.0
 40
7.0
 40
7.0
 40
8.0
 40
8.0
 40
8.0
 40
8.0
 10
88.9578775819272
 20
-123.5549044830002
 30
0.0
 10
88.73360186583744
 20
-123.6265624690934
 30
0.0
 10
88.59734833939581
 20
-123.5173529422109
 30
0.0
 10
88.51501055729834
 20
-123.435359669662
 30
0.0
 10
88.40149466105935
 20
-123.3216715186488
 30
0.0
 10
88.33414304432272
 20
-123.1886908329181
 30
0.0
 10
88.39546574396016
 20
-122.9923203902589
 30
0.0
 10
88.4600612843086
 20
-122.7814805465616
 30
0.0
 10
88.613884797725
 20
-122.6002685240374
 30
0.0
 10
88.72912324170662
 20
-122.4852023348301
 30
0.0
 10
88.83075355852148
 20
-122.3835720180152
 30
0.0
 10
89.02075057453301
 20
-122.2178629251747
 30
0.0
 10
89.2362412971354
 20
-122.1517170918579
 30
0.0
 10
89.45621064386859
 20
-122.084193220347
 30
0.0
 10
89.58626299843677
 20
-122.1816894225796
 30
0.0
 10
89.67738577402163
 20
-122.2729844529387
 30
0.0
 10
89.78969588684078
 20
-122.3852945657578
 30
0.0
 10
89.85997583473987
 20
-122.5182752514885
 30
0.0
 10
89.79865313510243
 20
-122.7139566750507
 30
0.0
 10
89.73267955655989
 20
-122.9206624041657
 30
0.0
 10
89.58781329140514
 20
-123.0984293312046
 30
0.0
 10
89.46516789213024
 20
-123.2210747304795
 30
0.0
 10
89.34390053104944
 20
-123.3423420915603
 30
0.0
 10
89.16578909446203
 20
-123.490481197426
 30
0.0
 10
88.9578775819272
 20
-123.5549044830002
 30
0.0
  0
SPLINE
  5
74
330
6D
100
AcDbEntity
  8
_U+30EC_U+30A4_U+30E4_U+30FC 1
370
     0
100
AcDbSpline
210
0.0
220
0.0
230
1.0
 70
    11
 71
     3
 72
    17
 73
    13
 74
     0
 42
0.0000000001
 43
0.0000000001
 12
1.0
 22
0.0
 32
0.0
 13
1.0
 23
0.0
 33
0.0
 40
0.0
 40
0.0
 40
0.0
 40
0.0
 40
1.0
 40
1.0
 40
1.0
 40
2.0
 40
2.0
 40
2.0
 40
3.0
 40
3.0
 40
3.0
 40
4.0
 40
4.0
 40
4.0
 40
4.0
 10
89.54130450235427
 20
-122.4087212150576
 30
0.0
 10
89.36491561350947
 20
-122.2323323262128
 30
0.0
 10
89.1315103943838
 20
-122.4001084763444
 30
0.0
 10
88.88776988880237
 20
-122.6436767271516
 30
0.0
 10
88.66177162496997
 20
-122.869674990984
 30
0.0
 10
88.46884627779599
 20
-123.1135877513397
 30
0.0
 10
88.65264212193406
 20
-123.297555850252
 30
0.0
 10
88.82782522735901
 20
-123.4725667009027
 30
0.0
 10
89.06140270125896
 20
-123.3078911367078
 30
0.0
 10
89.30669349980874
 20
-123.062600338158
 30
0.0
 10
89.53251950886687
 20
-122.8369465838741
 30
0.0
 10
89.7238945630725
 20
-122.5913112757758
 30
0.0
 10
89.54130450235427
 20
-122.4087212150576
 30
0.0
  0
HATCH
  5
75
330
6D
100
AcDbEntity
  8
_U+30EC_U+30A4_U+30E4_U+30FC 1
 62
   179
420
  2234388
100
AcDbHatch
 10
0.0
 20
0.0
 30
0.0
210
0.0
220
0.0
230
1.0
  2
SOLID
 70
     1
 71
     0
 91
        2
 92
        1
 93
        1
 72
     4
 94
        3
 73
     0
 74
     1
 95
       29
 96
       25
 40
0.0
 40
0.0
 40
0.0
 40
0.0
 40
1.0
 40
1.0
 40
1.0
 40
2.0
 40
2.0
 40
2.0
 40
3.0
 40
3.0
 40
3.0
 40
4.0
 40
4.0
 40
4.0
 40
5.0
 40
5.0
 40
5.0
 40
6.0
 40
6.0
 40
6.0
 40
7.0
 40
7.0
 40
7.0
 40
8.0
 40
8.0
 40
8.0
 40
8.0
 10
88.9578775819272
 20
-123.5549044830002
 10
88.73360186583744
 20
-123.6265624690934
 10
88.59734833939581
 20
-123.5173529422109
 10
88.51501055729834
 20
-123.435359669662
 10
88.40149466105935
 20
-123.3216715186488
 10
88.33414304432272
 20
-123.1886908329181
 10
88.39546574396016
 20
-122.9923203902589
 10
88.4600612843086
 20
-122.7814805465616
 10
88.613884797725
 20
-122.6002685240374
 10
88.72912324170662
 20
-122.4852023348301
 10
88.83075355852148
 20
-122.3835720180152
 10
89.02075057453301
 20
-122.2178629251747
 10
89.2362412971354
 20
-122.1517170918579
 10
89.45621064386859
 20
-122.084193220347
 10
89.58626299843677
 20
-122.1816894225796
 10
89.67738577402163
 20
-122.2729844529387
 10
89.78969588684078
 20
-122.3852945657578
 10
89.85997583473987
 20
-122.5182752514885
 10
89.79865313510243
 20
-122.7139566750507
 10
89.73267955655989
 20
-122.9206624041657
 10
89.58781329140514
 20
-123.0984293312046
 10
89.46516789213024
 20
-123.2210747304795
 10
89.34390053104944
 20
-123.3423420915603
 10
89.16578909446203
 20
-123.490481197426
 10
88.9578775819272
 20
-123.5549044830002
 97
        0
 97
        0
 92
        1
 93
        1
 72
     4
 94
        3
 73
     0
 74
     1
 95
       17
 96
       13
 40
0.0
 40
0.0
 40
0.0
 40
0.0
 40
1.0
 40
1.0
 40
1.0
 40
2.0
 40
2.0
 40
2.0
 40
3.0
 40
3.0
 40
3.0
 40
4.0
 40
4.0
 40
4.0
 40
4.0
 10
89.54130450235427
 20
-122.4087212150576
 10
89.36491561350947
 20
-122.2323323262128
 10
89.1315103943838
 20
-122.4001084763444
 10
88.88776988880237
 20
-122.6436767271516
 10
88.66177162496997
 20
-122.869674990984
 10
88.46884627779599
 20
-123.1135877513397
 10
88.65264212193406
 20
-123.297555850252
 10
88.82782522735901
 20
-123.4725667009027
 10
89.06140270125896
 20
-123.3078911367078
 10
89.30669349980874
 20
-123.062600338158
 10
89.53251950886687
 20
-122.8369465838741
 10
89.7238945630725
 20
-122.5913112757758
 10
89.54130450235427
 20
-122.4087212150576
 97
        0
 97
        0
 75
     2
 76
     1
 98
        0
  0
SPLINE
  5
76
330
6D
100
AcDbEntity
  8
_U+30EC_U+30A4_U+30E4_U+30FC 1
370
     0
100
AcDbSpline
210
0.0
220
0.0
230
1.0
 70
    11
 71
     3
 72
    44
 73
    40
 74
     0
 42
0.0000000001
 43
0.0000000001
 12
1.0
 22
0.0
 32
0.0
 13
1.0
 23
0.0
 33
0.0
 40
0.0
 40
0.0
 40
0.0
 40
0.0
 40
1.0
 40
1.0
 40
1.0
 40
2.0
 40
2.0
 40
2.0
 40
3.0
 40
3.0
 40
3.0
 40
4.0
 40
4.0
 40
4.0
 40
5.0
 40
5.0
 40
5.0
 40
6.0
 40
6.0
 40
6.0
 40
7.0
 40
7.0
 40
7.0
 40
8.0
 40
8.0
 40
8.0
 40
9.0
 40
9.0
 40
9.0
 40
10.0
 40
10.0
 40
10.0
 40
11.0
 40
11.0
 40
11.0
 40
12.0
 40
12.0
 40
12.0
 40
13.0
 40
13.0
 40
13.0
 40
13.0
 10
89.74680444804942
 20
-124.5949788099971
 30
0.0
 10
89.76161835863599
 20
-124.5470919827521
 30
0.0
 10
89.78418373406437
 20
-124.4950710409249
 30
0.0
 10
89.94558645754833
 20
-124.3300509671814
 30
0.0
 10
90.11491290064836
 20
-124.1553846260792
 30
0.0
 10
90.12214760116738
 20
-124.0637450861716
 30
0.0
 10
89.99657387073003
 20
-123.9383436105085
 30
0.0
 10
89.99657387073003
 20
-123.9383436105085
 30
0.0
 10
89.70787486906609
 20
-123.6496446088445
 30
0.0
 10
89.70787486906609
 20
-123.6496446088445
 30
0.0
 10
89.70787486906609
 20
-123.6496446088445
 30
0.0
 10
89.25467255798148
 20
-124.1030191747034
 30
0.0
 10
89.25467255798148
 20
-124.1030191747034
 30
0.0
 10
89.25467255798148
 20
-124.1030191747034
 30
0.0
 10
89.08861895559244
 20
-123.9369655723144
 30
0.0
 10
89.08861895559244
 20
-123.9369655723144
 30
0.0
 10
89.08861895559244
 20
-123.9369655723144
 30
0.0
 10
90.18054196964236
 20
-122.8448703034902
 30
0.0
 10
90.18054196964236
 20
-122.8448703034902
 30
0.0
 10
90.18054196964236
 20
-122.8448703034902
 30
0.0
 10
90.65768769434948
 20
-123.3220160281973
 30
0.0
 10
90.65768769434948
 20
-123.3220160281973
 30
0.0
 10
90.87455645514595
 20
-123.5387125342195
 30
0.0
 10
90.87162812398348
 20
-123.7781466704444
 30
0.0
 10
90.6905883562336
 20
-123.95901418342
 30
0.0
 10
90.65475936318701
 20
-123.9948431764666
 30
0.0
 10
90.59033607761283
 20
-124.0472086278424
 30
0.0
 10
90.50214163319045
 20
-124.0727023344332
 30
0.0
 10
90.38690318920884
 20
-124.1043972128975
 30
0.0
 10
90.32713078253975
 20
-124.0713242962391
 30
0.0
 10
90.27183700000148
 20
-124.0399739273233
 30
0.0
 10
90.33901636196386
 20
-124.1670979507291
 30
0.0
 10
90.35245223435633
 20
-124.2494357328265
 30
0.0
 10
90.13282739717165
 20
-124.4750894871104
 30
0.0
 10
89.94420841935423
 20
-124.669737382027
 30
0.0
 10
89.94713675051669
 20
-124.717624209272
 30
0.0
 10
89.9562662535526
 20
-124.8044406155003
 30
0.0
 10
89.9562662535526
 20
-124.8044406155003
 30
0.0
 10
89.74680444804942
 20
-124.5949788099971
 30
0.0
 10
89.74680444804942
 20
-124.5949788099971
 30
0.0
  0
SPLINE
  5
77
330
6D
100
AcDbEntity
  8
_U+30EC_U+30A4_U+30E4_U+30FC 1
370
     0
100
AcDbSpline
210
0.0
220
0.0
230
1.0
 70
    11
 71
     3
 72
    20
 73
    16
 74
     0
 42
0.0000000001
 43
0.0000000001
 12
1.0
 22
0.0
 32
0.0
 13
1.0
 23
0.0
 33
0.0
 40
0.0
 40
0.0
 40
0.0
 40
0.0
 40
1.0
 40
1.0
 40
1.0
 40
2.0
 40
2.0
 40
2.0
 40
3.0
 40
3.0
 40
3.0
 40
4.0
 40
4.0
 40
4.0
 40
5.0
 40
5.0
 40
5.0
 40
5.0
 10
90.51109888145209
 20
-123.4746337581938
 30
0.0
 10
90.51109888145209
 20
-123.4746337581938
 30
0.0
 10
90.19707842797156
 20
-123.1604410499391
 30
0.0
 10
90.19707842797156
 20
-123.1604410499391
 30
0.0
 10
90.19707842797156
 20
-123.1604410499391
 30
0.0
 10
89.85739201312593
 20
-123.5001274647847
 30
0.0
 10
89.85739201312593
 20
-123.5001274647847
 30
0.0
 10
89.85739201312593
 20
-123.5001274647847
 30
0.0
 10
90.17003442841235
 20
-123.8129421348454
 30
0.0
 10
90.17003442841235
 20
-123.8129421348454
 30
0.0
 10
90.24031437631146
 20
-123.8832220827445
 30
0.0
 10
90.39000377514556
 20
-123.924907738116
 30
0.0
 10
90.51109888145209
 20
-123.8039848865837
 30
0.0
 10
90.56656491876461
 20
-123.7481743397227
 30
0.0
 10
90.65165877725029
 20
-123.615193653992
 30
0.0
 10
90.51109888145209
 20
-123.4746337581938
 30
0.0
  0
HATCH
  5
78
330
6D
100
AcDbEntity
  8
_U+30EC_U+30A4_U+30E4_U+30FC 1
 62
   179
420
  2234388
100
AcDbHatch
 10
0.0
 20
0.0
 30
0.0
210
0.0
220
0.0
230
1.0
  2
SOLID
 70
     1
 71
     0
 91
        2
 92
        1
 93
        1
 72
     4
 94
        3
 73
     0
 74
     1
 95
       44
 96
       40
 40
0.0
 40
0.0
 40
0.0
 40
0.0
 40
1.0
 40
1.0
 40
1.0
 40
2.0
 40
2.0
 40
2.0
 40
3.0
 40
3.0
 40
3.0
 40
4.0
 40
4.0
 40
4.0
 40
5.0
 40
5.0
 40
5.0
 40
6.0
 40
6.0
 40
6.0
 40
7.0
 40
7.0
 40
7.0
 40
8.0
 40
8.0
 40
8.0
 40
9.0
 40
9.0
 40
9.0
 40
10.0
 40
10.0
 40
10.0
 40
11.0
 40
11.0
 40
11.0
 40
12.0
 40
12.0
 40
12.0
 40
13.0
 40
13.0
 40
13.0
 40
13.0
 10
89.74680444804942
 20
-124.5949788099971
 10
89.76161835863599
 20
-124.5470919827521
 10
89.78418373406437
 20
-124.4950710409249
 10
89.94558645754833
 20
-124.3300509671814
 10
90.11491290064836
 20
-124.1553846260792
 10
90.12214760116738
 20
-124.0637450861716
 10
89.99657387073003
 20
-123.9383436105085
 10
89.99657387073003
 20
-123.9383436105085
 10
89.70787486906609
 20
-123.6496446088445
 10
89.70787486906609
 20
-123.6496446088445
 10
89.70787486906609
 20
-123.6496446088445
 10
89.25467255798148
 20
-124.1030191747034
 10
89.25467255798148
 20
-124.1030191747034
 10
89.25467255798148
 20
-124.1030191747034
 10
89.08861895559244
 20
-123.9369655723144
 10
89.08861895559244
 20
-123.9369655723144
 10
89.08861895559244
 20
-123.9369655723144
 10
90.18054196964236
 20
-122.8448703034902
 10
90.18054196964236
 20
-122.8448703034902
 10
90.18054196964236
 20
-122.8448703034902
 10
90.65768769434948
 20
-123.3220160281973
 10
90.65768769434948
 20
-123.3220160281973
 10
90.87455645514595
 20
-123.5387125342195
 10
90.87162812398348
 20
-123.7781466704444
 10
90.6905883562336
 20
-123.95901418342
 10
90.65475936318701
 20
-123.9948431764666
 10
90.59033607761283
 20
-124.0472086278424
 10
90.50214163319045
 20
-124.0727023344332
 10
90.38690318920884
 20
-124.1043972128975
 10
90.32713078253975
 20
-124.0713242962391
 10
90.27183700000148
 20
-124.0399739273233
 10
90.33901636196386
 20
-124.1670979507291
 10
90.35245223435633
 20
-124.2494357328265
 10
90.13282739717165
 20
-124.4750894871104
 10
89.94420841935423
 20
-124.669737382027
 10
89.94713675051669
 20
-124.717624209272
 10
89.9562662535526
 20
-124.8044406155003
 10
89.9562662535526
 20
-124.8044406155003
 10
89.74680444804942
 20
-124.5949788099971
 10
89.74680444804942
 20
-124.5949788099971
 97
        0
 97
        0
 92
        1
 93
        1
 72
     4
 94
        3
 73
     0
 74
     1
 95
       20
 96
       16
 40
0.0
 40
0.0
 40
0.0
 40
0.0
 40
1.0
 40
1.0
 40
1.0
 40
2.0
 40
2.0
 40
2.0
 40
3.0
 40
3.0
 40
3.0
 40
4.0
 40
4.0
 40
4.0
 40
5.0
 40
5.0
 40
5.0
 40
5.0
 10
90.51109888145209
 20
-123.4746337581938
 10
90.51109888145209
 20
-123.4746337581938
 10
90.19707842797156
 20
-123.1604410499391
 10
90.19707842797156
 20
-123.1604410499391
 10
90.19707842797156
 20
-123.1604410499391
 10
89.85739201312593
 20
-123.5001274647847
 10
89.85739201312593
 20
-123.5001274647847
 10
89.85739201312593
 20
-123.5001274647847
 10
90.17003442841235
 20
-123.8129421348454
 10
90.17003442841235
 20
-123.8129421348454
 10
90.24031437631146
 20
-123.8832220827445
 10
90.39000377514556
 20
-123.924907738116
 10
90.51109888145209
 20
-123.8039848865837
 10
90.56656491876461
 20
-123.7481743397227
 10
90.65165877725029
 20
-123.615193653992
 10
90.51109888145209
 20
-123.4746337581938
 97
        0
 97
        0
 75
     2
 76
     1
 98
        0
  0
ENDBLK
  5
70
330
6D
100
AcDbEntity
  8
0
100
AcDbBlockEnd
  0
BLOCK
  5
87
330
85
100
AcDbEntity
  8
0
100
AcDbBlockBegin
  2
block 3
 70
     0
 10
0.0
 20
0.0
 30
0.0
  3
block 3
  1

  0
SPLINE
  5
89
330
85
100
AcDbEntity
  8
_U+30EC_U+30A4_U+30E4_U+30FC 1
370
     0
100
AcDbSpline
210
0.0
220
0.0
230
1.0
 70
    11
 71
     3
 72
    26
 73
    22
 74
     0
 42
0.0000000001
 43
0.0000000001
 12
1.0
 22
0.0
 32
0.0
 13
1.0
 23
0.0
 33
0.0
 40
0.0
 40
0.0
 40
0.0
 40
0.0
 40
1.0
 40
1.0
 40
1.0
 40
2.0
 40
2.0
 40
2.0
 40
3.0
 40
3.0
 40
3.0
 40
4.0
 40
4.0
 40
4.0
 40
5.0
 40
5.0
 40
5.0
 40
6.0
 40
6.0
 40
6.0
 40
7.0
 40
7.0
 40
7.0
 40
7.0
 10
99.5880642112141
 20
-141.4618217962318
 30
0.0
 10
99.5880642112141
 20
-141.4618217962318
 30
0.0
 10
99.35138615137744
 20
-141.4618217962318
 30
0.0
 10
99.35138615137744
 20
-141.4618217962318
 30
0.0
 10
99.37653534841976
 20
-141.1527967312049
 30
0.0
 10
99.56911618604522
 20
-140.6346543702233
 30
0.0
 10
99.97529294375619
 20
-140.1289143529886
 30
0.0
 10
99.97529294375619
 20
-140.1289143529886
 30
0.0
 10
99.13744572174342
 20
-140.1289143529886
 30
0.0
 10
99.13744572174342
 20
-140.1289143529886
 30
0.0
 10
99.13744572174342
 20
-140.1289143529886
 30
0.0
 10
99.13744572174342
 20
-139.9173854901943
 30
0.0
 10
99.13744572174342
 20
-139.9173854901943
 30
0.0
 10
99.13744572174342
 20
-139.9173854901943
 30
0.0
 10
100.2123155131414
 20
-139.9173854901943
 30
0.0
 10
100.2123155131414
 20
-139.9173854901943
 30
0.0
 10
100.2123155131414
 20
-139.9173854901943
 30
0.0
 10
100.2123155131414
 20
-140.1289143529886
 30
0.0
 10
100.2123155131414
 20
-140.1289143529886
 30
0.0
 10
99.88847653752788
 20
-140.4189913928466
 30
0.0
 10
99.62217065651808
 20
-141.0112033067611
 30
0.0
 10
99.5880642112141
 20
-141.4618217962318
 30
0.0
  0
HATCH
  5
8A
330
85
100
AcDbEntity
  8
_U+30EC_U+30A4_U+30E4_U+30FC 1
 62
   179
420
  2234388
100
AcDbHatch
 10
0.0
 20
0.0
 30
0.0
210
0.0
220
0.0
230
1.0
  2
SOLID
 70
     1
 71
     0
 91
        1
 92
        1
 93
        1
 72
     4
 94
        3
 73
     0
 74
     1
 95
       26
 96
       22
 40
0.0
 40
0.0
 40
0.0
 40
0.0
 40
1.0
 40
1.0
 40
1.0
 40
2.0
 40
2.0
 40
2.0
 40
3.0
 40
3.0
 40
3.0
 40
4.0
 40
4.0
 40
4.0
 40
5.0
 40
5.0
 40
5.0
 40
6.0
 40
6.0
 40
6.0
 40
7.0
 40
7.0
 40
7.0
 40
7.0
 10
99.5880642112141
 20
-141.4618217962318
 10
99.5880642112141
 20
-141.4618217962318
 10
99.35138615137744
 20
-141.4618217962318
 10
99.35138615137744
 20
-141.4618217962318
 10
99.37653534841976
 20
-141.1527967312049
 10
99.56911618604522
 20
-140.6346543702233
 10
99.97529294375619
 20
-140.1289143529886
 10
99.97529294375619
 20
-140.1289143529886
 10
99.13744572174342
 20
-140.1289143529886
 10
99.13744572174342
 20
-140.1289143529886
 10
99.13744572174342
 20
-140.1289143529886
 10
99.13744572174342
 20
-139.9173854901943
 10
99.13744572174342
 20
-139.9173854901943
 10
99.13744572174342
 20
-139.9173854901943
 10
100.2123155131414
 20
-139.9173854901943
 10
100.2123155131414
 20
-139.9173854901943
 10
100.2123155131414
 20
-139.9173854901943
 10
100.2123155131414
 20
-140.1289143529886
 10
100.2123155131414
 20
-140.1289143529886
 10
99.88847653752788
 20
-140.4189913928466
 10
99.62217065651808
 20
-141.0112033067611
 10
99.5880642112141
 20
-141.4618217962318
 97
        0
 97
        0
 75
     2
 76
     1
 98
        0
  0
ENDBLK
  5
88
330
85
100
AcDbEntity
  8
0
100
AcDbBlockEnd
  0
BLOCK
  5
95
330
93
100
AcDbEntity
  8
0
100
AcDbBlockBegin
  2
block 4
 70
     0
 10
0.0
 20
0.0
 30
0.0
  3
block 4
  1

  0
SPLINE
  5
97
330
93
100
AcDbEntity
  8
_U+30EC_U+30A4_U+30E4_U+30FC 1
370
     0
100
AcDbSpline
210
0.0
220
0.0
230
1.0
 70
    11
 71
     3
 72
    26
 73
    22
 74
     0
 42
0.0000000001
 43
0.0000000001
 12
1.0
 22
0.0
 32
0.0
 13
1.0
 23
0.0
 33
0.0
 40
0.0
 40
0.0
 40
0.0
 40
0.0
 40
1.0
 40
1.0
 40
1.0
 40
2.0
 40
2.0
 40
2.0
 40
3.0
 40
3.0
 40
3.0
 40
4.0
 40
4.0
 40
4.0
 40
5.0
 40
5.0
 40
5.0
 40
6.0
 40
6.0
 40
6.0
 40
7.0
 40
7.0
 40
7.0
 40
7.0
 10
86.54010957037886
 20
-141.4618217962318
 30
0.0
 10
86.54010957037886
 20
-141.4618217962318
 30
0.0
 10
86.54010957037886
 20
-140.3576686932092
 30
0.0
 10
86.54010957037886
 20
-140.3576686932092
 30
0.0
 10
86.54010957037886
 20
-140.3576686932092
 30
0.0
 10
86.21006942289193
 20
-140.3576686932092
 30
0.0
 10
86.21006942289193
 20
-140.3576686932092
 30
0.0
 10
86.21006942289193
 20
-140.3576686932092
 30
0.0
 10
86.21006942289193
 20
-140.2095295873435
 30
0.0
 10
86.21006942289193
 20
-140.2095295873435
 30
0.0
 10
86.54217662767002
 20
-140.1947156767569
 30
0.0
 10
86.58868541672089
 20
-140.0317626603046
 30
0.0
 10
86.61831323789404
 20
-139.9173854901943
 30
0.0
 10
86.61831323789404
 20
-139.9173854901943
 30
0.0
 10
86.76438528646862
 20
-139.9173854901943
 30
0.0
 10
86.76438528646862
 20
-139.9173854901943
 30
0.0
 10
86.76438528646862
 20
-139.9173854901943
 30
0.0
 10
86.76438528646862
 20
-141.4618217962318
 30
0.0
 10
86.76438528646862
 20
-141.4618217962318
 30
0.0
 10
86.76438528646862
 20
-141.4618217962318
 30
0.0
 10
86.54010957037886
 20
-141.4618217962318
 30
0.0
 10
86.54010957037886
 20
-141.4618217962318
 30
0.0
  0
HATCH
  5
98
330
93
100
AcDbEntity
  8
_U+30EC_U+30A4_U+30E4_U+30FC 1
 62
   179
420
  2234388
100
AcDbHatch
 10
0.0
 20
0.0
 30
0.0
210
0.0
220
0.0
230
1.0
  2
SOLID
 70
     1
 71
     0
 91
        1
 92
        1
 93
        1
 72
     4
 94
        3
 73
     0
 74
     1
 95
       26
 96
       22
 40
0.0
 40
0.0
 40
0.0
 40
0.0
 40
1.0
 40
1.0
 40
1.0
 40
2.0
 40
2.0
 40
2.0
 40
3.0
 40
3.0
 40
3.0
 40
4.0
 40
4.0
 40
4.0
 40
5.0
 40
5.0
 40
5.0
 40
6.0
 40
6.0
 40
6.0
 40
7.0
 40
7.0
 40
7.0
 40
7.0
 10
86.54010957037886
 20
-141.4618217962318
 10
86.54010957037886
 20
-141.4618217962318
 10
86.54010957037886
 20
-140.3576686932092
 10
86.54010957037886
 20
-140.3576686932092
 10
86.54010957037886
 20
-140.3576686932092
 10
86.21006942289193
 20
-140.3576686932092
 10
86.21006942289193
 20
-140.3576686932092
 10
86.21006942289193
 20
-140.3576686932092
 10
86.21006942289193
 20
-140.2095295873435
 10
86.21006942289193
 20
-140.2095295873435
 10
86.54217662767002
 20
-140.1947156767569
 10
86.58868541672089
 20
-140.0317626603046
 10
86.61831323789404
 20
-139.9173854901943
 10
86.61831323789404
 20
-139.9173854901943
 10
86.76438528646862
 20
-139.9173854901943
 10
86.76438528646862
 20
-139.9173854901943
 10
86.76438528646862
 20
-139.9173854901943
 10
86.76438528646862
 20
-141.4618217962318
 10
86.76438528646862
 20
-141.4618217962318
 10
86.76438528646862
 20
-141.4618217962318
 10
86.54010957037886
 20
-141.4618217962318
 10
86.54010957037886
 20
-141.4618217962318
 97
        0
 97
        0
 75
     2
 76
     1
 98
        0
  0
SPLINE
  5
99
330
93
100
AcDbEntity
  8
_U+30EC_U+30A4_U+30E4_U+30FC 1
370
     0
100
AcDbSpline
210
0.0
220
0.0
230
1.0
 70
    11
 71
     3
 72
    29
 73
    25
 74
     0
 42
0.0000000001
 43
0.0000000001
 12
1.0
 22
0.0
 32
0.0
 13
1.0
 23
0.0
 33
0.0
 40
0.0
 40
0.0
 40
0.0
 40
0.0
 40
1.0
 40
1.0
 40
1.0
 40
2.0
 40
2.0
 40
2.0
 40
3.0
 40
3.0
 40
3.0
 40
4.0
 40
4.0
 40
4.0
 40
5.0
 40
5.0
 40
5.0
 40
6.0
 40
6.0
 40
6.0
 40
7.0
 40
7.0
 40
7.0
 40
8.0
 40
8.0
 40
8.0
 40
8.0
 10
87.76553003448224
 20
-141.5124646998649
 30
0.0
 10
87.49905189869816
 20
-141.5124646998649
 30
0.0
 10
87.24514836143524
 20
-141.3750053900035
 30
0.0
 10
87.24514836143524
 20
-141.0260172173477
 30
0.0
 10
87.24514836143524
 20
-140.7700466227936
 30
0.0
 10
87.38691404065328
 20
-140.6749619874007
 30
0.0
 10
87.49267847205044
 20
-140.6136392877633
 30
0.0
 10
87.36779376071014
 20
-140.554383645417
 30
0.0
 10
87.29165715048612
 20
-140.4400064753067
 30
0.0
 10
87.29165715048612
 20
-140.2791205161455
 30
0.0
 10
87.29165715048612
 20
-140.0042018964226
 30
0.0
 10
87.4906114147593
 20
-139.8688096438522
 30
0.0
 10
87.76553003448224
 20
-139.8688096438522
 30
0.0
 10
88.04906139291829
 20
-139.8688096438522
 30
0.0
 10
88.23940291847835
 20
-140.0128146351357
 30
0.0
 10
88.23940291847835
 20
-140.2791205161455
 30
0.0
 10
88.23940291847835
 20
-140.4400064753067
 30
0.0
 10
88.16119925096318
 20
-140.554383645417
 30
0.0
 10
88.03631453962286
 20
-140.6136392877633
 30
0.0
 10
88.12519800314232
 20
-140.6642821913964
 30
0.0
 10
88.28384465023807
 20
-140.7593668267893
 30
0.0
 10
88.28384465023807
 20
-141.0218831027654
 30
0.0
 10
88.28384465023807
 20
-141.396364982012
 30
0.0
 10
88.00461966115857
 20
-141.5124646998649
 30
0.0
 10
87.76553003448224
 20
-141.5124646998649
 30
0.0
  0
SPLINE
  5
9A
330
93
100
AcDbEntity
  8
_U+30EC_U+30A4_U+30E4_U+30FC 1
370
     0
100
AcDbSpline
210
0.0
220
0.0
230
1.0
 70
    11
 71
     3
 72
    17
 73
    13
 74
     0
 42
0.0000000001
 43
0.0000000001
 12
1.0
 22
0.0
 32
0.0
 13
1.0
 23
0.0
 33
0.0
 40
0.0
 40
0.0
 40
0.0
 40
0.0
 40
1.0
 40
1.0
 40
1.0
 40
2.0
 40
2.0
 40
2.0
 40
3.0
 40
3.0
 40
3.0
 40
4.0
 40
4.0
 40
4.0
 40
4.0
 10
87.76553003448224
 20
-140.7214707764516
 30
0.0
 10
87.62169729797306
 20
-140.7214707764516
 30
0.0
 10
87.469424077525
 20
-140.8082871826799
 30
0.0
 10
87.469424077525
 20
-141.0112033067611
 30
0.0
 10
87.469424077525
 20
-141.216530997682
 30
0.0
 10
87.59637584615646
 20
-141.3178168049483
 30
0.0
 10
87.76553003448224
 20
-141.3178168049483
 30
0.0
 10
87.95173744545998
 20
-141.3178168049483
 30
0.0
 10
88.06180824621372
 20
-141.1951714056734
 30
0.0
 10
88.06180824621372
 20
-141.0174044786345
 30
0.0
 10
88.06180824621372
 20
-140.7955403293845
 30
0.0
 10
87.8988552297614
 20
-140.7214707764516
 30
0.0
 10
87.76553003448224
 20
-140.7214707764516
 30
0.0
  0
SPLINE
  5
9B
330
93
100
AcDbEntity
  8
_U+30EC_U+30A4_U+30E4_U+30FC 1
370
     0
100
AcDbSpline
210
0.0
220
0.0
230
1.0
 70
    11
 71
     3
 72
    17
 73
    13
 74
     0
 42
0.0000000001
 43
0.0000000001
 12
1.0
 22
0.0
 32
0.0
 13
1.0
 23
0.0
 33
0.0
 40
0.0
 40
0.0
 40
0.0
 40
0.0
 40
1.0
 40
1.0
 40
1.0
 40
2.0
 40
2.0
 40
2.0
 40
3.0
 40
3.0
 40
3.0
 40
4.0
 40
4.0
 40
4.0
 40
4.0
 10
87.76553003448224
 20
-140.0613904814777
 30
0.0
 10
87.60050996073876
 20
-140.0613904814777
 30
0.0
 10
87.51593286657588
 20
-140.1564751168706
 30
0.0
 10
87.51593286657588
 20
-140.2918673694409
 30
0.0
 10
87.51593286657588
 20
-140.4145127687158
 30
0.0
 10
87.5879353622176
 20
-140.5330240534084
 30
0.0
 10
87.76553003448224
 20
-140.5330240534084
 30
0.0
 10
87.94329696152113
 20
-140.5330240534084
 30
0.0
 10
88.01512720238858
 20
-140.4145127687158
 30
0.0
 10
88.01512720238858
 20
-140.2918673694409
 30
0.0
 10
88.01512720238858
 20
-140.1564751168706
 30
0.0
 10
87.92848305093455
 20
-140.0613904814777
 30
0.0
 10
87.76553003448224
 20
-140.0613904814777
 30
0.0
  0
HATCH
  5
9C
330
93
100
AcDbEntity
  8
_U+30EC_U+30A4_U+30E4_U+30FC 1
 62
   179
420
  2234388
100
AcDbHatch
 10
0.0
 20
0.0
 30
0.0
210
0.0
220
0.0
230
1.0
  2
SOLID
 70
     1
 71
     0
 91
        3
 92
        1
 93
        1
 72
     4
 94
        3
 73
     0
 74
     1
 95
       29
 96
       25
 40
0.0
 40
0.0
 40
0.0
 40
0.0
 40
1.0
 40
1.0
 40
1.0
 40
2.0
 40
2.0
 40
2.0
 40
3.0
 40
3.0
 40
3.0
 40
4.0
 40
4.0
 40
4.0
 40
5.0
 40
5.0
 40
5.0
 40
6.0
 40
6.0
 40
6.0
 40
7.0
 40
7.0
 40
7.0
 40
8.0
 40
8.0
 40
8.0
 40
8.0
 10
87.76553003448224
 20
-141.5124646998649
 10
87.49905189869816
 20
-141.5124646998649
 10
87.24514836143524
 20
-141.3750053900035
 10
87.24514836143524
 20
-141.0260172173477
 10
87.24514836143524
 20
-140.7700466227936
 10
87.38691404065328
 20
-140.6749619874007
 10
87.49267847205044
 20
-140.6136392877633
 10
87.36779376071014
 20
-140.554383645417
 10
87.29165715048612
 20
-140.4400064753067
 10
87.29165715048612
 20
-140.2791205161455
 10
87.29165715048612
 20
-140.0042018964226
 10
87.4906114147593
 20
-139.8688096438522
 10
87.76553003448224
 20
-139.8688096438522
 10
88.04906139291829
 20
-139.8688096438522
 10
88.23940291847835
 20
-140.0128146351357
 10
88.23940291847835
 20
-140.2791205161455
 10
88.23940291847835
 20
-140.4400064753067
 10
88.16119925096318
 20
-140.554383645417
 10
88.03631453962286
 20
-140.6136392877633
 10
88.12519800314232
 20
-140.6642821913964
 10
88.28384465023807
 20
-140.7593668267893
 10
88.28384465023807
 20
-141.0218831027654
 10
88.28384465023807
 20
-141.396364982012
 10
88.00461966115857
 20
-141.5124646998649
 10
87.76553003448224
 20
-141.5124646998649
 97
        0
 97
        0
 92
        1
 93
        1
 72
     4
 94
        3
 73
     0
 74
     1
 95
       17
 96
       13
 40
0.0
 40
0.0
 40
0.0
 40
0.0
 40
1.0
 40
1.0
 40
1.0
 40
2.0
 40
2.0
 40
2.0
 40
3.0
 40
3.0
 40
3.0
 40
4.0
 40
4.0
 40
4.0
 40
4.0
 10
87.76553003448224
 20
-140.7214707764516
 10
87.62169729797306
 20
-140.7214707764516
 10
87.469424077525
 20
-140.8082871826799
 10
87.469424077525
 20
-141.0112033067611
 10
87.469424077525
 20
-141.216530997682
 10
87.59637584615646
 20
-141.3178168049483
 10
87.76553003448224
 20
-141.3178168049483
 10
87.95173744545998
 20
-141.3178168049483
 10
88.06180824621372
 20
-141.1951714056734
 10
88.06180824621372
 20
-141.0174044786345
 10
88.06180824621372
 20
-140.7955403293845
 10
87.8988552297614
 20
-140.7214707764516
 10
87.76553003448224
 20
-140.7214707764516
 97
        0
 97
        0
 92
        1
 93
        1
 72
     4
 94
        3
 73
     0
 74
     1
 95
       17
 96
       13
 40
0.0
 40
0.0
 40
0.0
 40
0.0
 40
1.0
 40
1.0
 40
1.0
 40
2.0
 40
2.0
 40
2.0
 40
3.0
 40
3.0
 40
3.0
 40
4.0
 40
4.0
 40
4.0
 40
4.0
 10
87.76553003448224
 20
-140.0613904814777
 10
87.60050996073876
 20
-140.0613904814777
 10
87.51593286657588
 20
-140.1564751168706
 10
87.51593286657588
 20
-140.2918673694409
 10
87.51593286657588
 20
-140.4145127687158
 10
87.5879353622176
 20
-140.5330240534084
 10
87.76553003448224
 20
-140.5330240534084
 10
87.94329696152113
 20
-140.5330240534084
 10
88.01512720238858
 20
-140.4145127687158
 10
88.01512720238858
 20
-140.2918673694409
 10
88.01512720238858
 20
-140.1564751168706
 10
87.92848305093455
 20
-140.0613904814777
 10
87.76553003448224
 20
-140.0613904814777
 97
        0
 97
        0
 75
     2
 76
     1
 98
        0
  0
ENDBLK
  5
96
330
93
100
AcDbEntity
  8
0
100
AcDbBlockEnd
  0
ENDSEC
  0
SECTION
  2
ENTITIES
  0
SPLINE
  5
41
330
1F
100
AcDbEntity
  8
_U+30EC_U+30A4_U+30E4_U+30FC 1
370
     0
100
AcDbSpline
210
0.0
220
0.0
230
1.0
 70
    11
 71
     3
 72
    17
 73
    13
 74
     0
 42
0.0000000001
 43
0.0000000001
 12
1.0
 22
0.0
 32
0.0
 13
1.0
 23
0.0
 33
0.0
 40
0.0
 40
0.0
 40
0.0
 40
0.0
 40
1.0
 40
1.0
 40
1.0
 40
2.0
 40
2.0
 40
2.0
 40
3.0
 40
3.0
 40
3.0
 40
4.0
 40
4.0
 40
4.0
 40
4.0
 10
78.1774938388593
 20
-137.7548891322281
 30
0.0
 10
78.1774938388593
 20
-137.7548891322281
 30
0.0
 10
96.17741504630972
 20
-137.7548891322281
 30
0.0
 10
96.17741504630972
 20
-137.7548891322281
 30
0.0
 10
96.17741504630972
 20
-137.7548891322281
 30
0.0
 10
103.1775137566112
 20
-130.7551430228669
 30
0.0
 10
103.1775137566112
 20
-130.7551430228669
 30
0.0
 10
103.1775137566112
 20
-130.7551430228669
 30
0.0
 10
103.1775137566112
 20
-112.7548685829224
 30
0.0
 10
103.1775137566112
 20
-112.7548685829224
 30
0.0
 10
101.1614240858237
 20
-125.6350674685913
 30
0.0
 10
91.05765712137007
 20
-135.7388346882878
 30
0.0
 10
78.1774938388593
 20
-137.7548891322281
 30
0.0
  0
SPLINE
  5
42
330
1F
100
AcDbEntity
  8
_U+30EC_U+30A4_U+30E4_U+30FC 1
370
     0
100
AcDbSpline
210
0.0
220
0.0
230
1.0
 70
    11
 71
     3
 72
    17
 73
    13
 74
     0
 42
0.0000000001
 43
0.0000000001
 12
1.0
 22
0.0
 32
0.0
 13
1.0
 23
0.0
 33
0.0
 40
0.0
 40
0.0
 40
0.0
 40
0.0
 40
1.0
 40
1.0
 40
1.0
 40
2.0
 40
2.0
 40
2.0
 40
3.0
 40
3.0
 40
3.0
 40
4.0
 40
4.0
 40
4.0
 40
4.0
 10
101.6775026837686
 20
-122.2733421916539
 30
0.0
 10
101.6775026837686
 20
-122.2733421916539
 30
0.0
 10
101.6775026837686
 20
-130.1336544119108
 30
0.0
 10
101.6775026837686
 20
-130.1336544119108
 30
0.0
 10
101.6775026837686
 20
-130.1336544119108
 30
0.0
 10
95.55627922882289
 20
-136.2549132992694
 30
0.0
 10
95.55627922882289
 20
-136.2549132992694
 30
0.0
 10
95.55627922882289
 20
-136.2549132992694
 30
0.0
 10
87.69628470712583
 20
-136.2549132992694
 30
0.0
 10
87.69628470712583
 20
-136.2549132992694
 30
0.0
 10
93.73623053212177
 20
-133.2159796889183
 30
0.0
 10
98.638604427964
 20
-128.3139560790325
 30
0.0
 10
101.6775026837686
 20
-122.2733421916539
 30
0.0
  0
HATCH
  5
43
330
1F
100
AcDbEntity
  8
_U+30EC_U+30A4_U+30E4_U+30FC 1
 62
   251
420
  6710886
100
AcDbHatch
 10
0.0
 20
0.0
 30
0.0
210
0.0
220
0.0
230
1.0
  2
SOLID
 70
     1
 71
     0
 91
        2
 92
        1
 93
        1
 72
     4
 94
        3
 73
     0
 74
     1
 95
       17
 96
       13
 40
0.0
 40
0.0
 40
0.0
 40
0.0
 40
1.0
 40
1.0
 40
1.0
 40
2.0
 40
2.0
 40
2.0
 40
3.0
 40
3.0
 40
3.0
 40
4.0
 40
4.0
 40
4.0
 40
4.0
 10
78.1774938388593
 20
-137.7548891322281
 10
78.1774938388593
 20
-137.7548891322281
 10
96.17741504630972
 20
-137.7548891322281
 10
96.17741504630972
 20
-137.7548891322281
 10
96.17741504630972
 20
-137.7548891322281
 10
103.1775137566112
 20
-130.7551430228669
 10
103.1775137566112
 20
-130.7551430228669
 10
103.1775137566112
 20
-130.7551430228669
 10
103.1775137566112
 20
-112.7548685829224
 10
103.1775137566112
 20
-112.7548685829224
 10
101.1614240858237
 20
-125.6350674685913
 10
91.05765712137007
 20
-135.7388346882878
 10
78.1774938388593
 20
-137.7548891322281
 97
        0
 97
        0
 92
        1
 93
        1
 72
     4
 94
        3
 73
     0
 74
     1
 95
       17
 96
       13
 40
0.0
 40
0.0
 40
0.0
 40
0.0
 40
1.0
 40
1.0
 40
1.0
 40
2.0
 40
2.0
 40
2.0
 40
3.0
 40
3.0
 40
3.0
 40
4.0
 40
4.0
 40
4.0
 40
4.0
 10
101.6775026837686
 20
-122.2733421916539
 10
101.6775026837686
 20
-122.2733421916539
 10
101.6775026837686
 20
-130.1336544119108
 10
101.6775026837686
 20
-130.1336544119108
 10
101.6775026837686
 20
-130.1336544119108
 10
95.55627922882289
 20
-136.2549132992694
 10
95.55627922882289
 20
-136.2549132992694
 10
95.55627922882289
 20
-136.2549132992694
 10
87.69628470712583
 20
-136.2549132992694
 10
87.69628470712583
 20
-136.2549132992694
 10
93.73623053212177
 20
-133.2159796889183
 10
98.638604427964
 20
-128.3139560790325
 10
101.6775026837686
 20
-122.2733421916539
 97
        0
 97
        0
 75
     2
 76
     1
 98
        0
  0
POLYLINE
  5
44
330
1F
100
AcDbEntity
  8
_U+30EC_U+30A4_U+30E4_U+30FC 1
 62
   179
420
  2234388
370
    25
100
AcDb2dPolyline
 66
     1
 10
0.0
 20
0.0
 30
0.0
  0
VERTEX
  5
45
330
44
100
AcDbEntity
  8
_U+30EC_U+30A4_U+30E4_U+30FC 1
 62
   179
420
  2234388
370
    25
100
AcDbVertex
100
AcDb2dVertex
 10
103.1775137566112
 20
-112.7548685829224
 30
0.0
  0
VERTEX
  5
46
330
44
100
AcDbEntity
  8
_U+30EC_U+30A4_U+30E4_U+30FC 1
 62
   179
420
  2234388
370
    25
100
AcDbVertex
100
AcDb2dVertex
 10
103.1775137566112
 20
-130.7551430228669
 30
0.0
  0
SEQEND
  5
47
330
44
100
AcDbEntity
  8
_U+30EC_U+30A4_U+30E4_U+30FC 1
 62
   179
420
  2234388
370
    25
  0
POLYLINE
  5
48
330
1F
100
AcDbEntity
  8
_U+30EC_U+30A4_U+30E4_U+30FC 1
 62
   179
420
  2234388
370
    25
100
AcDb2dPolyline
 66
     1
 10
0.0
 20
0.0
 30
0.0
  0
VERTEX
  5
49
330
48
100
AcDbEntity
  8
_U+30EC_U+30A4_U+30E4_U+30FC 1
 62
   179
420
  2234388
370
    25
100
AcDbVertex
100
AcDb2dVertex
 10
78.1774938388593
 20
-137.7548891322281
 30
0.0
  0
VERTEX
  5
4A
330
48
100
AcDbEntity
  8
_U+30EC_U+30A4_U+30E4_U+30FC 1
 62
   179
420
  2234388
370
    25
100
AcDbVertex
100
AcDb2dVertex
 10
96.17741504630972
 20
-137.7548891322281
 30
0.0
  0
SEQEND
  5
4B
330
48
100
AcDbEntity
  8
_U+30EC_U+30A4_U+30E4_U+30FC 1
 62
   179
420
  2234388
370
    25
  0
POLYLINE
  5
4C
330
1F
100
AcDbEntity
  8
_U+30EC_U+30A4_U+30E4_U+30FC 1
 62
   179
420
  2234388
370
     9
100
AcDb2dPolyline
 66
     1
 10
0.0
 20
0.0
 30
0.0
  0
VERTEX
  5
4D
330
4C
100
AcDbEntity
  8
_U+30EC_U+30A4_U+30E4_U+30FC 1
 62
   179
420
  2234388
370
     9
100
AcDbVertex
100
AcDb2dVertex
 10
91.216124895105
 20
-125.7935352463294
 30
0.0
  0
VERTEX
  5
4E
330
4C
100
AcDbEntity
  8
_U+30EC_U+30A4_U+30E4_U+30FC 1
 62
   179
420
  2234388
370
     9
100
AcDbVertex
100
AcDb2dVertex
 10
94.75184008267917
 20
-129.3288977454455
 30
0.0
  0
SEQEND
  5
4F
330
4C
100
AcDbEntity
  8
_U+30EC_U+30A4_U+30E4_U+30FC 1
 62
   179
420
  2234388
370
     9
  0
POLYLINE
  5
50
330
1F
100
AcDbEntity
  8
_U+30EC_U+30A4_U+30E4_U+30FC 1
 62
   179
420
  2234388
370
     9
100
AcDb2dPolyline
 66
     1
 10
0.0
 20
0.0
 30
0.0
  0
VERTEX
  5
51
330
50
100
AcDbEntity
  8
_U+30EC_U+30A4_U+30E4_U+30FC 1
 62
   179
420
  2234388
370
     9
100
AcDbVertex
100
AcDb2dVertex
 10
93.88573538255312
 20
-128.8293291344592
 30
0.0
  0
VERTEX
  5
52
330
50
100
AcDbEntity
  8
_U+30EC_U+30A4_U+30E4_U+30FC 1
 62
   179
420
  2234388
370
     9
100
AcDbVertex
100
AcDb2dVertex
 10
94.75184008267917
 20
-129.3288977454455
 30
0.0
  0
SEQEND
  5
53
330
50
100
AcDbEntity
  8
_U+30EC_U+30A4_U+30E4_U+30FC 1
 62
   179
420
  2234388
370
     9
  0
POLYLINE
  5
54
330
1F
100
AcDbEntity
  8
_U+30EC_U+30A4_U+30E4_U+30FC 1
 62
   179
420
  2234388
370
     9
100
AcDb2dPolyline
 66
     1
 10
0.0
 20
0.0
 30
0.0
  0
VERTEX
  5
55
330
54
100
AcDbEntity
  8
_U+30EC_U+30A4_U+30E4_U+30FC 1
 62
   179
420
  2234388
370
     9
100
AcDbVertex
100
AcDb2dVertex
 10
94.25160120655244
 20
-128.4631458012176
 30
0.0
  0
VERTEX
  5
56
330
54
100
AcDbEntity
  8
_U+30EC_U+30A4_U+30E4_U+30FC 1
 62
   179
420
  2234388
370
     9
100
AcDbVertex
100
AcDb2dVertex
 10
94.75184008267917
 20
-129.3288977454455
 30
0.0
  0
SEQEND
  5
57
330
54
100
AcDbEntity
  8
_U+30EC_U+30A4_U+30E4_U+30FC 1
 62
   179
420
  2234388
370
     9
  0
POLYLINE
  5
58
330
1F
100
AcDbEntity
  8
_U+30EC_U+30A4_U+30E4_U+30FC 1
 62
   179
420
  2234388
370
    25
100
AcDb2dPolyline
 66
     1
 10
0.0
 20
0.0
 30
0.0
  0
VERTEX
  5
59
330
58
100
AcDbEntity
  8
_U+30EC_U+30A4_U+30E4_U+30FC 1
 62
   179
420
  2234388
370
    25
100
AcDbVertex
100
AcDb2dVertex
 10
96.17741504630972
 20
-137.7548891322281
 30
0.0
  0
VERTEX
  5
5A
330
58
100
AcDbEntity
  8
_U+30EC_U+30A4_U+30E4_U+30FC 1
 62
   179
420
  2234388
370
    25
100
AcDbVertex
100
AcDb2dVertex
 10
103.1775137566112
 20
-130.7551430228669
 30
0.0
  0
SEQEND
  5
5B
330
58
100
AcDbEntity
  8
_U+30EC_U+30A4_U+30E4_U+30FC 1
 62
   179
420
  2234388
370
    25
  0
POLYLINE
  5
5C
330
1F
100
AcDbEntity
  8
_U+30EC_U+30A4_U+30E4_U+30FC 1
 62
   179
420
  2234388
370
    25
100
AcDb2dPolyline
 66
     1
 10
0.0
 20
0.0
 30
0.0
  0
VERTEX
  5
5D
330
5C
100
AcDbEntity
  8
_U+30EC_U+30A4_U+30E4_U+30FC 1
 62
   179
420
  2234388
370
    25
100
AcDbVertex
100
AcDb2dVertex
 10
95.55627922882289
 20
-136.2549132992694
 30
0.0
  0
VERTEX
  5
5E
330
5C
100
AcDbEntity
  8
_U+30EC_U+30A4_U+30E4_U+30FC 1
 62
   179
420
  2234388
370
    25
100
AcDbVertex
100
AcDb2dVertex
 10
101.6775026837686
 20
-130.1336544119108
 30
0.0
  0
SEQEND
  5
5F
330
5C
100
AcDbEntity
  8
_U+30EC_U+30A4_U+30E4_U+30FC 1
 62
   179
420
  2234388
370
    25
  0
POLYLINE
  5
60
330
1F
100
AcDbEntity
  8
_U+30EC_U+30A4_U+30E4_U+30FC 1
 62
   179
420
  2234388
370
    25
100
AcDb2dPolyline
 66
     1
 10
0.0
 20
0.0
 30
0.0
  0
VERTEX
  5
61
330
60
100
AcDbEntity
  8
_U+30EC_U+30A4_U+30E4_U+30FC 1
 62
   179
420
  2234388
370
    25
100
AcDbVertex
100
AcDb2dVertex
 10
101.6775026837686
 20
-122.2733421916539
 30
0.0
  0
VERTEX
  5
62
330
60
100
AcDbEntity
  8
_U+30EC_U+30A4_U+30E4_U+30FC 1
 62
   179
420
  2234388
370
    25
100
AcDbVertex
100
AcDb2dVertex
 10
101.6775026837686
 20
-130.1336544119108
 30
0.0
  0
SEQEND
  5
63
330
60
100
AcDbEntity
  8
_U+30EC_U+30A4_U+30E4_U+30FC 1
 62
   179
420
  2234388
370
    25
  0
POLYLINE
  5
64
330
1F
100
AcDbEntity
  8
_U+30EC_U+30A4_U+30E4_U+30FC 1
 62
   179
420
  2234388
370
    25
100
AcDb2dPolyline
 66
     1
 10
0.0
 20
0.0
 30
0.0
  0
VERTEX
  5
65
330
64
100
AcDbEntity
  8
_U+30EC_U+30A4_U+30E4_U+30FC 1
 62
   179
420
  2234388
370
    25
100
AcDbVertex
100
AcDb2dVertex
 10
87.69628470712583
 20
-136.2549132992694
 30
0.0
  0
VERTEX
  5
66
330
64
100
AcDbEntity
  8
_U+30EC_U+30A4_U+30E4_U+30FC 1
 62
   179
420
  2234388
370
    25
100
AcDbVertex
100
AcDb2dVertex
 10
95.55627922882289
 20
-136.2549132992694
 30
0.0
  0
SEQEND
  5
67
330
64
100
AcDbEntity
  8
_U+30EC_U+30A4_U+30E4_U+30FC 1
 62
   179
420
  2234388
370
    25
  0
SPLINE
  5
68
330
1F
100
AcDbEntity
  8
_U+30EC_U+30A4_U+30E4_U+30FC 1
 62
   179
420
  2234388
370
     9
100
AcDbSpline
210
0.0
220
0.0
230
1.0
 70
    11
 71
     3
 72
    17
 73
    13
 74
     0
 42
0.0000000001
 43
0.0000000001
 12
1.0
 22
0.0
 32
0.0
 13
1.0
 23
0.0
 33
0.0
 40
0.0
 40
0.0
 40
0.0
 40
0.0
 40
1.0
 40
1.0
 40
1.0
 40
2.0
 40
2.0
 40
2.0
 40
3.0
 40
3.0
 40
3.0
 40
4.0
 40
4.0
 40
4.0
 40
4.0
 10
103.2777731984978
 20
-141.7550010756721
 30
0.0
 10
103.2777731984978
 20
-141.6998619090197
 30
0.0
 10
103.2329704218631
 20
-141.6550944090305
 30
0.0
 10
103.1775137566112
 20
-141.6550944090305
 30
0.0
 10
103.1223745913513
 20
-141.6550944090305
 30
0.0
 10
103.0776070924934
 20
-141.6998619090197
 30
0.0
 10
103.0776070924934
 20
-141.7550010756721
 30
0.0
 10
103.0776070924934
 20
-141.8101049645477
 30
0.0
 10
103.1223745913513
 20
-141.8549077423138
 30
0.0
 10
103.1775137566112
 20
-141.8549077423138
 30
0.0
 10
103.2329704218631
 20
-141.8549077423138
 30
0.0
 10
103.2777731984978
 20
-141.8101049645477
 30
0.0
 10
103.2777731984978
 20
-141.7550010756721
 30
0.0
  0
SPLINE
  5
69
330
1F
100
AcDbEntity
  8
_U+30EC_U+30A4_U+30E4_U+30FC 1
 62
   179
420
  2234388
370
    25
100
AcDbSpline
210
0.0
220
0.0
230
1.0
 70
     8
 71
     3
 72
     8
 73
     4
 74
     0
 42
0.0000000001
 43
0.0000000001
 12
1.0
 22
0.0
 32
0.0
 13
1.0
 23
0.0
 33
0.0
 40
0.0
 40
0.0
 40
0.0
 40
0.0
 40
1.0
 40
1.0
 40
1.0
 40
1.0
 10
78.1774938388593
 20
-137.7548891322281
 30
0.0
 10
91.05765712137007
 20
-135.7388346882878
 30
0.0
 10
101.1614240858237
 20
-125.6350674685913
 30
0.0
 10
103.1775137566112
 20
-112.7548685829224
 30
0.0
  0
SPLINE
  5
6A
330
1F
100
AcDbEntity
  8
_U+30EC_U+30A4_U+30E4_U+30FC 1
 62
   179
420
  2234388
370
    25
100
AcDbSpline
210
0.0
220
0.0
230
1.0
 70
     8
 71
     3
 72
     8
 73
     4
 74
     0
 42
0.0000000001
 43
0.0000000001
 12
1.0
 22
0.0
 32
0.0
 13
1.0
 23
0.0
 33
0.0
 40
0.0
 40
0.0
 40
0.0
 40
0.0
 40
1.0
 40
1.0
 40
1.0
 40
1.0
 10
87.69628470712583
 20
-136.2549132992694
 30
0.0
 10
93.73623053212177
 20
-133.2159796889183
 30
0.0
 10
98.638604427964
 20
-128.3139560790325
 30
0.0
 10
101.6775026837686
 20
-122.2733421916539
 30
0.0
  0
SPLINE
  5
6B
330
1F
100
AcDbEntity
  8
_U+30EC_U+30A4_U+30E4_U+30FC 1
 62
   179
420
  2234388
370
     9
100
AcDbSpline
210
0.0
220
0.0
230
1.0
 70
    11
 71
     3
 72
    17
 73
    13
 74
     0
 42
0.0000000001
 43
0.0000000001
 12
1.0
 22
0.0
 32
0.0
 13
1.0
 23
0.0
 33
0.0
 40
0.0
 40
0.0
 40
0.0
 40
0.0
 40
1.0
 40
1.0
 40
1.0
 40
2.0
 40
2.0
 40
2.0
 40
3.0
 40
3.0
 40
3.0
 40
4.0
 40
4.0
 40
4.0
 40
4.0
 10
96.27732171042756
 20
-141.7550010756721
 30
0.0
 10
96.27732171042756
 20
-141.6998619090197
 30
0.0
 10
96.23255421156968
 20
-141.6550944090305
 30
0.0
 10
96.17741504630972
 20
-141.6550944090305
 30
0.0
 10
96.12231115882665
 20
-141.6550944090305
 30
0.0
 10
96.0775083821919
 20
-141.6998619090197
 30
0.0
 10
96.0775083821919
 20
-141.7550010756721
 30
0.0
 10
96.0775083821919
 20
-141.8101049645477
 30
0.0
 10
96.12231115882665
 20
-141.8549077423138
 30
0.0
 10
96.17741504630972
 20
-141.8549077423138
 30
0.0
 10
96.23255421156968
 20
-141.8549077423138
 30
0.0
 10
96.27732171042756
 20
-141.8101049645477
 30
0.0
 10
96.27732171042756
 20
-141.7550010756721
 30
0.0
  0
SPLINE
  5
6C
330
1F
100
AcDbEntity
  8
_U+30EC_U+30A4_U+30E4_U+30FC 1
 62
   179
420
  2234388
370
     9
100
AcDbSpline
210
0.0
220
0.0
230
1.0
 70
    11
 71
     3
 72
    17
 73
    13
 74
     0
 42
0.0000000001
 43
0.0000000001
 12
1.0
 22
0.0
 32
0.0
 13
1.0
 23
0.0
 33
0.0
 40
0.0
 40
0.0
 40
0.0
 40
0.0
 40
1.0
 40
1.0
 40
1.0
 40
2.0
 40
2.0
 40
2.0
 40
3.0
 40
3.0
 40
3.0
 40
4.0
 40
4.0
 40
4.0
 40
4.0
 10
78.27757689186153
 20
-141.7550010756721
 30
0.0
 10
78.27757689186153
 20
-141.6998619090197
 30
0.0
 10
78.23277411522676
 20
-141.6550944090305
 30
0.0
 10
78.1774938388593
 20
-141.6550944090305
 30
0.0
 10
78.12235467359936
 20
-141.6550944090305
 30
0.0
 10
78.07758717474147
 20
-141.6998619090197
 30
0.0
 10
78.07758717474147
 20
-141.7550010756721
 30
0.0
 10
78.07758717474147
 20
-141.8101049645477
 30
0.0
 10
78.12235467359936
 20
-141.8549077423138
 30
0.0
 10
78.1774938388593
 20
-141.8549077423138
 30
0.0
 10
78.23277411522676
 20
-141.8549077423138
 30
0.0
 10
78.27757689186153
 20
-141.8101049645477
 30
0.0
 10
78.27757689186153
 20
-141.7550010756721
 30
0.0
  0
INSERT
  5
6E
330
1F
100
AcDbEntity
  8
_U+30EC_U+30A4_U+30E4_U+30FC 1
100
AcDbBlockReference
  2
block 2
 10
0.0
 20
0.0
 30
0.0
  0
POLYLINE
  5
79
330
1F
100
AcDbEntity
  8
_U+30EC_U+30A4_U+30E4_U+30FC 1
 62
   179
420
  2234388
370
     9
100
AcDb2dPolyline
 66
     1
 10
0.0
 20
0.0
 30
0.0
  0
VERTEX
  5
7A
330
79
100
AcDbEntity
  8
_U+30EC_U+30A4_U+30E4_U+30FC 1
 62
   179
420
  2234388
370
     9
100
AcDbVertex
100
AcDb2dVertex
 10
103.1775137566112
 20
-141.7550010756721
 30
0.0
  0
VERTEX
  5
7B
330
79
100
AcDbEntity
  8
_U+30EC_U+30A4_U+30E4_U+30FC 1
 62
   179
420
  2234388
370
     9
100
AcDbVertex
100
AcDb2dVertex
 10
96.17741504630972
 20
-141.7550010756721
 30
0.0
  0
SEQEND
  5
7C
330
79
100
AcDbEntity
  8
_U+30EC_U+30A4_U+30E4_U+30FC 1
 62
   179
420
  2234388
370
     9
  0
POLYLINE
  5
7D
330
1F
100
AcDbEntity
  8
_U+30EC_U+30A4_U+30E4_U+30FC 1
 62
   179
420
  2234388
370
     9
100
AcDb2dPolyline
 66
     1
 10
0.0
 20
0.0
 30
0.0
  0
VERTEX
  5
7E
330
7D
100
AcDbEntity
  8
_U+30EC_U+30A4_U+30E4_U+30FC 1
 62
   179
420
  2234388
370
     9
100
AcDbVertex
100
AcDb2dVertex
 10
103.1775137566112
 20
-133.2948960777876
 30
0.0
  0
VERTEX
  5
7F
330
7D
100
AcDbEntity
  8
_U+30EC_U+30A4_U+30E4_U+30FC 1
 62
   179
420
  2234388
370
     9
100
AcDbVertex
100
AcDb2dVertex
 10
103.1775137566112
 20
-142.755443575422
 30
0.0
  0
SEQEND
  5
80
330
7D
100
AcDbEntity
  8
_U+30EC_U+30A4_U+30E4_U+30FC 1
 62
   179
420
  2234388
370
     9
  0
POLYLINE
  5
81
330
1F
100
AcDbEntity
  8
_U+30EC_U+30A4_U+30E4_U+30FC 1
 62
   179
420
  2234388
370
     9
100
AcDb2dPolyline
 66
     1
 10
0.0
 20
0.0
 30
0.0
  0
VERTEX
  5
82
330
81
100
AcDbEntity
  8
_U+30EC_U+30A4_U+30E4_U+30FC 1
 62
   179
420
  2234388
370
     9
100
AcDbVertex
100
AcDb2dVertex
 10
96.17741504630972
 20
-140.2949596871484
 30
0.0
  0
VERTEX
  5
83
330
81
100
AcDbEntity
  8
_U+30EC_U+30A4_U+30E4_U+30FC 1
 62
   179
420
  2234388
370
     9
100
AcDbVertex
100
AcDb2dVertex
 10
96.17741504630972
 20
-142.755443575422
 30
0.0
  0
SEQEND
  5
84
330
81
100
AcDbEntity
  8
_U+30EC_U+30A4_U+30E4_U+30FC 1
 62
   179
420
  2234388
370
     9
  0
INSERT
  5
86
330
1F
100
AcDbEntity
  8
_U+30EC_U+30A4_U+30E4_U+30FC 1
100
AcDbBlockReference
  2
block 3
 10
0.0
 20
0.0
 30
0.0
  0
POLYLINE
  5
8B
330
1F
100
AcDbEntity
  8
_U+30EC_U+30A4_U+30E4_U+30FC 1
 62
   179
420
  2234388
370
     9
100
AcDb2dPolyline
 66
     1
 10
0.0
 20
0.0
 30
0.0
  0
VERTEX
  5
8C
330
8B
100
AcDbEntity
  8
_U+30EC_U+30A4_U+30E4_U+30FC 1
 62
   179
420
  2234388
370
     9
100
AcDbVertex
100
AcDb2dVertex
 10
78.1774938388593
 20
-141.7550010756721
 30
0.0
  0
VERTEX
  5
8D
330
8B
100
AcDbEntity
  8
_U+30EC_U+30A4_U+30E4_U+30FC 1
 62
   179
420
  2234388
370
     9
100
AcDbVertex
100
AcDb2dVertex
 10
96.17741504630972
 20
-141.7550010756721
 30
0.0
  0
SEQEND
  5
8E
330
8B
100
AcDbEntity
  8
_U+30EC_U+30A4_U+30E4_U+30FC 1
 62
   179
420
  2234388
370
     9
  0
POLYLINE
  5
8F
330
1F
100
AcDbEntity
  8
_U+30EC_U+30A4_U+30E4_U+30FC 1
 62
   179
420
  2234388
370
     9
100
AcDb2dPolyline
 66
     1
 10
0.0
 20
0.0
 30
0.0
  0
VERTEX
  5
90
330
8F
100
AcDbEntity
  8
_U+30EC_U+30A4_U+30E4_U+30FC 1
 62
   179
420
  2234388
370
     9
100
AcDbVertex
100
AcDb2dVertex
 10
78.1774938388593
 20
-140.2949596871484
 30
0.0
  0
VERTEX
  5
91
330
8F
100
AcDbEntity
  8
_U+30EC_U+30A4_U+30E4_U+30FC 1
 62
   179
420
  2234388
370
     9
100
AcDbVertex
100
AcDb2dVertex
 10
78.1774938388593
 20
-142.755443575422
 30
0.0
  0
SEQEND
  5
92
330
8F
100
AcDbEntity
  8
_U+30EC_U+30A4_U+30E4_U+30FC 1
 62
   179
420
  2234388
370
     9
  0
INSERT
  5
94
330
1F
100
AcDbEntity
  8
_U+30EC_U+30A4_U+30E4_U+30FC 1
100
AcDbBlockReference
  2
block 4
 10
0.0
 20
0.0
 30
0.0
  0
ENDSEC
  0
SECTION
  2
OBJECTS
  0
DICTIONARY
  5
C
330
0
100
AcDbDictionary
281
     1
  3
ACAD_GROUP
350
D
  3
ACAD_LAYOUT
350
1A
  3
ACAD_MATERIAL
350
3B
  3
ACAD_MLEADERSTYLE
350
9E
  3
ACAD_MLINESTYLE
350
17
  3
ACAD_PLOTSETTINGS
350
19
  3
ACAD_PLOTSTYLENAME
350
E
  3
ACAD_TABLESTYLE
350
9D
  3
ACAD_VISUALSTYLE
350
2A
  0
SUN
  5
3F
330
29
100
AcDbSun
 90
        1
290
     0
 63
     7
421
 16777215
 40
1.0
291
     1
 91
  2455826
 92
 54000000
292
     0
 70
     2
 71
   256
280
     1
  0
DICTIONARY
  5
D
102
{ACAD_REACTORS
330
C
102
}
330
C
100
AcDbDictionary
281
     1
  0
DICTIONARY
  5
1A
102
{ACAD_REACTORS
330
C
102
}
330
C
100
AcDbDictionary
281
     1
  3
Layout1
350
1E
  3
Layout2
350
26
  3
Model
350
22
  0
DICTIONARY
  5
3B
102
{ACAD_REACTORS
330
C
102
}
330
C
100
AcDbDictionary
281
     1
  3
ByBlock
350
3D
  3
ByLayer
350
3C
  3
Global
350
3E
  0
DICTIONARY
  5
9E
102
{ACAD_REACTORS
330
C
102
}
330
C
100
AcDbDictionary
281
     1
  0
DICTIONARY
  5
17
102
{ACAD_REACTORS
330
C
102
}
330
C
100
AcDbDictionary
281
     1
  3
Standard
350
18
  0
DICTIONARY
  5
19
102
{ACAD_REACTORS
330
C
102
}
330
C
100
AcDbDictionary
281
     1
  0
ACDBDICTIONARYWDFLT
  5
E
102
{ACAD_REACTORS
330
C
102
}
330
C
100
AcDbDictionary
281
     1
  3
Normal
350
F
100
AcDbDictionaryWithDefault
340
F
  0
DICTIONARY
  5
9D
102
{ACAD_REACTORS
330
C
102
}
330
C
100
AcDbDictionary
281
     1
  0
DICTIONARY
  5
2A
102
{ACAD_REACTORS
330
C
102
}
330
C
100
AcDbDictionary
281
     1
  3
2dWireframe
350
2F
  3
3D Hidden
350
31
  3
3dWireframe
350
30
  3
Basic
350
32
  3
Brighten
350
36
  3
ColorChange
350
3A
  3
Conceptual
350
34
  3
Dim
350
35
  3
Facepattern
350
39
  3
Flat
350
2B
  3
FlatWithEdges
350
2C
  3
Gouraud
350
2D
  3
GouraudWithEdges
350
2E
  3
Linepattern
350
38
  3
Realistic
350
33
  3
Thicken
350
37
  0
LAYOUT
  5
1E
102
{ACAD_REACTORS
330
1A
102
}
330
1A
100
AcDbPlotSettings
  1

  2
none_device
  4

  6

 40
0.0
 41
0.0
 42
0.0
 43
0.0
 44
0.0
 45
0.0
 46
0.0
 47
0.0
 48
0.0
 49
0.0
140
0.0
141
0.0
142
1.0
143
1.0
 70
   688
 72
     0
 73
     0
 74
     5
  7

 75
    16
 76
     0
 77
     2
 78
   300
147
1.0
148
0.0
149
0.0
100
AcDbLayout
  1
Layout1
 70
     1
 71
     1
 10
0.0
 20
0.0
 11
12.0
 21
9.0
 12
0.0
 22
0.0
 32
0.0
 14
1.000000000000000E+20
 24
1.000000000000000E+20
 34
1.000000000000000E+20
 15
-1.000000000000000E+20
 25
-1.000000000000000E+20
 35
-1.000000000000000E+20
146
0.0
 13
0.0
 23
0.0
 33
0.0
 16
1.0
 26
0.0
 36
0.0
 17
0.0
 27
1.0
 37
0.0
 76
     0
330
1B
  0
LAYOUT
  5
26
102
{ACAD_REACTORS
330
1A
102
}
330
1A
100
AcDbPlotSettings
  1

  2
none_device
  4

  6

 40
0.0
 41
0.0
 42
0.0
 43
0.0
 44
0.0
 45
0.0
 46
0.0
 47
0.0
 48
0.0
 49
0.0
140
0.0
141
0.0
142
1.0
143
1.0
 70
   688
 72
     0
 73
     0
 74
     5
  7

 75
    16
 76
     0
 77
     2
 78
   300
147
1.0
148
0.0
149
0.0
100
AcDbLayout
  1
Layout2
 70
     1
 71
     2
 10
0.0
 20
0.0
 11
0.0
 21
0.0
 12
0.0
 22
0.0
 32
0.0
 14
0.0
 24
0.0
 34
0.0
 15
0.0
 25
0.0
 35
0.0
146
0.0
 13
0.0
 23
0.0
 33
0.0
 16
1.0
 26
0.0
 36
0.0
 17
0.0
 27
1.0
 37
0.0
 76
     0
330
23
  0
LAYOUT
  5
22
102
{ACAD_REACTORS
330
1A
102
}
330
1A
100
AcDbPlotSettings
  1

  2
none_device
  4

  6

 40
0.0
 41
0.0
 42
0.0
 43
0.0
 44
0.0
 45
0.0
 46
0.0
 47
0.0
 48
0.0
 49
0.0
140
0.0
141
0.0
142
1.0
143
1.0
 70
  1712
 72
     0
 73
     0
 74
     0
  7

 75
     0
 76
     0
 77
     2
 78
   300
147
1.0
148
0.0
149
0.0
100
AcDbLayout
  1
Model
 70
     1
 71
     0
 10
0.0
 20
0.0
 11
12.0
 21
9.0
 12
0.0
 22
0.0
 32
0.0
 14
1.000000000000000E+20
 24
1.000000000000000E+20
 34
1.000000000000000E+20
 15
-1.000000000000000E+20
 25
-1.000000000000000E+20
 35
-1.000000000000000E+20
146
0.0
 13
0.0
 23
0.0
 33
0.0
 16
1.0
 26
0.0
 36
0.0
 17
0.0
 27
1.0
 37
0.0
 76
     0
330
1F
331
29
  0
MATERIAL
  5
3D
102
{ACAD_REACTORS
330
3B
102
}
330
3B
100
AcDbMaterial
  1
ByBlock
 72
     1
 94
      127
  0
MATERIAL
  5
3C
102
{ACAD_REACTORS
330
3B
102
}
330
3B
100
AcDbMaterial
  1
ByLayer
 72
     1
 94
      127
  0
MATERIAL
  5
3E
102
{ACAD_REACTORS
330
3B
102
}
330
3B
100
AcDbMaterial
  1
Global
 72
     1
 94
      127
  0
MLINESTYLE
  5
18
102
{ACAD_REACTORS
330
17
102
}
330
17
100
AcDbMlineStyle
  2
Standard
 70
     0
  3

 62
   256
 51
90.0
 52
90.0
 71
     2
 49
0.5
 62
   256
  6
BYLAYER
 49
-0.5
 62
   256
  6
BYLAYER
  0
ACDBPLACEHOLDER
  5
F
102
{ACAD_REACTORS
330
E
102
}
330
E
  0
VISUALSTYLE
  5
2F
102
{ACAD_REACTORS
330
2A
102
}
330
2A
100
AcDbVisualStyle
  2
2dWireframe
 70
     4
177
     2
291
     0
 71
     0
176
     1
 72
     2
176
     1
 73
     0
176
     1
 90
        0
176
     1
 40
-0.6
176
     1
 41
-30.0
176
     1
 62
     5
 63
     7
421
 16777215
176
     1
 74
     1
176
     1
 91
        4
176
     1
 64
     7
176
     1
 65
   257
176
     1
 75
     1
176
     1
175
     1
176
     1
 42
1.0
176
     1
 92
        0
176
     1
 66
   257
176
     1
 43
1.0
176
     1
 76
     1
176
     1
 77
     6
176
     1
 78
     2
176
     1
 67
     7
176
     1
 79
     5
176
     1
170
     0
176
     1
171
     0
176
     1
290
     0
176
     1
 93
        1
176
     1
 44
0.0
176
     1
173
     0
176
     1
  0
VISUALSTYLE
  5
31
102
{ACAD_REACTORS
330
2A
102
}
330
2A
100
AcDbVisualStyle
  2
3D Hidden
 70
     6
177
     2
291
     0
 71
     1
176
     1
 72
     2
176
     1
 73
     2
176
     1
 90
        0
176
     1
 40
-0.6
176
     1
 41
-30.0
176
     1
 62
     5
 63
     7
421
 16777215
176
     1
 74
     2
176
     1
 91
        2
176
     1
 64
     7
176
     1
 65
   257
176
     1
 75
     2
176
     1
175
     1
176
     1
 42
40.0
176
     1
 92
        0
176
     1
 66
   257
176
     1
 43
1.0
176
     1
 76
     1
176
     1
 77
     6
176
     1
 78
     2
176
     1
 67
     7
176
     1
 79
     3
176
     1
170
     0
176
     1
171
     0
176
     1
290
     0
176
     1
 93
        1
176
     1
 44
0.0
176
     1
173
     0
176
     1
  0
VISUALSTYLE
  5
30
102
{ACAD_REACTORS
330
2A
102
}
330
2A
100
AcDbVisualStyle
  2
3dWireframe
 70
     5
177
     2
291
     0
 71
     0
176
     1
 72
     2
176
     1
 73
     0
176
     1
 90
        0
176
     1
 40
-0.6
176
     1
 41
-30.0
176
     1
 62
     5
 63
     7
421
 16777215
176
     1
 74
     1
176
     1
 91
        4
176
     1
 64
     7
176
     1
 65
   257
176
     1
 75
     1
176
     1
175
     1
176
     1
 42
1.0
176
     1
 92
        0
176
     1
 66
   257
176
     1
 43
1.0
176
     1
 76
     1
176
     1
 77
     6
176
     1
 78
     2
176
     1
 67
     7
176
     1
 79
     5
176
     1
170
     0
176
     1
171
     0
176
     1
290
     0
176
     1
 93
        1
176
     1
 44
0.0
176
     1
173
     0
176
     1
  0
VISUALSTYLE
  5
32
102
{ACAD_REACTORS
330
2A
102
}
330
2A
100
AcDbVisualStyle
  2
Basic
 70
     7
177
     2
291
     1
 71
     1
176
     1
 72
     0
176
     1
 73
     1
176
     1
 90
        0
176
     1
 40
-0.6
176
     1
 41
-30.0
176
     1
 62
     5
 63
     7
421
 16777215
176
     1
 74
     0
176
     1
 91
        4
176
     1
 64
     7
176
     1
 65
   257
176
     1
 75
     1
176
     1
175
     1
176
     1
 42
1.0
176
     1
 92
        8
176
     1
 66
     7
176
     1
 43
1.0
176
     1
 76
     1
176
     1
 77
     6
176
     1
 78
     2
176
     1
 67
     7
176
     1
 79
     5
176
     1
170
     0
176
     1
171
     0
176
     1
290
     0
176
     1
 93
        1
176
     1
 44
0.0
176
     1
173
     0
176
     1
  0
VISUALSTYLE
  5
36
102
{ACAD_REACTORS
330
2A
102
}
330
2A
100
AcDbVisualStyle
  2
Brighten
 70
    12
177
     2
291
     1
 71
     2
176
     1
 72
     2
176
     1
 73
     0
176
     1
 90
        0
176
     1
 40
-0.6
176
     1
 41
-30.0
176
     1
 62
     5
 63
     7
421
 16777215
176
     1
 74
     1
176
     1
 91
        4
176
     1
 64
     7
176
     1
 65
   257
176
     1
 75
     1
176
     1
175
     1
176
     1
 42
1.0
176
     1
 92
        8
176
     1
 66
     7
176
     1
 43
1.0
176
     1
 76
     1
176
     1
 77
     6
176
     1
 78
     2
176
     1
 67
     7
176
     1
 79
     5
176
     1
170
     0
176
     1
171
     0
176
     1
290
     0
176
     1
 93
        1
176
     1
 44
50.0
176
     1
173
     0
176
     1
  0
VISUALSTYLE
  5
3A
102
{ACAD_REACTORS
330
2A
102
}
330
2A
100
AcDbVisualStyle
  2
ColorChange
 70
    16
177
     2
291
     1
 71
     2
176
     1
 72
     2
176
     1
 73
     3
176
     1
 90
        0
176
     1
 40
-0.6
176
     1
 41
-30.0
176
     1
 62
     5
 63
     8
421
  8421504
176
     1
 74
     1
176
     1
 91
        4
176
     1
 64
     7
176
     1
 65
   257
176
     1
 75
     1
176
     1
175
     1
176
     1
 42
1.0
176
     1
 92
        8
176
     1
 66
     8
424
  8421504
176
     1
 43
1.0
176
     1
 76
     1
176
     1
 77
     6
176
     1
 78
     2
176
     1
 67
     7
176
     1
 79
     5
176
     1
170
     0
176
     1
171
     0
176
     1
290
     0
176
     1
 93
        1
176
     1
 44
0.0
176
     1
173
     0
176
     1
  0
VISUALSTYLE
  5
34
102
{ACAD_REACTORS
330
2A
102
}
330
2A
100
AcDbVisualStyle
  2
Conceptual
 70
     9
177
     2
291
     0
 71
     3
176
     1
 72
     2
176
     1
 73
     0
176
     1
 90
        0
176
     1
 40
-0.6
176
     1
 41
-30.0
176
     1
 62
     5
 63
     7
421
 16777215
176
     1
 74
     2
176
     1
 91
        2
176
     1
 64
     7
176
     1
 65
   257
176
     1
 75
     1
176
     1
175
     1
176
     1
 42
40.0
176
     1
 92
        8
176
     1
 66
     7
176
     1
 43
1.0
176
     1
 76
     1
176
     1
 77
     6
176
     1
 78
     2
176
     1
 67
     7
176
     1
 79
     3
176
     1
170
     0
176
     1
171
     0
176
     1
290
     0
176
     1
 93
        1
176
     1
 44
0.0
176
     1
173
     0
176
     1
  0
VISUALSTYLE
  5
35
102
{ACAD_REACTORS
330
2A
102
}
330
2A
100
AcDbVisualStyle
  2
Dim
 70
    11
177
     2
291
     1
 71
     2
176
     1
 72
     2
176
     1
 73
     0
176
     1
 90
        0
176
     1
 40
-0.6
176
     1
 41
-30.0
176
     1
 62
     5
 63
     7
421
 16777215
176
     1
 74
     1
176
     1
 91
        4
176
     1
 64
     7
176
     1
 65
   257
176
     1
 75
     1
176
     1
175
     1
176
     1
 42
1.0
176
     1
 92
        8
176
     1
 66
     7
176
     1
 43
1.0
176
     1
 76
     1
176
     1
 77
     6
176
     1
 78
     2
176
     1
 67
     7
176
     1
 79
     5
176
     1
170
     0
176
     1
171
     0
176
     1
290
     0
176
     1
 93
        1
176
     1
 44
-50.0
176
     1
173
     0
176
     1
  0
VISUALSTYLE
  5
39
102
{ACAD_REACTORS
330
2A
102
}
330
2A
100
AcDbVisualStyle
  2
Facepattern
 70
    15
177
     2
291
     1
 71
     2
176
     1
 72
     2
176
     1
 73
     0
176
     1
 90
        0
176
     1
 40
-0.6
176
     1
 41
-30.0
176
     1
 62
     5
 63
     7
421
 16777215
176
     1
 74
     1
176
     1
 91
        4
176
     1
 64
     7
176
     1
 65
   257
176
     1
 75
     1
176
     1
175
     1
176
     1
 42
1.0
176
     1
 92
        8
176
     1
 66
     7
176
     1
 43
1.0
176
     1
 76
     1
176
     1
 77
     6
176
     1
 78
     2
176
     1
 67
     7
176
     1
 79
     5
176
     1
170
     0
176
     1
171
     0
176
     1
290
     0
176
     1
 93
        1
176
     1
 44
0.0
176
     1
173
     0
176
     1
  0
VISUALSTYLE
  5
2B
102
{ACAD_REACTORS
330
2A
102
}
330
2A
100
AcDbVisualStyle
  2
Flat
 70
     0
177
     2
291
     1
 71
     2
176
     1
 72
     1
176
     1
 73
     1
176
     1
 90
        2
176
     1
 40
-0.6
176
     1
 41
30.0
176
     1
 62
     5
 63
     7
421
 16777215
176
     1
 74
     0
176
     1
 91
        4
176
     1
 64
     7
176
     1
 65
   257
176
     1
 75
     1
176
     1
175
     1
176
     1
 42
1.0
176
     1
 92
        8
176
     1
 66
     7
176
     1
 43
1.0
176
     1
 76
     1
176
     1
 77
     6
176
     1
 78
     2
176
     1
 67
     7
176
     1
 79
     5
176
     1
170
     0
176
     1
171
     0
176
     1
290
     0
176
     1
 93
       13
176
     1
 44
0.0
176
     1
173
     0
176
     1
  0
VISUALSTYLE
  5
2C
102
{ACAD_REACTORS
330
2A
102
}
330
2A
100
AcDbVisualStyle
  2
FlatWithEdges
 70
     1
177
     2
291
     1
 71
     2
176
     1
 72
     1
176
     1
 73
     1
176
     1
 90
        2
176
     1
 40
-0.6
176
     1
 41
30.0
176
     1
 62
     5
 63
     7
421
 16777215
176
     1
 74
     1
176
     1
 91
        4
176
     1
 64
     7
176
     1
 65
   257
176
     1
 75
     1
176
     1
175
     1
176
     1
 42
1.0
176
     1
 92
        0
176
     1
 66
   257
176
     1
 43
1.0
176
     1
 76
     1
176
     1
 77
     6
176
     1
 78
     2
176
     1
 67
     7
176
     1
 79
     5
176
     1
170
     0
176
     1
171
     0
176
     1
290
     0
176
     1
 93
       13
176
     1
 44
0.0
176
     1
173
     0
176
     1
  0
VISUALSTYLE
  5
2D
102
{ACAD_REACTORS
330
2A
102
}
330
2A
100
AcDbVisualStyle
  2
Gouraud
 70
     2
177
     2
291
     1
 71
     2
176
     1
 72
     2
176
     1
 73
     1
176
     1
 90
        2
176
     1
 40
-0.6
176
     1
 41
30.0
176
     1
 62
     5
 63
     7
421
 16777215
176
     1
 74
     0
176
     1
 91
        4
176
     1
 64
     7
176
     1
 65
   257
176
     1
 75
     1
176
     1
175
     1
176
     1
 42
1.0
176
     1
 92
        0
176
     1
 66
     7
176
     1
 43
1.0
176
     1
 76
     1
176
     1
 77
     6
176
     1
 78
     2
176
     1
 67
     7
176
     1
 79
     5
176
     1
170
     0
176
     1
171
     0
176
     1
290
     0
176
     1
 93
       13
176
     1
 44
0.0
176
     1
173
     0
176
     1
  0
VISUALSTYLE
  5
2E
102
{ACAD_REACTORS
330
2A
102
}
330
2A
100
AcDbVisualStyle
  2
GouraudWithEdges
 70
     3
177
     2
291
     1
 71
     2
176
     1
 72
     2
176
     1
 73
     1
176
     1
 90
        2
176
     1
 40
-0.6
176
     1
 41
30.0
176
     1
 62
     5
 63
     7
421
 16777215
176
     1
 74
     1
176
     1
 91
        4
176
     1
 64
     7
176
     1
 65
   257
176
     1
 75
     1
176
     1
175
     1
176
     1
 42
1.0
176
     1
 92
        0
176
     1
 66
   257
176
     1
 43
1.0
176
     1
 76
     1
176
     1
 77
     6
176
     1
 78
     2
176
     1
 67
     7
176
     1
 79
     5
176
     1
170
     0
176
     1
171
     0
176
     1
290
     0
176
     1
 93
       13
176
     1
 44
0.0
176
     1
173
     0
176
     1
  0
VISUALSTYLE
  5
38
102
{ACAD_REACTORS
330
2A
102
}
330
2A
100
AcDbVisualStyle
  2
Linepattern
 70
    14
177
     2
291
     1
 71
     2
176
     1
 72
     2
176
     1
 73
     0
176
     1
 90
        0
176
     1
 40
-0.6
176
     1
 41
-30.0
176
     1
 62
     5
 63
     7
421
 16777215
176
     1
 74
     1
176
     1
 91
        4
176
     1
 64
     7
176
     1
 65
   257
176
     1
 75
     7
176
     1
175
     7
176
     1
 42
1.0
176
     1
 92
        8
176
     1
 66
     7
176
     1
 43
1.0
176
     1
 76
     1
176
     1
 77
     6
176
     1
 78
     2
176
     1
 67
     7
176
     1
 79
     5
176
     1
170
     0
176
     1
171
     0
176
     1
290
     0
176
     1
 93
        1
176
     1
 44
0.0
176
     1
173
     0
176
     1
  0
VISUALSTYLE
  5
33
102
{ACAD_REACTORS
330
2A
102
}
330
2A
100
AcDbVisualStyle
  2
Realistic
 70
     8
177
     2
291
     0
 71
     2
176
     1
 72
     2
176
     1
 73
     0
176
     1
 90
        0
176
     1
 40
-0.6
176
     1
 41
-30.0
176
     1
 62
     5
 63
     7
421
 16777215
176
     1
 74
     1
176
     1
 91
        0
176
     1
 64
     7
176
     1
 65
   257
176
     1
 75
     1
176
     1
175
     1
176
     1
 42
1.0
176
     1
 92
        8
176
     1
 66
     8
424
  7895160
176
     1
 43
1.0
176
     1
 76
     1
176
     1
 77
     6
176
     1
 78
     2
176
     1
 67
     7
176
     1
 79
     5
176
     1
170
     0
176
     1
171
     0
176
     1
290
     0
176
     1
 93
       13
176
     1
 44
0.0
176
     1
173
     0
176
     1
  0
VISUALSTYLE
  5
37
102
{ACAD_REACTORS
330
2A
102
}
330
2A
100
AcDbVisualStyle
  2
Thicken
 70
    13
177
     2
291
     1
 71
     2
176
     1
 72
     2
176
     1
 73
     0
176
     1
 90
        0
176
     1
 40
-0.6
176
     1
 41
-30.0
176
     1
 62
     5
 63
     7
421
 16777215
176
     1
 74
     1
176
     1
 91
        4
176
     1
 64
     7
176
     1
 65
   257
176
     1
 75
     1
176
     1
175
     1
176
     1
 42
1.0
176
     1
 92
       12
176
     1
 66
     7
176
     1
 43
1.0
176
     1
 76
     1
176
     1
 77
     6
176
     1
 78
     2
176
     1
 67
     7
176
     1
 79
     5
176
     1
170
     0
176
     1
171
     0
176
     1
290
     0
176
     1
 93
        1
176
     1
 44
0.0
176
     1
173
     0
176
     1
  0
ENDSEC
  0
EOF
