  0
SECTION
  2
HEADER
  9
$ACADVER
  1
AC1024
  9
$ACADMAINTVER
 70
     6
  9
$DWGCODEPAGE
  3
UNDEFINED
  9
$INSBASE
 10
0.0
 20
0.0
 30
0.0
  9
$EXTMIN
 10
1.000000000000000E+20
 20
1.000000000000000E+20
 30
1.000000000000000E+20
  9
$EXTMAX
 10
-1.000000000000000E+20
 20
-1.000000000000000E+20
 30
-1.000000000000000E+20
  9
$LIMMIN
 10
0.0
 20
0.0
  9
$LIMMAX
 10
12.0
 20
9.0
  9
$ORTHOMODE
 70
     0
  9
$REGENMODE
 70
     1
  9
$FILLMODE
 70
     1
  9
$QTEXTMODE
 70
     0
  9
$MIRRTEXT
 70
     1
  9
$LTSCALE
 40
1.0
  9
$ATTMODE
 70
     1
  9
$TEXTSIZE
 40
0.2
  9
$TRACEWID
 40
0.05
  9
$TEXTSTYLE
  7
Standard
  9
$CLAYER
  8
0
  9
$CELTYPE
  6
ByLayer
  9
$CECOLOR
 62
   256
  9
$CELTSCALE
 40
1.0
  9
$DISPSILH
 70
     0
  9
$DIMSCALE
 40
1.0
  9
$DIMASZ
 40
0.18
  9
$DIMEXO
 40
0.0625
  9
$DIMDLI
 40
0.38
  9
$DIMRND
 40
0.0
  9
$DIMDLE
 40
0.0
  9
$DIMEXE
 40
0.18
  9
$DIMTP
 40
0.0
  9
$DIMTM
 40
0.0
  9
$DIMTXT
 40
0.18
  9
$DIMCEN
 40
0.09
  9
$DIMTSZ
 40
0.0
  9
$DIMTOL
 70
     0
  9
$DIMLIM
 70
     0
  9
$DIMTIH
 70
     1
  9
$DIMTOH
 70
     1
  9
$DIMSE1
 70
     0
  9
$DIMSE2
 70
     0
  9
$DIMTAD
 70
     0
  9
$DIMZIN
 70
     0
  9
$DIMBLK
  1

  9
$DIMASO
 70
     1
  9
$DIMSHO
 70
     1
  9
$DIMPOST
  1

  9
$DIMAPOST
  1

  9
$DIMALT
 70
     0
  9
$DIMALTD
 70
     2
  9
$DIMALTF
 40
25.4
  9
$DIMLFAC
 40
1.0
  9
$DIMTOFL
 70
     0
  9
$DIMTVP
 40
0.0
  9
$DIMTIX
 70
     0
  9
$DIMSOXD
 70
     0
  9
$DIMSAH
 70
     0
  9
$DIMBLK1
  1

  9
$DIMBLK2
  1

  9
$DIMSTYLE
  2
Standard
  9
$DIMCLRD
 70
     0
  9
$DIMCLRE
 70
     0
  9
$DIMCLRT
 70
     0
  9
$DIMTFAC
 40
1.0
  9
$DIMGAP
 40
0.09
  9
$DIMJUST
 70
     0
  9
$DIMSD1
 70
     0
  9
$DIMSD2
 70
     0
  9
$DIMTOLJ
 70
     1
  9
$DIMTZIN
 70
     0
  9
$DIMALTZ
 70
     0
  9
$DIMALTTZ
 70
     0
  9
$DIMUPT
 70
     0
  9
$DIMDEC
 70
     4
  9
$DIMTDEC
 70
     4
  9
$DIMALTU
 70
     2
  9
$DIMALTTD
 70
     2
  9
$DIMTXSTY
  7
Standard
  9
$DIMAUNIT
 70
     0
  9
$DIMADEC
 70
     0
  9
$DIMALTRND
 40
0.0
  9
$DIMAZIN
 70
     0
  9
$DIMDSEP
 70
    46
  9
$DIMATFIT
 70
     3
  9
$DIMFRAC
 70
     0
  9
$DIMLDRBLK
  1

  9
$DIMLUNIT
 70
     2
  9
$DIMLWD
 70
    -2
  9
$DIMLWE
 70
    -2
  9
$DIMTMOVE
 70
     0
  9
$DIMFXL
 40
1.0
  9
$DIMFXLON
 70
     0
  9
$DIMJOGANG
 40
0.7853981633974483
  9
$DIMTFILL
 70
     0
  9
$DIMTFILLCLR
 70
     0
  9
$DIMARCSYM
 70
     0
  9
$DIMLTYPE
  6

  9
$DIMLTEX1
  6

  9
$DIMLTEX2
  6

  9
$DIMTXTDIRECTION
 70
     0
  9
$LUNITS
 70
     2
  9
$LUPREC
 70
     4
  9
$SKETCHINC
 40
0.1
  9
$FILLETRAD
 40
0.5
  9
$AUNITS
 70
     0
  9
$AUPREC
 70
     0
  9
$MENU
  1
.
  9
$ELEVATION
 40
0.0
  9
$PELEVATION
 40
0.0
  9
$THICKNESS
 40
0.0
  9
$LIMCHECK
 70
     0
  9
$CHAMFERA
 40
0.5
  9
$CHAMFERB
 40
0.5
  9
$CHAMFERC
 40
1.0
  9
$CHAMFERD
 40
0.0
  9
$SKPOLY
 70
     0
  9
$TDCREATE
 40
2457917.636678229
  9
$TDUCREATE
 40
2457917.261678241
  9
$TDUPDATE
 40
2457917.636678229
  9
$TDUUPDATE
 40
2457917.261678241
  9
$TDINDWG
 40
0.0000000116
  9
$TDUSRTIMER
 40
0.0000000116
  9
$USRTIMER
 70
     1
  9
$ANGBASE
 50
0.0
  9
$ANGDIR
 70
     0
  9
$PDMODE
 70
     0
  9
$PDSIZE
 40
0.0
  9
$PLINEWID
 40
0.0
  9
$SPLFRAME
 70
     0
  9
$SPLINETYPE
 70
     6
  9
$SPLINESEGS
 70
     8
  9
$HANDSEED
  5
9C
  9
$SURFTAB1
 70
     6
  9
$SURFTAB2
 70
     6
  9
$SURFTYPE
 70
     6
  9
$SURFU
 70
     6
  9
$SURFV
 70
     6
  9
$UCSBASE
  2

  9
$UCSNAME
  2

  9
$UCSORG
 10
0.0
 20
0.0
 30
0.0
  9
$UCSXDIR
 10
1.0
 20
0.0
 30
0.0
  9
$UCSYDIR
 10
0.0
 20
1.0
 30
0.0
  9
$UCSORTHOREF
  2

  9
$UCSORTHOVIEW
 70
     0
  9
$UCSORGTOP
 10
0.0
 20
0.0
 30
0.0
  9
$UCSORGBOTTOM
 10
0.0
 20
0.0
 30
0.0
  9
$UCSORGLEFT
 10
0.0
 20
0.0
 30
0.0
  9
$UCSORGRIGHT
 10
0.0
 20
0.0
 30
0.0
  9
$UCSORGFRONT
 10
0.0
 20
0.0
 30
0.0
  9
$UCSORGBACK
 10
0.0
 20
0.0
 30
0.0
  9
$PUCSBASE
  2

  9
$PUCSNAME
  2

  9
$PUCSORG
 10
0.0
 20
0.0
 30
0.0
  9
$PUCSXDIR
 10
1.0
 20
0.0
 30
0.0
  9
$PUCSYDIR
 10
0.0
 20
1.0
 30
0.0
  9
$PUCSORTHOREF
  2

  9
$PUCSORTHOVIEW
 70
     0
  9
$PUCSORGTOP
 10
0.0
 20
0.0
 30
0.0
  9
$PUCSORGBOTTOM
 10
0.0
 20
0.0
 30
0.0
  9
$PUCSORGLEFT
 10
0.0
 20
0.0
 30
0.0
  9
$PUCSORGRIGHT
 10
0.0
 20
0.0
 30
0.0
  9
$PUCSORGFRONT
 10
0.0
 20
0.0
 30
0.0
  9
$PUCSORGBACK
 10
0.0
 20
0.0
 30
0.0
  9
$USERI1
 70
     0
  9
$USERI2
 70
     0
  9
$USERI3
 70
     0
  9
$USERI4
 70
     0
  9
$USERI5
 70
     0
  9
$USERR1
 40
0.0
  9
$USERR2
 40
0.0
  9
$USERR3
 40
0.0
  9
$USERR4
 40
0.0
  9
$USERR5
 40
0.0
  9
$WORLDVIEW
 70
     1
  9
$SHADEDGE
 70
     3
  9
$SHADEDIF
 70
    70
  9
$TILEMODE
 70
     1
  9
$MAXACTVP
 70
    64
  9
$PINSBASE
 10
0.0
 20
0.0
 30
0.0
  9
$PLIMCHECK
 70
     0
  9
$PEXTMIN
 10
1.000000000000000E+20
 20
1.000000000000000E+20
 30
1.000000000000000E+20
  9
$PEXTMAX
 10
-1.000000000000000E+20
 20
-1.000000000000000E+20
 30
-1.000000000000000E+20
  9
$PLIMMIN
 10
0.0
 20
0.0
  9
$PLIMMAX
 10
12.0
 20
9.0
  9
$UNITMODE
 70
     0
  9
$VISRETAIN
 70
     1
  9
$PLINEGEN
 70
     0
  9
$PSLTSCALE
 70
     1
  9
$TREEDEPTH
 70
  3020
  9
$CMLSTYLE
  2
Standard
  9
$CMLJUST
 70
     0
  9
$CMLSCALE
 40
1.0
  9
$PROXYGRAPHICS
 70
     1
  9
$MEASUREMENT
 70
     0
  9
$CELWEIGHT
370
    -1
  9
$ENDCAPS
280
     0
  9
$JOINSTYLE
280
     0
  9
$LWDISPLAY
290
     1
  9
$INSUNITS
 70
     1
  9
$HYPERLINKBASE
  1

  9
$STYLESHEET
  1

  9
$XEDIT
290
     1
  9
$CEPSNTYPE
380
     0
  9
$PSTYLEMODE
290
     1
  9
$FINGERPRINTGUID
  2
{4972A980-364F-A67F-51C5-EB1AC6ADF675}
  9
$VERSIONGUID
  2
{FAEB1C32-E019-11D5-929B-00C0DF256EC4}
  9
$EXTNAMES
290
     1
  9
$PSVPSCALE
 40
0.0
  9
$OLESTARTUP
290
     0
  9
$SORTENTS
280
   127
  9
$INDEXCTL
280
     0
  9
$HIDETEXT
280
     1
  9
$XCLIPFRAME
280
     2
  9
$HALOGAP
280
     0
  9
$OBSCOLOR
 70
   257
  9
$OBSLTYPE
280
     0
  9
$INTERSECTIONDISPLAY
280
     0
  9
$INTERSECTIONCOLOR
 70
   257
  9
$DIMASSOC
280
     2
  9
$PROJECTNAME
  1

  9
$CAMERADISPLAY
290
     0
  9
$LENSLENGTH
 40
50.0
  9
$CAMERAHEIGHT
 40
0.0
  9
$STEPSPERSEC
 40
2.0
  9
$STEPSIZE
 40
6.0
  9
$3DDWFPREC
 40
2.0
  9
$PSOLWIDTH
 40
0.25
  9
$PSOLHEIGHT
 40
4.0
  9
$LOFTANG1
 40
1.570796326794897
  9
$LOFTANG2
 40
1.570796326794897
  9
$LOFTMAG1
 40
0.0
  9
$LOFTMAG2
 40
0.0
  9
$LOFTPARAM
 70
     7
  9
$LOFTNORMALS
280
     1
  9
$LATITUDE
 40
37.795
  9
$LONGITUDE
 40
-122.394
  9
$NORTHDIRECTION
 40
0.0
  9
$TIMEZONE
 70
 -8000
  9
$LIGHTGLYPHDISPLAY
280
     1
  9
$TILEMODELIGHTSYNCH
280
     1
  9
$CMATERIAL
347
3C
  9
$SOLIDHIST
280
     1
  9
$SHOWHIST
280
     1
  9
$DWFFRAME
280
     2
  9
$DGNFRAME
280
     2
  9
$REALWORLDSCALE
290
     1
  9
$INTERFERECOLOR
 62
   256
  9
$CSHADOW
280
     0
  9
$SHADOWPLANELOCATION
 40
0.0
  0
ENDSEC
  0
SECTION
  2
CLASSES
  0
CLASS
  1
ACDBDICTIONARYWDFLT
  2
AcDbDictionaryWithDefault
  3
ObjectDBX Classes
 90
        0
 91
        4
280
     0
281
     0
  0
CLASS
  1
VISUALSTYLE
  2
AcDbVisualStyle
  3
ObjectDBX Classes
 90
     4095
 91
        4
280
     0
281
     0
  0
CLASS
  1
MATERIAL
  2
AcDbMaterial
  3
ObjectDBX Classes
 90
     1153
 91
        4
280
     0
281
     0
  0
CLASS
  1
SUN
  2
AcDbSun
  3
SCENEOE
 90
     1024
 91
        4
280
     0
281
     0
  0
ENDSEC
  0
SECTION
  2
TABLES
  0
TABLE
  2
VPORT
  5
8
330
0
100
AcDbSymbolTable
 70
     1
  0
VPORT
  5
29
330
8
100
AcDbSymbolTableRecord
100
AcDbViewportTableRecord
  2
*Active
 70
     0
 10
0.0
 20
0.0
 11
1.0
 21
1.0
 12
0.0
 22
0.0
 13
0.0
 23
0.0
 14
0.5
 24
0.5
 15
0.5
 25
0.5
 16
0.0
 26
0.0
 36
1.0
 17
91.00082462281999
 27
-128.4993055234307
 37
0.0
 40
256.9986110468615
 41
0.7081814508812795
 42
50.0
 43
0.0
 44
0.0
 50
0.0
 51
0.0
 71
     0
 72
   100
 73
     1
 74
     3
 75
     0
 76
     0
 77
     0
 78
     0
281
     0
 65
     1
110
0.0
120
0.0
130
0.0
111
1.0
121
0.0
131
0.0
112
0.0
122
1.0
132
0.0
 79
     0
146
0.0
 60
     3
 61
     5
292
     1
282
     1
141
0.0
142
0.0
 63
   250
361
3F
  0
ENDTAB
  0
TABLE
  2
LTYPE
  5
5
330
0
100
AcDbSymbolTable
 70
     1
  0
LTYPE
  5
14
330
5
100
AcDbSymbolTableRecord
100
AcDbLinetypeTableRecord
  2
ByBlock
 70
     0
  3

 72
    65
 73
     0
 40
0.0
  0
LTYPE
  5
15
330
5
100
AcDbSymbolTableRecord
100
AcDbLinetypeTableRecord
  2
ByLayer
 70
     0
  3

 72
    65
 73
     0
 40
0.0
  0
LTYPE
  5
16
330
5
100
AcDbSymbolTableRecord
100
AcDbLinetypeTableRecord
  2
Continuous
 70
     0
  3
Solid line
 72
    65
 73
     0
 40
0.0
  0
ENDTAB
  0
TABLE
  2
LAYER
  5
2
330
0
100
AcDbSymbolTable
 70
     2
  0
LAYER
  5
10
330
2
100
AcDbSymbolTableRecord
100
AcDbLayerTableRecord
  2
0
 70
     0
 62
     7
  6
Continuous
370
    -3
390
F
347
3E
  0
LAYER
  5
40
330
2
100
AcDbSymbolTableRecord
100
AcDbLayerTableRecord
  2
_U+30EC_U+30A4_U+30E4_U+30FC 1
 70
     0
 62
     7
  6
Continuous
370
    -3
390
F
347
3E
  0
ENDTAB
  0
TABLE
  2
STYLE
  5
3
330
0
100
AcDbSymbolTable
 70
     1
  0
STYLE
  5
11
330
3
100
AcDbSymbolTableRecord
100
AcDbTextStyleTableRecord
  2
Standard
 70
     0
 40
0.0
 41
1.0
 50
0.0
 71
     0
 42
0.2
  3
txt
  4

  0
ENDTAB
  0
TABLE
  2
VIEW
  5
6
330
0
100
AcDbSymbolTable
 70
     0
  0
ENDTAB
  0
TABLE
  2
UCS
  5
7
330
0
100
AcDbSymbolTable
 70
     0
  0
ENDTAB
  0
TABLE
  2
APPID
  5
9
330
0
100
AcDbSymbolTable
 70
     1
  0
APPID
  5
12
330
9
100
AcDbSymbolTableRecord
100
AcDbRegAppTableRecord
  2
ACAD
 70
     0
  0
ENDTAB
  0
TABLE
  2
DIMSTYLE
  5
A
330
0
100
AcDbSymbolTable
 70
     1
100
AcDbDimStyleTable
  0
DIMSTYLE
105
27
330
A
100
AcDbSymbolTableRecord
100
AcDbDimStyleTableRecord
  2
Standard
 70
     0
178
     0
340
11
  0
ENDTAB
  0
TABLE
  2
BLOCK_RECORD
  5
1
330
0
100
AcDbSymbolTable
 70
     4
  0
BLOCK_RECORD
  5
1F
330
1
100
AcDbSymbolTableRecord
100
AcDbBlockTableRecord
  2
*Model_Space
340
22
 70
     0
280
     1
281
     0
  0
BLOCK_RECORD
  5
1B
330
1
100
AcDbSymbolTableRecord
100
AcDbBlockTableRecord
  2
*Paper_Space
340
1E
 70
     0
280
     1
281
     0
  0
BLOCK_RECORD
  5
23
330
1
100
AcDbSymbolTableRecord
100
AcDbBlockTableRecord
  2
*Paper_Space0
340
26
 70
     0
280
     1
281
     0
  0
BLOCK_RECORD
  5
6D
330
1
100
AcDbSymbolTableRecord
100
AcDbBlockTableRecord
  2
block 2
340
0
102
{BLKREFS
331
6E
102
}
 70
     0
280
     1
281
     0
  0
BLOCK_RECORD
  5
84
330
1
100
AcDbSymbolTableRecord
100
AcDbBlockTableRecord
  2
block 3
340
0
102
{BLKREFS
331
85
102
}
 70
     0
280
     1
281
     0
  0
BLOCK_RECORD
  5
94
330
1
100
AcDbSymbolTableRecord
100
AcDbBlockTableRecord
  2
block 4
340
0
102
{BLKREFS
331
95
102
}
 70
     0
280
     1
281
     0
  0
ENDTAB
  0
ENDSEC
  0
SECTION
  2
BLOCKS
  0
BLOCK
  5
20
330
1F
100
AcDbEntity
  8
0
100
AcDbBlockBegin
  2
*Model_Space
 70
     0
 10
0.0
 20
0.0
 30
0.0
  3
*Model_Space
  1

  0
ENDBLK
  5
21
330
1F
100
AcDbEntity
  8
0
100
AcDbBlockEnd
  0
BLOCK
  5
1C
330
1B
100
AcDbEntity
 67
     1
  8
0
100
AcDbBlockBegin
  2
*Paper_Space
 70
     0
 10
0.0
 20
0.0
 30
0.0
  3
*Paper_Space
  1

  0
ENDBLK
  5
1D
330
1B
100
AcDbEntity
 67
     1
  8
0
100
AcDbBlockEnd
  0
BLOCK
  5
24
330
23
100
AcDbEntity
  8
0
100
AcDbBlockBegin
  2
*Paper_Space0
 70
     0
 10
0.0
 20
0.0
 30
0.0
  3
*Paper_Space0
  1

  0
ENDBLK
  5
25
330
23
100
AcDbEntity
  8
0
100
AcDbBlockEnd
  0
BLOCK
  5
6F
330
6D
100
AcDbEntity
  8
0
100
AcDbBlockBegin
  2
block 2
 70
     0
 10
0.0
 20
0.0
 30
0.0
  3
block 2
  1

  0
SPLINE
  5
71
330
6D
100
AcDbEntity
  8
_U+30EC_U+30A4_U+30E4_U+30FC 1
370
     0
100
AcDbSpline
210
0.0
220
0.0
230
1.0
 70
    11
 71
     3
 72
    44
 73
    40
 74
     0
 42
0.0000000001
 43
0.0000000001
 12
1.0
 22
0.0
 32
0.0
 13
1.0
 23
0.0
 33
0.0
 40
0.0
 40
0.0
 40
0.0
 40
0.0
 40
1.0
 40
1.0
 40
1.0
 40
2.0
 40
2.0
 40
2.0
 40
3.0
 40
3.0
 40
3.0
 40
4.0
 40
4.0
 40
4.0
 40
5.0
 40
5.0
 40
5.0
 40
6.0
 40
6.0
 40
6.0
 40
7.0
 40
7.0
 40
7.0
 40
8.0
 40
8.0
 40
8.0
 40
9.0
 40
9.0
 40
9.0
 40
10.0
 40
10.0
 40
10.0
 40
11.0
 40
11.0
 40
11.0
 40
12.0
 40
12.0
 40
12.0
 40
13.0
 40
13.0
 40
13.0
 40
13.0
 10
86.8398328775956
 20
-121.2783853863471
 30
0.0
 10
86.57369925136005
 20
-121.2366997309756
 30
0.0
 10
86.45536022144172
 20
-121.2229193490346
 30
0.0
 10
86.31927894977436
 20
-121.2904432205455
 30
0.0
 10
86.31927894977436
 20
-121.2904432205455
 30
0.0
 10
86.86963295354302
 20
-121.8409694790884
 30
0.0
 10
86.86963295354302
 20
-121.8409694790884
 30
0.0
 10
86.86963295354302
 20
-121.8409694790884
 30
0.0
 10
86.724594433614
 20
-121.9856634894689
 30
0.0
 10
86.724594433614
 20
-121.9856634894689
 30
0.0
 10
86.724594433614
 20
-121.9856634894689
 30
0.0
 10
85.99767928622627
 20
-121.2587483420811
 30
0.0
 10
85.99767928622627
 20
-121.2587483420811
 30
0.0
 10
86.27311467027201
 20
-121.0286159636665
 30
0.0
 10
86.37474498708687
 20
-121.0196587154048
 30
0.0
 10
86.85791962889316
 20
-121.0809814150423
 30
0.0
 10
87.17951929244124
 20
-121.1212890322197
 30
0.0
 10
87.27374265396281
 20
-121.1195664844771
 30
0.0
 10
87.37089434664686
 20
-121.022414791793
 30
0.0
 10
87.4547824217127
 20
-120.9386989715014
 30
0.0
 10
87.49664033185849
 20
-120.7950384897665
 30
0.0
 10
87.35745847425439
 20
-120.6558566321624
 30
0.0
 10
87.17349037534204
 20
-120.4718885332501
 30
0.0
 10
87.00450844179055
 20
-120.6289848873775
 30
0.0
 10
86.91924232853061
 20
-120.7082220835382
 30
0.0
 10
86.91924232853061
 20
-120.7082220835382
 30
0.0
 10
86.76076793620912
 20
-120.5497476912167
 30
0.0
 10
86.76076793620912
 20
-120.5497476912167
 30
0.0
 10
86.8563693359248
 20
-120.4660318709252
 30
0.0
 10
86.94318574215309
 20
-120.394373884832
 30
0.0
 10
87.0837456379513
 20
-120.367502140047
 30
0.0
 10
87.27512069215692
 20
-120.3313286374519
 30
0.0
 10
87.43083900809022
 20
-120.4388156165917
 30
0.0
 10
87.51317679018769
 20
-120.5214979082377
 30
0.0
 10
87.7092027232984
 20
-120.7171793317999
 30
0.0
 10
87.72556692685333
 20
-120.994165008814
 30
0.0
 10
87.53264157967935
 20
-121.187090355988
 30
0.0
 10
87.37106660142112
 20
-121.3486653342462
 30
0.0
 10
87.2182766166503
 20
-121.3366075000478
 30
0.0
 10
86.8398328775956
 20
-121.2783853863471
 30
0.0
  0
HATCH
  5
72
330
6D
100
AcDbEntity
  8
_U+30EC_U+30A4_U+30E4_U+30FC 1
 62
   179
420
  2234388
100
AcDbHatch
 10
0.0
 20
0.0
 30
0.0
210
0.0
220
0.0
230
1.0
  2
SOLID
 70
     1
 71
     0
 91
        1
 92
        1
 93
        1
 72
     4
 94
        3
 73
     0
 74
     1
 95
       44
 96
       40
 40
0.0
 40
0.0
 40
0.0
 40
0.0
 40
1.0
 40
1.0
 40
1.0
 40
2.0
 40
2.0
 40
2.0
 40
3.0
 40
3.0
 40
3.0
 40
4.0
 40
4.0
 40
4.0
 40
5.0
 40
5.0
 40
5.0
 40
6.0
 40
6.0
 40
6.0
 40
7.0
 40
7.0
 40
7.0
 40
8.0
 40
8.0
 40
8.0
 40
9.0
 40
9.0
 40
9.0
 40
10.0
 40
10.0
 40
10.0
 40
11.0
 40
11.0
 40
11.0
 40
12.0
 40
12.0
 40
12.0
 40
13.0
 40
13.0
 40
13.0
 40
13.0
 10
86.8398328775956
 20
-121.2783853863471
 10
86.57369925136005
 20
-121.2366997309756
 10
86.45536022144172
 20
-121.2229193490346
 10
86.31927894977436
 20
-121.2904432205455
 10
86.31927894977436
 20
-121.2904432205455
 10
86.86963295354302
 20
-121.8409694790884
 10
86.86963295354302
 20
-121.8409694790884
 10
86.86963295354302
 20
-121.8409694790884
 10
86.724594433614
 20
-121.9856634894689
 10
86.724594433614
 20
-121.9856634894689
 10
86.724594433614
 20
-121.9856634894689
 10
85.99767928622627
 20
-121.2587483420811
 10
85.99767928622627
 20
-121.2587483420811
 10
86.27311467027201
 20
-121.0286159636665
 10
86.37474498708687
 20
-121.0196587154048
 10
86.85791962889316
 20
-121.0809814150423
 10
87.17951929244124
 20
-121.1212890322197
 10
87.27374265396281
 20
-121.1195664844771
 10
87.37089434664686
 20
-121.022414791793
 10
87.4547824217127
 20
-120.9386989715014
 10
87.49664033185849
 20
-120.7950384897665
 10
87.35745847425439
 20
-120.6558566321624
 10
87.17349037534204
 20
-120.4718885332501
 10
87.00450844179055
 20
-120.6289848873775
 10
86.91924232853061
 20
-120.7082220835382
 10
86.91924232853061
 20
-120.7082220835382
 10
86.76076793620912
 20
-120.5497476912167
 10
86.76076793620912
 20
-120.5497476912167
 10
86.8563693359248
 20
-120.4660318709252
 10
86.94318574215309
 20
-120.394373884832
 10
87.0837456379513
 20
-120.367502140047
 10
87.27512069215692
 20
-120.3313286374519
 10
87.43083900809022
 20
-120.4388156165917
 10
87.51317679018769
 20
-120.5214979082377
 10
87.7092027232984
 20
-120.7171793317999
 10
87.72556692685333
 20
-120.994165008814
 10
87.53264157967935
 20
-121.187090355988
 10
87.37106660142112
 20
-121.3486653342462
 10
87.2182766166503
 20
-121.3366075000478
 10
86.8398328775956
 20
-121.2783853863471
 97
        0
 97
        0
 75
     2
 76
     1
 98
        0
  0
SPLINE
  5
73
330
6D
100
AcDbEntity
  8
_U+30EC_U+30A4_U+30E4_U+30FC 1
370
     0
100
AcDbSpline
210
0.0
220
0.0
230
1.0
 70
    11
 71
     3
 72
    53
 73
    49
 74
     0
 42
0.0000000001
 43
0.0000000001
 12
1.0
 22
0.0
 32
0.0
 13
1.0
 23
0.0
 33
0.0
 40
0.0
 40
0.0
 40
0.0
 40
0.0
 40
1.0
 40
1.0
 40
1.0
 40
2.0
 40
2.0
 40
2.0
 40
3.0
 40
3.0
 40
3.0
 40
4.0
 40
4.0
 40
4.0
 40
5.0
 40
5.0
 40
5.0
 40
6.0
 40
6.0
 40
6.0
 40
7.0
 40
7.0
 40
7.0
 40
8.0
 40
8.0
 40
8.0
 40
9.0
 40
9.0
 40
9.0
 40
10.0
 40
10.0
 40
10.0
 40
11.0
 40
11.0
 40
11.0
 40
12.0
 40
12.0
 40
12.0
 40
13.0
 40
13.0
 40
13.0
 40
14.0
 40
14.0
 40
14.0
 40
15.0
 40
15.0
 40
15.0
 40
16.0
 40
16.0
 40
16.0
 40
16.0
 10
87.14558510191152
 20
-122.4783121438596
 30
0.0
 10
87.09011906459901
 20
-122.4231906160956
 30
0.0
 10
87.03051891270418
 20
-122.3391302862555
 30
0.0
 10
87.00347491314497
 20
-122.2226860588541
 30
0.0
 10
86.95868867183673
 20
-122.0221815016125
 30
0.0
 10
87.0363755750291
 20
-121.9146945224727
 30
0.0
 10
87.09907631286065
 20
-121.8251220398562
 30
0.0
 10
87.09907631286065
 20
-121.8251220398562
 30
0.0
 10
87.25600041221378
 20
-121.9818738844351
 30
0.0
 10
87.25600041221378
 20
-121.9818738844351
 30
0.0
 10
87.15454235017317
 20
-122.1613633592166
 30
0.0
 10
87.22344425987816
 20
-122.2722954338416
 30
0.0
 10
87.28924558364645
 20
-122.3377522480614
 30
0.0
 10
87.38794756929884
 20
-122.4366264884881
 30
0.0
 10
87.565886751112
 20
-122.4741780292773
 30
0.0
 10
87.73039006053268
 20
-122.3095024650823
 30
0.0
 10
87.91142982828256
 20
-122.1282904425582
 30
0.0
 10
87.83357067031592
 20
-121.9519015537134
 30
0.0
 10
87.74830455705599
 20
-121.8668076952277
 30
0.0
 10
87.72591143640186
 20
-121.8444145745736
 30
0.0
 10
87.62565915778109
 20
-121.7441622959528
 30
0.0
 10
87.47166338959042
 20
-121.7724120789319
 30
0.0
 10
87.47166338959042
 20
-121.7724120789319
 30
0.0
 10
87.3610758245139
 20
-121.6349527690704
 30
0.0
 10
87.3610758245139
 20
-121.6349527690704
 30
0.0
 10
87.3610758245139
 20
-121.6349527690704
 30
0.0
 10
88.04441051401321
 20
-121.1216335417682
 30
0.0
 10
88.04441051401321
 20
-121.1216335417682
 30
0.0
 10
88.04441051401321
 20
-121.1216335417682
 30
0.0
 10
88.59493677255612
 20
-121.6721598003111
 30
0.0
 10
88.59493677255612
 20
-121.6721598003111
 30
0.0
 10
88.59493677255612
 20
-121.6721598003111
 30
0.0
 10
88.4573052079204
 20
-121.8099636197211
 30
0.0
 10
88.4573052079204
 20
-121.8099636197211
 30
0.0
 10
88.4573052079204
 20
-121.8099636197211
 30
0.0
 10
88.02201739335908
 20
-121.3745035503855
 30
0.0
 10
88.02201739335908
 20
-121.3745035503855
 30
0.0
 10
88.02201739335908
 20
-121.3745035503855
 30
0.0
 10
87.67664657096279
 20
-121.6273735590029
 30
0.0
 10
87.67664657096279
 20
-121.6273735590029
 30
0.0
 10
87.74399818769942
 20
-121.6466660937203
 30
0.0
 10
87.83064233915346
 20
-121.676638424442
 30
0.0
 10
87.91435815944503
 20
-121.7603542447335
 30
0.0
 10
88.0940198890008
 20
-121.9401882290636
 30
0.0
 10
88.12967662727314
 20
-122.2392225171833
 30
0.0
 10
87.9085014971201
 20
-122.4603976473363
 30
0.0
 10
87.68388127148181
 20
-122.6850178729746
 30
0.0
 10
87.35952553154554
 20
-122.6925970830421
 30
0.0
 10
87.14558510191152
 20
-122.4783121438596
 30
0.0
  0
HATCH
  5
74
330
6D
100
AcDbEntity
  8
_U+30EC_U+30A4_U+30E4_U+30FC 1
 62
   179
420
  2234388
100
AcDbHatch
 10
0.0
 20
0.0
 30
0.0
210
0.0
220
0.0
230
1.0
  2
SOLID
 70
     1
 71
     0
 91
        1
 92
        1
 93
        1
 72
     4
 94
        3
 73
     0
 74
     1
 95
       53
 96
       49
 40
0.0
 40
0.0
 40
0.0
 40
0.0
 40
1.0
 40
1.0
 40
1.0
 40
2.0
 40
2.0
 40
2.0
 40
3.0
 40
3.0
 40
3.0
 40
4.0
 40
4.0
 40
4.0
 40
5.0
 40
5.0
 40
5.0
 40
6.0
 40
6.0
 40
6.0
 40
7.0
 40
7.0
 40
7.0
 40
8.0
 40
8.0
 40
8.0
 40
9.0
 40
9.0
 40
9.0
 40
10.0
 40
10.0
 40
10.0
 40
11.0
 40
11.0
 40
11.0
 40
12.0
 40
12.0
 40
12.0
 40
13.0
 40
13.0
 40
13.0
 40
14.0
 40
14.0
 40
14.0
 40
15.0
 40
15.0
 40
15.0
 40
16.0
 40
16.0
 40
16.0
 40
16.0
 10
87.14558510191152
 20
-122.4783121438596
 10
87.09011906459901
 20
-122.4231906160956
 10
87.03051891270418
 20
-122.3391302862555
 10
87.00347491314497
 20
-122.2226860588541
 10
86.95868867183673
 20
-122.0221815016125
 10
87.0363755750291
 20
-121.9146945224727
 10
87.09907631286065
 20
-121.8251220398562
 10
87.09907631286065
 20
-121.8251220398562
 10
87.25600041221378
 20
-121.9818738844351
 10
87.25600041221378
 20
-121.9818738844351
 10
87.15454235017317
 20
-122.1613633592166
 10
87.22344425987816
 20
-122.2722954338416
 10
87.28924558364645
 20
-122.3377522480614
 10
87.38794756929884
 20
-122.4366264884881
 10
87.565886751112
 20
-122.4741780292773
 10
87.73039006053268
 20
-122.3095024650823
 10
87.91142982828256
 20
-122.1282904425582
 10
87.83357067031592
 20
-121.9519015537134
 10
87.74830455705599
 20
-121.8668076952277
 10
87.72591143640186
 20
-121.8444145745736
 10
87.62565915778109
 20
-121.7441622959528
 10
87.47166338959042
 20
-121.7724120789319
 10
87.47166338959042
 20
-121.7724120789319
 10
87.3610758245139
 20
-121.6349527690704
 10
87.3610758245139
 20
-121.6349527690704
 10
87.3610758245139
 20
-121.6349527690704
 10
88.04441051401321
 20
-121.1216335417682
 10
88.04441051401321
 20
-121.1216335417682
 10
88.04441051401321
 20
-121.1216335417682
 10
88.59493677255612
 20
-121.6721598003111
 10
88.59493677255612
 20
-121.6721598003111
 10
88.59493677255612
 20
-121.6721598003111
 10
88.4573052079204
 20
-121.8099636197211
 10
88.4573052079204
 20
-121.8099636197211
 10
88.4573052079204
 20
-121.8099636197211
 10
88.02201739335908
 20
-121.3745035503855
 10
88.02201739335908
 20
-121.3745035503855
 10
88.02201739335908
 20
-121.3745035503855
 10
87.67664657096279
 20
-121.6273735590029
 10
87.67664657096279
 20
-121.6273735590029
 10
87.74399818769942
 20
-121.6466660937203
 10
87.83064233915346
 20
-121.676638424442
 10
87.91435815944503
 20
-121.7603542447335
 10
88.0940198890008
 20
-121.9401882290636
 10
88.12967662727314
 20
-122.2392225171833
 10
87.9085014971201
 20
-122.4603976473363
 10
87.68388127148181
 20
-122.6850178729746
 10
87.35952553154554
 20
-122.6925970830421
 10
87.14558510191152
 20
-122.4783121438596
 97
        0
 97
        0
 75
     2
 76
     1
 98
        0
  0
SPLINE
  5
75
330
6D
100
AcDbEntity
  8
_U+30EC_U+30A4_U+30E4_U+30FC 1
370
     0
100
AcDbSpline
210
0.0
220
0.0
230
1.0
 70
    11
 71
     3
 72
    44
 73
    40
 74
     0
 42
0.0000000001
 43
0.0000000001
 12
1.0
 22
0.0
 32
0.0
 13
1.0
 23
0.0
 33
0.0
 40
0.0
 40
0.0
 40
0.0
 40
0.0
 40
1.0
 40
1.0
 40
1.0
 40
2.0
 40
2.0
 40
2.0
 40
3.0
 40
3.0
 40
3.0
 40
4.0
 40
4.0
 40
4.0
 40
5.0
 40
5.0
 40
5.0
 40
6.0
 40
6.0
 40
6.0
 40
7.0
 40
7.0
 40
7.0
 40
8.0
 40
8.0
 40
8.0
 40
9.0
 40
9.0
 40
9.0
 40
10.0
 40
10.0
 40
10.0
 40
11.0
 40
11.0
 40
11.0
 40
12.0
 40
12.0
 40
12.0
 40
13.0
 40
13.0
 40
13.0
 40
13.0
 10
88.39064261028082
 20
-123.6517116661357
 30
0.0
 10
88.40545652086739
 20
-123.6034803293422
 30
0.0
 10
88.42802189629577
 20
-123.5514593875149
 30
0.0
 10
88.58942461977973
 20
-123.3871283328685
 30
0.0
 10
88.7585788081055
 20
-123.2121174822178
 30
0.0
 10
88.76598576339879
 20
-123.1208224518587
 30
0.0
 10
88.64023977818717
 20
-122.9950764666471
 30
0.0
 10
88.64023977818717
 20
-122.9950764666471
 30
0.0
 10
88.35154077652324
 20
-122.7063774649831
 30
0.0
 10
88.35154077652324
 20
-122.7063774649831
 30
0.0
 10
88.35154077652324
 20
-122.7063774649831
 30
0.0
 10
87.89833846543861
 20
-123.159752030842
 30
0.0
 10
87.89833846543861
 20
-123.159752030842
 30
0.0
 10
87.89833846543861
 20
-123.159752030842
 30
0.0
 10
87.73228486304957
 20
-122.993698428453
 30
0.0
 10
87.73228486304957
 20
-122.993698428453
 30
0.0
 10
87.73228486304957
 20
-122.993698428453
 30
0.0
 10
88.82420787709951
 20
-121.9016031596288
 30
0.0
 10
88.82420787709951
 20
-121.9016031596288
 30
0.0
 10
88.82420787709951
 20
-121.9016031596288
 30
0.0
 10
89.30152585658087
 20
-122.3790933938844
 30
0.0
 10
89.30152585658087
 20
-122.3790933938844
 30
0.0
 10
89.51839461737735
 20
-122.5957898999066
 30
0.0
 10
89.51546628621489
 20
-122.8345350170344
 30
0.0
 10
89.33425426369075
 20
-123.0157470395586
 30
0.0
 10
89.29842527064415
 20
-123.0515760326052
 30
0.0
 10
89.23417423984424
 20
-123.1042859935295
 30
0.0
 10
89.14580754064758
 20
-123.1294351905718
 30
0.0
 10
89.0309136062145
 20
-123.1611300690361
 30
0.0
 10
88.97096894477114
 20
-123.1280571523777
 30
0.0
 10
88.91567516223289
 20
-123.0970512930105
 30
0.0
 10
88.98302677896953
 20
-123.2238308068677
 30
0.0
 10
88.99629039658774
 20
-123.3065130985137
 30
0.0
 10
88.7764933046288
 20
-123.531822343249
 30
0.0
 10
88.58804658158563
 20
-123.7261257286171
 30
0.0
 10
88.5909749127481
 20
-123.7743570654106
 30
0.0
 10
88.59993216100975
 20
-123.8611734716389
 30
0.0
 10
88.59993216100975
 20
-123.8611734716389
 30
0.0
 10
88.39064261028082
 20
-123.6517116661357
 30
0.0
 10
88.39064261028082
 20
-123.6517116661357
 30
0.0
  0
SPLINE
  5
76
330
6D
100
AcDbEntity
  8
_U+30EC_U+30A4_U+30E4_U+30FC 1
370
     0
100
AcDbSpline
210
0.0
220
0.0
230
1.0
 70
    11
 71
     3
 72
    20
 73
    16
 74
     0
 42
0.0000000001
 43
0.0000000001
 12
1.0
 22
0.0
 32
0.0
 13
1.0
 23
0.0
 33
0.0
 40
0.0
 40
0.0
 40
0.0
 40
0.0
 40
1.0
 40
1.0
 40
1.0
 40
2.0
 40
2.0
 40
2.0
 40
3.0
 40
3.0
 40
3.0
 40
4.0
 40
4.0
 40
4.0
 40
5.0
 40
5.0
 40
5.0
 40
5.0
 10
89.15493704368349
 20
-122.5313666143324
 30
0.0
 10
89.15493704368349
 20
-122.5313666143324
 30
0.0
 10
88.84074433542871
 20
-122.2171739060777
 30
0.0
 10
88.84074433542871
 20
-122.2171739060777
 30
0.0
 10
88.84074433542871
 20
-122.2171739060777
 30
0.0
 10
88.50123017535734
 20
-122.5568603209233
 30
0.0
 10
88.50123017535734
 20
-122.5568603209233
 30
0.0
 10
88.50123017535734
 20
-122.5568603209233
 30
0.0
 10
88.81387259064375
 20
-122.8693304814355
 30
0.0
 10
88.81387259064375
 20
-122.8693304814355
 30
0.0
 10
88.88415253854285
 20
-122.9396104293346
 30
0.0
 10
89.03366968260269
 20
-122.9816405942546
 30
0.0
 10
89.15493704368349
 20
-122.8603732331738
 30
0.0
 10
89.21023082622175
 20
-122.8049071958613
 30
0.0
 10
89.29549693948168
 20
-122.6719265101306
 30
0.0
 10
89.15493704368349
 20
-122.5313666143324
 30
0.0
  0
HATCH
  5
77
330
6D
100
AcDbEntity
  8
_U+30EC_U+30A4_U+30E4_U+30FC 1
 62
   179
420
  2234388
100
AcDbHatch
 10
0.0
 20
0.0
 30
0.0
210
0.0
220
0.0
230
1.0
  2
SOLID
 70
     1
 71
     0
 91
        2
 92
        1
 93
        1
 72
     4
 94
        3
 73
     0
 74
     1
 95
       44
 96
       40
 40
0.0
 40
0.0
 40
0.0
 40
0.0
 40
1.0
 40
1.0
 40
1.0
 40
2.0
 40
2.0
 40
2.0
 40
3.0
 40
3.0
 40
3.0
 40
4.0
 40
4.0
 40
4.0
 40
5.0
 40
5.0
 40
5.0
 40
6.0
 40
6.0
 40
6.0
 40
7.0
 40
7.0
 40
7.0
 40
8.0
 40
8.0
 40
8.0
 40
9.0
 40
9.0
 40
9.0
 40
10.0
 40
10.0
 40
10.0
 40
11.0
 40
11.0
 40
11.0
 40
12.0
 40
12.0
 40
12.0
 40
13.0
 40
13.0
 40
13.0
 40
13.0
 10
88.39064261028082
 20
-123.6517116661357
 10
88.40545652086739
 20
-123.6034803293422
 10
88.42802189629577
 20
-123.5514593875149
 10
88.58942461977973
 20
-123.3871283328685
 10
88.7585788081055
 20
-123.2121174822178
 10
88.76598576339879
 20
-123.1208224518587
 10
88.64023977818717
 20
-122.9950764666471
 10
88.64023977818717
 20
-122.9950764666471
 10
88.35154077652324
 20
-122.7063774649831
 10
88.35154077652324
 20
-122.7063774649831
 10
88.35154077652324
 20
-122.7063774649831
 10
87.89833846543861
 20
-123.159752030842
 10
87.89833846543861
 20
-123.159752030842
 10
87.89833846543861
 20
-123.159752030842
 10
87.73228486304957
 20
-122.993698428453
 10
87.73228486304957
 20
-122.993698428453
 10
87.73228486304957
 20
-122.993698428453
 10
88.82420787709951
 20
-121.9016031596288
 10
88.82420787709951
 20
-121.9016031596288
 10
88.82420787709951
 20
-121.9016031596288
 10
89.30152585658087
 20
-122.3790933938844
 10
89.30152585658087
 20
-122.3790933938844
 10
89.51839461737735
 20
-122.5957898999066
 10
89.51546628621489
 20
-122.8345350170344
 10
89.33425426369075
 20
-123.0157470395586
 10
89.29842527064415
 20
-123.0515760326052
 10
89.23417423984424
 20
-123.1042859935295
 10
89.14580754064758
 20
-123.1294351905718
 10
89.0309136062145
 20
-123.1611300690361
 10
88.97096894477114
 20
-123.1280571523777
 10
88.91567516223289
 20
-123.0970512930105
 10
88.98302677896953
 20
-123.2238308068677
 10
88.99629039658774
 20
-123.3065130985137
 10
88.7764933046288
 20
-123.531822343249
 10
88.58804658158563
 20
-123.7261257286171
 10
88.5909749127481
 20
-123.7743570654106
 10
88.59993216100975
 20
-123.8611734716389
 10
88.59993216100975
 20
-123.8611734716389
 10
88.39064261028082
 20
-123.6517116661357
 10
88.39064261028082
 20
-123.6517116661357
 97
        0
 97
        0
 92
        1
 93
        1
 72
     4
 94
        3
 73
     0
 74
     1
 95
       20
 96
       16
 40
0.0
 40
0.0
 40
0.0
 40
0.0
 40
1.0
 40
1.0
 40
1.0
 40
2.0
 40
2.0
 40
2.0
 40
3.0
 40
3.0
 40
3.0
 40
4.0
 40
4.0
 40
4.0
 40
5.0
 40
5.0
 40
5.0
 40
5.0
 10
89.15493704368349
 20
-122.5313666143324
 10
89.15493704368349
 20
-122.5313666143324
 10
88.84074433542871
 20
-122.2171739060777
 10
88.84074433542871
 20
-122.2171739060777
 10
88.84074433542871
 20
-122.2171739060777
 10
88.50123017535734
 20
-122.5568603209233
 10
88.50123017535734
 20
-122.5568603209233
 10
88.50123017535734
 20
-122.5568603209233
 10
88.81387259064375
 20
-122.8693304814355
 10
88.81387259064375
 20
-122.8693304814355
 10
88.88415253854285
 20
-122.9396104293346
 10
89.03366968260269
 20
-122.9816405942546
 10
89.15493704368349
 20
-122.8603732331738
 10
89.21023082622175
 20
-122.8049071958613
 10
89.29549693948168
 20
-122.6719265101306
 10
89.15493704368349
 20
-122.5313666143324
 97
        0
 97
        0
 75
     2
 76
     1
 98
        0
  0
ENDBLK
  5
70
330
6D
100
AcDbEntity
  8
0
100
AcDbBlockEnd
  0
BLOCK
  5
86
330
84
100
AcDbEntity
  8
0
100
AcDbBlockBegin
  2
block 3
 70
     0
 10
0.0
 20
0.0
 30
0.0
  3
block 3
  1

  0
SPLINE
  5
88
330
84
100
AcDbEntity
  8
_U+30EC_U+30A4_U+30E4_U+30FC 1
370
     0
100
AcDbSpline
210
0.0
220
0.0
230
1.0
 70
    11
 71
     3
 72
    26
 73
    22
 74
     0
 42
0.0000000001
 43
0.0000000001
 12
1.0
 22
0.0
 32
0.0
 13
1.0
 23
0.0
 33
0.0
 40
0.0
 40
0.0
 40
0.0
 40
0.0
 40
1.0
 40
1.0
 40
1.0
 40
2.0
 40
2.0
 40
2.0
 40
3.0
 40
3.0
 40
3.0
 40
4.0
 40
4.0
 40
4.0
 40
5.0
 40
5.0
 40
5.0
 40
6.0
 40
6.0
 40
6.0
 40
7.0
 40
7.0
 40
7.0
 40
7.0
 10
87.15678166223859
 20
-138.9923773524047
 30
0.0
 10
87.15678166223859
 20
-138.9923773524047
 30
0.0
 10
87.15678166223859
 20
-137.8882242493821
 30
0.0
 10
87.15678166223859
 20
-137.8882242493821
 30
0.0
 10
87.15678166223859
 20
-137.8882242493821
 30
0.0
 10
86.82674151475165
 20
-137.8882242493821
 30
0.0
 10
86.82674151475165
 20
-137.8882242493821
 30
0.0
 10
86.82674151475165
 20
-137.8882242493821
 30
0.0
 10
86.82674151475165
 20
-137.7400851435164
 30
0.0
 10
86.82674151475165
 20
-137.7400851435164
 30
0.0
 10
87.15884871952974
 20
-137.7252712329298
 30
0.0
 10
87.2053575085806
 20
-137.5623182164775
 30
0.0
 10
87.23498532975375
 20
-137.4479410463672
 30
0.0
 10
87.23498532975375
 20
-137.4479410463672
 30
0.0
 10
87.38105737832835
 20
-137.4479410463672
 30
0.0
 10
87.38105737832835
 20
-137.4479410463672
 30
0.0
 10
87.38105737832835
 20
-137.4479410463672
 30
0.0
 10
87.38105737832835
 20
-138.9923773524047
 30
0.0
 10
87.38105737832835
 20
-138.9923773524047
 30
0.0
 10
87.38105737832835
 20
-138.9923773524047
 30
0.0
 10
87.15678166223859
 20
-138.9923773524047
 30
0.0
 10
87.15678166223859
 20
-138.9923773524047
 30
0.0
  0
HATCH
  5
89
330
84
100
AcDbEntity
  8
_U+30EC_U+30A4_U+30E4_U+30FC 1
 62
   179
420
  2234388
100
AcDbHatch
 10
0.0
 20
0.0
 30
0.0
210
0.0
220
0.0
230
1.0
  2
SOLID
 70
     1
 71
     0
 91
        1
 92
        1
 93
        1
 72
     4
 94
        3
 73
     0
 74
     1
 95
       26
 96
       22
 40
0.0
 40
0.0
 40
0.0
 40
0.0
 40
1.0
 40
1.0
 40
1.0
 40
2.0
 40
2.0
 40
2.0
 40
3.0
 40
3.0
 40
3.0
 40
4.0
 40
4.0
 40
4.0
 40
5.0
 40
5.0
 40
5.0
 40
6.0
 40
6.0
 40
6.0
 40
7.0
 40
7.0
 40
7.0
 40
7.0
 10
87.15678166223859
 20
-138.9923773524047
 10
87.15678166223859
 20
-138.9923773524047
 10
87.15678166223859
 20
-137.8882242493821
 10
87.15678166223859
 20
-137.8882242493821
 10
87.15678166223859
 20
-137.8882242493821
 10
86.82674151475165
 20
-137.8882242493821
 10
86.82674151475165
 20
-137.8882242493821
 10
86.82674151475165
 20
-137.8882242493821
 10
86.82674151475165
 20
-137.7400851435164
 10
86.82674151475165
 20
-137.7400851435164
 10
87.15884871952974
 20
-137.7252712329298
 10
87.2053575085806
 20
-137.5623182164775
 10
87.23498532975375
 20
-137.4479410463672
 10
87.23498532975375
 20
-137.4479410463672
 10
87.38105737832835
 20
-137.4479410463672
 10
87.38105737832835
 20
-137.4479410463672
 10
87.38105737832835
 20
-137.4479410463672
 10
87.38105737832835
 20
-138.9923773524047
 10
87.38105737832835
 20
-138.9923773524047
 10
87.38105737832835
 20
-138.9923773524047
 10
87.15678166223859
 20
-138.9923773524047
 10
87.15678166223859
 20
-138.9923773524047
 97
        0
 97
        0
 75
     2
 76
     1
 98
        0
  0
SPLINE
  5
8A
330
84
100
AcDbEntity
  8
_U+30EC_U+30A4_U+30E4_U+30FC 1
370
     0
100
AcDbSpline
210
0.0
220
0.0
230
1.0
 70
    11
 71
     3
 72
    53
 73
    49
 74
     0
 42
0.0000000001
 43
0.0000000001
 12
1.0
 22
0.0
 32
0.0
 13
1.0
 23
0.0
 33
0.0
 40
0.0
 40
0.0
 40
0.0
 40
0.0
 40
1.0
 40
1.0
 40
1.0
 40
2.0
 40
2.0
 40
2.0
 40
3.0
 40
3.0
 40
3.0
 40
4.0
 40
4.0
 40
4.0
 40
5.0
 40
5.0
 40
5.0
 40
6.0
 40
6.0
 40
6.0
 40
7.0
 40
7.0
 40
7.0
 40
8.0
 40
8.0
 40
8.0
 40
9.0
 40
9.0
 40
9.0
 40
10.0
 40
10.0
 40
10.0
 40
11.0
 40
11.0
 40
11.0
 40
12.0
 40
12.0
 40
12.0
 40
13.0
 40
13.0
 40
13.0
 40
14.0
 40
14.0
 40
14.0
 40
15.0
 40
15.0
 40
15.0
 40
16.0
 40
16.0
 40
16.0
 40
16.0
 10
88.36325410117308
 20
-139.0430202560379
 30
0.0
 10
88.28487817888364
 20
-139.0430202560379
 30
0.0
 10
88.18342011684304
 20
-139.0261392881602
 30
0.0
 10
88.08178980002816
 20
-138.9627495312315
 30
0.0
 10
87.90832924234584
 20
-138.8528509852521
 30
0.0
 10
87.88714190511155
 20
-138.721592847264
 30
0.0
 10
87.86819387994268
 20
-138.6137613585757
 30
0.0
 10
87.86819387994268
 20
-138.6137613585757
 30
0.0
 10
88.09023028396703
 20
-138.6137613585757
 30
0.0
 10
88.09023028396703
 20
-138.6137613585757
 30
0.0
 10
88.14535181173103
 20
-138.8125433680746
 30
0.0
 10
88.27230358036249
 20
-138.8421711892478
 30
0.0
 10
88.36532115846423
 20
-138.8421711892478
 30
0.0
 10
88.50501978039111
 20
-138.8421711892478
 30
0.0
 10
88.65729300083915
 20
-138.7426079297241
 30
0.0
 10
88.65729300083915
 20
-138.5100639844697
 30
0.0
 10
88.65729300083915
 20
-138.2540933899157
 30
0.0
 10
88.47745901650912
 20
-138.1841579515651
 30
0.0
 10
88.35688067452537
 20
-138.1841579515651
 30
0.0
 10
88.32518579606106
 20
-138.1841579515651
 30
0.0
 10
88.18342011684304
 20
-138.1841579515651
 30
0.0
 10
88.09453665332359
 20
-138.313349032262
 30
0.0
 10
88.09453665332359
 20
-138.313349032262
 30
0.0
 10
87.91900903835011
 20
-138.2944010070931
 30
0.0
 10
87.91900903835011
 20
-138.2944010070931
 30
0.0
 10
87.91900903835011
 20
-138.2944010070931
 30
0.0
 10
88.03958738033386
 20
-137.4479410463672
 30
0.0
 10
88.03958738033386
 20
-137.4479410463672
 30
0.0
 10
88.03958738033386
 20
-137.4479410463672
 30
0.0
 10
88.81800670522605
 20
-137.4479410463672
 30
0.0
 10
88.81800670522605
 20
-137.4479410463672
 30
0.0
 10
88.81800670522605
 20
-137.4479410463672
 30
0.0
 10
88.81800670522605
 20
-137.6425889412838
 30
0.0
 10
88.81800670522605
 20
-137.6425889412838
 30
0.0
 10
88.81800670522605
 20
-137.6425889412838
 30
0.0
 10
88.2023681420119
 20
-137.6425889412838
 30
0.0
 10
88.2023681420119
 20
-137.6425889412838
 30
0.0
 10
88.2023681420119
 20
-137.6425889412838
 30
0.0
 10
88.13691132779216
 20
-138.0656466668725
 30
0.0
 10
88.13691132779216
 20
-138.0656466668725
 30
0.0
 10
88.1982340274296
 20
-138.031884731117
 30
0.0
 10
88.28074406430135
 20
-137.9915771139396
 30
0.0
 10
88.39908309421968
 20
-137.9915771139396
 30
0.0
 10
88.65298663148259
 20
-137.9915771139396
 30
0.0
 10
88.89000920086778
 20
-138.1779567796916
 30
0.0
 10
88.89000920086778
 20
-138.4911159593008
 30
0.0
 10
88.89000920086778
 20
-138.8084092534924
 30
0.0
 10
88.66573348477802
 20
-139.0430202560379
 30
0.0
 10
88.36325410117308
 20
-139.0430202560379
 30
0.0
  0
HATCH
  5
8B
330
84
100
AcDbEntity
  8
_U+30EC_U+30A4_U+30E4_U+30FC 1
 62
   179
420
  2234388
100
AcDbHatch
 10
0.0
 20
0.0
 30
0.0
210
0.0
220
0.0
230
1.0
  2
SOLID
 70
     1
 71
     0
 91
        1
 92
        1
 93
        1
 72
     4
 94
        3
 73
     0
 74
     1
 95
       53
 96
       49
 40
0.0
 40
0.0
 40
0.0
 40
0.0
 40
1.0
 40
1.0
 40
1.0
 40
2.0
 40
2.0
 40
2.0
 40
3.0
 40
3.0
 40
3.0
 40
4.0
 40
4.0
 40
4.0
 40
5.0
 40
5.0
 40
5.0
 40
6.0
 40
6.0
 40
6.0
 40
7.0
 40
7.0
 40
7.0
 40
8.0
 40
8.0
 40
8.0
 40
9.0
 40
9.0
 40
9.0
 40
10.0
 40
10.0
 40
10.0
 40
11.0
 40
11.0
 40
11.0
 40
12.0
 40
12.0
 40
12.0
 40
13.0
 40
13.0
 40
13.0
 40
14.0
 40
14.0
 40
14.0
 40
15.0
 40
15.0
 40
15.0
 40
16.0
 40
16.0
 40
16.0
 40
16.0
 10
88.36325410117308
 20
-139.0430202560379
 10
88.28487817888364
 20
-139.0430202560379
 10
88.18342011684304
 20
-139.0261392881602
 10
88.08178980002816
 20
-138.9627495312315
 10
87.90832924234584
 20
-138.8528509852521
 10
87.88714190511155
 20
-138.721592847264
 10
87.86819387994268
 20
-138.6137613585757
 10
87.86819387994268
 20
-138.6137613585757
 10
88.09023028396703
 20
-138.6137613585757
 10
88.09023028396703
 20
-138.6137613585757
 10
88.14535181173103
 20
-138.8125433680746
 10
88.27230358036249
 20
-138.8421711892478
 10
88.36532115846423
 20
-138.8421711892478
 10
88.50501978039111
 20
-138.8421711892478
 10
88.65729300083915
 20
-138.7426079297241
 10
88.65729300083915
 20
-138.5100639844697
 10
88.65729300083915
 20
-138.2540933899157
 10
88.47745901650912
 20
-138.1841579515651
 10
88.35688067452537
 20
-138.1841579515651
 10
88.32518579606106
 20
-138.1841579515651
 10
88.18342011684304
 20
-138.1841579515651
 10
88.09453665332359
 20
-138.313349032262
 10
88.09453665332359
 20
-138.313349032262
 10
87.91900903835011
 20
-138.2944010070931
 10
87.91900903835011
 20
-138.2944010070931
 10
87.91900903835011
 20
-138.2944010070931
 10
88.03958738033386
 20
-137.4479410463672
 10
88.03958738033386
 20
-137.4479410463672
 10
88.03958738033386
 20
-137.4479410463672
 10
88.81800670522605
 20
-137.4479410463672
 10
88.81800670522605
 20
-137.4479410463672
 10
88.81800670522605
 20
-137.4479410463672
 10
88.81800670522605
 20
-137.6425889412838
 10
88.81800670522605
 20
-137.6425889412838
 10
88.81800670522605
 20
-137.6425889412838
 10
88.2023681420119
 20
-137.6425889412838
 10
88.2023681420119
 20
-137.6425889412838
 10
88.2023681420119
 20
-137.6425889412838
 10
88.13691132779216
 20
-138.0656466668725
 10
88.13691132779216
 20
-138.0656466668725
 10
88.1982340274296
 20
-138.031884731117
 10
88.28074406430135
 20
-137.9915771139396
 10
88.39908309421968
 20
-137.9915771139396
 10
88.65298663148259
 20
-137.9915771139396
 10
88.89000920086778
 20
-138.1779567796916
 10
88.89000920086778
 20
-138.4911159593008
 10
88.89000920086778
 20
-138.8084092534924
 10
88.66573348477802
 20
-139.0430202560379
 10
88.36325410117308
 20
-139.0430202560379
 97
        0
 97
        0
 75
     2
 76
     1
 98
        0
  0
ENDBLK
  5
87
330
84
100
AcDbEntity
  8
0
100
AcDbBlockEnd
  0
BLOCK
  5
96
330
94
100
AcDbEntity
  8
0
100
AcDbBlockBegin
  2
block 4
 70
     0
 10
0.0
 20
0.0
 30
0.0
  3
block 4
  1

  0
SPLINE
  5
98
330
94
100
AcDbEntity
  8
_U+30EC_U+30A4_U+30E4_U+30FC 1
370
     0
100
AcDbSpline
210
0.0
220
0.0
230
1.0
 70
    11
 71
     3
 72
    53
 73
    49
 74
     0
 42
0.0000000001
 43
0.0000000001
 12
1.0
 22
0.0
 32
0.0
 13
1.0
 23
0.0
 33
0.0
 40
0.0
 40
0.0
 40
0.0
 40
0.0
 40
1.0
 40
1.0
 40
1.0
 40
2.0
 40
2.0
 40
2.0
 40
3.0
 40
3.0
 40
3.0
 40
4.0
 40
4.0
 40
4.0
 40
5.0
 40
5.0
 40
5.0
 40
6.0
 40
6.0
 40
6.0
 40
7.0
 40
7.0
 40
7.0
 40
8.0
 40
8.0
 40
8.0
 40
9.0
 40
9.0
 40
9.0
 40
10.0
 40
10.0
 40
10.0
 40
11.0
 40
11.0
 40
11.0
 40
12.0
 40
12.0
 40
12.0
 40
13.0
 40
13.0
 40
13.0
 40
14.0
 40
14.0
 40
14.0
 40
15.0
 40
15.0
 40
15.0
 40
16.0
 40
16.0
 40
16.0
 40
16.0
 10
97.77456594777858
 20
-139.0430202560379
 30
0.0
 10
97.69636228026341
 20
-139.0430202560379
 30
0.0
 10
97.59473196344854
 20
-139.0261392881602
 30
0.0
 10
97.49310164663368
 20
-138.9627495312315
 30
0.0
 10
97.31981334372561
 20
-138.8528509852521
 30
0.0
 10
97.29845375171706
 20
-138.721592847264
 30
0.0
 10
97.27950572654818
 20
-138.6137613585757
 30
0.0
 10
97.27950572654818
 20
-138.6137613585757
 30
0.0
 10
97.5017143853468
 20
-138.6137613585757
 30
0.0
 10
97.5017143853468
 20
-138.6137613585757
 30
0.0
 10
97.5568359131108
 20
-138.8125433680746
 30
0.0
 10
97.68361542696799
 20
-138.8421711892478
 30
0.0
 10
97.77663300506974
 20
-138.8421711892478
 30
0.0
 10
97.91615937222235
 20
-138.8421711892478
 30
0.0
 10
98.06877710221892
 20
-138.7426079297241
 30
0.0
 10
98.06877710221892
 20
-138.5100639844697
 30
0.0
 10
98.06877710221892
 20
-138.2540933899157
 30
0.0
 10
97.88894311788889
 20
-138.1841579515651
 30
0.0
 10
97.76836477590514
 20
-138.1841579515651
 30
0.0
 10
97.73666989744083
 20
-138.1841579515651
 30
0.0
 10
97.59473196344854
 20
-138.1841579515651
 30
0.0
 10
97.5058484999291
 20
-138.313349032262
 30
0.0
 10
97.5058484999291
 20
-138.313349032262
 30
0.0
 10
97.33049313972988
 20
-138.2944010070931
 30
0.0
 10
97.33049313972988
 20
-138.2944010070931
 30
0.0
 10
97.33049313972988
 20
-138.2944010070931
 30
0.0
 10
97.45107148171363
 20
-137.4479410463672
 30
0.0
 10
97.45107148171363
 20
-137.4479410463672
 30
0.0
 10
97.45107148171363
 20
-137.4479410463672
 30
0.0
 10
98.22931855183157
 20
-137.4479410463672
 30
0.0
 10
98.22931855183157
 20
-137.4479410463672
 30
0.0
 10
98.22931855183157
 20
-137.4479410463672
 30
0.0
 10
98.22931855183157
 20
-137.6425889412838
 30
0.0
 10
98.22931855183157
 20
-137.6425889412838
 30
0.0
 10
98.22931855183157
 20
-137.6425889412838
 30
0.0
 10
97.61367998861742
 20
-137.6425889412838
 30
0.0
 10
97.61367998861742
 20
-137.6425889412838
 30
0.0
 10
97.61367998861742
 20
-137.6425889412838
 30
0.0
 10
97.54822317439768
 20
-138.0656466668725
 30
0.0
 10
97.54822317439768
 20
-138.0656466668725
 30
0.0
 10
97.60954587403512
 20
-138.031884731117
 30
0.0
 10
97.69222816568112
 20
-137.9915771139396
 30
0.0
 10
97.81039494082518
 20
-137.9915771139396
 30
0.0
 10
98.06429847808809
 20
-137.9915771139396
 30
0.0
 10
98.30132104747328
 20
-138.1779567796916
 30
0.0
 10
98.30132104747328
 20
-138.4911159593008
 30
0.0
 10
98.30132104747328
 20
-138.8084092534924
 30
0.0
 10
98.07704533138352
 20
-139.0430202560379
 30
0.0
 10
97.77456594777858
 20
-139.0430202560379
 30
0.0
  0
HATCH
  5
99
330
94
100
AcDbEntity
  8
_U+30EC_U+30A4_U+30E4_U+30FC 1
 62
   179
420
  2234388
100
AcDbHatch
 10
0.0
 20
0.0
 30
0.0
210
0.0
220
0.0
230
1.0
  2
SOLID
 70
     1
 71
     0
 91
        1
 92
        1
 93
        1
 72
     4
 94
        3
 73
     0
 74
     1
 95
       53
 96
       49
 40
0.0
 40
0.0
 40
0.0
 40
0.0
 40
1.0
 40
1.0
 40
1.0
 40
2.0
 40
2.0
 40
2.0
 40
3.0
 40
3.0
 40
3.0
 40
4.0
 40
4.0
 40
4.0
 40
5.0
 40
5.0
 40
5.0
 40
6.0
 40
6.0
 40
6.0
 40
7.0
 40
7.0
 40
7.0
 40
8.0
 40
8.0
 40
8.0
 40
9.0
 40
9.0
 40
9.0
 40
10.0
 40
10.0
 40
10.0
 40
11.0
 40
11.0
 40
11.0
 40
12.0
 40
12.0
 40
12.0
 40
13.0
 40
13.0
 40
13.0
 40
14.0
 40
14.0
 40
14.0
 40
15.0
 40
15.0
 40
15.0
 40
16.0
 40
16.0
 40
16.0
 40
16.0
 10
97.77456594777858
 20
-139.0430202560379
 10
97.69636228026341
 20
-139.0430202560379
 10
97.59473196344854
 20
-139.0261392881602
 10
97.49310164663368
 20
-138.9627495312315
 10
97.31981334372561
 20
-138.8528509852521
 10
97.29845375171706
 20
-138.721592847264
 10
97.27950572654818
 20
-138.6137613585757
 10
97.27950572654818
 20
-138.6137613585757
 10
97.5017143853468
 20
-138.6137613585757
 10
97.5017143853468
 20
-138.6137613585757
 10
97.5568359131108
 20
-138.8125433680746
 10
97.68361542696799
 20
-138.8421711892478
 10
97.77663300506974
 20
-138.8421711892478
 10
97.91615937222235
 20
-138.8421711892478
 10
98.06877710221892
 20
-138.7426079297241
 10
98.06877710221892
 20
-138.5100639844697
 10
98.06877710221892
 20
-138.2540933899157
 10
97.88894311788889
 20
-138.1841579515651
 10
97.76836477590514
 20
-138.1841579515651
 10
97.73666989744083
 20
-138.1841579515651
 10
97.59473196344854
 20
-138.1841579515651
 10
97.5058484999291
 20
-138.313349032262
 10
97.5058484999291
 20
-138.313349032262
 10
97.33049313972988
 20
-138.2944010070931
 10
97.33049313972988
 20
-138.2944010070931
 10
97.33049313972988
 20
-138.2944010070931
 10
97.45107148171363
 20
-137.4479410463672
 10
97.45107148171363
 20
-137.4479410463672
 10
97.45107148171363
 20
-137.4479410463672
 10
98.22931855183157
 20
-137.4479410463672
 10
98.22931855183157
 20
-137.4479410463672
 10
98.22931855183157
 20
-137.4479410463672
 10
98.22931855183157
 20
-137.6425889412838
 10
98.22931855183157
 20
-137.6425889412838
 10
98.22931855183157
 20
-137.6425889412838
 10
97.61367998861742
 20
-137.6425889412838
 10
97.61367998861742
 20
-137.6425889412838
 10
97.61367998861742
 20
-137.6425889412838
 10
97.54822317439768
 20
-138.0656466668725
 10
97.54822317439768
 20
-138.0656466668725
 10
97.60954587403512
 20
-138.031884731117
 10
97.69222816568112
 20
-137.9915771139396
 10
97.81039494082518
 20
-137.9915771139396
 10
98.06429847808809
 20
-137.9915771139396
 10
98.30132104747328
 20
-138.1779567796916
 10
98.30132104747328
 20
-138.4911159593008
 10
98.30132104747328
 20
-138.8084092534924
 10
98.07704533138352
 20
-139.0430202560379
 10
97.77456594777858
 20
-139.0430202560379
 97
        0
 97
        0
 75
     2
 76
     1
 98
        0
  0
ENDBLK
  5
97
330
94
100
AcDbEntity
  8
0
100
AcDbBlockEnd
  0
ENDSEC
  0
SECTION
  2
ENTITIES
  0
SPLINE
  5
41
330
1F
100
AcDbEntity
  8
_U+30EC_U+30A4_U+30E4_U+30FC 1
370
     0
100
AcDbSpline
210
0.0
220
0.0
230
1.0
 70
    11
 71
     3
 72
    17
 73
    13
 74
     0
 42
0.0000000001
 43
0.0000000001
 12
1.0
 22
0.0
 32
0.0
 13
1.0
 23
0.0
 33
0.0
 40
0.0
 40
0.0
 40
0.0
 40
0.0
 40
1.0
 40
1.0
 40
1.0
 40
2.0
 40
2.0
 40
2.0
 40
3.0
 40
3.0
 40
3.0
 40
4.0
 40
4.0
 40
4.0
 40
4.0
 10
80.2941604515253
 20
-135.285444688401
 30
0.0
 10
80.2941604515253
 20
-135.285444688401
 30
0.0
 10
95.2940971983987
 20
-135.285444688401
 30
0.0
 10
95.2940971983987
 20
-135.285444688401
 30
0.0
 10
95.2940971983987
 20
-135.285444688401
 30
0.0
 10
100.2942963301682
 20
-130.285595800762
 30
0.0
 10
100.2942963301682
 20
-130.285595800762
 30
0.0
 10
100.2942963301682
 20
-130.285595800762
 30
0.0
 10
100.2942963301682
 20
-115.2856258045118
 30
0.0
 10
100.2942963301682
 20
-115.2856258045118
 30
0.0
 10
98.40224332288295
 20
-125.4452377464166
 30
0.0
 10
90.45391324788397
 20
-133.3933916333182
 30
0.0
 10
80.2941604515253
 20
-135.285444688401
 30
0.0
  0
SPLINE
  5
42
330
1F
100
AcDbEntity
  8
_U+30EC_U+30A4_U+30E4_U+30FC 1
370
     0
100
AcDbSpline
210
0.0
220
0.0
230
1.0
 70
    11
 71
     3
 72
    17
 73
    13
 74
     0
 42
0.0000000001
 43
0.0000000001
 12
1.0
 22
0.0
 32
0.0
 13
1.0
 23
0.0
 33
0.0
 40
0.0
 40
0.0
 40
0.0
 40
0.0
 40
1.0
 40
1.0
 40
1.0
 40
2.0
 40
2.0
 40
2.0
 40
3.0
 40
3.0
 40
3.0
 40
4.0
 40
4.0
 40
4.0
 40
4.0
 10
98.79432053510246
 20
-123.7347241357329
 30
0.0
 10
98.79432053510246
 20
-123.7347241357329
 30
0.0
 10
98.79432053510246
 20
-129.6644246898062
 30
0.0
 10
98.79432053510246
 20
-129.6644246898062
 30
0.0
 10
98.79432053510246
 20
-129.6644246898062
 30
0.0
 10
94.67260619581171
 20
-133.7854688554423
 30
0.0
 10
94.67260619581171
 20
-133.7854688554423
 30
0.0
 10
94.67260619581171
 20
-133.7854688554423
 30
0.0
 10
88.7430821804198
 20
-133.7854688554423
 30
0.0
 10
88.7430821804198
 20
-133.7854688554423
 30
0.0
 10
92.94593540652941
 20
-131.4131794115911
 30
0.0
 10
96.4213255956426
 20
-127.9377538569044
 30
0.0
 10
98.79432053510246
 20
-123.7347241357329
 30
0.0
  0
HATCH
  5
43
330
1F
100
AcDbEntity
  8
_U+30EC_U+30A4_U+30E4_U+30FC 1
 62
   251
420
  6710886
100
AcDbHatch
 10
0.0
 20
0.0
 30
0.0
210
0.0
220
0.0
230
1.0
  2
SOLID
 70
     1
 71
     0
 91
        2
 92
        1
 93
        1
 72
     4
 94
        3
 73
     0
 74
     1
 95
       17
 96
       13
 40
0.0
 40
0.0
 40
0.0
 40
0.0
 40
1.0
 40
1.0
 40
1.0
 40
2.0
 40
2.0
 40
2.0
 40
3.0
 40
3.0
 40
3.0
 40
4.0
 40
4.0
 40
4.0
 40
4.0
 10
80.2941604515253
 20
-135.285444688401
 10
80.2941604515253
 20
-135.285444688401
 10
95.2940971983987
 20
-135.285444688401
 10
95.2940971983987
 20
-135.285444688401
 10
95.2940971983987
 20
-135.285444688401
 10
100.2942963301682
 20
-130.285595800762
 10
100.2942963301682
 20
-130.285595800762
 10
100.2942963301682
 20
-130.285595800762
 10
100.2942963301682
 20
-115.2856258045118
 10
100.2942963301682
 20
-115.2856258045118
 10
98.40224332288295
 20
-125.4452377464166
 10
90.45391324788397
 20
-133.3933916333182
 10
80.2941604515253
 20
-135.285444688401
 97
        0
 97
        0
 92
        1
 93
        1
 72
     4
 94
        3
 73
     0
 74
     1
 95
       17
 96
       13
 40
0.0
 40
0.0
 40
0.0
 40
0.0
 40
1.0
 40
1.0
 40
1.0
 40
2.0
 40
2.0
 40
2.0
 40
3.0
 40
3.0
 40
3.0
 40
4.0
 40
4.0
 40
4.0
 40
4.0
 10
98.79432053510246
 20
-123.7347241357329
 10
98.79432053510246
 20
-123.7347241357329
 10
98.79432053510246
 20
-129.6644246898062
 10
98.79432053510246
 20
-129.6644246898062
 10
98.79432053510246
 20
-129.6644246898062
 10
94.67260619581171
 20
-133.7854688554423
 10
94.67260619581171
 20
-133.7854688554423
 10
94.67260619581171
 20
-133.7854688554423
 10
88.7430821804198
 20
-133.7854688554423
 10
88.7430821804198
 20
-133.7854688554423
 10
92.94593540652941
 20
-131.4131794115911
 10
96.4213255956426
 20
-127.9377538569044
 10
98.79432053510246
 20
-123.7347241357329
 97
        0
 97
        0
 75
     2
 76
     1
 98
        0
  0
POLYLINE
  5
44
330
1F
100
AcDbEntity
  8
_U+30EC_U+30A4_U+30E4_U+30FC 1
 62
   179
420
  2234388
370
    25
100
AcDb2dPolyline
 66
     1
 10
0.0
 20
0.0
 30
0.0
  0
VERTEX
  5
45
330
44
100
AcDbEntity
  8
_U+30EC_U+30A4_U+30E4_U+30FC 1
 62
   179
420
  2234388
370
    25
100
AcDbVertex
100
AcDb2dVertex
 10
100.2942963301682
 20
-115.2856258045118
 30
0.0
  0
VERTEX
  5
46
330
44
100
AcDbEntity
  8
_U+30EC_U+30A4_U+30E4_U+30FC 1
 62
   179
420
  2234388
370
    25
100
AcDbVertex
100
AcDb2dVertex
 10
100.2942963301682
 20
-130.285595800762
 30
0.0
  0
SEQEND
  5
47
330
44
100
AcDbEntity
  8
_U+30EC_U+30A4_U+30E4_U+30FC 1
 62
   179
420
  2234388
370
    25
  0
POLYLINE
  5
48
330
1F
100
AcDbEntity
  8
_U+30EC_U+30A4_U+30E4_U+30FC 1
 62
   179
420
  2234388
370
    25
100
AcDb2dPolyline
 66
     1
 10
0.0
 20
0.0
 30
0.0
  0
VERTEX
  5
49
330
48
100
AcDbEntity
  8
_U+30EC_U+30A4_U+30E4_U+30FC 1
 62
   179
420
  2234388
370
    25
100
AcDbVertex
100
AcDb2dVertex
 10
80.2941604515253
 20
-135.285444688401
 30
0.0
  0
VERTEX
  5
4A
330
48
100
AcDbEntity
  8
_U+30EC_U+30A4_U+30E4_U+30FC 1
 62
   179
420
  2234388
370
    25
100
AcDbVertex
100
AcDb2dVertex
 10
95.2940971983987
 20
-135.285444688401
 30
0.0
  0
SEQEND
  5
4B
330
48
100
AcDbEntity
  8
_U+30EC_U+30A4_U+30E4_U+30FC 1
 62
   179
420
  2234388
370
    25
  0
POLYLINE
  5
4C
330
1F
100
AcDbEntity
  8
_U+30EC_U+30A4_U+30E4_U+30FC 1
 62
   179
420
  2234388
370
     9
100
AcDb2dPolyline
 66
     1
 10
0.0
 20
0.0
 30
0.0
  0
VERTEX
  5
4D
330
4C
100
AcDbEntity
  8
_U+30EC_U+30A4_U+30E4_U+30FC 1
 62
   179
420
  2234388
370
     9
100
AcDbVertex
100
AcDb2dVertex
 10
89.85895354084045
 20
-124.8502780243429
 30
0.0
  0
VERTEX
  5
4E
330
4C
100
AcDbEntity
  8
_U+30EC_U+30A4_U+30E4_U+30FC 1
 62
   179
420
  2234388
370
     9
100
AcDbVertex
100
AcDb2dVertex
 10
93.39445706175334
 20
-128.3859580234592
 30
0.0
  0
SEQEND
  5
4F
330
4C
100
AcDbEntity
  8
_U+30EC_U+30A4_U+30E4_U+30FC 1
 62
   179
420
  2234388
370
     9
  0
POLYLINE
  5
50
330
1F
100
AcDbEntity
  8
_U+30EC_U+30A4_U+30E4_U+30FC 1
 62
   179
420
  2234388
370
     9
100
AcDb2dPolyline
 66
     1
 10
0.0
 20
0.0
 30
0.0
  0
VERTEX
  5
51
330
50
100
AcDbEntity
  8
_U+30EC_U+30A4_U+30E4_U+30FC 1
 62
   179
420
  2234388
370
     9
100
AcDbVertex
100
AcDb2dVertex
 10
92.52838763940417
 20
-127.8860719124729
 30
0.0
  0
VERTEX
  5
52
330
50
100
AcDbEntity
  8
_U+30EC_U+30A4_U+30E4_U+30FC 1
 62
   179
420
  2234388
370
     9
100
AcDbVertex
100
AcDb2dVertex
 10
93.39445706175334
 20
-128.3859580234592
 30
0.0
  0
SEQEND
  5
53
330
50
100
AcDbEntity
  8
_U+30EC_U+30A4_U+30E4_U+30FC 1
 62
   179
420
  2234388
370
     9
  0
POLYLINE
  5
54
330
1F
100
AcDbEntity
  8
_U+30EC_U+30A4_U+30E4_U+30FC 1
 62
   179
420
  2234388
370
     9
100
AcDb2dPolyline
 66
     1
 10
0.0
 20
0.0
 30
0.0
  0
VERTEX
  5
55
330
54
100
AcDbEntity
  8
_U+30EC_U+30A4_U+30E4_U+30FC 1
 62
   179
420
  2234388
370
     9
100
AcDbVertex
100
AcDb2dVertex
 10
92.89425346340349
 20
-127.5198533014535
 30
0.0
  0
VERTEX
  5
56
330
54
100
AcDbEntity
  8
_U+30EC_U+30A4_U+30E4_U+30FC 1
 62
   179
420
  2234388
370
     9
100
AcDbVertex
100
AcDb2dVertex
 10
93.39445706175334
 20
-128.3859580234592
 30
0.0
  0
SEQEND
  5
57
330
54
100
AcDbEntity
  8
_U+30EC_U+30A4_U+30E4_U+30FC 1
 62
   179
420
  2234388
370
     9
  0
POLYLINE
  5
58
330
1F
100
AcDbEntity
  8
_U+30EC_U+30A4_U+30E4_U+30FC 1
 62
   179
420
  2234388
370
    25
100
AcDb2dPolyline
 66
     1
 10
0.0
 20
0.0
 30
0.0
  0
VERTEX
  5
59
330
58
100
AcDbEntity
  8
_U+30EC_U+30A4_U+30E4_U+30FC 1
 62
   179
420
  2234388
370
    25
100
AcDbVertex
100
AcDb2dVertex
 10
100.2942963301682
 20
-130.285595800762
 30
0.0
  0
VERTEX
  5
5A
330
58
100
AcDbEntity
  8
_U+30EC_U+30A4_U+30E4_U+30FC 1
 62
   179
420
  2234388
370
    25
100
AcDbVertex
100
AcDb2dVertex
 10
95.2940971983987
 20
-135.285444688401
 30
0.0
  0
SEQEND
  5
5B
330
58
100
AcDbEntity
  8
_U+30EC_U+30A4_U+30E4_U+30FC 1
 62
   179
420
  2234388
370
    25
  0
POLYLINE
  5
5C
330
1F
100
AcDbEntity
  8
_U+30EC_U+30A4_U+30E4_U+30FC 1
 62
   179
420
  2234388
370
    25
100
AcDb2dPolyline
 66
     1
 10
0.0
 20
0.0
 30
0.0
  0
VERTEX
  5
5D
330
5C
100
AcDbEntity
  8
_U+30EC_U+30A4_U+30E4_U+30FC 1
 62
   179
420
  2234388
370
    25
100
AcDbVertex
100
AcDb2dVertex
 10
98.79432053510246
 20
-129.6644246898062
 30
0.0
  0
VERTEX
  5
5E
330
5C
100
AcDbEntity
  8
_U+30EC_U+30A4_U+30E4_U+30FC 1
 62
   179
420
  2234388
370
    25
100
AcDbVertex
100
AcDb2dVertex
 10
94.67260619581171
 20
-133.7854688554423
 30
0.0
  0
SEQEND
  5
5F
330
5C
100
AcDbEntity
  8
_U+30EC_U+30A4_U+30E4_U+30FC 1
 62
   179
420
  2234388
370
    25
  0
POLYLINE
  5
60
330
1F
100
AcDbEntity
  8
_U+30EC_U+30A4_U+30E4_U+30FC 1
 62
   179
420
  2234388
370
    25
100
AcDb2dPolyline
 66
     1
 10
0.0
 20
0.0
 30
0.0
  0
VERTEX
  5
61
330
60
100
AcDbEntity
  8
_U+30EC_U+30A4_U+30E4_U+30FC 1
 62
   179
420
  2234388
370
    25
100
AcDbVertex
100
AcDb2dVertex
 10
98.79432053510246
 20
-123.7347241357329
 30
0.0
  0
VERTEX
  5
62
330
60
100
AcDbEntity
  8
_U+30EC_U+30A4_U+30E4_U+30FC 1
 62
   179
420
  2234388
370
    25
100
AcDbVertex
100
AcDb2dVertex
 10
98.79432053510246
 20
-129.6644246898062
 30
0.0
  0
SEQEND
  5
63
330
60
100
AcDbEntity
  8
_U+30EC_U+30A4_U+30E4_U+30FC 1
 62
   179
420
  2234388
370
    25
  0
POLYLINE
  5
64
330
1F
100
AcDbEntity
  8
_U+30EC_U+30A4_U+30E4_U+30FC 1
 62
   179
420
  2234388
370
    25
100
AcDb2dPolyline
 66
     1
 10
0.0
 20
0.0
 30
0.0
  0
VERTEX
  5
65
330
64
100
AcDbEntity
  8
_U+30EC_U+30A4_U+30E4_U+30FC 1
 62
   179
420
  2234388
370
    25
100
AcDbVertex
100
AcDb2dVertex
 10
88.7430821804198
 20
-133.7854688554423
 30
0.0
  0
VERTEX
  5
66
330
64
100
AcDbEntity
  8
_U+30EC_U+30A4_U+30E4_U+30FC 1
 62
   179
420
  2234388
370
    25
100
AcDbVertex
100
AcDb2dVertex
 10
94.67260619581171
 20
-133.7854688554423
 30
0.0
  0
SEQEND
  5
67
330
64
100
AcDbEntity
  8
_U+30EC_U+30A4_U+30E4_U+30FC 1
 62
   179
420
  2234388
370
    25
  0
SPLINE
  5
68
330
1F
100
AcDbEntity
  8
_U+30EC_U+30A4_U+30E4_U+30FC 1
 62
   179
420
  2234388
370
    25
100
AcDbSpline
210
0.0
220
0.0
230
1.0
 70
     8
 71
     3
 72
     8
 73
     4
 74
     0
 42
0.0000000001
 43
0.0000000001
 12
1.0
 22
0.0
 32
0.0
 13
1.0
 23
0.0
 33
0.0
 40
0.0
 40
0.0
 40
0.0
 40
0.0
 40
1.0
 40
1.0
 40
1.0
 40
1.0
 10
80.2941604515253
 20
-135.285444688401
 30
0.0
 10
90.45391324788397
 20
-133.3933916333182
 30
0.0
 10
98.40224332288295
 20
-125.4452377464166
 30
0.0
 10
100.2942963301682
 20
-115.2856258045118
 30
0.0
  0
SPLINE
  5
69
330
1F
100
AcDbEntity
  8
_U+30EC_U+30A4_U+30E4_U+30FC 1
 62
   179
420
  2234388
370
    25
100
AcDbSpline
210
0.0
220
0.0
230
1.0
 70
     8
 71
     3
 72
     8
 73
     4
 74
     0
 42
0.0000000001
 43
0.0000000001
 12
1.0
 22
0.0
 32
0.0
 13
1.0
 23
0.0
 33
0.0
 40
0.0
 40
0.0
 40
0.0
 40
0.0
 40
1.0
 40
1.0
 40
1.0
 40
1.0
 10
88.7430821804198
 20
-133.7854688554423
 30
0.0
 10
92.94593540652941
 20
-131.4131794115911
 30
0.0
 10
96.4213255956426
 20
-127.9377538569044
 30
0.0
 10
98.79432053510246
 20
-123.7347241357329
 30
0.0
  0
SPLINE
  5
6A
330
1F
100
AcDbEntity
  8
_U+30EC_U+30A4_U+30E4_U+30FC 1
 62
   179
420
  2234388
370
     9
100
AcDbSpline
210
0.0
220
0.0
230
1.0
 70
    11
 71
     3
 72
    17
 73
    13
 74
     0
 42
0.0000000001
 43
0.0000000001
 12
1.0
 22
0.0
 32
0.0
 13
1.0
 23
0.0
 33
0.0
 40
0.0
 40
0.0
 40
0.0
 40
0.0
 40
1.0
 40
1.0
 40
1.0
 40
2.0
 40
2.0
 40
2.0
 40
3.0
 40
3.0
 40
3.0
 40
4.0
 40
4.0
 40
4.0
 40
4.0
 10
80.39424350452754
 20
-139.2855566318451
 30
0.0
 10
80.39424350452754
 20
-139.2304174651926
 30
0.0
 10
80.34944072789277
 20
-139.1856499652034
 30
0.0
 10
80.2941604515253
 20
-139.1856499652034
 30
0.0
 10
80.23884489738097
 20
-139.1856499652034
 30
0.0
 10
80.19425378740748
 20
-139.2304174651926
 30
0.0
 10
80.19425378740748
 20
-139.2855566318451
 30
0.0
 10
80.19425378740748
 20
-139.3406605207206
 30
0.0
 10
80.23884489738097
 20
-139.3854632984867
 30
0.0
 10
80.2941604515253
 20
-139.3854632984867
 30
0.0
 10
80.34944072789277
 20
-139.3854632984867
 30
0.0
 10
80.39424350452754
 20
-139.3406605207206
 30
0.0
 10
80.39424350452754
 20
-139.2855566318451
 30
0.0
  0
SPLINE
  5
6B
330
1F
100
AcDbEntity
  8
_U+30EC_U+30A4_U+30E4_U+30FC 1
 62
   179
420
  2234388
370
     9
100
AcDbSpline
210
0.0
220
0.0
230
1.0
 70
    11
 71
     3
 72
    17
 73
    13
 74
     0
 42
0.0000000001
 43
0.0000000001
 12
1.0
 22
0.0
 32
0.0
 13
1.0
 23
0.0
 33
0.0
 40
0.0
 40
0.0
 40
0.0
 40
0.0
 40
1.0
 40
1.0
 40
1.0
 40
2.0
 40
2.0
 40
2.0
 40
3.0
 40
3.0
 40
3.0
 40
4.0
 40
4.0
 40
4.0
 40
4.0
 10
95.39400145518516
 20
-139.2855566318451
 30
0.0
 10
95.39400145518516
 20
-139.2304174651926
 30
0.0
 10
95.34923395632727
 20
-139.1856499652034
 30
0.0
 10
95.2940971983987
 20
-139.1856499652034
 30
0.0
 10
95.23899090358425
 20
-139.1856499652034
 30
0.0
 10
95.19418812694948
 20
-139.2304174651926
 30
0.0
 10
95.19418812694948
 20
-139.2855566318451
 30
0.0
 10
95.19418812694948
 20
-139.3406605207206
 30
0.0
 10
95.23899090358425
 20
-139.3854632984867
 30
0.0
 10
95.2940971983987
 20
-139.3854632984867
 30
0.0
 10
95.34923395632727
 20
-139.3854632984867
 30
0.0
 10
95.39400145518516
 20
-139.3406605207206
 30
0.0
 10
95.39400145518516
 20
-139.2855566318451
 30
0.0
  0
SPLINE
  5
6C
330
1F
100
AcDbEntity
  8
_U+30EC_U+30A4_U+30E4_U+30FC 1
 62
   179
420
  2234388
370
     9
100
AcDbSpline
210
0.0
220
0.0
230
1.0
 70
    11
 71
     3
 72
    17
 73
    13
 74
     0
 42
0.0000000001
 43
0.0000000001
 12
1.0
 22
0.0
 32
0.0
 13
1.0
 23
0.0
 33
0.0
 40
0.0
 40
0.0
 40
0.0
 40
0.0
 40
1.0
 40
1.0
 40
1.0
 40
2.0
 40
2.0
 40
2.0
 40
3.0
 40
3.0
 40
3.0
 40
4.0
 40
4.0
 40
4.0
 40
4.0
 10
100.3942055304571
 20
-139.2855566318451
 30
0.0
 10
100.3942055304571
 20
-139.2304174651926
 30
0.0
 10
100.3494354954282
 20
-139.1856499652034
 30
0.0
 10
100.2942963301682
 20
-139.1856499652034
 30
0.0
 10
100.2391924426852
 20
-139.1856499652034
 30
0.0
 10
100.1943896660504
 20
-139.2304174651926
 30
0.0
 10
100.1943896660504
 20
-139.2855566318451
 30
0.0
 10
100.1943896660504
 20
-139.3406605207206
 30
0.0
 10
100.2391924426852
 20
-139.3854632984867
 30
0.0
 10
100.2942963301682
 20
-139.3854632984867
 30
0.0
 10
100.3494354954282
 20
-139.3854632984867
 30
0.0
 10
100.3942055304571
 20
-139.3406605207206
 30
0.0
 10
100.3942055304571
 20
-139.2855566318451
 30
0.0
  0
INSERT
  5
6E
330
1F
100
AcDbEntity
  8
_U+30EC_U+30A4_U+30E4_U+30FC 1
100
AcDbBlockReference
  2
block 2
 10
0.0
 20
0.0
 30
0.0
  0
POLYLINE
  5
78
330
1F
100
AcDbEntity
  8
_U+30EC_U+30A4_U+30E4_U+30FC 1
 62
   179
420
  2234388
370
     9
100
AcDb2dPolyline
 66
     1
 10
0.0
 20
0.0
 30
0.0
  0
VERTEX
  5
79
330
78
100
AcDbEntity
  8
_U+30EC_U+30A4_U+30E4_U+30FC 1
 62
   179
420
  2234388
370
     9
100
AcDbVertex
100
AcDb2dVertex
 10
80.2941604515253
 20
-139.2855566318451
 30
0.0
  0
VERTEX
  5
7A
330
78
100
AcDbEntity
  8
_U+30EC_U+30A4_U+30E4_U+30FC 1
 62
   179
420
  2234388
370
     9
100
AcDbVertex
100
AcDb2dVertex
 10
95.2940971983987
 20
-139.2855566318451
 30
0.0
  0
SEQEND
  5
7B
330
78
100
AcDbEntity
  8
_U+30EC_U+30A4_U+30E4_U+30FC 1
 62
   179
420
  2234388
370
     9
  0
POLYLINE
  5
7C
330
1F
100
AcDbEntity
  8
_U+30EC_U+30A4_U+30E4_U+30FC 1
 62
   179
420
  2234388
370
     9
100
AcDb2dPolyline
 66
     1
 10
0.0
 20
0.0
 30
0.0
  0
VERTEX
  5
7D
330
7C
100
AcDbEntity
  8
_U+30EC_U+30A4_U+30E4_U+30FC 1
 62
   179
420
  2234388
370
     9
100
AcDbVertex
100
AcDb2dVertex
 10
80.2941604515253
 20
-137.8255152433213
 30
0.0
  0
VERTEX
  5
7E
330
7C
100
AcDbEntity
  8
_U+30EC_U+30A4_U+30E4_U+30FC 1
 62
   179
420
  2234388
370
     9
100
AcDbVertex
100
AcDb2dVertex
 10
80.2941604515253
 20
-140.2856816315953
 30
0.0
  0
SEQEND
  5
7F
330
7C
100
AcDbEntity
  8
_U+30EC_U+30A4_U+30E4_U+30FC 1
 62
   179
420
  2234388
370
     9
  0
POLYLINE
  5
80
330
1F
100
AcDbEntity
  8
_U+30EC_U+30A4_U+30E4_U+30FC 1
 62
   179
420
  2234388
370
     9
100
AcDb2dPolyline
 66
     1
 10
0.0
 20
0.0
 30
0.0
  0
VERTEX
  5
81
330
80
100
AcDbEntity
  8
_U+30EC_U+30A4_U+30E4_U+30FC 1
 62
   179
420
  2234388
370
     9
100
AcDbVertex
100
AcDb2dVertex
 10
95.2940971983987
 20
-137.8255152433213
 30
0.0
  0
VERTEX
  5
82
330
80
100
AcDbEntity
  8
_U+30EC_U+30A4_U+30E4_U+30FC 1
 62
   179
420
  2234388
370
     9
100
AcDbVertex
100
AcDb2dVertex
 10
95.2940971983987
 20
-140.2856816315953
 30
0.0
  0
SEQEND
  5
83
330
80
100
AcDbEntity
  8
_U+30EC_U+30A4_U+30E4_U+30FC 1
 62
   179
420
  2234388
370
     9
  0
INSERT
  5
85
330
1F
100
AcDbEntity
  8
_U+30EC_U+30A4_U+30E4_U+30FC 1
100
AcDbBlockReference
  2
block 3
 10
0.0
 20
0.0
 30
0.0
  0
POLYLINE
  5
8C
330
1F
100
AcDbEntity
  8
_U+30EC_U+30A4_U+30E4_U+30FC 1
 62
   179
420
  2234388
370
     9
100
AcDb2dPolyline
 66
     1
 10
0.0
 20
0.0
 30
0.0
  0
VERTEX
  5
8D
330
8C
100
AcDbEntity
  8
_U+30EC_U+30A4_U+30E4_U+30FC 1
 62
   179
420
  2234388
370
     9
100
AcDbVertex
100
AcDb2dVertex
 10
95.2940971983987
 20
-139.2855566318451
 30
0.0
  0
VERTEX
  5
8E
330
8C
100
AcDbEntity
  8
_U+30EC_U+30A4_U+30E4_U+30FC 1
 62
   179
420
  2234388
370
     9
100
AcDbVertex
100
AcDb2dVertex
 10
100.2942963301682
 20
-139.2855566318451
 30
0.0
  0
SEQEND
  5
8F
330
8C
100
AcDbEntity
  8
_U+30EC_U+30A4_U+30E4_U+30FC 1
 62
   179
420
  2234388
370
     9
  0
POLYLINE
  5
90
330
1F
100
AcDbEntity
  8
_U+30EC_U+30A4_U+30E4_U+30FC 1
 62
   179
420
  2234388
370
     9
100
AcDb2dPolyline
 66
     1
 10
0.0
 20
0.0
 30
0.0
  0
VERTEX
  5
91
330
90
100
AcDbEntity
  8
_U+30EC_U+30A4_U+30E4_U+30FC 1
 62
   179
420
  2234388
370
     9
100
AcDbVertex
100
AcDb2dVertex
 10
100.2942963301682
 20
-132.8256663556823
 30
0.0
  0
VERTEX
  5
92
330
90
100
AcDbEntity
  8
_U+30EC_U+30A4_U+30E4_U+30FC 1
 62
   179
420
  2234388
370
     9
100
AcDbVertex
100
AcDb2dVertex
 10
100.2942963301682
 20
-140.2856816315953
 30
0.0
  0
SEQEND
  5
93
330
90
100
AcDbEntity
  8
_U+30EC_U+30A4_U+30E4_U+30FC 1
 62
   179
420
  2234388
370
     9
  0
INSERT
  5
95
330
1F
100
AcDbEntity
  8
_U+30EC_U+30A4_U+30E4_U+30FC 1
100
AcDbBlockReference
  2
block 4
 10
0.0
 20
0.0
 30
0.0
  0
ENDSEC
  0
SECTION
  2
OBJECTS
  0
DICTIONARY
  5
C
330
0
100
AcDbDictionary
281
     1
  3
ACAD_GROUP
350
D
  3
ACAD_LAYOUT
350
1A
  3
ACAD_MATERIAL
350
3B
  3
ACAD_MLEADERSTYLE
350
9B
  3
ACAD_MLINESTYLE
350
17
  3
ACAD_PLOTSETTINGS
350
19
  3
ACAD_PLOTSTYLENAME
350
E
  3
ACAD_TABLESTYLE
350
9A
  3
ACAD_VISUALSTYLE
350
2A
  0
SUN
  5
3F
330
29
100
AcDbSun
 90
        1
290
     0
 63
     7
421
 16777215
 40
1.0
291
     1
 91
  2455826
 92
 54000000
292
     0
 70
     2
 71
   256
280
     1
  0
DICTIONARY
  5
D
102
{ACAD_REACTORS
330
C
102
}
330
C
100
AcDbDictionary
281
     1
  0
DICTIONARY
  5
1A
102
{ACAD_REACTORS
330
C
102
}
330
C
100
AcDbDictionary
281
     1
  3
Layout1
350
1E
  3
Layout2
350
26
  3
Model
350
22
  0
DICTIONARY
  5
3B
102
{ACAD_REACTORS
330
C
102
}
330
C
100
AcDbDictionary
281
     1
  3
ByBlock
350
3D
  3
ByLayer
350
3C
  3
Global
350
3E
  0
DICTIONARY
  5
9B
102
{ACAD_REACTORS
330
C
102
}
330
C
100
AcDbDictionary
281
     1
  0
DICTIONARY
  5
17
102
{ACAD_REACTORS
330
C
102
}
330
C
100
AcDbDictionary
281
     1
  3
Standard
350
18
  0
DICTIONARY
  5
19
102
{ACAD_REACTORS
330
C
102
}
330
C
100
AcDbDictionary
281
     1
  0
ACDBDICTIONARYWDFLT
  5
E
102
{ACAD_REACTORS
330
C
102
}
330
C
100
AcDbDictionary
281
     1
  3
Normal
350
F
100
AcDbDictionaryWithDefault
340
F
  0
DICTIONARY
  5
9A
102
{ACAD_REACTORS
330
C
102
}
330
C
100
AcDbDictionary
281
     1
  0
DICTIONARY
  5
2A
102
{ACAD_REACTORS
330
C
102
}
330
C
100
AcDbDictionary
281
     1
  3
2dWireframe
350
2F
  3
3D Hidden
350
31
  3
3dWireframe
350
30
  3
Basic
350
32
  3
Brighten
350
36
  3
ColorChange
350
3A
  3
Conceptual
350
34
  3
Dim
350
35
  3
Facepattern
350
39
  3
Flat
350
2B
  3
FlatWithEdges
350
2C
  3
Gouraud
350
2D
  3
GouraudWithEdges
350
2E
  3
Linepattern
350
38
  3
Realistic
350
33
  3
Thicken
350
37
  0
LAYOUT
  5
1E
102
{ACAD_REACTORS
330
1A
102
}
330
1A
100
AcDbPlotSettings
  1

  2
none_device
  4

  6

 40
0.0
 41
0.0
 42
0.0
 43
0.0
 44
0.0
 45
0.0
 46
0.0
 47
0.0
 48
0.0
 49
0.0
140
0.0
141
0.0
142
1.0
143
1.0
 70
   688
 72
     0
 73
     0
 74
     5
  7

 75
    16
 76
     0
 77
     2
 78
   300
147
1.0
148
0.0
149
0.0
100
AcDbLayout
  1
Layout1
 70
     1
 71
     1
 10
0.0
 20
0.0
 11
12.0
 21
9.0
 12
0.0
 22
0.0
 32
0.0
 14
1.000000000000000E+20
 24
1.000000000000000E+20
 34
1.000000000000000E+20
 15
-1.000000000000000E+20
 25
-1.000000000000000E+20
 35
-1.000000000000000E+20
146
0.0
 13
0.0
 23
0.0
 33
0.0
 16
1.0
 26
0.0
 36
0.0
 17
0.0
 27
1.0
 37
0.0
 76
     0
330
1B
  0
LAYOUT
  5
26
102
{ACAD_REACTORS
330
1A
102
}
330
1A
100
AcDbPlotSettings
  1

  2
none_device
  4

  6

 40
0.0
 41
0.0
 42
0.0
 43
0.0
 44
0.0
 45
0.0
 46
0.0
 47
0.0
 48
0.0
 49
0.0
140
0.0
141
0.0
142
1.0
143
1.0
 70
   688
 72
     0
 73
     0
 74
     5
  7

 75
    16
 76
     0
 77
     2
 78
   300
147
1.0
148
0.0
149
0.0
100
AcDbLayout
  1
Layout2
 70
     1
 71
     2
 10
0.0
 20
0.0
 11
0.0
 21
0.0
 12
0.0
 22
0.0
 32
0.0
 14
0.0
 24
0.0
 34
0.0
 15
0.0
 25
0.0
 35
0.0
146
0.0
 13
0.0
 23
0.0
 33
0.0
 16
1.0
 26
0.0
 36
0.0
 17
0.0
 27
1.0
 37
0.0
 76
     0
330
23
  0
LAYOUT
  5
22
102
{ACAD_REACTORS
330
1A
102
}
330
1A
100
AcDbPlotSettings
  1

  2
none_device
  4

  6

 40
0.0
 41
0.0
 42
0.0
 43
0.0
 44
0.0
 45
0.0
 46
0.0
 47
0.0
 48
0.0
 49
0.0
140
0.0
141
0.0
142
1.0
143
1.0
 70
  1712
 72
     0
 73
     0
 74
     0
  7

 75
     0
 76
     0
 77
     2
 78
   300
147
1.0
148
0.0
149
0.0
100
AcDbLayout
  1
Model
 70
     1
 71
     0
 10
0.0
 20
0.0
 11
12.0
 21
9.0
 12
0.0
 22
0.0
 32
0.0
 14
1.000000000000000E+20
 24
1.000000000000000E+20
 34
1.000000000000000E+20
 15
-1.000000000000000E+20
 25
-1.000000000000000E+20
 35
-1.000000000000000E+20
146
0.0
 13
0.0
 23
0.0
 33
0.0
 16
1.0
 26
0.0
 36
0.0
 17
0.0
 27
1.0
 37
0.0
 76
     0
330
1F
331
29
  0
MATERIAL
  5
3D
102
{ACAD_REACTORS
330
3B
102
}
330
3B
100
AcDbMaterial
  1
ByBlock
 72
     1
 94
      127
  0
MATERIAL
  5
3C
102
{ACAD_REACTORS
330
3B
102
}
330
3B
100
AcDbMaterial
  1
ByLayer
 72
     1
 94
      127
  0
MATERIAL
  5
3E
102
{ACAD_REACTORS
330
3B
102
}
330
3B
100
AcDbMaterial
  1
Global
 72
     1
 94
      127
  0
MLINESTYLE
  5
18
102
{ACAD_REACTORS
330
17
102
}
330
17
100
AcDbMlineStyle
  2
Standard
 70
     0
  3

 62
   256
 51
90.0
 52
90.0
 71
     2
 49
0.5
 62
   256
  6
BYLAYER
 49
-0.5
 62
   256
  6
BYLAYER
  0
ACDBPLACEHOLDER
  5
F
102
{ACAD_REACTORS
330
E
102
}
330
E
  0
VISUALSTYLE
  5
2F
102
{ACAD_REACTORS
330
2A
102
}
330
2A
100
AcDbVisualStyle
  2
2dWireframe
 70
     4
177
     2
291
     0
 71
     0
176
     1
 72
     2
176
     1
 73
     0
176
     1
 90
        0
176
     1
 40
-0.6
176
     1
 41
-30.0
176
     1
 62
     5
 63
     7
421
 16777215
176
     1
 74
     1
176
     1
 91
        4
176
     1
 64
     7
176
     1
 65
   257
176
     1
 75
     1
176
     1
175
     1
176
     1
 42
1.0
176
     1
 92
        0
176
     1
 66
   257
176
     1
 43
1.0
176
     1
 76
     1
176
     1
 77
     6
176
     1
 78
     2
176
     1
 67
     7
176
     1
 79
     5
176
     1
170
     0
176
     1
171
     0
176
     1
290
     0
176
     1
 93
        1
176
     1
 44
0.0
176
     1
173
     0
176
     1
  0
VISUALSTYLE
  5
31
102
{ACAD_REACTORS
330
2A
102
}
330
2A
100
AcDbVisualStyle
  2
3D Hidden
 70
     6
177
     2
291
     0
 71
     1
176
     1
 72
     2
176
     1
 73
     2
176
     1
 90
        0
176
     1
 40
-0.6
176
     1
 41
-30.0
176
     1
 62
     5
 63
     7
421
 16777215
176
     1
 74
     2
176
     1
 91
        2
176
     1
 64
     7
176
     1
 65
   257
176
     1
 75
     2
176
     1
175
     1
176
     1
 42
40.0
176
     1
 92
        0
176
     1
 66
   257
176
     1
 43
1.0
176
     1
 76
     1
176
     1
 77
     6
176
     1
 78
     2
176
     1
 67
     7
176
     1
 79
     3
176
     1
170
     0
176
     1
171
     0
176
     1
290
     0
176
     1
 93
        1
176
     1
 44
0.0
176
     1
173
     0
176
     1
  0
VISUALSTYLE
  5
30
102
{ACAD_REACTORS
330
2A
102
}
330
2A
100
AcDbVisualStyle
  2
3dWireframe
 70
     5
177
     2
291
     0
 71
     0
176
     1
 72
     2
176
     1
 73
     0
176
     1
 90
        0
176
     1
 40
-0.6
176
     1
 41
-30.0
176
     1
 62
     5
 63
     7
421
 16777215
176
     1
 74
     1
176
     1
 91
        4
176
     1
 64
     7
176
     1
 65
   257
176
     1
 75
     1
176
     1
175
     1
176
     1
 42
1.0
176
     1
 92
        0
176
     1
 66
   257
176
     1
 43
1.0
176
     1
 76
     1
176
     1
 77
     6
176
     1
 78
     2
176
     1
 67
     7
176
     1
 79
     5
176
     1
170
     0
176
     1
171
     0
176
     1
290
     0
176
     1
 93
        1
176
     1
 44
0.0
176
     1
173
     0
176
     1
  0
VISUALSTYLE
  5
32
102
{ACAD_REACTORS
330
2A
102
}
330
2A
100
AcDbVisualStyle
  2
Basic
 70
     7
177
     2
291
     1
 71
     1
176
     1
 72
     0
176
     1
 73
     1
176
     1
 90
        0
176
     1
 40
-0.6
176
     1
 41
-30.0
176
     1
 62
     5
 63
     7
421
 16777215
176
     1
 74
     0
176
     1
 91
        4
176
     1
 64
     7
176
     1
 65
   257
176
     1
 75
     1
176
     1
175
     1
176
     1
 42
1.0
176
     1
 92
        8
176
     1
 66
     7
176
     1
 43
1.0
176
     1
 76
     1
176
     1
 77
     6
176
     1
 78
     2
176
     1
 67
     7
176
     1
 79
     5
176
     1
170
     0
176
     1
171
     0
176
     1
290
     0
176
     1
 93
        1
176
     1
 44
0.0
176
     1
173
     0
176
     1
  0
VISUALSTYLE
  5
36
102
{ACAD_REACTORS
330
2A
102
}
330
2A
100
AcDbVisualStyle
  2
Brighten
 70
    12
177
     2
291
     1
 71
     2
176
     1
 72
     2
176
     1
 73
     0
176
     1
 90
        0
176
     1
 40
-0.6
176
     1
 41
-30.0
176
     1
 62
     5
 63
     7
421
 16777215
176
     1
 74
     1
176
     1
 91
        4
176
     1
 64
     7
176
     1
 65
   257
176
     1
 75
     1
176
     1
175
     1
176
     1
 42
1.0
176
     1
 92
        8
176
     1
 66
     7
176
     1
 43
1.0
176
     1
 76
     1
176
     1
 77
     6
176
     1
 78
     2
176
     1
 67
     7
176
     1
 79
     5
176
     1
170
     0
176
     1
171
     0
176
     1
290
     0
176
     1
 93
        1
176
     1
 44
50.0
176
     1
173
     0
176
     1
  0
VISUALSTYLE
  5
3A
102
{ACAD_REACTORS
330
2A
102
}
330
2A
100
AcDbVisualStyle
  2
ColorChange
 70
    16
177
     2
291
     1
 71
     2
176
     1
 72
     2
176
     1
 73
     3
176
     1
 90
        0
176
     1
 40
-0.6
176
     1
 41
-30.0
176
     1
 62
     5
 63
     8
421
  8421504
176
     1
 74
     1
176
     1
 91
        4
176
     1
 64
     7
176
     1
 65
   257
176
     1
 75
     1
176
     1
175
     1
176
     1
 42
1.0
176
     1
 92
        8
176
     1
 66
     8
424
  8421504
176
     1
 43
1.0
176
     1
 76
     1
176
     1
 77
     6
176
     1
 78
     2
176
     1
 67
     7
176
     1
 79
     5
176
     1
170
     0
176
     1
171
     0
176
     1
290
     0
176
     1
 93
        1
176
     1
 44
0.0
176
     1
173
     0
176
     1
  0
VISUALSTYLE
  5
34
102
{ACAD_REACTORS
330
2A
102
}
330
2A
100
AcDbVisualStyle
  2
Conceptual
 70
     9
177
     2
291
     0
 71
     3
176
     1
 72
     2
176
     1
 73
     0
176
     1
 90
        0
176
     1
 40
-0.6
176
     1
 41
-30.0
176
     1
 62
     5
 63
     7
421
 16777215
176
     1
 74
     2
176
     1
 91
        2
176
     1
 64
     7
176
     1
 65
   257
176
     1
 75
     1
176
     1
175
     1
176
     1
 42
40.0
176
     1
 92
        8
176
     1
 66
     7
176
     1
 43
1.0
176
     1
 76
     1
176
     1
 77
     6
176
     1
 78
     2
176
     1
 67
     7
176
     1
 79
     3
176
     1
170
     0
176
     1
171
     0
176
     1
290
     0
176
     1
 93
        1
176
     1
 44
0.0
176
     1
173
     0
176
     1
  0
VISUALSTYLE
  5
35
102
{ACAD_REACTORS
330
2A
102
}
330
2A
100
AcDbVisualStyle
  2
Dim
 70
    11
177
     2
291
     1
 71
     2
176
     1
 72
     2
176
     1
 73
     0
176
     1
 90
        0
176
     1
 40
-0.6
176
     1
 41
-30.0
176
     1
 62
     5
 63
     7
421
 16777215
176
     1
 74
     1
176
     1
 91
        4
176
     1
 64
     7
176
     1
 65
   257
176
     1
 75
     1
176
     1
175
     1
176
     1
 42
1.0
176
     1
 92
        8
176
     1
 66
     7
176
     1
 43
1.0
176
     1
 76
     1
176
     1
 77
     6
176
     1
 78
     2
176
     1
 67
     7
176
     1
 79
     5
176
     1
170
     0
176
     1
171
     0
176
     1
290
     0
176
     1
 93
        1
176
     1
 44
-50.0
176
     1
173
     0
176
     1
  0
VISUALSTYLE
  5
39
102
{ACAD_REACTORS
330
2A
102
}
330
2A
100
AcDbVisualStyle
  2
Facepattern
 70
    15
177
     2
291
     1
 71
     2
176
     1
 72
     2
176
     1
 73
     0
176
     1
 90
        0
176
     1
 40
-0.6
176
     1
 41
-30.0
176
     1
 62
     5
 63
     7
421
 16777215
176
     1
 74
     1
176
     1
 91
        4
176
     1
 64
     7
176
     1
 65
   257
176
     1
 75
     1
176
     1
175
     1
176
     1
 42
1.0
176
     1
 92
        8
176
     1
 66
     7
176
     1
 43
1.0
176
     1
 76
     1
176
     1
 77
     6
176
     1
 78
     2
176
     1
 67
     7
176
     1
 79
     5
176
     1
170
     0
176
     1
171
     0
176
     1
290
     0
176
     1
 93
        1
176
     1
 44
0.0
176
     1
173
     0
176
     1
  0
VISUALSTYLE
  5
2B
102
{ACAD_REACTORS
330
2A
102
}
330
2A
100
AcDbVisualStyle
  2
Flat
 70
     0
177
     2
291
     1
 71
     2
176
     1
 72
     1
176
     1
 73
     1
176
     1
 90
        2
176
     1
 40
-0.6
176
     1
 41
30.0
176
     1
 62
     5
 63
     7
421
 16777215
176
     1
 74
     0
176
     1
 91
        4
176
     1
 64
     7
176
     1
 65
   257
176
     1
 75
     1
176
     1
175
     1
176
     1
 42
1.0
176
     1
 92
        8
176
     1
 66
     7
176
     1
 43
1.0
176
     1
 76
     1
176
     1
 77
     6
176
     1
 78
     2
176
     1
 67
     7
176
     1
 79
     5
176
     1
170
     0
176
     1
171
     0
176
     1
290
     0
176
     1
 93
       13
176
     1
 44
0.0
176
     1
173
     0
176
     1
  0
VISUALSTYLE
  5
2C
102
{ACAD_REACTORS
330
2A
102
}
330
2A
100
AcDbVisualStyle
  2
FlatWithEdges
 70
     1
177
     2
291
     1
 71
     2
176
     1
 72
     1
176
     1
 73
     1
176
     1
 90
        2
176
     1
 40
-0.6
176
     1
 41
30.0
176
     1
 62
     5
 63
     7
421
 16777215
176
     1
 74
     1
176
     1
 91
        4
176
     1
 64
     7
176
     1
 65
   257
176
     1
 75
     1
176
     1
175
     1
176
     1
 42
1.0
176
     1
 92
        0
176
     1
 66
   257
176
     1
 43
1.0
176
     1
 76
     1
176
     1
 77
     6
176
     1
 78
     2
176
     1
 67
     7
176
     1
 79
     5
176
     1
170
     0
176
     1
171
     0
176
     1
290
     0
176
     1
 93
       13
176
     1
 44
0.0
176
     1
173
     0
176
     1
  0
VISUALSTYLE
  5
2D
102
{ACAD_REACTORS
330
2A
102
}
330
2A
100
AcDbVisualStyle
  2
Gouraud
 70
     2
177
     2
291
     1
 71
     2
176
     1
 72
     2
176
     1
 73
     1
176
     1
 90
        2
176
     1
 40
-0.6
176
     1
 41
30.0
176
     1
 62
     5
 63
     7
421
 16777215
176
     1
 74
     0
176
     1
 91
        4
176
     1
 64
     7
176
     1
 65
   257
176
     1
 75
     1
176
     1
175
     1
176
     1
 42
1.0
176
     1
 92
        0
176
     1
 66
     7
176
     1
 43
1.0
176
     1
 76
     1
176
     1
 77
     6
176
     1
 78
     2
176
     1
 67
     7
176
     1
 79
     5
176
     1
170
     0
176
     1
171
     0
176
     1
290
     0
176
     1
 93
       13
176
     1
 44
0.0
176
     1
173
     0
176
     1
  0
VISUALSTYLE
  5
2E
102
{ACAD_REACTORS
330
2A
102
}
330
2A
100
AcDbVisualStyle
  2
GouraudWithEdges
 70
     3
177
     2
291
     1
 71
     2
176
     1
 72
     2
176
     1
 73
     1
176
     1
 90
        2
176
     1
 40
-0.6
176
     1
 41
30.0
176
     1
 62
     5
 63
     7
421
 16777215
176
     1
 74
     1
176
     1
 91
        4
176
     1
 64
     7
176
     1
 65
   257
176
     1
 75
     1
176
     1
175
     1
176
     1
 42
1.0
176
     1
 92
        0
176
     1
 66
   257
176
     1
 43
1.0
176
     1
 76
     1
176
     1
 77
     6
176
     1
 78
     2
176
     1
 67
     7
176
     1
 79
     5
176
     1
170
     0
176
     1
171
     0
176
     1
290
     0
176
     1
 93
       13
176
     1
 44
0.0
176
     1
173
     0
176
     1
  0
VISUALSTYLE
  5
38
102
{ACAD_REACTORS
330
2A
102
}
330
2A
100
AcDbVisualStyle
  2
Linepattern
 70
    14
177
     2
291
     1
 71
     2
176
     1
 72
     2
176
     1
 73
     0
176
     1
 90
        0
176
     1
 40
-0.6
176
     1
 41
-30.0
176
     1
 62
     5
 63
     7
421
 16777215
176
     1
 74
     1
176
     1
 91
        4
176
     1
 64
     7
176
     1
 65
   257
176
     1
 75
     7
176
     1
175
     7
176
     1
 42
1.0
176
     1
 92
        8
176
     1
 66
     7
176
     1
 43
1.0
176
     1
 76
     1
176
     1
 77
     6
176
     1
 78
     2
176
     1
 67
     7
176
     1
 79
     5
176
     1
170
     0
176
     1
171
     0
176
     1
290
     0
176
     1
 93
        1
176
     1
 44
0.0
176
     1
173
     0
176
     1
  0
VISUALSTYLE
  5
33
102
{ACAD_REACTORS
330
2A
102
}
330
2A
100
AcDbVisualStyle
  2
Realistic
 70
     8
177
     2
291
     0
 71
     2
176
     1
 72
     2
176
     1
 73
     0
176
     1
 90
        0
176
     1
 40
-0.6
176
     1
 41
-30.0
176
     1
 62
     5
 63
     7
421
 16777215
176
     1
 74
     1
176
     1
 91
        0
176
     1
 64
     7
176
     1
 65
   257
176
     1
 75
     1
176
     1
175
     1
176
     1
 42
1.0
176
     1
 92
        8
176
     1
 66
     8
424
  7895160
176
     1
 43
1.0
176
     1
 76
     1
176
     1
 77
     6
176
     1
 78
     2
176
     1
 67
     7
176
     1
 79
     5
176
     1
170
     0
176
     1
171
     0
176
     1
290
     0
176
     1
 93
       13
176
     1
 44
0.0
176
     1
173
     0
176
     1
  0
VISUALSTYLE
  5
37
102
{ACAD_REACTORS
330
2A
102
}
330
2A
100
AcDbVisualStyle
  2
Thicken
 70
    13
177
     2
291
     1
 71
     2
176
     1
 72
     2
176
     1
 73
     0
176
     1
 90
        0
176
     1
 40
-0.6
176
     1
 41
-30.0
176
     1
 62
     5
 63
     7
421
 16777215
176
     1
 74
     1
176
     1
 91
        4
176
     1
 64
     7
176
     1
 65
   257
176
     1
 75
     1
176
     1
175
     1
176
     1
 42
1.0
176
     1
 92
       12
176
     1
 66
     7
176
     1
 43
1.0
176
     1
 76
     1
176
     1
 77
     6
176
     1
 78
     2
176
     1
 67
     7
176
     1
 79
     5
176
     1
170
     0
176
     1
171
     0
176
     1
290
     0
176
     1
 93
        1
176
     1
 44
0.0
176
     1
173
     0
176
     1
  0
ENDSEC
  0
EOF
