  0
SECTION
  2
HEADER
  9
$ACADVER
  1
AC1024
  9
$ACADMAINTVER
 70
     6
  9
$DWGCODEPAGE
  3
UNDEFINED
  9
$INSBASE
 10
0.0
 20
0.0
 30
0.0
  9
$EXTMIN
 10
1.000000000000000E+20
 20
1.000000000000000E+20
 30
1.000000000000000E+20
  9
$EXTMAX
 10
-1.000000000000000E+20
 20
-1.000000000000000E+20
 30
-1.000000000000000E+20
  9
$LIMMIN
 10
0.0
 20
0.0
  9
$LIMMAX
 10
12.0
 20
9.0
  9
$ORTHOMODE
 70
     0
  9
$REGENMODE
 70
     1
  9
$FILLMODE
 70
     1
  9
$QTEXTMODE
 70
     0
  9
$MIRRTEXT
 70
     1
  9
$LTSCALE
 40
1.0
  9
$ATTMODE
 70
     1
  9
$TEXTSIZE
 40
0.2
  9
$TRACEWID
 40
0.05
  9
$TEXTSTYLE
  7
Standard
  9
$CLAYER
  8
0
  9
$CELTYPE
  6
ByLayer
  9
$CECOLOR
 62
   256
  9
$CELTSCALE
 40
1.0
  9
$DISPSILH
 70
     0
  9
$DIMSCALE
 40
1.0
  9
$DIMASZ
 40
0.18
  9
$DIMEXO
 40
0.0625
  9
$DIMDLI
 40
0.38
  9
$DIMRND
 40
0.0
  9
$DIMDLE
 40
0.0
  9
$DIMEXE
 40
0.18
  9
$DIMTP
 40
0.0
  9
$DIMTM
 40
0.0
  9
$DIMTXT
 40
0.18
  9
$DIMCEN
 40
0.09
  9
$DIMTSZ
 40
0.0
  9
$DIMTOL
 70
     0
  9
$DIMLIM
 70
     0
  9
$DIMTIH
 70
     1
  9
$DIMTOH
 70
     1
  9
$DIMSE1
 70
     0
  9
$DIMSE2
 70
     0
  9
$DIMTAD
 70
     0
  9
$DIMZIN
 70
     0
  9
$DIMBLK
  1

  9
$DIMASO
 70
     1
  9
$DIMSHO
 70
     1
  9
$DIMPOST
  1

  9
$DIMAPOST
  1

  9
$DIMALT
 70
     0
  9
$DIMALTD
 70
     2
  9
$DIMALTF
 40
25.4
  9
$DIMLFAC
 40
1.0
  9
$DIMTOFL
 70
     0
  9
$DIMTVP
 40
0.0
  9
$DIMTIX
 70
     0
  9
$DIMSOXD
 70
     0
  9
$DIMSAH
 70
     0
  9
$DIMBLK1
  1

  9
$DIMBLK2
  1

  9
$DIMSTYLE
  2
Standard
  9
$DIMCLRD
 70
     0
  9
$DIMCLRE
 70
     0
  9
$DIMCLRT
 70
     0
  9
$DIMTFAC
 40
1.0
  9
$DIMGAP
 40
0.09
  9
$DIMJUST
 70
     0
  9
$DIMSD1
 70
     0
  9
$DIMSD2
 70
     0
  9
$DIMTOLJ
 70
     1
  9
$DIMTZIN
 70
     0
  9
$DIMALTZ
 70
     0
  9
$DIMALTTZ
 70
     0
  9
$DIMUPT
 70
     0
  9
$DIMDEC
 70
     4
  9
$DIMTDEC
 70
     4
  9
$DIMALTU
 70
     2
  9
$DIMALTTD
 70
     2
  9
$DIMTXSTY
  7
Standard
  9
$DIMAUNIT
 70
     0
  9
$DIMADEC
 70
     0
  9
$DIMALTRND
 40
0.0
  9
$DIMAZIN
 70
     0
  9
$DIMDSEP
 70
    46
  9
$DIMATFIT
 70
     3
  9
$DIMFRAC
 70
     0
  9
$DIMLDRBLK
  1

  9
$DIMLUNIT
 70
     2
  9
$DIMLWD
 70
    -2
  9
$DIMLWE
 70
    -2
  9
$DIMTMOVE
 70
     0
  9
$DIMFXL
 40
1.0
  9
$DIMFXLON
 70
     0
  9
$DIMJOGANG
 40
0.7853981633974483
  9
$DIMTFILL
 70
     0
  9
$DIMTFILLCLR
 70
     0
  9
$DIMARCSYM
 70
     0
  9
$DIMLTYPE
  6

  9
$DIMLTEX1
  6

  9
$DIMLTEX2
  6

  9
$DIMTXTDIRECTION
 70
     0
  9
$LUNITS
 70
     2
  9
$LUPREC
 70
     4
  9
$SKETCHINC
 40
0.1
  9
$FILLETRAD
 40
0.5
  9
$AUNITS
 70
     0
  9
$AUPREC
 70
     0
  9
$MENU
  1
.
  9
$ELEVATION
 40
0.0
  9
$PELEVATION
 40
0.0
  9
$THICKNESS
 40
0.0
  9
$LIMCHECK
 70
     0
  9
$CHAMFERA
 40
0.5
  9
$CHAMFERB
 40
0.5
  9
$CHAMFERC
 40
1.0
  9
$CHAMFERD
 40
0.0
  9
$SKPOLY
 70
     0
  9
$TDCREATE
 40
2457917.636585648
  9
$TDUCREATE
 40
2457917.261585648
  9
$TDUPDATE
 40
2457917.636585648
  9
$TDUUPDATE
 40
2457917.261585648
  9
$TDINDWG
 40
0.0000000116
  9
$TDUSRTIMER
 40
0.0000000116
  9
$USRTIMER
 70
     1
  9
$ANGBASE
 50
0.0
  9
$ANGDIR
 70
     0
  9
$PDMODE
 70
     0
  9
$PDSIZE
 40
0.0
  9
$PLINEWID
 40
0.0
  9
$SPLFRAME
 70
     0
  9
$SPLINETYPE
 70
     6
  9
$SPLINESEGS
 70
     8
  9
$HANDSEED
  5
7E
  9
$SURFTAB1
 70
     6
  9
$SURFTAB2
 70
     6
  9
$SURFTYPE
 70
     6
  9
$SURFU
 70
     6
  9
$SURFV
 70
     6
  9
$UCSBASE
  2

  9
$UCSNAME
  2

  9
$UCSORG
 10
0.0
 20
0.0
 30
0.0
  9
$UCSXDIR
 10
1.0
 20
0.0
 30
0.0
  9
$UCSYDIR
 10
0.0
 20
1.0
 30
0.0
  9
$UCSORTHOREF
  2

  9
$UCSORTHOVIEW
 70
     0
  9
$UCSORGTOP
 10
0.0
 20
0.0
 30
0.0
  9
$UCSORGBOTTOM
 10
0.0
 20
0.0
 30
0.0
  9
$UCSORGLEFT
 10
0.0
 20
0.0
 30
0.0
  9
$UCSORGRIGHT
 10
0.0
 20
0.0
 30
0.0
  9
$UCSORGFRONT
 10
0.0
 20
0.0
 30
0.0
  9
$UCSORGBACK
 10
0.0
 20
0.0
 30
0.0
  9
$PUCSBASE
  2

  9
$PUCSNAME
  2

  9
$PUCSORG
 10
0.0
 20
0.0
 30
0.0
  9
$PUCSXDIR
 10
1.0
 20
0.0
 30
0.0
  9
$PUCSYDIR
 10
0.0
 20
1.0
 30
0.0
  9
$PUCSORTHOREF
  2

  9
$PUCSORTHOVIEW
 70
     0
  9
$PUCSORGTOP
 10
0.0
 20
0.0
 30
0.0
  9
$PUCSORGBOTTOM
 10
0.0
 20
0.0
 30
0.0
  9
$PUCSORGLEFT
 10
0.0
 20
0.0
 30
0.0
  9
$PUCSORGRIGHT
 10
0.0
 20
0.0
 30
0.0
  9
$PUCSORGFRONT
 10
0.0
 20
0.0
 30
0.0
  9
$PUCSORGBACK
 10
0.0
 20
0.0
 30
0.0
  9
$USERI1
 70
     0
  9
$USERI2
 70
     0
  9
$USERI3
 70
     0
  9
$USERI4
 70
     0
  9
$USERI5
 70
     0
  9
$USERR1
 40
0.0
  9
$USERR2
 40
0.0
  9
$USERR3
 40
0.0
  9
$USERR4
 40
0.0
  9
$USERR5
 40
0.0
  9
$WORLDVIEW
 70
     1
  9
$SHADEDGE
 70
     3
  9
$SHADEDIF
 70
    70
  9
$TILEMODE
 70
     1
  9
$MAXACTVP
 70
    64
  9
$PINSBASE
 10
0.0
 20
0.0
 30
0.0
  9
$PLIMCHECK
 70
     0
  9
$PEXTMIN
 10
1.000000000000000E+20
 20
1.000000000000000E+20
 30
1.000000000000000E+20
  9
$PEXTMAX
 10
-1.000000000000000E+20
 20
-1.000000000000000E+20
 30
-1.000000000000000E+20
  9
$PLIMMIN
 10
0.0
 20
0.0
  9
$PLIMMAX
 10
12.0
 20
9.0
  9
$UNITMODE
 70
     0
  9
$VISRETAIN
 70
     1
  9
$PLINEGEN
 70
     0
  9
$PSLTSCALE
 70
     1
  9
$TREEDEPTH
 70
  3020
  9
$CMLSTYLE
  2
Standard
  9
$CMLJUST
 70
     0
  9
$CMLSCALE
 40
1.0
  9
$PROXYGRAPHICS
 70
     1
  9
$MEASUREMENT
 70
     0
  9
$CELWEIGHT
370
    -1
  9
$ENDCAPS
280
     0
  9
$JOINSTYLE
280
     0
  9
$LWDISPLAY
290
     1
  9
$INSUNITS
 70
     1
  9
$HYPERLINKBASE
  1

  9
$STYLESHEET
  1

  9
$XEDIT
290
     1
  9
$CEPSNTYPE
380
     0
  9
$PSTYLEMODE
290
     1
  9
$FINGERPRINTGUID
  2
{44E313D9-6AF8-9AE5-6EC9-BC6B47FA2D55}
  9
$VERSIONGUID
  2
{FAEB1C32-E019-11D5-929B-00C0DF256EC4}
  9
$EXTNAMES
290
     1
  9
$PSVPSCALE
 40
0.0
  9
$OLESTARTUP
290
     0
  9
$SORTENTS
280
   127
  9
$INDEXCTL
280
     0
  9
$HIDETEXT
280
     1
  9
$XCLIPFRAME
280
     2
  9
$HALOGAP
280
     0
  9
$OBSCOLOR
 70
   257
  9
$OBSLTYPE
280
     0
  9
$INTERSECTIONDISPLAY
280
     0
  9
$INTERSECTIONCOLOR
 70
   257
  9
$DIMASSOC
280
     2
  9
$PROJECTNAME
  1

  9
$CAMERADISPLAY
290
     0
  9
$LENSLENGTH
 40
50.0
  9
$CAMERAHEIGHT
 40
0.0
  9
$STEPSPERSEC
 40
2.0
  9
$STEPSIZE
 40
6.0
  9
$3DDWFPREC
 40
2.0
  9
$PSOLWIDTH
 40
0.25
  9
$PSOLHEIGHT
 40
4.0
  9
$LOFTANG1
 40
1.570796326794897
  9
$LOFTANG2
 40
1.570796326794897
  9
$LOFTMAG1
 40
0.0
  9
$LOFTMAG2
 40
0.0
  9
$LOFTPARAM
 70
     7
  9
$LOFTNORMALS
280
     1
  9
$LATITUDE
 40
37.795
  9
$LONGITUDE
 40
-122.394
  9
$NORTHDIRECTION
 40
0.0
  9
$TIMEZONE
 70
 -8000
  9
$LIGHTGLYPHDISPLAY
280
     1
  9
$TILEMODELIGHTSYNCH
280
     1
  9
$CMATERIAL
347
3C
  9
$SOLIDHIST
280
     1
  9
$SHOWHIST
280
     1
  9
$DWFFRAME
280
     2
  9
$DGNFRAME
280
     2
  9
$REALWORLDSCALE
290
     1
  9
$INTERFERECOLOR
 62
   256
  9
$CSHADOW
280
     0
  9
$SHADOWPLANELOCATION
 40
0.0
  0
ENDSEC
  0
SECTION
  2
CLASSES
  0
CLASS
  1
ACDBDICTIONARYWDFLT
  2
AcDbDictionaryWithDefault
  3
ObjectDBX Classes
 90
        0
 91
        4
280
     0
281
     0
  0
CLASS
  1
VISUALSTYLE
  2
AcDbVisualStyle
  3
ObjectDBX Classes
 90
     4095
 91
        4
280
     0
281
     0
  0
CLASS
  1
MATERIAL
  2
AcDbMaterial
  3
ObjectDBX Classes
 90
     1153
 91
        4
280
     0
281
     0
  0
CLASS
  1
SUN
  2
AcDbSun
  3
SCENEOE
 90
     1024
 91
        4
280
     0
281
     0
  0
ENDSEC
  0
SECTION
  2
TABLES
  0
TABLE
  2
VPORT
  5
8
330
0
100
AcDbSymbolTable
 70
     1
  0
VPORT
  5
29
330
8
100
AcDbSymbolTableRecord
100
AcDbViewportTableRecord
  2
*Active
 70
     0
 10
0.0
 20
0.0
 11
1.0
 21
1.0
 12
0.0
 22
0.0
 13
0.0
 23
0.0
 14
0.5
 24
0.5
 15
0.5
 25
0.5
 16
0.0
 26
0.0
 36
1.0
 17
91.00082462281999
 27
-128.4993055234307
 37
0.0
 40
256.9986110468615
 41
0.7081814508812795
 42
50.0
 43
0.0
 44
0.0
 50
0.0
 51
0.0
 71
     0
 72
   100
 73
     1
 74
     3
 75
     0
 76
     0
 77
     0
 78
     0
281
     0
 65
     1
110
0.0
120
0.0
130
0.0
111
1.0
121
0.0
131
0.0
112
0.0
122
1.0
132
0.0
 79
     0
146
0.0
 60
     3
 61
     5
292
     1
282
     1
141
0.0
142
0.0
 63
   250
361
3F
  0
ENDTAB
  0
TABLE
  2
LTYPE
  5
5
330
0
100
AcDbSymbolTable
 70
     1
  0
LTYPE
  5
14
330
5
100
AcDbSymbolTableRecord
100
AcDbLinetypeTableRecord
  2
ByBlock
 70
     0
  3

 72
    65
 73
     0
 40
0.0
  0
LTYPE
  5
15
330
5
100
AcDbSymbolTableRecord
100
AcDbLinetypeTableRecord
  2
ByLayer
 70
     0
  3

 72
    65
 73
     0
 40
0.0
  0
LTYPE
  5
16
330
5
100
AcDbSymbolTableRecord
100
AcDbLinetypeTableRecord
  2
Continuous
 70
     0
  3
Solid line
 72
    65
 73
     0
 40
0.0
  0
ENDTAB
  0
TABLE
  2
LAYER
  5
2
330
0
100
AcDbSymbolTable
 70
     2
  0
LAYER
  5
10
330
2
100
AcDbSymbolTableRecord
100
AcDbLayerTableRecord
  2
0
 70
     0
 62
     7
  6
Continuous
370
    -3
390
F
347
3E
  0
LAYER
  5
40
330
2
100
AcDbSymbolTableRecord
100
AcDbLayerTableRecord
  2
_U+30EC_U+30A4_U+30E4_U+30FC 1
 70
     0
 62
     7
  6
Continuous
370
    -3
390
F
347
3E
  0
ENDTAB
  0
TABLE
  2
STYLE
  5
3
330
0
100
AcDbSymbolTable
 70
     1
  0
STYLE
  5
11
330
3
100
AcDbSymbolTableRecord
100
AcDbTextStyleTableRecord
  2
Standard
 70
     0
 40
0.0
 41
1.0
 50
0.0
 71
     0
 42
0.2
  3
txt
  4

  0
ENDTAB
  0
TABLE
  2
VIEW
  5
6
330
0
100
AcDbSymbolTable
 70
     0
  0
ENDTAB
  0
TABLE
  2
UCS
  5
7
330
0
100
AcDbSymbolTable
 70
     0
  0
ENDTAB
  0
TABLE
  2
APPID
  5
9
330
0
100
AcDbSymbolTable
 70
     1
  0
APPID
  5
12
330
9
100
AcDbSymbolTableRecord
100
AcDbRegAppTableRecord
  2
ACAD
 70
     0
  0
ENDTAB
  0
TABLE
  2
DIMSTYLE
  5
A
330
0
100
AcDbSymbolTable
 70
     1
100
AcDbDimStyleTable
  0
DIMSTYLE
105
27
330
A
100
AcDbSymbolTableRecord
100
AcDbDimStyleTableRecord
  2
Standard
 70
     0
178
     0
340
11
  0
ENDTAB
  0
TABLE
  2
BLOCK_RECORD
  5
1
330
0
100
AcDbSymbolTable
 70
     3
  0
BLOCK_RECORD
  5
1F
330
1
100
AcDbSymbolTableRecord
100
AcDbBlockTableRecord
  2
*Model_Space
340
22
 70
     0
280
     1
281
     0
  0
BLOCK_RECORD
  5
1B
330
1
100
AcDbSymbolTableRecord
100
AcDbBlockTableRecord
  2
*Paper_Space
340
1E
 70
     0
280
     1
281
     0
  0
BLOCK_RECORD
  5
23
330
1
100
AcDbSymbolTableRecord
100
AcDbBlockTableRecord
  2
*Paper_Space0
340
26
 70
     0
280
     1
281
     0
  0
BLOCK_RECORD
  5
5A
330
1
100
AcDbSymbolTableRecord
100
AcDbBlockTableRecord
  2
block 2
340
0
102
{BLKREFS
331
5B
102
}
 70
     0
280
     1
281
     0
  0
BLOCK_RECORD
  5
71
330
1
100
AcDbSymbolTableRecord
100
AcDbBlockTableRecord
  2
block 3
340
0
102
{BLKREFS
331
72
102
}
 70
     0
280
     1
281
     0
  0
ENDTAB
  0
ENDSEC
  0
SECTION
  2
BLOCKS
  0
BLOCK
  5
20
330
1F
100
AcDbEntity
  8
0
100
AcDbBlockBegin
  2
*Model_Space
 70
     0
 10
0.0
 20
0.0
 30
0.0
  3
*Model_Space
  1

  0
ENDBLK
  5
21
330
1F
100
AcDbEntity
  8
0
100
AcDbBlockEnd
  0
BLOCK
  5
1C
330
1B
100
AcDbEntity
 67
     1
  8
0
100
AcDbBlockBegin
  2
*Paper_Space
 70
     0
 10
0.0
 20
0.0
 30
0.0
  3
*Paper_Space
  1

  0
ENDBLK
  5
1D
330
1B
100
AcDbEntity
 67
     1
  8
0
100
AcDbBlockEnd
  0
BLOCK
  5
24
330
23
100
AcDbEntity
  8
0
100
AcDbBlockBegin
  2
*Paper_Space0
 70
     0
 10
0.0
 20
0.0
 30
0.0
  3
*Paper_Space0
  1

  0
ENDBLK
  5
25
330
23
100
AcDbEntity
  8
0
100
AcDbBlockEnd
  0
BLOCK
  5
5C
330
5A
100
AcDbEntity
  8
0
100
AcDbBlockBegin
  2
block 2
 70
     0
 10
0.0
 20
0.0
 30
0.0
  3
block 2
  1

  0
SPLINE
  5
5E
330
5A
100
AcDbEntity
  8
_U+30EC_U+30A4_U+30E4_U+30FC 1
370
     0
100
AcDbSpline
210
0.0
220
0.0
230
1.0
 70
    11
 71
     3
 72
    62
 73
    58
 74
     0
 42
0.0000000001
 43
0.0000000001
 12
1.0
 22
0.0
 32
0.0
 13
1.0
 23
0.0
 33
0.0
 40
0.0
 40
0.0
 40
0.0
 40
0.0
 40
1.0
 40
1.0
 40
1.0
 40
2.0
 40
2.0
 40
2.0
 40
3.0
 40
3.0
 40
3.0
 40
4.0
 40
4.0
 40
4.0
 40
5.0
 40
5.0
 40
5.0
 40
6.0
 40
6.0
 40
6.0
 40
7.0
 40
7.0
 40
7.0
 40
8.0
 40
8.0
 40
8.0
 40
9.0
 40
9.0
 40
9.0
 40
10.0
 40
10.0
 40
10.0
 40
11.0
 40
11.0
 40
11.0
 40
12.0
 40
12.0
 40
12.0
 40
13.0
 40
13.0
 40
13.0
 40
14.0
 40
14.0
 40
14.0
 40
15.0
 40
15.0
 40
15.0
 40
16.0
 40
16.0
 40
16.0
 40
17.0
 40
17.0
 40
17.0
 40
18.0
 40
18.0
 40
18.0
 40
19.0
 40
19.0
 40
19.0
 40
19.0
 10
89.81415606478605
 20
-124.4447726468402
 30
0.0
 10
89.74680444804942
 20
-124.3775932848778
 30
0.0
 10
89.60779484521959
 20
-124.2084390965521
 30
0.0
 10
89.65120304833373
 20
-123.9886420045931
 30
0.0
 10
89.67807479311868
 20
-123.8570393570566
 30
0.0
 10
89.74542640985531
 20
-123.7836588232208
 30
0.0
 10
89.80227048536193
 20
-123.7207858306149
 30
0.0
 10
89.80227048536193
 20
-123.7207858306149
 30
0.0
 10
89.95781654652097
 20
-123.8765041465482
 30
0.0
 10
89.95781654652097
 20
-123.8765041465482
 30
0.0
 10
89.90700138811353
 20
-123.9302476361181
 30
0.0
 10
89.74835474101778
 20
-124.1038804485747
 30
0.0
 10
89.94885929825932
 20
-124.304212751042
 30
0.0
 10
90.04601099094336
 20
-124.4015366985003
 30
0.0
 10
90.20310734507075
 20
-124.459758812201
 30
0.0
 10
90.36468232332898
 20
-124.2981838339428
 30
0.0
 10
90.44684785065218
 20
-124.2160183066196
 30
0.0
 10
90.45442706071974
 20
-124.1546956069822
 30
0.0
 10
90.45442706071974
 20
-124.1097371108997
 30
0.0
 10
90.45442706071974
 20
-124.0050062081481
 30
0.0
 10
90.3810465268839
 20
-123.9138834325632
 30
0.0
 10
90.34228920267485
 20
-123.8749538535799
 30
0.0
 10
90.32868107550811
 20
-123.8615179811874
 30
0.0
 10
90.30180933072316
 20
-123.8375745675649
 30
0.0
 10
90.27941621006904
 20
-123.8210381092357
 30
0.0
 10
90.27941621006904
 20
-123.8210381092357
 30
0.0
 10
90.41704777470477
 20
-123.6834065446
 30
0.0
 10
90.41704777470477
 20
-123.6834065446
 30
0.0
 10
90.4394408953589
 20
-123.71492916829
 30
0.0
 10
90.4678629331122
 20
-123.7462795372058
 30
0.0
 10
90.47234155724303
 20
-123.7507581613366
 30
0.0
 10
90.51867809151965
 20
-123.7970946956132
 30
0.0
 10
90.67422415267868
 20
-123.9228406808248
 30
0.0
 10
90.84182804803608
 20
-123.7552367854674
 30
0.0
 10
90.9675740332477
 20
-123.6296630550301
 30
0.0
 10
90.91365828890353
 20
-123.4978881527193
 30
0.0
 10
90.83579913093689
 20
-123.4202012495269
 30
0.0
 10
90.64890270086208
 20
-123.2331325646778
 30
0.0
 10
90.47837047434221
 20
-123.3917792117736
 30
0.0
 10
90.42445472999806
 20
-123.4396660390186
 30
0.0
 10
90.42445472999806
 20
-123.4396660390186
 30
0.0
 10
90.2809665030374
 20
-123.2960055572836
 30
0.0
 10
90.2809665030374
 20
-123.2960055572836
 30
0.0
 10
90.37518986455899
 20
-123.2138400299604
 30
0.0
 10
90.6607882802862
 20
-122.9669989384423
 30
0.0
 10
90.98393823680263
 20
-123.2899766401845
 30
0.0
 10
91.14258488389838
 20
-123.4486232872802
 30
0.0
 10
91.22337237302749
 20
-123.7089002511908
 30
0.0
 10
91.0139105675243
 20
-123.918362056694
 30
0.0
 10
90.88230791998777
 20
-124.0499647042306
 30
0.0
 10
90.75656193477614
 20
-124.0410074559689
 30
0.0
 10
90.6428737837629
 20
-124.0139634564097
 30
0.0
 10
90.66681719738538
 20
-124.0768364490155
 30
0.0
 10
90.73864743825284
 20
-124.2623548408962
 30
0.0
 10
90.54262150514212
 20
-124.4583807740069
 30
0.0
 10
90.30335962369152
 20
-124.6976426554575
 30
0.0
 10
90.01018199789677
 20
-124.6407985799509
 30
0.0
 10
89.81415606478605
 20
-124.4447726468402
 30
0.0
  0
HATCH
  5
5F
330
5A
100
AcDbEntity
  8
_U+30EC_U+30A4_U+30E4_U+30FC 1
 62
   179
420
  2234388
100
AcDbHatch
 10
0.0
 20
0.0
 30
0.0
210
0.0
220
0.0
230
1.0
  2
SOLID
 70
     1
 71
     0
 91
        1
 92
        1
 93
        1
 72
     4
 94
        3
 73
     0
 74
     1
 95
       62
 96
       58
 40
0.0
 40
0.0
 40
0.0
 40
0.0
 40
1.0
 40
1.0
 40
1.0
 40
2.0
 40
2.0
 40
2.0
 40
3.0
 40
3.0
 40
3.0
 40
4.0
 40
4.0
 40
4.0
 40
5.0
 40
5.0
 40
5.0
 40
6.0
 40
6.0
 40
6.0
 40
7.0
 40
7.0
 40
7.0
 40
8.0
 40
8.0
 40
8.0
 40
9.0
 40
9.0
 40
9.0
 40
10.0
 40
10.0
 40
10.0
 40
11.0
 40
11.0
 40
11.0
 40
12.0
 40
12.0
 40
12.0
 40
13.0
 40
13.0
 40
13.0
 40
14.0
 40
14.0
 40
14.0
 40
15.0
 40
15.0
 40
15.0
 40
16.0
 40
16.0
 40
16.0
 40
17.0
 40
17.0
 40
17.0
 40
18.0
 40
18.0
 40
18.0
 40
19.0
 40
19.0
 40
19.0
 40
19.0
 10
89.81415606478605
 20
-124.4447726468402
 10
89.74680444804942
 20
-124.3775932848778
 10
89.60779484521959
 20
-124.2084390965521
 10
89.65120304833373
 20
-123.9886420045931
 10
89.67807479311868
 20
-123.8570393570566
 10
89.74542640985531
 20
-123.7836588232208
 10
89.80227048536193
 20
-123.7207858306149
 10
89.80227048536193
 20
-123.7207858306149
 10
89.95781654652097
 20
-123.8765041465482
 10
89.95781654652097
 20
-123.8765041465482
 10
89.90700138811353
 20
-123.9302476361181
 10
89.74835474101778
 20
-124.1038804485747
 10
89.94885929825932
 20
-124.304212751042
 10
90.04601099094336
 20
-124.4015366985003
 10
90.20310734507075
 20
-124.459758812201
 10
90.36468232332898
 20
-124.2981838339428
 10
90.44684785065218
 20
-124.2160183066196
 10
90.45442706071974
 20
-124.1546956069822
 10
90.45442706071974
 20
-124.1097371108997
 10
90.45442706071974
 20
-124.0050062081481
 10
90.3810465268839
 20
-123.9138834325632
 10
90.34228920267485
 20
-123.8749538535799
 10
90.32868107550811
 20
-123.8615179811874
 10
90.30180933072316
 20
-123.8375745675649
 10
90.27941621006904
 20
-123.8210381092357
 10
90.27941621006904
 20
-123.8210381092357
 10
90.41704777470477
 20
-123.6834065446
 10
90.41704777470477
 20
-123.6834065446
 10
90.4394408953589
 20
-123.71492916829
 10
90.4678629331122
 20
-123.7462795372058
 10
90.47234155724303
 20
-123.7507581613366
 10
90.51867809151965
 20
-123.7970946956132
 10
90.67422415267868
 20
-123.9228406808248
 10
90.84182804803608
 20
-123.7552367854674
 10
90.9675740332477
 20
-123.6296630550301
 10
90.91365828890353
 20
-123.4978881527193
 10
90.83579913093689
 20
-123.4202012495269
 10
90.64890270086208
 20
-123.2331325646778
 10
90.47837047434221
 20
-123.3917792117736
 10
90.42445472999806
 20
-123.4396660390186
 10
90.42445472999806
 20
-123.4396660390186
 10
90.2809665030374
 20
-123.2960055572836
 10
90.2809665030374
 20
-123.2960055572836
 10
90.37518986455899
 20
-123.2138400299604
 10
90.6607882802862
 20
-122.9669989384423
 10
90.98393823680263
 20
-123.2899766401845
 10
91.14258488389838
 20
-123.4486232872802
 10
91.22337237302749
 20
-123.7089002511908
 10
91.0139105675243
 20
-123.918362056694
 10
90.88230791998777
 20
-124.0499647042306
 10
90.75656193477614
 20
-124.0410074559689
 10
90.6428737837629
 20
-124.0139634564097
 10
90.66681719738538
 20
-124.0768364490155
 10
90.73864743825284
 20
-124.2623548408962
 10
90.54262150514212
 20
-124.4583807740069
 10
90.30335962369152
 20
-124.6976426554575
 10
90.01018199789677
 20
-124.6407985799509
 10
89.81415606478605
 20
-124.4447726468402
 97
        0
 97
        0
 75
     2
 76
     1
 98
        0
  0
SPLINE
  5
60
330
5A
100
AcDbEntity
  8
_U+30EC_U+30A4_U+30E4_U+30FC 1
370
     0
100
AcDbSpline
210
0.0
220
0.0
230
1.0
 70
    11
 71
     3
 72
    53
 73
    49
 74
     0
 42
0.0000000001
 43
0.0000000001
 12
1.0
 22
0.0
 32
0.0
 13
1.0
 23
0.0
 33
0.0
 40
0.0
 40
0.0
 40
0.0
 40
0.0
 40
1.0
 40
1.0
 40
1.0
 40
2.0
 40
2.0
 40
2.0
 40
3.0
 40
3.0
 40
3.0
 40
4.0
 40
4.0
 40
4.0
 40
5.0
 40
5.0
 40
5.0
 40
6.0
 40
6.0
 40
6.0
 40
7.0
 40
7.0
 40
7.0
 40
8.0
 40
8.0
 40
8.0
 40
9.0
 40
9.0
 40
9.0
 40
10.0
 40
10.0
 40
10.0
 40
11.0
 40
11.0
 40
11.0
 40
12.0
 40
12.0
 40
12.0
 40
13.0
 40
13.0
 40
13.0
 40
14.0
 40
14.0
 40
14.0
 40
15.0
 40
15.0
 40
15.0
 40
16.0
 40
16.0
 40
16.0
 40
16.0
 10
90.63891192395486
 20
-125.269528506009
 30
0.0
 10
90.58344588664234
 20
-125.2142347234708
 30
0.0
 10
90.52367347997325
 20
-125.1303466484049
 30
0.0
 10
90.4968017351883
 20
-125.0137301662292
 30
0.0
 10
90.4518432391058
 20
-124.8132256089877
 30
0.0
 10
90.52970239707244
 20
-124.7055663750736
 30
0.0
 10
90.59257538967825
 20
-124.6158216376829
 30
0.0
 10
90.59257538967825
 20
-124.6158216376829
 30
0.0
 10
90.74949948903138
 20
-124.7729179918102
 30
0.0
 10
90.74949948903138
 20
-124.7729179918102
 30
0.0
 10
90.6478691722165
 20
-124.9524074665918
 30
0.0
 10
90.71659882714724
 20
-125.0631672864425
 30
0.0
 10
90.78240015091552
 20
-125.1289686102108
 30
0.0
 10
90.88127439134219
 20
-125.2276705958632
 30
0.0
 10
91.05921357315533
 20
-125.2650498818782
 30
0.0
 10
91.22371688257601
 20
-125.1005465724575
 30
0.0
 10
91.40458439555164
 20
-124.9195068047076
 30
0.0
 10
91.32689749235925
 20
-124.7429456610886
 30
0.0
 10
91.24163137909932
 20
-124.6576795478286
 30
0.0
 10
91.21923825844519
 20
-124.6352864271745
 30
0.0
 10
91.11898597982443
 20
-124.5350341485537
 30
0.0
 10
90.96499021163376
 20
-124.5634561863071
 30
0.0
 10
90.96499021163376
 20
-124.5634561863071
 30
0.0
 10
90.85423039178298
 20
-124.4258246216713
 30
0.0
 10
90.85423039178298
 20
-124.4258246216713
 30
0.0
 10
90.85423039178298
 20
-124.4258246216713
 30
0.0
 10
91.53790959083081
 20
-123.9128499039176
 30
0.0
 10
91.53790959083081
 20
-123.9128499039176
 30
0.0
 10
91.53790959083081
 20
-123.9128499039176
 30
0.0
 10
92.08843584937372
 20
-124.4632039076863
 30
0.0
 10
92.08843584937372
 20
-124.4632039076863
 30
0.0
 10
92.08843584937372
 20
-124.4632039076863
 30
0.0
 10
91.95063202996373
 20
-124.600835472322
 30
0.0
 10
91.95063202996373
 20
-124.600835472322
 30
0.0
 10
91.95063202996373
 20
-124.600835472322
 30
0.0
 10
91.51551647017668
 20
-124.1655476577607
 30
0.0
 10
91.51551647017668
 20
-124.1655476577607
 30
0.0
 10
91.51551647017668
 20
-124.1655476577607
 30
0.0
 10
91.16997339300612
 20
-124.418417666378
 30
0.0
 10
91.16997339300612
 20
-124.418417666378
 30
0.0
 10
91.23715275496849
 20
-124.4378824558697
 30
0.0
 10
91.32396916119679
 20
-124.4676825318171
 30
0.0
 10
91.40768498148836
 20
-124.5515706068829
 30
0.0
 10
91.58717445626988
 20
-124.7310600816645
 30
0.0
 10
91.62300344931647
 20
-125.0302666245584
 30
0.0
 10
91.40182831916344
 20
-125.2516140094857
 30
0.0
 10
91.17738034829941
 20
-125.4758897255755
 30
0.0
 10
90.85285235358887
 20
-125.483468935643
 30
0.0
 10
90.63891192395486
 20
-125.269528506009
 30
0.0
  0
HATCH
  5
61
330
5A
100
AcDbEntity
  8
_U+30EC_U+30A4_U+30E4_U+30FC 1
 62
   179
420
  2234388
100
AcDbHatch
 10
0.0
 20
0.0
 30
0.0
210
0.0
220
0.0
230
1.0
  2
SOLID
 70
     1
 71
     0
 91
        1
 92
        1
 93
        1
 72
     4
 94
        3
 73
     0
 74
     1
 95
       53
 96
       49
 40
0.0
 40
0.0
 40
0.0
 40
0.0
 40
1.0
 40
1.0
 40
1.0
 40
2.0
 40
2.0
 40
2.0
 40
3.0
 40
3.0
 40
3.0
 40
4.0
 40
4.0
 40
4.0
 40
5.0
 40
5.0
 40
5.0
 40
6.0
 40
6.0
 40
6.0
 40
7.0
 40
7.0
 40
7.0
 40
8.0
 40
8.0
 40
8.0
 40
9.0
 40
9.0
 40
9.0
 40
10.0
 40
10.0
 40
10.0
 40
11.0
 40
11.0
 40
11.0
 40
12.0
 40
12.0
 40
12.0
 40
13.0
 40
13.0
 40
13.0
 40
14.0
 40
14.0
 40
14.0
 40
15.0
 40
15.0
 40
15.0
 40
16.0
 40
16.0
 40
16.0
 40
16.0
 10
90.63891192395486
 20
-125.269528506009
 10
90.58344588664234
 20
-125.2142347234708
 10
90.52367347997325
 20
-125.1303466484049
 10
90.4968017351883
 20
-125.0137301662292
 10
90.4518432391058
 20
-124.8132256089877
 10
90.52970239707244
 20
-124.7055663750736
 10
90.59257538967825
 20
-124.6158216376829
 10
90.59257538967825
 20
-124.6158216376829
 10
90.74949948903138
 20
-124.7729179918102
 10
90.74949948903138
 20
-124.7729179918102
 10
90.6478691722165
 20
-124.9524074665918
 10
90.71659882714724
 20
-125.0631672864425
 10
90.78240015091552
 20
-125.1289686102108
 10
90.88127439134219
 20
-125.2276705958632
 10
91.05921357315533
 20
-125.2650498818782
 10
91.22371688257601
 20
-125.1005465724575
 10
91.40458439555164
 20
-124.9195068047076
 10
91.32689749235925
 20
-124.7429456610886
 10
91.24163137909932
 20
-124.6576795478286
 10
91.21923825844519
 20
-124.6352864271745
 10
91.11898597982443
 20
-124.5350341485537
 10
90.96499021163376
 20
-124.5634561863071
 10
90.96499021163376
 20
-124.5634561863071
 10
90.85423039178298
 20
-124.4258246216713
 10
90.85423039178298
 20
-124.4258246216713
 10
90.85423039178298
 20
-124.4258246216713
 10
91.53790959083081
 20
-123.9128499039176
 10
91.53790959083081
 20
-123.9128499039176
 10
91.53790959083081
 20
-123.9128499039176
 10
92.08843584937372
 20
-124.4632039076863
 10
92.08843584937372
 20
-124.4632039076863
 10
92.08843584937372
 20
-124.4632039076863
 10
91.95063202996373
 20
-124.600835472322
 10
91.95063202996373
 20
-124.600835472322
 10
91.95063202996373
 20
-124.600835472322
 10
91.51551647017668
 20
-124.1655476577607
 10
91.51551647017668
 20
-124.1655476577607
 10
91.51551647017668
 20
-124.1655476577607
 10
91.16997339300612
 20
-124.418417666378
 10
91.16997339300612
 20
-124.418417666378
 10
91.23715275496849
 20
-124.4378824558697
 10
91.32396916119679
 20
-124.4676825318171
 10
91.40768498148836
 20
-124.5515706068829
 10
91.58717445626988
 20
-124.7310600816645
 10
91.62300344931647
 20
-125.0302666245584
 10
91.40182831916344
 20
-125.2516140094857
 10
91.17738034829941
 20
-125.4758897255755
 10
90.85285235358887
 20
-125.483468935643
 10
90.63891192395486
 20
-125.269528506009
 97
        0
 97
        0
 75
     2
 76
     1
 98
        0
  0
SPLINE
  5
62
330
5A
100
AcDbEntity
  8
_U+30EC_U+30A4_U+30E4_U+30FC 1
370
     0
100
AcDbSpline
210
0.0
220
0.0
230
1.0
 70
    11
 71
     3
 72
    44
 73
    40
 74
     0
 42
0.0000000001
 43
0.0000000001
 12
1.0
 22
0.0
 32
0.0
 13
1.0
 23
0.0
 33
0.0
 40
0.0
 40
0.0
 40
0.0
 40
0.0
 40
1.0
 40
1.0
 40
1.0
 40
2.0
 40
2.0
 40
2.0
 40
3.0
 40
3.0
 40
3.0
 40
4.0
 40
4.0
 40
4.0
 40
5.0
 40
5.0
 40
5.0
 40
6.0
 40
6.0
 40
6.0
 40
7.0
 40
7.0
 40
7.0
 40
8.0
 40
8.0
 40
8.0
 40
9.0
 40
9.0
 40
9.0
 40
10.0
 40
10.0
 40
10.0
 40
11.0
 40
11.0
 40
11.0
 40
12.0
 40
12.0
 40
12.0
 40
13.0
 40
13.0
 40
13.0
 40
13.0
 10
91.8837971775499
 20
-126.4427557735108
 30
0.0
 10
91.89895559768499
 20
-126.3948689462659
 30
0.0
 10
91.92134871833912
 20
-126.3425034948901
 30
0.0
 10
92.08292369659733
 20
-126.1780001854694
 30
0.0
 10
92.25173337537457
 20
-126.0029893348187
 30
0.0
 10
92.25931258544212
 20
-125.9116943044596
 30
0.0
 10
92.1335666002305
 20
-125.7861205740222
 30
0.0
 10
92.1335666002305
 20
-125.7861205740222
 30
0.0
 10
91.84486759856657
 20
-125.4974215723583
 30
0.0
 10
91.84486759856657
 20
-125.4974215723583
 30
0.0
 10
91.84486759856657
 20
-125.4974215723583
 30
0.0
 10
91.39183754225621
 20
-125.9506238834429
 30
0.0
 10
91.39183754225621
 20
-125.9506238834429
 30
0.0
 10
91.39183754225621
 20
-125.9506238834429
 30
0.0
 10
91.22578393986717
 20
-125.7845702810539
 30
0.0
 10
91.22578393986717
 20
-125.7845702810539
 30
0.0
 10
91.22578393986717
 20
-125.7845702810539
 30
0.0
 10
92.31753469914284
 20
-124.6926472670039
 30
0.0
 10
92.31753469914284
 20
-124.6926472670039
 30
0.0
 10
92.31753469914284
 20
-124.6926472670039
 30
0.0
 10
92.79502493339847
 20
-125.169792991711
 30
0.0
 10
92.79502493339847
 20
-125.169792991711
 30
0.0
 10
93.01172143942068
 20
-125.3866617525075
 30
0.0
 10
93.00862085348396
 20
-125.6260958887324
 30
0.0
 10
92.82775334050834
 20
-125.806963401708
 30
0.0
 10
92.79192434746174
 20
-125.8429646495289
 30
0.0
 10
92.72750106188758
 20
-125.8953301009046
 30
0.0
 10
92.63930661746518
 20
-125.9206515527212
 30
0.0
 10
92.52424042825783
 20
-125.9521741764113
 30
0.0
 10
92.46429576681449
 20
-125.9192735145271
 30
0.0
 10
92.40882972950196
 20
-125.8877508908371
 30
0.0
 10
92.47635360101286
 20
-126.0148749142428
 30
0.0
 10
92.48978947340534
 20
-126.0972126963403
 30
0.0
 10
92.2699923814464
 20
-126.3230387053984
 30
0.0
 10
92.0812011488547
 20
-126.5175143455408
 30
0.0
 10
92.08430173479142
 20
-126.5654011727857
 30
0.0
 10
92.09325898305308
 20
-126.652217579014
 30
0.0
 10
92.09325898305308
 20
-126.652217579014
 30
0.0
 10
91.8837971775499
 20
-126.4427557735108
 30
0.0
 10
91.8837971775499
 20
-126.4427557735108
 30
0.0
  0
SPLINE
  5
63
330
5A
100
AcDbEntity
  8
_U+30EC_U+30A4_U+30E4_U+30FC 1
370
     0
100
AcDbSpline
210
0.0
220
0.0
230
1.0
 70
    11
 71
     3
 72
    20
 73
    16
 74
     0
 42
0.0000000001
 43
0.0000000001
 12
1.0
 22
0.0
 32
0.0
 13
1.0
 23
0.0
 33
0.0
 40
0.0
 40
0.0
 40
0.0
 40
0.0
 40
1.0
 40
1.0
 40
1.0
 40
2.0
 40
2.0
 40
2.0
 40
3.0
 40
3.0
 40
3.0
 40
4.0
 40
4.0
 40
4.0
 40
5.0
 40
5.0
 40
5.0
 40
5.0
 10
92.64826386572683
 20
-125.3224107217076
 30
0.0
 10
92.64826386572683
 20
-125.3224107217076
 30
0.0
 10
92.33407115747204
 20
-125.0082180134528
 30
0.0
 10
92.33407115747204
 20
-125.0082180134528
 30
0.0
 10
92.33407115747204
 20
-125.0082180134528
 30
0.0
 10
91.99472925217493
 20
-125.3477321735242
 30
0.0
 10
91.99472925217493
 20
-125.3477321735242
 30
0.0
 10
91.99472925217493
 20
-125.3477321735242
 30
0.0
 10
92.3071994126871
 20
-125.6603745888106
 30
0.0
 10
92.3071994126871
 20
-125.6603745888106
 30
0.0
 10
92.3774793605862
 20
-125.7306545367097
 30
0.0
 10
92.52699650464604
 20
-125.7726847016298
 30
0.0
 10
92.64826386572683
 20
-125.651417340549
 30
0.0
 10
92.70372990303935
 20
-125.5961235580107
 30
0.0
 10
92.78882376152502
 20
-125.4629706175058
 30
0.0
 10
92.64826386572683
 20
-125.3224107217076
 30
0.0
  0
HATCH
  5
64
330
5A
100
AcDbEntity
  8
_U+30EC_U+30A4_U+30E4_U+30FC 1
 62
   179
420
  2234388
100
AcDbHatch
 10
0.0
 20
0.0
 30
0.0
210
0.0
220
0.0
230
1.0
  2
SOLID
 70
     1
 71
     0
 91
        2
 92
        1
 93
        1
 72
     4
 94
        3
 73
     0
 74
     1
 95
       44
 96
       40
 40
0.0
 40
0.0
 40
0.0
 40
0.0
 40
1.0
 40
1.0
 40
1.0
 40
2.0
 40
2.0
 40
2.0
 40
3.0
 40
3.0
 40
3.0
 40
4.0
 40
4.0
 40
4.0
 40
5.0
 40
5.0
 40
5.0
 40
6.0
 40
6.0
 40
6.0
 40
7.0
 40
7.0
 40
7.0
 40
8.0
 40
8.0
 40
8.0
 40
9.0
 40
9.0
 40
9.0
 40
10.0
 40
10.0
 40
10.0
 40
11.0
 40
11.0
 40
11.0
 40
12.0
 40
12.0
 40
12.0
 40
13.0
 40
13.0
 40
13.0
 40
13.0
 10
91.8837971775499
 20
-126.4427557735108
 10
91.89895559768499
 20
-126.3948689462659
 10
91.92134871833912
 20
-126.3425034948901
 10
92.08292369659733
 20
-126.1780001854694
 10
92.25173337537457
 20
-126.0029893348187
 10
92.25931258544212
 20
-125.9116943044596
 10
92.1335666002305
 20
-125.7861205740222
 10
92.1335666002305
 20
-125.7861205740222
 10
91.84486759856657
 20
-125.4974215723583
 10
91.84486759856657
 20
-125.4974215723583
 10
91.84486759856657
 20
-125.4974215723583
 10
91.39183754225621
 20
-125.9506238834429
 10
91.39183754225621
 20
-125.9506238834429
 10
91.39183754225621
 20
-125.9506238834429
 10
91.22578393986717
 20
-125.7845702810539
 10
91.22578393986717
 20
-125.7845702810539
 10
91.22578393986717
 20
-125.7845702810539
 10
92.31753469914284
 20
-124.6926472670039
 10
92.31753469914284
 20
-124.6926472670039
 10
92.31753469914284
 20
-124.6926472670039
 10
92.79502493339847
 20
-125.169792991711
 10
92.79502493339847
 20
-125.169792991711
 10
93.01172143942068
 20
-125.3866617525075
 10
93.00862085348396
 20
-125.6260958887324
 10
92.82775334050834
 20
-125.806963401708
 10
92.79192434746174
 20
-125.8429646495289
 10
92.72750106188758
 20
-125.8953301009046
 10
92.63930661746518
 20
-125.9206515527212
 10
92.52424042825783
 20
-125.9521741764113
 10
92.46429576681449
 20
-125.9192735145271
 10
92.40882972950196
 20
-125.8877508908371
 10
92.47635360101286
 20
-126.0148749142428
 10
92.48978947340534
 20
-126.0972126963403
 10
92.2699923814464
 20
-126.3230387053984
 10
92.0812011488547
 20
-126.5175143455408
 10
92.08430173479142
 20
-126.5654011727857
 10
92.09325898305308
 20
-126.652217579014
 10
92.09325898305308
 20
-126.652217579014
 10
91.8837971775499
 20
-126.4427557735108
 10
91.8837971775499
 20
-126.4427557735108
 97
        0
 97
        0
 92
        1
 93
        1
 72
     4
 94
        3
 73
     0
 74
     1
 95
       20
 96
       16
 40
0.0
 40
0.0
 40
0.0
 40
0.0
 40
1.0
 40
1.0
 40
1.0
 40
2.0
 40
2.0
 40
2.0
 40
3.0
 40
3.0
 40
3.0
 40
4.0
 40
4.0
 40
4.0
 40
5.0
 40
5.0
 40
5.0
 40
5.0
 10
92.64826386572683
 20
-125.3224107217076
 10
92.64826386572683
 20
-125.3224107217076
 10
92.33407115747204
 20
-125.0082180134528
 10
92.33407115747204
 20
-125.0082180134528
 10
92.33407115747204
 20
-125.0082180134528
 10
91.99472925217493
 20
-125.3477321735242
 10
91.99472925217493
 20
-125.3477321735242
 10
91.99472925217493
 20
-125.3477321735242
 10
92.3071994126871
 20
-125.6603745888106
 10
92.3071994126871
 20
-125.6603745888106
 10
92.3774793605862
 20
-125.7306545367097
 10
92.52699650464604
 20
-125.7726847016298
 10
92.64826386572683
 20
-125.651417340549
 10
92.70372990303935
 20
-125.5961235580107
 10
92.78882376152502
 20
-125.4629706175058
 10
92.64826386572683
 20
-125.3224107217076
 97
        0
 97
        0
 75
     2
 76
     1
 98
        0
  0
ENDBLK
  5
5D
330
5A
100
AcDbEntity
  8
0
100
AcDbBlockEnd
  0
BLOCK
  5
73
330
71
100
AcDbEntity
  8
0
100
AcDbBlockBegin
  2
block 3
 70
     0
 10
0.0
 20
0.0
 30
0.0
  3
block 3
  1

  0
SPLINE
  5
75
330
71
100
AcDbEntity
  8
_U+30EC_U+30A4_U+30E4_U+30FC 1
370
     0
100
AcDbSpline
210
0.0
220
0.0
230
1.0
 70
    11
 71
     3
 72
    62
 73
    58
 74
     0
 42
0.0000000001
 43
0.0000000001
 12
1.0
 22
0.0
 32
0.0
 13
1.0
 23
0.0
 33
0.0
 40
0.0
 40
0.0
 40
0.0
 40
0.0
 40
1.0
 40
1.0
 40
1.0
 40
2.0
 40
2.0
 40
2.0
 40
3.0
 40
3.0
 40
3.0
 40
4.0
 40
4.0
 40
4.0
 40
5.0
 40
5.0
 40
5.0
 40
6.0
 40
6.0
 40
6.0
 40
7.0
 40
7.0
 40
7.0
 40
8.0
 40
8.0
 40
8.0
 40
9.0
 40
9.0
 40
9.0
 40
10.0
 40
10.0
 40
10.0
 40
11.0
 40
11.0
 40
11.0
 40
12.0
 40
12.0
 40
12.0
 40
13.0
 40
13.0
 40
13.0
 40
14.0
 40
14.0
 40
14.0
 40
15.0
 40
15.0
 40
15.0
 40
16.0
 40
16.0
 40
16.0
 40
17.0
 40
17.0
 40
17.0
 40
18.0
 40
18.0
 40
18.0
 40
19.0
 40
19.0
 40
19.0
 40
19.0
 10
90.36692163539439
 20
-145.0622910878664
 30
0.0
 10
90.27183700000148
 20
-145.0622910878664
 30
0.0
 10
90.05393471055943
 20
-145.0412760054064
 30
0.0
 10
89.92904999921913
 20
-144.8548963396543
 30
0.0
 10
89.85498044628626
 20
-144.7429307363837
 30
0.0
 10
89.85084633170396
 20
-144.64336747686
 30
0.0
 10
89.84653996234739
 20
-144.5589626374714
 30
0.0
 10
89.84653996234739
 20
-144.5589626374714
 30
0.0
 10
90.0665093090806
 20
-144.5589626374714
 30
0.0
 10
90.0665093090806
 20
-144.5589626374714
 30
0.0
 10
90.06874862114601
 20
-144.6326876808557
 30
0.0
 10
90.07925616237603
 20
-144.8676431929498
 30
0.0
 10
90.36278752081209
 20
-144.8676431929498
 30
0.0
 10
90.50024683067355
 20
-144.8676431929498
 30
0.0
 10
90.6525200511216
 20
-144.7977077545992
 30
0.0
 10
90.6525200511216
 20
-144.5692979239271
 30
0.0
 10
90.6525200511216
 20
-144.4528536965257
 30
0.0
 10
90.61445174600959
 20
-144.4042778501837
 30
0.0
 10
90.58275686754529
 20
-144.3725829717194
 30
0.0
 10
90.50868731461242
 20
-144.2985134187865
 30
0.0
 10
90.39241534198523
 20
-144.2857665654911
 30
0.0
 10
90.33729381422124
 20
-144.2857665654911
 30
0.0
 10
90.31834578905236
 20
-144.2857665654911
 30
0.0
 10
90.2823445412315
 20
-144.2881781323307
 30
0.0
 10
90.25495603212377
 20
-144.292312246913
 30
0.0
 10
90.25495603212377
 20
-144.292312246913
 30
0.0
 10
90.25495603212377
 20
-144.0976643519964
 30
0.0
 10
90.25495603212377
 20
-144.0976643519964
 30
0.0
 10
90.29302433723578
 20
-144.1038655238699
 30
0.0
 10
90.33522675693008
 20
-144.105932581161
 30
0.0
 10
90.3416001835778
 20
-144.105932581161
 30
0.0
 10
90.40722925257181
 20
-144.105932581161
 30
0.0
 10
90.60601126207072
 20
-144.084917498701
 30
0.0
 10
90.60601126207072
 20
-143.8478949293158
 30
0.0
 10
90.60601126207072
 20
-143.6701280022769
 30
0.0
 10
90.47492537885697
 20
-143.6153509840615
 30
0.0
 10
90.36485457810323
 20
-143.6153509840615
 30
0.0
 10
90.10044349961031
 20
-143.6153509840615
 30
0.0
 10
90.09200301567145
 20
-143.8478949293158
 30
0.0
 10
90.08769664631488
 20
-143.9198974249575
 30
0.0
 10
90.08769664631488
 20
-143.9198974249575
 30
0.0
 10
89.88460826745941
 20
-143.9198974249575
 30
0.0
 10
89.88460826745941
 20
-143.9198974249575
 30
0.0
 10
89.89304875139827
 20
-143.7951849683915
 30
0.0
 10
89.92060951528026
 20
-143.4186360318537
 30
0.0
 10
90.37760143139866
 20
-143.4186360318537
 30
0.0
 10
90.60187714748842
 20
-143.4186360318537
 30
0.0
 10
90.84303383145591
 20
-143.5454155457109
 30
0.0
 10
90.84303383145591
 20
-143.8416937574424
 30
0.0
 10
90.84303383145591
 20
-144.0277289136459
 30
0.0
 10
90.74777694128875
 20
-144.1104112052919
 30
0.0
 10
90.6483859365393
 20
-144.1717339049293
 30
0.0
 10
90.70970863617674
 20
-144.1992946688113
 30
0.0
 10
90.89160967779793
 20
-144.2795653936176
 30
0.0
 10
90.89160967779793
 20
-144.5565510706317
 30
0.0
 10
90.89160967779793
 20
-144.8952039568318
 30
0.0
 10
90.64407956718273
 20
-145.0622910878664
 30
0.0
 10
90.36692163539439
 20
-145.0622910878664
 30
0.0
  0
HATCH
  5
76
330
71
100
AcDbEntity
  8
_U+30EC_U+30A4_U+30E4_U+30FC 1
 62
   179
420
  2234388
100
AcDbHatch
 10
0.0
 20
0.0
 30
0.0
210
0.0
220
0.0
230
1.0
  2
SOLID
 70
     1
 71
     0
 91
        1
 92
        1
 93
        1
 72
     4
 94
        3
 73
     0
 74
     1
 95
       62
 96
       58
 40
0.0
 40
0.0
 40
0.0
 40
0.0
 40
1.0
 40
1.0
 40
1.0
 40
2.0
 40
2.0
 40
2.0
 40
3.0
 40
3.0
 40
3.0
 40
4.0
 40
4.0
 40
4.0
 40
5.0
 40
5.0
 40
5.0
 40
6.0
 40
6.0
 40
6.0
 40
7.0
 40
7.0
 40
7.0
 40
8.0
 40
8.0
 40
8.0
 40
9.0
 40
9.0
 40
9.0
 40
10.0
 40
10.0
 40
10.0
 40
11.0
 40
11.0
 40
11.0
 40
12.0
 40
12.0
 40
12.0
 40
13.0
 40
13.0
 40
13.0
 40
14.0
 40
14.0
 40
14.0
 40
15.0
 40
15.0
 40
15.0
 40
16.0
 40
16.0
 40
16.0
 40
17.0
 40
17.0
 40
17.0
 40
18.0
 40
18.0
 40
18.0
 40
19.0
 40
19.0
 40
19.0
 40
19.0
 10
90.36692163539439
 20
-145.0622910878664
 10
90.27183700000148
 20
-145.0622910878664
 10
90.05393471055943
 20
-145.0412760054064
 10
89.92904999921913
 20
-144.8548963396543
 10
89.85498044628626
 20
-144.7429307363837
 10
89.85084633170396
 20
-144.64336747686
 10
89.84653996234739
 20
-144.5589626374714
 10
89.84653996234739
 20
-144.5589626374714
 10
90.0665093090806
 20
-144.5589626374714
 10
90.0665093090806
 20
-144.5589626374714
 10
90.06874862114601
 20
-144.6326876808557
 10
90.07925616237603
 20
-144.8676431929498
 10
90.36278752081209
 20
-144.8676431929498
 10
90.50024683067355
 20
-144.8676431929498
 10
90.6525200511216
 20
-144.7977077545992
 10
90.6525200511216
 20
-144.5692979239271
 10
90.6525200511216
 20
-144.4528536965257
 10
90.61445174600959
 20
-144.4042778501837
 10
90.58275686754529
 20
-144.3725829717194
 10
90.50868731461242
 20
-144.2985134187865
 10
90.39241534198523
 20
-144.2857665654911
 10
90.33729381422124
 20
-144.2857665654911
 10
90.31834578905236
 20
-144.2857665654911
 10
90.2823445412315
 20
-144.2881781323307
 10
90.25495603212377
 20
-144.292312246913
 10
90.25495603212377
 20
-144.292312246913
 10
90.25495603212377
 20
-144.0976643519964
 10
90.25495603212377
 20
-144.0976643519964
 10
90.29302433723578
 20
-144.1038655238699
 10
90.33522675693008
 20
-144.105932581161
 10
90.3416001835778
 20
-144.105932581161
 10
90.40722925257181
 20
-144.105932581161
 10
90.60601126207072
 20
-144.084917498701
 10
90.60601126207072
 20
-143.8478949293158
 10
90.60601126207072
 20
-143.6701280022769
 10
90.47492537885697
 20
-143.6153509840615
 10
90.36485457810323
 20
-143.6153509840615
 10
90.10044349961031
 20
-143.6153509840615
 10
90.09200301567145
 20
-143.8478949293158
 10
90.08769664631488
 20
-143.9198974249575
 10
90.08769664631488
 20
-143.9198974249575
 10
89.88460826745941
 20
-143.9198974249575
 10
89.88460826745941
 20
-143.9198974249575
 10
89.89304875139827
 20
-143.7951849683915
 10
89.92060951528026
 20
-143.4186360318537
 10
90.37760143139866
 20
-143.4186360318537
 10
90.60187714748842
 20
-143.4186360318537
 10
90.84303383145591
 20
-143.5454155457109
 10
90.84303383145591
 20
-143.8416937574424
 10
90.84303383145591
 20
-144.0277289136459
 10
90.74777694128875
 20
-144.1104112052919
 10
90.6483859365393
 20
-144.1717339049293
 10
90.70970863617674
 20
-144.1992946688113
 10
90.89160967779793
 20
-144.2795653936176
 10
90.89160967779793
 20
-144.5565510706317
 10
90.89160967779793
 20
-144.8952039568318
 10
90.64407956718273
 20
-145.0622910878664
 10
90.36692163539439
 20
-145.0622910878664
 97
        0
 97
        0
 75
     2
 76
     1
 98
        0
  0
SPLINE
  5
77
330
71
100
AcDbEntity
  8
_U+30EC_U+30A4_U+30E4_U+30FC 1
370
     0
100
AcDbSpline
210
0.0
220
0.0
230
1.0
 70
    11
 71
     3
 72
    44
 73
    40
 74
     0
 42
0.0000000001
 43
0.0000000001
 12
1.0
 22
0.0
 32
0.0
 13
1.0
 23
0.0
 33
0.0
 40
0.0
 40
0.0
 40
0.0
 40
0.0
 40
1.0
 40
1.0
 40
1.0
 40
2.0
 40
2.0
 40
2.0
 40
3.0
 40
3.0
 40
3.0
 40
4.0
 40
4.0
 40
4.0
 40
5.0
 40
5.0
 40
5.0
 40
6.0
 40
6.0
 40
6.0
 40
7.0
 40
7.0
 40
7.0
 40
8.0
 40
8.0
 40
8.0
 40
9.0
 40
9.0
 40
9.0
 40
10.0
 40
10.0
 40
10.0
 40
11.0
 40
11.0
 40
11.0
 40
12.0
 40
12.0
 40
12.0
 40
13.0
 40
13.0
 40
13.0
 40
13.0
 10
91.6453965699706
 20
-144.4297715567745
 30
0.0
 10
91.4276665353028
 20
-144.588245949096
 30
0.0
 10
91.3344767024268
 20
-144.6623155020289
 30
0.0
 10
91.28572860131051
 20
-144.8063204933123
 30
0.0
 10
91.28572860131051
 20
-144.8063204933123
 30
0.0
 10
92.06432018097698
 20
-144.8063204933123
 30
0.0
 10
92.06432018097698
 20
-144.8063204933123
 30
0.0
 10
92.06432018097698
 20
-144.8063204933123
 30
0.0
 10
92.06432018097698
 20
-145.0116481842332
 30
0.0
 10
92.06432018097698
 20
-145.0116481842332
 30
0.0
 10
92.06432018097698
 20
-145.0116481842332
 30
0.0
 10
91.03613143340417
 20
-145.0116481842332
 30
0.0
 10
91.03613143340417
 20
-145.0116481842332
 30
0.0
 10
91.06782631186846
 20
-144.6540472728643
 30
0.0
 10
91.13345538086247
 20
-144.5758436053491
 30
0.0
 10
91.5186170561134
 20
-144.2774983363265
 30
0.0
 10
91.77458765066747
 20
-144.0787163268276
 30
0.0
 10
91.84004446488721
 20
-144.0108479457681
 30
0.0
 10
91.84004446488721
 20
-143.8733886359067
 30
0.0
 10
91.84004446488721
 20
-143.7548773512141
 30
0.0
 10
91.76804196924549
 20
-143.623619213226
 30
0.0
 10
91.57132701703773
 20
-143.623619213226
 30
0.0
 10
91.31122230790136
 20
-143.623619213226
 30
0.0
 10
91.30260956918823
 20
-143.8544406107378
 30
0.0
 10
91.29847545460593
 20
-143.9705403285907
 30
0.0
 10
91.29847545460593
 20
-143.9705403285907
 30
0.0
 10
91.07419973851617
 20
-143.9705403285907
 30
0.0
 10
91.07419973851617
 20
-143.9705403285907
 30
0.0
 10
91.08264022245504
 20
-143.8437608147335
 30
0.0
 10
91.09332001845931
 20
-143.7317952114629
 30
0.0
 10
91.17359074326563
 20
-143.6132839267703
 30
0.0
 10
91.28366154401937
 20
-143.4523979676091
 30
0.0
 10
91.46969670022285
 20
-143.4186360318537
 30
0.0
 10
91.5861409276243
 20
-143.4186360318537
 30
0.0
 10
91.86347111418691
 20
-143.4186360318537
 30
0.0
 10
92.07052135285043
 20
-143.602604130766
 30
0.0
 10
92.07052135285043
 20
-143.8754556931978
 30
0.0
 10
92.07052135285043
 20
-144.1038655238699
 30
0.0
 10
91.95442163499752
 20
-144.2034287833936
 30
0.0
 10
91.6453965699706
 20
-144.4297715567745
 30
0.0
  0
HATCH
  5
78
330
71
100
AcDbEntity
  8
_U+30EC_U+30A4_U+30E4_U+30FC 1
 62
   179
420
  2234388
100
AcDbHatch
 10
0.0
 20
0.0
 30
0.0
210
0.0
220
0.0
230
1.0
  2
SOLID
 70
     1
 71
     0
 91
        1
 92
        1
 93
        1
 72
     4
 94
        3
 73
     0
 74
     1
 95
       44
 96
       40
 40
0.0
 40
0.0
 40
0.0
 40
0.0
 40
1.0
 40
1.0
 40
1.0
 40
2.0
 40
2.0
 40
2.0
 40
3.0
 40
3.0
 40
3.0
 40
4.0
 40
4.0
 40
4.0
 40
5.0
 40
5.0
 40
5.0
 40
6.0
 40
6.0
 40
6.0
 40
7.0
 40
7.0
 40
7.0
 40
8.0
 40
8.0
 40
8.0
 40
9.0
 40
9.0
 40
9.0
 40
10.0
 40
10.0
 40
10.0
 40
11.0
 40
11.0
 40
11.0
 40
12.0
 40
12.0
 40
12.0
 40
13.0
 40
13.0
 40
13.0
 40
13.0
 10
91.6453965699706
 20
-144.4297715567745
 10
91.4276665353028
 20
-144.588245949096
 10
91.3344767024268
 20
-144.6623155020289
 10
91.28572860131051
 20
-144.8063204933123
 10
91.28572860131051
 20
-144.8063204933123
 10
92.06432018097698
 20
-144.8063204933123
 10
92.06432018097698
 20
-144.8063204933123
 10
92.06432018097698
 20
-144.8063204933123
 10
92.06432018097698
 20
-145.0116481842332
 10
92.06432018097698
 20
-145.0116481842332
 10
92.06432018097698
 20
-145.0116481842332
 10
91.03613143340417
 20
-145.0116481842332
 10
91.03613143340417
 20
-145.0116481842332
 10
91.06782631186846
 20
-144.6540472728643
 10
91.13345538086247
 20
-144.5758436053491
 10
91.5186170561134
 20
-144.2774983363265
 10
91.77458765066747
 20
-144.0787163268276
 10
91.84004446488721
 20
-144.0108479457681
 10
91.84004446488721
 20
-143.8733886359067
 10
91.84004446488721
 20
-143.7548773512141
 10
91.76804196924549
 20
-143.623619213226
 10
91.57132701703773
 20
-143.623619213226
 10
91.31122230790136
 20
-143.623619213226
 10
91.30260956918823
 20
-143.8544406107378
 10
91.29847545460593
 20
-143.9705403285907
 10
91.29847545460593
 20
-143.9705403285907
 10
91.07419973851617
 20
-143.9705403285907
 10
91.07419973851617
 20
-143.9705403285907
 10
91.08264022245504
 20
-143.8437608147335
 10
91.09332001845931
 20
-143.7317952114629
 10
91.17359074326563
 20
-143.6132839267703
 10
91.28366154401937
 20
-143.4523979676091
 10
91.46969670022285
 20
-143.4186360318537
 10
91.5861409276243
 20
-143.4186360318537
 10
91.86347111418691
 20
-143.4186360318537
 10
92.07052135285043
 20
-143.602604130766
 10
92.07052135285043
 20
-143.8754556931978
 10
92.07052135285043
 20
-144.1038655238699
 10
91.95442163499752
 20
-144.2034287833936
 10
91.6453965699706
 20
-144.4297715567745
 97
        0
 97
        0
 75
     2
 76
     1
 98
        0
  0
ENDBLK
  5
74
330
71
100
AcDbEntity
  8
0
100
AcDbBlockEnd
  0
ENDSEC
  0
SECTION
  2
ENTITIES
  0
SPLINE
  5
41
330
1F
100
AcDbEntity
  8
_U+30EC_U+30A4_U+30E4_U+30FC 1
370
     0
100
AcDbSpline
210
0.0
220
0.0
230
1.0
 70
    11
 71
     3
 72
    14
 73
    10
 74
     0
 42
0.0000000001
 43
0.0000000001
 12
1.0
 22
0.0
 32
0.0
 13
1.0
 23
0.0
 33
0.0
 40
0.0
 40
0.0
 40
0.0
 40
0.0
 40
1.0
 40
1.0
 40
1.0
 40
2.0
 40
2.0
 40
2.0
 40
3.0
 40
3.0
 40
3.0
 40
3.0
 10
77.00958775754395
 20
-141.2447785757998
 30
0.0
 10
77.00958775754395
 20
-141.2447785757998
 30
0.0
 10
106.9956981036457
 20
-141.3329730202222
 30
0.0
 10
106.9956981036457
 20
-141.3329730202222
 30
0.0
 10
106.9956981036457
 20
-141.3329730202222
 30
0.0
 10
106.9956981036457
 20
-110.0239452502717
 30
0.0
 10
106.9956981036457
 20
-110.0239452502717
 30
0.0
 10
106.9956981036457
 20
-110.0239452502717
 30
0.0
 10
104.4380592800076
 20
-137.1878341323696
 30
0.0
 10
77.00958775754395
 20
-141.2447785757998
 30
0.0
  0
HATCH
  5
42
330
1F
100
AcDbEntity
  8
_U+30EC_U+30A4_U+30E4_U+30FC 1
 62
   178
420
        0
100
AcDbHatch
 10
0.0
 20
0.0
 30
0.0
210
0.0
220
0.0
230
1.0
  2
AI_USER_DEFINED_HATCH
 70
     0
 71
     0
 91
        1
 92
        1
 93
        1
 72
     4
 94
        3
 73
     0
 74
     1
 95
       14
 96
       10
 40
0.0
 40
0.0
 40
0.0
 40
0.0
 40
1.0
 40
1.0
 40
1.0
 40
2.0
 40
2.0
 40
2.0
 40
3.0
 40
3.0
 40
3.0
 40
3.0
 10
77.00958775754395
 20
-141.2447785757998
 10
77.00958775754395
 20
-141.2447785757998
 10
106.9956981036457
 20
-141.3329730202222
 10
106.9956981036457
 20
-141.3329730202222
 10
106.9956981036457
 20
-141.3329730202222
 10
106.9956981036457
 20
-110.0239452502717
 10
106.9956981036457
 20
-110.0239452502717
 10
106.9956981036457
 20
-110.0239452502717
 10
104.4380592800076
 20
-137.1878341323696
 10
77.00958775754395
 20
-141.2447785757998
 97
        0
 97
        0
 75
     2
 76
     0
 52
45.0
 41
10.0
 77
     0
 78
     1
 53
45.0
 43
0.0
 44
0.0
 45
-7.071067811865475
 46
7.071067811865476
 79
     0
 98
        0
  0
POLYLINE
  5
43
330
1F
100
AcDbEntity
  8
_U+30EC_U+30A4_U+30E4_U+30FC 1
 62
   179
420
  2234388
370
    25
100
AcDb2dPolyline
 66
     1
 10
0.0
 20
0.0
 30
0.0
  0
VERTEX
  5
44
330
43
100
AcDbEntity
  8
_U+30EC_U+30A4_U+30E4_U+30FC 1
 62
   179
420
  2234388
370
    25
100
AcDbVertex
100
AcDb2dVertex
 10
106.9640186600094
 20
-109.3841827504319
 30
0.0
  0
VERTEX
  5
45
330
43
100
AcDbEntity
  8
_U+30EC_U+30A4_U+30E4_U+30FC 1
 62
   179
420
  2234388
370
    25
100
AcDbVertex
100
AcDb2dVertex
 10
106.9640186600094
 20
-141.3843021868762
 30
0.0
  0
SEQEND
  5
46
330
43
100
AcDbEntity
  8
_U+30EC_U+30A4_U+30E4_U+30FC 1
 62
   179
420
  2234388
370
    25
  0
POLYLINE
  5
47
330
1F
100
AcDbEntity
  8
_U+30EC_U+30A4_U+30E4_U+30FC 1
 62
   179
420
  2234388
370
    25
100
AcDb2dPolyline
 66
     1
 10
0.0
 20
0.0
 30
0.0
  0
VERTEX
  5
48
330
47
100
AcDbEntity
  8
_U+30EC_U+30A4_U+30E4_U+30FC 1
 62
   179
420
  2234388
370
    25
100
AcDbVertex
100
AcDb2dVertex
 10
74.96390003195603
 20
-141.3843021868762
 30
0.0
  0
VERTEX
  5
49
330
47
100
AcDbEntity
  8
_U+30EC_U+30A4_U+30E4_U+30FC 1
 62
   179
420
  2234388
370
    25
100
AcDbVertex
100
AcDb2dVertex
 10
106.9640186600094
 20
-141.3843021868762
 30
0.0
  0
SEQEND
  5
4A
330
47
100
AcDbEntity
  8
_U+30EC_U+30A4_U+30E4_U+30FC 1
 62
   179
420
  2234388
370
    25
  0
POLYLINE
  5
4B
330
1F
100
AcDbEntity
  8
_U+30EC_U+30A4_U+30E4_U+30FC 1
 62
   179
420
  2234388
370
     9
100
AcDb2dPolyline
 66
     1
 10
0.0
 20
0.0
 30
0.0
  0
VERTEX
  5
4C
330
4B
100
AcDbEntity
  8
_U+30EC_U+30A4_U+30E4_U+30FC 1
 62
   179
420
  2234388
370
     9
100
AcDbVertex
100
AcDb2dVertex
 10
93.29592623093374
 20
-127.7162446902933
 30
0.0
  0
VERTEX
  5
4D
330
4B
100
AcDbEntity
  8
_U+30EC_U+30A4_U+30E4_U+30FC 1
 62
   179
420
  2234388
370
     9
100
AcDbVertex
100
AcDb2dVertex
 10
96.83128864073913
 20
-131.2516071894091
 30
0.0
  0
SEQEND
  5
4E
330
4B
100
AcDbEntity
  8
_U+30EC_U+30A4_U+30E4_U+30FC 1
 62
   179
420
  2234388
370
     9
  0
POLYLINE
  5
4F
330
1F
100
AcDbEntity
  8
_U+30EC_U+30A4_U+30E4_U+30FC 1
 62
   179
420
  2234388
370
     9
100
AcDb2dPolyline
 66
     1
 10
0.0
 20
0.0
 30
0.0
  0
VERTEX
  5
50
330
4F
100
AcDbEntity
  8
_U+30EC_U+30A4_U+30E4_U+30FC 1
 62
   179
420
  2234388
370
     9
100
AcDbVertex
100
AcDb2dVertex
 10
95.96588949615064
 20
-130.7517210784231
 30
0.0
  0
VERTEX
  5
51
330
4F
100
AcDbEntity
  8
_U+30EC_U+30A4_U+30E4_U+30FC 1
 62
   179
420
  2234388
370
     9
100
AcDbVertex
100
AcDb2dVertex
 10
96.83128864073913
 20
-131.2516071894091
 30
0.0
  0
SEQEND
  5
52
330
4F
100
AcDbEntity
  8
_U+30EC_U+30A4_U+30E4_U+30FC 1
 62
   179
420
  2234388
370
     9
  0
POLYLINE
  5
53
330
1F
100
AcDbEntity
  8
_U+30EC_U+30A4_U+30E4_U+30FC 1
 62
   179
420
  2234388
370
     9
100
AcDb2dPolyline
 66
     1
 10
0.0
 20
0.0
 30
0.0
  0
VERTEX
  5
54
330
53
100
AcDbEntity
  8
_U+30EC_U+30A4_U+30E4_U+30FC 1
 62
   179
420
  2234388
370
     9
100
AcDbVertex
100
AcDb2dVertex
 10
96.33175532014995
 20
-130.3855024674037
 30
0.0
  0
VERTEX
  5
55
330
53
100
AcDbEntity
  8
_U+30EC_U+30A4_U+30E4_U+30FC 1
 62
   179
420
  2234388
370
     9
100
AcDbVertex
100
AcDb2dVertex
 10
96.83128864073913
 20
-131.2516071894091
 30
0.0
  0
SEQEND
  5
56
330
53
100
AcDbEntity
  8
_U+30EC_U+30A4_U+30E4_U+30FC 1
 62
   179
420
  2234388
370
     9
  0
SPLINE
  5
57
330
1F
100
AcDbEntity
  8
_U+30EC_U+30A4_U+30E4_U+30FC 1
 62
   179
420
  2234388
370
     9
100
AcDbSpline
210
0.0
220
0.0
230
1.0
 70
    11
 71
     3
 72
    17
 73
    13
 74
     0
 42
0.0000000001
 43
0.0000000001
 12
1.0
 22
0.0
 32
0.0
 13
1.0
 23
0.0
 33
0.0
 40
0.0
 40
0.0
 40
0.0
 40
0.0
 40
1.0
 40
1.0
 40
1.0
 40
2.0
 40
2.0
 40
2.0
 40
3.0
 40
3.0
 40
3.0
 40
4.0
 40
4.0
 40
4.0
 40
4.0
 10
107.0639253241273
 20
-145.3840613525431
 30
0.0
 10
107.0639253241273
 20
-145.3289574636676
 30
0.0
 10
107.0191225474925
 20
-145.2841546859015
 30
0.0
 10
106.9640186600094
 20
-145.2841546859015
 30
0.0
 10
106.9088794947495
 20
-145.2841546859015
 30
0.0
 10
106.8641119958916
 20
-145.3289574636676
 30
0.0
 10
106.8641119958916
 20
-145.3840613525431
 30
0.0
 10
106.8641119958916
 20
-145.4395180191958
 30
0.0
 10
106.9088794947495
 20
-145.4843207969625
 30
0.0
 10
106.9640186600094
 20
-145.4843207969625
 30
0.0
 10
107.0191225474925
 20
-145.4843207969625
 30
0.0
 10
107.0639253241273
 20
-145.4395180191958
 30
0.0
 10
107.0639253241273
 20
-145.3840613525431
 30
0.0
  0
SPLINE
  5
58
330
1F
100
AcDbEntity
  8
_U+30EC_U+30A4_U+30E4_U+30FC 1
 62
   179
420
  2234388
370
    25
100
AcDbSpline
210
0.0
220
0.0
230
1.0
 70
     8
 71
     3
 72
     8
 73
     4
 74
     0
 42
0.0000000001
 43
0.0000000001
 12
1.0
 22
0.0
 32
0.0
 13
1.0
 23
0.0
 33
0.0
 40
0.0
 40
0.0
 40
0.0
 40
0.0
 40
1.0
 40
1.0
 40
1.0
 40
1.0
 10
74.96390003195603
 20
-141.3843021868762
 30
0.0
 10
92.01989376348804
 20
-139.9752724650063
 30
0.0
 10
105.5549536959577
 20
-126.4398241350566
 30
0.0
 10
106.9640186600094
 20
-109.3841827504319
 30
0.0
  0
SPLINE
  5
59
330
1F
100
AcDbEntity
  8
_U+30EC_U+30A4_U+30E4_U+30FC 1
 62
   179
420
  2234388
370
     9
100
AcDbSpline
210
0.0
220
0.0
230
1.0
 70
    11
 71
     3
 72
    17
 73
    13
 74
     0
 42
0.0000000001
 43
0.0000000001
 12
1.0
 22
0.0
 32
0.0
 13
1.0
 23
0.0
 33
0.0
 40
0.0
 40
0.0
 40
0.0
 40
0.0
 40
1.0
 40
1.0
 40
1.0
 40
2.0
 40
2.0
 40
2.0
 40
3.0
 40
3.0
 40
3.0
 40
4.0
 40
4.0
 40
4.0
 40
4.0
 10
75.06415947384264
 20
-145.3840613525431
 30
0.0
 10
75.06415947384264
 20
-145.3289574636676
 30
0.0
 10
75.01935669720787
 20
-145.2841546859015
 30
0.0
 10
74.96390003195603
 20
-145.2841546859015
 30
0.0
 10
74.90876086669607
 20
-145.2841546859015
 30
0.0
 10
74.86399336783819
 20
-145.3289574636676
 30
0.0
 10
74.86399336783819
 20
-145.3840613525431
 30
0.0
 10
74.86399336783819
 20
-145.4395180191958
 30
0.0
 10
74.90876086669607
 20
-145.4843207969625
 30
0.0
 10
74.96390003195603
 20
-145.4843207969625
 30
0.0
 10
75.01935669720787
 20
-145.4843207969625
 30
0.0
 10
75.06415947384264
 20
-145.4395180191958
 30
0.0
 10
75.06415947384264
 20
-145.3840613525431
 30
0.0
  0
INSERT
  5
5B
330
1F
100
AcDbEntity
  8
_U+30EC_U+30A4_U+30E4_U+30FC 1
100
AcDbBlockReference
  2
block 2
 10
0.0
 20
0.0
 30
0.0
  0
POLYLINE
  5
65
330
1F
100
AcDbEntity
  8
_U+30EC_U+30A4_U+30E4_U+30FC 1
 62
   179
420
  2234388
370
     9
100
AcDb2dPolyline
 66
     1
 10
0.0
 20
0.0
 30
0.0
  0
VERTEX
  5
66
330
65
100
AcDbEntity
  8
_U+30EC_U+30A4_U+30E4_U+30FC 1
 62
   179
420
  2234388
370
     9
100
AcDbVertex
100
AcDb2dVertex
 10
74.96390003195603
 20
-145.3840613525431
 30
0.0
  0
VERTEX
  5
67
330
65
100
AcDbEntity
  8
_U+30EC_U+30A4_U+30E4_U+30FC 1
 62
   179
420
  2234388
370
     9
100
AcDbVertex
100
AcDb2dVertex
 10
106.9640186600094
 20
-145.3840613525431
 30
0.0
  0
SEQEND
  5
68
330
65
100
AcDbEntity
  8
_U+30EC_U+30A4_U+30E4_U+30FC 1
 62
   179
420
  2234388
370
     9
  0
POLYLINE
  5
69
330
1F
100
AcDbEntity
  8
_U+30EC_U+30A4_U+30E4_U+30FC 1
 62
   179
420
  2234388
370
     9
100
AcDb2dPolyline
 66
     1
 10
0.0
 20
0.0
 30
0.0
  0
VERTEX
  5
6A
330
69
100
AcDbEntity
  8
_U+30EC_U+30A4_U+30E4_U+30FC 1
 62
   179
420
  2234388
370
     9
100
AcDbVertex
100
AcDb2dVertex
 10
74.96390003195603
 20
-143.9240199640188
 30
0.0
  0
VERTEX
  5
6B
330
69
100
AcDbEntity
  8
_U+30EC_U+30A4_U+30E4_U+30FC 1
 62
   179
420
  2234388
370
     9
100
AcDbVertex
100
AcDb2dVertex
 10
74.96390003195603
 20
-146.3841863522928
 30
0.0
  0
SEQEND
  5
6C
330
69
100
AcDbEntity
  8
_U+30EC_U+30A4_U+30E4_U+30FC 1
 62
   179
420
  2234388
370
     9
  0
POLYLINE
  5
6D
330
1F
100
AcDbEntity
  8
_U+30EC_U+30A4_U+30E4_U+30FC 1
 62
   179
420
  2234388
370
     9
100
AcDb2dPolyline
 66
     1
 10
0.0
 20
0.0
 30
0.0
  0
VERTEX
  5
6E
330
6D
100
AcDbEntity
  8
_U+30EC_U+30A4_U+30E4_U+30FC 1
 62
   179
420
  2234388
370
     9
100
AcDbVertex
100
AcDb2dVertex
 10
106.9640186600094
 20
-143.9240199640188
 30
0.0
  0
VERTEX
  5
6F
330
6D
100
AcDbEntity
  8
_U+30EC_U+30A4_U+30E4_U+30FC 1
 62
   179
420
  2234388
370
     9
100
AcDbVertex
100
AcDb2dVertex
 10
106.9640186600094
 20
-146.3841863522928
 30
0.0
  0
SEQEND
  5
70
330
6D
100
AcDbEntity
  8
_U+30EC_U+30A4_U+30E4_U+30FC 1
 62
   179
420
  2234388
370
     9
  0
INSERT
  5
72
330
1F
100
AcDbEntity
  8
_U+30EC_U+30A4_U+30E4_U+30FC 1
100
AcDbBlockReference
  2
block 3
 10
0.0
 20
0.0
 30
0.0
  0
SPLINE
  5
79
330
1F
100
AcDbEntity
  8
_U+30EC_U+30A4_U+30E4_U+30FC 1
 62
   179
420
  2234388
370
    25
100
AcDbSpline
210
0.0
220
0.0
230
1.0
 70
    11
 71
     3
 72
    17
 73
    13
 74
     0
 42
0.0000000001
 43
0.0000000001
 12
1.0
 22
0.0
 32
0.0
 13
1.0
 23
0.0
 33
0.0
 40
0.0
 40
0.0
 40
0.0
 40
0.0
 40
1.0
 40
1.0
 40
1.0
 40
2.0
 40
2.0
 40
2.0
 40
3.0
 40
3.0
 40
3.0
 40
4.0
 40
4.0
 40
4.0
 40
4.0
 10
74.99938947549505
 20
-141.3843021868762
 30
0.0
 10
74.99938947549505
 20
-141.4035991313161
 30
0.0
 10
74.98386725366883
 20
-141.419438853534
 30
0.0
 10
74.96390003195603
 20
-141.419438853534
 30
0.0
 10
74.94460308800389
 20
-141.419438853534
 30
0.0
 10
74.92876336618576
 20
-141.4035991313161
 30
0.0
 10
74.92876336618576
 20
-141.3843021868762
 30
0.0
 10
74.92876336618576
 20
-141.3646877424368
 30
0.0
 10
74.94460308800389
 20
-141.3488127424407
 30
0.0
 10
74.96390003195603
 20
-141.3488127424407
 30
0.0
 10
74.98386725366883
 20
-141.3488127424407
 30
0.0
 10
74.99938947549505
 20
-141.3646877424368
 30
0.0
 10
74.99938947549505
 20
-141.3843021868762
 30
0.0
  0
SPLINE
  5
7A
330
1F
100
AcDbEntity
  8
_U+30EC_U+30A4_U+30E4_U+30FC 1
 62
   179
420
  2234388
370
    25
100
AcDbSpline
210
0.0
220
0.0
230
1.0
 70
    11
 71
     3
 72
    17
 73
    13
 74
     0
 42
0.0000000001
 43
0.0000000001
 12
1.0
 22
0.0
 32
0.0
 13
1.0
 23
0.0
 33
0.0
 40
0.0
 40
0.0
 40
0.0
 40
0.0
 40
1.0
 40
1.0
 40
1.0
 40
2.0
 40
2.0
 40
2.0
 40
3.0
 40
3.0
 40
3.0
 40
4.0
 40
4.0
 40
4.0
 40
4.0
 10
106.9991553257797
 20
-141.3843021868762
 30
0.0
 10
106.9991553257797
 20
-141.4035991313161
 30
0.0
 10
106.9833156039616
 20
-141.419438853534
 30
0.0
 10
106.9640186600094
 20
-141.419438853534
 30
0.0
 10
106.9447217160573
 20
-141.419438853534
 30
0.0
 10
106.9288819942392
 20
-141.4035991313161
 30
0.0
 10
106.9288819942392
 20
-141.3843021868762
 30
0.0
 10
106.9288819942392
 20
-141.3646877424368
 30
0.0
 10
106.9447217160573
 20
-141.3488127424407
 30
0.0
 10
106.9640186600094
 20
-141.3488127424407
 30
0.0
 10
106.9833156039616
 20
-141.3488127424407
 30
0.0
 10
106.9991553257797
 20
-141.3646877424368
 30
0.0
 10
106.9991553257797
 20
-141.3843021868762
 30
0.0
  0
SPLINE
  5
7B
330
1F
100
AcDbEntity
  8
_U+30EC_U+30A4_U+30E4_U+30FC 1
 62
   179
420
  2234388
370
     9
100
AcDbSpline
210
0.0
220
0.0
230
1.0
 70
    11
 71
     3
 72
    17
 73
    13
 74
     0
 42
0.0000000001
 43
0.0000000001
 12
1.0
 22
0.0
 32
0.0
 13
1.0
 23
0.0
 33
0.0
 40
0.0
 40
0.0
 40
0.0
 40
0.0
 40
1.0
 40
1.0
 40
1.0
 40
2.0
 40
2.0
 40
2.0
 40
3.0
 40
3.0
 40
3.0
 40
4.0
 40
4.0
 40
4.0
 40
4.0
 10
106.9991553257797
 20
-145.3840613525431
 30
0.0
 10
106.9991553257797
 20
-145.4037110747601
 30
0.0
 10
106.9833156039616
 20
-145.4195507969786
 30
0.0
 10
106.9640186600094
 20
-145.4195507969786
 30
0.0
 10
106.9447217160573
 20
-145.4195507969786
 30
0.0
 10
106.9288819942392
 20
-145.4037110747601
 30
0.0
 10
106.9288819942392
 20
-145.3840613525431
 30
0.0
 10
106.9288819942392
 20
-145.3647644081033
 30
0.0
 10
106.9447217160573
 20
-145.3489246858848
 30
0.0
 10
106.9640186600094
 20
-145.3489246858848
 30
0.0
 10
106.9833156039616
 20
-145.3489246858848
 30
0.0
 10
106.9991553257797
 20
-145.3647644081033
 30
0.0
 10
106.9991553257797
 20
-145.3840613525431
 30
0.0
  0
ENDSEC
  0
SECTION
  2
OBJECTS
  0
DICTIONARY
  5
C
330
0
100
AcDbDictionary
281
     1
  3
ACAD_GROUP
350
D
  3
ACAD_LAYOUT
350
1A
  3
ACAD_MATERIAL
350
3B
  3
ACAD_MLEADERSTYLE
350
7D
  3
ACAD_MLINESTYLE
350
17
  3
ACAD_PLOTSETTINGS
350
19
  3
ACAD_PLOTSTYLENAME
350
E
  3
ACAD_TABLESTYLE
350
7C
  3
ACAD_VISUALSTYLE
350
2A
  0
SUN
  5
3F
330
29
100
AcDbSun
 90
        1
290
     0
 63
     7
421
 16777215
 40
1.0
291
     1
 91
  2455826
 92
 54000000
292
     0
 70
     2
 71
   256
280
     1
  0
DICTIONARY
  5
D
102
{ACAD_REACTORS
330
C
102
}
330
C
100
AcDbDictionary
281
     1
  0
DICTIONARY
  5
1A
102
{ACAD_REACTORS
330
C
102
}
330
C
100
AcDbDictionary
281
     1
  3
Layout1
350
1E
  3
Layout2
350
26
  3
Model
350
22
  0
DICTIONARY
  5
3B
102
{ACAD_REACTORS
330
C
102
}
330
C
100
AcDbDictionary
281
     1
  3
ByBlock
350
3D
  3
ByLayer
350
3C
  3
Global
350
3E
  0
DICTIONARY
  5
7D
102
{ACAD_REACTORS
330
C
102
}
330
C
100
AcDbDictionary
281
     1
  0
DICTIONARY
  5
17
102
{ACAD_REACTORS
330
C
102
}
330
C
100
AcDbDictionary
281
     1
  3
Standard
350
18
  0
DICTIONARY
  5
19
102
{ACAD_REACTORS
330
C
102
}
330
C
100
AcDbDictionary
281
     1
  0
ACDBDICTIONARYWDFLT
  5
E
102
{ACAD_REACTORS
330
C
102
}
330
C
100
AcDbDictionary
281
     1
  3
Normal
350
F
100
AcDbDictionaryWithDefault
340
F
  0
DICTIONARY
  5
7C
102
{ACAD_REACTORS
330
C
102
}
330
C
100
AcDbDictionary
281
     1
  0
DICTIONARY
  5
2A
102
{ACAD_REACTORS
330
C
102
}
330
C
100
AcDbDictionary
281
     1
  3
2dWireframe
350
2F
  3
3D Hidden
350
31
  3
3dWireframe
350
30
  3
Basic
350
32
  3
Brighten
350
36
  3
ColorChange
350
3A
  3
Conceptual
350
34
  3
Dim
350
35
  3
Facepattern
350
39
  3
Flat
350
2B
  3
FlatWithEdges
350
2C
  3
Gouraud
350
2D
  3
GouraudWithEdges
350
2E
  3
Linepattern
350
38
  3
Realistic
350
33
  3
Thicken
350
37
  0
LAYOUT
  5
1E
102
{ACAD_REACTORS
330
1A
102
}
330
1A
100
AcDbPlotSettings
  1

  2
none_device
  4

  6

 40
0.0
 41
0.0
 42
0.0
 43
0.0
 44
0.0
 45
0.0
 46
0.0
 47
0.0
 48
0.0
 49
0.0
140
0.0
141
0.0
142
1.0
143
1.0
 70
   688
 72
     0
 73
     0
 74
     5
  7

 75
    16
 76
     0
 77
     2
 78
   300
147
1.0
148
0.0
149
0.0
100
AcDbLayout
  1
Layout1
 70
     1
 71
     1
 10
0.0
 20
0.0
 11
12.0
 21
9.0
 12
0.0
 22
0.0
 32
0.0
 14
1.000000000000000E+20
 24
1.000000000000000E+20
 34
1.000000000000000E+20
 15
-1.000000000000000E+20
 25
-1.000000000000000E+20
 35
-1.000000000000000E+20
146
0.0
 13
0.0
 23
0.0
 33
0.0
 16
1.0
 26
0.0
 36
0.0
 17
0.0
 27
1.0
 37
0.0
 76
     0
330
1B
  0
LAYOUT
  5
26
102
{ACAD_REACTORS
330
1A
102
}
330
1A
100
AcDbPlotSettings
  1

  2
none_device
  4

  6

 40
0.0
 41
0.0
 42
0.0
 43
0.0
 44
0.0
 45
0.0
 46
0.0
 47
0.0
 48
0.0
 49
0.0
140
0.0
141
0.0
142
1.0
143
1.0
 70
   688
 72
     0
 73
     0
 74
     5
  7

 75
    16
 76
     0
 77
     2
 78
   300
147
1.0
148
0.0
149
0.0
100
AcDbLayout
  1
Layout2
 70
     1
 71
     2
 10
0.0
 20
0.0
 11
0.0
 21
0.0
 12
0.0
 22
0.0
 32
0.0
 14
0.0
 24
0.0
 34
0.0
 15
0.0
 25
0.0
 35
0.0
146
0.0
 13
0.0
 23
0.0
 33
0.0
 16
1.0
 26
0.0
 36
0.0
 17
0.0
 27
1.0
 37
0.0
 76
     0
330
23
  0
LAYOUT
  5
22
102
{ACAD_REACTORS
330
1A
102
}
330
1A
100
AcDbPlotSettings
  1

  2
none_device
  4

  6

 40
0.0
 41
0.0
 42
0.0
 43
0.0
 44
0.0
 45
0.0
 46
0.0
 47
0.0
 48
0.0
 49
0.0
140
0.0
141
0.0
142
1.0
143
1.0
 70
  1712
 72
     0
 73
     0
 74
     0
  7

 75
     0
 76
     0
 77
     2
 78
   300
147
1.0
148
0.0
149
0.0
100
AcDbLayout
  1
Model
 70
     1
 71
     0
 10
0.0
 20
0.0
 11
12.0
 21
9.0
 12
0.0
 22
0.0
 32
0.0
 14
1.000000000000000E+20
 24
1.000000000000000E+20
 34
1.000000000000000E+20
 15
-1.000000000000000E+20
 25
-1.000000000000000E+20
 35
-1.000000000000000E+20
146
0.0
 13
0.0
 23
0.0
 33
0.0
 16
1.0
 26
0.0
 36
0.0
 17
0.0
 27
1.0
 37
0.0
 76
     0
330
1F
331
29
  0
MATERIAL
  5
3D
102
{ACAD_REACTORS
330
3B
102
}
330
3B
100
AcDbMaterial
  1
ByBlock
 72
     1
 94
      127
  0
MATERIAL
  5
3C
102
{ACAD_REACTORS
330
3B
102
}
330
3B
100
AcDbMaterial
  1
ByLayer
 72
     1
 94
      127
  0
MATERIAL
  5
3E
102
{ACAD_REACTORS
330
3B
102
}
330
3B
100
AcDbMaterial
  1
Global
 72
     1
 94
      127
  0
MLINESTYLE
  5
18
102
{ACAD_REACTORS
330
17
102
}
330
17
100
AcDbMlineStyle
  2
Standard
 70
     0
  3

 62
   256
 51
90.0
 52
90.0
 71
     2
 49
0.5
 62
   256
  6
BYLAYER
 49
-0.5
 62
   256
  6
BYLAYER
  0
ACDBPLACEHOLDER
  5
F
102
{ACAD_REACTORS
330
E
102
}
330
E
  0
VISUALSTYLE
  5
2F
102
{ACAD_REACTORS
330
2A
102
}
330
2A
100
AcDbVisualStyle
  2
2dWireframe
 70
     4
177
     2
291
     0
 71
     0
176
     1
 72
     2
176
     1
 73
     0
176
     1
 90
        0
176
     1
 40
-0.6
176
     1
 41
-30.0
176
     1
 62
     5
 63
     7
421
 16777215
176
     1
 74
     1
176
     1
 91
        4
176
     1
 64
     7
176
     1
 65
   257
176
     1
 75
     1
176
     1
175
     1
176
     1
 42
1.0
176
     1
 92
        0
176
     1
 66
   257
176
     1
 43
1.0
176
     1
 76
     1
176
     1
 77
     6
176
     1
 78
     2
176
     1
 67
     7
176
     1
 79
     5
176
     1
170
     0
176
     1
171
     0
176
     1
290
     0
176
     1
 93
        1
176
     1
 44
0.0
176
     1
173
     0
176
     1
  0
VISUALSTYLE
  5
31
102
{ACAD_REACTORS
330
2A
102
}
330
2A
100
AcDbVisualStyle
  2
3D Hidden
 70
     6
177
     2
291
     0
 71
     1
176
     1
 72
     2
176
     1
 73
     2
176
     1
 90
        0
176
     1
 40
-0.6
176
     1
 41
-30.0
176
     1
 62
     5
 63
     7
421
 16777215
176
     1
 74
     2
176
     1
 91
        2
176
     1
 64
     7
176
     1
 65
   257
176
     1
 75
     2
176
     1
175
     1
176
     1
 42
40.0
176
     1
 92
        0
176
     1
 66
   257
176
     1
 43
1.0
176
     1
 76
     1
176
     1
 77
     6
176
     1
 78
     2
176
     1
 67
     7
176
     1
 79
     3
176
     1
170
     0
176
     1
171
     0
176
     1
290
     0
176
     1
 93
        1
176
     1
 44
0.0
176
     1
173
     0
176
     1
  0
VISUALSTYLE
  5
30
102
{ACAD_REACTORS
330
2A
102
}
330
2A
100
AcDbVisualStyle
  2
3dWireframe
 70
     5
177
     2
291
     0
 71
     0
176
     1
 72
     2
176
     1
 73
     0
176
     1
 90
        0
176
     1
 40
-0.6
176
     1
 41
-30.0
176
     1
 62
     5
 63
     7
421
 16777215
176
     1
 74
     1
176
     1
 91
        4
176
     1
 64
     7
176
     1
 65
   257
176
     1
 75
     1
176
     1
175
     1
176
     1
 42
1.0
176
     1
 92
        0
176
     1
 66
   257
176
     1
 43
1.0
176
     1
 76
     1
176
     1
 77
     6
176
     1
 78
     2
176
     1
 67
     7
176
     1
 79
     5
176
     1
170
     0
176
     1
171
     0
176
     1
290
     0
176
     1
 93
        1
176
     1
 44
0.0
176
     1
173
     0
176
     1
  0
VISUALSTYLE
  5
32
102
{ACAD_REACTORS
330
2A
102
}
330
2A
100
AcDbVisualStyle
  2
Basic
 70
     7
177
     2
291
     1
 71
     1
176
     1
 72
     0
176
     1
 73
     1
176
     1
 90
        0
176
     1
 40
-0.6
176
     1
 41
-30.0
176
     1
 62
     5
 63
     7
421
 16777215
176
     1
 74
     0
176
     1
 91
        4
176
     1
 64
     7
176
     1
 65
   257
176
     1
 75
     1
176
     1
175
     1
176
     1
 42
1.0
176
     1
 92
        8
176
     1
 66
     7
176
     1
 43
1.0
176
     1
 76
     1
176
     1
 77
     6
176
     1
 78
     2
176
     1
 67
     7
176
     1
 79
     5
176
     1
170
     0
176
     1
171
     0
176
     1
290
     0
176
     1
 93
        1
176
     1
 44
0.0
176
     1
173
     0
176
     1
  0
VISUALSTYLE
  5
36
102
{ACAD_REACTORS
330
2A
102
}
330
2A
100
AcDbVisualStyle
  2
Brighten
 70
    12
177
     2
291
     1
 71
     2
176
     1
 72
     2
176
     1
 73
     0
176
     1
 90
        0
176
     1
 40
-0.6
176
     1
 41
-30.0
176
     1
 62
     5
 63
     7
421
 16777215
176
     1
 74
     1
176
     1
 91
        4
176
     1
 64
     7
176
     1
 65
   257
176
     1
 75
     1
176
     1
175
     1
176
     1
 42
1.0
176
     1
 92
        8
176
     1
 66
     7
176
     1
 43
1.0
176
     1
 76
     1
176
     1
 77
     6
176
     1
 78
     2
176
     1
 67
     7
176
     1
 79
     5
176
     1
170
     0
176
     1
171
     0
176
     1
290
     0
176
     1
 93
        1
176
     1
 44
50.0
176
     1
173
     0
176
     1
  0
VISUALSTYLE
  5
3A
102
{ACAD_REACTORS
330
2A
102
}
330
2A
100
AcDbVisualStyle
  2
ColorChange
 70
    16
177
     2
291
     1
 71
     2
176
     1
 72
     2
176
     1
 73
     3
176
     1
 90
        0
176
     1
 40
-0.6
176
     1
 41
-30.0
176
     1
 62
     5
 63
     8
421
  8421504
176
     1
 74
     1
176
     1
 91
        4
176
     1
 64
     7
176
     1
 65
   257
176
     1
 75
     1
176
     1
175
     1
176
     1
 42
1.0
176
     1
 92
        8
176
     1
 66
     8
424
  8421504
176
     1
 43
1.0
176
     1
 76
     1
176
     1
 77
     6
176
     1
 78
     2
176
     1
 67
     7
176
     1
 79
     5
176
     1
170
     0
176
     1
171
     0
176
     1
290
     0
176
     1
 93
        1
176
     1
 44
0.0
176
     1
173
     0
176
     1
  0
VISUALSTYLE
  5
34
102
{ACAD_REACTORS
330
2A
102
}
330
2A
100
AcDbVisualStyle
  2
Conceptual
 70
     9
177
     2
291
     0
 71
     3
176
     1
 72
     2
176
     1
 73
     0
176
     1
 90
        0
176
     1
 40
-0.6
176
     1
 41
-30.0
176
     1
 62
     5
 63
     7
421
 16777215
176
     1
 74
     2
176
     1
 91
        2
176
     1
 64
     7
176
     1
 65
   257
176
     1
 75
     1
176
     1
175
     1
176
     1
 42
40.0
176
     1
 92
        8
176
     1
 66
     7
176
     1
 43
1.0
176
     1
 76
     1
176
     1
 77
     6
176
     1
 78
     2
176
     1
 67
     7
176
     1
 79
     3
176
     1
170
     0
176
     1
171
     0
176
     1
290
     0
176
     1
 93
        1
176
     1
 44
0.0
176
     1
173
     0
176
     1
  0
VISUALSTYLE
  5
35
102
{ACAD_REACTORS
330
2A
102
}
330
2A
100
AcDbVisualStyle
  2
Dim
 70
    11
177
     2
291
     1
 71
     2
176
     1
 72
     2
176
     1
 73
     0
176
     1
 90
        0
176
     1
 40
-0.6
176
     1
 41
-30.0
176
     1
 62
     5
 63
     7
421
 16777215
176
     1
 74
     1
176
     1
 91
        4
176
     1
 64
     7
176
     1
 65
   257
176
     1
 75
     1
176
     1
175
     1
176
     1
 42
1.0
176
     1
 92
        8
176
     1
 66
     7
176
     1
 43
1.0
176
     1
 76
     1
176
     1
 77
     6
176
     1
 78
     2
176
     1
 67
     7
176
     1
 79
     5
176
     1
170
     0
176
     1
171
     0
176
     1
290
     0
176
     1
 93
        1
176
     1
 44
-50.0
176
     1
173
     0
176
     1
  0
VISUALSTYLE
  5
39
102
{ACAD_REACTORS
330
2A
102
}
330
2A
100
AcDbVisualStyle
  2
Facepattern
 70
    15
177
     2
291
     1
 71
     2
176
     1
 72
     2
176
     1
 73
     0
176
     1
 90
        0
176
     1
 40
-0.6
176
     1
 41
-30.0
176
     1
 62
     5
 63
     7
421
 16777215
176
     1
 74
     1
176
     1
 91
        4
176
     1
 64
     7
176
     1
 65
   257
176
     1
 75
     1
176
     1
175
     1
176
     1
 42
1.0
176
     1
 92
        8
176
     1
 66
     7
176
     1
 43
1.0
176
     1
 76
     1
176
     1
 77
     6
176
     1
 78
     2
176
     1
 67
     7
176
     1
 79
     5
176
     1
170
     0
176
     1
171
     0
176
     1
290
     0
176
     1
 93
        1
176
     1
 44
0.0
176
     1
173
     0
176
     1
  0
VISUALSTYLE
  5
2B
102
{ACAD_REACTORS
330
2A
102
}
330
2A
100
AcDbVisualStyle
  2
Flat
 70
     0
177
     2
291
     1
 71
     2
176
     1
 72
     1
176
     1
 73
     1
176
     1
 90
        2
176
     1
 40
-0.6
176
     1
 41
30.0
176
     1
 62
     5
 63
     7
421
 16777215
176
     1
 74
     0
176
     1
 91
        4
176
     1
 64
     7
176
     1
 65
   257
176
     1
 75
     1
176
     1
175
     1
176
     1
 42
1.0
176
     1
 92
        8
176
     1
 66
     7
176
     1
 43
1.0
176
     1
 76
     1
176
     1
 77
     6
176
     1
 78
     2
176
     1
 67
     7
176
     1
 79
     5
176
     1
170
     0
176
     1
171
     0
176
     1
290
     0
176
     1
 93
       13
176
     1
 44
0.0
176
     1
173
     0
176
     1
  0
VISUALSTYLE
  5
2C
102
{ACAD_REACTORS
330
2A
102
}
330
2A
100
AcDbVisualStyle
  2
FlatWithEdges
 70
     1
177
     2
291
     1
 71
     2
176
     1
 72
     1
176
     1
 73
     1
176
     1
 90
        2
176
     1
 40
-0.6
176
     1
 41
30.0
176
     1
 62
     5
 63
     7
421
 16777215
176
     1
 74
     1
176
     1
 91
        4
176
     1
 64
     7
176
     1
 65
   257
176
     1
 75
     1
176
     1
175
     1
176
     1
 42
1.0
176
     1
 92
        0
176
     1
 66
   257
176
     1
 43
1.0
176
     1
 76
     1
176
     1
 77
     6
176
     1
 78
     2
176
     1
 67
     7
176
     1
 79
     5
176
     1
170
     0
176
     1
171
     0
176
     1
290
     0
176
     1
 93
       13
176
     1
 44
0.0
176
     1
173
     0
176
     1
  0
VISUALSTYLE
  5
2D
102
{ACAD_REACTORS
330
2A
102
}
330
2A
100
AcDbVisualStyle
  2
Gouraud
 70
     2
177
     2
291
     1
 71
     2
176
     1
 72
     2
176
     1
 73
     1
176
     1
 90
        2
176
     1
 40
-0.6
176
     1
 41
30.0
176
     1
 62
     5
 63
     7
421
 16777215
176
     1
 74
     0
176
     1
 91
        4
176
     1
 64
     7
176
     1
 65
   257
176
     1
 75
     1
176
     1
175
     1
176
     1
 42
1.0
176
     1
 92
        0
176
     1
 66
     7
176
     1
 43
1.0
176
     1
 76
     1
176
     1
 77
     6
176
     1
 78
     2
176
     1
 67
     7
176
     1
 79
     5
176
     1
170
     0
176
     1
171
     0
176
     1
290
     0
176
     1
 93
       13
176
     1
 44
0.0
176
     1
173
     0
176
     1
  0
VISUALSTYLE
  5
2E
102
{ACAD_REACTORS
330
2A
102
}
330
2A
100
AcDbVisualStyle
  2
GouraudWithEdges
 70
     3
177
     2
291
     1
 71
     2
176
     1
 72
     2
176
     1
 73
     1
176
     1
 90
        2
176
     1
 40
-0.6
176
     1
 41
30.0
176
     1
 62
     5
 63
     7
421
 16777215
176
     1
 74
     1
176
     1
 91
        4
176
     1
 64
     7
176
     1
 65
   257
176
     1
 75
     1
176
     1
175
     1
176
     1
 42
1.0
176
     1
 92
        0
176
     1
 66
   257
176
     1
 43
1.0
176
     1
 76
     1
176
     1
 77
     6
176
     1
 78
     2
176
     1
 67
     7
176
     1
 79
     5
176
     1
170
     0
176
     1
171
     0
176
     1
290
     0
176
     1
 93
       13
176
     1
 44
0.0
176
     1
173
     0
176
     1
  0
VISUALSTYLE
  5
38
102
{ACAD_REACTORS
330
2A
102
}
330
2A
100
AcDbVisualStyle
  2
Linepattern
 70
    14
177
     2
291
     1
 71
     2
176
     1
 72
     2
176
     1
 73
     0
176
     1
 90
        0
176
     1
 40
-0.6
176
     1
 41
-30.0
176
     1
 62
     5
 63
     7
421
 16777215
176
     1
 74
     1
176
     1
 91
        4
176
     1
 64
     7
176
     1
 65
   257
176
     1
 75
     7
176
     1
175
     7
176
     1
 42
1.0
176
     1
 92
        8
176
     1
 66
     7
176
     1
 43
1.0
176
     1
 76
     1
176
     1
 77
     6
176
     1
 78
     2
176
     1
 67
     7
176
     1
 79
     5
176
     1
170
     0
176
     1
171
     0
176
     1
290
     0
176
     1
 93
        1
176
     1
 44
0.0
176
     1
173
     0
176
     1
  0
VISUALSTYLE
  5
33
102
{ACAD_REACTORS
330
2A
102
}
330
2A
100
AcDbVisualStyle
  2
Realistic
 70
     8
177
     2
291
     0
 71
     2
176
     1
 72
     2
176
     1
 73
     0
176
     1
 90
        0
176
     1
 40
-0.6
176
     1
 41
-30.0
176
     1
 62
     5
 63
     7
421
 16777215
176
     1
 74
     1
176
     1
 91
        0
176
     1
 64
     7
176
     1
 65
   257
176
     1
 75
     1
176
     1
175
     1
176
     1
 42
1.0
176
     1
 92
        8
176
     1
 66
     8
424
  7895160
176
     1
 43
1.0
176
     1
 76
     1
176
     1
 77
     6
176
     1
 78
     2
176
     1
 67
     7
176
     1
 79
     5
176
     1
170
     0
176
     1
171
     0
176
     1
290
     0
176
     1
 93
       13
176
     1
 44
0.0
176
     1
173
     0
176
     1
  0
VISUALSTYLE
  5
37
102
{ACAD_REACTORS
330
2A
102
}
330
2A
100
AcDbVisualStyle
  2
Thicken
 70
    13
177
     2
291
     1
 71
     2
176
     1
 72
     2
176
     1
 73
     0
176
     1
 90
        0
176
     1
 40
-0.6
176
     1
 41
-30.0
176
     1
 62
     5
 63
     7
421
 16777215
176
     1
 74
     1
176
     1
 91
        4
176
     1
 64
     7
176
     1
 65
   257
176
     1
 75
     1
176
     1
175
     1
176
     1
 42
1.0
176
     1
 92
       12
176
     1
 66
     7
176
     1
 43
1.0
176
     1
 76
     1
176
     1
 77
     6
176
     1
 78
     2
176
     1
 67
     7
176
     1
 79
     5
176
     1
170
     0
176
     1
171
     0
176
     1
290
     0
176
     1
 93
        1
176
     1
 44
0.0
176
     1
173
     0
176
     1
  0
ENDSEC
  0
EOF
