  0
SECTION
  2
HEADER
  9
$ACADVER
  1
AC1024
  9
$ACADMAINTVER
 70
     6
  9
$DWGCODEPAGE
  3
UNDEFINED
  9
$INSBASE
 10
0.0
 20
0.0
 30
0.0
  9
$EXTMIN
 10
1.000000000000000E+20
 20
1.000000000000000E+20
 30
1.000000000000000E+20
  9
$EXTMAX
 10
-1.000000000000000E+20
 20
-1.000000000000000E+20
 30
-1.000000000000000E+20
  9
$LIMMIN
 10
0.0
 20
0.0
  9
$LIMMAX
 10
12.0
 20
9.0
  9
$ORTHOMODE
 70
     0
  9
$REGENMODE
 70
     1
  9
$FILLMODE
 70
     1
  9
$QTEXTMODE
 70
     0
  9
$MIRRTEXT
 70
     1
  9
$LTSCALE
 40
1.0
  9
$ATTMODE
 70
     1
  9
$TEXTSIZE
 40
0.2
  9
$TRACEWID
 40
0.05
  9
$TEXTSTYLE
  7
Standard
  9
$CLAYER
  8
0
  9
$CELTYPE
  6
ByLayer
  9
$CECOLOR
 62
   256
  9
$CELTSCALE
 40
1.0
  9
$DISPSILH
 70
     0
  9
$DIMSCALE
 40
1.0
  9
$DIMASZ
 40
0.18
  9
$DIMEXO
 40
0.0625
  9
$DIMDLI
 40
0.38
  9
$DIMRND
 40
0.0
  9
$DIMDLE
 40
0.0
  9
$DIMEXE
 40
0.18
  9
$DIMTP
 40
0.0
  9
$DIMTM
 40
0.0
  9
$DIMTXT
 40
0.18
  9
$DIMCEN
 40
0.09
  9
$DIMTSZ
 40
0.0
  9
$DIMTOL
 70
     0
  9
$DIMLIM
 70
     0
  9
$DIMTIH
 70
     1
  9
$DIMTOH
 70
     1
  9
$DIMSE1
 70
     0
  9
$DIMSE2
 70
     0
  9
$DIMTAD
 70
     0
  9
$DIMZIN
 70
     0
  9
$DIMBLK
  1

  9
$DIMASO
 70
     1
  9
$DIMSHO
 70
     1
  9
$DIMPOST
  1

  9
$DIMAPOST
  1

  9
$DIMALT
 70
     0
  9
$DIMALTD
 70
     2
  9
$DIMALTF
 40
25.4
  9
$DIMLFAC
 40
1.0
  9
$DIMTOFL
 70
     0
  9
$DIMTVP
 40
0.0
  9
$DIMTIX
 70
     0
  9
$DIMSOXD
 70
     0
  9
$DIMSAH
 70
     0
  9
$DIMBLK1
  1

  9
$DIMBLK2
  1

  9
$DIMSTYLE
  2
Standard
  9
$DIMCLRD
 70
     0
  9
$DIMCLRE
 70
     0
  9
$DIMCLRT
 70
     0
  9
$DIMTFAC
 40
1.0
  9
$DIMGAP
 40
0.09
  9
$DIMJUST
 70
     0
  9
$DIMSD1
 70
     0
  9
$DIMSD2
 70
     0
  9
$DIMTOLJ
 70
     1
  9
$DIMTZIN
 70
     0
  9
$DIMALTZ
 70
     0
  9
$DIMALTTZ
 70
     0
  9
$DIMUPT
 70
     0
  9
$DIMDEC
 70
     4
  9
$DIMTDEC
 70
     4
  9
$DIMALTU
 70
     2
  9
$DIMALTTD
 70
     2
  9
$DIMTXSTY
  7
Standard
  9
$DIMAUNIT
 70
     0
  9
$DIMADEC
 70
     0
  9
$DIMALTRND
 40
0.0
  9
$DIMAZIN
 70
     0
  9
$DIMDSEP
 70
    46
  9
$DIMATFIT
 70
     3
  9
$DIMFRAC
 70
     0
  9
$DIMLDRBLK
  1

  9
$DIMLUNIT
 70
     2
  9
$DIMLWD
 70
    -2
  9
$DIMLWE
 70
    -2
  9
$DIMTMOVE
 70
     0
  9
$DIMFXL
 40
1.0
  9
$DIMFXLON
 70
     0
  9
$DIMJOGANG
 40
0.7853981633974483
  9
$DIMTFILL
 70
     0
  9
$DIMTFILLCLR
 70
     0
  9
$DIMARCSYM
 70
     0
  9
$DIMLTYPE
  6

  9
$DIMLTEX1
  6

  9
$DIMLTEX2
  6

  9
$DIMTXTDIRECTION
 70
     0
  9
$LUNITS
 70
     2
  9
$LUPREC
 70
     4
  9
$SKETCHINC
 40
0.1
  9
$FILLETRAD
 40
0.5
  9
$AUNITS
 70
     0
  9
$AUPREC
 70
     0
  9
$MENU
  1
.
  9
$ELEVATION
 40
0.0
  9
$PELEVATION
 40
0.0
  9
$THICKNESS
 40
0.0
  9
$LIMCHECK
 70
     0
  9
$CHAMFERA
 40
0.5
  9
$CHAMFERB
 40
0.5
  9
$CHAMFERC
 40
1.0
  9
$CHAMFERD
 40
0.0
  9
$SKPOLY
 70
     0
  9
$TDCREATE
 40
2457917.636550926
  9
$TDUCREATE
 40
2457917.261550926
  9
$TDUPDATE
 40
2457917.636550926
  9
$TDUUPDATE
 40
2457917.261550926
  9
$TDINDWG
 40
0.0000000116
  9
$TDUSRTIMER
 40
0.0000000116
  9
$USRTIMER
 70
     1
  9
$ANGBASE
 50
0.0
  9
$ANGDIR
 70
     0
  9
$PDMODE
 70
     0
  9
$PDSIZE
 40
0.0
  9
$PLINEWID
 40
0.0
  9
$SPLFRAME
 70
     0
  9
$SPLINETYPE
 70
     6
  9
$SPLINESEGS
 70
     8
  9
$HANDSEED
  5
8B
  9
$SURFTAB1
 70
     6
  9
$SURFTAB2
 70
     6
  9
$SURFTYPE
 70
     6
  9
$SURFU
 70
     6
  9
$SURFV
 70
     6
  9
$UCSBASE
  2

  9
$UCSNAME
  2

  9
$UCSORG
 10
0.0
 20
0.0
 30
0.0
  9
$UCSXDIR
 10
1.0
 20
0.0
 30
0.0
  9
$UCSYDIR
 10
0.0
 20
1.0
 30
0.0
  9
$UCSORTHOREF
  2

  9
$UCSORTHOVIEW
 70
     0
  9
$UCSORGTOP
 10
0.0
 20
0.0
 30
0.0
  9
$UCSORGBOTTOM
 10
0.0
 20
0.0
 30
0.0
  9
$UCSORGLEFT
 10
0.0
 20
0.0
 30
0.0
  9
$UCSORGRIGHT
 10
0.0
 20
0.0
 30
0.0
  9
$UCSORGFRONT
 10
0.0
 20
0.0
 30
0.0
  9
$UCSORGBACK
 10
0.0
 20
0.0
 30
0.0
  9
$PUCSBASE
  2

  9
$PUCSNAME
  2

  9
$PUCSORG
 10
0.0
 20
0.0
 30
0.0
  9
$PUCSXDIR
 10
1.0
 20
0.0
 30
0.0
  9
$PUCSYDIR
 10
0.0
 20
1.0
 30
0.0
  9
$PUCSORTHOREF
  2

  9
$PUCSORTHOVIEW
 70
     0
  9
$PUCSORGTOP
 10
0.0
 20
0.0
 30
0.0
  9
$PUCSORGBOTTOM
 10
0.0
 20
0.0
 30
0.0
  9
$PUCSORGLEFT
 10
0.0
 20
0.0
 30
0.0
  9
$PUCSORGRIGHT
 10
0.0
 20
0.0
 30
0.0
  9
$PUCSORGFRONT
 10
0.0
 20
0.0
 30
0.0
  9
$PUCSORGBACK
 10
0.0
 20
0.0
 30
0.0
  9
$USERI1
 70
     0
  9
$USERI2
 70
     0
  9
$USERI3
 70
     0
  9
$USERI4
 70
     0
  9
$USERI5
 70
     0
  9
$USERR1
 40
0.0
  9
$USERR2
 40
0.0
  9
$USERR3
 40
0.0
  9
$USERR4
 40
0.0
  9
$USERR5
 40
0.0
  9
$WORLDVIEW
 70
     1
  9
$SHADEDGE
 70
     3
  9
$SHADEDIF
 70
    70
  9
$TILEMODE
 70
     1
  9
$MAXACTVP
 70
    64
  9
$PINSBASE
 10
0.0
 20
0.0
 30
0.0
  9
$PLIMCHECK
 70
     0
  9
$PEXTMIN
 10
1.000000000000000E+20
 20
1.000000000000000E+20
 30
1.000000000000000E+20
  9
$PEXTMAX
 10
-1.000000000000000E+20
 20
-1.000000000000000E+20
 30
-1.000000000000000E+20
  9
$PLIMMIN
 10
0.0
 20
0.0
  9
$PLIMMAX
 10
12.0
 20
9.0
  9
$UNITMODE
 70
     0
  9
$VISRETAIN
 70
     1
  9
$PLINEGEN
 70
     0
  9
$PSLTSCALE
 70
     1
  9
$TREEDEPTH
 70
  3020
  9
$CMLSTYLE
  2
Standard
  9
$CMLJUST
 70
     0
  9
$CMLSCALE
 40
1.0
  9
$PROXYGRAPHICS
 70
     1
  9
$MEASUREMENT
 70
     0
  9
$CELWEIGHT
370
    -1
  9
$ENDCAPS
280
     0
  9
$JOINSTYLE
280
     0
  9
$LWDISPLAY
290
     1
  9
$INSUNITS
 70
     1
  9
$HYPERLINKBASE
  1

  9
$STYLESHEET
  1

  9
$XEDIT
290
     1
  9
$CEPSNTYPE
380
     0
  9
$PSTYLEMODE
290
     1
  9
$FINGERPRINTGUID
  2
{D32156AA-A659-CCB8-C4B6-41FA89DDFA7D}
  9
$VERSIONGUID
  2
{FAEB1C32-E019-11D5-929B-00C0DF256EC4}
  9
$EXTNAMES
290
     1
  9
$PSVPSCALE
 40
0.0
  9
$OLESTARTUP
290
     0
  9
$SORTENTS
280
   127
  9
$INDEXCTL
280
     0
  9
$HIDETEXT
280
     1
  9
$XCLIPFRAME
280
     2
  9
$HALOGAP
280
     0
  9
$OBSCOLOR
 70
   257
  9
$OBSLTYPE
280
     0
  9
$INTERSECTIONDISPLAY
280
     0
  9
$INTERSECTIONCOLOR
 70
   257
  9
$DIMASSOC
280
     2
  9
$PROJECTNAME
  1

  9
$CAMERADISPLAY
290
     0
  9
$LENSLENGTH
 40
50.0
  9
$CAMERAHEIGHT
 40
0.0
  9
$STEPSPERSEC
 40
2.0
  9
$STEPSIZE
 40
6.0
  9
$3DDWFPREC
 40
2.0
  9
$PSOLWIDTH
 40
0.25
  9
$PSOLHEIGHT
 40
4.0
  9
$LOFTANG1
 40
1.570796326794897
  9
$LOFTANG2
 40
1.570796326794897
  9
$LOFTMAG1
 40
0.0
  9
$LOFTMAG2
 40
0.0
  9
$LOFTPARAM
 70
     7
  9
$LOFTNORMALS
280
     1
  9
$LATITUDE
 40
37.795
  9
$LONGITUDE
 40
-122.394
  9
$NORTHDIRECTION
 40
0.0
  9
$TIMEZONE
 70
 -8000
  9
$LIGHTGLYPHDISPLAY
280
     1
  9
$TILEMODELIGHTSYNCH
280
     1
  9
$CMATERIAL
347
3C
  9
$SOLIDHIST
280
     1
  9
$SHOWHIST
280
     1
  9
$DWFFRAME
280
     2
  9
$DGNFRAME
280
     2
  9
$REALWORLDSCALE
290
     1
  9
$INTERFERECOLOR
 62
   256
  9
$CSHADOW
280
     0
  9
$SHADOWPLANELOCATION
 40
0.0
  0
ENDSEC
  0
SECTION
  2
CLASSES
  0
CLASS
  1
ACDBDICTIONARYWDFLT
  2
AcDbDictionaryWithDefault
  3
ObjectDBX Classes
 90
        0
 91
        4
280
     0
281
     0
  0
CLASS
  1
VISUALSTYLE
  2
AcDbVisualStyle
  3
ObjectDBX Classes
 90
     4095
 91
        4
280
     0
281
     0
  0
CLASS
  1
MATERIAL
  2
AcDbMaterial
  3
ObjectDBX Classes
 90
     1153
 91
        4
280
     0
281
     0
  0
CLASS
  1
SUN
  2
AcDbSun
  3
SCENEOE
 90
     1024
 91
        4
280
     0
281
     0
  0
ENDSEC
  0
SECTION
  2
TABLES
  0
TABLE
  2
VPORT
  5
8
330
0
100
AcDbSymbolTable
 70
     1
  0
VPORT
  5
29
330
8
100
AcDbSymbolTableRecord
100
AcDbViewportTableRecord
  2
*Active
 70
     0
 10
0.0
 20
0.0
 11
1.0
 21
1.0
 12
0.0
 22
0.0
 13
0.0
 23
0.0
 14
0.5
 24
0.5
 15
0.5
 25
0.5
 16
0.0
 26
0.0
 36
1.0
 17
91.00082462281999
 27
-128.4993055234307
 37
0.0
 40
256.9986110468615
 41
0.7081814508812795
 42
50.0
 43
0.0
 44
0.0
 50
0.0
 51
0.0
 71
     0
 72
   100
 73
     1
 74
     3
 75
     0
 76
     0
 77
     0
 78
     0
281
     0
 65
     1
110
0.0
120
0.0
130
0.0
111
1.0
121
0.0
131
0.0
112
0.0
122
1.0
132
0.0
 79
     0
146
0.0
 60
     3
 61
     5
292
     1
282
     1
141
0.0
142
0.0
 63
   250
361
3F
  0
ENDTAB
  0
TABLE
  2
LTYPE
  5
5
330
0
100
AcDbSymbolTable
 70
     1
  0
LTYPE
  5
14
330
5
100
AcDbSymbolTableRecord
100
AcDbLinetypeTableRecord
  2
ByBlock
 70
     0
  3

 72
    65
 73
     0
 40
0.0
  0
LTYPE
  5
15
330
5
100
AcDbSymbolTableRecord
100
AcDbLinetypeTableRecord
  2
ByLayer
 70
     0
  3

 72
    65
 73
     0
 40
0.0
  0
LTYPE
  5
16
330
5
100
AcDbSymbolTableRecord
100
AcDbLinetypeTableRecord
  2
Continuous
 70
     0
  3
Solid line
 72
    65
 73
     0
 40
0.0
  0
ENDTAB
  0
TABLE
  2
LAYER
  5
2
330
0
100
AcDbSymbolTable
 70
     2
  0
LAYER
  5
10
330
2
100
AcDbSymbolTableRecord
100
AcDbLayerTableRecord
  2
0
 70
     0
 62
     7
  6
Continuous
370
    -3
390
F
347
3E
  0
LAYER
  5
40
330
2
100
AcDbSymbolTableRecord
100
AcDbLayerTableRecord
  2
_U+30EC_U+30A4_U+30E4_U+30FC 1
 70
     0
 62
     7
  6
Continuous
370
    -3
390
F
347
3E
  0
ENDTAB
  0
TABLE
  2
STYLE
  5
3
330
0
100
AcDbSymbolTable
 70
     1
  0
STYLE
  5
11
330
3
100
AcDbSymbolTableRecord
100
AcDbTextStyleTableRecord
  2
Standard
 70
     0
 40
0.0
 41
1.0
 50
0.0
 71
     0
 42
0.2
  3
txt
  4

  0
ENDTAB
  0
TABLE
  2
VIEW
  5
6
330
0
100
AcDbSymbolTable
 70
     0
  0
ENDTAB
  0
TABLE
  2
UCS
  5
7
330
0
100
AcDbSymbolTable
 70
     0
  0
ENDTAB
  0
TABLE
  2
APPID
  5
9
330
0
100
AcDbSymbolTable
 70
     1
  0
APPID
  5
12
330
9
100
AcDbSymbolTableRecord
100
AcDbRegAppTableRecord
  2
ACAD
 70
     0
  0
ENDTAB
  0
TABLE
  2
DIMSTYLE
  5
A
330
0
100
AcDbSymbolTable
 70
     1
100
AcDbDimStyleTable
  0
DIMSTYLE
105
27
330
A
100
AcDbSymbolTableRecord
100
AcDbDimStyleTableRecord
  2
Standard
 70
     0
178
     0
340
11
  0
ENDTAB
  0
TABLE
  2
BLOCK_RECORD
  5
1
330
0
100
AcDbSymbolTable
 70
     3
  0
BLOCK_RECORD
  5
1F
330
1
100
AcDbSymbolTableRecord
100
AcDbBlockTableRecord
  2
*Model_Space
340
22
 70
     0
280
     1
281
     0
  0
BLOCK_RECORD
  5
1B
330
1
100
AcDbSymbolTableRecord
100
AcDbBlockTableRecord
  2
*Paper_Space
340
1E
 70
     0
280
     1
281
     0
  0
BLOCK_RECORD
  5
23
330
1
100
AcDbSymbolTableRecord
100
AcDbBlockTableRecord
  2
*Paper_Space0
340
26
 70
     0
280
     1
281
     0
  0
BLOCK_RECORD
  5
63
330
1
100
AcDbSymbolTableRecord
100
AcDbBlockTableRecord
  2
block 2
340
0
102
{BLKREFS
331
64
102
}
 70
     0
280
     1
281
     0
  0
BLOCK_RECORD
  5
7E
330
1
100
AcDbSymbolTableRecord
100
AcDbBlockTableRecord
  2
block 3
340
0
102
{BLKREFS
331
7F
102
}
 70
     0
280
     1
281
     0
  0
ENDTAB
  0
ENDSEC
  0
SECTION
  2
BLOCKS
  0
BLOCK
  5
20
330
1F
100
AcDbEntity
  8
0
100
AcDbBlockBegin
  2
*Model_Space
 70
     0
 10
0.0
 20
0.0
 30
0.0
  3
*Model_Space
  1

  0
ENDBLK
  5
21
330
1F
100
AcDbEntity
  8
0
100
AcDbBlockEnd
  0
BLOCK
  5
1C
330
1B
100
AcDbEntity
 67
     1
  8
0
100
AcDbBlockBegin
  2
*Paper_Space
 70
     0
 10
0.0
 20
0.0
 30
0.0
  3
*Paper_Space
  1

  0
ENDBLK
  5
1D
330
1B
100
AcDbEntity
 67
     1
  8
0
100
AcDbBlockEnd
  0
BLOCK
  5
24
330
23
100
AcDbEntity
  8
0
100
AcDbBlockBegin
  2
*Paper_Space0
 70
     0
 10
0.0
 20
0.0
 30
0.0
  3
*Paper_Space0
  1

  0
ENDBLK
  5
25
330
23
100
AcDbEntity
  8
0
100
AcDbBlockEnd
  0
BLOCK
  5
65
330
63
100
AcDbEntity
  8
0
100
AcDbBlockBegin
  2
block 2
 70
     0
 10
0.0
 20
0.0
 30
0.0
  3
block 2
  1

  0
SPLINE
  5
67
330
63
100
AcDbEntity
  8
_U+30EC_U+30A4_U+30E4_U+30FC 1
370
     0
100
AcDbSpline
210
0.0
220
0.0
230
1.0
 70
    11
 71
     3
 72
    44
 73
    40
 74
     0
 42
0.0000000001
 43
0.0000000001
 12
1.0
 22
0.0
 32
0.0
 13
1.0
 23
0.0
 33
0.0
 40
0.0
 40
0.0
 40
0.0
 40
0.0
 40
1.0
 40
1.0
 40
1.0
 40
2.0
 40
2.0
 40
2.0
 40
3.0
 40
3.0
 40
3.0
 40
4.0
 40
4.0
 40
4.0
 40
5.0
 40
5.0
 40
5.0
 40
6.0
 40
6.0
 40
6.0
 40
7.0
 40
7.0
 40
7.0
 40
8.0
 40
8.0
 40
8.0
 40
9.0
 40
9.0
 40
9.0
 40
10.0
 40
10.0
 40
10.0
 40
11.0
 40
11.0
 40
11.0
 40
12.0
 40
12.0
 40
12.0
 40
13.0
 40
13.0
 40
13.0
 40
13.0
 10
90.53710935236573
 20
-141.271652525446
 30
0.0
 10
90.31920706292368
 20
-141.4301269177675
 30
0.0
 10
90.22601723004766
 20
-141.5041964707004
 30
0.0
 10
90.17744138370564
 20
-141.6482014619838
 30
0.0
 10
90.17744138370564
 20
-141.6482014619838
 30
0.0
 10
90.95586070859784
 20
-141.6482014619838
 30
0.0
 10
90.95586070859784
 20
-141.6482014619838
 30
0.0
 10
90.95586070859784
 20
-141.6482014619838
 30
0.0
 10
90.95586070859784
 20
-141.8531846433561
 30
0.0
 10
90.95586070859784
 20
-141.8531846433561
 30
0.0
 10
90.95586070859784
 20
-141.8531846433561
 30
0.0
 10
89.9278442157993
 20
-141.8531846433561
 30
0.0
 10
89.9278442157993
 20
-141.8531846433561
 30
0.0
 10
89.95953909426359
 20
-141.4955837319872
 30
0.0
 10
90.02499590848333
 20
-141.417380064472
 30
0.0
 10
90.41015758373428
 20
-141.1190347954494
 30
0.0
 10
90.66612817828833
 20
-140.9202527859505
 30
0.0
 10
90.73158499250808
 20
-140.8527289144396
 30
0.0
 10
90.73158499250808
 20
-140.7152696045781
 30
0.0
 10
90.73158499250808
 20
-140.5967583198855
 30
0.0
 10
90.65975475164062
 20
-140.4655001818975
 30
0.0
 10
90.46303979943285
 20
-140.4655001818975
 30
0.0
 10
90.20276283552224
 20
-140.4655001818975
 30
0.0
 10
90.19432235158337
 20
-140.6959770698607
 30
0.0
 10
90.19001598222681
 20
-140.8124212972622
 30
0.0
 10
90.19001598222681
 20
-140.8124212972622
 30
0.0
 10
89.9659125209113
 20
-140.8124212972622
 30
0.0
 10
89.9659125209113
 20
-140.8124212972622
 30
0.0
 10
89.97435300485017
 20
-140.685641783405
 30
0.0
 10
89.98486054608018
 20
-140.5733316705858
 30
0.0
 10
90.06530352566077
 20
-140.4548203858932
 30
0.0
 10
90.17520207164023
 20
-140.2942789362806
 30
0.0
 10
90.36140948261799
 20
-140.2601724909766
 30
0.0
 10
90.47785371001943
 20
-140.2601724909766
 30
0.0
 10
90.75501164180778
 20
-140.2601724909766
 30
0.0
 10
90.96223413524555
 20
-140.4444850994375
 30
0.0
 10
90.96223413524555
 20
-140.7173366618693
 30
0.0
 10
90.96223413524555
 20
-140.9457464925414
 30
0.0
 10
90.84596216261838
 20
-141.0453097520651
 30
0.0
 10
90.53710935236573
 20
-141.271652525446
 30
0.0
  0
HATCH
  5
68
330
63
100
AcDbEntity
  8
_U+30EC_U+30A4_U+30E4_U+30FC 1
 62
   179
420
  2234388
100
AcDbHatch
 10
0.0
 20
0.0
 30
0.0
210
0.0
220
0.0
230
1.0
  2
SOLID
 70
     1
 71
     0
 91
        1
 92
        1
 93
        1
 72
     4
 94
        3
 73
     0
 74
     1
 95
       44
 96
       40
 40
0.0
 40
0.0
 40
0.0
 40
0.0
 40
1.0
 40
1.0
 40
1.0
 40
2.0
 40
2.0
 40
2.0
 40
3.0
 40
3.0
 40
3.0
 40
4.0
 40
4.0
 40
4.0
 40
5.0
 40
5.0
 40
5.0
 40
6.0
 40
6.0
 40
6.0
 40
7.0
 40
7.0
 40
7.0
 40
8.0
 40
8.0
 40
8.0
 40
9.0
 40
9.0
 40
9.0
 40
10.0
 40
10.0
 40
10.0
 40
11.0
 40
11.0
 40
11.0
 40
12.0
 40
12.0
 40
12.0
 40
13.0
 40
13.0
 40
13.0
 40
13.0
 10
90.53710935236573
 20
-141.271652525446
 10
90.31920706292368
 20
-141.4301269177675
 10
90.22601723004766
 20
-141.5041964707004
 10
90.17744138370564
 20
-141.6482014619838
 10
90.17744138370564
 20
-141.6482014619838
 10
90.95586070859784
 20
-141.6482014619838
 10
90.95586070859784
 20
-141.6482014619838
 10
90.95586070859784
 20
-141.6482014619838
 10
90.95586070859784
 20
-141.8531846433561
 10
90.95586070859784
 20
-141.8531846433561
 10
90.95586070859784
 20
-141.8531846433561
 10
89.9278442157993
 20
-141.8531846433561
 10
89.9278442157993
 20
-141.8531846433561
 10
89.95953909426359
 20
-141.4955837319872
 10
90.02499590848333
 20
-141.417380064472
 10
90.41015758373428
 20
-141.1190347954494
 10
90.66612817828833
 20
-140.9202527859505
 10
90.73158499250808
 20
-140.8527289144396
 10
90.73158499250808
 20
-140.7152696045781
 10
90.73158499250808
 20
-140.5967583198855
 10
90.65975475164062
 20
-140.4655001818975
 10
90.46303979943285
 20
-140.4655001818975
 10
90.20276283552224
 20
-140.4655001818975
 10
90.19432235158337
 20
-140.6959770698607
 10
90.19001598222681
 20
-140.8124212972622
 10
90.19001598222681
 20
-140.8124212972622
 10
89.9659125209113
 20
-140.8124212972622
 10
89.9659125209113
 20
-140.8124212972622
 10
89.97435300485017
 20
-140.685641783405
 10
89.98486054608018
 20
-140.5733316705858
 10
90.06530352566077
 20
-140.4548203858932
 10
90.17520207164023
 20
-140.2942789362806
 10
90.36140948261799
 20
-140.2601724909766
 10
90.47785371001943
 20
-140.2601724909766
 10
90.75501164180778
 20
-140.2601724909766
 10
90.96223413524555
 20
-140.4444850994375
 10
90.96223413524555
 20
-140.7173366618693
 10
90.96223413524555
 20
-140.9457464925414
 10
90.84596216261838
 20
-141.0453097520651
 10
90.53710935236573
 20
-141.271652525446
 97
        0
 97
        0
 75
     2
 76
     1
 98
        0
  0
POLYLINE
  5
69
330
63
100
AcDbEntity
  8
_U+30EC_U+30A4_U+30E4_U+30FC 1
370
     0
100
AcDb2dPolyline
 66
     1
 10
0.0
 20
0.0
 30
0.0
  0
VERTEX
  5
6A
330
69
100
AcDbEntity
  8
_U+30EC_U+30A4_U+30E4_U+30FC 1
370
     0
100
AcDbVertex
100
AcDb2dVertex
 10
91.95304359680341
 20
-141.5062635279915
 30
0.0
  0
VERTEX
  5
6B
330
69
100
AcDbEntity
  8
_U+30EC_U+30A4_U+30E4_U+30FC 1
370
     0
100
AcDbVertex
100
AcDb2dVertex
 10
91.95304359680341
 20
-141.8531846433561
 30
0.0
  0
VERTEX
  5
6C
330
69
100
AcDbEntity
  8
_U+30EC_U+30A4_U+30E4_U+30FC 1
370
     0
100
AcDbVertex
100
AcDb2dVertex
 10
91.73496905258709
 20
-141.8531846433561
 30
0.0
  0
VERTEX
  5
6D
330
69
100
AcDbEntity
  8
_U+30EC_U+30A4_U+30E4_U+30FC 1
370
     0
100
AcDbVertex
100
AcDb2dVertex
 10
91.73496905258709
 20
-141.5062635279915
 30
0.0
  0
VERTEX
  5
6E
330
69
100
AcDbEntity
  8
_U+30EC_U+30A4_U+30E4_U+30FC 1
370
     0
100
AcDbVertex
100
AcDb2dVertex
 10
91.0791951269698
 20
-141.5062635279915
 30
0.0
  0
VERTEX
  5
6F
330
69
100
AcDbEntity
  8
_U+30EC_U+30A4_U+30E4_U+30FC 1
370
     0
100
AcDbVertex
100
AcDb2dVertex
 10
91.0791951269698
 20
-141.2819878119017
 30
0.0
  0
VERTEX
  5
70
330
69
100
AcDbEntity
  8
_U+30EC_U+30A4_U+30E4_U+30FC 1
370
     0
100
AcDbVertex
100
AcDb2dVertex
 10
91.75805119233827
 20
-140.3090928468672
 30
0.0
  0
VERTEX
  5
71
330
69
100
AcDbEntity
  8
_U+30EC_U+30A4_U+30E4_U+30FC 1
370
     0
100
AcDbVertex
100
AcDb2dVertex
 10
91.95304359680341
 20
-140.3090928468672
 30
0.0
  0
VERTEX
  5
72
330
69
100
AcDbEntity
  8
_U+30EC_U+30A4_U+30E4_U+30FC 1
370
     0
100
AcDbVertex
100
AcDb2dVertex
 10
91.95304359680341
 20
-141.3074815184926
 30
0.0
  0
VERTEX
  5
73
330
69
100
AcDbEntity
  8
_U+30EC_U+30A4_U+30E4_U+30FC 1
370
     0
100
AcDbVertex
100
AcDb2dVertex
 10
92.16043834501545
 20
-141.3074815184926
 30
0.0
  0
VERTEX
  5
74
330
69
100
AcDbEntity
  8
_U+30EC_U+30A4_U+30E4_U+30FC 1
370
     0
100
AcDbVertex
100
AcDb2dVertex
 10
92.16043834501545
 20
-141.5062635279915
 30
0.0
  0
VERTEX
  5
75
330
69
100
AcDbEntity
  8
_U+30EC_U+30A4_U+30E4_U+30FC 1
370
     0
100
AcDbVertex
100
AcDb2dVertex
 10
91.95304359680341
 20
-141.5062635279915
 30
0.0
  0
SEQEND
  5
76
330
69
100
AcDbEntity
  8
_U+30EC_U+30A4_U+30E4_U+30FC 1
370
     0
  0
POLYLINE
  5
77
330
63
100
AcDbEntity
  8
_U+30EC_U+30A4_U+30E4_U+30FC 1
370
     0
100
AcDb2dPolyline
 66
     1
 10
0.0
 20
0.0
 30
0.0
  0
VERTEX
  5
78
330
77
100
AcDbEntity
  8
_U+30EC_U+30A4_U+30E4_U+30FC 1
370
     0
100
AcDbVertex
100
AcDb2dVertex
 10
91.73496905258709
 20
-140.651535338101
 30
0.0
  0
VERTEX
  5
79
330
77
100
AcDbEntity
  8
_U+30EC_U+30A4_U+30E4_U+30FC 1
370
     0
100
AcDbVertex
100
AcDb2dVertex
 10
91.27814939124296
 20
-141.3074815184926
 30
0.0
  0
VERTEX
  5
7A
330
77
100
AcDbEntity
  8
_U+30EC_U+30A4_U+30E4_U+30FC 1
370
     0
100
AcDbVertex
100
AcDb2dVertex
 10
91.73496905258709
 20
-141.3074815184926
 30
0.0
  0
VERTEX
  5
7B
330
77
100
AcDbEntity
  8
_U+30EC_U+30A4_U+30E4_U+30FC 1
370
     0
100
AcDbVertex
100
AcDb2dVertex
 10
91.73496905258709
 20
-140.651535338101
 30
0.0
  0
SEQEND
  5
7C
330
77
100
AcDbEntity
  8
_U+30EC_U+30A4_U+30E4_U+30FC 1
370
     0
  0
HATCH
  5
7D
330
63
100
AcDbEntity
  8
_U+30EC_U+30A4_U+30E4_U+30FC 1
 62
   179
420
  2234388
100
AcDbHatch
 10
0.0
 20
0.0
 30
0.0
210
0.0
220
0.0
230
1.0
  2
SOLID
 70
     1
 71
     0
 91
        2
 92
        1
 93
       11
 72
     1
 10
91.95304359680341
 20
-141.5062635279915
 11
91.95304359680341
 21
-141.8531846433561
 72
     1
 10
91.95304359680341
 20
-141.8531846433561
 11
91.73496905258709
 21
-141.8531846433561
 72
     1
 10
91.73496905258709
 20
-141.8531846433561
 11
91.73496905258709
 21
-141.5062635279915
 72
     1
 10
91.73496905258709
 20
-141.5062635279915
 11
91.0791951269698
 21
-141.5062635279915
 72
     1
 10
91.0791951269698
 20
-141.5062635279915
 11
91.0791951269698
 21
-141.2819878119017
 72
     1
 10
91.0791951269698
 20
-141.2819878119017
 11
91.75805119233827
 21
-140.3090928468672
 72
     1
 10
91.75805119233827
 20
-140.3090928468672
 11
91.95304359680341
 21
-140.3090928468672
 72
     1
 10
91.95304359680341
 20
-140.3090928468672
 11
91.95304359680341
 21
-141.3074815184926
 72
     1
 10
91.95304359680341
 20
-141.3074815184926
 11
92.16043834501545
 21
-141.3074815184926
 72
     1
 10
92.16043834501545
 20
-141.3074815184926
 11
92.16043834501545
 21
-141.5062635279915
 72
     1
 10
92.16043834501545
 20
-141.5062635279915
 11
91.95304359680341
 21
-141.5062635279915
 97
        0
 92
        1
 93
        3
 72
     1
 10
91.73496905258709
 20
-140.651535338101
 11
91.27814939124296
 21
-141.3074815184926
 72
     1
 10
91.27814939124296
 20
-141.3074815184926
 11
91.73496905258709
 21
-141.3074815184926
 72
     1
 10
91.73496905258709
 20
-141.3074815184926
 11
91.73496905258709
 21
-140.651535338101
 97
        0
 75
     2
 76
     1
 98
        0
  0
ENDBLK
  5
66
330
63
100
AcDbEntity
  8
0
100
AcDbBlockEnd
  0
BLOCK
  5
80
330
7E
100
AcDbEntity
  8
0
100
AcDbBlockBegin
  2
block 3
 70
     0
 10
0.0
 20
0.0
 30
0.0
  3
block 3
  1

  0
SPLINE
  5
82
330
7E
100
AcDbEntity
  8
_U+30EC_U+30A4_U+30E4_U+30FC 1
370
     0
100
AcDbSpline
210
0.0
220
0.0
230
1.0
 70
    11
 71
     3
 72
    44
 73
    40
 74
     0
 42
0.0000000001
 43
0.0000000001
 12
1.0
 22
0.0
 32
0.0
 13
1.0
 23
0.0
 33
0.0
 40
0.0
 40
0.0
 40
0.0
 40
0.0
 40
1.0
 40
1.0
 40
1.0
 40
2.0
 40
2.0
 40
2.0
 40
3.0
 40
3.0
 40
3.0
 40
4.0
 40
4.0
 40
4.0
 40
5.0
 40
5.0
 40
5.0
 40
6.0
 40
6.0
 40
6.0
 40
7.0
 40
7.0
 40
7.0
 40
8.0
 40
8.0
 40
8.0
 40
9.0
 40
9.0
 40
9.0
 40
10.0
 40
10.0
 40
10.0
 40
11.0
 40
11.0
 40
11.0
 40
12.0
 40
12.0
 40
12.0
 40
13.0
 40
13.0
 40
13.0
 40
13.0
 10
87.91160208305682
 20
-123.1721543745889
 30
0.0
 10
87.64512394727275
 20
-123.1304687192174
 30
0.0
 10
87.52678491735442
 20
-123.1166883372764
 30
0.0
 10
87.39087590046131
 20
-123.1842122087873
 30
0.0
 10
87.39087590046131
 20
-123.1842122087873
 30
0.0
 10
87.94140215900424
 20
-123.7347384673302
 30
0.0
 10
87.94140215900424
 20
-123.7347384673302
 30
0.0
 10
87.94140215900424
 20
-123.7347384673302
 30
0.0
 10
87.79636363907522
 20
-123.8794324777107
 30
0.0
 10
87.79636363907522
 20
-123.8794324777107
 30
0.0
 10
87.79636363907522
 20
-123.8794324777107
 30
0.0
 10
87.06927623691324
 20
-123.152517330323
 30
0.0
 10
87.06927623691324
 20
-123.152517330323
 30
0.0
 10
87.34471162095896
 20
-122.9223849519083
 30
0.0
 10
87.44616968299957
 20
-122.9130831940981
 30
0.0
 10
87.92934432480587
 20
-122.9747504032841
 30
0.0
 10
88.25094398835394
 20
-123.0150580204615
 30
0.0
 10
88.34516734987552
 20
-123.0133354727189
 30
0.0
 10
88.44249129733383
 20
-122.9161837800348
 30
0.0
 10
88.52620711762539
 20
-122.8324679597433
 30
0.0
 10
88.56806502777118
 20
-122.6888074780084
 30
0.0
 10
88.42888317016708
 20
-122.5496256204043
 30
0.0
 10
88.24491507125475
 20
-122.3656575214919
 30
0.0
 10
88.07593313770325
 20
-122.5227538756193
 30
0.0
 10
87.99066702444331
 20
-122.6019910717801
 30
0.0
 10
87.99066702444331
 20
-122.6019910717801
 30
0.0
 10
87.83219263212182
 20
-122.4435166794586
 30
0.0
 10
87.83219263212182
 20
-122.4435166794586
 30
0.0
 10
87.9277940318375
 20
-122.359800859167
 30
0.0
 10
88.0146104380658
 20
-122.2881428730738
 30
0.0
 10
88.15534258863825
 20
-122.2609266187403
 30
0.0
 10
88.34671764284388
 20
-122.2250976256937
 30
0.0
 10
88.50226370400291
 20
-122.3325846048335
 30
0.0
 10
88.58460148610038
 20
-122.4152668964795
 30
0.0
 10
88.7806274192111
 20
-122.6109483200417
 30
0.0
 10
88.79699162276603
 20
-122.8879339970558
 30
0.0
 10
88.60406627559205
 20
-123.0808593442298
 30
0.0
 10
88.44249129733383
 20
-123.242434322488
 30
0.0
 10
88.28987356733725
 20
-123.2303764882896
 30
0.0
 10
87.91160208305682
 20
-123.1721543745889
 30
0.0
  0
HATCH
  5
83
330
7E
100
AcDbEntity
  8
_U+30EC_U+30A4_U+30E4_U+30FC 1
 62
   179
420
  2234388
100
AcDbHatch
 10
0.0
 20
0.0
 30
0.0
210
0.0
220
0.0
230
1.0
  2
SOLID
 70
     1
 71
     0
 91
        1
 92
        1
 93
        1
 72
     4
 94
        3
 73
     0
 74
     1
 95
       44
 96
       40
 40
0.0
 40
0.0
 40
0.0
 40
0.0
 40
1.0
 40
1.0
 40
1.0
 40
2.0
 40
2.0
 40
2.0
 40
3.0
 40
3.0
 40
3.0
 40
4.0
 40
4.0
 40
4.0
 40
5.0
 40
5.0
 40
5.0
 40
6.0
 40
6.0
 40
6.0
 40
7.0
 40
7.0
 40
7.0
 40
8.0
 40
8.0
 40
8.0
 40
9.0
 40
9.0
 40
9.0
 40
10.0
 40
10.0
 40
10.0
 40
11.0
 40
11.0
 40
11.0
 40
12.0
 40
12.0
 40
12.0
 40
13.0
 40
13.0
 40
13.0
 40
13.0
 10
87.91160208305682
 20
-123.1721543745889
 10
87.64512394727275
 20
-123.1304687192174
 10
87.52678491735442
 20
-123.1166883372764
 10
87.39087590046131
 20
-123.1842122087873
 10
87.39087590046131
 20
-123.1842122087873
 10
87.94140215900424
 20
-123.7347384673302
 10
87.94140215900424
 20
-123.7347384673302
 10
87.94140215900424
 20
-123.7347384673302
 10
87.79636363907522
 20
-123.8794324777107
 10
87.79636363907522
 20
-123.8794324777107
 10
87.79636363907522
 20
-123.8794324777107
 10
87.06927623691324
 20
-123.152517330323
 10
87.06927623691324
 20
-123.152517330323
 10
87.34471162095896
 20
-122.9223849519083
 10
87.44616968299957
 20
-122.9130831940981
 10
87.92934432480587
 20
-122.9747504032841
 10
88.25094398835394
 20
-123.0150580204615
 10
88.34516734987552
 20
-123.0133354727189
 10
88.44249129733383
 20
-122.9161837800348
 10
88.52620711762539
 20
-122.8324679597433
 10
88.56806502777118
 20
-122.6888074780084
 10
88.42888317016708
 20
-122.5496256204043
 10
88.24491507125475
 20
-122.3656575214919
 10
88.07593313770325
 20
-122.5227538756193
 10
87.99066702444331
 20
-122.6019910717801
 10
87.99066702444331
 20
-122.6019910717801
 10
87.83219263212182
 20
-122.4435166794586
 10
87.83219263212182
 20
-122.4435166794586
 10
87.9277940318375
 20
-122.359800859167
 10
88.0146104380658
 20
-122.2881428730738
 10
88.15534258863825
 20
-122.2609266187403
 10
88.34671764284388
 20
-122.2250976256937
 10
88.50226370400291
 20
-122.3325846048335
 10
88.58460148610038
 20
-122.4152668964795
 10
88.7806274192111
 20
-122.6109483200417
 10
88.79699162276603
 20
-122.8879339970558
 10
88.60406627559205
 20
-123.0808593442298
 10
88.44249129733383
 20
-123.242434322488
 10
88.28987356733725
 20
-123.2303764882896
 10
87.91160208305682
 20
-123.1721543745889
 97
        0
 97
        0
 75
     2
 76
     1
 98
        0
  0
SPLINE
  5
84
330
7E
100
AcDbEntity
  8
_U+30EC_U+30A4_U+30E4_U+30FC 1
370
     0
100
AcDbSpline
210
0.0
220
0.0
230
1.0
 70
    11
 71
     3
 72
    53
 73
    49
 74
     0
 42
0.0000000001
 43
0.0000000001
 12
1.0
 22
0.0
 32
0.0
 13
1.0
 23
0.0
 33
0.0
 40
0.0
 40
0.0
 40
0.0
 40
0.0
 40
1.0
 40
1.0
 40
1.0
 40
2.0
 40
2.0
 40
2.0
 40
3.0
 40
3.0
 40
3.0
 40
4.0
 40
4.0
 40
4.0
 40
5.0
 40
5.0
 40
5.0
 40
6.0
 40
6.0
 40
6.0
 40
7.0
 40
7.0
 40
7.0
 40
8.0
 40
8.0
 40
8.0
 40
9.0
 40
9.0
 40
9.0
 40
10.0
 40
10.0
 40
10.0
 40
11.0
 40
11.0
 40
11.0
 40
12.0
 40
12.0
 40
12.0
 40
13.0
 40
13.0
 40
13.0
 40
14.0
 40
14.0
 40
14.0
 40
15.0
 40
15.0
 40
15.0
 40
16.0
 40
16.0
 40
16.0
 40
16.0
 10
88.21700979782422
 20
-124.3720811321014
 30
0.0
 10
88.1615437605117
 20
-124.3169596043374
 30
0.0
 10
88.10194360861688
 20
-124.2328992744973
 30
0.0
 10
88.07489960905767
 20
-124.1164550470959
 30
0.0
 10
88.03011336774942
 20
-123.9159504898544
 30
0.0
 10
88.10780027094181
 20
-123.8084635107146
 30
0.0
 10
88.17067326354761
 20
-123.7185465185495
 30
0.0
 10
88.17067326354761
 20
-123.7185465185495
 30
0.0
 10
88.32759736290075
 20
-123.8752983631284
 30
0.0
 10
88.32759736290075
 20
-123.8752983631284
 30
0.0
 10
88.22613930086014
 20
-124.0551323474584
 30
0.0
 10
88.29486895579088
 20
-124.1660644220835
 30
0.0
 10
88.36067027955914
 20
-124.2315212363032
 30
0.0
 10
88.45920001043729
 20
-124.3300509671814
 30
0.0
 10
88.6373114470247
 20
-124.3679470175191
 30
0.0
 10
88.80198701121965
 20
-124.2032714533242
 30
0.0
 10
88.98285452419526
 20
-124.0220594308
 30
0.0
 10
88.90516762100287
 20
-123.8456705419553
 30
0.0
 10
88.81990150774294
 20
-123.7602321739211
 30
0.0
 10
88.79750838708883
 20
-123.7381835628155
 30
0.0
 10
88.69725610846805
 20
-123.6375867746462
 30
0.0
 10
88.54308808550311
 20
-123.6661810671737
 30
0.0
 10
88.54308808550311
 20
-123.6661810671737
 30
0.0
 10
88.43267277520086
 20
-123.5287217573123
 30
0.0
 10
88.43267277520086
 20
-123.5287217573123
 30
0.0
 10
88.43267277520086
 20
-123.5287217573123
 30
0.0
 10
89.11617971947443
 20
-123.01540253001
 30
0.0
 10
89.11617971947443
 20
-123.01540253001
 30
0.0
 10
89.11617971947443
 20
-123.01540253001
 30
0.0
 10
89.66653372324309
 20
-123.565928788553
 30
0.0
 10
89.66653372324309
 20
-123.565928788553
 30
0.0
 10
89.66653372324309
 20
-123.565928788553
 30
0.0
 10
89.52890215860737
 20
-123.703732607963
 30
0.0
 10
89.52890215860737
 20
-123.703732607963
 30
0.0
 10
89.52890215860737
 20
-123.703732607963
 30
0.0
 10
89.09361434404605
 20
-123.2682725386274
 30
0.0
 10
89.09361434404605
 20
-123.2682725386274
 30
0.0
 10
89.09361434404605
 20
-123.2682725386274
 30
0.0
 10
88.74807126687548
 20
-123.5211425472447
 30
0.0
 10
88.74807126687548
 20
-123.5211425472447
 30
0.0
 10
88.81559513838639
 20
-123.5404350819621
 30
0.0
 10
88.90206703506615
 20
-123.5704074126838
 30
0.0
 10
88.98578285535773
 20
-123.6541232329754
 30
0.0
 10
89.1654445849135
 20
-123.8339572173054
 30
0.0
 10
89.20144583273436
 20
-124.1329915054251
 30
0.0
 10
88.98009844780707
 20
-124.3541666355781
 30
0.0
 10
88.75565047694303
 20
-124.5787868612164
 30
0.0
 10
88.43095022745824
 20
-124.586366071284
 30
0.0
 10
88.21700979782422
 20
-124.3720811321014
 30
0.0
  0
HATCH
  5
85
330
7E
100
AcDbEntity
  8
_U+30EC_U+30A4_U+30E4_U+30FC 1
 62
   179
420
  2234388
100
AcDbHatch
 10
0.0
 20
0.0
 30
0.0
210
0.0
220
0.0
230
1.0
  2
SOLID
 70
     1
 71
     0
 91
        1
 92
        1
 93
        1
 72
     4
 94
        3
 73
     0
 74
     1
 95
       53
 96
       49
 40
0.0
 40
0.0
 40
0.0
 40
0.0
 40
1.0
 40
1.0
 40
1.0
 40
2.0
 40
2.0
 40
2.0
 40
3.0
 40
3.0
 40
3.0
 40
4.0
 40
4.0
 40
4.0
 40
5.0
 40
5.0
 40
5.0
 40
6.0
 40
6.0
 40
6.0
 40
7.0
 40
7.0
 40
7.0
 40
8.0
 40
8.0
 40
8.0
 40
9.0
 40
9.0
 40
9.0
 40
10.0
 40
10.0
 40
10.0
 40
11.0
 40
11.0
 40
11.0
 40
12.0
 40
12.0
 40
12.0
 40
13.0
 40
13.0
 40
13.0
 40
14.0
 40
14.0
 40
14.0
 40
15.0
 40
15.0
 40
15.0
 40
16.0
 40
16.0
 40
16.0
 40
16.0
 10
88.21700979782422
 20
-124.3720811321014
 10
88.1615437605117
 20
-124.3169596043374
 10
88.10194360861688
 20
-124.2328992744973
 10
88.07489960905767
 20
-124.1164550470959
 10
88.03011336774942
 20
-123.9159504898544
 10
88.10780027094181
 20
-123.8084635107146
 10
88.17067326354761
 20
-123.7185465185495
 10
88.17067326354761
 20
-123.7185465185495
 10
88.32759736290075
 20
-123.8752983631284
 10
88.32759736290075
 20
-123.8752983631284
 10
88.22613930086014
 20
-124.0551323474584
 10
88.29486895579088
 20
-124.1660644220835
 10
88.36067027955914
 20
-124.2315212363032
 10
88.45920001043729
 20
-124.3300509671814
 10
88.6373114470247
 20
-124.3679470175191
 10
88.80198701121965
 20
-124.2032714533242
 10
88.98285452419526
 20
-124.0220594308
 10
88.90516762100287
 20
-123.8456705419553
 10
88.81990150774294
 20
-123.7602321739211
 10
88.79750838708883
 20
-123.7381835628155
 10
88.69725610846805
 20
-123.6375867746462
 10
88.54308808550311
 20
-123.6661810671737
 10
88.54308808550311
 20
-123.6661810671737
 10
88.43267277520086
 20
-123.5287217573123
 10
88.43267277520086
 20
-123.5287217573123
 10
88.43267277520086
 20
-123.5287217573123
 10
89.11617971947443
 20
-123.01540253001
 10
89.11617971947443
 20
-123.01540253001
 10
89.11617971947443
 20
-123.01540253001
 10
89.66653372324309
 20
-123.565928788553
 10
89.66653372324309
 20
-123.565928788553
 10
89.66653372324309
 20
-123.565928788553
 10
89.52890215860737
 20
-123.703732607963
 10
89.52890215860737
 20
-123.703732607963
 10
89.52890215860737
 20
-123.703732607963
 10
89.09361434404605
 20
-123.2682725386274
 10
89.09361434404605
 20
-123.2682725386274
 10
89.09361434404605
 20
-123.2682725386274
 10
88.74807126687548
 20
-123.5211425472447
 10
88.74807126687548
 20
-123.5211425472447
 10
88.81559513838639
 20
-123.5404350819621
 10
88.90206703506615
 20
-123.5704074126838
 10
88.98578285535773
 20
-123.6541232329754
 10
89.1654445849135
 20
-123.8339572173054
 10
89.20144583273436
 20
-124.1329915054251
 10
88.98009844780707
 20
-124.3541666355781
 10
88.75565047694303
 20
-124.5787868612164
 10
88.43095022745824
 20
-124.586366071284
 10
88.21700979782422
 20
-124.3720811321014
 97
        0
 97
        0
 75
     2
 76
     1
 98
        0
  0
SPLINE
  5
86
330
7E
100
AcDbEntity
  8
_U+30EC_U+30A4_U+30E4_U+30FC 1
370
     0
100
AcDbSpline
210
0.0
220
0.0
230
1.0
 70
    11
 71
     3
 72
    44
 73
    40
 74
     0
 42
0.0000000001
 43
0.0000000001
 12
1.0
 22
0.0
 32
0.0
 13
1.0
 23
0.0
 33
0.0
 40
0.0
 40
0.0
 40
0.0
 40
0.0
 40
1.0
 40
1.0
 40
1.0
 40
2.0
 40
2.0
 40
2.0
 40
3.0
 40
3.0
 40
3.0
 40
4.0
 40
4.0
 40
4.0
 40
5.0
 40
5.0
 40
5.0
 40
6.0
 40
6.0
 40
6.0
 40
7.0
 40
7.0
 40
7.0
 40
8.0
 40
8.0
 40
8.0
 40
9.0
 40
9.0
 40
9.0
 40
10.0
 40
10.0
 40
10.0
 40
11.0
 40
11.0
 40
11.0
 40
12.0
 40
12.0
 40
12.0
 40
13.0
 40
13.0
 40
13.0
 40
13.0
 10
89.46223956096777
 20
-125.5454806543775
 30
0.0
 10
89.47688121678009
 20
-125.497249317584
 30
0.0
 10
89.49944659220847
 20
-125.4452283757568
 30
0.0
 10
89.66102157046669
 20
-125.2805528115618
 30
0.0
 10
89.8300035040182
 20
-125.1058864704597
 30
0.0
 10
89.83758271408574
 20
-125.014246930552
 30
0.0
 10
89.71183672887413
 20
-124.8888454548889
 30
0.0
 10
89.71183672887413
 20
-124.8888454548889
 30
0.0
 10
89.42313772721019
 20
-124.600146453225
 30
0.0
 10
89.42313772721019
 20
-124.600146453225
 30
0.0
 10
89.42313772721019
 20
-124.600146453225
 30
0.0
 10
88.96993541612558
 20
-125.0531765095353
 30
0.0
 10
88.96993541612558
 20
-125.0531765095353
 30
0.0
 10
88.96993541612558
 20
-125.0531765095353
 30
0.0
 10
88.80388181373654
 20
-124.8871229071463
 30
0.0
 10
88.80388181373654
 20
-124.8871229071463
 30
0.0
 10
88.80388181373654
 20
-124.8871229071463
 30
0.0
 10
89.89580482778646
 20
-123.7953721478706
 30
0.0
 10
89.89580482778646
 20
-123.7953721478706
 30
0.0
 10
89.89580482778646
 20
-123.7953721478706
 30
0.0
 10
90.37295055249358
 20
-124.2721733630292
 30
0.0
 10
90.37295055249358
 20
-124.2721733630292
 30
0.0
 10
90.5899915680643
 20
-124.4892143785999
 30
0.0
 10
90.58706323690186
 20
-124.7286485148248
 30
0.0
 10
90.40602346915198
 20
-124.9095160278004
 30
0.0
 10
90.37019447610537
 20
-124.945345020847
 30
0.0
 10
90.3057711905312
 20
-124.9977104722228
 30
0.0
 10
90.21740449133455
 20
-125.0232041788136
 30
0.0
 10
90.1023383021272
 20
-125.054899057278
 30
0.0
 10
90.04239364068385
 20
-125.0218261406196
 30
0.0
 10
89.98727211291985
 20
-124.9904757717038
 30
0.0
 10
90.05445147488223
 20
-125.1175997951095
 30
0.0
 10
90.0678873472747
 20
-125.199937577207
 30
0.0
 10
89.84826251009002
 20
-125.4255913314908
 30
0.0
 10
89.6596435322726
 20
-125.6202392264074
 30
0.0
 10
89.66239960866079
 20
-125.6681260536524
 30
0.0
 10
89.6715291116967
 20
-125.7549424598807
 30
0.0
 10
89.6715291116967
 20
-125.7549424598807
 30
0.0
 10
89.46223956096777
 20
-125.5454806543775
 30
0.0
 10
89.46223956096777
 20
-125.5454806543775
 30
0.0
  0
SPLINE
  5
87
330
7E
100
AcDbEntity
  8
_U+30EC_U+30A4_U+30E4_U+30FC 1
370
     0
100
AcDbSpline
210
0.0
220
0.0
230
1.0
 70
    11
 71
     3
 72
    20
 73
    16
 74
     0
 42
0.0000000001
 43
0.0000000001
 12
1.0
 22
0.0
 32
0.0
 13
1.0
 23
0.0
 33
0.0
 40
0.0
 40
0.0
 40
0.0
 40
0.0
 40
1.0
 40
1.0
 40
1.0
 40
2.0
 40
2.0
 40
2.0
 40
3.0
 40
3.0
 40
3.0
 40
4.0
 40
4.0
 40
4.0
 40
5.0
 40
5.0
 40
5.0
 40
5.0
 10
90.22653399437046
 20
-124.4251356025743
 30
0.0
 10
90.22653399437046
 20
-124.4251356025743
 30
0.0
 10
89.91234128611566
 20
-124.1109428943195
 30
0.0
 10
89.91234128611566
 20
-124.1109428943195
 30
0.0
 10
89.91234128611566
 20
-124.1109428943195
 30
0.0
 10
89.57265487127003
 20
-124.4506293091651
 30
0.0
 10
89.57265487127003
 20
-124.4506293091651
 30
0.0
 10
89.57265487127003
 20
-124.4506293091651
 30
0.0
 10
89.88529728655645
 20
-124.7630994696773
 30
0.0
 10
89.88529728655645
 20
-124.7630994696773
 30
0.0
 10
89.95557723445556
 20
-124.8333794175764
 30
0.0
 10
90.10526663328966
 20
-124.8750650729479
 30
0.0
 10
90.22636173959619
 20
-124.7541422214156
 30
0.0
 10
90.28182777690871
 20
-124.6986761841031
 30
0.0
 10
90.3672661449429
 20
-124.5656954983725
 30
0.0
 10
90.22653399437046
 20
-124.4251356025743
 30
0.0
  0
HATCH
  5
88
330
7E
100
AcDbEntity
  8
_U+30EC_U+30A4_U+30E4_U+30FC 1
 62
   179
420
  2234388
100
AcDbHatch
 10
0.0
 20
0.0
 30
0.0
210
0.0
220
0.0
230
1.0
  2
SOLID
 70
     1
 71
     0
 91
        2
 92
        1
 93
        1
 72
     4
 94
        3
 73
     0
 74
     1
 95
       44
 96
       40
 40
0.0
 40
0.0
 40
0.0
 40
0.0
 40
1.0
 40
1.0
 40
1.0
 40
2.0
 40
2.0
 40
2.0
 40
3.0
 40
3.0
 40
3.0
 40
4.0
 40
4.0
 40
4.0
 40
5.0
 40
5.0
 40
5.0
 40
6.0
 40
6.0
 40
6.0
 40
7.0
 40
7.0
 40
7.0
 40
8.0
 40
8.0
 40
8.0
 40
9.0
 40
9.0
 40
9.0
 40
10.0
 40
10.0
 40
10.0
 40
11.0
 40
11.0
 40
11.0
 40
12.0
 40
12.0
 40
12.0
 40
13.0
 40
13.0
 40
13.0
 40
13.0
 10
89.46223956096777
 20
-125.5454806543775
 10
89.47688121678009
 20
-125.497249317584
 10
89.49944659220847
 20
-125.4452283757568
 10
89.66102157046669
 20
-125.2805528115618
 10
89.8300035040182
 20
-125.1058864704597
 10
89.83758271408574
 20
-125.014246930552
 10
89.71183672887413
 20
-124.8888454548889
 10
89.71183672887413
 20
-124.8888454548889
 10
89.42313772721019
 20
-124.600146453225
 10
89.42313772721019
 20
-124.600146453225
 10
89.42313772721019
 20
-124.600146453225
 10
88.96993541612558
 20
-125.0531765095353
 10
88.96993541612558
 20
-125.0531765095353
 10
88.96993541612558
 20
-125.0531765095353
 10
88.80388181373654
 20
-124.8871229071463
 10
88.80388181373654
 20
-124.8871229071463
 10
88.80388181373654
 20
-124.8871229071463
 10
89.89580482778646
 20
-123.7953721478706
 10
89.89580482778646
 20
-123.7953721478706
 10
89.89580482778646
 20
-123.7953721478706
 10
90.37295055249358
 20
-124.2721733630292
 10
90.37295055249358
 20
-124.2721733630292
 10
90.5899915680643
 20
-124.4892143785999
 10
90.58706323690186
 20
-124.7286485148248
 10
90.40602346915198
 20
-124.9095160278004
 10
90.37019447610537
 20
-124.945345020847
 10
90.3057711905312
 20
-124.9977104722228
 10
90.21740449133455
 20
-125.0232041788136
 10
90.1023383021272
 20
-125.054899057278
 10
90.04239364068385
 20
-125.0218261406196
 10
89.98727211291985
 20
-124.9904757717038
 10
90.05445147488223
 20
-125.1175997951095
 10
90.0678873472747
 20
-125.199937577207
 10
89.84826251009002
 20
-125.4255913314908
 10
89.6596435322726
 20
-125.6202392264074
 10
89.66239960866079
 20
-125.6681260536524
 10
89.6715291116967
 20
-125.7549424598807
 10
89.6715291116967
 20
-125.7549424598807
 10
89.46223956096777
 20
-125.5454806543775
 10
89.46223956096777
 20
-125.5454806543775
 97
        0
 97
        0
 92
        1
 93
        1
 72
     4
 94
        3
 73
     0
 74
     1
 95
       20
 96
       16
 40
0.0
 40
0.0
 40
0.0
 40
0.0
 40
1.0
 40
1.0
 40
1.0
 40
2.0
 40
2.0
 40
2.0
 40
3.0
 40
3.0
 40
3.0
 40
4.0
 40
4.0
 40
4.0
 40
5.0
 40
5.0
 40
5.0
 40
5.0
 10
90.22653399437046
 20
-124.4251356025743
 10
90.22653399437046
 20
-124.4251356025743
 10
89.91234128611566
 20
-124.1109428943195
 10
89.91234128611566
 20
-124.1109428943195
 10
89.91234128611566
 20
-124.1109428943195
 10
89.57265487127003
 20
-124.4506293091651
 10
89.57265487127003
 20
-124.4506293091651
 10
89.57265487127003
 20
-124.4506293091651
 10
89.88529728655645
 20
-124.7630994696773
 10
89.88529728655645
 20
-124.7630994696773
 10
89.95557723445556
 20
-124.8333794175764
 10
90.10526663328966
 20
-124.8750650729479
 10
90.22636173959619
 20
-124.7541422214156
 10
90.28182777690871
 20
-124.6986761841031
 10
90.3672661449429
 20
-124.5656954983725
 10
90.22653399437046
 20
-124.4251356025743
 97
        0
 97
        0
 75
     2
 76
     1
 98
        0
  0
ENDBLK
  5
81
330
7E
100
AcDbEntity
  8
0
100
AcDbBlockEnd
  0
ENDSEC
  0
SECTION
  2
ENTITIES
  0
SPLINE
  5
41
330
1F
100
AcDbEntity
  8
_U+30EC_U+30A4_U+30E4_U+30FC 1
 62
   179
420
  2234388
370
    25
100
AcDbSpline
210
0.0
220
0.0
230
1.0
 70
    11
 71
     3
 72
    14
 73
    10
 74
     0
 42
0.0000000001
 43
0.0000000001
 12
1.0
 22
0.0
 32
0.0
 13
1.0
 23
0.0
 33
0.0
 40
0.0
 40
0.0
 40
0.0
 40
0.0
 40
1.0
 40
1.0
 40
1.0
 40
2.0
 40
2.0
 40
2.0
 40
3.0
 40
3.0
 40
3.0
 40
3.0
 10
78.8315438221731
 20
-138.0608180210401
 30
0.0
 10
78.8315438221731
 20
-138.0608180210401
 30
0.0
 10
102.6438694187837
 20
-138.0608180210401
 30
0.0
 10
102.6438694187837
 20
-138.0608180210401
 30
0.0
 10
102.6438694187837
 20
-138.0608180210401
 30
0.0
 10
102.8202583076285
 20
-114.2483180269935
 30
0.0
 10
102.8202583076285
 20
-114.2483180269935
 30
0.0
 10
102.8202583076285
 20
-114.2483180269935
 30
0.0
 10
102.7320638632061
 20
-136.1205402437474
 30
0.0
 10
78.8315438221731
 20
-138.0608180210401
 30
0.0
  0
HATCH
  5
42
330
1F
100
AcDbEntity
  8
_U+30EC_U+30A4_U+30E4_U+30FC 1
 62
   179
420
  2234388
100
AcDbHatch
 10
0.0
 20
0.0
 30
0.0
210
0.0
220
0.0
230
1.0
  2
AI_USER_DEFINED_HATCH
 70
     0
 71
     0
 91
        1
 92
        1
 93
        1
 72
     4
 94
        3
 73
     0
 74
     1
 95
       14
 96
       10
 40
0.0
 40
0.0
 40
0.0
 40
0.0
 40
1.0
 40
1.0
 40
1.0
 40
2.0
 40
2.0
 40
2.0
 40
3.0
 40
3.0
 40
3.0
 40
3.0
 10
78.8315438221731
 20
-138.0608180210401
 10
78.8315438221731
 20
-138.0608180210401
 10
102.6438694187837
 20
-138.0608180210401
 10
102.6438694187837
 20
-138.0608180210401
 10
102.6438694187837
 20
-138.0608180210401
 10
102.8202583076285
 20
-114.2483180269935
 10
102.8202583076285
 20
-114.2483180269935
 10
102.8202583076285
 20
-114.2483180269935
 10
102.7320638632061
 20
-136.1205402437474
 10
78.8315438221731
 20
-138.0608180210401
 97
        0
 97
        0
 75
     2
 76
     0
 52
45.0
 41
10.0
 77
     0
 78
     1
 53
45.0
 43
0.0
 44
0.0
 45
-7.071067811865475
 46
7.071067811865476
 79
     0
 98
        0
  0
POLYLINE
  5
43
330
1F
100
AcDbEntity
  8
_U+30EC_U+30A4_U+30E4_U+30FC 1
 62
   179
420
  2234388
370
     9
100
AcDb2dPolyline
 66
     1
 10
0.0
 20
0.0
 30
0.0
  0
VERTEX
  5
44
330
43
100
AcDbEntity
  8
_U+30EC_U+30A4_U+30E4_U+30FC 1
 62
   179
420
  2234388
370
     9
100
AcDbVertex
100
AcDb2dVertex
 10
90.6203185214164
 20
-125.8899846907498
 30
0.0
  0
VERTEX
  5
45
330
43
100
AcDbEntity
  8
_U+30EC_U+30A4_U+30E4_U+30FC 1
 62
   179
420
  2234388
370
     9
100
AcDbVertex
100
AcDb2dVertex
 10
94.61817497634573
 20
-129.9469291341797
 30
0.0
  0
SEQEND
  5
46
330
43
100
AcDbEntity
  8
_U+30EC_U+30A4_U+30E4_U+30FC 1
 62
   179
420
  2234388
370
     9
  0
POLYLINE
  5
47
330
1F
100
AcDbEntity
  8
_U+30EC_U+30A4_U+30E4_U+30FC 1
 62
   179
420
  2234388
370
     9
100
AcDb2dPolyline
 66
     1
 10
0.0
 20
0.0
 30
0.0
  0
VERTEX
  5
48
330
47
100
AcDbEntity
  8
_U+30EC_U+30A4_U+30E4_U+30FC 1
 62
   179
420
  2234388
370
     9
100
AcDbVertex
100
AcDb2dVertex
 10
78.74334937997868
 20
-139.0602374652349
 30
0.0
  0
VERTEX
  5
49
330
47
100
AcDbEntity
  8
_U+30EC_U+30A4_U+30E4_U+30FC 1
 62
   179
420
  2234388
370
     9
100
AcDbVertex
100
AcDb2dVertex
 10
78.74334937997868
 20
-142.0002874645001
 30
0.0
  0
SEQEND
  5
4A
330
47
100
AcDbEntity
  8
_U+30EC_U+30A4_U+30E4_U+30FC 1
 62
   179
420
  2234388
370
     9
  0
POLYLINE
  5
4B
330
1F
100
AcDbEntity
  8
_U+30EC_U+30A4_U+30E4_U+30FC 1
 62
   179
420
  2234388
370
     9
100
AcDb2dPolyline
 66
     1
 10
0.0
 20
0.0
 30
0.0
  0
VERTEX
  5
4C
330
4B
100
AcDbEntity
  8
_U+30EC_U+30A4_U+30E4_U+30FC 1
 62
   179
420
  2234388
370
     9
100
AcDbVertex
100
AcDb2dVertex
 10
78.74334937997868
 20
-141.1183430202762
 30
0.0
  0
VERTEX
  5
4D
330
4B
100
AcDbEntity
  8
_U+30EC_U+30A4_U+30E4_U+30FC 1
 62
   179
420
  2234388
370
     9
100
AcDbVertex
100
AcDb2dVertex
 10
89.5619852150834
 20
-141.1183430202762
 30
0.0
  0
SEQEND
  5
4E
330
4B
100
AcDbEntity
  8
_U+30EC_U+30A4_U+30E4_U+30FC 1
 62
   179
420
  2234388
370
     9
  0
POLYLINE
  5
4F
330
1F
100
AcDbEntity
  8
_U+30EC_U+30A4_U+30E4_U+30FC 1
 62
   179
420
  2234388
370
     9
100
AcDb2dPolyline
 66
     1
 10
0.0
 20
0.0
 30
0.0
  0
VERTEX
  5
50
330
4F
100
AcDbEntity
  8
_U+30EC_U+30A4_U+30E4_U+30FC 1
 62
   179
420
  2234388
370
     9
100
AcDbVertex
100
AcDb2dVertex
 10
92.56077497685996
 20
-141.2358180202463
 30
0.0
  0
VERTEX
  5
51
330
4F
100
AcDbEntity
  8
_U+30EC_U+30A4_U+30E4_U+30FC 1
 62
   179
420
  2234388
370
     9
100
AcDbVertex
100
AcDb2dVertex
 10
102.6149416410131
 20
-141.2358180202463
 30
0.0
  0
SEQEND
  5
52
330
4F
100
AcDbEntity
  8
_U+30EC_U+30A4_U+30E4_U+30FC 1
 62
   179
420
  2234388
370
     9
  0
POLYLINE
  5
53
330
1F
100
AcDbEntity
  8
_U+30EC_U+30A4_U+30E4_U+30FC 1
 62
   179
420
  2234388
370
     9
100
AcDb2dPolyline
 66
     1
 10
0.0
 20
0.0
 30
0.0
  0
VERTEX
  5
54
330
53
100
AcDbEntity
  8
_U+30EC_U+30A4_U+30E4_U+30FC 1
 62
   179
420
  2234388
370
     9
100
AcDbVertex
100
AcDb2dVertex
 10
102.6735027521093
 20
-139.1780652429835
 30
0.0
  0
VERTEX
  5
55
330
53
100
AcDbEntity
  8
_U+30EC_U+30A4_U+30E4_U+30FC 1
 62
   179
420
  2234388
370
     9
100
AcDbVertex
100
AcDb2dVertex
 10
102.6735027521093
 20
-142.1177624644703
 30
0.0
  0
SEQEND
  5
56
330
53
100
AcDbEntity
  8
_U+30EC_U+30A4_U+30E4_U+30FC 1
 62
   179
420
  2234388
370
     9
  0
POLYLINE
  5
57
330
1F
100
AcDbEntity
  8
_U+30EC_U+30A4_U+30E4_U+30FC 1
 62
   179
420
  2234388
370
     9
100
AcDb2dPolyline
 66
     1
 10
0.0
 20
0.0
 30
0.0
  0
VERTEX
  5
58
330
57
100
AcDbEntity
  8
_U+30EC_U+30A4_U+30E4_U+30FC 1
 62
   179
420
  2234388
370
     9
100
AcDbVertex
100
AcDb2dVertex
 10
94.08900830981135
 20
-130.0058430230543
 30
0.0
  0
VERTEX
  5
59
330
57
100
AcDbEntity
  8
_U+30EC_U+30A4_U+30E4_U+30FC 1
 62
   179
420
  2234388
370
     9
100
AcDbVertex
100
AcDb2dVertex
 10
94.61817497634573
 20
-129.9469291341797
 30
0.0
  0
VERTEX
  5
5A
330
57
100
AcDbEntity
  8
_U+30EC_U+30A4_U+30E4_U+30FC 1
 62
   179
420
  2234388
370
     9
100
AcDbVertex
100
AcDb2dVertex
 10
94.67744164299745
 20
-129.3588485787713
 30
0.0
  0
VERTEX
  5
5B
330
57
100
AcDbEntity
  8
_U+30EC_U+30A4_U+30E4_U+30FC 1
 62
   179
420
  2234388
370
     9
100
AcDbVertex
100
AcDb2dVertex
 10
95.03021942068703
 20
-130.3586208007439
 30
0.0
  0
VERTEX
  5
5C
330
57
100
AcDbEntity
  8
_U+30EC_U+30A4_U+30E4_U+30FC 1
 62
   179
420
  2234388
370
     9
100
AcDbVertex
100
AcDb2dVertex
 10
94.08900830981135
 20
-130.0058430230543
 30
0.0
  0
SEQEND
  5
5E
330
57
100
AcDbEntity
  8
_U+30EC_U+30A4_U+30E4_U+30FC 1
 62
   179
420
  2234388
370
     9
  0
HATCH
  5
5D
330
1F
100
AcDbEntity
  8
_U+30EC_U+30A4_U+30E4_U+30FC 1
 62
   179
420
  2234388
100
AcDbHatch
 10
0.0
 20
0.0
 30
0.0
210
0.0
220
0.0
230
1.0
  2
SOLID
 70
     1
 71
     0
 91
        1
 92
        1
 93
        4
 72
     1
 10
94.08900830981135
 20
-130.0058430230543
 11
94.61817497634573
 21
-129.9469291341797
 72
     1
 10
94.61817497634573
 20
-129.9469291341797
 11
94.67744164299745
 21
-129.3588485787713
 72
     1
 10
94.67744164299745
 20
-129.3588485787713
 11
95.03021942068703
 21
-130.3586208007439
 72
     1
 10
95.03021942068703
 20
-130.3586208007439
 11
94.08900830981135
 21
-130.0058430230543
 97
        0
 75
     2
 76
     1
 98
        0
  0
SPLINE
  5
5F
330
1F
100
AcDbEntity
  8
_U+30EC_U+30A4_U+30E4_U+30FC 1
370
     0
100
AcDbSpline
210
0.0
220
0.0
230
1.0
 70
    11
 71
     3
 72
    17
 73
    13
 74
     0
 42
0.0000000001
 43
0.0000000001
 12
1.0
 22
0.0
 32
0.0
 13
1.0
 23
0.0
 33
0.0
 40
0.0
 40
0.0
 40
0.0
 40
0.0
 40
1.0
 40
1.0
 40
1.0
 40
2.0
 40
2.0
 40
2.0
 40
3.0
 40
3.0
 40
3.0
 40
4.0
 40
4.0
 40
4.0
 40
4.0
 10
78.80226326736455
 20
-141.1183430202762
 30
0.0
 10
78.80226326736455
 20
-141.1875932980365
 30
0.0
 10
78.74627743545953
 20
-141.2434027424669
 30
0.0
 10
78.67720553588623
 20
-141.2434027424669
 30
0.0
 10
78.60830605009059
 20
-141.2434027424669
 30
0.0
 10
78.55214382930119
 20
-141.1875932980365
 30
0.0
 10
78.55214382930119
 20
-141.1183430202762
 30
0.0
 10
78.55214382930119
 20
-141.0494455202929
 30
0.0
 10
78.60830605009059
 20
-140.9932832980847
 30
0.0
 10
78.67720553588623
 20
-140.9932832980847
 30
0.0
 10
78.74627743545953
 20
-140.9932832980847
 30
0.0
 10
78.80226326736455
 20
-141.0494455202929
 30
0.0
 10
78.80226326736455
 20
-141.1183430202762
 30
0.0
  0
HATCH
  5
60
330
1F
100
AcDbEntity
  8
_U+30EC_U+30A4_U+30E4_U+30FC 1
 62
   179
420
  2234388
100
AcDbHatch
 10
0.0
 20
0.0
 30
0.0
210
0.0
220
0.0
230
1.0
  2
SOLID
 70
     1
 71
     0
 91
        1
 92
        1
 93
        1
 72
     4
 94
        3
 73
     0
 74
     1
 95
       17
 96
       13
 40
0.0
 40
0.0
 40
0.0
 40
0.0
 40
1.0
 40
1.0
 40
1.0
 40
2.0
 40
2.0
 40
2.0
 40
3.0
 40
3.0
 40
3.0
 40
4.0
 40
4.0
 40
4.0
 40
4.0
 10
78.80226326736455
 20
-141.1183430202762
 10
78.80226326736455
 20
-141.1875932980365
 10
78.74627743545953
 20
-141.2434027424669
 10
78.67720553588623
 20
-141.2434027424669
 10
78.60830605009059
 20
-141.2434027424669
 10
78.55214382930119
 20
-141.1875932980365
 10
78.55214382930119
 20
-141.1183430202762
 10
78.55214382930119
 20
-141.0494455202929
 10
78.60830605009059
 20
-140.9932832980847
 10
78.67720553588623
 20
-140.9932832980847
 10
78.74627743545953
 20
-140.9932832980847
 10
78.80226326736455
 20
-141.0494455202929
 10
78.80226326736455
 20
-141.1183430202762
 97
        0
 97
        0
 75
     2
 76
     1
 98
        0
  0
SPLINE
  5
61
330
1F
100
AcDbEntity
  8
_U+30EC_U+30A4_U+30E4_U+30FC 1
370
     0
100
AcDbSpline
210
0.0
220
0.0
230
1.0
 70
    11
 71
     3
 72
    17
 73
    13
 74
     0
 42
0.0000000001
 43
0.0000000001
 12
1.0
 22
0.0
 32
0.0
 13
1.0
 23
0.0
 33
0.0
 40
0.0
 40
0.0
 40
0.0
 40
0.0
 40
1.0
 40
1.0
 40
1.0
 40
2.0
 40
2.0
 40
2.0
 40
3.0
 40
3.0
 40
3.0
 40
4.0
 40
4.0
 40
4.0
 40
4.0
 10
102.8057944187429
 20
-141.2358180202463
 30
0.0
 10
102.8057944187429
 20
-141.3050682980073
 30
0.0
 10
102.7499823786296
 20
-141.3608777424378
 30
0.0
 10
102.6810848803873
 20
-141.3608777424378
 30
0.0
 10
102.6121521043681
 20
-141.3608777424378
 30
0.0
 10
102.5556749743614
 20
-141.3050682980073
 30
0.0
 10
102.5556749743614
 20
-141.2358180202463
 30
0.0
 10
102.5556749743614
 20
-141.1669205202638
 30
0.0
 10
102.6121521043681
 20
-141.1107582980556
 30
0.0
 10
102.6810848803873
 20
-141.1107582980556
 30
0.0
 10
102.7499823786296
 20
-141.1107582980556
 30
0.0
 10
102.8057944187429
 20
-141.1669205202638
 30
0.0
 10
102.8057944187429
 20
-141.2358180202463
 30
0.0
  0
HATCH
  5
62
330
1F
100
AcDbEntity
  8
_U+30EC_U+30A4_U+30E4_U+30FC 1
 62
   179
420
  2234388
100
AcDbHatch
 10
0.0
 20
0.0
 30
0.0
210
0.0
220
0.0
230
1.0
  2
SOLID
 70
     1
 71
     0
 91
        1
 92
        1
 93
        1
 72
     4
 94
        3
 73
     0
 74
     1
 95
       17
 96
       13
 40
0.0
 40
0.0
 40
0.0
 40
0.0
 40
1.0
 40
1.0
 40
1.0
 40
2.0
 40
2.0
 40
2.0
 40
3.0
 40
3.0
 40
3.0
 40
4.0
 40
4.0
 40
4.0
 40
4.0
 10
102.8057944187429
 20
-141.2358180202463
 10
102.8057944187429
 20
-141.3050682980073
 10
102.7499823786296
 20
-141.3608777424378
 10
102.6810848803873
 20
-141.3608777424378
 10
102.6121521043681
 20
-141.3608777424378
 10
102.5556749743614
 20
-141.3050682980073
 10
102.5556749743614
 20
-141.2358180202463
 10
102.5556749743614
 20
-141.1669205202638
 10
102.6121521043681
 20
-141.1107582980556
 10
102.6810848803873
 20
-141.1107582980556
 10
102.7499823786296
 20
-141.1107582980556
 10
102.8057944187429
 20
-141.1669205202638
 10
102.8057944187429
 20
-141.2358180202463
 97
        0
 97
        0
 75
     2
 76
     1
 98
        0
  0
INSERT
  5
64
330
1F
100
AcDbEntity
  8
_U+30EC_U+30A4_U+30E4_U+30FC 1
100
AcDbBlockReference
  2
block 2
 10
0.0
 20
0.0
 30
0.0
  0
INSERT
  5
7F
330
1F
100
AcDbEntity
  8
_U+30EC_U+30A4_U+30E4_U+30FC 1
100
AcDbBlockReference
  2
block 3
 10
0.0
 20
0.0
 30
0.0
  0
ENDSEC
  0
SECTION
  2
OBJECTS
  0
DICTIONARY
  5
C
330
0
100
AcDbDictionary
281
     1
  3
ACAD_GROUP
350
D
  3
ACAD_LAYOUT
350
1A
  3
ACAD_MATERIAL
350
3B
  3
ACAD_MLEADERSTYLE
350
8A
  3
ACAD_MLINESTYLE
350
17
  3
ACAD_PLOTSETTINGS
350
19
  3
ACAD_PLOTSTYLENAME
350
E
  3
ACAD_TABLESTYLE
350
89
  3
ACAD_VISUALSTYLE
350
2A
  0
SUN
  5
3F
330
29
100
AcDbSun
 90
        1
290
     0
 63
     7
421
 16777215
 40
1.0
291
     1
 91
  2455826
 92
 54000000
292
     0
 70
     2
 71
   256
280
     1
  0
DICTIONARY
  5
D
102
{ACAD_REACTORS
330
C
102
}
330
C
100
AcDbDictionary
281
     1
  0
DICTIONARY
  5
1A
102
{ACAD_REACTORS
330
C
102
}
330
C
100
AcDbDictionary
281
     1
  3
Layout1
350
1E
  3
Layout2
350
26
  3
Model
350
22
  0
DICTIONARY
  5
3B
102
{ACAD_REACTORS
330
C
102
}
330
C
100
AcDbDictionary
281
     1
  3
ByBlock
350
3D
  3
ByLayer
350
3C
  3
Global
350
3E
  0
DICTIONARY
  5
8A
102
{ACAD_REACTORS
330
C
102
}
330
C
100
AcDbDictionary
281
     1
  0
DICTIONARY
  5
17
102
{ACAD_REACTORS
330
C
102
}
330
C
100
AcDbDictionary
281
     1
  3
Standard
350
18
  0
DICTIONARY
  5
19
102
{ACAD_REACTORS
330
C
102
}
330
C
100
AcDbDictionary
281
     1
  0
ACDBDICTIONARYWDFLT
  5
E
102
{ACAD_REACTORS
330
C
102
}
330
C
100
AcDbDictionary
281
     1
  3
Normal
350
F
100
AcDbDictionaryWithDefault
340
F
  0
DICTIONARY
  5
89
102
{ACAD_REACTORS
330
C
102
}
330
C
100
AcDbDictionary
281
     1
  0
DICTIONARY
  5
2A
102
{ACAD_REACTORS
330
C
102
}
330
C
100
AcDbDictionary
281
     1
  3
2dWireframe
350
2F
  3
3D Hidden
350
31
  3
3dWireframe
350
30
  3
Basic
350
32
  3
Brighten
350
36
  3
ColorChange
350
3A
  3
Conceptual
350
34
  3
Dim
350
35
  3
Facepattern
350
39
  3
Flat
350
2B
  3
FlatWithEdges
350
2C
  3
Gouraud
350
2D
  3
GouraudWithEdges
350
2E
  3
Linepattern
350
38
  3
Realistic
350
33
  3
Thicken
350
37
  0
LAYOUT
  5
1E
102
{ACAD_REACTORS
330
1A
102
}
330
1A
100
AcDbPlotSettings
  1

  2
none_device
  4

  6

 40
0.0
 41
0.0
 42
0.0
 43
0.0
 44
0.0
 45
0.0
 46
0.0
 47
0.0
 48
0.0
 49
0.0
140
0.0
141
0.0
142
1.0
143
1.0
 70
   688
 72
     0
 73
     0
 74
     5
  7

 75
    16
 76
     0
 77
     2
 78
   300
147
1.0
148
0.0
149
0.0
100
AcDbLayout
  1
Layout1
 70
     1
 71
     1
 10
0.0
 20
0.0
 11
12.0
 21
9.0
 12
0.0
 22
0.0
 32
0.0
 14
1.000000000000000E+20
 24
1.000000000000000E+20
 34
1.000000000000000E+20
 15
-1.000000000000000E+20
 25
-1.000000000000000E+20
 35
-1.000000000000000E+20
146
0.0
 13
0.0
 23
0.0
 33
0.0
 16
1.0
 26
0.0
 36
0.0
 17
0.0
 27
1.0
 37
0.0
 76
     0
330
1B
  0
LAYOUT
  5
26
102
{ACAD_REACTORS
330
1A
102
}
330
1A
100
AcDbPlotSettings
  1

  2
none_device
  4

  6

 40
0.0
 41
0.0
 42
0.0
 43
0.0
 44
0.0
 45
0.0
 46
0.0
 47
0.0
 48
0.0
 49
0.0
140
0.0
141
0.0
142
1.0
143
1.0
 70
   688
 72
     0
 73
     0
 74
     5
  7

 75
    16
 76
     0
 77
     2
 78
   300
147
1.0
148
0.0
149
0.0
100
AcDbLayout
  1
Layout2
 70
     1
 71
     2
 10
0.0
 20
0.0
 11
0.0
 21
0.0
 12
0.0
 22
0.0
 32
0.0
 14
0.0
 24
0.0
 34
0.0
 15
0.0
 25
0.0
 35
0.0
146
0.0
 13
0.0
 23
0.0
 33
0.0
 16
1.0
 26
0.0
 36
0.0
 17
0.0
 27
1.0
 37
0.0
 76
     0
330
23
  0
LAYOUT
  5
22
102
{ACAD_REACTORS
330
1A
102
}
330
1A
100
AcDbPlotSettings
  1

  2
none_device
  4

  6

 40
0.0
 41
0.0
 42
0.0
 43
0.0
 44
0.0
 45
0.0
 46
0.0
 47
0.0
 48
0.0
 49
0.0
140
0.0
141
0.0
142
1.0
143
1.0
 70
  1712
 72
     0
 73
     0
 74
     0
  7

 75
     0
 76
     0
 77
     2
 78
   300
147
1.0
148
0.0
149
0.0
100
AcDbLayout
  1
Model
 70
     1
 71
     0
 10
0.0
 20
0.0
 11
12.0
 21
9.0
 12
0.0
 22
0.0
 32
0.0
 14
1.000000000000000E+20
 24
1.000000000000000E+20
 34
1.000000000000000E+20
 15
-1.000000000000000E+20
 25
-1.000000000000000E+20
 35
-1.000000000000000E+20
146
0.0
 13
0.0
 23
0.0
 33
0.0
 16
1.0
 26
0.0
 36
0.0
 17
0.0
 27
1.0
 37
0.0
 76
     0
330
1F
331
29
  0
MATERIAL
  5
3D
102
{ACAD_REACTORS
330
3B
102
}
330
3B
100
AcDbMaterial
  1
ByBlock
 72
     1
 94
      127
  0
MATERIAL
  5
3C
102
{ACAD_REACTORS
330
3B
102
}
330
3B
100
AcDbMaterial
  1
ByLayer
 72
     1
 94
      127
  0
MATERIAL
  5
3E
102
{ACAD_REACTORS
330
3B
102
}
330
3B
100
AcDbMaterial
  1
Global
 72
     1
 94
      127
  0
MLINESTYLE
  5
18
102
{ACAD_REACTORS
330
17
102
}
330
17
100
AcDbMlineStyle
  2
Standard
 70
     0
  3

 62
   256
 51
90.0
 52
90.0
 71
     2
 49
0.5
 62
   256
  6
BYLAYER
 49
-0.5
 62
   256
  6
BYLAYER
  0
ACDBPLACEHOLDER
  5
F
102
{ACAD_REACTORS
330
E
102
}
330
E
  0
VISUALSTYLE
  5
2F
102
{ACAD_REACTORS
330
2A
102
}
330
2A
100
AcDbVisualStyle
  2
2dWireframe
 70
     4
177
     2
291
     0
 71
     0
176
     1
 72
     2
176
     1
 73
     0
176
     1
 90
        0
176
     1
 40
-0.6
176
     1
 41
-30.0
176
     1
 62
     5
 63
     7
421
 16777215
176
     1
 74
     1
176
     1
 91
        4
176
     1
 64
     7
176
     1
 65
   257
176
     1
 75
     1
176
     1
175
     1
176
     1
 42
1.0
176
     1
 92
        0
176
     1
 66
   257
176
     1
 43
1.0
176
     1
 76
     1
176
     1
 77
     6
176
     1
 78
     2
176
     1
 67
     7
176
     1
 79
     5
176
     1
170
     0
176
     1
171
     0
176
     1
290
     0
176
     1
 93
        1
176
     1
 44
0.0
176
     1
173
     0
176
     1
  0
VISUALSTYLE
  5
31
102
{ACAD_REACTORS
330
2A
102
}
330
2A
100
AcDbVisualStyle
  2
3D Hidden
 70
     6
177
     2
291
     0
 71
     1
176
     1
 72
     2
176
     1
 73
     2
176
     1
 90
        0
176
     1
 40
-0.6
176
     1
 41
-30.0
176
     1
 62
     5
 63
     7
421
 16777215
176
     1
 74
     2
176
     1
 91
        2
176
     1
 64
     7
176
     1
 65
   257
176
     1
 75
     2
176
     1
175
     1
176
     1
 42
40.0
176
     1
 92
        0
176
     1
 66
   257
176
     1
 43
1.0
176
     1
 76
     1
176
     1
 77
     6
176
     1
 78
     2
176
     1
 67
     7
176
     1
 79
     3
176
     1
170
     0
176
     1
171
     0
176
     1
290
     0
176
     1
 93
        1
176
     1
 44
0.0
176
     1
173
     0
176
     1
  0
VISUALSTYLE
  5
30
102
{ACAD_REACTORS
330
2A
102
}
330
2A
100
AcDbVisualStyle
  2
3dWireframe
 70
     5
177
     2
291
     0
 71
     0
176
     1
 72
     2
176
     1
 73
     0
176
     1
 90
        0
176
     1
 40
-0.6
176
     1
 41
-30.0
176
     1
 62
     5
 63
     7
421
 16777215
176
     1
 74
     1
176
     1
 91
        4
176
     1
 64
     7
176
     1
 65
   257
176
     1
 75
     1
176
     1
175
     1
176
     1
 42
1.0
176
     1
 92
        0
176
     1
 66
   257
176
     1
 43
1.0
176
     1
 76
     1
176
     1
 77
     6
176
     1
 78
     2
176
     1
 67
     7
176
     1
 79
     5
176
     1
170
     0
176
     1
171
     0
176
     1
290
     0
176
     1
 93
        1
176
     1
 44
0.0
176
     1
173
     0
176
     1
  0
VISUALSTYLE
  5
32
102
{ACAD_REACTORS
330
2A
102
}
330
2A
100
AcDbVisualStyle
  2
Basic
 70
     7
177
     2
291
     1
 71
     1
176
     1
 72
     0
176
     1
 73
     1
176
     1
 90
        0
176
     1
 40
-0.6
176
     1
 41
-30.0
176
     1
 62
     5
 63
     7
421
 16777215
176
     1
 74
     0
176
     1
 91
        4
176
     1
 64
     7
176
     1
 65
   257
176
     1
 75
     1
176
     1
175
     1
176
     1
 42
1.0
176
     1
 92
        8
176
     1
 66
     7
176
     1
 43
1.0
176
     1
 76
     1
176
     1
 77
     6
176
     1
 78
     2
176
     1
 67
     7
176
     1
 79
     5
176
     1
170
     0
176
     1
171
     0
176
     1
290
     0
176
     1
 93
        1
176
     1
 44
0.0
176
     1
173
     0
176
     1
  0
VISUALSTYLE
  5
36
102
{ACAD_REACTORS
330
2A
102
}
330
2A
100
AcDbVisualStyle
  2
Brighten
 70
    12
177
     2
291
     1
 71
     2
176
     1
 72
     2
176
     1
 73
     0
176
     1
 90
        0
176
     1
 40
-0.6
176
     1
 41
-30.0
176
     1
 62
     5
 63
     7
421
 16777215
176
     1
 74
     1
176
     1
 91
        4
176
     1
 64
     7
176
     1
 65
   257
176
     1
 75
     1
176
     1
175
     1
176
     1
 42
1.0
176
     1
 92
        8
176
     1
 66
     7
176
     1
 43
1.0
176
     1
 76
     1
176
     1
 77
     6
176
     1
 78
     2
176
     1
 67
     7
176
     1
 79
     5
176
     1
170
     0
176
     1
171
     0
176
     1
290
     0
176
     1
 93
        1
176
     1
 44
50.0
176
     1
173
     0
176
     1
  0
VISUALSTYLE
  5
3A
102
{ACAD_REACTORS
330
2A
102
}
330
2A
100
AcDbVisualStyle
  2
ColorChange
 70
    16
177
     2
291
     1
 71
     2
176
     1
 72
     2
176
     1
 73
     3
176
     1
 90
        0
176
     1
 40
-0.6
176
     1
 41
-30.0
176
     1
 62
     5
 63
     8
421
  8421504
176
     1
 74
     1
176
     1
 91
        4
176
     1
 64
     7
176
     1
 65
   257
176
     1
 75
     1
176
     1
175
     1
176
     1
 42
1.0
176
     1
 92
        8
176
     1
 66
     8
424
  8421504
176
     1
 43
1.0
176
     1
 76
     1
176
     1
 77
     6
176
     1
 78
     2
176
     1
 67
     7
176
     1
 79
     5
176
     1
170
     0
176
     1
171
     0
176
     1
290
     0
176
     1
 93
        1
176
     1
 44
0.0
176
     1
173
     0
176
     1
  0
VISUALSTYLE
  5
34
102
{ACAD_REACTORS
330
2A
102
}
330
2A
100
AcDbVisualStyle
  2
Conceptual
 70
     9
177
     2
291
     0
 71
     3
176
     1
 72
     2
176
     1
 73
     0
176
     1
 90
        0
176
     1
 40
-0.6
176
     1
 41
-30.0
176
     1
 62
     5
 63
     7
421
 16777215
176
     1
 74
     2
176
     1
 91
        2
176
     1
 64
     7
176
     1
 65
   257
176
     1
 75
     1
176
     1
175
     1
176
     1
 42
40.0
176
     1
 92
        8
176
     1
 66
     7
176
     1
 43
1.0
176
     1
 76
     1
176
     1
 77
     6
176
     1
 78
     2
176
     1
 67
     7
176
     1
 79
     3
176
     1
170
     0
176
     1
171
     0
176
     1
290
     0
176
     1
 93
        1
176
     1
 44
0.0
176
     1
173
     0
176
     1
  0
VISUALSTYLE
  5
35
102
{ACAD_REACTORS
330
2A
102
}
330
2A
100
AcDbVisualStyle
  2
Dim
 70
    11
177
     2
291
     1
 71
     2
176
     1
 72
     2
176
     1
 73
     0
176
     1
 90
        0
176
     1
 40
-0.6
176
     1
 41
-30.0
176
     1
 62
     5
 63
     7
421
 16777215
176
     1
 74
     1
176
     1
 91
        4
176
     1
 64
     7
176
     1
 65
   257
176
     1
 75
     1
176
     1
175
     1
176
     1
 42
1.0
176
     1
 92
        8
176
     1
 66
     7
176
     1
 43
1.0
176
     1
 76
     1
176
     1
 77
     6
176
     1
 78
     2
176
     1
 67
     7
176
     1
 79
     5
176
     1
170
     0
176
     1
171
     0
176
     1
290
     0
176
     1
 93
        1
176
     1
 44
-50.0
176
     1
173
     0
176
     1
  0
VISUALSTYLE
  5
39
102
{ACAD_REACTORS
330
2A
102
}
330
2A
100
AcDbVisualStyle
  2
Facepattern
 70
    15
177
     2
291
     1
 71
     2
176
     1
 72
     2
176
     1
 73
     0
176
     1
 90
        0
176
     1
 40
-0.6
176
     1
 41
-30.0
176
     1
 62
     5
 63
     7
421
 16777215
176
     1
 74
     1
176
     1
 91
        4
176
     1
 64
     7
176
     1
 65
   257
176
     1
 75
     1
176
     1
175
     1
176
     1
 42
1.0
176
     1
 92
        8
176
     1
 66
     7
176
     1
 43
1.0
176
     1
 76
     1
176
     1
 77
     6
176
     1
 78
     2
176
     1
 67
     7
176
     1
 79
     5
176
     1
170
     0
176
     1
171
     0
176
     1
290
     0
176
     1
 93
        1
176
     1
 44
0.0
176
     1
173
     0
176
     1
  0
VISUALSTYLE
  5
2B
102
{ACAD_REACTORS
330
2A
102
}
330
2A
100
AcDbVisualStyle
  2
Flat
 70
     0
177
     2
291
     1
 71
     2
176
     1
 72
     1
176
     1
 73
     1
176
     1
 90
        2
176
     1
 40
-0.6
176
     1
 41
30.0
176
     1
 62
     5
 63
     7
421
 16777215
176
     1
 74
     0
176
     1
 91
        4
176
     1
 64
     7
176
     1
 65
   257
176
     1
 75
     1
176
     1
175
     1
176
     1
 42
1.0
176
     1
 92
        8
176
     1
 66
     7
176
     1
 43
1.0
176
     1
 76
     1
176
     1
 77
     6
176
     1
 78
     2
176
     1
 67
     7
176
     1
 79
     5
176
     1
170
     0
176
     1
171
     0
176
     1
290
     0
176
     1
 93
       13
176
     1
 44
0.0
176
     1
173
     0
176
     1
  0
VISUALSTYLE
  5
2C
102
{ACAD_REACTORS
330
2A
102
}
330
2A
100
AcDbVisualStyle
  2
FlatWithEdges
 70
     1
177
     2
291
     1
 71
     2
176
     1
 72
     1
176
     1
 73
     1
176
     1
 90
        2
176
     1
 40
-0.6
176
     1
 41
30.0
176
     1
 62
     5
 63
     7
421
 16777215
176
     1
 74
     1
176
     1
 91
        4
176
     1
 64
     7
176
     1
 65
   257
176
     1
 75
     1
176
     1
175
     1
176
     1
 42
1.0
176
     1
 92
        0
176
     1
 66
   257
176
     1
 43
1.0
176
     1
 76
     1
176
     1
 77
     6
176
     1
 78
     2
176
     1
 67
     7
176
     1
 79
     5
176
     1
170
     0
176
     1
171
     0
176
     1
290
     0
176
     1
 93
       13
176
     1
 44
0.0
176
     1
173
     0
176
     1
  0
VISUALSTYLE
  5
2D
102
{ACAD_REACTORS
330
2A
102
}
330
2A
100
AcDbVisualStyle
  2
Gouraud
 70
     2
177
     2
291
     1
 71
     2
176
     1
 72
     2
176
     1
 73
     1
176
     1
 90
        2
176
     1
 40
-0.6
176
     1
 41
30.0
176
     1
 62
     5
 63
     7
421
 16777215
176
     1
 74
     0
176
     1
 91
        4
176
     1
 64
     7
176
     1
 65
   257
176
     1
 75
     1
176
     1
175
     1
176
     1
 42
1.0
176
     1
 92
        0
176
     1
 66
     7
176
     1
 43
1.0
176
     1
 76
     1
176
     1
 77
     6
176
     1
 78
     2
176
     1
 67
     7
176
     1
 79
     5
176
     1
170
     0
176
     1
171
     0
176
     1
290
     0
176
     1
 93
       13
176
     1
 44
0.0
176
     1
173
     0
176
     1
  0
VISUALSTYLE
  5
2E
102
{ACAD_REACTORS
330
2A
102
}
330
2A
100
AcDbVisualStyle
  2
GouraudWithEdges
 70
     3
177
     2
291
     1
 71
     2
176
     1
 72
     2
176
     1
 73
     1
176
     1
 90
        2
176
     1
 40
-0.6
176
     1
 41
30.0
176
     1
 62
     5
 63
     7
421
 16777215
176
     1
 74
     1
176
     1
 91
        4
176
     1
 64
     7
176
     1
 65
   257
176
     1
 75
     1
176
     1
175
     1
176
     1
 42
1.0
176
     1
 92
        0
176
     1
 66
   257
176
     1
 43
1.0
176
     1
 76
     1
176
     1
 77
     6
176
     1
 78
     2
176
     1
 67
     7
176
     1
 79
     5
176
     1
170
     0
176
     1
171
     0
176
     1
290
     0
176
     1
 93
       13
176
     1
 44
0.0
176
     1
173
     0
176
     1
  0
VISUALSTYLE
  5
38
102
{ACAD_REACTORS
330
2A
102
}
330
2A
100
AcDbVisualStyle
  2
Linepattern
 70
    14
177
     2
291
     1
 71
     2
176
     1
 72
     2
176
     1
 73
     0
176
     1
 90
        0
176
     1
 40
-0.6
176
     1
 41
-30.0
176
     1
 62
     5
 63
     7
421
 16777215
176
     1
 74
     1
176
     1
 91
        4
176
     1
 64
     7
176
     1
 65
   257
176
     1
 75
     7
176
     1
175
     7
176
     1
 42
1.0
176
     1
 92
        8
176
     1
 66
     7
176
     1
 43
1.0
176
     1
 76
     1
176
     1
 77
     6
176
     1
 78
     2
176
     1
 67
     7
176
     1
 79
     5
176
     1
170
     0
176
     1
171
     0
176
     1
290
     0
176
     1
 93
        1
176
     1
 44
0.0
176
     1
173
     0
176
     1
  0
VISUALSTYLE
  5
33
102
{ACAD_REACTORS
330
2A
102
}
330
2A
100
AcDbVisualStyle
  2
Realistic
 70
     8
177
     2
291
     0
 71
     2
176
     1
 72
     2
176
     1
 73
     0
176
     1
 90
        0
176
     1
 40
-0.6
176
     1
 41
-30.0
176
     1
 62
     5
 63
     7
421
 16777215
176
     1
 74
     1
176
     1
 91
        0
176
     1
 64
     7
176
     1
 65
   257
176
     1
 75
     1
176
     1
175
     1
176
     1
 42
1.0
176
     1
 92
        8
176
     1
 66
     8
424
  7895160
176
     1
 43
1.0
176
     1
 76
     1
176
     1
 77
     6
176
     1
 78
     2
176
     1
 67
     7
176
     1
 79
     5
176
     1
170
     0
176
     1
171
     0
176
     1
290
     0
176
     1
 93
       13
176
     1
 44
0.0
176
     1
173
     0
176
     1
  0
VISUALSTYLE
  5
37
102
{ACAD_REACTORS
330
2A
102
}
330
2A
100
AcDbVisualStyle
  2
Thicken
 70
    13
177
     2
291
     1
 71
     2
176
     1
 72
     2
176
     1
 73
     0
176
     1
 90
        0
176
     1
 40
-0.6
176
     1
 41
-30.0
176
     1
 62
     5
 63
     7
421
 16777215
176
     1
 74
     1
176
     1
 91
        4
176
     1
 64
     7
176
     1
 65
   257
176
     1
 75
     1
176
     1
175
     1
176
     1
 42
1.0
176
     1
 92
       12
176
     1
 66
     7
176
     1
 43
1.0
176
     1
 76
     1
176
     1
 77
     6
176
     1
 78
     2
176
     1
 67
     7
176
     1
 79
     5
176
     1
170
     0
176
     1
171
     0
176
     1
290
     0
176
     1
 93
        1
176
     1
 44
0.0
176
     1
173
     0
176
     1
  0
ENDSEC
  0
EOF
