  0
SECTION
  2
HEADER
  9
$ACADVER
  1
AC1024
  9
$ACADMAINTVER
 70
     6
  9
$DWGCODEPAGE
  3
UNDEFINED
  9
$INSBASE
 10
0.0
 20
0.0
 30
0.0
  9
$EXTMIN
 10
1.000000000000000E+20
 20
1.000000000000000E+20
 30
1.000000000000000E+20
  9
$EXTMAX
 10
-1.000000000000000E+20
 20
-1.000000000000000E+20
 30
-1.000000000000000E+20
  9
$LIMMIN
 10
0.0
 20
0.0
  9
$LIMMAX
 10
12.0
 20
9.0
  9
$ORTHOMODE
 70
     0
  9
$REGENMODE
 70
     1
  9
$FILLMODE
 70
     1
  9
$QTEXTMODE
 70
     0
  9
$MIRRTEXT
 70
     1
  9
$LTSCALE
 40
1.0
  9
$ATTMODE
 70
     1
  9
$TEXTSIZE
 40
0.2
  9
$TRACEWID
 40
0.05
  9
$TEXTSTYLE
  7
Standard
  9
$CLAYER
  8
0
  9
$CELTYPE
  6
ByLayer
  9
$CECOLOR
 62
   256
  9
$CELTSCALE
 40
1.0
  9
$DISPSILH
 70
     0
  9
$DIMSCALE
 40
1.0
  9
$DIMASZ
 40
0.18
  9
$DIMEXO
 40
0.0625
  9
$DIMDLI
 40
0.38
  9
$DIMRND
 40
0.0
  9
$DIMDLE
 40
0.0
  9
$DIMEXE
 40
0.18
  9
$DIMTP
 40
0.0
  9
$DIMTM
 40
0.0
  9
$DIMTXT
 40
0.18
  9
$DIMCEN
 40
0.09
  9
$DIMTSZ
 40
0.0
  9
$DIMTOL
 70
     0
  9
$DIMLIM
 70
     0
  9
$DIMTIH
 70
     1
  9
$DIMTOH
 70
     1
  9
$DIMSE1
 70
     0
  9
$DIMSE2
 70
     0
  9
$DIMTAD
 70
     0
  9
$DIMZIN
 70
     0
  9
$DIMBLK
  1

  9
$DIMASO
 70
     1
  9
$DIMSHO
 70
     1
  9
$DIMPOST
  1

  9
$DIMAPOST
  1

  9
$DIMALT
 70
     0
  9
$DIMALTD
 70
     2
  9
$DIMALTF
 40
25.4
  9
$DIMLFAC
 40
1.0
  9
$DIMTOFL
 70
     0
  9
$DIMTVP
 40
0.0
  9
$DIMTIX
 70
     0
  9
$DIMSOXD
 70
     0
  9
$DIMSAH
 70
     0
  9
$DIMBLK1
  1

  9
$DIMBLK2
  1

  9
$DIMSTYLE
  2
Standard
  9
$DIMCLRD
 70
     0
  9
$DIMCLRE
 70
     0
  9
$DIMCLRT
 70
     0
  9
$DIMTFAC
 40
1.0
  9
$DIMGAP
 40
0.09
  9
$DIMJUST
 70
     0
  9
$DIMSD1
 70
     0
  9
$DIMSD2
 70
     0
  9
$DIMTOLJ
 70
     1
  9
$DIMTZIN
 70
     0
  9
$DIMALTZ
 70
     0
  9
$DIMALTTZ
 70
     0
  9
$DIMUPT
 70
     0
  9
$DIMDEC
 70
     4
  9
$DIMTDEC
 70
     4
  9
$DIMALTU
 70
     2
  9
$DIMALTTD
 70
     2
  9
$DIMTXSTY
  7
Standard
  9
$DIMAUNIT
 70
     0
  9
$DIMADEC
 70
     0
  9
$DIMALTRND
 40
0.0
  9
$DIMAZIN
 70
     0
  9
$DIMDSEP
 70
    46
  9
$DIMATFIT
 70
     3
  9
$DIMFRAC
 70
     0
  9
$DIMLDRBLK
  1

  9
$DIMLUNIT
 70
     2
  9
$DIMLWD
 70
    -2
  9
$DIMLWE
 70
    -2
  9
$DIMTMOVE
 70
     0
  9
$DIMFXL
 40
1.0
  9
$DIMFXLON
 70
     0
  9
$DIMJOGANG
 40
0.7853981633974483
  9
$DIMTFILL
 70
     0
  9
$DIMTFILLCLR
 70
     0
  9
$DIMARCSYM
 70
     0
  9
$DIMLTYPE
  6

  9
$DIMLTEX1
  6

  9
$DIMLTEX2
  6

  9
$DIMTXTDIRECTION
 70
     0
  9
$LUNITS
 70
     2
  9
$LUPREC
 70
     4
  9
$SKETCHINC
 40
0.1
  9
$FILLETRAD
 40
0.5
  9
$AUNITS
 70
     0
  9
$AUPREC
 70
     0
  9
$MENU
  1
.
  9
$ELEVATION
 40
0.0
  9
$PELEVATION
 40
0.0
  9
$THICKNESS
 40
0.0
  9
$LIMCHECK
 70
     0
  9
$CHAMFERA
 40
0.5
  9
$CHAMFERB
 40
0.5
  9
$CHAMFERC
 40
1.0
  9
$CHAMFERD
 40
0.0
  9
$SKPOLY
 70
     0
  9
$TDCREATE
 40
2457917.636527766
  9
$TDUCREATE
 40
2457917.261527778
  9
$TDUPDATE
 40
2457917.636527766
  9
$TDUUPDATE
 40
2457917.261527778
  9
$TDINDWG
 40
0.0000000116
  9
$TDUSRTIMER
 40
0.0000000116
  9
$USRTIMER
 70
     1
  9
$ANGBASE
 50
0.0
  9
$ANGDIR
 70
     0
  9
$PDMODE
 70
     0
  9
$PDSIZE
 40
0.0
  9
$PLINEWID
 40
0.0
  9
$SPLFRAME
 70
     0
  9
$SPLINETYPE
 70
     6
  9
$SPLINESEGS
 70
     8
  9
$HANDSEED
  5
98
  9
$SURFTAB1
 70
     6
  9
$SURFTAB2
 70
     6
  9
$SURFTYPE
 70
     6
  9
$SURFU
 70
     6
  9
$SURFV
 70
     6
  9
$UCSBASE
  2

  9
$UCSNAME
  2

  9
$UCSORG
 10
0.0
 20
0.0
 30
0.0
  9
$UCSXDIR
 10
1.0
 20
0.0
 30
0.0
  9
$UCSYDIR
 10
0.0
 20
1.0
 30
0.0
  9
$UCSORTHOREF
  2

  9
$UCSORTHOVIEW
 70
     0
  9
$UCSORGTOP
 10
0.0
 20
0.0
 30
0.0
  9
$UCSORGBOTTOM
 10
0.0
 20
0.0
 30
0.0
  9
$UCSORGLEFT
 10
0.0
 20
0.0
 30
0.0
  9
$UCSORGRIGHT
 10
0.0
 20
0.0
 30
0.0
  9
$UCSORGFRONT
 10
0.0
 20
0.0
 30
0.0
  9
$UCSORGBACK
 10
0.0
 20
0.0
 30
0.0
  9
$PUCSBASE
  2

  9
$PUCSNAME
  2

  9
$PUCSORG
 10
0.0
 20
0.0
 30
0.0
  9
$PUCSXDIR
 10
1.0
 20
0.0
 30
0.0
  9
$PUCSYDIR
 10
0.0
 20
1.0
 30
0.0
  9
$PUCSORTHOREF
  2

  9
$PUCSORTHOVIEW
 70
     0
  9
$PUCSORGTOP
 10
0.0
 20
0.0
 30
0.0
  9
$PUCSORGBOTTOM
 10
0.0
 20
0.0
 30
0.0
  9
$PUCSORGLEFT
 10
0.0
 20
0.0
 30
0.0
  9
$PUCSORGRIGHT
 10
0.0
 20
0.0
 30
0.0
  9
$PUCSORGFRONT
 10
0.0
 20
0.0
 30
0.0
  9
$PUCSORGBACK
 10
0.0
 20
0.0
 30
0.0
  9
$USERI1
 70
     0
  9
$USERI2
 70
     0
  9
$USERI3
 70
     0
  9
$USERI4
 70
     0
  9
$USERI5
 70
     0
  9
$USERR1
 40
0.0
  9
$USERR2
 40
0.0
  9
$USERR3
 40
0.0
  9
$USERR4
 40
0.0
  9
$USERR5
 40
0.0
  9
$WORLDVIEW
 70
     1
  9
$SHADEDGE
 70
     3
  9
$SHADEDIF
 70
    70
  9
$TILEMODE
 70
     1
  9
$MAXACTVP
 70
    64
  9
$PINSBASE
 10
0.0
 20
0.0
 30
0.0
  9
$PLIMCHECK
 70
     0
  9
$PEXTMIN
 10
1.000000000000000E+20
 20
1.000000000000000E+20
 30
1.000000000000000E+20
  9
$PEXTMAX
 10
-1.000000000000000E+20
 20
-1.000000000000000E+20
 30
-1.000000000000000E+20
  9
$PLIMMIN
 10
0.0
 20
0.0
  9
$PLIMMAX
 10
12.0
 20
9.0
  9
$UNITMODE
 70
     0
  9
$VISRETAIN
 70
     1
  9
$PLINEGEN
 70
     0
  9
$PSLTSCALE
 70
     1
  9
$TREEDEPTH
 70
  3020
  9
$CMLSTYLE
  2
Standard
  9
$CMLJUST
 70
     0
  9
$CMLSCALE
 40
1.0
  9
$PROXYGRAPHICS
 70
     1
  9
$MEASUREMENT
 70
     0
  9
$CELWEIGHT
370
    -1
  9
$ENDCAPS
280
     0
  9
$JOINSTYLE
280
     0
  9
$LWDISPLAY
290
     1
  9
$INSUNITS
 70
     1
  9
$HYPERLINKBASE
  1

  9
$STYLESHEET
  1

  9
$XEDIT
290
     1
  9
$CEPSNTYPE
380
     0
  9
$PSTYLEMODE
290
     1
  9
$FINGERPRINTGUID
  2
{B0833091-0672-6783-278C-43432DBE1C9F}
  9
$VERSIONGUID
  2
{FAEB1C32-E019-11D5-929B-00C0DF256EC4}
  9
$EXTNAMES
290
     1
  9
$PSVPSCALE
 40
0.0
  9
$OLESTARTUP
290
     0
  9
$SORTENTS
280
   127
  9
$INDEXCTL
280
     0
  9
$HIDETEXT
280
     1
  9
$XCLIPFRAME
280
     2
  9
$HALOGAP
280
     0
  9
$OBSCOLOR
 70
   257
  9
$OBSLTYPE
280
     0
  9
$INTERSECTIONDISPLAY
280
     0
  9
$INTERSECTIONCOLOR
 70
   257
  9
$DIMASSOC
280
     2
  9
$PROJECTNAME
  1

  9
$CAMERADISPLAY
290
     0
  9
$LENSLENGTH
 40
50.0
  9
$CAMERAHEIGHT
 40
0.0
  9
$STEPSPERSEC
 40
2.0
  9
$STEPSIZE
 40
6.0
  9
$3DDWFPREC
 40
2.0
  9
$PSOLWIDTH
 40
0.25
  9
$PSOLHEIGHT
 40
4.0
  9
$LOFTANG1
 40
1.570796326794897
  9
$LOFTANG2
 40
1.570796326794897
  9
$LOFTMAG1
 40
0.0
  9
$LOFTMAG2
 40
0.0
  9
$LOFTPARAM
 70
     7
  9
$LOFTNORMALS
280
     1
  9
$LATITUDE
 40
37.795
  9
$LONGITUDE
 40
-122.394
  9
$NORTHDIRECTION
 40
0.0
  9
$TIMEZONE
 70
 -8000
  9
$LIGHTGLYPHDISPLAY
280
     1
  9
$TILEMODELIGHTSYNCH
280
     1
  9
$CMATERIAL
347
3C
  9
$SOLIDHIST
280
     1
  9
$SHOWHIST
280
     1
  9
$DWFFRAME
280
     2
  9
$DGNFRAME
280
     2
  9
$REALWORLDSCALE
290
     1
  9
$INTERFERECOLOR
 62
   256
  9
$CSHADOW
280
     0
  9
$SHADOWPLANELOCATION
 40
0.0
  0
ENDSEC
  0
SECTION
  2
CLASSES
  0
CLASS
  1
ACDBDICTIONARYWDFLT
  2
AcDbDictionaryWithDefault
  3
ObjectDBX Classes
 90
        0
 91
        4
280
     0
281
     0
  0
CLASS
  1
VISUALSTYLE
  2
AcDbVisualStyle
  3
ObjectDBX Classes
 90
     4095
 91
        4
280
     0
281
     0
  0
CLASS
  1
MATERIAL
  2
AcDbMaterial
  3
ObjectDBX Classes
 90
     1153
 91
        4
280
     0
281
     0
  0
CLASS
  1
SUN
  2
AcDbSun
  3
SCENEOE
 90
     1024
 91
        4
280
     0
281
     0
  0
ENDSEC
  0
SECTION
  2
TABLES
  0
TABLE
  2
VPORT
  5
8
330
0
100
AcDbSymbolTable
 70
     1
  0
VPORT
  5
29
330
8
100
AcDbSymbolTableRecord
100
AcDbViewportTableRecord
  2
*Active
 70
     0
 10
0.0
 20
0.0
 11
1.0
 21
1.0
 12
0.0
 22
0.0
 13
0.0
 23
0.0
 14
0.5
 24
0.5
 15
0.5
 25
0.5
 16
0.0
 26
0.0
 36
1.0
 17
91.00082462281999
 27
-128.4993055234307
 37
0.0
 40
256.9986110468615
 41
0.7081814508812795
 42
50.0
 43
0.0
 44
0.0
 50
0.0
 51
0.0
 71
     0
 72
   100
 73
     1
 74
     3
 75
     0
 76
     0
 77
     0
 78
     0
281
     0
 65
     1
110
0.0
120
0.0
130
0.0
111
1.0
121
0.0
131
0.0
112
0.0
122
1.0
132
0.0
 79
     0
146
0.0
 60
     3
 61
     5
292
     1
282
     1
141
0.0
142
0.0
 63
   250
361
3F
  0
ENDTAB
  0
TABLE
  2
LTYPE
  5
5
330
0
100
AcDbSymbolTable
 70
     1
  0
LTYPE
  5
14
330
5
100
AcDbSymbolTableRecord
100
AcDbLinetypeTableRecord
  2
ByBlock
 70
     0
  3

 72
    65
 73
     0
 40
0.0
  0
LTYPE
  5
15
330
5
100
AcDbSymbolTableRecord
100
AcDbLinetypeTableRecord
  2
ByLayer
 70
     0
  3

 72
    65
 73
     0
 40
0.0
  0
LTYPE
  5
16
330
5
100
AcDbSymbolTableRecord
100
AcDbLinetypeTableRecord
  2
Continuous
 70
     0
  3
Solid line
 72
    65
 73
     0
 40
0.0
  0
ENDTAB
  0
TABLE
  2
LAYER
  5
2
330
0
100
AcDbSymbolTable
 70
     2
  0
LAYER
  5
10
330
2
100
AcDbSymbolTableRecord
100
AcDbLayerTableRecord
  2
0
 70
     0
 62
     7
  6
Continuous
370
    -3
390
F
347
3E
  0
LAYER
  5
40
330
2
100
AcDbSymbolTableRecord
100
AcDbLayerTableRecord
  2
_U+30EC_U+30A4_U+30E4_U+30FC 1
 70
     0
 62
     7
  6
Continuous
370
    -3
390
F
347
3E
  0
ENDTAB
  0
TABLE
  2
STYLE
  5
3
330
0
100
AcDbSymbolTable
 70
     1
  0
STYLE
  5
11
330
3
100
AcDbSymbolTableRecord
100
AcDbTextStyleTableRecord
  2
Standard
 70
     0
 40
0.0
 41
1.0
 50
0.0
 71
     0
 42
0.2
  3
txt
  4

  0
ENDTAB
  0
TABLE
  2
VIEW
  5
6
330
0
100
AcDbSymbolTable
 70
     0
  0
ENDTAB
  0
TABLE
  2
UCS
  5
7
330
0
100
AcDbSymbolTable
 70
     0
  0
ENDTAB
  0
TABLE
  2
APPID
  5
9
330
0
100
AcDbSymbolTable
 70
     1
  0
APPID
  5
12
330
9
100
AcDbSymbolTableRecord
100
AcDbRegAppTableRecord
  2
ACAD
 70
     0
  0
ENDTAB
  0
TABLE
  2
DIMSTYLE
  5
A
330
0
100
AcDbSymbolTable
 70
     1
100
AcDbDimStyleTable
  0
DIMSTYLE
105
27
330
A
100
AcDbSymbolTableRecord
100
AcDbDimStyleTableRecord
  2
Standard
 70
     0
178
     0
340
11
  0
ENDTAB
  0
TABLE
  2
BLOCK_RECORD
  5
1
330
0
100
AcDbSymbolTable
 70
     4
  0
BLOCK_RECORD
  5
1F
330
1
100
AcDbSymbolTableRecord
100
AcDbBlockTableRecord
  2
*Model_Space
340
22
 70
     0
280
     1
281
     0
  0
BLOCK_RECORD
  5
1B
330
1
100
AcDbSymbolTableRecord
100
AcDbBlockTableRecord
  2
*Paper_Space
340
1E
 70
     0
280
     1
281
     0
  0
BLOCK_RECORD
  5
23
330
1
100
AcDbSymbolTableRecord
100
AcDbBlockTableRecord
  2
*Paper_Space0
340
26
 70
     0
280
     1
281
     0
  0
BLOCK_RECORD
  5
5C
330
1
100
AcDbSymbolTableRecord
100
AcDbBlockTableRecord
  2
block 2
340
0
102
{BLKREFS
331
5D
102
}
 70
     0
280
     1
281
     0
  0
BLOCK_RECORD
  5
74
330
1
100
AcDbSymbolTableRecord
100
AcDbBlockTableRecord
  2
block 3
340
0
102
{BLKREFS
331
75
102
}
 70
     0
280
     1
281
     0
  0
BLOCK_RECORD
  5
8B
330
1
100
AcDbSymbolTableRecord
100
AcDbBlockTableRecord
  2
block 4
340
0
102
{BLKREFS
331
8C
102
}
 70
     0
280
     1
281
     0
  0
ENDTAB
  0
ENDSEC
  0
SECTION
  2
BLOCKS
  0
BLOCK
  5
20
330
1F
100
AcDbEntity
  8
0
100
AcDbBlockBegin
  2
*Model_Space
 70
     0
 10
0.0
 20
0.0
 30
0.0
  3
*Model_Space
  1

  0
ENDBLK
  5
21
330
1F
100
AcDbEntity
  8
0
100
AcDbBlockEnd
  0
BLOCK
  5
1C
330
1B
100
AcDbEntity
 67
     1
  8
0
100
AcDbBlockBegin
  2
*Paper_Space
 70
     0
 10
0.0
 20
0.0
 30
0.0
  3
*Paper_Space
  1

  0
ENDBLK
  5
1D
330
1B
100
AcDbEntity
 67
     1
  8
0
100
AcDbBlockEnd
  0
BLOCK
  5
24
330
23
100
AcDbEntity
  8
0
100
AcDbBlockBegin
  2
*Paper_Space0
 70
     0
 10
0.0
 20
0.0
 30
0.0
  3
*Paper_Space0
  1

  0
ENDBLK
  5
25
330
23
100
AcDbEntity
  8
0
100
AcDbBlockEnd
  0
BLOCK
  5
5E
330
5C
100
AcDbEntity
  8
0
100
AcDbBlockBegin
  2
block 2
 70
     0
 10
0.0
 20
0.0
 30
0.0
  3
block 2
  1

  0
SPLINE
  5
60
330
5C
100
AcDbEntity
  8
_U+30EC_U+30A4_U+30E4_U+30FC 1
370
     0
100
AcDbSpline
210
0.0
220
0.0
230
1.0
 70
    11
 71
     3
 72
    44
 73
    40
 74
     0
 42
0.0000000001
 43
0.0000000001
 12
1.0
 22
0.0
 32
0.0
 13
1.0
 23
0.0
 33
0.0
 40
0.0
 40
0.0
 40
0.0
 40
0.0
 40
1.0
 40
1.0
 40
1.0
 40
2.0
 40
2.0
 40
2.0
 40
3.0
 40
3.0
 40
3.0
 40
4.0
 40
4.0
 40
4.0
 40
5.0
 40
5.0
 40
5.0
 40
6.0
 40
6.0
 40
6.0
 40
7.0
 40
7.0
 40
7.0
 40
8.0
 40
8.0
 40
8.0
 40
9.0
 40
9.0
 40
9.0
 40
10.0
 40
10.0
 40
10.0
 40
11.0
 40
11.0
 40
11.0
 40
12.0
 40
12.0
 40
12.0
 40
13.0
 40
13.0
 40
13.0
 40
13.0
 10
84.33197561910798
 20
-121.0606553516793
 30
0.0
 10
84.06566973809817
 20
-121.0187974415335
 30
0.0
 10
83.9475029629541
 20
-121.005361569141
 30
0.0
 10
83.81142169128672
 20
-121.0725409311034
 30
0.0
 10
83.81142169128672
 20
-121.0725409311034
 30
0.0
 10
84.36194794982966
 20
-121.6230671896463
 30
0.0
 10
84.36194794982966
 20
-121.6230671896463
 30
0.0
 10
84.36194794982966
 20
-121.6230671896463
 30
0.0
 10
84.21673717512637
 20
-121.7681057095753
 30
0.0
 10
84.21673717512637
 20
-121.7681057095753
 30
0.0
 10
84.21673717512637
 20
-121.7681057095753
 30
0.0
 10
83.48982202773865
 20
-121.0411905621876
 30
0.0
 10
83.48982202773865
 20
-121.0411905621876
 30
0.0
 10
83.76508515701012
 20
-120.8108859289987
 30
0.0
 10
83.866715473825
 20
-120.801928680737
 30
0.0
 10
84.34989011563128
 20
-120.8632513803745
 30
0.0
 10
84.67148977917935
 20
-120.9035589975519
 30
0.0
 10
84.76571314070094
 20
-120.9020087045835
 30
0.0
 10
84.86303708815925
 20
-120.8048570118995
 30
0.0
 10
84.94675290845082
 20
-120.7211411916079
 30
0.0
 10
84.9886108185966
 20
-120.577480709873
 30
0.0
 10
84.84960121576677
 20
-120.4382988522689
 30
0.0
 10
84.66563311685442
 20
-120.2543307533566
 30
0.0
 10
84.49647892852866
 20
-120.411427107484
 30
0.0
 10
84.41121281526873
 20
-120.4906643036447
 30
0.0
 10
84.41121281526873
 20
-120.4906643036447
 30
0.0
 10
84.25273842294723
 20
-120.3321899113232
 30
0.0
 10
84.25273842294723
 20
-120.3321899113232
 30
0.0
 10
84.34851207743718
 20
-120.2483018362574
 30
0.0
 10
84.43515622889122
 20
-120.1766438501642
 30
0.0
 10
84.57588837946368
 20
-120.149599850605
 30
0.0
 10
84.7672634336693
 20
-120.1137708575584
 30
0.0
 10
84.92280949482833
 20
-120.2214300914724
 30
0.0
 10
85.0051472769258
 20
-120.3037678735699
 30
0.0
 10
85.20100095526226
 20
-120.4996215519063
 30
0.0
 10
85.21753741359146
 20
-120.7764349741462
 30
0.0
 10
85.02461206641746
 20
-120.9693603213202
 30
0.0
 10
84.86303708815925
 20
-121.1309352995784
 30
0.0
 10
84.71041935816268
 20
-121.1190497201543
 30
0.0
 10
84.33197561910798
 20
-121.0606553516793
 30
0.0
  0
HATCH
  5
61
330
5C
100
AcDbEntity
  8
_U+30EC_U+30A4_U+30E4_U+30FC 1
 62
   179
420
  2234388
100
AcDbHatch
 10
0.0
 20
0.0
 30
0.0
210
0.0
220
0.0
230
1.0
  2
SOLID
 70
     1
 71
     0
 91
        1
 92
        1
 93
        1
 72
     4
 94
        3
 73
     0
 74
     1
 95
       44
 96
       40
 40
0.0
 40
0.0
 40
0.0
 40
0.0
 40
1.0
 40
1.0
 40
1.0
 40
2.0
 40
2.0
 40
2.0
 40
3.0
 40
3.0
 40
3.0
 40
4.0
 40
4.0
 40
4.0
 40
5.0
 40
5.0
 40
5.0
 40
6.0
 40
6.0
 40
6.0
 40
7.0
 40
7.0
 40
7.0
 40
8.0
 40
8.0
 40
8.0
 40
9.0
 40
9.0
 40
9.0
 40
10.0
 40
10.0
 40
10.0
 40
11.0
 40
11.0
 40
11.0
 40
12.0
 40
12.0
 40
12.0
 40
13.0
 40
13.0
 40
13.0
 40
13.0
 10
84.33197561910798
 20
-121.0606553516793
 10
84.06566973809817
 20
-121.0187974415335
 10
83.9475029629541
 20
-121.005361569141
 10
83.81142169128672
 20
-121.0725409311034
 10
83.81142169128672
 20
-121.0725409311034
 10
84.36194794982966
 20
-121.6230671896463
 10
84.36194794982966
 20
-121.6230671896463
 10
84.36194794982966
 20
-121.6230671896463
 10
84.21673717512637
 20
-121.7681057095753
 10
84.21673717512637
 20
-121.7681057095753
 10
84.21673717512637
 20
-121.7681057095753
 10
83.48982202773865
 20
-121.0411905621876
 10
83.48982202773865
 20
-121.0411905621876
 10
83.76508515701012
 20
-120.8108859289987
 10
83.866715473825
 20
-120.801928680737
 10
84.34989011563128
 20
-120.8632513803745
 10
84.67148977917935
 20
-120.9035589975519
 10
84.76571314070094
 20
-120.9020087045835
 10
84.86303708815925
 20
-120.8048570118995
 10
84.94675290845082
 20
-120.7211411916079
 10
84.9886108185966
 20
-120.577480709873
 10
84.84960121576677
 20
-120.4382988522689
 10
84.66563311685442
 20
-120.2543307533566
 10
84.49647892852866
 20
-120.411427107484
 10
84.41121281526873
 20
-120.4906643036447
 10
84.41121281526873
 20
-120.4906643036447
 10
84.25273842294723
 20
-120.3321899113232
 10
84.25273842294723
 20
-120.3321899113232
 10
84.34851207743718
 20
-120.2483018362574
 10
84.43515622889122
 20
-120.1766438501642
 10
84.57588837946368
 20
-120.149599850605
 10
84.7672634336693
 20
-120.1137708575584
 10
84.92280949482833
 20
-120.2214300914724
 10
85.0051472769258
 20
-120.3037678735699
 10
85.20100095526226
 20
-120.4996215519063
 10
85.21753741359146
 20
-120.7764349741462
 10
85.02461206641746
 20
-120.9693603213202
 10
84.86303708815925
 20
-121.1309352995784
 10
84.71041935816268
 20
-121.1190497201543
 10
84.33197561910798
 20
-121.0606553516793
 97
        0
 97
        0
 75
     2
 76
     1
 98
        0
  0
SPLINE
  5
62
330
5C
100
AcDbEntity
  8
_U+30EC_U+30A4_U+30E4_U+30FC 1
370
     0
100
AcDbSpline
210
0.0
220
0.0
230
1.0
 70
    11
 71
     3
 72
    29
 73
    25
 74
     0
 42
0.0000000001
 43
0.0000000001
 12
1.0
 22
0.0
 32
0.0
 13
1.0
 23
0.0
 33
0.0
 40
0.0
 40
0.0
 40
0.0
 40
0.0
 40
1.0
 40
1.0
 40
1.0
 40
2.0
 40
2.0
 40
2.0
 40
3.0
 40
3.0
 40
3.0
 40
4.0
 40
4.0
 40
4.0
 40
5.0
 40
5.0
 40
5.0
 40
6.0
 40
6.0
 40
6.0
 40
7.0
 40
7.0
 40
7.0
 40
8.0
 40
8.0
 40
8.0
 40
8.0
 10
85.09385848567098
 20
-122.393907304471
 30
0.0
 10
84.86941051480696
 20
-122.4657375453384
 30
0.0
 10
84.7333292431396
 20
-122.356528018456
 30
0.0
 10
84.65099146104211
 20
-122.2741902363585
 30
0.0
 10
84.53730331002888
 20
-122.1605020853453
 30
0.0
 10
84.4701239480665
 20
-122.0273491448404
 30
0.0
 10
84.53144664770394
 20
-121.8314954665039
 30
0.0
 10
84.59569767850385
 20
-121.6204833680324
 30
0.0
 10
84.74986570146879
 20
-121.4396158550568
 30
0.0
 10
84.86493189067613
 20
-121.3243774110752
 30
0.0
 10
84.96673446226526
 20
-121.222574839486
 30
0.0
 10
85.1567314782768
 20
-121.0566934918712
 30
0.0
 10
85.37204994610491
 20
-120.9907199133287
 30
0.0
 10
85.59201929283812
 20
-120.9235405513663
 30
0.0
 10
85.7220716474063
 20
-121.0206922440504
 30
0.0
 10
85.81336667776542
 20
-121.1119872744095
 30
0.0
 10
85.92550453581029
 20
-121.2241251324544
 30
0.0
 10
85.99578448370939
 20
-121.3572780729593
 30
0.0
 10
85.93446178407194
 20
-121.55330400607
 30
0.0
 10
85.86866046030367
 20
-121.7596652256365
 30
0.0
 10
85.72362194037466
 20
-121.9376044074496
 30
0.0
 10
85.60097654109975
 20
-122.0604220614988
 30
0.0
 10
85.47970918001897
 20
-122.1815171678053
 30
0.0
 10
85.30176999820581
 20
-122.3296562736711
 30
0.0
 10
85.09385848567098
 20
-122.393907304471
 30
0.0
  0
SPLINE
  5
63
330
5C
100
AcDbEntity
  8
_U+30EC_U+30A4_U+30E4_U+30FC 1
370
     0
100
AcDbSpline
210
0.0
220
0.0
230
1.0
 70
    11
 71
     3
 72
    17
 73
    13
 74
     0
 42
0.0000000001
 43
0.0000000001
 12
1.0
 22
0.0
 32
0.0
 13
1.0
 23
0.0
 33
0.0
 40
0.0
 40
0.0
 40
0.0
 40
0.0
 40
1.0
 40
1.0
 40
1.0
 40
2.0
 40
2.0
 40
2.0
 40
3.0
 40
3.0
 40
3.0
 40
4.0
 40
4.0
 40
4.0
 40
4.0
 10
85.67728540609805
 20
-121.2480685460769
 30
0.0
 10
85.50072426247898
 20
-121.0715074024578
 30
0.0
 10
85.26731904335331
 20
-121.2391112978152
 30
0.0
 10
85.02357853777188
 20
-121.4828518033967
 30
0.0
 10
84.7975802739395
 20
-121.708850067229
 30
0.0
 10
84.6046549267655
 20
-121.9525905728105
 30
0.0
 10
84.78862302567785
 20
-122.1365586717228
 30
0.0
 10
84.96363387632854
 20
-122.3115695223735
 30
0.0
 10
85.19703909545422
 20
-122.1470662129528
 30
0.0
 10
85.442329894004
 20
-121.901775414403
 30
0.0
 10
85.6683281578364
 20
-121.6759494053449
 30
0.0
 10
85.85970321204202
 20
-121.4306586067951
 30
0.0
 10
85.67728540609805
 20
-121.2480685460769
 30
0.0
  0
HATCH
  5
64
330
5C
100
AcDbEntity
  8
_U+30EC_U+30A4_U+30E4_U+30FC 1
 62
   179
420
  2234388
100
AcDbHatch
 10
0.0
 20
0.0
 30
0.0
210
0.0
220
0.0
230
1.0
  2
SOLID
 70
     1
 71
     0
 91
        2
 92
        1
 93
        1
 72
     4
 94
        3
 73
     0
 74
     1
 95
       29
 96
       25
 40
0.0
 40
0.0
 40
0.0
 40
0.0
 40
1.0
 40
1.0
 40
1.0
 40
2.0
 40
2.0
 40
2.0
 40
3.0
 40
3.0
 40
3.0
 40
4.0
 40
4.0
 40
4.0
 40
5.0
 40
5.0
 40
5.0
 40
6.0
 40
6.0
 40
6.0
 40
7.0
 40
7.0
 40
7.0
 40
8.0
 40
8.0
 40
8.0
 40
8.0
 10
85.09385848567098
 20
-122.393907304471
 10
84.86941051480696
 20
-122.4657375453384
 10
84.7333292431396
 20
-122.356528018456
 10
84.65099146104211
 20
-122.2741902363585
 10
84.53730331002888
 20
-122.1605020853453
 10
84.4701239480665
 20
-122.0273491448404
 10
84.53144664770394
 20
-121.8314954665039
 10
84.59569767850385
 20
-121.6204833680324
 10
84.74986570146879
 20
-121.4396158550568
 10
84.86493189067613
 20
-121.3243774110752
 10
84.96673446226526
 20
-121.222574839486
 10
85.1567314782768
 20
-121.0566934918712
 10
85.37204994610491
 20
-120.9907199133287
 10
85.59201929283812
 20
-120.9235405513663
 10
85.7220716474063
 20
-121.0206922440504
 10
85.81336667776542
 20
-121.1119872744095
 10
85.92550453581029
 20
-121.2241251324544
 10
85.99578448370939
 20
-121.3572780729593
 10
85.93446178407194
 20
-121.55330400607
 10
85.86866046030367
 20
-121.7596652256365
 10
85.72362194037466
 20
-121.9376044074496
 10
85.60097654109975
 20
-122.0604220614988
 10
85.47970918001897
 20
-122.1815171678053
 10
85.30176999820581
 20
-122.3296562736711
 10
85.09385848567098
 20
-122.393907304471
 97
        0
 97
        0
 92
        1
 93
        1
 72
     4
 94
        3
 73
     0
 74
     1
 95
       17
 96
       13
 40
0.0
 40
0.0
 40
0.0
 40
0.0
 40
1.0
 40
1.0
 40
1.0
 40
2.0
 40
2.0
 40
2.0
 40
3.0
 40
3.0
 40
3.0
 40
4.0
 40
4.0
 40
4.0
 40
4.0
 10
85.67728540609805
 20
-121.2480685460769
 10
85.50072426247898
 20
-121.0715074024578
 10
85.26731904335331
 20
-121.2391112978152
 10
85.02357853777188
 20
-121.4828518033967
 10
84.7975802739395
 20
-121.708850067229
 10
84.6046549267655
 20
-121.9525905728105
 10
84.78862302567785
 20
-122.1365586717228
 10
84.96363387632854
 20
-122.3115695223735
 10
85.19703909545422
 20
-122.1470662129528
 10
85.442329894004
 20
-121.901775414403
 10
85.6683281578364
 20
-121.6759494053449
 10
85.85970321204202
 20
-121.4306586067951
 10
85.67728540609805
 20
-121.2480685460769
 97
        0
 97
        0
 75
     2
 76
     1
 98
        0
  0
SPLINE
  5
65
330
5C
100
AcDbEntity
  8
_U+30EC_U+30A4_U+30E4_U+30FC 1
370
     0
100
AcDbSpline
210
0.0
220
0.0
230
1.0
 70
    11
 71
     3
 72
    44
 73
    40
 74
     0
 42
0.0000000001
 43
0.0000000001
 12
1.0
 22
0.0
 32
0.0
 13
1.0
 23
0.0
 33
0.0
 40
0.0
 40
0.0
 40
0.0
 40
0.0
 40
1.0
 40
1.0
 40
1.0
 40
2.0
 40
2.0
 40
2.0
 40
3.0
 40
3.0
 40
3.0
 40
4.0
 40
4.0
 40
4.0
 40
5.0
 40
5.0
 40
5.0
 40
6.0
 40
6.0
 40
6.0
 40
7.0
 40
7.0
 40
7.0
 40
8.0
 40
8.0
 40
8.0
 40
9.0
 40
9.0
 40
9.0
 40
10.0
 40
10.0
 40
10.0
 40
11.0
 40
11.0
 40
11.0
 40
12.0
 40
12.0
 40
12.0
 40
13.0
 40
13.0
 40
13.0
 40
13.0
 10
85.88261309701893
 20
-123.4339816314679
 30
0.0
 10
85.89759926237977
 20
-123.3860948042229
 30
0.0
 10
85.9199923830339
 20
-123.3337293528471
 30
0.0
 10
86.08156736129212
 20
-123.1692260434264
 30
0.0
 10
86.25054929484362
 20
-122.9942151927758
 30
0.0
 10
86.25812850491117
 20
-122.9029201624166
 30
0.0
 10
86.13238251969955
 20
-122.7773464319793
 30
0.0
 10
86.13238251969955
 20
-122.7773464319793
 30
0.0
 10
85.8436835180356
 20
-122.4886474303153
 30
0.0
 10
85.8436835180356
 20
-122.4886474303153
 30
0.0
 10
85.8436835180356
 20
-122.4886474303153
 30
0.0
 10
85.390481206951
 20
-122.9418497414
 30
0.0
 10
85.390481206951
 20
-122.9418497414
 30
0.0
 10
85.390481206951
 20
-122.9418497414
 30
0.0
 10
85.22442760456195
 20
-122.7757961390109
 30
0.0
 10
85.22442760456195
 20
-122.7757961390109
 30
0.0
 10
85.22442760456195
 20
-122.7757961390109
 30
0.0
 10
86.31635061861189
 20
-121.683873124961
 30
0.0
 10
86.31635061861189
 20
-121.683873124961
 30
0.0
 10
86.31635061861189
 20
-121.683873124961
 30
0.0
 10
86.79366859809325
 20
-122.1610188496681
 30
0.0
 10
86.79366859809325
 20
-122.1610188496681
 30
0.0
 10
87.01053735888974
 20
-122.3778876104646
 30
0.0
 10
87.007436772953
 20
-122.6173217466894
 30
0.0
 10
86.82656925997739
 20
-122.798189259665
 30
0.0
 10
86.79056801215653
 20
-122.8341905074859
 30
0.0
 10
86.72631698135662
 20
-122.8865559588617
 30
0.0
 10
86.63795028215996
 20
-122.9118774106783
 30
0.0
 10
86.52288409295262
 20
-122.9434000343683
 30
0.0
 10
86.46293943150927
 20
-122.9104993724842
 30
0.0
 10
86.40764564897101
 20
-122.8789767487941
 30
0.0
 10
86.47499726570764
 20
-123.0062730269741
 30
0.0
 10
86.48843313810012
 20
-123.0884385542973
 30
0.0
 10
86.26863604614118
 20
-123.3142645633555
 30
0.0
 10
86.08001706832376
 20
-123.5087402034978
 30
0.0
 10
86.08311765426048
 20
-123.5566270307428
 30
0.0
 10
86.09207490252213
 20
-123.6434434369711
 30
0.0
 10
86.09207490252213
 20
-123.6434434369711
 30
0.0
 10
85.88261309701893
 20
-123.4339816314679
 30
0.0
 10
85.88261309701893
 20
-123.4339816314679
 30
0.0
  0
SPLINE
  5
66
330
5C
100
AcDbEntity
  8
_U+30EC_U+30A4_U+30E4_U+30FC 1
370
     0
100
AcDbSpline
210
0.0
220
0.0
230
1.0
 70
    11
 71
     3
 72
    20
 73
    16
 74
     0
 42
0.0000000001
 43
0.0000000001
 12
1.0
 22
0.0
 32
0.0
 13
1.0
 23
0.0
 33
0.0
 40
0.0
 40
0.0
 40
0.0
 40
0.0
 40
1.0
 40
1.0
 40
1.0
 40
2.0
 40
2.0
 40
2.0
 40
3.0
 40
3.0
 40
3.0
 40
4.0
 40
4.0
 40
4.0
 40
5.0
 40
5.0
 40
5.0
 40
5.0
 10
86.64707978519587
 20
-122.3136365796646
 30
0.0
 10
86.64707978519587
 20
-122.3136365796646
 30
0.0
 10
86.33288707694109
 20
-121.9994438714099
 30
0.0
 10
86.33288707694109
 20
-121.9994438714099
 30
0.0
 10
86.33288707694109
 20
-121.9994438714099
 30
0.0
 10
85.99337291686972
 20
-122.3389580314812
 30
0.0
 10
85.99337291686972
 20
-122.3389580314812
 30
0.0
 10
85.99337291686972
 20
-122.3389580314812
 30
0.0
 10
86.30601533215614
 20
-122.6516004467677
 30
0.0
 10
86.30601533215614
 20
-122.6516004467677
 30
0.0
 10
86.37629528005523
 20
-122.722052649441
 30
0.0
 10
86.52581242411507
 20
-122.7639105595868
 30
0.0
 10
86.64707978519587
 20
-122.642643198506
 30
0.0
 10
86.70237356773413
 20
-122.5873494159678
 30
0.0
 10
86.78763968099406
 20
-122.4541964754629
 30
0.0
 10
86.64707978519587
 20
-122.3136365796646
 30
0.0
  0
HATCH
  5
67
330
5C
100
AcDbEntity
  8
_U+30EC_U+30A4_U+30E4_U+30FC 1
 62
   179
420
  2234388
100
AcDbHatch
 10
0.0
 20
0.0
 30
0.0
210
0.0
220
0.0
230
1.0
  2
SOLID
 70
     1
 71
     0
 91
        2
 92
        1
 93
        1
 72
     4
 94
        3
 73
     0
 74
     1
 95
       44
 96
       40
 40
0.0
 40
0.0
 40
0.0
 40
0.0
 40
1.0
 40
1.0
 40
1.0
 40
2.0
 40
2.0
 40
2.0
 40
3.0
 40
3.0
 40
3.0
 40
4.0
 40
4.0
 40
4.0
 40
5.0
 40
5.0
 40
5.0
 40
6.0
 40
6.0
 40
6.0
 40
7.0
 40
7.0
 40
7.0
 40
8.0
 40
8.0
 40
8.0
 40
9.0
 40
9.0
 40
9.0
 40
10.0
 40
10.0
 40
10.0
 40
11.0
 40
11.0
 40
11.0
 40
12.0
 40
12.0
 40
12.0
 40
13.0
 40
13.0
 40
13.0
 40
13.0
 10
85.88261309701893
 20
-123.4339816314679
 10
85.89759926237977
 20
-123.3860948042229
 10
85.9199923830339
 20
-123.3337293528471
 10
86.08156736129212
 20
-123.1692260434264
 10
86.25054929484362
 20
-122.9942151927758
 10
86.25812850491117
 20
-122.9029201624166
 10
86.13238251969955
 20
-122.7773464319793
 10
86.13238251969955
 20
-122.7773464319793
 10
85.8436835180356
 20
-122.4886474303153
 10
85.8436835180356
 20
-122.4886474303153
 10
85.8436835180356
 20
-122.4886474303153
 10
85.390481206951
 20
-122.9418497414
 10
85.390481206951
 20
-122.9418497414
 10
85.390481206951
 20
-122.9418497414
 10
85.22442760456195
 20
-122.7757961390109
 10
85.22442760456195
 20
-122.7757961390109
 10
85.22442760456195
 20
-122.7757961390109
 10
86.31635061861189
 20
-121.683873124961
 10
86.31635061861189
 20
-121.683873124961
 10
86.31635061861189
 20
-121.683873124961
 10
86.79366859809325
 20
-122.1610188496681
 10
86.79366859809325
 20
-122.1610188496681
 10
87.01053735888974
 20
-122.3778876104646
 10
87.007436772953
 20
-122.6173217466894
 10
86.82656925997739
 20
-122.798189259665
 10
86.79056801215653
 20
-122.8341905074859
 10
86.72631698135662
 20
-122.8865559588617
 10
86.63795028215996
 20
-122.9118774106783
 10
86.52288409295262
 20
-122.9434000343683
 10
86.46293943150927
 20
-122.9104993724842
 10
86.40764564897101
 20
-122.8789767487941
 10
86.47499726570764
 20
-123.0062730269741
 10
86.48843313810012
 20
-123.0884385542973
 10
86.26863604614118
 20
-123.3142645633555
 10
86.08001706832376
 20
-123.5087402034978
 10
86.08311765426048
 20
-123.5566270307428
 10
86.09207490252213
 20
-123.6434434369711
 10
86.09207490252213
 20
-123.6434434369711
 10
85.88261309701893
 20
-123.4339816314679
 10
85.88261309701893
 20
-123.4339816314679
 97
        0
 97
        0
 92
        1
 93
        1
 72
     4
 94
        3
 73
     0
 74
     1
 95
       20
 96
       16
 40
0.0
 40
0.0
 40
0.0
 40
0.0
 40
1.0
 40
1.0
 40
1.0
 40
2.0
 40
2.0
 40
2.0
 40
3.0
 40
3.0
 40
3.0
 40
4.0
 40
4.0
 40
4.0
 40
5.0
 40
5.0
 40
5.0
 40
5.0
 10
86.64707978519587
 20
-122.3136365796646
 10
86.64707978519587
 20
-122.3136365796646
 10
86.33288707694109
 20
-121.9994438714099
 10
86.33288707694109
 20
-121.9994438714099
 10
86.33288707694109
 20
-121.9994438714099
 10
85.99337291686972
 20
-122.3389580314812
 10
85.99337291686972
 20
-122.3389580314812
 10
85.99337291686972
 20
-122.3389580314812
 10
86.30601533215614
 20
-122.6516004467677
 10
86.30601533215614
 20
-122.6516004467677
 10
86.37629528005523
 20
-122.722052649441
 10
86.52581242411507
 20
-122.7639105595868
 10
86.64707978519587
 20
-122.642643198506
 10
86.70237356773413
 20
-122.5873494159678
 10
86.78763968099406
 20
-122.4541964754629
 10
86.64707978519587
 20
-122.3136365796646
 97
        0
 97
        0
 75
     2
 76
     1
 98
        0
  0
ENDBLK
  5
5F
330
5C
100
AcDbEntity
  8
0
100
AcDbBlockEnd
  0
BLOCK
  5
76
330
74
100
AcDbEntity
  8
0
100
AcDbBlockBegin
  2
block 3
 70
     0
 10
0.0
 20
0.0
 30
0.0
  3
block 3
  1

  0
SPLINE
  5
78
330
74
100
AcDbEntity
  8
_U+30EC_U+30A4_U+30E4_U+30FC 1
370
     0
100
AcDbSpline
210
0.0
220
0.0
230
1.0
 70
    11
 71
     3
 72
    26
 73
    22
 74
     0
 42
0.0000000001
 43
0.0000000001
 12
1.0
 22
0.0
 32
0.0
 13
1.0
 23
0.0
 33
0.0
 40
0.0
 40
0.0
 40
0.0
 40
0.0
 40
1.0
 40
1.0
 40
1.0
 40
2.0
 40
2.0
 40
2.0
 40
3.0
 40
3.0
 40
3.0
 40
4.0
 40
4.0
 40
4.0
 40
5.0
 40
5.0
 40
5.0
 40
6.0
 40
6.0
 40
6.0
 40
7.0
 40
7.0
 40
7.0
 40
7.0
 10
87.35332435967209
 20
-137.5306233380132
 30
0.0
 10
87.35332435967209
 20
-137.5306233380132
 30
0.0
 10
87.35332435967209
 20
-136.4261257254421
 30
0.0
 10
87.35332435967209
 20
-136.4261257254421
 30
0.0
 10
87.35332435967209
 20
-136.4261257254421
 30
0.0
 10
87.02328421218516
 20
-136.4261257254421
 30
0.0
 10
87.02328421218516
 20
-136.4261257254421
 30
0.0
 10
87.02328421218516
 20
-136.4261257254421
 30
0.0
 10
87.02328421218516
 20
-136.2779866195764
 30
0.0
 10
87.02328421218516
 20
-136.2779866195764
 30
0.0
 10
87.35539141696324
 20
-136.2631727089898
 30
0.0
 10
87.40207246078837
 20
-136.100564202086
 30
0.0
 10
87.43170028196153
 20
-135.9861870319757
 30
0.0
 10
87.43170028196153
 20
-135.9861870319757
 30
0.0
 10
87.57760007576185
 20
-135.9861870319757
 30
0.0
 10
87.57760007576185
 20
-135.9861870319757
 30
0.0
 10
87.57760007576185
 20
-135.9861870319757
 30
0.0
 10
87.57760007576185
 20
-137.5306233380132
 30
0.0
 10
87.57760007576185
 20
-137.5306233380132
 30
0.0
 10
87.57760007576185
 20
-137.5306233380132
 30
0.0
 10
87.35332435967209
 20
-137.5306233380132
 30
0.0
 10
87.35332435967209
 20
-137.5306233380132
 30
0.0
  0
HATCH
  5
79
330
74
100
AcDbEntity
  8
_U+30EC_U+30A4_U+30E4_U+30FC 1
 62
   179
420
  2234388
100
AcDbHatch
 10
0.0
 20
0.0
 30
0.0
210
0.0
220
0.0
230
1.0
  2
SOLID
 70
     1
 71
     0
 91
        1
 92
        1
 93
        1
 72
     4
 94
        3
 73
     0
 74
     1
 95
       26
 96
       22
 40
0.0
 40
0.0
 40
0.0
 40
0.0
 40
1.0
 40
1.0
 40
1.0
 40
2.0
 40
2.0
 40
2.0
 40
3.0
 40
3.0
 40
3.0
 40
4.0
 40
4.0
 40
4.0
 40
5.0
 40
5.0
 40
5.0
 40
6.0
 40
6.0
 40
6.0
 40
7.0
 40
7.0
 40
7.0
 40
7.0
 10
87.35332435967209
 20
-137.5306233380132
 10
87.35332435967209
 20
-137.5306233380132
 10
87.35332435967209
 20
-136.4261257254421
 10
87.35332435967209
 20
-136.4261257254421
 10
87.35332435967209
 20
-136.4261257254421
 10
87.02328421218516
 20
-136.4261257254421
 10
87.02328421218516
 20
-136.4261257254421
 10
87.02328421218516
 20
-136.4261257254421
 10
87.02328421218516
 20
-136.2779866195764
 10
87.02328421218516
 20
-136.2779866195764
 10
87.35539141696324
 20
-136.2631727089898
 10
87.40207246078837
 20
-136.100564202086
 10
87.43170028196153
 20
-135.9861870319757
 10
87.43170028196153
 20
-135.9861870319757
 10
87.57760007576185
 20
-135.9861870319757
 10
87.57760007576185
 20
-135.9861870319757
 10
87.57760007576185
 20
-135.9861870319757
 10
87.57760007576185
 20
-137.5306233380132
 10
87.57760007576185
 20
-137.5306233380132
 10
87.57760007576185
 20
-137.5306233380132
 10
87.35332435967209
 20
-137.5306233380132
 10
87.35332435967209
 20
-137.5306233380132
 97
        0
 97
        0
 75
     2
 76
     1
 98
        0
  0
SPLINE
  5
7A
330
74
100
AcDbEntity
  8
_U+30EC_U+30A4_U+30E4_U+30FC 1
370
     0
100
AcDbSpline
210
0.0
220
0.0
230
1.0
 70
    11
 71
     3
 72
    26
 73
    22
 74
     0
 42
0.0000000001
 43
0.0000000001
 12
1.0
 22
0.0
 32
0.0
 13
1.0
 23
0.0
 33
0.0
 40
0.0
 40
0.0
 40
0.0
 40
0.0
 40
1.0
 40
1.0
 40
1.0
 40
2.0
 40
2.0
 40
2.0
 40
3.0
 40
3.0
 40
3.0
 40
4.0
 40
4.0
 40
4.0
 40
5.0
 40
5.0
 40
5.0
 40
6.0
 40
6.0
 40
6.0
 40
7.0
 40
7.0
 40
7.0
 40
7.0
 10
88.49003361503027
 20
-137.5306233380132
 30
0.0
 10
88.49003361503027
 20
-137.5306233380132
 30
0.0
 10
88.25301104564508
 20
-137.5306233380132
 30
0.0
 10
88.25301104564508
 20
-137.5306233380132
 30
0.0
 10
88.27850475223593
 20
-137.2215982729863
 30
0.0
 10
88.47091333508713
 20
-136.7034559120047
 30
0.0
 10
88.8770900927981
 20
-136.19771589477
 30
0.0
 10
88.8770900927981
 20
-136.19771589477
 30
0.0
 10
88.0394151255596
 20
-136.19771589477
 30
0.0
 10
88.0394151255596
 20
-136.19771589477
 30
0.0
 10
88.0394151255596
 20
-136.19771589477
 30
0.0
 10
88.0394151255596
 20
-135.9861870319757
 30
0.0
 10
88.0394151255596
 20
-135.9861870319757
 30
0.0
 10
88.0394151255596
 20
-135.9861870319757
 30
0.0
 10
89.11411266218329
 20
-135.9861870319757
 30
0.0
 10
89.11411266218329
 20
-135.9861870319757
 30
0.0
 10
89.11411266218329
 20
-135.9861870319757
 30
0.0
 10
89.11411266218329
 20
-136.19771589477
 30
0.0
 10
89.11411266218329
 20
-136.19771589477
 30
0.0
 10
88.79044594134406
 20
-136.4874484250795
 30
0.0
 10
88.52379555078572
 20
-137.0800048485425
 30
0.0
 10
88.49003361503027
 20
-137.5306233380132
 30
0.0
  0
HATCH
  5
7B
330
74
100
AcDbEntity
  8
_U+30EC_U+30A4_U+30E4_U+30FC 1
 62
   179
420
  2234388
100
AcDbHatch
 10
0.0
 20
0.0
 30
0.0
210
0.0
220
0.0
230
1.0
  2
SOLID
 70
     1
 71
     0
 91
        1
 92
        1
 93
        1
 72
     4
 94
        3
 73
     0
 74
     1
 95
       26
 96
       22
 40
0.0
 40
0.0
 40
0.0
 40
0.0
 40
1.0
 40
1.0
 40
1.0
 40
2.0
 40
2.0
 40
2.0
 40
3.0
 40
3.0
 40
3.0
 40
4.0
 40
4.0
 40
4.0
 40
5.0
 40
5.0
 40
5.0
 40
6.0
 40
6.0
 40
6.0
 40
7.0
 40
7.0
 40
7.0
 40
7.0
 10
88.49003361503027
 20
-137.5306233380132
 10
88.49003361503027
 20
-137.5306233380132
 10
88.25301104564508
 20
-137.5306233380132
 10
88.25301104564508
 20
-137.5306233380132
 10
88.27850475223593
 20
-137.2215982729863
 10
88.47091333508713
 20
-136.7034559120047
 10
88.8770900927981
 20
-136.19771589477
 10
88.8770900927981
 20
-136.19771589477
 10
88.0394151255596
 20
-136.19771589477
 10
88.0394151255596
 20
-136.19771589477
 10
88.0394151255596
 20
-136.19771589477
 10
88.0394151255596
 20
-135.9861870319757
 10
88.0394151255596
 20
-135.9861870319757
 10
88.0394151255596
 20
-135.9861870319757
 10
89.11411266218329
 20
-135.9861870319757
 10
89.11411266218329
 20
-135.9861870319757
 10
89.11411266218329
 20
-135.9861870319757
 10
89.11411266218329
 20
-136.19771589477
 10
89.11411266218329
 20
-136.19771589477
 10
88.79044594134406
 20
-136.4874484250795
 10
88.52379555078572
 20
-137.0800048485425
 10
88.49003361503027
 20
-137.5306233380132
 97
        0
 97
        0
 75
     2
 76
     1
 98
        0
  0
ENDBLK
  5
77
330
74
100
AcDbEntity
  8
0
100
AcDbBlockEnd
  0
BLOCK
  5
8D
330
8B
100
AcDbEntity
  8
0
100
AcDbBlockBegin
  2
block 4
 70
     0
 10
0.0
 20
0.0
 30
0.0
  3
block 4
  1

  0
SPLINE
  5
8F
330
8B
100
AcDbEntity
  8
_U+30EC_U+30A4_U+30E4_U+30FC 1
370
     0
100
AcDbSpline
210
0.0
220
0.0
230
1.0
 70
    11
 71
     3
 72
    26
 73
    22
 74
     0
 42
0.0000000001
 43
0.0000000001
 12
1.0
 22
0.0
 32
0.0
 13
1.0
 23
0.0
 33
0.0
 40
0.0
 40
0.0
 40
0.0
 40
0.0
 40
1.0
 40
1.0
 40
1.0
 40
2.0
 40
2.0
 40
2.0
 40
3.0
 40
3.0
 40
3.0
 40
4.0
 40
4.0
 40
4.0
 40
5.0
 40
5.0
 40
5.0
 40
6.0
 40
6.0
 40
6.0
 40
7.0
 40
7.0
 40
7.0
 40
7.0
 10
100.1186089159426
 20
-126.0405408756079
 30
0.0
 10
100.1186089159426
 20
-126.0405408756079
 30
0.0
 10
99.01411130337148
 20
-126.0405408756079
 30
0.0
 10
99.01411130337148
 20
-126.0405408756079
 30
0.0
 10
99.01411130337148
 20
-126.0405408756079
 30
0.0
 10
99.01411130337148
 20
-126.3705810230949
 30
0.0
 10
99.01411130337148
 20
-126.3705810230949
 30
0.0
 10
99.01411130337148
 20
-126.3705810230949
 30
0.0
 10
98.86597219750573
 20
-126.3705810230949
 30
0.0
 10
98.86597219750573
 20
-126.3705810230949
 30
0.0
 10
98.85115828691916
 20
-126.0384738183168
 30
0.0
 10
98.68854978001536
 20
-125.9919650292659
 30
0.0
 10
98.57417260990508
 20
-125.9623372080927
 30
0.0
 10
98.57417260990508
 20
-125.9623372080927
 30
0.0
 10
98.57417260990508
 20
-125.8162651595182
 30
0.0
 10
98.57417260990508
 20
-125.8162651595182
 30
0.0
 10
98.57417260990508
 20
-125.8162651595182
 30
0.0
 10
100.1186089159426
 20
-125.8162651595182
 30
0.0
 10
100.1186089159426
 20
-125.8162651595182
 30
0.0
 10
100.1186089159426
 20
-125.8162651595182
 30
0.0
 10
100.1186089159426
 20
-126.0405408756079
 30
0.0
 10
100.1186089159426
 20
-126.0405408756079
 30
0.0
  0
HATCH
  5
90
330
8B
100
AcDbEntity
  8
_U+30EC_U+30A4_U+30E4_U+30FC 1
 62
   179
420
  2234388
100
AcDbHatch
 10
0.0
 20
0.0
 30
0.0
210
0.0
220
0.0
230
1.0
  2
SOLID
 70
     1
 71
     0
 91
        1
 92
        1
 93
        1
 72
     4
 94
        3
 73
     0
 74
     1
 95
       26
 96
       22
 40
0.0
 40
0.0
 40
0.0
 40
0.0
 40
1.0
 40
1.0
 40
1.0
 40
2.0
 40
2.0
 40
2.0
 40
3.0
 40
3.0
 40
3.0
 40
4.0
 40
4.0
 40
4.0
 40
5.0
 40
5.0
 40
5.0
 40
6.0
 40
6.0
 40
6.0
 40
7.0
 40
7.0
 40
7.0
 40
7.0
 10
100.1186089159426
 20
-126.0405408756079
 10
100.1186089159426
 20
-126.0405408756079
 10
99.01411130337148
 20
-126.0405408756079
 10
99.01411130337148
 20
-126.0405408756079
 10
99.01411130337148
 20
-126.0405408756079
 10
99.01411130337148
 20
-126.3705810230949
 10
99.01411130337148
 20
-126.3705810230949
 10
99.01411130337148
 20
-126.3705810230949
 10
98.86597219750573
 20
-126.3705810230949
 10
98.86597219750573
 20
-126.3705810230949
 10
98.85115828691916
 20
-126.0384738183168
 10
98.68854978001536
 20
-125.9919650292659
 10
98.57417260990508
 20
-125.9623372080927
 10
98.57417260990508
 20
-125.9623372080927
 10
98.57417260990508
 20
-125.8162651595182
 10
98.57417260990508
 20
-125.8162651595182
 10
98.57417260990508
 20
-125.8162651595182
 10
100.1186089159426
 20
-125.8162651595182
 10
100.1186089159426
 20
-125.8162651595182
 10
100.1186089159426
 20
-125.8162651595182
 10
100.1186089159426
 20
-126.0405408756079
 10
100.1186089159426
 20
-126.0405408756079
 97
        0
 97
        0
 75
     2
 76
     1
 98
        0
  0
SPLINE
  5
91
330
8B
100
AcDbEntity
  8
_U+30EC_U+30A4_U+30E4_U+30FC 1
370
     0
100
AcDbSpline
210
0.0
220
0.0
230
1.0
 70
    11
 71
     3
 72
    26
 73
    22
 74
     0
 42
0.0000000001
 43
0.0000000001
 12
1.0
 22
0.0
 32
0.0
 13
1.0
 23
0.0
 33
0.0
 40
0.0
 40
0.0
 40
0.0
 40
0.0
 40
1.0
 40
1.0
 40
1.0
 40
2.0
 40
2.0
 40
2.0
 40
3.0
 40
3.0
 40
3.0
 40
4.0
 40
4.0
 40
4.0
 40
5.0
 40
5.0
 40
5.0
 40
6.0
 40
6.0
 40
6.0
 40
7.0
 40
7.0
 40
7.0
 40
7.0
 10
100.1186089159426
 20
-124.9038316202497
 30
0.0
 10
100.1186089159426
 20
-124.9038316202497
 30
0.0
 10
100.1186089159426
 20
-125.1408541896349
 30
0.0
 10
100.1186089159426
 20
-125.1408541896349
 30
0.0
 10
99.80958385091566
 20
-125.1153604830441
 30
0.0
 10
99.29144148993409
 20
-124.9229519001929
 30
0.0
 10
98.78570147269942
 20
-124.5167751424819
 30
0.0
 10
98.78570147269942
 20
-124.5167751424819
 30
0.0
 10
98.78570147269942
 20
-125.3544501097204
 30
0.0
 10
98.78570147269942
 20
-125.3544501097204
 30
0.0
 10
98.78570147269942
 20
-125.3544501097204
 30
0.0
 10
98.57417260990508
 20
-125.3544501097204
 30
0.0
 10
98.57417260990508
 20
-125.3544501097204
 30
0.0
 10
98.57417260990508
 20
-125.3544501097204
 30
0.0
 10
98.57417260990508
 20
-124.2797525730967
 30
0.0
 10
98.57417260990508
 20
-124.2797525730967
 30
0.0
 10
98.57417260990508
 20
-124.2797525730967
 30
0.0
 10
98.78570147269942
 20
-124.2797525730967
 30
0.0
 10
98.78570147269942
 20
-124.2797525730967
 30
0.0
 10
99.07543400300892
 20
-124.603419293936
 30
0.0
 10
99.6679904264719
 20
-124.8700696844943
 30
0.0
 10
100.1186089159426
 20
-124.9038316202497
 30
0.0
  0
HATCH
  5
92
330
8B
100
AcDbEntity
  8
_U+30EC_U+30A4_U+30E4_U+30FC 1
 62
   179
420
  2234388
100
AcDbHatch
 10
0.0
 20
0.0
 30
0.0
210
0.0
220
0.0
230
1.0
  2
SOLID
 70
     1
 71
     0
 91
        1
 92
        1
 93
        1
 72
     4
 94
        3
 73
     0
 74
     1
 95
       26
 96
       22
 40
0.0
 40
0.0
 40
0.0
 40
0.0
 40
1.0
 40
1.0
 40
1.0
 40
2.0
 40
2.0
 40
2.0
 40
3.0
 40
3.0
 40
3.0
 40
4.0
 40
4.0
 40
4.0
 40
5.0
 40
5.0
 40
5.0
 40
6.0
 40
6.0
 40
6.0
 40
7.0
 40
7.0
 40
7.0
 40
7.0
 10
100.1186089159426
 20
-124.9038316202497
 10
100.1186089159426
 20
-124.9038316202497
 10
100.1186089159426
 20
-125.1408541896349
 10
100.1186089159426
 20
-125.1408541896349
 10
99.80958385091566
 20
-125.1153604830441
 10
99.29144148993409
 20
-124.9229519001929
 10
98.78570147269942
 20
-124.5167751424819
 10
98.78570147269942
 20
-124.5167751424819
 10
98.78570147269942
 20
-125.3544501097204
 10
98.78570147269942
 20
-125.3544501097204
 10
98.78570147269942
 20
-125.3544501097204
 10
98.57417260990508
 20
-125.3544501097204
 10
98.57417260990508
 20
-125.3544501097204
 10
98.57417260990508
 20
-125.3544501097204
 10
98.57417260990508
 20
-124.2797525730967
 10
98.57417260990508
 20
-124.2797525730967
 10
98.57417260990508
 20
-124.2797525730967
 10
98.78570147269942
 20
-124.2797525730967
 10
98.78570147269942
 20
-124.2797525730967
 10
99.07543400300892
 20
-124.603419293936
 10
99.6679904264719
 20
-124.8700696844943
 10
100.1186089159426
 20
-124.9038316202497
 97
        0
 97
        0
 75
     2
 76
     1
 98
        0
  0
ENDBLK
  5
8E
330
8B
100
AcDbEntity
  8
0
100
AcDbBlockEnd
  0
ENDSEC
  0
SECTION
  2
ENTITIES
  0
SPLINE
  5
41
330
1F
100
AcDbEntity
  8
_U+30EC_U+30A4_U+30E4_U+30FC 1
370
     0
100
AcDbSpline
210
0.0
220
0.0
230
1.0
 70
    11
 71
     3
 72
    14
 73
    10
 74
     0
 42
0.0000000001
 43
0.0000000001
 12
1.0
 22
0.0
 32
0.0
 13
1.0
 23
0.0
 33
0.0
 40
0.0
 40
0.0
 40
0.0
 40
0.0
 40
1.0
 40
1.0
 40
1.0
 40
2.0
 40
2.0
 40
2.0
 40
3.0
 40
3.0
 40
3.0
 40
3.0
 10
80.16874997995781
 20
-133.8364452443186
 30
0.0
 10
80.16874997995781
 20
-133.8364452443186
 30
0.0
 10
96.5260653151927
 20
-133.9032966331909
 30
0.0
 10
96.5260653151927
 20
-133.9032966331909
 30
0.0
 10
96.5260653151927
 20
-133.9032966331909
 30
0.0
 10
96.39652775367865
 20
-117.4322785817529
 30
0.0
 10
96.39652775367865
 20
-117.4322785817529
 30
0.0
 10
96.39652775367865
 20
-117.4322785817529
 30
0.0
 10
94.63263886523073
 20
-131.2788063560691
 30
0.0
 10
80.16874997995781
 20
-133.8364452443186
 30
0.0
  0
HATCH
  5
42
330
1F
100
AcDbEntity
  8
_U+30EC_U+30A4_U+30E4_U+30FC 1
 62
   178
420
        0
100
AcDbHatch
 10
0.0
 20
0.0
 30
0.0
210
0.0
220
0.0
230
1.0
  2
AI_USER_DEFINED_HATCH
 70
     0
 71
     0
 91
        1
 92
        1
 93
        1
 72
     4
 94
        3
 73
     0
 74
     1
 95
       14
 96
       10
 40
0.0
 40
0.0
 40
0.0
 40
0.0
 40
1.0
 40
1.0
 40
1.0
 40
2.0
 40
2.0
 40
2.0
 40
3.0
 40
3.0
 40
3.0
 40
3.0
 10
80.16874997995781
 20
-133.8364452443186
 10
80.16874997995781
 20
-133.8364452443186
 10
96.5260653151927
 20
-133.9032966331909
 10
96.5260653151927
 20
-133.9032966331909
 10
96.5260653151927
 20
-133.9032966331909
 10
96.39652775367865
 20
-117.4322785817529
 10
96.39652775367865
 20
-117.4322785817529
 10
96.39652775367865
 20
-117.4322785817529
 10
94.63263886523073
 20
-131.2788063560691
 10
80.16874997995781
 20
-133.8364452443186
 97
        0
 97
        0
 75
     2
 76
     0
 52
45.0
 41
10.0
 77
     0
 78
     1
 53
45.0
 43
0.0
 44
0.0
 45
-7.071067811865475
 46
7.071067811865476
 79
     0
 98
        0
  0
POLYLINE
  5
43
330
1F
100
AcDbEntity
  8
_U+30EC_U+30A4_U+30E4_U+30FC 1
 62
   179
420
  2234388
370
    25
100
AcDb2dPolyline
 66
     1
 10
0.0
 20
0.0
 30
0.0
  0
VERTEX
  5
44
330
43
100
AcDbEntity
  8
_U+30EC_U+30A4_U+30E4_U+30FC 1
 62
   179
420
  2234388
370
    25
100
AcDbVertex
100
AcDb2dVertex
 10
96.49092864942243
 20
-116.9031119152186
 30
0.0
  0
VERTEX
  5
45
330
43
100
AcDbEntity
  8
_U+30EC_U+30A4_U+30E4_U+30FC 1
 62
   179
420
  2234388
370
    25
100
AcDbVertex
100
AcDb2dVertex
 10
96.49092864942243
 20
-133.9032966331909
 30
0.0
  0
SEQEND
  5
46
330
43
100
AcDbEntity
  8
_U+30EC_U+30A4_U+30E4_U+30FC 1
 62
   179
420
  2234388
370
    25
  0
POLYLINE
  5
47
330
1F
100
AcDbEntity
  8
_U+30EC_U+30A4_U+30E4_U+30FC 1
 62
   179
420
  2234388
370
    25
100
AcDb2dPolyline
 66
     1
 10
0.0
 20
0.0
 30
0.0
  0
VERTEX
  5
48
330
47
100
AcDbEntity
  8
_U+30EC_U+30A4_U+30E4_U+30FC 1
 62
   179
420
  2234388
370
    25
100
AcDbVertex
100
AcDb2dVertex
 10
79.49074436091105
 20
-133.9032966331909
 30
0.0
  0
VERTEX
  5
49
330
47
100
AcDbEntity
  8
_U+30EC_U+30A4_U+30E4_U+30FC 1
 62
   179
420
  2234388
370
    25
100
AcDbVertex
100
AcDb2dVertex
 10
96.49092864942243
 20
-133.9032966331909
 30
0.0
  0
SEQEND
  5
4A
330
47
100
AcDbEntity
  8
_U+30EC_U+30A4_U+30E4_U+30FC 1
 62
   179
420
  2234388
370
    25
  0
POLYLINE
  5
4B
330
1F
100
AcDbEntity
  8
_U+30EC_U+30A4_U+30E4_U+30FC 1
 62
   179
420
  2234388
370
     9
100
AcDb2dPolyline
 66
     1
 10
0.0
 20
0.0
 30
0.0
  0
VERTEX
  5
4C
330
4B
100
AcDbEntity
  8
_U+30EC_U+30A4_U+30E4_U+30FC 1
 62
   179
420
  2234388
370
     9
100
AcDbVertex
100
AcDb2dVertex
 10
87.2945766618187
 20
-124.7069444132677
 30
0.0
  0
VERTEX
  5
4D
330
4B
100
AcDbEntity
  8
_U+30EC_U+30A4_U+30E4_U+30FC 1
 62
   179
420
  2234388
370
     9
100
AcDbVertex
100
AcDb2dVertex
 10
90.83029184939286
 20
-128.2426596901616
 30
0.0
  0
SEQEND
  5
4E
330
4B
100
AcDbEntity
  8
_U+30EC_U+30A4_U+30E4_U+30FC 1
 62
   179
420
  2234388
370
     9
  0
POLYLINE
  5
4F
330
1F
100
AcDbEntity
  8
_U+30EC_U+30A4_U+30E4_U+30FC 1
 62
   179
420
  2234388
370
     9
100
AcDb2dPolyline
 66
     1
 10
0.0
 20
0.0
 30
0.0
  0
VERTEX
  5
50
330
4F
100
AcDbEntity
  8
_U+30EC_U+30A4_U+30E4_U+30FC 1
 62
   179
420
  2234388
370
     9
100
AcDbVertex
100
AcDb2dVertex
 10
89.96453992703559
 20
-127.7427735791753
 30
0.0
  0
VERTEX
  5
51
330
4F
100
AcDbEntity
  8
_U+30EC_U+30A4_U+30E4_U+30FC 1
 62
   179
420
  2234388
370
     9
100
AcDbVertex
100
AcDb2dVertex
 10
90.83029184939286
 20
-128.2426596901616
 30
0.0
  0
SEQEND
  5
52
330
4F
100
AcDbEntity
  8
_U+30EC_U+30A4_U+30E4_U+30FC 1
 62
   179
420
  2234388
370
     9
  0
POLYLINE
  5
53
330
1F
100
AcDbEntity
  8
_U+30EC_U+30A4_U+30E4_U+30FC 1
 62
   179
420
  2234388
370
     9
100
AcDb2dPolyline
 66
     1
 10
0.0
 20
0.0
 30
0.0
  0
VERTEX
  5
54
330
53
100
AcDbEntity
  8
_U+30EC_U+30A4_U+30E4_U+30FC 1
 62
   179
420
  2234388
370
     9
100
AcDbVertex
100
AcDb2dVertex
 10
90.33040575103492
 20
-127.3765549681558
 30
0.0
  0
VERTEX
  5
55
330
53
100
AcDbEntity
  8
_U+30EC_U+30A4_U+30E4_U+30FC 1
 62
   179
420
  2234388
370
     9
100
AcDbVertex
100
AcDb2dVertex
 10
90.83029184939286
 20
-128.2426596901616
 30
0.0
  0
SEQEND
  5
56
330
53
100
AcDbEntity
  8
_U+30EC_U+30A4_U+30E4_U+30FC 1
 62
   179
420
  2234388
370
     9
  0
SPLINE
  5
57
330
1F
100
AcDbEntity
  8
_U+30EC_U+30A4_U+30E4_U+30FC 1
 62
   179
420
  2234388
370
    25
100
AcDbSpline
210
0.0
220
0.0
230
1.0
 70
     8
 71
     3
 72
     8
 73
     4
 74
     0
 42
0.0000000001
 43
0.0000000001
 12
1.0
 22
0.0
 32
0.0
 13
1.0
 23
0.0
 33
0.0
 40
0.0
 40
0.0
 40
0.0
 40
0.0
 40
1.0
 40
1.0
 40
1.0
 40
1.0
 10
79.49074436091105
 20
-133.9032966331909
 30
0.0
 10
88.31124691365906
 20
-132.6547808001697
 30
0.0
 10
95.2424128479414
 20
-125.7232619130137
 30
0.0
 10
96.49092864942243
 20
-116.9031119152186
 30
0.0
  0
SPLINE
  5
58
330
1F
100
AcDbEntity
  8
_U+30EC_U+30A4_U+30E4_U+30FC 1
 62
   179
420
  2234388
370
     9
100
AcDbSpline
210
0.0
220
0.0
230
1.0
 70
    11
 71
     3
 72
    17
 73
    13
 74
     0
 42
0.0000000001
 43
0.0000000001
 12
1.0
 22
0.0
 32
0.0
 13
1.0
 23
0.0
 33
0.0
 40
0.0
 40
0.0
 40
0.0
 40
0.0
 40
1.0
 40
1.0
 40
1.0
 40
2.0
 40
2.0
 40
2.0
 40
3.0
 40
3.0
 40
3.0
 40
4.0
 40
4.0
 40
4.0
 40
4.0
 10
79.59065102502888
 20
-137.9030557988578
 30
0.0
 10
79.59065102502888
 20
-137.8479166322047
 30
0.0
 10
79.545883526171
 20
-137.803113854438
 30
0.0
 10
79.49074436091105
 20
-137.803113854438
 30
0.0
 10
79.43564047342798
 20
-137.803113854438
 30
0.0
 10
79.39083769679321
 20
-137.8479166322047
 30
0.0
 10
79.39083769679321
 20
-137.9030557988578
 30
0.0
 10
79.39083769679321
 20
-137.9585124655104
 30
0.0
 10
79.43564047342798
 20
-138.003279965499
 30
0.0
 10
79.49074436091105
 20
-138.003279965499
 30
0.0
 10
79.545883526171
 20
-138.003279965499
 30
0.0
 10
79.59065102502888
 20
-137.9585124655104
 30
0.0
 10
79.59065102502888
 20
-137.9030557988578
 30
0.0
  0
SPLINE
  5
59
330
1F
100
AcDbEntity
  8
_U+30EC_U+30A4_U+30E4_U+30FC 1
 62
   179
420
  2234388
370
     9
100
AcDbSpline
210
0.0
220
0.0
230
1.0
 70
    11
 71
     3
 72
    17
 73
    13
 74
     0
 42
0.0000000001
 43
0.0000000001
 12
1.0
 22
0.0
 32
0.0
 13
1.0
 23
0.0
 33
0.0
 40
0.0
 40
0.0
 40
0.0
 40
0.0
 40
1.0
 40
1.0
 40
1.0
 40
2.0
 40
2.0
 40
2.0
 40
3.0
 40
3.0
 40
3.0
 40
4.0
 40
4.0
 40
4.0
 40
4.0
 10
96.59083531354027
 20
-137.9030557988578
 30
0.0
 10
96.59083531354027
 20
-137.8479166322047
 30
0.0
 10
96.54603253690551
 20
-137.803113854438
 30
0.0
 10
96.49092864942243
 20
-137.803113854438
 30
0.0
 10
96.43578948416248
 20
-137.803113854438
 30
0.0
 10
96.3910219853046
 20
-137.8479166322047
 30
0.0
 10
96.3910219853046
 20
-137.9030557988578
 30
0.0
 10
96.3910219853046
 20
-137.9585124655104
 30
0.0
 10
96.43578948416248
 20
-138.003279965499
 30
0.0
 10
96.49092864942243
 20
-138.003279965499
 30
0.0
 10
96.54603253690551
 20
-138.003279965499
 30
0.0
 10
96.59083531354027
 20
-137.9585124655104
 30
0.0
 10
96.59083531354027
 20
-137.9030557988578
 30
0.0
  0
SPLINE
  5
5A
330
1F
100
AcDbEntity
  8
_U+30EC_U+30A4_U+30E4_U+30FC 1
 62
   179
420
  2234388
370
     9
100
AcDbSpline
210
0.0
220
0.0
230
1.0
 70
    11
 71
     3
 72
    17
 73
    13
 74
     0
 42
0.0000000001
 43
0.0000000001
 12
1.0
 22
0.0
 32
0.0
 13
1.0
 23
0.0
 33
0.0
 40
0.0
 40
0.0
 40
0.0
 40
0.0
 40
1.0
 40
1.0
 40
1.0
 40
2.0
 40
2.0
 40
2.0
 40
3.0
 40
3.0
 40
3.0
 40
4.0
 40
4.0
 40
4.0
 40
4.0
 10
100.5909118781565
 20
-133.9032966331909
 30
0.0
 10
100.5909118781565
 20
-133.84780468876
 30
0.0
 10
100.5461443792986
 20
-133.8030371887715
 30
0.0
 10
100.4906877140467
 20
-133.8030371887715
 30
0.0
 10
100.4355485487868
 20
-133.8030371887715
 30
0.0
 10
100.3907810499289
 20
-133.84780468876
 30
0.0
 10
100.3907810499289
 20
-133.9032966331909
 30
0.0
 10
100.3907810499289
 20
-133.9584005220658
 30
0.0
 10
100.4355485487868
 20
-134.0032032998325
 30
0.0
 10
100.4906877140467
 20
-134.0032032998325
 30
0.0
 10
100.5461443792986
 20
-134.0032032998325
 30
0.0
 10
100.5909118781565
 20
-133.9584005220658
 30
0.0
 10
100.5909118781565
 20
-133.9032966331909
 30
0.0
  0
SPLINE
  5
5B
330
1F
100
AcDbEntity
  8
_U+30EC_U+30A4_U+30E4_U+30FC 1
 62
   179
420
  2234388
370
     9
100
AcDbSpline
210
0.0
220
0.0
230
1.0
 70
    11
 71
     3
 72
    17
 73
    13
 74
     0
 42
0.0000000001
 43
0.0000000001
 12
1.0
 22
0.0
 32
0.0
 13
1.0
 23
0.0
 33
0.0
 40
0.0
 40
0.0
 40
0.0
 40
0.0
 40
1.0
 40
1.0
 40
1.0
 40
2.0
 40
2.0
 40
2.0
 40
3.0
 40
3.0
 40
3.0
 40
4.0
 40
4.0
 40
4.0
 40
4.0
 10
100.5909118781565
 20
-116.9031119152186
 30
0.0
 10
100.5909118781565
 20
-116.8480080263436
 30
0.0
 10
100.5461443792986
 20
-116.8032052485769
 30
0.0
 10
100.4906877140467
 20
-116.8032052485769
 30
0.0
 10
100.4355485487868
 20
-116.8032052485769
 30
0.0
 10
100.3907810499289
 20
-116.8480080263436
 30
0.0
 10
100.3907810499289
 20
-116.9031119152186
 30
0.0
 10
100.3907810499289
 20
-116.9582510818717
 30
0.0
 10
100.4355485487868
 20
-117.0030185818602
 30
0.0
 10
100.4906877140467
 20
-117.0030185818602
 30
0.0
 10
100.5461443792986
 20
-117.0030185818602
 30
0.0
 10
100.5909118781565
 20
-116.9582510818717
 30
0.0
 10
100.5909118781565
 20
-116.9031119152186
 30
0.0
  0
INSERT
  5
5D
330
1F
100
AcDbEntity
  8
_U+30EC_U+30A4_U+30E4_U+30FC 1
100
AcDbBlockReference
  2
block 2
 10
0.0
 20
0.0
 30
0.0
  0
POLYLINE
  5
68
330
1F
100
AcDbEntity
  8
_U+30EC_U+30A4_U+30E4_U+30FC 1
 62
   179
420
  2234388
370
     9
100
AcDb2dPolyline
 66
     1
 10
0.0
 20
0.0
 30
0.0
  0
VERTEX
  5
69
330
68
100
AcDbEntity
  8
_U+30EC_U+30A4_U+30E4_U+30FC 1
 62
   179
420
  2234388
370
     9
100
AcDbVertex
100
AcDb2dVertex
 10
79.49074436091105
 20
-137.9030557988578
 30
0.0
  0
VERTEX
  5
6A
330
68
100
AcDbEntity
  8
_U+30EC_U+30A4_U+30E4_U+30FC 1
 62
   179
420
  2234388
370
     9
100
AcDbVertex
100
AcDb2dVertex
 10
96.49092864942243
 20
-137.9030557988578
 30
0.0
  0
SEQEND
  5
6B
330
68
100
AcDbEntity
  8
_U+30EC_U+30A4_U+30E4_U+30FC 1
 62
   179
420
  2234388
370
     9
  0
POLYLINE
  5
6C
330
1F
100
AcDbEntity
  8
_U+30EC_U+30A4_U+30E4_U+30FC 1
 62
   179
420
  2234388
370
     9
100
AcDb2dPolyline
 66
     1
 10
0.0
 20
0.0
 30
0.0
  0
VERTEX
  5
6D
330
6C
100
AcDbEntity
  8
_U+30EC_U+30A4_U+30E4_U+30FC 1
 62
   179
420
  2234388
370
     9
100
AcDbVertex
100
AcDb2dVertex
 10
79.49074436091105
 20
-136.4430144103334
 30
0.0
  0
VERTEX
  5
6E
330
6C
100
AcDbEntity
  8
_U+30EC_U+30A4_U+30E4_U+30FC 1
 62
   179
420
  2234388
370
     9
100
AcDbVertex
100
AcDb2dVertex
 10
79.49074436091105
 20
-138.9031455208299
 30
0.0
  0
SEQEND
  5
6F
330
6C
100
AcDbEntity
  8
_U+30EC_U+30A4_U+30E4_U+30FC 1
 62
   179
420
  2234388
370
     9
  0
POLYLINE
  5
70
330
1F
100
AcDbEntity
  8
_U+30EC_U+30A4_U+30E4_U+30FC 1
 62
   179
420
  2234388
370
     9
100
AcDb2dPolyline
 66
     1
 10
0.0
 20
0.0
 30
0.0
  0
VERTEX
  5
71
330
70
100
AcDbEntity
  8
_U+30EC_U+30A4_U+30E4_U+30FC 1
 62
   179
420
  2234388
370
     9
100
AcDbVertex
100
AcDb2dVertex
 10
96.49092864942243
 20
-136.4430144103334
 30
0.0
  0
VERTEX
  5
72
330
70
100
AcDbEntity
  8
_U+30EC_U+30A4_U+30E4_U+30FC 1
 62
   179
420
  2234388
370
     9
100
AcDbVertex
100
AcDb2dVertex
 10
96.49092864942243
 20
-138.9031455208299
 30
0.0
  0
SEQEND
  5
73
330
70
100
AcDbEntity
  8
_U+30EC_U+30A4_U+30E4_U+30FC 1
 62
   179
420
  2234388
370
     9
  0
INSERT
  5
75
330
1F
100
AcDbEntity
  8
_U+30EC_U+30A4_U+30E4_U+30FC 1
100
AcDbBlockReference
  2
block 3
 10
0.0
 20
0.0
 30
0.0
  0
SPLINE
  5
7C
330
1F
100
AcDbEntity
  8
_U+30EC_U+30A4_U+30E4_U+30FC 1
 62
   179
420
  2234388
370
    25
100
AcDbSpline
210
0.0
220
0.0
230
1.0
 70
    11
 71
     3
 72
    17
 73
    13
 74
     0
 42
0.0000000001
 43
0.0000000001
 12
1.0
 22
0.0
 32
0.0
 13
1.0
 23
0.0
 33
0.0
 40
0.0
 40
0.0
 40
0.0
 40
0.0
 40
1.0
 40
1.0
 40
1.0
 40
2.0
 40
2.0
 40
2.0
 40
3.0
 40
3.0
 40
3.0
 40
4.0
 40
4.0
 40
4.0
 40
4.0
 10
79.52623380445009
 20
-133.9032966331909
 30
0.0
 10
79.52623380445009
 20
-133.9225582998526
 30
0.0
 10
79.51039408263196
 20
-133.9384332998486
 30
0.0
 10
79.49074436091105
 20
-133.9384332998486
 30
0.0
 10
79.47144741695891
 20
-133.9384332998486
 30
0.0
 10
79.4556076951408
 20
-133.9225582998526
 30
0.0
 10
79.4556076951408
 20
-133.9032966331909
 30
0.0
 10
79.4556076951408
 20
-133.8836469109733
 30
0.0
 10
79.47144741695891
 20
-133.8678071887554
 30
0.0
 10
79.49074436091105
 20
-133.8678071887554
 30
0.0
 10
79.51039408263196
 20
-133.8678071887554
 30
0.0
 10
79.52623380445009
 20
-133.8836469109733
 30
0.0
 10
79.52623380445009
 20
-133.9032966331909
 30
0.0
  0
SPLINE
  5
7D
330
1F
100
AcDbEntity
  8
_U+30EC_U+30A4_U+30E4_U+30FC 1
 62
   179
420
  2234388
370
    25
100
AcDbSpline
210
0.0
220
0.0
230
1.0
 70
    11
 71
     3
 72
    17
 73
    13
 74
     0
 42
0.0000000001
 43
0.0000000001
 12
1.0
 22
0.0
 32
0.0
 13
1.0
 23
0.0
 33
0.0
 40
0.0
 40
0.0
 40
0.0
 40
0.0
 40
1.0
 40
1.0
 40
1.0
 40
2.0
 40
2.0
 40
2.0
 40
3.0
 40
3.0
 40
3.0
 40
4.0
 40
4.0
 40
4.0
 40
4.0
 10
96.5260653151927
 20
-133.9032966331909
 30
0.0
 10
96.5260653151927
 20
-133.9225582998526
 30
0.0
 10
96.51022559337457
 20
-133.9384332998486
 30
0.0
 10
96.49092864942243
 20
-133.9384332998486
 30
0.0
 10
96.4716317054703
 20
-133.9384332998486
 30
0.0
 10
96.45579442033038
 20
-133.9225582998526
 30
0.0
 10
96.45579442033038
 20
-133.9032966331909
 30
0.0
 10
96.45579442033038
 20
-133.8836469109733
 30
0.0
 10
96.4716317054703
 20
-133.8678071887554
 30
0.0
 10
96.49092864942243
 20
-133.8678071887554
 30
0.0
 10
96.51022559337457
 20
-133.8678071887554
 30
0.0
 10
96.5260653151927
 20
-133.8836469109733
 30
0.0
 10
96.5260653151927
 20
-133.9032966331909
 30
0.0
  0
SPLINE
  5
7E
330
1F
100
AcDbEntity
  8
_U+30EC_U+30A4_U+30E4_U+30FC 1
 62
   179
420
  2234388
370
     9
100
AcDbSpline
210
0.0
220
0.0
230
1.0
 70
    11
 71
     3
 72
    17
 73
    13
 74
     0
 42
0.0000000001
 43
0.0000000001
 12
1.0
 22
0.0
 32
0.0
 13
1.0
 23
0.0
 33
0.0
 40
0.0
 40
0.0
 40
0.0
 40
0.0
 40
1.0
 40
1.0
 40
1.0
 40
2.0
 40
2.0
 40
2.0
 40
3.0
 40
3.0
 40
3.0
 40
4.0
 40
4.0
 40
4.0
 40
4.0
 10
96.5260653151927
 20
-137.9030557988578
 30
0.0
 10
96.5260653151927
 20
-137.9226702432972
 30
0.0
 10
96.51022559337457
 20
-137.9385099655151
 30
0.0
 10
96.49092864942243
 20
-137.9385099655151
 30
0.0
 10
96.4716317054703
 20
-137.9385099655151
 30
0.0
 10
96.45579442033038
 20
-137.9226702432972
 30
0.0
 10
96.45579442033038
 20
-137.9030557988578
 30
0.0
 10
96.45579442033038
 20
-137.8837588544179
 30
0.0
 10
96.4716317054703
 20
-137.8678838544219
 30
0.0
 10
96.49092864942243
 20
-137.8678838544219
 30
0.0
 10
96.51022559337457
 20
-137.8678838544219
 30
0.0
 10
96.5260653151927
 20
-137.8837588544179
 30
0.0
 10
96.5260653151927
 20
-137.9030557988578
 30
0.0
  0
POLYLINE
  5
7F
330
1F
100
AcDbEntity
  8
_U+30EC_U+30A4_U+30E4_U+30FC 1
 62
   179
420
  2234388
370
     9
100
AcDb2dPolyline
 66
     1
 10
0.0
 20
0.0
 30
0.0
  0
VERTEX
  5
80
330
7F
100
AcDbEntity
  8
_U+30EC_U+30A4_U+30E4_U+30FC 1
 62
   179
420
  2234388
370
     9
100
AcDbVertex
100
AcDb2dVertex
 10
100.4906877140467
 20
-116.9031119152186
 30
0.0
  0
VERTEX
  5
81
330
7F
100
AcDbEntity
  8
_U+30EC_U+30A4_U+30E4_U+30FC 1
 62
   179
420
  2234388
370
     9
100
AcDbVertex
100
AcDb2dVertex
 10
100.4906877140467
 20
-133.9032966331909
 30
0.0
  0
SEQEND
  5
82
330
7F
100
AcDbEntity
  8
_U+30EC_U+30A4_U+30E4_U+30FC 1
 62
   179
420
  2234388
370
     9
  0
POLYLINE
  5
83
330
1F
100
AcDbEntity
  8
_U+30EC_U+30A4_U+30E4_U+30FC 1
 62
   179
420
  2234388
370
     9
100
AcDb2dPolyline
 66
     1
 10
0.0
 20
0.0
 30
0.0
  0
VERTEX
  5
84
330
83
100
AcDbEntity
  8
_U+30EC_U+30A4_U+30E4_U+30FC 1
 62
   179
420
  2234388
370
     9
100
AcDbVertex
100
AcDb2dVertex
 10
99.03064636240661
 20
-116.9031119152186
 30
0.0
  0
VERTEX
  5
85
330
83
100
AcDbEntity
  8
_U+30EC_U+30A4_U+30E4_U+30FC 1
 62
   179
420
  2234388
370
     9
100
AcDbVertex
100
AcDb2dVertex
 10
101.4911301885233
 20
-116.9031119152186
 30
0.0
  0
SEQEND
  5
86
330
83
100
AcDbEntity
  8
_U+30EC_U+30A4_U+30E4_U+30FC 1
 62
   179
420
  2234388
370
     9
  0
POLYLINE
  5
87
330
1F
100
AcDbEntity
  8
_U+30EC_U+30A4_U+30E4_U+30FC 1
 62
   179
420
  2234388
370
     9
100
AcDb2dPolyline
 66
     1
 10
0.0
 20
0.0
 30
0.0
  0
VERTEX
  5
88
330
87
100
AcDbEntity
  8
_U+30EC_U+30A4_U+30E4_U+30FC 1
 62
   179
420
  2234388
370
     9
100
AcDbVertex
100
AcDb2dVertex
 10
99.03064636240661
 20
-133.9032966331909
 30
0.0
  0
VERTEX
  5
89
330
87
100
AcDbEntity
  8
_U+30EC_U+30A4_U+30E4_U+30FC 1
 62
   179
420
  2234388
370
     9
100
AcDbVertex
100
AcDb2dVertex
 10
101.4911301885233
 20
-133.9032966331909
 30
0.0
  0
SEQEND
  5
8A
330
87
100
AcDbEntity
  8
_U+30EC_U+30A4_U+30E4_U+30FC 1
 62
   179
420
  2234388
370
     9
  0
INSERT
  5
8C
330
1F
100
AcDbEntity
  8
_U+30EC_U+30A4_U+30E4_U+30FC 1
100
AcDbBlockReference
  2
block 4
 10
0.0
 20
0.0
 30
0.0
  0
SPLINE
  5
93
330
1F
100
AcDbEntity
  8
_U+30EC_U+30A4_U+30E4_U+30FC 1
 62
   179
420
  2234388
370
    25
100
AcDbSpline
210
0.0
220
0.0
230
1.0
 70
    11
 71
     3
 72
    17
 73
    13
 74
     0
 42
0.0000000001
 43
0.0000000001
 12
1.0
 22
0.0
 32
0.0
 13
1.0
 23
0.0
 33
0.0
 40
0.0
 40
0.0
 40
0.0
 40
0.0
 40
1.0
 40
1.0
 40
1.0
 40
2.0
 40
2.0
 40
2.0
 40
3.0
 40
3.0
 40
3.0
 40
4.0
 40
4.0
 40
4.0
 40
4.0
 10
96.5260653151927
 20
-116.9031119152186
 30
0.0
 10
96.5260653151927
 20
-116.9227616374358
 30
0.0
 10
96.51022559337457
 20
-116.9382485818766
 30
0.0
 10
96.49092864942243
 20
-116.9382485818766
 30
0.0
 10
96.4716317054703
 20
-116.9382485818766
 30
0.0
 10
96.45579442033038
 20
-116.9227616374358
 30
0.0
 10
96.45579442033038
 20
-116.9031119152186
 30
0.0
 10
96.45579442033038
 20
-116.8834621930013
 30
0.0
 10
96.4716317054703
 20
-116.8679752485608
 30
0.0
 10
96.49092864942243
 20
-116.8679752485608
 30
0.0
 10
96.51022559337457
 20
-116.8679752485608
 30
0.0
 10
96.5260653151927
 20
-116.8834621930013
 30
0.0
 10
96.5260653151927
 20
-116.9031119152186
 30
0.0
  0
SPLINE
  5
94
330
1F
100
AcDbEntity
  8
_U+30EC_U+30A4_U+30E4_U+30FC 1
 62
   179
420
  2234388
370
    25
100
AcDbSpline
210
0.0
220
0.0
230
1.0
 70
    11
 71
     3
 72
    17
 73
    13
 74
     0
 42
0.0000000001
 43
0.0000000001
 12
1.0
 22
0.0
 32
0.0
 13
1.0
 23
0.0
 33
0.0
 40
0.0
 40
0.0
 40
0.0
 40
0.0
 40
1.0
 40
1.0
 40
1.0
 40
2.0
 40
2.0
 40
2.0
 40
3.0
 40
3.0
 40
3.0
 40
4.0
 40
4.0
 40
4.0
 40
4.0
 10
96.5260653151927
 20
-133.9032966331909
 30
0.0
 10
96.5260653151927
 20
-133.9225582998526
 30
0.0
 10
96.51022559337457
 20
-133.9384332998486
 30
0.0
 10
96.49092864942243
 20
-133.9384332998486
 30
0.0
 10
96.4716317054703
 20
-133.9384332998486
 30
0.0
 10
96.45579442033038
 20
-133.9225582998526
 30
0.0
 10
96.45579442033038
 20
-133.9032966331909
 30
0.0
 10
96.45579442033038
 20
-133.8836469109733
 30
0.0
 10
96.4716317054703
 20
-133.8678071887554
 30
0.0
 10
96.49092864942243
 20
-133.8678071887554
 30
0.0
 10
96.51022559337457
 20
-133.8678071887554
 30
0.0
 10
96.5260653151927
 20
-133.8836469109733
 30
0.0
 10
96.5260653151927
 20
-133.9032966331909
 30
0.0
  0
SPLINE
  5
95
330
1F
100
AcDbEntity
  8
_U+30EC_U+30A4_U+30E4_U+30FC 1
 62
   179
420
  2234388
370
     9
100
AcDbSpline
210
0.0
220
0.0
230
1.0
 70
    11
 71
     3
 72
    17
 73
    13
 74
     0
 42
0.0000000001
 43
0.0000000001
 12
1.0
 22
0.0
 32
0.0
 13
1.0
 23
0.0
 33
0.0
 40
0.0
 40
0.0
 40
0.0
 40
0.0
 40
1.0
 40
1.0
 40
1.0
 40
2.0
 40
2.0
 40
2.0
 40
3.0
 40
3.0
 40
3.0
 40
4.0
 40
4.0
 40
4.0
 40
4.0
 10
100.5261771575858
 20
-133.9032966331909
 30
0.0
 10
100.5261771575858
 20
-133.9225582998526
 30
0.0
 10
100.5103021579908
 20
-133.9384332998486
 30
0.0
 10
100.4906877140467
 20
-133.9384332998486
 30
0.0
 10
100.4713907700946
 20
-133.9384332998486
 30
0.0
 10
100.4555510482765
 20
-133.9225582998526
 30
0.0
 10
100.4555510482765
 20
-133.9032966331909
 30
0.0
 10
100.4555510482765
 20
-133.8836469109733
 30
0.0
 10
100.4713907700946
 20
-133.8678071887554
 30
0.0
 10
100.4906877140467
 20
-133.8678071887554
 30
0.0
 10
100.5103021579908
 20
-133.8678071887554
 30
0.0
 10
100.5261771575858
 20
-133.8836469109733
 30
0.0
 10
100.5261771575858
 20
-133.9032966331909
 30
0.0
  0
ENDSEC
  0
SECTION
  2
OBJECTS
  0
DICTIONARY
  5
C
330
0
100
AcDbDictionary
281
     1
  3
ACAD_GROUP
350
D
  3
ACAD_LAYOUT
350
1A
  3
ACAD_MATERIAL
350
3B
  3
ACAD_MLEADERSTYLE
350
97
  3
ACAD_MLINESTYLE
350
17
  3
ACAD_PLOTSETTINGS
350
19
  3
ACAD_PLOTSTYLENAME
350
E
  3
ACAD_TABLESTYLE
350
96
  3
ACAD_VISUALSTYLE
350
2A
  0
SUN
  5
3F
330
29
100
AcDbSun
 90
        1
290
     0
 63
     7
421
 16777215
 40
1.0
291
     1
 91
  2455826
 92
 54000000
292
     0
 70
     2
 71
   256
280
     1
  0
DICTIONARY
  5
D
102
{ACAD_REACTORS
330
C
102
}
330
C
100
AcDbDictionary
281
     1
  0
DICTIONARY
  5
1A
102
{ACAD_REACTORS
330
C
102
}
330
C
100
AcDbDictionary
281
     1
  3
Layout1
350
1E
  3
Layout2
350
26
  3
Model
350
22
  0
DICTIONARY
  5
3B
102
{ACAD_REACTORS
330
C
102
}
330
C
100
AcDbDictionary
281
     1
  3
ByBlock
350
3D
  3
ByLayer
350
3C
  3
Global
350
3E
  0
DICTIONARY
  5
97
102
{ACAD_REACTORS
330
C
102
}
330
C
100
AcDbDictionary
281
     1
  0
DICTIONARY
  5
17
102
{ACAD_REACTORS
330
C
102
}
330
C
100
AcDbDictionary
281
     1
  3
Standard
350
18
  0
DICTIONARY
  5
19
102
{ACAD_REACTORS
330
C
102
}
330
C
100
AcDbDictionary
281
     1
  0
ACDBDICTIONARYWDFLT
  5
E
102
{ACAD_REACTORS
330
C
102
}
330
C
100
AcDbDictionary
281
     1
  3
Normal
350
F
100
AcDbDictionaryWithDefault
340
F
  0
DICTIONARY
  5
96
102
{ACAD_REACTORS
330
C
102
}
330
C
100
AcDbDictionary
281
     1
  0
DICTIONARY
  5
2A
102
{ACAD_REACTORS
330
C
102
}
330
C
100
AcDbDictionary
281
     1
  3
2dWireframe
350
2F
  3
3D Hidden
350
31
  3
3dWireframe
350
30
  3
Basic
350
32
  3
Brighten
350
36
  3
ColorChange
350
3A
  3
Conceptual
350
34
  3
Dim
350
35
  3
Facepattern
350
39
  3
Flat
350
2B
  3
FlatWithEdges
350
2C
  3
Gouraud
350
2D
  3
GouraudWithEdges
350
2E
  3
Linepattern
350
38
  3
Realistic
350
33
  3
Thicken
350
37
  0
LAYOUT
  5
1E
102
{ACAD_REACTORS
330
1A
102
}
330
1A
100
AcDbPlotSettings
  1

  2
none_device
  4

  6

 40
0.0
 41
0.0
 42
0.0
 43
0.0
 44
0.0
 45
0.0
 46
0.0
 47
0.0
 48
0.0
 49
0.0
140
0.0
141
0.0
142
1.0
143
1.0
 70
   688
 72
     0
 73
     0
 74
     5
  7

 75
    16
 76
     0
 77
     2
 78
   300
147
1.0
148
0.0
149
0.0
100
AcDbLayout
  1
Layout1
 70
     1
 71
     1
 10
0.0
 20
0.0
 11
12.0
 21
9.0
 12
0.0
 22
0.0
 32
0.0
 14
1.000000000000000E+20
 24
1.000000000000000E+20
 34
1.000000000000000E+20
 15
-1.000000000000000E+20
 25
-1.000000000000000E+20
 35
-1.000000000000000E+20
146
0.0
 13
0.0
 23
0.0
 33
0.0
 16
1.0
 26
0.0
 36
0.0
 17
0.0
 27
1.0
 37
0.0
 76
     0
330
1B
  0
LAYOUT
  5
26
102
{ACAD_REACTORS
330
1A
102
}
330
1A
100
AcDbPlotSettings
  1

  2
none_device
  4

  6

 40
0.0
 41
0.0
 42
0.0
 43
0.0
 44
0.0
 45
0.0
 46
0.0
 47
0.0
 48
0.0
 49
0.0
140
0.0
141
0.0
142
1.0
143
1.0
 70
   688
 72
     0
 73
     0
 74
     5
  7

 75
    16
 76
     0
 77
     2
 78
   300
147
1.0
148
0.0
149
0.0
100
AcDbLayout
  1
Layout2
 70
     1
 71
     2
 10
0.0
 20
0.0
 11
0.0
 21
0.0
 12
0.0
 22
0.0
 32
0.0
 14
0.0
 24
0.0
 34
0.0
 15
0.0
 25
0.0
 35
0.0
146
0.0
 13
0.0
 23
0.0
 33
0.0
 16
1.0
 26
0.0
 36
0.0
 17
0.0
 27
1.0
 37
0.0
 76
     0
330
23
  0
LAYOUT
  5
22
102
{ACAD_REACTORS
330
1A
102
}
330
1A
100
AcDbPlotSettings
  1

  2
none_device
  4

  6

 40
0.0
 41
0.0
 42
0.0
 43
0.0
 44
0.0
 45
0.0
 46
0.0
 47
0.0
 48
0.0
 49
0.0
140
0.0
141
0.0
142
1.0
143
1.0
 70
  1712
 72
     0
 73
     0
 74
     0
  7

 75
     0
 76
     0
 77
     2
 78
   300
147
1.0
148
0.0
149
0.0
100
AcDbLayout
  1
Model
 70
     1
 71
     0
 10
0.0
 20
0.0
 11
12.0
 21
9.0
 12
0.0
 22
0.0
 32
0.0
 14
1.000000000000000E+20
 24
1.000000000000000E+20
 34
1.000000000000000E+20
 15
-1.000000000000000E+20
 25
-1.000000000000000E+20
 35
-1.000000000000000E+20
146
0.0
 13
0.0
 23
0.0
 33
0.0
 16
1.0
 26
0.0
 36
0.0
 17
0.0
 27
1.0
 37
0.0
 76
     0
330
1F
331
29
  0
MATERIAL
  5
3D
102
{ACAD_REACTORS
330
3B
102
}
330
3B
100
AcDbMaterial
  1
ByBlock
 72
     1
 94
      127
  0
MATERIAL
  5
3C
102
{ACAD_REACTORS
330
3B
102
}
330
3B
100
AcDbMaterial
  1
ByLayer
 72
     1
 94
      127
  0
MATERIAL
  5
3E
102
{ACAD_REACTORS
330
3B
102
}
330
3B
100
AcDbMaterial
  1
Global
 72
     1
 94
      127
  0
MLINESTYLE
  5
18
102
{ACAD_REACTORS
330
17
102
}
330
17
100
AcDbMlineStyle
  2
Standard
 70
     0
  3

 62
   256
 51
90.0
 52
90.0
 71
     2
 49
0.5
 62
   256
  6
BYLAYER
 49
-0.5
 62
   256
  6
BYLAYER
  0
ACDBPLACEHOLDER
  5
F
102
{ACAD_REACTORS
330
E
102
}
330
E
  0
VISUALSTYLE
  5
2F
102
{ACAD_REACTORS
330
2A
102
}
330
2A
100
AcDbVisualStyle
  2
2dWireframe
 70
     4
177
     2
291
     0
 71
     0
176
     1
 72
     2
176
     1
 73
     0
176
     1
 90
        0
176
     1
 40
-0.6
176
     1
 41
-30.0
176
     1
 62
     5
 63
     7
421
 16777215
176
     1
 74
     1
176
     1
 91
        4
176
     1
 64
     7
176
     1
 65
   257
176
     1
 75
     1
176
     1
175
     1
176
     1
 42
1.0
176
     1
 92
        0
176
     1
 66
   257
176
     1
 43
1.0
176
     1
 76
     1
176
     1
 77
     6
176
     1
 78
     2
176
     1
 67
     7
176
     1
 79
     5
176
     1
170
     0
176
     1
171
     0
176
     1
290
     0
176
     1
 93
        1
176
     1
 44
0.0
176
     1
173
     0
176
     1
  0
VISUALSTYLE
  5
31
102
{ACAD_REACTORS
330
2A
102
}
330
2A
100
AcDbVisualStyle
  2
3D Hidden
 70
     6
177
     2
291
     0
 71
     1
176
     1
 72
     2
176
     1
 73
     2
176
     1
 90
        0
176
     1
 40
-0.6
176
     1
 41
-30.0
176
     1
 62
     5
 63
     7
421
 16777215
176
     1
 74
     2
176
     1
 91
        2
176
     1
 64
     7
176
     1
 65
   257
176
     1
 75
     2
176
     1
175
     1
176
     1
 42
40.0
176
     1
 92
        0
176
     1
 66
   257
176
     1
 43
1.0
176
     1
 76
     1
176
     1
 77
     6
176
     1
 78
     2
176
     1
 67
     7
176
     1
 79
     3
176
     1
170
     0
176
     1
171
     0
176
     1
290
     0
176
     1
 93
        1
176
     1
 44
0.0
176
     1
173
     0
176
     1
  0
VISUALSTYLE
  5
30
102
{ACAD_REACTORS
330
2A
102
}
330
2A
100
AcDbVisualStyle
  2
3dWireframe
 70
     5
177
     2
291
     0
 71
     0
176
     1
 72
     2
176
     1
 73
     0
176
     1
 90
        0
176
     1
 40
-0.6
176
     1
 41
-30.0
176
     1
 62
     5
 63
     7
421
 16777215
176
     1
 74
     1
176
     1
 91
        4
176
     1
 64
     7
176
     1
 65
   257
176
     1
 75
     1
176
     1
175
     1
176
     1
 42
1.0
176
     1
 92
        0
176
     1
 66
   257
176
     1
 43
1.0
176
     1
 76
     1
176
     1
 77
     6
176
     1
 78
     2
176
     1
 67
     7
176
     1
 79
     5
176
     1
170
     0
176
     1
171
     0
176
     1
290
     0
176
     1
 93
        1
176
     1
 44
0.0
176
     1
173
     0
176
     1
  0
VISUALSTYLE
  5
32
102
{ACAD_REACTORS
330
2A
102
}
330
2A
100
AcDbVisualStyle
  2
Basic
 70
     7
177
     2
291
     1
 71
     1
176
     1
 72
     0
176
     1
 73
     1
176
     1
 90
        0
176
     1
 40
-0.6
176
     1
 41
-30.0
176
     1
 62
     5
 63
     7
421
 16777215
176
     1
 74
     0
176
     1
 91
        4
176
     1
 64
     7
176
     1
 65
   257
176
     1
 75
     1
176
     1
175
     1
176
     1
 42
1.0
176
     1
 92
        8
176
     1
 66
     7
176
     1
 43
1.0
176
     1
 76
     1
176
     1
 77
     6
176
     1
 78
     2
176
     1
 67
     7
176
     1
 79
     5
176
     1
170
     0
176
     1
171
     0
176
     1
290
     0
176
     1
 93
        1
176
     1
 44
0.0
176
     1
173
     0
176
     1
  0
VISUALSTYLE
  5
36
102
{ACAD_REACTORS
330
2A
102
}
330
2A
100
AcDbVisualStyle
  2
Brighten
 70
    12
177
     2
291
     1
 71
     2
176
     1
 72
     2
176
     1
 73
     0
176
     1
 90
        0
176
     1
 40
-0.6
176
     1
 41
-30.0
176
     1
 62
     5
 63
     7
421
 16777215
176
     1
 74
     1
176
     1
 91
        4
176
     1
 64
     7
176
     1
 65
   257
176
     1
 75
     1
176
     1
175
     1
176
     1
 42
1.0
176
     1
 92
        8
176
     1
 66
     7
176
     1
 43
1.0
176
     1
 76
     1
176
     1
 77
     6
176
     1
 78
     2
176
     1
 67
     7
176
     1
 79
     5
176
     1
170
     0
176
     1
171
     0
176
     1
290
     0
176
     1
 93
        1
176
     1
 44
50.0
176
     1
173
     0
176
     1
  0
VISUALSTYLE
  5
3A
102
{ACAD_REACTORS
330
2A
102
}
330
2A
100
AcDbVisualStyle
  2
ColorChange
 70
    16
177
     2
291
     1
 71
     2
176
     1
 72
     2
176
     1
 73
     3
176
     1
 90
        0
176
     1
 40
-0.6
176
     1
 41
-30.0
176
     1
 62
     5
 63
     8
421
  8421504
176
     1
 74
     1
176
     1
 91
        4
176
     1
 64
     7
176
     1
 65
   257
176
     1
 75
     1
176
     1
175
     1
176
     1
 42
1.0
176
     1
 92
        8
176
     1
 66
     8
424
  8421504
176
     1
 43
1.0
176
     1
 76
     1
176
     1
 77
     6
176
     1
 78
     2
176
     1
 67
     7
176
     1
 79
     5
176
     1
170
     0
176
     1
171
     0
176
     1
290
     0
176
     1
 93
        1
176
     1
 44
0.0
176
     1
173
     0
176
     1
  0
VISUALSTYLE
  5
34
102
{ACAD_REACTORS
330
2A
102
}
330
2A
100
AcDbVisualStyle
  2
Conceptual
 70
     9
177
     2
291
     0
 71
     3
176
     1
 72
     2
176
     1
 73
     0
176
     1
 90
        0
176
     1
 40
-0.6
176
     1
 41
-30.0
176
     1
 62
     5
 63
     7
421
 16777215
176
     1
 74
     2
176
     1
 91
        2
176
     1
 64
     7
176
     1
 65
   257
176
     1
 75
     1
176
     1
175
     1
176
     1
 42
40.0
176
     1
 92
        8
176
     1
 66
     7
176
     1
 43
1.0
176
     1
 76
     1
176
     1
 77
     6
176
     1
 78
     2
176
     1
 67
     7
176
     1
 79
     3
176
     1
170
     0
176
     1
171
     0
176
     1
290
     0
176
     1
 93
        1
176
     1
 44
0.0
176
     1
173
     0
176
     1
  0
VISUALSTYLE
  5
35
102
{ACAD_REACTORS
330
2A
102
}
330
2A
100
AcDbVisualStyle
  2
Dim
 70
    11
177
     2
291
     1
 71
     2
176
     1
 72
     2
176
     1
 73
     0
176
     1
 90
        0
176
     1
 40
-0.6
176
     1
 41
-30.0
176
     1
 62
     5
 63
     7
421
 16777215
176
     1
 74
     1
176
     1
 91
        4
176
     1
 64
     7
176
     1
 65
   257
176
     1
 75
     1
176
     1
175
     1
176
     1
 42
1.0
176
     1
 92
        8
176
     1
 66
     7
176
     1
 43
1.0
176
     1
 76
     1
176
     1
 77
     6
176
     1
 78
     2
176
     1
 67
     7
176
     1
 79
     5
176
     1
170
     0
176
     1
171
     0
176
     1
290
     0
176
     1
 93
        1
176
     1
 44
-50.0
176
     1
173
     0
176
     1
  0
VISUALSTYLE
  5
39
102
{ACAD_REACTORS
330
2A
102
}
330
2A
100
AcDbVisualStyle
  2
Facepattern
 70
    15
177
     2
291
     1
 71
     2
176
     1
 72
     2
176
     1
 73
     0
176
     1
 90
        0
176
     1
 40
-0.6
176
     1
 41
-30.0
176
     1
 62
     5
 63
     7
421
 16777215
176
     1
 74
     1
176
     1
 91
        4
176
     1
 64
     7
176
     1
 65
   257
176
     1
 75
     1
176
     1
175
     1
176
     1
 42
1.0
176
     1
 92
        8
176
     1
 66
     7
176
     1
 43
1.0
176
     1
 76
     1
176
     1
 77
     6
176
     1
 78
     2
176
     1
 67
     7
176
     1
 79
     5
176
     1
170
     0
176
     1
171
     0
176
     1
290
     0
176
     1
 93
        1
176
     1
 44
0.0
176
     1
173
     0
176
     1
  0
VISUALSTYLE
  5
2B
102
{ACAD_REACTORS
330
2A
102
}
330
2A
100
AcDbVisualStyle
  2
Flat
 70
     0
177
     2
291
     1
 71
     2
176
     1
 72
     1
176
     1
 73
     1
176
     1
 90
        2
176
     1
 40
-0.6
176
     1
 41
30.0
176
     1
 62
     5
 63
     7
421
 16777215
176
     1
 74
     0
176
     1
 91
        4
176
     1
 64
     7
176
     1
 65
   257
176
     1
 75
     1
176
     1
175
     1
176
     1
 42
1.0
176
     1
 92
        8
176
     1
 66
     7
176
     1
 43
1.0
176
     1
 76
     1
176
     1
 77
     6
176
     1
 78
     2
176
     1
 67
     7
176
     1
 79
     5
176
     1
170
     0
176
     1
171
     0
176
     1
290
     0
176
     1
 93
       13
176
     1
 44
0.0
176
     1
173
     0
176
     1
  0
VISUALSTYLE
  5
2C
102
{ACAD_REACTORS
330
2A
102
}
330
2A
100
AcDbVisualStyle
  2
FlatWithEdges
 70
     1
177
     2
291
     1
 71
     2
176
     1
 72
     1
176
     1
 73
     1
176
     1
 90
        2
176
     1
 40
-0.6
176
     1
 41
30.0
176
     1
 62
     5
 63
     7
421
 16777215
176
     1
 74
     1
176
     1
 91
        4
176
     1
 64
     7
176
     1
 65
   257
176
     1
 75
     1
176
     1
175
     1
176
     1
 42
1.0
176
     1
 92
        0
176
     1
 66
   257
176
     1
 43
1.0
176
     1
 76
     1
176
     1
 77
     6
176
     1
 78
     2
176
     1
 67
     7
176
     1
 79
     5
176
     1
170
     0
176
     1
171
     0
176
     1
290
     0
176
     1
 93
       13
176
     1
 44
0.0
176
     1
173
     0
176
     1
  0
VISUALSTYLE
  5
2D
102
{ACAD_REACTORS
330
2A
102
}
330
2A
100
AcDbVisualStyle
  2
Gouraud
 70
     2
177
     2
291
     1
 71
     2
176
     1
 72
     2
176
     1
 73
     1
176
     1
 90
        2
176
     1
 40
-0.6
176
     1
 41
30.0
176
     1
 62
     5
 63
     7
421
 16777215
176
     1
 74
     0
176
     1
 91
        4
176
     1
 64
     7
176
     1
 65
   257
176
     1
 75
     1
176
     1
175
     1
176
     1
 42
1.0
176
     1
 92
        0
176
     1
 66
     7
176
     1
 43
1.0
176
     1
 76
     1
176
     1
 77
     6
176
     1
 78
     2
176
     1
 67
     7
176
     1
 79
     5
176
     1
170
     0
176
     1
171
     0
176
     1
290
     0
176
     1
 93
       13
176
     1
 44
0.0
176
     1
173
     0
176
     1
  0
VISUALSTYLE
  5
2E
102
{ACAD_REACTORS
330
2A
102
}
330
2A
100
AcDbVisualStyle
  2
GouraudWithEdges
 70
     3
177
     2
291
     1
 71
     2
176
     1
 72
     2
176
     1
 73
     1
176
     1
 90
        2
176
     1
 40
-0.6
176
     1
 41
30.0
176
     1
 62
     5
 63
     7
421
 16777215
176
     1
 74
     1
176
     1
 91
        4
176
     1
 64
     7
176
     1
 65
   257
176
     1
 75
     1
176
     1
175
     1
176
     1
 42
1.0
176
     1
 92
        0
176
     1
 66
   257
176
     1
 43
1.0
176
     1
 76
     1
176
     1
 77
     6
176
     1
 78
     2
176
     1
 67
     7
176
     1
 79
     5
176
     1
170
     0
176
     1
171
     0
176
     1
290
     0
176
     1
 93
       13
176
     1
 44
0.0
176
     1
173
     0
176
     1
  0
VISUALSTYLE
  5
38
102
{ACAD_REACTORS
330
2A
102
}
330
2A
100
AcDbVisualStyle
  2
Linepattern
 70
    14
177
     2
291
     1
 71
     2
176
     1
 72
     2
176
     1
 73
     0
176
     1
 90
        0
176
     1
 40
-0.6
176
     1
 41
-30.0
176
     1
 62
     5
 63
     7
421
 16777215
176
     1
 74
     1
176
     1
 91
        4
176
     1
 64
     7
176
     1
 65
   257
176
     1
 75
     7
176
     1
175
     7
176
     1
 42
1.0
176
     1
 92
        8
176
     1
 66
     7
176
     1
 43
1.0
176
     1
 76
     1
176
     1
 77
     6
176
     1
 78
     2
176
     1
 67
     7
176
     1
 79
     5
176
     1
170
     0
176
     1
171
     0
176
     1
290
     0
176
     1
 93
        1
176
     1
 44
0.0
176
     1
173
     0
176
     1
  0
VISUALSTYLE
  5
33
102
{ACAD_REACTORS
330
2A
102
}
330
2A
100
AcDbVisualStyle
  2
Realistic
 70
     8
177
     2
291
     0
 71
     2
176
     1
 72
     2
176
     1
 73
     0
176
     1
 90
        0
176
     1
 40
-0.6
176
     1
 41
-30.0
176
     1
 62
     5
 63
     7
421
 16777215
176
     1
 74
     1
176
     1
 91
        0
176
     1
 64
     7
176
     1
 65
   257
176
     1
 75
     1
176
     1
175
     1
176
     1
 42
1.0
176
     1
 92
        8
176
     1
 66
     8
424
  7895160
176
     1
 43
1.0
176
     1
 76
     1
176
     1
 77
     6
176
     1
 78
     2
176
     1
 67
     7
176
     1
 79
     5
176
     1
170
     0
176
     1
171
     0
176
     1
290
     0
176
     1
 93
       13
176
     1
 44
0.0
176
     1
173
     0
176
     1
  0
VISUALSTYLE
  5
37
102
{ACAD_REACTORS
330
2A
102
}
330
2A
100
AcDbVisualStyle
  2
Thicken
 70
    13
177
     2
291
     1
 71
     2
176
     1
 72
     2
176
     1
 73
     0
176
     1
 90
        0
176
     1
 40
-0.6
176
     1
 41
-30.0
176
     1
 62
     5
 63
     7
421
 16777215
176
     1
 74
     1
176
     1
 91
        4
176
     1
 64
     7
176
     1
 65
   257
176
     1
 75
     1
176
     1
175
     1
176
     1
 42
1.0
176
     1
 92
       12
176
     1
 66
     7
176
     1
 43
1.0
176
     1
 76
     1
176
     1
 77
     6
176
     1
 78
     2
176
     1
 67
     7
176
     1
 79
     5
176
     1
170
     0
176
     1
171
     0
176
     1
290
     0
176
     1
 93
        1
176
     1
 44
0.0
176
     1
173
     0
176
     1
  0
ENDSEC
  0
EOF
