  0
SECTION
  2
HEADER
  9
$ACADVER
  1
AC1024
  9
$ACADMAINTVER
 70
     6
  9
$DWGCODEPAGE
  3
UNDEFINED
  9
$INSBASE
 10
0.0
 20
0.0
 30
0.0
  9
$EXTMIN
 10
1.000000000000000E+20
 20
1.000000000000000E+20
 30
1.000000000000000E+20
  9
$EXTMAX
 10
-1.000000000000000E+20
 20
-1.000000000000000E+20
 30
-1.000000000000000E+20
  9
$LIMMIN
 10
0.0
 20
0.0
  9
$LIMMAX
 10
12.0
 20
9.0
  9
$ORTHOMODE
 70
     0
  9
$REGENMODE
 70
     1
  9
$FILLMODE
 70
     1
  9
$QTEXTMODE
 70
     0
  9
$MIRRTEXT
 70
     1
  9
$LTSCALE
 40
1.0
  9
$ATTMODE
 70
     1
  9
$TEXTSIZE
 40
0.2
  9
$TRACEWID
 40
0.05
  9
$TEXTSTYLE
  7
Standard
  9
$CLAYER
  8
0
  9
$CELTYPE
  6
ByLayer
  9
$CECOLOR
 62
   256
  9
$CELTSCALE
 40
1.0
  9
$DISPSILH
 70
     0
  9
$DIMSCALE
 40
1.0
  9
$DIMASZ
 40
0.18
  9
$DIMEXO
 40
0.0625
  9
$DIMDLI
 40
0.38
  9
$DIMRND
 40
0.0
  9
$DIMDLE
 40
0.0
  9
$DIMEXE
 40
0.18
  9
$DIMTP
 40
0.0
  9
$DIMTM
 40
0.0
  9
$DIMTXT
 40
0.18
  9
$DIMCEN
 40
0.09
  9
$DIMTSZ
 40
0.0
  9
$DIMTOL
 70
     0
  9
$DIMLIM
 70
     0
  9
$DIMTIH
 70
     1
  9
$DIMTOH
 70
     1
  9
$DIMSE1
 70
     0
  9
$DIMSE2
 70
     0
  9
$DIMTAD
 70
     0
  9
$DIMZIN
 70
     0
  9
$DIMBLK
  1

  9
$DIMASO
 70
     1
  9
$DIMSHO
 70
     1
  9
$DIMPOST
  1

  9
$DIMAPOST
  1

  9
$DIMALT
 70
     0
  9
$DIMALTD
 70
     2
  9
$DIMALTF
 40
25.4
  9
$DIMLFAC
 40
1.0
  9
$DIMTOFL
 70
     0
  9
$DIMTVP
 40
0.0
  9
$DIMTIX
 70
     0
  9
$DIMSOXD
 70
     0
  9
$DIMSAH
 70
     0
  9
$DIMBLK1
  1

  9
$DIMBLK2
  1

  9
$DIMSTYLE
  2
Standard
  9
$DIMCLRD
 70
     0
  9
$DIMCLRE
 70
     0
  9
$DIMCLRT
 70
     0
  9
$DIMTFAC
 40
1.0
  9
$DIMGAP
 40
0.09
  9
$DIMJUST
 70
     0
  9
$DIMSD1
 70
     0
  9
$DIMSD2
 70
     0
  9
$DIMTOLJ
 70
     1
  9
$DIMTZIN
 70
     0
  9
$DIMALTZ
 70
     0
  9
$DIMALTTZ
 70
     0
  9
$DIMUPT
 70
     0
  9
$DIMDEC
 70
     4
  9
$DIMTDEC
 70
     4
  9
$DIMALTU
 70
     2
  9
$DIMALTTD
 70
     2
  9
$DIMTXSTY
  7
Standard
  9
$DIMAUNIT
 70
     0
  9
$DIMADEC
 70
     0
  9
$DIMALTRND
 40
0.0
  9
$DIMAZIN
 70
     0
  9
$DIMDSEP
 70
    46
  9
$DIMATFIT
 70
     3
  9
$DIMFRAC
 70
     0
  9
$DIMLDRBLK
  1

  9
$DIMLUNIT
 70
     2
  9
$DIMLWD
 70
    -2
  9
$DIMLWE
 70
    -2
  9
$DIMTMOVE
 70
     0
  9
$DIMFXL
 40
1.0
  9
$DIMFXLON
 70
     0
  9
$DIMJOGANG
 40
0.7853981633974483
  9
$DIMTFILL
 70
     0
  9
$DIMTFILLCLR
 70
     0
  9
$DIMARCSYM
 70
     0
  9
$DIMLTYPE
  6

  9
$DIMLTEX1
  6

  9
$DIMLTEX2
  6

  9
$DIMTXTDIRECTION
 70
     0
  9
$LUNITS
 70
     2
  9
$LUPREC
 70
     4
  9
$SKETCHINC
 40
0.1
  9
$FILLETRAD
 40
0.5
  9
$AUNITS
 70
     0
  9
$AUPREC
 70
     0
  9
$MENU
  1
.
  9
$ELEVATION
 40
0.0
  9
$PELEVATION
 40
0.0
  9
$THICKNESS
 40
0.0
  9
$LIMCHECK
 70
     0
  9
$CHAMFERA
 40
0.5
  9
$CHAMFERB
 40
0.5
  9
$CHAMFERC
 40
1.0
  9
$CHAMFERD
 40
0.0
  9
$SKPOLY
 70
     0
  9
$TDCREATE
 40
2457917.583136563
  9
$TDUCREATE
 40
2457917.208136574
  9
$TDUPDATE
 40
2457917.583136563
  9
$TDUUPDATE
 40
2457917.208136574
  9
$TDINDWG
 40
0.0000000116
  9
$TDUSRTIMER
 40
0.0000000116
  9
$USRTIMER
 70
     1
  9
$ANGBASE
 50
0.0
  9
$ANGDIR
 70
     0
  9
$PDMODE
 70
     0
  9
$PDSIZE
 40
0.0
  9
$PLINEWID
 40
0.0
  9
$SPLFRAME
 70
     0
  9
$SPLINETYPE
 70
     6
  9
$SPLINESEGS
 70
     8
  9
$HANDSEED
  5
117
  9
$SURFTAB1
 70
     6
  9
$SURFTAB2
 70
     6
  9
$SURFTYPE
 70
     6
  9
$SURFU
 70
     6
  9
$SURFV
 70
     6
  9
$UCSBASE
  2

  9
$UCSNAME
  2

  9
$UCSORG
 10
0.0
 20
0.0
 30
0.0
  9
$UCSXDIR
 10
1.0
 20
0.0
 30
0.0
  9
$UCSYDIR
 10
0.0
 20
1.0
 30
0.0
  9
$UCSORTHOREF
  2

  9
$UCSORTHOVIEW
 70
     0
  9
$UCSORGTOP
 10
0.0
 20
0.0
 30
0.0
  9
$UCSORGBOTTOM
 10
0.0
 20
0.0
 30
0.0
  9
$UCSORGLEFT
 10
0.0
 20
0.0
 30
0.0
  9
$UCSORGRIGHT
 10
0.0
 20
0.0
 30
0.0
  9
$UCSORGFRONT
 10
0.0
 20
0.0
 30
0.0
  9
$UCSORGBACK
 10
0.0
 20
0.0
 30
0.0
  9
$PUCSBASE
  2

  9
$PUCSNAME
  2

  9
$PUCSORG
 10
0.0
 20
0.0
 30
0.0
  9
$PUCSXDIR
 10
1.0
 20
0.0
 30
0.0
  9
$PUCSYDIR
 10
0.0
 20
1.0
 30
0.0
  9
$PUCSORTHOREF
  2

  9
$PUCSORTHOVIEW
 70
     0
  9
$PUCSORGTOP
 10
0.0
 20
0.0
 30
0.0
  9
$PUCSORGBOTTOM
 10
0.0
 20
0.0
 30
0.0
  9
$PUCSORGLEFT
 10
0.0
 20
0.0
 30
0.0
  9
$PUCSORGRIGHT
 10
0.0
 20
0.0
 30
0.0
  9
$PUCSORGFRONT
 10
0.0
 20
0.0
 30
0.0
  9
$PUCSORGBACK
 10
0.0
 20
0.0
 30
0.0
  9
$USERI1
 70
     0
  9
$USERI2
 70
     0
  9
$USERI3
 70
     0
  9
$USERI4
 70
     0
  9
$USERI5
 70
     0
  9
$USERR1
 40
0.0
  9
$USERR2
 40
0.0
  9
$USERR3
 40
0.0
  9
$USERR4
 40
0.0
  9
$USERR5
 40
0.0
  9
$WORLDVIEW
 70
     1
  9
$SHADEDGE
 70
     3
  9
$SHADEDIF
 70
    70
  9
$TILEMODE
 70
     1
  9
$MAXACTVP
 70
    64
  9
$PINSBASE
 10
0.0
 20
0.0
 30
0.0
  9
$PLIMCHECK
 70
     0
  9
$PEXTMIN
 10
1.000000000000000E+20
 20
1.000000000000000E+20
 30
1.000000000000000E+20
  9
$PEXTMAX
 10
-1.000000000000000E+20
 20
-1.000000000000000E+20
 30
-1.000000000000000E+20
  9
$PLIMMIN
 10
0.0
 20
0.0
  9
$PLIMMAX
 10
12.0
 20
9.0
  9
$UNITMODE
 70
     0
  9
$VISRETAIN
 70
     1
  9
$PLINEGEN
 70
     0
  9
$PSLTSCALE
 70
     1
  9
$TREEDEPTH
 70
  3020
  9
$CMLSTYLE
  2
Standard
  9
$CMLJUST
 70
     0
  9
$CMLSCALE
 40
1.0
  9
$PROXYGRAPHICS
 70
     1
  9
$MEASUREMENT
 70
     0
  9
$CELWEIGHT
370
    -1
  9
$ENDCAPS
280
     0
  9
$JOINSTYLE
280
     0
  9
$LWDISPLAY
290
     1
  9
$INSUNITS
 70
     1
  9
$HYPERLINKBASE
  1

  9
$STYLESHEET
  1

  9
$XEDIT
290
     1
  9
$CEPSNTYPE
380
     0
  9
$PSTYLEMODE
290
     1
  9
$FINGERPRINTGUID
  2
{CAFC22B5-F0B8-51F9-A9ED-63F928C348C3}
  9
$VERSIONGUID
  2
{FAEB1C32-E019-11D5-929B-00C0DF256EC4}
  9
$EXTNAMES
290
     1
  9
$PSVPSCALE
 40
0.0
  9
$OLESTARTUP
290
     0
  9
$SORTENTS
280
   127
  9
$INDEXCTL
280
     0
  9
$HIDETEXT
280
     1
  9
$XCLIPFRAME
280
     2
  9
$HALOGAP
280
     0
  9
$OBSCOLOR
 70
   257
  9
$OBSLTYPE
280
     0
  9
$INTERSECTIONDISPLAY
280
     0
  9
$INTERSECTIONCOLOR
 70
   257
  9
$DIMASSOC
280
     2
  9
$PROJECTNAME
  1

  9
$CAMERADISPLAY
290
     0
  9
$LENSLENGTH
 40
50.0
  9
$CAMERAHEIGHT
 40
0.0
  9
$STEPSPERSEC
 40
2.0
  9
$STEPSIZE
 40
6.0
  9
$3DDWFPREC
 40
2.0
  9
$PSOLWIDTH
 40
0.25
  9
$PSOLHEIGHT
 40
4.0
  9
$LOFTANG1
 40
1.570796326794897
  9
$LOFTANG2
 40
1.570796326794897
  9
$LOFTMAG1
 40
0.0
  9
$LOFTMAG2
 40
0.0
  9
$LOFTPARAM
 70
     7
  9
$LOFTNORMALS
280
     1
  9
$LATITUDE
 40
37.795
  9
$LONGITUDE
 40
-122.394
  9
$NORTHDIRECTION
 40
0.0
  9
$TIMEZONE
 70
 -8000
  9
$LIGHTGLYPHDISPLAY
280
     1
  9
$TILEMODELIGHTSYNCH
280
     1
  9
$CMATERIAL
347
3C
  9
$SOLIDHIST
280
     1
  9
$SHOWHIST
280
     1
  9
$DWFFRAME
280
     2
  9
$DGNFRAME
280
     2
  9
$REALWORLDSCALE
290
     1
  9
$INTERFERECOLOR
 62
   256
  9
$CSHADOW
280
     0
  9
$SHADOWPLANELOCATION
 40
0.0
  0
ENDSEC
  0
SECTION
  2
CLASSES
  0
CLASS
  1
ACDBDICTIONARYWDFLT
  2
AcDbDictionaryWithDefault
  3
ObjectDBX Classes
 90
        0
 91
        4
280
     0
281
     0
  0
CLASS
  1
VISUALSTYLE
  2
AcDbVisualStyle
  3
ObjectDBX Classes
 90
     4095
 91
        4
280
     0
281
     0
  0
CLASS
  1
MATERIAL
  2
AcDbMaterial
  3
ObjectDBX Classes
 90
     1153
 91
        4
280
     0
281
     0
  0
CLASS
  1
SUN
  2
AcDbSun
  3
SCENEOE
 90
     1024
 91
        4
280
     0
281
     0
  0
ENDSEC
  0
SECTION
  2
TABLES
  0
TABLE
  2
VPORT
  5
8
330
0
100
AcDbSymbolTable
 70
     1
  0
VPORT
  5
29
330
8
100
AcDbSymbolTableRecord
100
AcDbViewportTableRecord
  2
*Active
 70
     0
 10
0.0
 20
0.0
 11
1.0
 21
1.0
 12
0.0
 22
0.0
 13
0.0
 23
0.0
 14
0.5
 24
0.5
 15
0.5
 25
0.5
 16
0.0
 26
0.0
 36
1.0
 17
91.00082462281999
 27
-128.4993055234307
 37
0.0
 40
256.9986110468615
 41
0.7081814508812795
 42
50.0
 43
0.0
 44
0.0
 50
0.0
 51
0.0
 71
     0
 72
   100
 73
     1
 74
     3
 75
     0
 76
     0
 77
     0
 78
     0
281
     0
 65
     1
110
0.0
120
0.0
130
0.0
111
1.0
121
0.0
131
0.0
112
0.0
122
1.0
132
0.0
 79
     0
146
0.0
 60
     3
 61
     5
292
     1
282
     1
141
0.0
142
0.0
 63
   250
361
3F
  0
ENDTAB
  0
TABLE
  2
LTYPE
  5
5
330
0
100
AcDbSymbolTable
 70
     1
  0
LTYPE
  5
14
330
5
100
AcDbSymbolTableRecord
100
AcDbLinetypeTableRecord
  2
ByBlock
 70
     0
  3

 72
    65
 73
     0
 40
0.0
  0
LTYPE
  5
15
330
5
100
AcDbSymbolTableRecord
100
AcDbLinetypeTableRecord
  2
ByLayer
 70
     0
  3

 72
    65
 73
     0
 40
0.0
  0
LTYPE
  5
16
330
5
100
AcDbSymbolTableRecord
100
AcDbLinetypeTableRecord
  2
Continuous
 70
     0
  3
Solid line
 72
    65
 73
     0
 40
0.0
  0
ENDTAB
  0
TABLE
  2
LAYER
  5
2
330
0
100
AcDbSymbolTable
 70
     2
  0
LAYER
  5
10
330
2
100
AcDbSymbolTableRecord
100
AcDbLayerTableRecord
  2
0
 70
     0
 62
     7
  6
Continuous
370
    -3
390
F
347
3E
  0
LAYER
  5
40
330
2
100
AcDbSymbolTableRecord
100
AcDbLayerTableRecord
  2
_U+30EC_U+30A4_U+30E4_U+30FC 1
 70
     0
 62
     7
  6
Continuous
370
    -3
390
F
347
3E
  0
ENDTAB
  0
TABLE
  2
STYLE
  5
3
330
0
100
AcDbSymbolTable
 70
     1
  0
STYLE
  5
11
330
3
100
AcDbSymbolTableRecord
100
AcDbTextStyleTableRecord
  2
Standard
 70
     0
 40
0.0
 41
1.0
 50
0.0
 71
     0
 42
0.2
  3
txt
  4

  0
ENDTAB
  0
TABLE
  2
VIEW
  5
6
330
0
100
AcDbSymbolTable
 70
     0
  0
ENDTAB
  0
TABLE
  2
UCS
  5
7
330
0
100
AcDbSymbolTable
 70
     0
  0
ENDTAB
  0
TABLE
  2
APPID
  5
9
330
0
100
AcDbSymbolTable
 70
     1
  0
APPID
  5
12
330
9
100
AcDbSymbolTableRecord
100
AcDbRegAppTableRecord
  2
ACAD
 70
     0
  0
ENDTAB
  0
TABLE
  2
DIMSTYLE
  5
A
330
0
100
AcDbSymbolTable
 70
     1
100
AcDbDimStyleTable
  0
DIMSTYLE
105
27
330
A
100
AcDbSymbolTableRecord
100
AcDbDimStyleTableRecord
  2
Standard
 70
     0
178
     0
340
11
  0
ENDTAB
  0
TABLE
  2
BLOCK_RECORD
  5
1
330
0
100
AcDbSymbolTable
 70
     7
  0
BLOCK_RECORD
  5
1F
330
1
100
AcDbSymbolTableRecord
100
AcDbBlockTableRecord
  2
*Model_Space
340
22
 70
     0
280
     1
281
     0
  0
BLOCK_RECORD
  5
1B
330
1
100
AcDbSymbolTableRecord
100
AcDbBlockTableRecord
  2
*Paper_Space
340
1E
 70
     0
280
     1
281
     0
  0
BLOCK_RECORD
  5
23
330
1
100
AcDbSymbolTableRecord
100
AcDbBlockTableRecord
  2
*Paper_Space0
340
26
 70
     0
280
     1
281
     0
  0
BLOCK_RECORD
  5
E5
330
1
100
AcDbSymbolTableRecord
100
AcDbBlockTableRecord
  2
block 2
340
0
102
{BLKREFS
331
E6
102
}
 70
     0
280
     1
281
     0
  0
BLOCK_RECORD
  5
ED
330
1
100
AcDbSymbolTableRecord
100
AcDbBlockTableRecord
  2
block 3
340
0
102
{BLKREFS
331
EE
102
}
 70
     0
280
     1
281
     0
  0
BLOCK_RECORD
  5
F5
330
1
100
AcDbSymbolTableRecord
100
AcDbBlockTableRecord
  2
block 4
340
0
102
{BLKREFS
331
F6
102
}
 70
     0
280
     1
281
     0
  0
BLOCK_RECORD
  5
FF
330
1
100
AcDbSymbolTableRecord
100
AcDbBlockTableRecord
  2
block 5
340
0
102
{BLKREFS
331
100
102
}
 70
     0
280
     1
281
     0
  0
BLOCK_RECORD
  5
107
330
1
100
AcDbSymbolTableRecord
100
AcDbBlockTableRecord
  2
block 6
340
0
102
{BLKREFS
331
108
102
}
 70
     0
280
     1
281
     0
  0
BLOCK_RECORD
  5
10F
330
1
100
AcDbSymbolTableRecord
100
AcDbBlockTableRecord
  2
block 7
340
0
102
{BLKREFS
331
110
102
}
 70
     0
280
     1
281
     0
  0
ENDTAB
  0
ENDSEC
  0
SECTION
  2
BLOCKS
  0
BLOCK
  5
20
330
1F
100
AcDbEntity
  8
0
100
AcDbBlockBegin
  2
*Model_Space
 70
     0
 10
0.0
 20
0.0
 30
0.0
  3
*Model_Space
  1

  0
ENDBLK
  5
21
330
1F
100
AcDbEntity
  8
0
100
AcDbBlockEnd
  0
BLOCK
  5
1C
330
1B
100
AcDbEntity
 67
     1
  8
0
100
AcDbBlockBegin
  2
*Paper_Space
 70
     0
 10
0.0
 20
0.0
 30
0.0
  3
*Paper_Space
  1

  0
ENDBLK
  5
1D
330
1B
100
AcDbEntity
 67
     1
  8
0
100
AcDbBlockEnd
  0
BLOCK
  5
24
330
23
100
AcDbEntity
  8
0
100
AcDbBlockBegin
  2
*Paper_Space0
 70
     0
 10
0.0
 20
0.0
 30
0.0
  3
*Paper_Space0
  1

  0
ENDBLK
  5
25
330
23
100
AcDbEntity
  8
0
100
AcDbBlockEnd
  0
BLOCK
  5
E7
330
E5
100
AcDbEntity
  8
0
100
AcDbBlockBegin
  2
block 2
 70
     0
 10
0.0
 20
0.0
 30
0.0
  3
block 2
  1

  0
SPLINE
  5
E9
330
E5
100
AcDbEntity
  8
_U+30EC_U+30A4_U+30E4_U+30FC 1
370
     0
100
AcDbSpline
210
0.0
220
0.0
230
1.0
 70
    11
 71
     3
 72
    26
 73
    22
 74
     0
 42
0.0000000001
 43
0.0000000001
 12
1.0
 22
0.0
 32
0.0
 13
1.0
 23
0.0
 33
0.0
 40
0.0
 40
0.0
 40
0.0
 40
0.0
 40
1.0
 40
1.0
 40
1.0
 40
2.0
 40
2.0
 40
2.0
 40
3.0
 40
3.0
 40
3.0
 40
4.0
 40
4.0
 40
4.0
 40
5.0
 40
5.0
 40
5.0
 40
6.0
 40
6.0
 40
6.0
 40
7.0
 40
7.0
 40
7.0
 40
7.0
 10
64.14492185896377
 20
-112.5488579362725
 30
0.0
 10
64.14492185896377
 20
-112.5488579362725
 30
0.0
 10
64.14492185896377
 20
-111.4445325784757
 30
0.0
 10
64.14492185896377
 20
-111.4445325784757
 30
0.0
 10
64.14492185896377
 20
-111.4445325784757
 30
0.0
 10
63.81488171147684
 20
-111.4445325784757
 30
0.0
 10
63.81488171147684
 20
-111.4445325784757
 30
0.0
 10
63.81488171147684
 20
-111.4445325784757
 30
0.0
 10
63.81488171147684
 20
-111.2965657273842
 30
0.0
 10
63.81488171147684
 20
-111.2965657273842
 30
0.0
 10
64.14698891625493
 20
-111.2817518167976
 30
0.0
 10
64.1934977053058
 20
-111.1187988003453
 30
0.0
 10
64.22312552647894
 20
-111.0045938850093
 30
0.0
 10
64.22312552647894
 20
-111.0045938850093
 30
0.0
 10
64.36919757505353
 20
-111.0045938850093
 30
0.0
 10
64.36919757505353
 20
-111.0045938850093
 30
0.0
 10
64.36919757505353
 20
-111.0045938850093
 30
0.0
 10
64.36919757505353
 20
-112.5488579362725
 30
0.0
 10
64.36919757505353
 20
-112.5488579362725
 30
0.0
 10
64.36919757505353
 20
-112.5488579362725
 30
0.0
 10
64.14492185896377
 20
-112.5488579362725
 30
0.0
 10
64.14492185896377
 20
-112.5488579362725
 30
0.0
  0
HATCH
  5
EA
330
E5
100
AcDbEntity
  8
_U+30EC_U+30A4_U+30E4_U+30FC 1
 62
   179
420
  2234388
100
AcDbHatch
 10
0.0
 20
0.0
 30
0.0
210
0.0
220
0.0
230
1.0
  2
SOLID
 70
     1
 71
     0
 91
        1
 92
        1
 93
        1
 72
     4
 94
        3
 73
     0
 74
     1
 95
       26
 96
       22
 40
0.0
 40
0.0
 40
0.0
 40
0.0
 40
1.0
 40
1.0
 40
1.0
 40
2.0
 40
2.0
 40
2.0
 40
3.0
 40
3.0
 40
3.0
 40
4.0
 40
4.0
 40
4.0
 40
5.0
 40
5.0
 40
5.0
 40
6.0
 40
6.0
 40
6.0
 40
7.0
 40
7.0
 40
7.0
 40
7.0
 10
64.14492185896377
 20
-112.5488579362725
 10
64.14492185896377
 20
-112.5488579362725
 10
64.14492185896377
 20
-111.4445325784757
 10
64.14492185896377
 20
-111.4445325784757
 10
64.14492185896377
 20
-111.4445325784757
 10
63.81488171147684
 20
-111.4445325784757
 10
63.81488171147684
 20
-111.4445325784757
 10
63.81488171147684
 20
-111.4445325784757
 10
63.81488171147684
 20
-111.2965657273842
 10
63.81488171147684
 20
-111.2965657273842
 10
64.14698891625493
 20
-111.2817518167976
 10
64.1934977053058
 20
-111.1187988003453
 10
64.22312552647894
 20
-111.0045938850093
 10
64.22312552647894
 20
-111.0045938850093
 10
64.36919757505353
 20
-111.0045938850093
 10
64.36919757505353
 20
-111.0045938850093
 10
64.36919757505353
 20
-111.0045938850093
 10
64.36919757505353
 20
-112.5488579362725
 10
64.36919757505353
 20
-112.5488579362725
 10
64.36919757505353
 20
-112.5488579362725
 10
64.14492185896377
 20
-112.5488579362725
 10
64.14492185896377
 20
-112.5488579362725
 97
        0
 97
        0
 75
     2
 76
     1
 98
        0
  0
SPLINE
  5
EB
330
E5
100
AcDbEntity
  8
_U+30EC_U+30A4_U+30E4_U+30FC 1
370
     0
100
AcDbSpline
210
0.0
220
0.0
230
1.0
 70
    11
 71
     3
 72
    53
 73
    49
 74
     0
 42
0.0000000001
 43
0.0000000001
 12
1.0
 22
0.0
 32
0.0
 13
1.0
 23
0.0
 33
0.0
 40
0.0
 40
0.0
 40
0.0
 40
0.0
 40
1.0
 40
1.0
 40
1.0
 40
2.0
 40
2.0
 40
2.0
 40
3.0
 40
3.0
 40
3.0
 40
4.0
 40
4.0
 40
4.0
 40
5.0
 40
5.0
 40
5.0
 40
6.0
 40
6.0
 40
6.0
 40
7.0
 40
7.0
 40
7.0
 40
8.0
 40
8.0
 40
8.0
 40
9.0
 40
9.0
 40
9.0
 40
10.0
 40
10.0
 40
10.0
 40
11.0
 40
11.0
 40
11.0
 40
12.0
 40
12.0
 40
12.0
 40
13.0
 40
13.0
 40
13.0
 40
14.0
 40
14.0
 40
14.0
 40
15.0
 40
15.0
 40
15.0
 40
16.0
 40
16.0
 40
16.0
 40
16.0
 10
65.35139429789827
 20
-112.5996730946799
 30
0.0
 10
65.27301837560883
 20
-112.5996730946799
 30
0.0
 10
65.17156031356822
 20
-112.582619872028
 30
0.0
 10
65.06992999675336
 20
-112.5192301150994
 30
0.0
 10
64.89646943907103
 20
-112.4091593143456
 30
0.0
 10
64.87528210183673
 20
-112.2780734311319
 30
0.0
 10
64.85633407666786
 20
-112.1702419424436
 30
0.0
 10
64.85633407666786
 20
-112.1702419424436
 30
0.0
 10
65.07837048069221
 20
-112.1702419424436
 30
0.0
 10
65.07837048069221
 20
-112.1702419424436
 30
0.0
 10
65.13349200845622
 20
-112.3690239519425
 30
0.0
 10
65.26044377708767
 20
-112.3986517731156
 30
0.0
 10
65.35346135518941
 20
-112.3986517731156
 30
0.0
 10
65.49298772234204
 20
-112.3986517731156
 30
0.0
 10
65.64543319756434
 20
-112.2992607683662
 30
0.0
 10
65.64543319756434
 20
-112.0665445683375
 30
0.0
 10
65.64543319756434
 20
-111.8105739737835
 30
0.0
 10
65.4655992132343
 20
-111.7408107902072
 30
0.0
 10
65.34502087125055
 20
-111.7408107902072
 30
0.0
 10
65.31332599278626
 20
-111.7408107902072
 30
0.0
 10
65.17156031356822
 20
-111.7408107902072
 30
0.0
 10
65.08267685004878
 20
-111.8698296161298
 30
0.0
 10
65.08267685004878
 20
-111.8698296161298
 30
0.0
 10
64.9071492350753
 20
-111.8507093361866
 30
0.0
 10
64.9071492350753
 20
-111.8507093361866
 30
0.0
 10
64.9071492350753
 20
-111.8507093361866
 30
0.0
 10
65.02772757705904
 20
-111.0045938850093
 30
0.0
 10
65.02772757705904
 20
-111.0045938850093
 30
0.0
 10
65.02772757705904
 20
-111.0045938850093
 30
0.0
 10
65.80614690195124
 20
-111.0045938850093
 30
0.0
 10
65.80614690195124
 20
-111.0045938850093
 30
0.0
 10
65.80614690195124
 20
-111.0045938850093
 30
0.0
 10
65.80614690195124
 20
-111.1992417799259
 30
0.0
 10
65.80614690195124
 20
-111.1992417799259
 30
0.0
 10
65.80614690195124
 20
-111.1992417799259
 30
0.0
 10
65.1905083387371
 20
-111.1992417799259
 30
0.0
 10
65.1905083387371
 20
-111.1992417799259
 30
0.0
 10
65.1905083387371
 20
-111.1992417799259
 30
0.0
 10
65.12505152451735
 20
-111.6222995055146
 30
0.0
 10
65.12505152451735
 20
-111.6222995055146
 30
0.0
 10
65.1863742241548
 20
-111.5883653149849
 30
0.0
 10
65.26888426102653
 20
-111.5482299525817
 30
0.0
 10
65.38722329094486
 20
-111.5482299525817
 30
0.0
 10
65.64112682820777
 20
-111.5482299525817
 30
0.0
 10
65.87814939759296
 20
-111.7344373635595
 30
0.0
 10
65.87814939759296
 20
-112.0474242883944
 30
0.0
 10
65.87814939759296
 20
-112.3648898373602
 30
0.0
 10
65.6538736815032
 20
-112.5996730946799
 30
0.0
 10
65.35139429789827
 20
-112.5996730946799
 30
0.0
  0
HATCH
  5
EC
330
E5
100
AcDbEntity
  8
_U+30EC_U+30A4_U+30E4_U+30FC 1
 62
   179
420
  2234388
100
AcDbHatch
 10
0.0
 20
0.0
 30
0.0
210
0.0
220
0.0
230
1.0
  2
SOLID
 70
     1
 71
     0
 91
        1
 92
        1
 93
        1
 72
     4
 94
        3
 73
     0
 74
     1
 95
       53
 96
       49
 40
0.0
 40
0.0
 40
0.0
 40
0.0
 40
1.0
 40
1.0
 40
1.0
 40
2.0
 40
2.0
 40
2.0
 40
3.0
 40
3.0
 40
3.0
 40
4.0
 40
4.0
 40
4.0
 40
5.0
 40
5.0
 40
5.0
 40
6.0
 40
6.0
 40
6.0
 40
7.0
 40
7.0
 40
7.0
 40
8.0
 40
8.0
 40
8.0
 40
9.0
 40
9.0
 40
9.0
 40
10.0
 40
10.0
 40
10.0
 40
11.0
 40
11.0
 40
11.0
 40
12.0
 40
12.0
 40
12.0
 40
13.0
 40
13.0
 40
13.0
 40
14.0
 40
14.0
 40
14.0
 40
15.0
 40
15.0
 40
15.0
 40
16.0
 40
16.0
 40
16.0
 40
16.0
 10
65.35139429789827
 20
-112.5996730946799
 10
65.27301837560883
 20
-112.5996730946799
 10
65.17156031356822
 20
-112.582619872028
 10
65.06992999675336
 20
-112.5192301150994
 10
64.89646943907103
 20
-112.4091593143456
 10
64.87528210183673
 20
-112.2780734311319
 10
64.85633407666786
 20
-112.1702419424436
 10
64.85633407666786
 20
-112.1702419424436
 10
65.07837048069221
 20
-112.1702419424436
 10
65.07837048069221
 20
-112.1702419424436
 10
65.13349200845622
 20
-112.3690239519425
 10
65.26044377708767
 20
-112.3986517731156
 10
65.35346135518941
 20
-112.3986517731156
 10
65.49298772234204
 20
-112.3986517731156
 10
65.64543319756434
 20
-112.2992607683662
 10
65.64543319756434
 20
-112.0665445683375
 10
65.64543319756434
 20
-111.8105739737835
 10
65.4655992132343
 20
-111.7408107902072
 10
65.34502087125055
 20
-111.7408107902072
 10
65.31332599278626
 20
-111.7408107902072
 10
65.17156031356822
 20
-111.7408107902072
 10
65.08267685004878
 20
-111.8698296161298
 10
65.08267685004878
 20
-111.8698296161298
 10
64.9071492350753
 20
-111.8507093361866
 10
64.9071492350753
 20
-111.8507093361866
 10
64.9071492350753
 20
-111.8507093361866
 10
65.02772757705904
 20
-111.0045938850093
 10
65.02772757705904
 20
-111.0045938850093
 10
65.02772757705904
 20
-111.0045938850093
 10
65.80614690195124
 20
-111.0045938850093
 10
65.80614690195124
 20
-111.0045938850093
 10
65.80614690195124
 20
-111.0045938850093
 10
65.80614690195124
 20
-111.1992417799259
 10
65.80614690195124
 20
-111.1992417799259
 10
65.80614690195124
 20
-111.1992417799259
 10
65.1905083387371
 20
-111.1992417799259
 10
65.1905083387371
 20
-111.1992417799259
 10
65.1905083387371
 20
-111.1992417799259
 10
65.12505152451735
 20
-111.6222995055146
 10
65.12505152451735
 20
-111.6222995055146
 10
65.1863742241548
 20
-111.5883653149849
 10
65.26888426102653
 20
-111.5482299525817
 10
65.38722329094486
 20
-111.5482299525817
 10
65.64112682820777
 20
-111.5482299525817
 10
65.87814939759296
 20
-111.7344373635595
 10
65.87814939759296
 20
-112.0474242883944
 10
65.87814939759296
 20
-112.3648898373602
 10
65.6538736815032
 20
-112.5996730946799
 10
65.35139429789827
 20
-112.5996730946799
 97
        0
 97
        0
 75
     2
 76
     1
 98
        0
  0
ENDBLK
  5
E8
330
E5
100
AcDbEntity
  8
0
100
AcDbBlockEnd
  0
BLOCK
  5
EF
330
ED
100
AcDbEntity
  8
0
100
AcDbBlockBegin
  2
block 3
 70
     0
 10
0.0
 20
0.0
 30
0.0
  3
block 3
  1

  0
SPLINE
  5
F1
330
ED
100
AcDbEntity
  8
_U+30EC_U+30A4_U+30E4_U+30FC 1
370
     0
100
AcDbSpline
210
0.0
220
0.0
230
1.0
 70
    11
 71
     3
 72
    26
 73
    22
 74
     0
 42
0.0000000001
 43
0.0000000001
 12
1.0
 22
0.0
 32
0.0
 13
1.0
 23
0.0
 33
0.0
 40
0.0
 40
0.0
 40
0.0
 40
0.0
 40
1.0
 40
1.0
 40
1.0
 40
2.0
 40
2.0
 40
2.0
 40
3.0
 40
3.0
 40
3.0
 40
4.0
 40
4.0
 40
4.0
 40
5.0
 40
5.0
 40
5.0
 40
6.0
 40
6.0
 40
6.0
 40
7.0
 40
7.0
 40
7.0
 40
7.0
 10
109.1447590872971
 20
-112.5488579362725
 30
0.0
 10
109.1447590872971
 20
-112.5488579362725
 30
0.0
 10
109.1447590872971
 20
-111.4445325784757
 30
0.0
 10
109.1447590872971
 20
-111.4445325784757
 30
0.0
 10
109.1447590872971
 20
-111.4445325784757
 30
0.0
 10
108.8147189398102
 20
-111.4445325784757
 30
0.0
 10
108.8147189398102
 20
-111.4445325784757
 30
0.0
 10
108.8147189398102
 20
-111.4445325784757
 30
0.0
 10
108.8147189398102
 20
-111.2965657273842
 30
0.0
 10
108.8147189398102
 20
-111.2965657273842
 30
0.0
 10
109.1468261445883
 20
-111.2817518167976
 30
0.0
 10
109.1933349336392
 20
-111.1187988003453
 30
0.0
 10
109.2229627548123
 20
-111.0045938850093
 30
0.0
 10
109.2229627548123
 20
-111.0045938850093
 30
0.0
 10
109.3690348033869
 20
-111.0045938850093
 30
0.0
 10
109.3690348033869
 20
-111.0045938850093
 30
0.0
 10
109.3690348033869
 20
-111.0045938850093
 30
0.0
 10
109.3690348033869
 20
-112.5488579362725
 30
0.0
 10
109.3690348033869
 20
-112.5488579362725
 30
0.0
 10
109.3690348033869
 20
-112.5488579362725
 30
0.0
 10
109.1447590872971
 20
-112.5488579362725
 30
0.0
 10
109.1447590872971
 20
-112.5488579362725
 30
0.0
  0
HATCH
  5
F2
330
ED
100
AcDbEntity
  8
_U+30EC_U+30A4_U+30E4_U+30FC 1
 62
   179
420
  2234388
100
AcDbHatch
 10
0.0
 20
0.0
 30
0.0
210
0.0
220
0.0
230
1.0
  2
SOLID
 70
     1
 71
     0
 91
        1
 92
        1
 93
        1
 72
     4
 94
        3
 73
     0
 74
     1
 95
       26
 96
       22
 40
0.0
 40
0.0
 40
0.0
 40
0.0
 40
1.0
 40
1.0
 40
1.0
 40
2.0
 40
2.0
 40
2.0
 40
3.0
 40
3.0
 40
3.0
 40
4.0
 40
4.0
 40
4.0
 40
5.0
 40
5.0
 40
5.0
 40
6.0
 40
6.0
 40
6.0
 40
7.0
 40
7.0
 40
7.0
 40
7.0
 10
109.1447590872971
 20
-112.5488579362725
 10
109.1447590872971
 20
-112.5488579362725
 10
109.1447590872971
 20
-111.4445325784757
 10
109.1447590872971
 20
-111.4445325784757
 10
109.1447590872971
 20
-111.4445325784757
 10
108.8147189398102
 20
-111.4445325784757
 10
108.8147189398102
 20
-111.4445325784757
 10
108.8147189398102
 20
-111.4445325784757
 10
108.8147189398102
 20
-111.2965657273842
 10
108.8147189398102
 20
-111.2965657273842
 10
109.1468261445883
 20
-111.2817518167976
 10
109.1933349336392
 20
-111.1187988003453
 10
109.2229627548123
 20
-111.0045938850093
 10
109.2229627548123
 20
-111.0045938850093
 10
109.3690348033869
 20
-111.0045938850093
 10
109.3690348033869
 20
-111.0045938850093
 10
109.3690348033869
 20
-111.0045938850093
 10
109.3690348033869
 20
-112.5488579362725
 10
109.3690348033869
 20
-112.5488579362725
 10
109.3690348033869
 20
-112.5488579362725
 10
109.1447590872971
 20
-112.5488579362725
 10
109.1447590872971
 20
-112.5488579362725
 97
        0
 97
        0
 75
     2
 76
     1
 98
        0
  0
SPLINE
  5
F3
330
ED
100
AcDbEntity
  8
_U+30EC_U+30A4_U+30E4_U+30FC 1
370
     0
100
AcDbSpline
210
0.0
220
0.0
230
1.0
 70
    11
 71
     3
 72
    53
 73
    49
 74
     0
 42
0.0000000001
 43
0.0000000001
 12
1.0
 22
0.0
 32
0.0
 13
1.0
 23
0.0
 33
0.0
 40
0.0
 40
0.0
 40
0.0
 40
0.0
 40
1.0
 40
1.0
 40
1.0
 40
2.0
 40
2.0
 40
2.0
 40
3.0
 40
3.0
 40
3.0
 40
4.0
 40
4.0
 40
4.0
 40
5.0
 40
5.0
 40
5.0
 40
6.0
 40
6.0
 40
6.0
 40
7.0
 40
7.0
 40
7.0
 40
8.0
 40
8.0
 40
8.0
 40
9.0
 40
9.0
 40
9.0
 40
10.0
 40
10.0
 40
10.0
 40
11.0
 40
11.0
 40
11.0
 40
12.0
 40
12.0
 40
12.0
 40
13.0
 40
13.0
 40
13.0
 40
14.0
 40
14.0
 40
14.0
 40
15.0
 40
15.0
 40
15.0
 40
16.0
 40
16.0
 40
16.0
 40
16.0
 10
110.3512315262316
 20
-112.5996730946799
 30
0.0
 10
110.2730278587165
 20
-112.5996730946799
 30
0.0
 10
110.1713975419016
 20
-112.582619872028
 30
0.0
 10
110.0697672250867
 20
-112.5192301150994
 30
0.0
 10
109.8964789221787
 20
-112.4091593143456
 30
0.0
 10
109.8751193301701
 20
-112.2780734311319
 30
0.0
 10
109.8561713050012
 20
-112.1702419424436
 30
0.0
 10
109.8561713050012
 20
-112.1702419424436
 30
0.0
 10
110.0783799637999
 20
-112.1702419424436
 30
0.0
 10
110.0783799637999
 20
-112.1702419424436
 30
0.0
 10
110.1331569820153
 20
-112.3690239519425
 30
0.0
 10
110.260281005421
 20
-112.3986517731156
 30
0.0
 10
110.3532985835228
 20
-112.3986517731156
 30
0.0
 10
110.4928249506754
 20
-112.3986517731156
 30
0.0
 10
110.6450981711235
 20
-112.2992607683662
 30
0.0
 10
110.6450981711235
 20
-112.0665445683375
 30
0.0
 10
110.6450981711235
 20
-111.8105739737835
 30
0.0
 10
110.4652641867934
 20
-111.7408107902072
 30
0.0
 10
110.3446858448097
 20
-111.7408107902072
 30
0.0
 10
110.3129909663454
 20
-111.7408107902072
 30
0.0
 10
110.1713975419016
 20
-111.7408107902072
 30
0.0
 10
110.0825140783822
 20
-111.8698296161298
 30
0.0
 10
110.0825140783822
 20
-111.8698296161298
 30
0.0
 10
109.9068142086344
 20
-111.8507093361866
 30
0.0
 10
109.9068142086344
 20
-111.8507093361866
 30
0.0
 10
109.9068142086344
 20
-111.8507093361866
 30
0.0
 10
110.0273925506182
 20
-111.0045938850093
 30
0.0
 10
110.0273925506182
 20
-111.0045938850093
 30
0.0
 10
110.0273925506182
 20
-111.0045938850093
 30
0.0
 10
110.8059841302846
 20
-111.0045938850093
 30
0.0
 10
110.8059841302846
 20
-111.0045938850093
 30
0.0
 10
110.8059841302846
 20
-111.0045938850093
 30
0.0
 10
110.8059841302846
 20
-111.1992417799259
 30
0.0
 10
110.8059841302846
 20
-111.1992417799259
 30
0.0
 10
110.8059841302846
 20
-111.1992417799259
 30
0.0
 10
110.1903455670705
 20
-111.1992417799259
 30
0.0
 10
110.1903455670705
 20
-111.1992417799259
 30
0.0
 10
110.1903455670705
 20
-111.1992417799259
 30
0.0
 10
110.1248887528507
 20
-111.6222995055146
 30
0.0
 10
110.1248887528507
 20
-111.6222995055146
 30
0.0
 10
110.1862114524882
 20
-111.5883653149849
 30
0.0
 10
110.2685492345856
 20
-111.5482299525817
 30
0.0
 10
110.3870605192782
 20
-111.5482299525817
 30
0.0
 10
110.6409640565412
 20
-111.5482299525817
 30
0.0
 10
110.8779866259263
 20
-111.7344373635595
 30
0.0
 10
110.8779866259263
 20
-112.0474242883944
 30
0.0
 10
110.8779866259263
 20
-112.3648898373602
 30
0.0
 10
110.6537109098366
 20
-112.5996730946799
 30
0.0
 10
110.3512315262316
 20
-112.5996730946799
 30
0.0
  0
HATCH
  5
F4
330
ED
100
AcDbEntity
  8
_U+30EC_U+30A4_U+30E4_U+30FC 1
 62
   179
420
  2234388
100
AcDbHatch
 10
0.0
 20
0.0
 30
0.0
210
0.0
220
0.0
230
1.0
  2
SOLID
 70
     1
 71
     0
 91
        1
 92
        1
 93
        1
 72
     4
 94
        3
 73
     0
 74
     1
 95
       53
 96
       49
 40
0.0
 40
0.0
 40
0.0
 40
0.0
 40
1.0
 40
1.0
 40
1.0
 40
2.0
 40
2.0
 40
2.0
 40
3.0
 40
3.0
 40
3.0
 40
4.0
 40
4.0
 40
4.0
 40
5.0
 40
5.0
 40
5.0
 40
6.0
 40
6.0
 40
6.0
 40
7.0
 40
7.0
 40
7.0
 40
8.0
 40
8.0
 40
8.0
 40
9.0
 40
9.0
 40
9.0
 40
10.0
 40
10.0
 40
10.0
 40
11.0
 40
11.0
 40
11.0
 40
12.0
 40
12.0
 40
12.0
 40
13.0
 40
13.0
 40
13.0
 40
14.0
 40
14.0
 40
14.0
 40
15.0
 40
15.0
 40
15.0
 40
16.0
 40
16.0
 40
16.0
 40
16.0
 10
110.3512315262316
 20
-112.5996730946799
 10
110.2730278587165
 20
-112.5996730946799
 10
110.1713975419016
 20
-112.582619872028
 10
110.0697672250867
 20
-112.5192301150994
 10
109.8964789221787
 20
-112.4091593143456
 10
109.8751193301701
 20
-112.2780734311319
 10
109.8561713050012
 20
-112.1702419424436
 10
109.8561713050012
 20
-112.1702419424436
 10
110.0783799637999
 20
-112.1702419424436
 10
110.0783799637999
 20
-112.1702419424436
 10
110.1331569820153
 20
-112.3690239519425
 10
110.260281005421
 20
-112.3986517731156
 10
110.3532985835228
 20
-112.3986517731156
 10
110.4928249506754
 20
-112.3986517731156
 10
110.6450981711235
 20
-112.2992607683662
 10
110.6450981711235
 20
-112.0665445683375
 10
110.6450981711235
 20
-111.8105739737835
 10
110.4652641867934
 20
-111.7408107902072
 10
110.3446858448097
 20
-111.7408107902072
 10
110.3129909663454
 20
-111.7408107902072
 10
110.1713975419016
 20
-111.7408107902072
 10
110.0825140783822
 20
-111.8698296161298
 10
110.0825140783822
 20
-111.8698296161298
 10
109.9068142086344
 20
-111.8507093361866
 10
109.9068142086344
 20
-111.8507093361866
 10
109.9068142086344
 20
-111.8507093361866
 10
110.0273925506182
 20
-111.0045938850093
 10
110.0273925506182
 20
-111.0045938850093
 10
110.0273925506182
 20
-111.0045938850093
 10
110.8059841302846
 20
-111.0045938850093
 10
110.8059841302846
 20
-111.0045938850093
 10
110.8059841302846
 20
-111.0045938850093
 10
110.8059841302846
 20
-111.1992417799259
 10
110.8059841302846
 20
-111.1992417799259
 10
110.8059841302846
 20
-111.1992417799259
 10
110.1903455670705
 20
-111.1992417799259
 10
110.1903455670705
 20
-111.1992417799259
 10
110.1903455670705
 20
-111.1992417799259
 10
110.1248887528507
 20
-111.6222995055146
 10
110.1248887528507
 20
-111.6222995055146
 10
110.1862114524882
 20
-111.5883653149849
 10
110.2685492345856
 20
-111.5482299525817
 10
110.3870605192782
 20
-111.5482299525817
 10
110.6409640565412
 20
-111.5482299525817
 10
110.8779866259263
 20
-111.7344373635595
 10
110.8779866259263
 20
-112.0474242883944
 10
110.8779866259263
 20
-112.3648898373602
 10
110.6537109098366
 20
-112.5996730946799
 10
110.3512315262316
 20
-112.5996730946799
 97
        0
 97
        0
 75
     2
 76
     1
 98
        0
  0
ENDBLK
  5
F0
330
ED
100
AcDbEntity
  8
0
100
AcDbBlockEnd
  0
BLOCK
  5
F7
330
F5
100
AcDbEntity
  8
0
100
AcDbBlockBegin
  2
block 4
 70
     0
 10
0.0
 20
0.0
 30
0.0
  3
block 4
  1

  0
SPLINE
  5
F9
330
F5
100
AcDbEntity
  8
_U+30EC_U+30A4_U+30E4_U+30FC 1
370
     0
100
AcDbSpline
210
0.0
220
0.0
230
1.0
 70
    11
 71
     3
 72
    32
 73
    28
 74
     0
 42
0.0000000001
 43
0.0000000001
 12
1.0
 22
0.0
 32
0.0
 13
1.0
 23
0.0
 33
0.0
 40
0.0
 40
0.0
 40
0.0
 40
0.0
 40
1.0
 40
1.0
 40
1.0
 40
2.0
 40
2.0
 40
2.0
 40
3.0
 40
3.0
 40
3.0
 40
4.0
 40
4.0
 40
4.0
 40
5.0
 40
5.0
 40
5.0
 40
6.0
 40
6.0
 40
6.0
 40
7.0
 40
7.0
 40
7.0
 40
8.0
 40
8.0
 40
8.0
 40
9.0
 40
9.0
 40
9.0
 40
9.0
 10
86.69772268882905
 20
-145.5997259835653
 30
0.0
 10
86.18147513036436
 20
-145.5997259835653
 30
0.0
 10
86.17303464642549
 20
-145.0457546295372
 30
0.0
 10
86.17303464642549
 20
-144.8318141999032
 30
0.0
 10
86.17303464642549
 20
-144.6013373119399
 30
0.0
 10
86.19215492636863
 20
-143.9540038702615
 30
0.0
 10
86.73579099394105
 20
-143.9540038702615
 30
0.0
 10
86.90925155162338
 20
-143.9540038702615
 30
0.0
 10
87.15471460494744
 20
-144.0239393086121
 30
0.0
 10
87.19278291005945
 20
-144.3560465133902
 30
0.0
 10
87.19278291005945
 20
-144.3560465133902
 30
0.0
 10
86.9790147351997
 20
-144.3560465133902
 30
0.0
 10
86.9790147351997
 20
-144.3560465133902
 30
0.0
 10
86.96850719396969
 20
-144.298857928335
 30
0.0
 10
86.93681231550538
 20
-144.1507188224693
 30
0.0
 10
86.73372393664991
 20
-144.1507188224693
 30
0.0
 10
86.44175209427499
 20
-144.1507188224693
 30
0.0
 10
86.40144447709756
 20
-144.4786919126651
 30
0.0
 10
86.3888698785764
 20
-144.6836750940374
 30
0.0
 10
86.48188745667814
 20
-144.6054714265223
 30
0.0
 10
86.54958358296331
 20
-144.546215784176
 30
0.0
 10
86.7314846245845
 20
-144.546215784176
 30
0.0
 10
86.91131860891454
 20
-144.546215784176
 30
0.0
 10
87.21379799251947
 20
-144.6543917824128
 30
0.0
 10
87.21379799251947
 20
-145.0605685401237
 30
0.0
 10
87.21379799251947
 20
-145.3799288916064
 30
0.0
 10
87.01501598302056
 20
-145.5997259835653
 30
0.0
 10
86.69772268882905
 20
-145.5997259835653
 30
0.0
  0
SPLINE
  5
FA
330
F5
100
AcDbEntity
  8
_U+30EC_U+30A4_U+30E4_U+30FC 1
370
     0
100
AcDbSpline
210
0.0
220
0.0
230
1.0
 70
    11
 71
     3
 72
    17
 73
    13
 74
     0
 42
0.0000000001
 43
0.0000000001
 12
1.0
 22
0.0
 32
0.0
 13
1.0
 23
0.0
 33
0.0
 40
0.0
 40
0.0
 40
0.0
 40
0.0
 40
1.0
 40
1.0
 40
1.0
 40
2.0
 40
2.0
 40
2.0
 40
3.0
 40
3.0
 40
3.0
 40
4.0
 40
4.0
 40
4.0
 40
4.0
 10
86.71460365670677
 20
-144.7408636790926
 30
0.0
 10
86.452259635505
 20
-144.7408636790926
 30
0.0
 10
86.41419133039298
 20
-144.9523925418869
 30
0.0
 10
86.41419133039298
 20
-145.0688367692883
 30
0.0
 10
86.41419133039298
 20
-145.2445366390361
 30
0.0
 10
86.50944822056015
 20
-145.4074896554884
 30
0.0
 10
86.69341631947249
 20
-145.4074896554884
 30
0.0
 10
86.81399466145622
 20
-145.4074896554884
 30
0.0
 10
86.98969453120397
 20
-145.3482340131421
 30
0.0
 10
86.98969453120397
 20
-145.0626355974149
 30
0.0
 10
86.98969453120397
 20
-144.8383598813251
 30
0.0
 10
86.84999590927708
 20
-144.7408636790926
 30
0.0
 10
86.71460365670677
 20
-144.7408636790926
 30
0.0
  0
HATCH
  5
FB
330
F5
100
AcDbEntity
  8
_U+30EC_U+30A4_U+30E4_U+30FC 1
 62
   179
420
  2234388
100
AcDbHatch
 10
0.0
 20
0.0
 30
0.0
210
0.0
220
0.0
230
1.0
  2
SOLID
 70
     1
 71
     0
 91
        2
 92
        1
 93
        1
 72
     4
 94
        3
 73
     0
 74
     1
 95
       32
 96
       28
 40
0.0
 40
0.0
 40
0.0
 40
0.0
 40
1.0
 40
1.0
 40
1.0
 40
2.0
 40
2.0
 40
2.0
 40
3.0
 40
3.0
 40
3.0
 40
4.0
 40
4.0
 40
4.0
 40
5.0
 40
5.0
 40
5.0
 40
6.0
 40
6.0
 40
6.0
 40
7.0
 40
7.0
 40
7.0
 40
8.0
 40
8.0
 40
8.0
 40
9.0
 40
9.0
 40
9.0
 40
9.0
 10
86.69772268882905
 20
-145.5997259835653
 10
86.18147513036436
 20
-145.5997259835653
 10
86.17303464642549
 20
-145.0457546295372
 10
86.17303464642549
 20
-144.8318141999032
 10
86.17303464642549
 20
-144.6013373119399
 10
86.19215492636863
 20
-143.9540038702615
 10
86.73579099394105
 20
-143.9540038702615
 10
86.90925155162338
 20
-143.9540038702615
 10
87.15471460494744
 20
-144.0239393086121
 10
87.19278291005945
 20
-144.3560465133902
 10
87.19278291005945
 20
-144.3560465133902
 10
86.9790147351997
 20
-144.3560465133902
 10
86.9790147351997
 20
-144.3560465133902
 10
86.96850719396969
 20
-144.298857928335
 10
86.93681231550538
 20
-144.1507188224693
 10
86.73372393664991
 20
-144.1507188224693
 10
86.44175209427499
 20
-144.1507188224693
 10
86.40144447709756
 20
-144.4786919126651
 10
86.3888698785764
 20
-144.6836750940374
 10
86.48188745667814
 20
-144.6054714265223
 10
86.54958358296331
 20
-144.546215784176
 10
86.7314846245845
 20
-144.546215784176
 10
86.91131860891454
 20
-144.546215784176
 10
87.21379799251947
 20
-144.6543917824128
 10
87.21379799251947
 20
-145.0605685401237
 10
87.21379799251947
 20
-145.3799288916064
 10
87.01501598302056
 20
-145.5997259835653
 10
86.69772268882905
 20
-145.5997259835653
 97
        0
 97
        0
 92
        1
 93
        1
 72
     4
 94
        3
 73
     0
 74
     1
 95
       17
 96
       13
 40
0.0
 40
0.0
 40
0.0
 40
0.0
 40
1.0
 40
1.0
 40
1.0
 40
2.0
 40
2.0
 40
2.0
 40
3.0
 40
3.0
 40
3.0
 40
4.0
 40
4.0
 40
4.0
 40
4.0
 10
86.71460365670677
 20
-144.7408636790926
 10
86.452259635505
 20
-144.7408636790926
 10
86.41419133039298
 20
-144.9523925418869
 10
86.41419133039298
 20
-145.0688367692883
 10
86.41419133039298
 20
-145.2445366390361
 10
86.50944822056015
 20
-145.4074896554884
 10
86.69341631947249
 20
-145.4074896554884
 10
86.81399466145622
 20
-145.4074896554884
 10
86.98969453120397
 20
-145.3482340131421
 10
86.98969453120397
 20
-145.0626355974149
 10
86.98969453120397
 20
-144.8383598813251
 10
86.84999590927708
 20
-144.7408636790926
 10
86.71460365670677
 20
-144.7408636790926
 97
        0
 97
        0
 75
     2
 76
     1
 98
        0
  0
SPLINE
  5
FC
330
F5
100
AcDbEntity
  8
_U+30EC_U+30A4_U+30E4_U+30FC 1
370
     0
100
AcDbSpline
210
0.0
220
0.0
230
1.0
 70
    11
 71
     3
 72
    29
 73
    25
 74
     0
 42
0.0000000001
 43
0.0000000001
 12
1.0
 22
0.0
 32
0.0
 13
1.0
 23
0.0
 33
0.0
 40
0.0
 40
0.0
 40
0.0
 40
0.0
 40
1.0
 40
1.0
 40
1.0
 40
2.0
 40
2.0
 40
2.0
 40
3.0
 40
3.0
 40
3.0
 40
4.0
 40
4.0
 40
4.0
 40
5.0
 40
5.0
 40
5.0
 40
6.0
 40
6.0
 40
6.0
 40
7.0
 40
7.0
 40
7.0
 40
8.0
 40
8.0
 40
8.0
 40
8.0
 10
88.26816946578019
 20
-145.3713161528933
 30
0.0
 10
88.15999346754334
 20
-145.5807779583965
 30
0.0
 10
87.98670516463527
 20
-145.5997259835653
 30
0.0
 10
87.87026093723382
 20
-145.5997259835653
 30
0.0
 10
87.70937497807266
 20
-145.5997259835653
 30
0.0
 10
87.56778155362889
 20
-145.5532171945145
 30
0.0
 10
87.472696918236
 20
-145.3713161528933
 30
0.0
 10
87.36899954412998
 20
-145.1766682579767
 30
0.0
 10
87.34987926418684
 20
-144.9396456885915
 30
0.0
 10
87.34987926418684
 20
-144.7770371816877
 30
0.0
 10
87.34987926418684
 20
-144.6330321904042
 30
0.0
 10
87.36676023206456
 20
-144.3811957104325
 30
0.0
 10
87.472696918236
 20
-144.1824137009336
 30
0.0
 10
87.58052840692432
 20
-143.9794975768524
 30
0.0
 10
87.74141436608548
 20
-143.9560709275526
 30
0.0
 10
87.87026093723382
 20
-143.9560709275526
 30
0.0
 10
88.02907983910384
 20
-143.9560709275526
 30
0.0
 10
88.17274032083877
 20
-144.0005126593124
 30
0.0
 10
88.26816946578019
 20
-144.1824137009336
 30
0.0
 10
88.36738821575538
 20
-144.374994538559
 30
0.0
 10
88.39081486505508
 20
-144.6034043692311
 30
0.0
 10
88.39081486505508
 20
-144.7770371816877
 30
0.0
 10
88.39081486505508
 20
-144.9482584273046
 30
0.0
 10
88.36945527304653
 20
-145.1787353152678
 30
0.0
 10
88.26816946578019
 20
-145.3713161528933
 30
0.0
  0
SPLINE
  5
FD
330
F5
100
AcDbEntity
  8
_U+30EC_U+30A4_U+30E4_U+30FC 1
370
     0
100
AcDbSpline
210
0.0
220
0.0
230
1.0
 70
    11
 71
     3
 72
    17
 73
    13
 74
     0
 42
0.0000000001
 43
0.0000000001
 12
1.0
 22
0.0
 32
0.0
 13
1.0
 23
0.0
 33
0.0
 40
0.0
 40
0.0
 40
0.0
 40
0.0
 40
1.0
 40
1.0
 40
1.0
 40
2.0
 40
2.0
 40
2.0
 40
3.0
 40
3.0
 40
3.0
 40
4.0
 40
4.0
 40
4.0
 40
4.0
 10
87.87026093723382
 20
-144.1486517651781
 30
0.0
 10
87.62083602410173
 20
-144.1486517651781
 30
0.0
 10
87.57398272550235
 20
-144.4321831236142
 30
0.0
 10
87.57398272550235
 20
-144.7770371816877
 30
0.0
 10
87.57398272550235
 20
-145.0963975331703
 30
0.0
 10
87.61015622809747
 20
-145.4050780886487
 30
0.0
 10
87.87026093723382
 20
-145.4050780886487
 30
0.0
 10
88.1179633026233
 20
-145.4050780886487
 30
0.0
 10
88.16653914896531
 20
-145.1239582970524
 30
0.0
 10
88.16653914896531
 20
-144.7770371816877
 30
0.0
 10
88.16653914896531
 20
-144.4573323206565
 30
0.0
 10
88.12829858907904
 20
-144.1486517651781
 30
0.0
 10
87.87026093723382
 20
-144.1486517651781
 30
0.0
  0
HATCH
  5
FE
330
F5
100
AcDbEntity
  8
_U+30EC_U+30A4_U+30E4_U+30FC 1
 62
   179
420
  2234388
100
AcDbHatch
 10
0.0
 20
0.0
 30
0.0
210
0.0
220
0.0
230
1.0
  2
SOLID
 70
     1
 71
     0
 91
        2
 92
        1
 93
        1
 72
     4
 94
        3
 73
     0
 74
     1
 95
       29
 96
       25
 40
0.0
 40
0.0
 40
0.0
 40
0.0
 40
1.0
 40
1.0
 40
1.0
 40
2.0
 40
2.0
 40
2.0
 40
3.0
 40
3.0
 40
3.0
 40
4.0
 40
4.0
 40
4.0
 40
5.0
 40
5.0
 40
5.0
 40
6.0
 40
6.0
 40
6.0
 40
7.0
 40
7.0
 40
7.0
 40
8.0
 40
8.0
 40
8.0
 40
8.0
 10
88.26816946578019
 20
-145.3713161528933
 10
88.15999346754334
 20
-145.5807779583965
 10
87.98670516463527
 20
-145.5997259835653
 10
87.87026093723382
 20
-145.5997259835653
 10
87.70937497807266
 20
-145.5997259835653
 10
87.56778155362889
 20
-145.5532171945145
 10
87.472696918236
 20
-145.3713161528933
 10
87.36899954412998
 20
-145.1766682579767
 10
87.34987926418684
 20
-144.9396456885915
 10
87.34987926418684
 20
-144.7770371816877
 10
87.34987926418684
 20
-144.6330321904042
 10
87.36676023206456
 20
-144.3811957104325
 10
87.472696918236
 20
-144.1824137009336
 10
87.58052840692432
 20
-143.9794975768524
 10
87.74141436608548
 20
-143.9560709275526
 10
87.87026093723382
 20
-143.9560709275526
 10
88.02907983910384
 20
-143.9560709275526
 10
88.17274032083877
 20
-144.0005126593124
 10
88.26816946578019
 20
-144.1824137009336
 10
88.36738821575538
 20
-144.374994538559
 10
88.39081486505508
 20
-144.6034043692311
 10
88.39081486505508
 20
-144.7770371816877
 10
88.39081486505508
 20
-144.9482584273046
 10
88.36945527304653
 20
-145.1787353152678
 10
88.26816946578019
 20
-145.3713161528933
 97
        0
 97
        0
 92
        1
 93
        1
 72
     4
 94
        3
 73
     0
 74
     1
 95
       17
 96
       13
 40
0.0
 40
0.0
 40
0.0
 40
0.0
 40
1.0
 40
1.0
 40
1.0
 40
2.0
 40
2.0
 40
2.0
 40
3.0
 40
3.0
 40
3.0
 40
4.0
 40
4.0
 40
4.0
 40
4.0
 10
87.87026093723382
 20
-144.1486517651781
 10
87.62083602410173
 20
-144.1486517651781
 10
87.57398272550235
 20
-144.4321831236142
 10
87.57398272550235
 20
-144.7770371816877
 10
87.57398272550235
 20
-145.0963975331703
 10
87.61015622809747
 20
-145.4050780886487
 10
87.87026093723382
 20
-145.4050780886487
 10
88.1179633026233
 20
-145.4050780886487
 10
88.16653914896531
 20
-145.1239582970524
 10
88.16653914896531
 20
-144.7770371816877
 10
88.16653914896531
 20
-144.4573323206565
 10
88.12829858907904
 20
-144.1486517651781
 10
87.87026093723382
 20
-144.1486517651781
 97
        0
 97
        0
 75
     2
 76
     1
 98
        0
  0
ENDBLK
  5
F8
330
F5
100
AcDbEntity
  8
0
100
AcDbBlockEnd
  0
BLOCK
  5
101
330
FF
100
AcDbEntity
  8
0
100
AcDbBlockBegin
  2
block 5
 70
     0
 10
0.0
 20
0.0
 30
0.0
  3
block 5
  1

  0
SPLINE
  5
103
330
FF
100
AcDbEntity
  8
_U+30EC_U+30A4_U+30E4_U+30FC 1
370
     0
100
AcDbSpline
210
0.0
220
0.0
230
1.0
 70
    11
 71
     3
 72
    44
 73
    40
 74
     0
 42
0.0000000001
 43
0.0000000001
 12
1.0
 22
0.0
 32
0.0
 13
1.0
 23
0.0
 33
0.0
 40
0.0
 40
0.0
 40
0.0
 40
0.0
 40
1.0
 40
1.0
 40
1.0
 40
2.0
 40
2.0
 40
2.0
 40
3.0
 40
3.0
 40
3.0
 40
4.0
 40
4.0
 40
4.0
 40
5.0
 40
5.0
 40
5.0
 40
6.0
 40
6.0
 40
6.0
 40
7.0
 40
7.0
 40
7.0
 40
8.0
 40
8.0
 40
8.0
 40
9.0
 40
9.0
 40
9.0
 40
10.0
 40
10.0
 40
10.0
 40
11.0
 40
11.0
 40
11.0
 40
12.0
 40
12.0
 40
12.0
 40
13.0
 40
13.0
 40
13.0
 40
13.0
 10
118.9464002523815
 20
-130.1905028971399
 30
0.0
 10
119.1052191542515
 20
-130.4082329318077
 30
0.0
 10
119.1792887071844
 20
-130.5012505099094
 30
0.0
 10
119.3229491889193
 20
-130.5501708658
 30
0.0
 10
119.3229491889193
 20
-130.5501708658
 30
0.0
 10
119.3229491889193
 20
-129.7715792861335
 30
0.0
 10
119.3229491889193
 20
-129.7715792861335
 30
0.0
 10
119.3229491889193
 20
-129.7715792861335
 30
0.0
 10
119.5282768798402
 20
-129.7715792861335
 30
0.0
 10
119.5282768798402
 20
-129.7715792861335
 30
0.0
 10
119.5282768798402
 20
-129.7715792861335
 30
0.0
 10
119.5282768798402
 20
-130.7995957789321
 30
0.0
 10
119.5282768798402
 20
-130.7995957789321
 30
0.0
 10
119.1706759684712
 20
-130.7679009004678
 30
0.0
 10
119.0924723009561
 20
-130.702444086248
 30
0.0
 10
118.7941270319334
 20
-130.3172824109971
 30
0.0
 10
118.5953450224345
 20
-130.061311816443
 30
0.0
 10
118.5274766413751
 20
-129.9958550022233
 30
0.0
 10
118.3900173315136
 20
-129.9958550022233
 30
0.0
 10
118.271506046821
 20
-129.9958550022233
 30
0.0
 10
118.1405924183815
 20
-130.067857497865
 30
0.0
 10
118.1405924183815
 20
-130.2645724500728
 30
0.0
 10
118.1405924183815
 20
-130.5246771592091
 30
0.0
 10
118.3710693063447
 20
-130.5332898979222
 30
0.0
 10
118.4875135337462
 20
-130.5374240125045
 30
0.0
 10
118.4875135337462
 20
-130.5374240125045
 30
0.0
 10
118.4875135337462
 20
-130.7616997285943
 30
0.0
 10
118.4875135337462
 20
-130.7616997285943
 30
0.0
 10
118.3603895103405
 20
-130.7530869898812
 30
0.0
 10
118.2484239070698
 20
-130.7424071938769
 30
0.0
 10
118.1299126223772
 20
-130.6621364690706
 30
0.0
 10
117.9690266632161
 20
-130.5522379230911
 30
0.0
 10
117.9352647274606
 20
-130.3658582573391
 30
0.0
 10
117.9352647274606
 20
-130.2497585394862
 30
0.0
 10
117.9352647274606
 20
-129.9724283529236
 30
0.0
 10
118.119232826373
 20
-129.7650336047115
 30
0.0
 10
118.3920843888048
 20
-129.7650336047115
 30
0.0
 10
118.6208387290254
 20
-129.7650336047115
 30
0.0
 10
118.7200574790005
 20
-129.881477832113
 30
0.0
 10
118.9464002523815
 20
-130.1905028971399
 30
0.0
  0
HATCH
  5
104
330
FF
100
AcDbEntity
  8
_U+30EC_U+30A4_U+30E4_U+30FC 1
 62
   179
420
  2234388
100
AcDbHatch
 10
0.0
 20
0.0
 30
0.0
210
0.0
220
0.0
230
1.0
  2
SOLID
 70
     1
 71
     0
 91
        1
 92
        1
 93
        1
 72
     4
 94
        3
 73
     0
 74
     1
 95
       44
 96
       40
 40
0.0
 40
0.0
 40
0.0
 40
0.0
 40
1.0
 40
1.0
 40
1.0
 40
2.0
 40
2.0
 40
2.0
 40
3.0
 40
3.0
 40
3.0
 40
4.0
 40
4.0
 40
4.0
 40
5.0
 40
5.0
 40
5.0
 40
6.0
 40
6.0
 40
6.0
 40
7.0
 40
7.0
 40
7.0
 40
8.0
 40
8.0
 40
8.0
 40
9.0
 40
9.0
 40
9.0
 40
10.0
 40
10.0
 40
10.0
 40
11.0
 40
11.0
 40
11.0
 40
12.0
 40
12.0
 40
12.0
 40
13.0
 40
13.0
 40
13.0
 40
13.0
 10
118.9464002523815
 20
-130.1905028971399
 10
119.1052191542515
 20
-130.4082329318077
 10
119.1792887071844
 20
-130.5012505099094
 10
119.3229491889193
 20
-130.5501708658
 10
119.3229491889193
 20
-130.5501708658
 10
119.3229491889193
 20
-129.7715792861335
 10
119.3229491889193
 20
-129.7715792861335
 10
119.3229491889193
 20
-129.7715792861335
 10
119.5282768798402
 20
-129.7715792861335
 10
119.5282768798402
 20
-129.7715792861335
 10
119.5282768798402
 20
-129.7715792861335
 10
119.5282768798402
 20
-130.7995957789321
 10
119.5282768798402
 20
-130.7995957789321
 10
119.1706759684712
 20
-130.7679009004678
 10
119.0924723009561
 20
-130.702444086248
 10
118.7941270319334
 20
-130.3172824109971
 10
118.5953450224345
 20
-130.061311816443
 10
118.5274766413751
 20
-129.9958550022233
 10
118.3900173315136
 20
-129.9958550022233
 10
118.271506046821
 20
-129.9958550022233
 10
118.1405924183815
 20
-130.067857497865
 10
118.1405924183815
 20
-130.2645724500728
 10
118.1405924183815
 20
-130.5246771592091
 10
118.3710693063447
 20
-130.5332898979222
 10
118.4875135337462
 20
-130.5374240125045
 10
118.4875135337462
 20
-130.5374240125045
 10
118.4875135337462
 20
-130.7616997285943
 10
118.4875135337462
 20
-130.7616997285943
 10
118.3603895103405
 20
-130.7530869898812
 10
118.2484239070698
 20
-130.7424071938769
 10
118.1299126223772
 20
-130.6621364690706
 10
117.9690266632161
 20
-130.5522379230911
 10
117.9352647274606
 20
-130.3658582573391
 10
117.9352647274606
 20
-130.2497585394862
 10
117.9352647274606
 20
-129.9724283529236
 10
118.119232826373
 20
-129.7650336047115
 10
118.3920843888048
 20
-129.7650336047115
 10
118.6208387290254
 20
-129.7650336047115
 10
118.7200574790005
 20
-129.881477832113
 10
118.9464002523815
 20
-130.1905028971399
 97
        0
 97
        0
 75
     2
 76
     1
 98
        0
  0
SPLINE
  5
105
330
FF
100
AcDbEntity
  8
_U+30EC_U+30A4_U+30E4_U+30FC 1
370
     0
100
AcDbSpline
210
0.0
220
0.0
230
1.0
 70
    11
 71
     3
 72
    53
 73
    49
 74
     0
 42
0.0000000001
 43
0.0000000001
 12
1.0
 22
0.0
 32
0.0
 13
1.0
 23
0.0
 33
0.0
 40
0.0
 40
0.0
 40
0.0
 40
0.0
 40
1.0
 40
1.0
 40
1.0
 40
2.0
 40
2.0
 40
2.0
 40
3.0
 40
3.0
 40
3.0
 40
4.0
 40
4.0
 40
4.0
 40
5.0
 40
5.0
 40
5.0
 40
6.0
 40
6.0
 40
6.0
 40
7.0
 40
7.0
 40
7.0
 40
8.0
 40
8.0
 40
8.0
 40
9.0
 40
9.0
 40
9.0
 40
10.0
 40
10.0
 40
10.0
 40
11.0
 40
11.0
 40
11.0
 40
12.0
 40
12.0
 40
12.0
 40
13.0
 40
13.0
 40
13.0
 40
14.0
 40
14.0
 40
14.0
 40
15.0
 40
15.0
 40
15.0
 40
16.0
 40
16.0
 40
16.0
 40
16.0
 10
119.5789197834733
 20
-129.1256238826492
 30
0.0
 10
119.5789197834733
 20
-129.2038275501643
 30
0.0
 10
119.5620388155956
 20
-129.3054578669792
 30
0.0
 10
119.498649058667
 20
-129.4070881837941
 30
0.0
 10
119.3887505126875
 20
-129.5803764867021
 30
0.0
 10
119.2574923746995
 20
-129.6017360787107
 30
0.0
 10
119.1496608860112
 20
-129.6206841038796
 30
0.0
 10
119.1496608860112
 20
-129.6206841038796
 30
0.0
 10
119.1496608860112
 20
-129.3984754450809
 30
0.0
 10
119.1496608860112
 20
-129.3984754450809
 30
0.0
 10
119.3484428955101
 20
-129.3436984268655
 30
0.0
 10
119.3780707166833
 20
-129.2165744034598
 30
0.0
 10
119.3780707166833
 20
-129.123556825358
 30
0.0
 10
119.3780707166833
 20
-128.9840304582054
 30
0.0
 10
119.2785074571595
 20
-128.8317572377574
 30
0.0
 10
119.0459635119052
 20
-128.8317572377574
 30
0.0
 10
118.7899929173511
 20
-128.8317572377574
 30
0.0
 10
118.7200574790005
 20
-129.0115912220874
 30
0.0
 10
118.7200574790005
 20
-129.1321695640711
 30
0.0
 10
118.7200574790005
 20
-129.1638644425354
 30
0.0
 10
118.7200574790005
 20
-129.3054578669792
 30
0.0
 10
118.8492485596974
 20
-129.3943413304986
 30
0.0
 10
118.8492485596974
 20
-129.3943413304986
 30
0.0
 10
118.8303005345285
 20
-129.5700412002464
 30
0.0
 10
118.8303005345285
 20
-129.5700412002464
 30
0.0
 10
118.8303005345285
 20
-129.5700412002464
 30
0.0
 10
117.9838405738027
 20
-129.4494628582626
 30
0.0
 10
117.9838405738027
 20
-129.4494628582626
 30
0.0
 10
117.9838405738027
 20
-129.4494628582626
 30
0.0
 10
117.9838405738027
 20
-128.6708712785962
 30
0.0
 10
117.9838405738027
 20
-128.6708712785962
 30
0.0
 10
117.9838405738027
 20
-128.6708712785962
 30
0.0
 10
118.1784884687193
 20
-128.6708712785962
 30
0.0
 10
118.1784884687193
 20
-128.6708712785962
 30
0.0
 10
118.1784884687193
 20
-128.6708712785962
 30
0.0
 10
118.1784884687193
 20
-129.2865098418103
 30
0.0
 10
118.1784884687193
 20
-129.2865098418103
 30
0.0
 10
118.1784884687193
 20
-129.2865098418103
 30
0.0
 10
118.601546194308
 20
-129.3519666560301
 30
0.0
 10
118.601546194308
 20
-129.3519666560301
 30
0.0
 10
118.5677842585525
 20
-129.2906439563926
 30
0.0
 10
118.5274766413751
 20
-129.2083061742952
 30
0.0
 10
118.5274766413751
 20
-129.0897948896026
 30
0.0
 10
118.5274766413751
 20
-128.8358913523396
 30
0.0
 10
118.7138563071271
 20
-128.5988687829545
 30
0.0
 10
119.0270154867363
 20
-128.5988687829545
 30
0.0
 10
119.3443087809278
 20
-128.5988687829545
 30
0.0
 10
119.5789197834733
 20
-128.8231444990442
 30
0.0
 10
119.5789197834733
 20
-129.1256238826492
 30
0.0
  0
HATCH
  5
106
330
FF
100
AcDbEntity
  8
_U+30EC_U+30A4_U+30E4_U+30FC 1
 62
   179
420
  2234388
100
AcDbHatch
 10
0.0
 20
0.0
 30
0.0
210
0.0
220
0.0
230
1.0
  2
SOLID
 70
     1
 71
     0
 91
        1
 92
        1
 93
        1
 72
     4
 94
        3
 73
     0
 74
     1
 95
       53
 96
       49
 40
0.0
 40
0.0
 40
0.0
 40
0.0
 40
1.0
 40
1.0
 40
1.0
 40
2.0
 40
2.0
 40
2.0
 40
3.0
 40
3.0
 40
3.0
 40
4.0
 40
4.0
 40
4.0
 40
5.0
 40
5.0
 40
5.0
 40
6.0
 40
6.0
 40
6.0
 40
7.0
 40
7.0
 40
7.0
 40
8.0
 40
8.0
 40
8.0
 40
9.0
 40
9.0
 40
9.0
 40
10.0
 40
10.0
 40
10.0
 40
11.0
 40
11.0
 40
11.0
 40
12.0
 40
12.0
 40
12.0
 40
13.0
 40
13.0
 40
13.0
 40
14.0
 40
14.0
 40
14.0
 40
15.0
 40
15.0
 40
15.0
 40
16.0
 40
16.0
 40
16.0
 40
16.0
 10
119.5789197834733
 20
-129.1256238826492
 10
119.5789197834733
 20
-129.2038275501643
 10
119.5620388155956
 20
-129.3054578669792
 10
119.498649058667
 20
-129.4070881837941
 10
119.3887505126875
 20
-129.5803764867021
 10
119.2574923746995
 20
-129.6017360787107
 10
119.1496608860112
 20
-129.6206841038796
 10
119.1496608860112
 20
-129.6206841038796
 10
119.1496608860112
 20
-129.3984754450809
 10
119.1496608860112
 20
-129.3984754450809
 10
119.3484428955101
 20
-129.3436984268655
 10
119.3780707166833
 20
-129.2165744034598
 10
119.3780707166833
 20
-129.123556825358
 10
119.3780707166833
 20
-128.9840304582054
 10
119.2785074571595
 20
-128.8317572377574
 10
119.0459635119052
 20
-128.8317572377574
 10
118.7899929173511
 20
-128.8317572377574
 10
118.7200574790005
 20
-129.0115912220874
 10
118.7200574790005
 20
-129.1321695640711
 10
118.7200574790005
 20
-129.1638644425354
 10
118.7200574790005
 20
-129.3054578669792
 10
118.8492485596974
 20
-129.3943413304986
 10
118.8492485596974
 20
-129.3943413304986
 10
118.8303005345285
 20
-129.5700412002464
 10
118.8303005345285
 20
-129.5700412002464
 10
118.8303005345285
 20
-129.5700412002464
 10
117.9838405738027
 20
-129.4494628582626
 10
117.9838405738027
 20
-129.4494628582626
 10
117.9838405738027
 20
-129.4494628582626
 10
117.9838405738027
 20
-128.6708712785962
 10
117.9838405738027
 20
-128.6708712785962
 10
117.9838405738027
 20
-128.6708712785962
 10
118.1784884687193
 20
-128.6708712785962
 10
118.1784884687193
 20
-128.6708712785962
 10
118.1784884687193
 20
-128.6708712785962
 10
118.1784884687193
 20
-129.2865098418103
 10
118.1784884687193
 20
-129.2865098418103
 10
118.1784884687193
 20
-129.2865098418103
 10
118.601546194308
 20
-129.3519666560301
 10
118.601546194308
 20
-129.3519666560301
 10
118.5677842585525
 20
-129.2906439563926
 10
118.5274766413751
 20
-129.2083061742952
 10
118.5274766413751
 20
-129.0897948896026
 10
118.5274766413751
 20
-128.8358913523396
 10
118.7138563071271
 20
-128.5988687829545
 10
119.0270154867363
 20
-128.5988687829545
 10
119.3443087809278
 20
-128.5988687829545
 10
119.5789197834733
 20
-128.8231444990442
 10
119.5789197834733
 20
-129.1256238826492
 97
        0
 97
        0
 75
     2
 76
     1
 98
        0
  0
ENDBLK
  5
102
330
FF
100
AcDbEntity
  8
0
100
AcDbBlockEnd
  0
BLOCK
  5
109
330
107
100
AcDbEntity
  8
0
100
AcDbBlockBegin
  2
block 6
 70
     0
 10
0.0
 20
0.0
 30
0.0
  3
block 6
  1

  0
SPLINE
  5
10B
330
107
100
AcDbEntity
  8
_U+30EC_U+30A4_U+30E4_U+30FC 1
370
     0
100
AcDbSpline
210
0.0
220
0.0
230
1.0
 70
    11
 71
     3
 72
    29
 73
    25
 74
     0
 42
0.0000000001
 43
0.0000000001
 12
1.0
 22
0.0
 32
0.0
 13
1.0
 23
0.0
 33
0.0
 40
0.0
 40
0.0
 40
0.0
 40
0.0
 40
1.0
 40
1.0
 40
1.0
 40
2.0
 40
2.0
 40
2.0
 40
3.0
 40
3.0
 40
3.0
 40
4.0
 40
4.0
 40
4.0
 40
5.0
 40
5.0
 40
5.0
 40
6.0
 40
6.0
 40
6.0
 40
7.0
 40
7.0
 40
7.0
 40
8.0
 40
8.0
 40
8.0
 40
8.0
 10
97.68706052245324
 20
-121.195014075604
 30
0.0
 10
97.68706052245324
 20
-121.4616644661624
 30
0.0
 10
97.54960121259177
 20
-121.7152234938767
 30
0.0
 10
97.20061303993596
 20
-121.7152234938767
 30
0.0
 10
96.9446424453819
 20
-121.7152234938767
 30
0.0
 10
96.84955780998901
 20
-121.573630069433
 30
0.0
 10
96.78823511035155
 20
-121.4678656380358
 30
0.0
 10
96.72897946800526
 20
-121.5925780946019
 30
0.0
 10
96.61460229789496
 20
-121.6687147048259
 30
0.0
 10
96.4537163387338
 20
-121.6687147048259
 30
0.0
 10
96.17879771901086
 20
-121.6687147048259
 30
0.0
 10
96.04340546644055
 20
-121.469932695327
 30
0.0
 10
96.04340546644055
 20
-121.195014075604
 30
0.0
 10
96.04340546644055
 20
-120.911482717168
 30
0.0
 10
96.18741045772398
 20
-120.7209689368337
 30
0.0
 10
96.4537163387338
 20
-120.7209689368337
 30
0.0
 10
96.61460229789496
 20
-120.7209689368337
 30
0.0
 10
96.72897946800526
 20
-120.7995171138974
 30
0.0
 10
96.78823511035155
 20
-120.9242295704634
 30
0.0
 10
96.83887801398473
 20
-120.8353461069439
 30
0.0
 10
96.93396264937762
 20
-120.6765272050739
 30
0.0
 10
97.19647892535366
 20
-120.6765272050739
 30
0.0
 10
97.57096080460032
 20
-120.6765272050739
 30
0.0
 10
97.68706052245324
 20
-120.9559244489277
 30
0.0
 10
97.68706052245324
 20
-121.195014075604
 30
0.0
  0
SPLINE
  5
10C
330
107
100
AcDbEntity
  8
_U+30EC_U+30A4_U+30E4_U+30FC 1
370
     0
100
AcDbSpline
210
0.0
220
0.0
230
1.0
 70
    11
 71
     3
 72
    17
 73
    13
 74
     0
 42
0.0000000001
 43
0.0000000001
 12
1.0
 22
0.0
 32
0.0
 13
1.0
 23
0.0
 33
0.0
 40
0.0
 40
0.0
 40
0.0
 40
0.0
 40
1.0
 40
1.0
 40
1.0
 40
2.0
 40
2.0
 40
2.0
 40
3.0
 40
3.0
 40
3.0
 40
4.0
 40
4.0
 40
4.0
 40
4.0
 10
96.235986304066
 20
-121.195014075604
 30
0.0
 10
96.235986304066
 20
-121.3600341493475
 30
0.0
 10
96.3310709394589
 20
-121.4444389887361
 30
0.0
 10
96.46646319202922
 20
-121.4444389887361
 30
0.0
 10
96.58910859130411
 20
-121.4444389887361
 30
0.0
 10
96.70761987599671
 20
-121.3727810026429
 30
0.0
 10
96.70761987599671
 20
-121.195014075604
 30
0.0
 10
96.70761987599671
 20
-121.0172471485651
 30
0.0
 10
96.58910859130411
 20
-120.9452446529234
 30
0.0
 10
96.46646319202922
 20
-120.9452446529234
 30
0.0
 10
96.3310709394589
 20
-120.9452446529234
 30
0.0
 10
96.235986304066
 20
-121.0320610591517
 30
0.0
 10
96.235986304066
 20
-121.195014075604
 30
0.0
  0
SPLINE
  5
10D
330
107
100
AcDbEntity
  8
_U+30EC_U+30A4_U+30E4_U+30FC 1
370
     0
100
AcDbSpline
210
0.0
220
0.0
230
1.0
 70
    11
 71
     3
 72
    17
 73
    13
 74
     0
 42
0.0000000001
 43
0.0000000001
 12
1.0
 22
0.0
 32
0.0
 13
1.0
 23
0.0
 33
0.0
 40
0.0
 40
0.0
 40
0.0
 40
0.0
 40
1.0
 40
1.0
 40
1.0
 40
2.0
 40
2.0
 40
2.0
 40
3.0
 40
3.0
 40
3.0
 40
4.0
 40
4.0
 40
4.0
 40
4.0
 10
96.89606659903988
 20
-121.195014075604
 30
0.0
 10
96.89606659903988
 20
-121.3386745573389
 30
0.0
 10
96.98288300526818
 20
-121.4912922873355
 30
0.0
 10
97.18579912934939
 20
-121.4912922873355
 30
0.0
 10
97.39112682027027
 20
-121.4912922873355
 30
0.0
 10
97.49241262753662
 20
-121.3641682639298
 30
0.0
 10
97.49241262753662
 20
-121.195014075604
 30
0.0
 10
97.49241262753662
 20
-121.0089789194005
 30
0.0
 10
97.36976722826174
 20
-120.8987358638725
 30
0.0
 10
97.19200030122283
 20
-120.8987358638725
 30
0.0
 10
96.97013615197275
 20
-120.8987358638725
 30
0.0
 10
96.89606659903988
 20
-121.0616888803249
 30
0.0
 10
96.89606659903988
 20
-121.195014075604
 30
0.0
  0
HATCH
  5
10E
330
107
100
AcDbEntity
  8
_U+30EC_U+30A4_U+30E4_U+30FC 1
 62
   179
420
  2234388
100
AcDbHatch
 10
0.0
 20
0.0
 30
0.0
210
0.0
220
0.0
230
1.0
  2
SOLID
 70
     1
 71
     0
 91
        3
 92
        1
 93
        1
 72
     4
 94
        3
 73
     0
 74
     1
 95
       29
 96
       25
 40
0.0
 40
0.0
 40
0.0
 40
0.0
 40
1.0
 40
1.0
 40
1.0
 40
2.0
 40
2.0
 40
2.0
 40
3.0
 40
3.0
 40
3.0
 40
4.0
 40
4.0
 40
4.0
 40
5.0
 40
5.0
 40
5.0
 40
6.0
 40
6.0
 40
6.0
 40
7.0
 40
7.0
 40
7.0
 40
8.0
 40
8.0
 40
8.0
 40
8.0
 10
97.68706052245324
 20
-121.195014075604
 10
97.68706052245324
 20
-121.4616644661624
 10
97.54960121259177
 20
-121.7152234938767
 10
97.20061303993596
 20
-121.7152234938767
 10
96.9446424453819
 20
-121.7152234938767
 10
96.84955780998901
 20
-121.573630069433
 10
96.78823511035155
 20
-121.4678656380358
 10
96.72897946800526
 20
-121.5925780946019
 10
96.61460229789496
 20
-121.6687147048259
 10
96.4537163387338
 20
-121.6687147048259
 10
96.17879771901086
 20
-121.6687147048259
 10
96.04340546644055
 20
-121.469932695327
 10
96.04340546644055
 20
-121.195014075604
 10
96.04340546644055
 20
-120.911482717168
 10
96.18741045772398
 20
-120.7209689368337
 10
96.4537163387338
 20
-120.7209689368337
 10
96.61460229789496
 20
-120.7209689368337
 10
96.72897946800526
 20
-120.7995171138974
 10
96.78823511035155
 20
-120.9242295704634
 10
96.83887801398473
 20
-120.8353461069439
 10
96.93396264937762
 20
-120.6765272050739
 10
97.19647892535366
 20
-120.6765272050739
 10
97.57096080460032
 20
-120.6765272050739
 10
97.68706052245324
 20
-120.9559244489277
 10
97.68706052245324
 20
-121.195014075604
 97
        0
 97
        0
 92
        1
 93
        1
 72
     4
 94
        3
 73
     0
 74
     1
 95
       17
 96
       13
 40
0.0
 40
0.0
 40
0.0
 40
0.0
 40
1.0
 40
1.0
 40
1.0
 40
2.0
 40
2.0
 40
2.0
 40
3.0
 40
3.0
 40
3.0
 40
4.0
 40
4.0
 40
4.0
 40
4.0
 10
96.235986304066
 20
-121.195014075604
 10
96.235986304066
 20
-121.3600341493475
 10
96.3310709394589
 20
-121.4444389887361
 10
96.46646319202922
 20
-121.4444389887361
 10
96.58910859130411
 20
-121.4444389887361
 10
96.70761987599671
 20
-121.3727810026429
 10
96.70761987599671
 20
-121.195014075604
 10
96.70761987599671
 20
-121.0172471485651
 10
96.58910859130411
 20
-120.9452446529234
 10
96.46646319202922
 20
-120.9452446529234
 10
96.3310709394589
 20
-120.9452446529234
 10
96.235986304066
 20
-121.0320610591517
 10
96.235986304066
 20
-121.195014075604
 97
        0
 97
        0
 92
        1
 93
        1
 72
     4
 94
        3
 73
     0
 74
     1
 95
       17
 96
       13
 40
0.0
 40
0.0
 40
0.0
 40
0.0
 40
1.0
 40
1.0
 40
1.0
 40
2.0
 40
2.0
 40
2.0
 40
3.0
 40
3.0
 40
3.0
 40
4.0
 40
4.0
 40
4.0
 40
4.0
 10
96.89606659903988
 20
-121.195014075604
 10
96.89606659903988
 20
-121.3386745573389
 10
96.98288300526818
 20
-121.4912922873355
 10
97.18579912934939
 20
-121.4912922873355
 10
97.39112682027027
 20
-121.4912922873355
 10
97.49241262753662
 20
-121.3641682639298
 10
97.49241262753662
 20
-121.195014075604
 10
97.49241262753662
 20
-121.0089789194005
 10
97.36976722826174
 20
-120.8987358638725
 10
97.19200030122283
 20
-120.8987358638725
 10
96.97013615197275
 20
-120.8987358638725
 10
96.89606659903988
 20
-121.0616888803249
 10
96.89606659903988
 20
-121.195014075604
 97
        0
 97
        0
 75
     2
 76
     1
 98
        0
  0
ENDBLK
  5
10A
330
107
100
AcDbEntity
  8
0
100
AcDbBlockEnd
  0
BLOCK
  5
111
330
10F
100
AcDbEntity
  8
0
100
AcDbBlockBegin
  2
block 7
 70
     0
 10
0.0
 20
0.0
 30
0.0
  3
block 7
  1

  0
SPLINE
  5
113
330
10F
100
AcDbEntity
  8
_U+30EC_U+30A4_U+30E4_U+30FC 1
370
     0
100
AcDbSpline
210
0.0
220
0.0
230
1.0
 70
    11
 71
     3
 72
    44
 73
    40
 74
     0
 42
0.0000000001
 43
0.0000000001
 12
1.0
 22
0.0
 32
0.0
 13
1.0
 23
0.0
 33
0.0
 40
0.0
 40
0.0
 40
0.0
 40
0.0
 40
1.0
 40
1.0
 40
1.0
 40
2.0
 40
2.0
 40
2.0
 40
3.0
 40
3.0
 40
3.0
 40
4.0
 40
4.0
 40
4.0
 40
5.0
 40
5.0
 40
5.0
 40
6.0
 40
6.0
 40
6.0
 40
7.0
 40
7.0
 40
7.0
 40
8.0
 40
8.0
 40
8.0
 40
9.0
 40
9.0
 40
9.0
 40
10.0
 40
10.0
 40
10.0
 40
11.0
 40
11.0
 40
11.0
 40
12.0
 40
12.0
 40
12.0
 40
13.0
 40
13.0
 40
13.0
 40
13.0
 10
121.7376166145309
 20
-141.1018093180232
 30
0.0
 10
121.8964355164009
 20
-141.319539352691
 30
0.0
 10
121.9705050693338
 20
-141.4125569307927
 30
0.0
 10
122.1141655510687
 20
-141.4614772866832
 30
0.0
 10
122.1141655510687
 20
-141.4614772866832
 30
0.0
 10
122.1141655510687
 20
-140.6828857070168
 30
0.0
 10
122.1141655510687
 20
-140.6828857070168
 30
0.0
 10
122.1141655510687
 20
-140.6828857070168
 30
0.0
 10
122.3194932419896
 20
-140.6828857070168
 30
0.0
 10
122.3194932419896
 20
-140.6828857070168
 30
0.0
 10
122.3194932419896
 20
-140.6828857070168
 30
0.0
 10
122.3194932419896
 20
-141.7109021998153
 30
0.0
 10
122.3194932419896
 20
-141.7109021998153
 30
0.0
 10
121.9618923306206
 20
-141.679207321351
 30
0.0
 10
121.8836886631055
 20
-141.6137505071313
 30
0.0
 10
121.5853433940828
 20
-141.2285888318804
 30
0.0
 10
121.3865613845839
 20
-140.9726182373263
 30
0.0
 10
121.3186930035245
 20
-140.9071614231065
 30
0.0
 10
121.181233693663
 20
-140.9071614231065
 30
0.0
 10
121.0627224089704
 20
-140.9071614231065
 30
0.0
 10
120.9318087805309
 20
-140.9791639187483
 30
0.0
 10
120.9318087805309
 20
-141.175878870956
 30
0.0
 10
120.9318087805309
 20
-141.4359835800924
 30
0.0
 10
121.1622856684941
 20
-141.4445963188055
 30
0.0
 10
121.2787298958956
 20
-141.4487304333878
 30
0.0
 10
121.2787298958956
 20
-141.4487304333878
 30
0.0
 10
121.2787298958956
 20
-141.6730061494776
 30
0.0
 10
121.2787298958956
 20
-141.6730061494776
 30
0.0
 10
121.1516058724899
 20
-141.6643934107645
 30
0.0
 10
121.0396402692193
 20
-141.6537136147602
 30
0.0
 10
120.9211289845267
 20
-141.5734428899539
 30
0.0
 10
120.7602430253655
 20
-141.4635443439744
 30
0.0
 10
120.72648108961
 20
-141.2771646782224
 30
0.0
 10
120.72648108961
 20
-141.1610649603695
 30
0.0
 10
120.72648108961
 20
-140.8837347738069
 30
0.0
 10
120.9104491885224
 20
-140.6763400255948
 30
0.0
 10
121.1833007509542
 20
-140.6763400255948
 30
0.0
 10
121.4120550911748
 20
-140.6763400255948
 30
0.0
 10
121.51127384115
 20
-140.7927842529963
 30
0.0
 10
121.7376166145309
 20
-141.1018093180232
 30
0.0
  0
HATCH
  5
114
330
10F
100
AcDbEntity
  8
_U+30EC_U+30A4_U+30E4_U+30FC 1
 62
   179
420
  2234388
100
AcDbHatch
 10
0.0
 20
0.0
 30
0.0
210
0.0
220
0.0
230
1.0
  2
SOLID
 70
     1
 71
     0
 91
        1
 92
        1
 93
        1
 72
     4
 94
        3
 73
     0
 74
     1
 95
       44
 96
       40
 40
0.0
 40
0.0
 40
0.0
 40
0.0
 40
1.0
 40
1.0
 40
1.0
 40
2.0
 40
2.0
 40
2.0
 40
3.0
 40
3.0
 40
3.0
 40
4.0
 40
4.0
 40
4.0
 40
5.0
 40
5.0
 40
5.0
 40
6.0
 40
6.0
 40
6.0
 40
7.0
 40
7.0
 40
7.0
 40
8.0
 40
8.0
 40
8.0
 40
9.0
 40
9.0
 40
9.0
 40
10.0
 40
10.0
 40
10.0
 40
11.0
 40
11.0
 40
11.0
 40
12.0
 40
12.0
 40
12.0
 40
13.0
 40
13.0
 40
13.0
 40
13.0
 10
121.7376166145309
 20
-141.1018093180232
 10
121.8964355164009
 20
-141.319539352691
 10
121.9705050693338
 20
-141.4125569307927
 10
122.1141655510687
 20
-141.4614772866832
 10
122.1141655510687
 20
-141.4614772866832
 10
122.1141655510687
 20
-140.6828857070168
 10
122.1141655510687
 20
-140.6828857070168
 10
122.1141655510687
 20
-140.6828857070168
 10
122.3194932419896
 20
-140.6828857070168
 10
122.3194932419896
 20
-140.6828857070168
 10
122.3194932419896
 20
-140.6828857070168
 10
122.3194932419896
 20
-141.7109021998153
 10
122.3194932419896
 20
-141.7109021998153
 10
121.9618923306206
 20
-141.679207321351
 10
121.8836886631055
 20
-141.6137505071313
 10
121.5853433940828
 20
-141.2285888318804
 10
121.3865613845839
 20
-140.9726182373263
 10
121.3186930035245
 20
-140.9071614231065
 10
121.181233693663
 20
-140.9071614231065
 10
121.0627224089704
 20
-140.9071614231065
 10
120.9318087805309
 20
-140.9791639187483
 10
120.9318087805309
 20
-141.175878870956
 10
120.9318087805309
 20
-141.4359835800924
 10
121.1622856684941
 20
-141.4445963188055
 10
121.2787298958956
 20
-141.4487304333878
 10
121.2787298958956
 20
-141.4487304333878
 10
121.2787298958956
 20
-141.6730061494776
 10
121.2787298958956
 20
-141.6730061494776
 10
121.1516058724899
 20
-141.6643934107645
 10
121.0396402692193
 20
-141.6537136147602
 10
120.9211289845267
 20
-141.5734428899539
 10
120.7602430253655
 20
-141.4635443439744
 10
120.72648108961
 20
-141.2771646782224
 10
120.72648108961
 20
-141.1610649603695
 10
120.72648108961
 20
-140.8837347738069
 10
120.9104491885224
 20
-140.6763400255948
 10
121.1833007509542
 20
-140.6763400255948
 10
121.4120550911748
 20
-140.6763400255948
 10
121.51127384115
 20
-140.7927842529963
 10
121.7376166145309
 20
-141.1018093180232
 97
        0
 97
        0
 75
     2
 76
     1
 98
        0
  0
ENDBLK
  5
112
330
10F
100
AcDbEntity
  8
0
100
AcDbBlockEnd
  0
ENDSEC
  0
SECTION
  2
ENTITIES
  0
POLYLINE
  5
41
330
1F
100
AcDbEntity
  8
_U+30EC_U+30A4_U+30E4_U+30FC 1
370
     0
100
AcDb2dPolyline
 66
     1
 10
0.0
 20
0.0
 30
0.0
  0
VERTEX
  5
42
330
41
100
AcDbEntity
  8
_U+30EC_U+30A4_U+30E4_U+30FC 1
370
     0
100
AcDbVertex
100
AcDb2dVertex
 10
102.2821285016766
 20
-125.1944127464792
 30
0.0
  0
VERTEX
  5
43
330
41
100
AcDbEntity
  8
_U+30EC_U+30A4_U+30E4_U+30FC 1
370
     0
100
AcDbVertex
100
AcDb2dVertex
 10
72.2822245448157
 20
-125.1944127464792
 30
0.0
  0
VERTEX
  5
44
330
41
100
AcDbEntity
  8
_U+30EC_U+30A4_U+30E4_U+30FC 1
370
     0
100
AcDbVertex
100
AcDb2dVertex
 10
72.2822245448157
 20
-117.1942241373681
 30
0.0
  0
VERTEX
  5
45
330
41
100
AcDbEntity
  8
_U+30EC_U+30A4_U+30E4_U+30FC 1
370
     0
100
AcDbVertex
100
AcDb2dVertex
 10
57.2822916523461
 20
-117.1942241373681
 30
0.0
  0
VERTEX
  5
46
330
41
100
AcDbEntity
  8
_U+30EC_U+30A4_U+30E4_U+30FC 1
370
     0
100
AcDbVertex
100
AcDb2dVertex
 10
57.2822916523461
 20
-142.1945974644512
 30
0.0
  0
VERTEX
  5
47
330
41
100
AcDbEntity
  8
_U+30EC_U+30A4_U+30E4_U+30FC 1
370
     0
100
AcDbVertex
100
AcDb2dVertex
 10
117.2820628412186
 20
-142.1945974644512
 30
0.0
  0
VERTEX
  5
48
330
41
100
AcDbEntity
  8
_U+30EC_U+30A4_U+30E4_U+30FC 1
370
     0
100
AcDbVertex
100
AcDb2dVertex
 10
117.2820628412186
 20
-117.1942241373681
 30
0.0
  0
VERTEX
  5
49
330
41
100
AcDbEntity
  8
_U+30EC_U+30A4_U+30E4_U+30FC 1
370
     0
100
AcDbVertex
100
AcDb2dVertex
 10
102.2821285016766
 20
-117.1942241373681
 30
0.0
  0
VERTEX
  5
4A
330
41
100
AcDbEntity
  8
_U+30EC_U+30A4_U+30E4_U+30FC 1
370
     0
100
AcDbVertex
100
AcDb2dVertex
 10
102.2821285016766
 20
-125.1944127464792
 30
0.0
  0
SEQEND
  5
4B
330
41
100
AcDbEntity
  8
_U+30EC_U+30A4_U+30E4_U+30FC 1
370
     0
  0
POLYLINE
  5
4C
330
1F
100
AcDbEntity
  8
_U+30EC_U+30A4_U+30E4_U+30FC 1
370
     0
100
AcDb2dPolyline
 66
     1
 10
0.0
 20
0.0
 30
0.0
  0
VERTEX
  5
4D
330
4C
100
AcDbEntity
  8
_U+30EC_U+30A4_U+30E4_U+30FC 1
370
     0
100
AcDbVertex
100
AcDb2dVertex
 10
104.2823431728691
 20
-119.1944388590902
 30
0.0
  0
VERTEX
  5
4E
330
4C
100
AcDbEntity
  8
_U+30EC_U+30A4_U+30E4_U+30FC 1
370
     0
100
AcDbVertex
100
AcDb2dVertex
 10
115.2825537255637
 20
-119.1944388590902
 30
0.0
  0
VERTEX
  5
4F
330
4C
100
AcDbEntity
  8
_U+30EC_U+30A4_U+30E4_U+30FC 1
370
     0
100
AcDbVertex
100
AcDb2dVertex
 10
115.2825537255637
 20
-140.1943827427294
 30
0.0
  0
VERTEX
  5
50
330
4C
100
AcDbEntity
  8
_U+30EC_U+30A4_U+30E4_U+30FC 1
370
     0
100
AcDbVertex
100
AcDb2dVertex
 10
59.28215209869741
 20
-140.1943827427294
 30
0.0
  0
VERTEX
  5
51
330
4C
100
AcDbEntity
  8
_U+30EC_U+30A4_U+30E4_U+30FC 1
370
     0
100
AcDbVertex
100
AcDb2dVertex
 10
59.28215209869741
 20
-119.1944388590902
 30
0.0
  0
VERTEX
  5
52
330
4C
100
AcDbEntity
  8
_U+30EC_U+30A4_U+30E4_U+30FC 1
370
     0
100
AcDbVertex
100
AcDb2dVertex
 10
70.28200987362321
 20
-119.1944388590902
 30
0.0
  0
VERTEX
  5
53
330
4C
100
AcDbEntity
  8
_U+30EC_U+30A4_U+30E4_U+30FC 1
370
     0
100
AcDbVertex
100
AcDb2dVertex
 10
70.28200987362321
 20
-127.1946627459792
 30
0.0
  0
VERTEX
  5
54
330
4C
100
AcDbEntity
  8
_U+30EC_U+30A4_U+30E4_U+30FC 1
370
     0
100
AcDbVertex
100
AcDb2dVertex
 10
104.2823431728691
 20
-127.1946627459792
 30
0.0
  0
VERTEX
  5
55
330
4C
100
AcDbEntity
  8
_U+30EC_U+30A4_U+30E4_U+30FC 1
370
     0
100
AcDbVertex
100
AcDb2dVertex
 10
104.2823431728691
 20
-119.1944388590902
 30
0.0
  0
SEQEND
  5
56
330
4C
100
AcDbEntity
  8
_U+30EC_U+30A4_U+30E4_U+30FC 1
370
     0
  0
HATCH
  5
57
330
1F
100
AcDbEntity
  8
_U+30EC_U+30A4_U+30E4_U+30FC 1
 62
   253
420
 11711154
100
AcDbHatch
 10
0.0
 20
0.0
 30
0.0
210
0.0
220
0.0
230
1.0
  2
SOLID
 70
     1
 71
     0
 91
        2
 92
        1
 93
        8
 72
     1
 10
102.2821285016766
 20
-125.1944127464792
 11
72.2822245448157
 21
-125.1944127464792
 72
     1
 10
72.2822245448157
 20
-125.1944127464792
 11
72.2822245448157
 21
-117.1942241373681
 72
     1
 10
72.2822245448157
 20
-117.1942241373681
 11
57.2822916523461
 21
-117.1942241373681
 72
     1
 10
57.2822916523461
 20
-117.1942241373681
 11
57.2822916523461
 21
-142.1945974644512
 72
     1
 10
57.2822916523461
 20
-142.1945974644512
 11
117.2820628412186
 21
-142.1945974644512
 72
     1
 10
117.2820628412186
 20
-142.1945974644512
 11
117.2820628412186
 21
-117.1942241373681
 72
     1
 10
117.2820628412186
 20
-117.1942241373681
 11
102.2821285016766
 21
-117.1942241373681
 72
     1
 10
102.2821285016766
 20
-117.1942241373681
 11
102.2821285016766
 21
-125.1944127464792
 97
        0
 92
        1
 93
        8
 72
     1
 10
104.2823431728691
 20
-119.1944388590902
 11
115.2825537255637
 21
-119.1944388590902
 72
     1
 10
115.2825537255637
 20
-119.1944388590902
 11
115.2825537255637
 21
-140.1943827427294
 72
     1
 10
115.2825537255637
 20
-140.1943827427294
 11
59.28215209869741
 21
-140.1943827427294
 72
     1
 10
59.28215209869741
 20
-140.1943827427294
 11
59.28215209869741
 21
-119.1944388590902
 72
     1
 10
59.28215209869741
 20
-119.1944388590902
 11
70.28200987362321
 21
-119.1944388590902
 72
     1
 10
70.28200987362321
 20
-119.1944388590902
 11
70.28200987362321
 21
-127.1946627459792
 72
     1
 10
70.28200987362321
 20
-127.1946627459792
 11
104.2823431728691
 21
-127.1946627459792
 72
     1
 10
104.2823431728691
 20
-127.1946627459792
 11
104.2823431728691
 21
-119.1944388590902
 97
        0
 75
     2
 76
     1
 98
        0
  0
POLYLINE
  5
58
330
1F
100
AcDbEntity
  8
_U+30EC_U+30A4_U+30E4_U+30FC 1
 62
   179
420
  2234388
370
    25
100
AcDb2dPolyline
 66
     1
 10
0.0
 20
0.0
 30
0.0
  0
VERTEX
  5
59
330
58
100
AcDbEntity
  8
_U+30EC_U+30A4_U+30E4_U+30FC 1
 62
   179
420
  2234388
370
    25
100
AcDbVertex
100
AcDb2dVertex
 10
57.2822916523461
 20
-142.1945974644512
 30
0.0
  0
VERTEX
  5
5A
330
58
100
AcDbEntity
  8
_U+30EC_U+30A4_U+30E4_U+30FC 1
 62
   179
420
  2234388
370
    25
100
AcDbVertex
100
AcDb2dVertex
 10
117.2820628412186
 20
-142.1945974644512
 30
0.0
  0
SEQEND
  5
5B
330
58
100
AcDbEntity
  8
_U+30EC_U+30A4_U+30E4_U+30FC 1
 62
   179
420
  2234388
370
    25
  0
POLYLINE
  5
5C
330
1F
100
AcDbEntity
  8
_U+30EC_U+30A4_U+30E4_U+30FC 1
 62
   179
420
  2234388
370
    25
100
AcDb2dPolyline
 66
     1
 10
0.0
 20
0.0
 30
0.0
  0
VERTEX
  5
5D
330
5C
100
AcDbEntity
  8
_U+30EC_U+30A4_U+30E4_U+30FC 1
 62
   179
420
  2234388
370
    25
100
AcDbVertex
100
AcDb2dVertex
 10
57.2822916523461
 20
-117.1942241373681
 30
0.0
  0
VERTEX
  5
5E
330
5C
100
AcDbEntity
  8
_U+30EC_U+30A4_U+30E4_U+30FC 1
 62
   179
420
  2234388
370
    25
100
AcDbVertex
100
AcDb2dVertex
 10
72.2822245448157
 20
-117.1942241373681
 30
0.0
  0
SEQEND
  5
5F
330
5C
100
AcDbEntity
  8
_U+30EC_U+30A4_U+30E4_U+30FC 1
 62
   179
420
  2234388
370
    25
  0
POLYLINE
  5
60
330
1F
100
AcDbEntity
  8
_U+30EC_U+30A4_U+30E4_U+30FC 1
 62
   179
420
  2234388
370
    25
100
AcDb2dPolyline
 66
     1
 10
0.0
 20
0.0
 30
0.0
  0
VERTEX
  5
61
330
60
100
AcDbEntity
  8
_U+30EC_U+30A4_U+30E4_U+30FC 1
 62
   179
420
  2234388
370
    25
100
AcDbVertex
100
AcDb2dVertex
 10
57.2822916523461
 20
-117.1942241373681
 30
0.0
  0
VERTEX
  5
62
330
60
100
AcDbEntity
  8
_U+30EC_U+30A4_U+30E4_U+30FC 1
 62
   179
420
  2234388
370
    25
100
AcDbVertex
100
AcDb2dVertex
 10
57.2822916523461
 20
-142.1945974644512
 30
0.0
  0
SEQEND
  5
63
330
60
100
AcDbEntity
  8
_U+30EC_U+30A4_U+30E4_U+30FC 1
 62
   179
420
  2234388
370
    25
  0
POLYLINE
  5
64
330
1F
100
AcDbEntity
  8
_U+30EC_U+30A4_U+30E4_U+30FC 1
 62
   179
420
  2234388
370
    25
100
AcDb2dPolyline
 66
     1
 10
0.0
 20
0.0
 30
0.0
  0
VERTEX
  5
65
330
64
100
AcDbEntity
  8
_U+30EC_U+30A4_U+30E4_U+30FC 1
 62
   179
420
  2234388
370
    25
100
AcDbVertex
100
AcDb2dVertex
 10
117.2820628412186
 20
-117.1942241373681
 30
0.0
  0
VERTEX
  5
66
330
64
100
AcDbEntity
  8
_U+30EC_U+30A4_U+30E4_U+30FC 1
 62
   179
420
  2234388
370
    25
100
AcDbVertex
100
AcDb2dVertex
 10
117.2820628412186
 20
-142.1945974644512
 30
0.0
  0
SEQEND
  5
67
330
64
100
AcDbEntity
  8
_U+30EC_U+30A4_U+30E4_U+30FC 1
 62
   179
420
  2234388
370
    25
  0
POLYLINE
  5
68
330
1F
100
AcDbEntity
  8
_U+30EC_U+30A4_U+30E4_U+30FC 1
 62
   179
420
  2234388
370
    25
100
AcDb2dPolyline
 66
     1
 10
0.0
 20
0.0
 30
0.0
  0
VERTEX
  5
69
330
68
100
AcDbEntity
  8
_U+30EC_U+30A4_U+30E4_U+30FC 1
 62
   179
420
  2234388
370
    25
100
AcDbVertex
100
AcDb2dVertex
 10
59.28215209869741
 20
-140.1943827427294
 30
0.0
  0
VERTEX
  5
6A
330
68
100
AcDbEntity
  8
_U+30EC_U+30A4_U+30E4_U+30FC 1
 62
   179
420
  2234388
370
    25
100
AcDbVertex
100
AcDb2dVertex
 10
115.2825537255637
 20
-140.1943827427294
 30
0.0
  0
SEQEND
  5
6B
330
68
100
AcDbEntity
  8
_U+30EC_U+30A4_U+30E4_U+30FC 1
 62
   179
420
  2234388
370
    25
  0
POLYLINE
  5
6C
330
1F
100
AcDbEntity
  8
_U+30EC_U+30A4_U+30E4_U+30FC 1
 62
   179
420
  2234388
370
    25
100
AcDb2dPolyline
 66
     1
 10
0.0
 20
0.0
 30
0.0
  0
VERTEX
  5
6D
330
6C
100
AcDbEntity
  8
_U+30EC_U+30A4_U+30E4_U+30FC 1
 62
   179
420
  2234388
370
    25
100
AcDbVertex
100
AcDb2dVertex
 10
115.2825537255637
 20
-119.1944388590902
 30
0.0
  0
VERTEX
  5
6E
330
6C
100
AcDbEntity
  8
_U+30EC_U+30A4_U+30E4_U+30FC 1
 62
   179
420
  2234388
370
    25
100
AcDbVertex
100
AcDb2dVertex
 10
115.2825537255637
 20
-140.1943827427294
 30
0.0
  0
SEQEND
  5
6F
330
6C
100
AcDbEntity
  8
_U+30EC_U+30A4_U+30E4_U+30FC 1
 62
   179
420
  2234388
370
    25
  0
POLYLINE
  5
70
330
1F
100
AcDbEntity
  8
_U+30EC_U+30A4_U+30E4_U+30FC 1
 62
   179
420
  2234388
370
    25
100
AcDb2dPolyline
 66
     1
 10
0.0
 20
0.0
 30
0.0
  0
VERTEX
  5
71
330
70
100
AcDbEntity
  8
_U+30EC_U+30A4_U+30E4_U+30FC 1
 62
   179
420
  2234388
370
    25
100
AcDbVertex
100
AcDb2dVertex
 10
59.28215209869741
 20
-119.1944388590902
 30
0.0
  0
VERTEX
  5
72
330
70
100
AcDbEntity
  8
_U+30EC_U+30A4_U+30E4_U+30FC 1
 62
   179
420
  2234388
370
    25
100
AcDbVertex
100
AcDb2dVertex
 10
70.28200987362321
 20
-119.1944388590902
 30
0.0
  0
SEQEND
  5
73
330
70
100
AcDbEntity
  8
_U+30EC_U+30A4_U+30E4_U+30FC 1
 62
   179
420
  2234388
370
    25
  0
POLYLINE
  5
74
330
1F
100
AcDbEntity
  8
_U+30EC_U+30A4_U+30E4_U+30FC 1
 62
   179
420
  2234388
370
    25
100
AcDb2dPolyline
 66
     1
 10
0.0
 20
0.0
 30
0.0
  0
VERTEX
  5
75
330
74
100
AcDbEntity
  8
_U+30EC_U+30A4_U+30E4_U+30FC 1
 62
   179
420
  2234388
370
    25
100
AcDbVertex
100
AcDb2dVertex
 10
59.28215209869741
 20
-119.1944388590902
 30
0.0
  0
VERTEX
  5
76
330
74
100
AcDbEntity
  8
_U+30EC_U+30A4_U+30E4_U+30FC 1
 62
   179
420
  2234388
370
    25
100
AcDbVertex
100
AcDb2dVertex
 10
59.28215209869741
 20
-140.1943827427294
 30
0.0
  0
SEQEND
  5
77
330
74
100
AcDbEntity
  8
_U+30EC_U+30A4_U+30E4_U+30FC 1
 62
   179
420
  2234388
370
    25
  0
POLYLINE
  5
78
330
1F
100
AcDbEntity
  8
_U+30EC_U+30A4_U+30E4_U+30FC 1
 62
   179
420
  2234388
370
    25
100
AcDb2dPolyline
 66
     1
 10
0.0
 20
0.0
 30
0.0
  0
VERTEX
  5
79
330
78
100
AcDbEntity
  8
_U+30EC_U+30A4_U+30E4_U+30FC 1
 62
   179
420
  2234388
370
    25
100
AcDbVertex
100
AcDb2dVertex
 10
102.2821285016766
 20
-117.1942241373681
 30
0.0
  0
VERTEX
  5
7A
330
78
100
AcDbEntity
  8
_U+30EC_U+30A4_U+30E4_U+30FC 1
 62
   179
420
  2234388
370
    25
100
AcDbVertex
100
AcDb2dVertex
 10
102.2821285016766
 20
-125.1944127464792
 30
0.0
  0
SEQEND
  5
7B
330
78
100
AcDbEntity
  8
_U+30EC_U+30A4_U+30E4_U+30FC 1
 62
   179
420
  2234388
370
    25
  0
POLYLINE
  5
7C
330
1F
100
AcDbEntity
  8
_U+30EC_U+30A4_U+30E4_U+30FC 1
 62
   179
420
  2234388
370
    25
100
AcDb2dPolyline
 66
     1
 10
0.0
 20
0.0
 30
0.0
  0
VERTEX
  5
7D
330
7C
100
AcDbEntity
  8
_U+30EC_U+30A4_U+30E4_U+30FC 1
 62
   179
420
  2234388
370
    25
100
AcDbVertex
100
AcDb2dVertex
 10
72.2822245448157
 20
-117.1942241373681
 30
0.0
  0
VERTEX
  5
7E
330
7C
100
AcDbEntity
  8
_U+30EC_U+30A4_U+30E4_U+30FC 1
 62
   179
420
  2234388
370
    25
100
AcDbVertex
100
AcDb2dVertex
 10
72.2822245448157
 20
-125.1944127464792
 30
0.0
  0
SEQEND
  5
7F
330
7C
100
AcDbEntity
  8
_U+30EC_U+30A4_U+30E4_U+30FC 1
 62
   179
420
  2234388
370
    25
  0
POLYLINE
  5
80
330
1F
100
AcDbEntity
  8
_U+30EC_U+30A4_U+30E4_U+30FC 1
 62
   179
420
  2234388
370
    25
100
AcDb2dPolyline
 66
     1
 10
0.0
 20
0.0
 30
0.0
  0
VERTEX
  5
81
330
80
100
AcDbEntity
  8
_U+30EC_U+30A4_U+30E4_U+30FC 1
 62
   179
420
  2234388
370
    25
100
AcDbVertex
100
AcDb2dVertex
 10
72.2822245448157
 20
-125.1944127464792
 30
0.0
  0
VERTEX
  5
82
330
80
100
AcDbEntity
  8
_U+30EC_U+30A4_U+30E4_U+30FC 1
 62
   179
420
  2234388
370
    25
100
AcDbVertex
100
AcDb2dVertex
 10
102.2821285016766
 20
-125.1944127464792
 30
0.0
  0
SEQEND
  5
83
330
80
100
AcDbEntity
  8
_U+30EC_U+30A4_U+30E4_U+30FC 1
 62
   179
420
  2234388
370
    25
  0
POLYLINE
  5
84
330
1F
100
AcDbEntity
  8
_U+30EC_U+30A4_U+30E4_U+30FC 1
 62
   179
420
  2234388
370
    25
100
AcDb2dPolyline
 66
     1
 10
0.0
 20
0.0
 30
0.0
  0
VERTEX
  5
85
330
84
100
AcDbEntity
  8
_U+30EC_U+30A4_U+30E4_U+30FC 1
 62
   179
420
  2234388
370
    25
100
AcDbVertex
100
AcDb2dVertex
 10
70.28200987362321
 20
-127.1946627459792
 30
0.0
  0
VERTEX
  5
86
330
84
100
AcDbEntity
  8
_U+30EC_U+30A4_U+30E4_U+30FC 1
 62
   179
420
  2234388
370
    25
100
AcDbVertex
100
AcDb2dVertex
 10
104.2823431728691
 20
-127.1946627459792
 30
0.0
  0
SEQEND
  5
87
330
84
100
AcDbEntity
  8
_U+30EC_U+30A4_U+30E4_U+30FC 1
 62
   179
420
  2234388
370
    25
  0
POLYLINE
  5
88
330
1F
100
AcDbEntity
  8
_U+30EC_U+30A4_U+30E4_U+30FC 1
 62
   179
420
  2234388
370
    25
100
AcDb2dPolyline
 66
     1
 10
0.0
 20
0.0
 30
0.0
  0
VERTEX
  5
89
330
88
100
AcDbEntity
  8
_U+30EC_U+30A4_U+30E4_U+30FC 1
 62
   179
420
  2234388
370
    25
100
AcDbVertex
100
AcDb2dVertex
 10
104.2823431728691
 20
-119.1944388590902
 30
0.0
  0
VERTEX
  5
8A
330
88
100
AcDbEntity
  8
_U+30EC_U+30A4_U+30E4_U+30FC 1
 62
   179
420
  2234388
370
    25
100
AcDbVertex
100
AcDb2dVertex
 10
104.2823431728691
 20
-127.1946627459792
 30
0.0
  0
SEQEND
  5
8B
330
88
100
AcDbEntity
  8
_U+30EC_U+30A4_U+30E4_U+30FC 1
 62
   179
420
  2234388
370
    25
  0
POLYLINE
  5
8C
330
1F
100
AcDbEntity
  8
_U+30EC_U+30A4_U+30E4_U+30FC 1
 62
   179
420
  2234388
370
    25
100
AcDb2dPolyline
 66
     1
 10
0.0
 20
0.0
 30
0.0
  0
VERTEX
  5
8D
330
8C
100
AcDbEntity
  8
_U+30EC_U+30A4_U+30E4_U+30FC 1
 62
   179
420
  2234388
370
    25
100
AcDbVertex
100
AcDb2dVertex
 10
70.28200987362321
 20
-119.1944388590902
 30
0.0
  0
VERTEX
  5
8E
330
8C
100
AcDbEntity
  8
_U+30EC_U+30A4_U+30E4_U+30FC 1
 62
   179
420
  2234388
370
    25
100
AcDbVertex
100
AcDb2dVertex
 10
70.28200987362321
 20
-127.1946627459792
 30
0.0
  0
SEQEND
  5
8F
330
8C
100
AcDbEntity
  8
_U+30EC_U+30A4_U+30E4_U+30FC 1
 62
   179
420
  2234388
370
    25
  0
POLYLINE
  5
90
330
1F
100
AcDbEntity
  8
_U+30EC_U+30A4_U+30E4_U+30FC 1
 62
   179
420
  2234388
370
    25
100
AcDb2dPolyline
 66
     1
 10
0.0
 20
0.0
 30
0.0
  0
VERTEX
  5
91
330
90
100
AcDbEntity
  8
_U+30EC_U+30A4_U+30E4_U+30FC 1
 62
   179
420
  2234388
370
    25
100
AcDbVertex
100
AcDb2dVertex
 10
102.2821285016766
 20
-117.1942241373681
 30
0.0
  0
VERTEX
  5
92
330
90
100
AcDbEntity
  8
_U+30EC_U+30A4_U+30E4_U+30FC 1
 62
   179
420
  2234388
370
    25
100
AcDbVertex
100
AcDb2dVertex
 10
117.2820628412186
 20
-117.1942241373681
 30
0.0
  0
SEQEND
  5
93
330
90
100
AcDbEntity
  8
_U+30EC_U+30A4_U+30E4_U+30FC 1
 62
   179
420
  2234388
370
    25
  0
POLYLINE
  5
94
330
1F
100
AcDbEntity
  8
_U+30EC_U+30A4_U+30E4_U+30FC 1
 62
   179
420
  2234388
370
    25
100
AcDb2dPolyline
 66
     1
 10
0.0
 20
0.0
 30
0.0
  0
VERTEX
  5
95
330
94
100
AcDbEntity
  8
_U+30EC_U+30A4_U+30E4_U+30FC 1
 62
   179
420
  2234388
370
    25
100
AcDbVertex
100
AcDb2dVertex
 10
104.2823431728691
 20
-119.1944388590902
 30
0.0
  0
VERTEX
  5
96
330
94
100
AcDbEntity
  8
_U+30EC_U+30A4_U+30E4_U+30FC 1
 62
   179
420
  2234388
370
    25
100
AcDbVertex
100
AcDb2dVertex
 10
115.2825537255637
 20
-119.1944388590902
 30
0.0
  0
SEQEND
  5
97
330
94
100
AcDbEntity
  8
_U+30EC_U+30A4_U+30E4_U+30FC 1
 62
   179
420
  2234388
370
    25
  0
SPLINE
  5
98
330
1F
100
AcDbEntity
  8
_U+30EC_U+30A4_U+30E4_U+30FC 1
 62
   179
420
  2234388
370
     9
100
AcDbSpline
210
0.0
220
0.0
230
1.0
 70
    11
 71
     3
 72
    17
 73
    13
 74
     0
 42
0.0000000001
 43
0.0000000001
 12
1.0
 22
0.0
 32
0.0
 13
1.0
 23
0.0
 33
0.0
 40
0.0
 40
0.0
 40
0.0
 40
0.0
 40
1.0
 40
1.0
 40
1.0
 40
2.0
 40
2.0
 40
2.0
 40
3.0
 40
3.0
 40
3.0
 40
4.0
 40
4.0
 40
4.0
 40
4.0
 10
57.38219686939153
 20
-113.1941121939238
 30
0.0
 10
57.38219686939153
 20
-113.1390083050485
 30
0.0
 10
57.33742937053364
 20
-113.0942055272821
 30
0.0
 10
57.2822916523461
 20
-113.0942055272821
 30
0.0
 10
57.22718631779063
 20
-113.0942055272821
 30
0.0
 10
57.18238354115586
 20
-113.1390083050485
 30
0.0
 10
57.18238354115586
 20
-113.1941121939238
 30
0.0
 10
57.18238354115586
 20
-113.2492513605765
 30
0.0
 10
57.22718631779063
 20
-113.2940188605654
 30
0.0
 10
57.2822916523461
 20
-113.2940188605654
 30
0.0
 10
57.33742937053364
 20
-113.2940188605654
 30
0.0
 10
57.38219686939153
 20
-113.2492513605765
 30
0.0
 10
57.38219686939153
 20
-113.1941121939238
 30
0.0
  0
SPLINE
  5
99
330
1F
100
AcDbEntity
  8
_U+30EC_U+30A4_U+30E4_U+30FC 1
 62
   179
420
  2234388
370
     9
100
AcDbSpline
210
0.0
220
0.0
230
1.0
 70
    11
 71
     3
 72
    17
 73
    13
 74
     0
 42
0.0000000001
 43
0.0000000001
 12
1.0
 22
0.0
 32
0.0
 13
1.0
 23
0.0
 33
0.0
 40
0.0
 40
0.0
 40
0.0
 40
0.0
 40
1.0
 40
1.0
 40
1.0
 40
2.0
 40
2.0
 40
2.0
 40
3.0
 40
3.0
 40
3.0
 40
4.0
 40
4.0
 40
4.0
 40
4.0
 10
72.38213120893354
 20
-113.1941121939238
 30
0.0
 10
72.38213120893354
 20
-113.1390083050485
 30
0.0
 10
72.33736371007566
 20
-113.0942055272821
 30
0.0
 10
72.2822245448157
 20
-113.0942055272821
 30
0.0
 10
72.22712065733263
 20
-113.0942055272821
 30
0.0
 10
72.18231788069788
 20
-113.1390083050485
 30
0.0
 10
72.18231788069788
 20
-113.1941121939238
 30
0.0
 10
72.18231788069788
 20
-113.2492513605765
 30
0.0
 10
72.22712065733263
 20
-113.2940188605654
 30
0.0
 10
72.2822245448157
 20
-113.2940188605654
 30
0.0
 10
72.33736371007566
 20
-113.2940188605654
 30
0.0
 10
72.38213120893354
 20
-113.2492513605765
 30
0.0
 10
72.38213120893354
 20
-113.1941121939238
 30
0.0
  0
SPLINE
  5
9A
330
1F
100
AcDbEntity
  8
_U+30EC_U+30A4_U+30E4_U+30FC 1
 62
   179
420
  2234388
370
     9
100
AcDbSpline
210
0.0
220
0.0
230
1.0
 70
    11
 71
     3
 72
    17
 73
    13
 74
     0
 42
0.0000000001
 43
0.0000000001
 12
1.0
 22
0.0
 32
0.0
 13
1.0
 23
0.0
 33
0.0
 40
0.0
 40
0.0
 40
0.0
 40
0.0
 40
1.0
 40
1.0
 40
1.0
 40
2.0
 40
2.0
 40
2.0
 40
3.0
 40
3.0
 40
3.0
 40
4.0
 40
4.0
 40
4.0
 40
4.0
 10
102.382740721332
 20
-113.1941121939238
 30
0.0
 10
102.382740721332
 20
-113.1390083050485
 30
0.0
 10
102.3379379446972
 20
-113.0942055272821
 30
0.0
 10
102.2821285016766
 20
-113.0942055272821
 30
0.0
 10
102.2269893364167
 20
-113.0942055272821
 30
0.0
 10
102.1822218375588
 20
-113.1390083050485
 30
0.0
 10
102.1822218375588
 20
-113.1941121939238
 30
0.0
 10
102.1822218375588
 20
-113.2492513605765
 30
0.0
 10
102.2269893364167
 20
-113.2940188605654
 30
0.0
 10
102.2821285016766
 20
-113.2940188605654
 30
0.0
 10
102.3379379446972
 20
-113.2940188605654
 30
0.0
 10
102.382740721332
 20
-113.2492513605765
 30
0.0
 10
102.382740721332
 20
-113.1941121939238
 30
0.0
  0
SPLINE
  5
9B
330
1F
100
AcDbEntity
  8
_U+30EC_U+30A4_U+30E4_U+30FC 1
 62
   179
420
  2234388
370
     9
100
AcDbSpline
210
0.0
220
0.0
230
1.0
 70
    11
 71
     3
 72
    17
 73
    13
 74
     0
 42
0.0000000001
 43
0.0000000001
 12
1.0
 22
0.0
 32
0.0
 13
1.0
 23
0.0
 33
0.0
 40
0.0
 40
0.0
 40
0.0
 40
0.0
 40
1.0
 40
1.0
 40
1.0
 40
2.0
 40
2.0
 40
2.0
 40
3.0
 40
3.0
 40
3.0
 40
4.0
 40
4.0
 40
4.0
 40
4.0
 10
98.38227610117015
 20
-117.1942241373681
 30
0.0
 10
98.38227610117015
 20
-117.1391202484929
 30
0.0
 10
98.33751108652689
 20
-117.0943174707265
 30
0.0
 10
98.28236943705231
 20
-117.0943174707265
 30
0.0
 10
98.22726554956924
 20
-117.0943174707265
 30
0.0
 10
98.18246277293447
 20
-117.1391202484929
 30
0.0
 10
98.18246277293447
 20
-117.1942241373681
 30
0.0
 10
98.18246277293447
 20
-117.2493633040208
 30
0.0
 10
98.22726554956924
 20
-117.2941308040097
 30
0.0
 10
98.28236943705231
 20
-117.2941308040097
 30
0.0
 10
98.33751108652689
 20
-117.2941308040097
 30
0.0
 10
98.38227610117015
 20
-117.2493633040208
 30
0.0
 10
98.38227610117015
 20
-117.1942241373681
 30
0.0
  0
SPLINE
  5
9C
330
1F
100
AcDbEntity
  8
_U+30EC_U+30A4_U+30E4_U+30FC 1
 62
   179
420
  2234388
370
     9
100
AcDbSpline
210
0.0
220
0.0
230
1.0
 70
    11
 71
     3
 72
    17
 73
    13
 74
     0
 42
0.0000000001
 43
0.0000000001
 12
1.0
 22
0.0
 32
0.0
 13
1.0
 23
0.0
 33
0.0
 40
0.0
 40
0.0
 40
0.0
 40
0.0
 40
1.0
 40
1.0
 40
1.0
 40
2.0
 40
2.0
 40
2.0
 40
3.0
 40
3.0
 40
3.0
 40
4.0
 40
4.0
 40
4.0
 40
4.0
 10
98.38227610117015
 20
-125.1944127464792
 30
0.0
 10
98.38227610117015
 20
-125.139308857604
 30
0.0
 10
98.33751108652689
 20
-125.0945060798376
 30
0.0
 10
98.28236943705231
 20
-125.0945060798376
 30
0.0
 10
98.22726554956924
 20
-125.0945060798376
 30
0.0
 10
98.18246277293447
 20
-125.139308857604
 30
0.0
 10
98.18246277293447
 20
-125.1944127464792
 30
0.0
 10
98.18246277293447
 20
-125.249551913132
 30
0.0
 10
98.22726554956924
 20
-125.2943194131209
 30
0.0
 10
98.28236943705231
 20
-125.2943194131209
 30
0.0
 10
98.33751108652689
 20
-125.2943194131209
 30
0.0
 10
98.38227610117015
 20
-125.249551913132
 30
0.0
 10
98.38227610117015
 20
-125.1944127464792
 30
0.0
  0
SPLINE
  5
9D
330
1F
100
AcDbEntity
  8
_U+30EC_U+30A4_U+30E4_U+30FC 1
 62
   179
420
  2234388
370
     9
100
AcDbSpline
210
0.0
220
0.0
230
1.0
 70
    11
 71
     3
 72
    17
 73
    13
 74
     0
 42
0.0000000001
 43
0.0000000001
 12
1.0
 22
0.0
 32
0.0
 13
1.0
 23
0.0
 33
0.0
 40
0.0
 40
0.0
 40
0.0
 40
0.0
 40
1.0
 40
1.0
 40
1.0
 40
2.0
 40
2.0
 40
2.0
 40
3.0
 40
3.0
 40
3.0
 40
4.0
 40
4.0
 40
4.0
 40
4.0
 10
117.382675060874
 20
-113.1941121939238
 30
0.0
 10
117.382675060874
 20
-113.1390083050485
 30
0.0
 10
117.3378722842393
 20
-113.0942055272821
 30
0.0
 10
117.2820628412186
 20
-113.0942055272821
 30
0.0
 10
117.2269589537356
 20
-113.0942055272821
 30
0.0
 10
117.1821561771008
 20
-113.1390083050485
 30
0.0
 10
117.1821561771008
 20
-113.1941121939238
 30
0.0
 10
117.1821561771008
 20
-113.2492513605765
 30
0.0
 10
117.2269589537356
 20
-113.2940188605654
 30
0.0
 10
117.2820628412186
 20
-113.2940188605654
 30
0.0
 10
117.3378722842393
 20
-113.2940188605654
 30
0.0
 10
117.382675060874
 20
-113.2492513605765
 30
0.0
 10
117.382675060874
 20
-113.1941121939238
 30
0.0
  0
SPLINE
  5
9E
330
1F
100
AcDbEntity
  8
_U+30EC_U+30A4_U+30E4_U+30FC 1
 62
   179
420
  2234388
370
     9
100
AcDbSpline
210
0.0
220
0.0
230
1.0
 70
    11
 71
     3
 72
    17
 73
    13
 74
     0
 42
0.0000000001
 43
0.0000000001
 12
1.0
 22
0.0
 32
0.0
 13
1.0
 23
0.0
 33
0.0
 40
0.0
 40
0.0
 40
0.0
 40
0.0
 40
1.0
 40
1.0
 40
1.0
 40
2.0
 40
2.0
 40
2.0
 40
3.0
 40
3.0
 40
3.0
 40
4.0
 40
4.0
 40
4.0
 40
4.0
 10
120.0726055478037
 20
-142.1945974644512
 30
0.0
 10
120.0726055478037
 20
-142.1394582977988
 30
0.0
 10
120.027802771169
 20
-142.0946907978096
 30
0.0
 10
119.9726988836859
 20
-142.0946907978096
 30
0.0
 10
119.9175597184259
 20
-142.0946907978096
 30
0.0
 10
119.8727922195681
 20
-142.1394582977988
 30
0.0
 10
119.8727922195681
 20
-142.1945974644512
 30
0.0
 10
119.8727922195681
 20
-142.2497013533268
 30
0.0
 10
119.9175597184259
 20
-142.2945041310929
 30
0.0
 10
119.9726988836859
 20
-142.2945041310929
 30
0.0
 10
120.027802771169
 20
-142.2945041310929
 30
0.0
 10
120.0726055478037
 20
-142.2497013533268
 30
0.0
 10
120.0726055478037
 20
-142.1945974644512
 30
0.0
  0
SPLINE
  5
9F
330
1F
100
AcDbEntity
  8
_U+30EC_U+30A4_U+30E4_U+30FC 1
 62
   179
420
  2234388
370
     9
100
AcDbSpline
210
0.0
220
0.0
230
1.0
 70
    11
 71
     3
 72
    17
 73
    13
 74
     0
 42
0.0000000001
 43
0.0000000001
 12
1.0
 22
0.0
 32
0.0
 13
1.0
 23
0.0
 33
0.0
 40
0.0
 40
0.0
 40
0.0
 40
0.0
 40
1.0
 40
1.0
 40
1.0
 40
2.0
 40
2.0
 40
2.0
 40
3.0
 40
3.0
 40
3.0
 40
4.0
 40
4.0
 40
4.0
 40
4.0
 10
120.0726055478037
 20
-140.1943827427294
 30
0.0
 10
120.0726055478037
 20
-140.1392435760764
 30
0.0
 10
120.027802771169
 20
-140.0944760760878
 30
0.0
 10
119.9726988836859
 20
-140.0944760760878
 30
0.0
 10
119.9175597184259
 20
-140.0944760760878
 30
0.0
 10
119.8727922195681
 20
-140.1392435760764
 30
0.0
 10
119.8727922195681
 20
-140.1943827427294
 30
0.0
 10
119.8727922195681
 20
-140.2494866316043
 30
0.0
 10
119.9175597184259
 20
-140.2942894093711
 30
0.0
 10
119.9726988836859
 20
-140.2942894093711
 30
0.0
 10
120.027802771169
 20
-140.2942894093711
 30
0.0
 10
120.0726055478037
 20
-140.2494866316043
 30
0.0
 10
120.0726055478037
 20
-140.1943827427294
 30
0.0
  0
SPLINE
  5
A0
330
1F
100
AcDbEntity
  8
_U+30EC_U+30A4_U+30E4_U+30FC 1
 62
   179
420
  2234388
370
     9
100
AcDbSpline
210
0.0
220
0.0
230
1.0
 70
    11
 71
     3
 72
    17
 73
    13
 74
     0
 42
0.0000000001
 43
0.0000000001
 12
1.0
 22
0.0
 32
0.0
 13
1.0
 23
0.0
 33
0.0
 40
0.0
 40
0.0
 40
0.0
 40
0.0
 40
1.0
 40
1.0
 40
1.0
 40
2.0
 40
2.0
 40
2.0
 40
3.0
 40
3.0
 40
3.0
 40
4.0
 40
4.0
 40
4.0
 40
4.0
 10
122.704645202877
 20
-140.1943827427294
 30
0.0
 10
122.704645202877
 20
-140.1392435760764
 30
0.0
 10
122.6598777040192
 20
-140.0944760760878
 30
0.0
 10
122.6047416360152
 20
-140.0944760760878
 30
0.0
 10
122.5489290957386
 20
-140.0944760760878
 30
0.0
 10
122.5048318746414
 20
-140.1392435760764
 30
0.0
 10
122.5048318746414
 20
-140.1943827427294
 30
0.0
 10
122.5048318746414
 20
-140.2494866316043
 30
0.0
 10
122.5489290957386
 20
-140.2942894093711
 30
0.0
 10
122.6047416360152
 20
-140.2942894093711
 30
0.0
 10
122.6598777040192
 20
-140.2942894093711
 30
0.0
 10
122.704645202877
 20
-140.2494866316043
 30
0.0
 10
122.704645202877
 20
-140.1943827427294
 30
0.0
  0
SPLINE
  5
A1
330
1F
100
AcDbEntity
  8
_U+30EC_U+30A4_U+30E4_U+30FC 1
 62
   179
420
  2234388
370
     9
100
AcDbSpline
210
0.0
220
0.0
230
1.0
 70
    11
 71
     3
 72
    17
 73
    13
 74
     0
 42
0.0000000001
 43
0.0000000001
 12
1.0
 22
0.0
 32
0.0
 13
1.0
 23
0.0
 33
0.0
 40
0.0
 40
0.0
 40
0.0
 40
0.0
 40
1.0
 40
1.0
 40
1.0
 40
2.0
 40
2.0
 40
2.0
 40
3.0
 40
3.0
 40
3.0
 40
4.0
 40
4.0
 40
4.0
 40
4.0
 10
122.704645202877
 20
-142.1945974644512
 30
0.0
 10
122.704645202877
 20
-142.1394582977988
 30
0.0
 10
122.6598777040192
 20
-142.0946907978096
 30
0.0
 10
122.6047416360152
 20
-142.0946907978096
 30
0.0
 10
122.5489290957386
 20
-142.0946907978096
 30
0.0
 10
122.5048318746414
 20
-142.1394582977988
 30
0.0
 10
122.5048318746414
 20
-142.1945974644512
 30
0.0
 10
122.5048318746414
 20
-142.2497013533268
 30
0.0
 10
122.5489290957386
 20
-142.2945041310929
 30
0.0
 10
122.6047416360152
 20
-142.2945041310929
 30
0.0
 10
122.6598777040192
 20
-142.2945041310929
 30
0.0
 10
122.704645202877
 20
-142.2497013533268
 30
0.0
 10
122.704645202877
 20
-142.1945974644512
 30
0.0
  0
SPLINE
  5
A2
330
1F
100
AcDbEntity
  8
_U+30EC_U+30A4_U+30E4_U+30FC 1
 62
   179
420
  2234388
370
     9
100
AcDbSpline
210
0.0
220
0.0
230
1.0
 70
    11
 71
     3
 72
    17
 73
    13
 74
     0
 42
0.0000000001
 43
0.0000000001
 12
1.0
 22
0.0
 32
0.0
 13
1.0
 23
0.0
 33
0.0
 40
0.0
 40
0.0
 40
0.0
 40
0.0
 40
1.0
 40
1.0
 40
1.0
 40
2.0
 40
2.0
 40
2.0
 40
3.0
 40
3.0
 40
3.0
 40
4.0
 40
4.0
 40
4.0
 40
4.0
 10
117.382675060874
 20
-146.1943566301181
 30
0.0
 10
117.382675060874
 20
-146.139217463465
 30
0.0
 10
117.3378722842393
 20
-146.0944499634765
 30
0.0
 10
117.2820628412186
 20
-146.0944499634765
 30
0.0
 10
117.2269589537356
 20
-146.0944499634765
 30
0.0
 10
117.1821561771008
 20
-146.139217463465
 30
0.0
 10
117.1821561771008
 20
-146.1943566301181
 30
0.0
 10
117.1821561771008
 20
-146.249460518993
 30
0.0
 10
117.2269589537356
 20
-146.2942632967597
 30
0.0
 10
117.2820628412186
 20
-146.2942632967597
 30
0.0
 10
117.3378722842393
 20
-146.2942632967597
 30
0.0
 10
117.382675060874
 20
-146.249460518993
 30
0.0
 10
117.382675060874
 20
-146.1943566301181
 30
0.0
  0
SPLINE
  5
A3
330
1F
100
AcDbEntity
  8
_U+30EC_U+30A4_U+30E4_U+30FC 1
 62
   179
420
  2234388
370
     9
100
AcDbSpline
210
0.0
220
0.0
230
1.0
 70
    11
 71
     3
 72
    17
 73
    13
 74
     0
 42
0.0000000001
 43
0.0000000001
 12
1.0
 22
0.0
 32
0.0
 13
1.0
 23
0.0
 33
0.0
 40
0.0
 40
0.0
 40
0.0
 40
0.0
 40
1.0
 40
1.0
 40
1.0
 40
2.0
 40
2.0
 40
2.0
 40
3.0
 40
3.0
 40
3.0
 40
4.0
 40
4.0
 40
4.0
 40
4.0
 10
57.38219686939153
 20
-146.1943566301181
 30
0.0
 10
57.38219686939153
 20
-146.139217463465
 30
0.0
 10
57.33742937053364
 20
-146.0944499634765
 30
0.0
 10
57.2822916523461
 20
-146.0944499634765
 30
0.0
 10
57.22718631779063
 20
-146.0944499634765
 30
0.0
 10
57.18238354115586
 20
-146.139217463465
 30
0.0
 10
57.18238354115586
 20
-146.1943566301181
 30
0.0
 10
57.18238354115586
 20
-146.249460518993
 30
0.0
 10
57.22718631779063
 20
-146.2942632967597
 30
0.0
 10
57.2822916523461
 20
-146.2942632967597
 30
0.0
 10
57.33742937053364
 20
-146.2942632967597
 30
0.0
 10
57.38219686939153
 20
-146.249460518993
 30
0.0
 10
57.38219686939153
 20
-146.1943566301181
 30
0.0
  0
SPLINE
  5
A4
330
1F
100
AcDbEntity
  8
_U+30EC_U+30A4_U+30E4_U+30FC 1
 62
   179
420
  2234388
370
     9
100
AcDbSpline
210
0.0
220
0.0
230
1.0
 70
    11
 71
     3
 72
    17
 73
    13
 74
     0
 42
0.0000000001
 43
0.0000000001
 12
1.0
 22
0.0
 32
0.0
 13
1.0
 23
0.0
 33
0.0
 40
0.0
 40
0.0
 40
0.0
 40
0.0
 40
1.0
 40
1.0
 40
1.0
 40
2.0
 40
2.0
 40
2.0
 40
3.0
 40
3.0
 40
3.0
 40
4.0
 40
4.0
 40
4.0
 40
4.0
 10
120.0726055478037
 20
-117.1942241373681
 30
0.0
 10
120.0726055478037
 20
-117.1391202484929
 30
0.0
 10
120.027802771169
 20
-117.0943174707265
 30
0.0
 10
119.9726988836859
 20
-117.0943174707265
 30
0.0
 10
119.9175597184259
 20
-117.0943174707265
 30
0.0
 10
119.8727922195681
 20
-117.1391202484929
 30
0.0
 10
119.8727922195681
 20
-117.1942241373681
 30
0.0
 10
119.8727922195681
 20
-117.2493633040208
 30
0.0
 10
119.9175597184259
 20
-117.2941308040097
 30
0.0
 10
119.9726988836859
 20
-117.2941308040097
 30
0.0
 10
120.027802771169
 20
-117.2941308040097
 30
0.0
 10
120.0726055478037
 20
-117.2493633040208
 30
0.0
 10
120.0726055478037
 20
-117.1942241373681
 30
0.0
  0
POLYLINE
  5
A5
330
1F
100
AcDbEntity
  8
_U+30EC_U+30A4_U+30E4_U+30FC 1
 62
   179
420
  2234388
370
     9
100
AcDb2dPolyline
 66
     1
 10
0.0
 20
0.0
 30
0.0
  0
VERTEX
  5
A6
330
A5
100
AcDbEntity
  8
_U+30EC_U+30A4_U+30E4_U+30FC 1
 62
   179
420
  2234388
370
     9
100
AcDbVertex
100
AcDb2dVertex
 10
57.2822916523461
 20
-113.1941121939238
 30
0.0
  0
VERTEX
  5
A7
330
A5
100
AcDbEntity
  8
_U+30EC_U+30A4_U+30E4_U+30FC 1
 62
   179
420
  2234388
370
     9
100
AcDbVertex
100
AcDb2dVertex
 10
72.2822245448157
 20
-113.1941121939238
 30
0.0
  0
SEQEND
  5
A8
330
A5
100
AcDbEntity
  8
_U+30EC_U+30A4_U+30E4_U+30FC 1
 62
   179
420
  2234388
370
     9
  0
POLYLINE
  5
A9
330
1F
100
AcDbEntity
  8
_U+30EC_U+30A4_U+30E4_U+30FC 1
 62
   179
420
  2234388
370
     9
100
AcDb2dPolyline
 66
     1
 10
0.0
 20
0.0
 30
0.0
  0
VERTEX
  5
AA
330
A9
100
AcDbEntity
  8
_U+30EC_U+30A4_U+30E4_U+30FC 1
 62
   179
420
  2234388
370
     9
100
AcDbVertex
100
AcDb2dVertex
 10
57.2822916523461
 20
-114.6541535824475
 30
0.0
  0
VERTEX
  5
AB
330
A9
100
AcDbEntity
  8
_U+30EC_U+30A4_U+30E4_U+30FC 1
 62
   179
420
  2234388
370
     9
100
AcDbVertex
100
AcDb2dVertex
 10
57.2822916523461
 20
-112.1936696941739
 30
0.0
  0
SEQEND
  5
AC
330
A9
100
AcDbEntity
  8
_U+30EC_U+30A4_U+30E4_U+30FC 1
 62
   179
420
  2234388
370
     9
  0
POLYLINE
  5
AD
330
1F
100
AcDbEntity
  8
_U+30EC_U+30A4_U+30E4_U+30FC 1
 62
   179
420
  2234388
370
     9
100
AcDb2dPolyline
 66
     1
 10
0.0
 20
0.0
 30
0.0
  0
VERTEX
  5
AE
330
AD
100
AcDbEntity
  8
_U+30EC_U+30A4_U+30E4_U+30FC 1
 62
   179
420
  2234388
370
     9
100
AcDbVertex
100
AcDb2dVertex
 10
72.2822245448157
 20
-114.6541535824475
 30
0.0
  0
VERTEX
  5
AF
330
AD
100
AcDbEntity
  8
_U+30EC_U+30A4_U+30E4_U+30FC 1
 62
   179
420
  2234388
370
     9
100
AcDbVertex
100
AcDb2dVertex
 10
72.2822245448157
 20
-112.1936696941739
 30
0.0
  0
SEQEND
  5
B0
330
AD
100
AcDbEntity
  8
_U+30EC_U+30A4_U+30E4_U+30FC 1
 62
   179
420
  2234388
370
     9
  0
POLYLINE
  5
B1
330
1F
100
AcDbEntity
  8
_U+30EC_U+30A4_U+30E4_U+30FC 1
 62
   179
420
  2234388
370
     9
100
AcDb2dPolyline
 66
     1
 10
0.0
 20
0.0
 30
0.0
  0
VERTEX
  5
B2
330
B1
100
AcDbEntity
  8
_U+30EC_U+30A4_U+30E4_U+30FC 1
 62
   179
420
  2234388
370
     9
100
AcDbVertex
100
AcDb2dVertex
 10
102.2821285016766
 20
-113.1941121939238
 30
0.0
  0
VERTEX
  5
B3
330
B1
100
AcDbEntity
  8
_U+30EC_U+30A4_U+30E4_U+30FC 1
 62
   179
420
  2234388
370
     9
100
AcDbVertex
100
AcDb2dVertex
 10
117.2820628412186
 20
-113.1941121939238
 30
0.0
  0
SEQEND
  5
B4
330
B1
100
AcDbEntity
  8
_U+30EC_U+30A4_U+30E4_U+30FC 1
 62
   179
420
  2234388
370
     9
  0
POLYLINE
  5
B5
330
1F
100
AcDbEntity
  8
_U+30EC_U+30A4_U+30E4_U+30FC 1
 62
   179
420
  2234388
370
     9
100
AcDb2dPolyline
 66
     1
 10
0.0
 20
0.0
 30
0.0
  0
VERTEX
  5
B6
330
B5
100
AcDbEntity
  8
_U+30EC_U+30A4_U+30E4_U+30FC 1
 62
   179
420
  2234388
370
     9
100
AcDbVertex
100
AcDb2dVertex
 10
102.2821285016766
 20
-114.6541535824475
 30
0.0
  0
VERTEX
  5
B7
330
B5
100
AcDbEntity
  8
_U+30EC_U+30A4_U+30E4_U+30FC 1
 62
   179
420
  2234388
370
     9
100
AcDbVertex
100
AcDb2dVertex
 10
102.2821285016766
 20
-112.1936696941739
 30
0.0
  0
SEQEND
  5
B8
330
B5
100
AcDbEntity
  8
_U+30EC_U+30A4_U+30E4_U+30FC 1
 62
   179
420
  2234388
370
     9
  0
POLYLINE
  5
B9
330
1F
100
AcDbEntity
  8
_U+30EC_U+30A4_U+30E4_U+30FC 1
 62
   179
420
  2234388
370
     9
100
AcDb2dPolyline
 66
     1
 10
0.0
 20
0.0
 30
0.0
  0
VERTEX
  5
BA
330
B9
100
AcDbEntity
  8
_U+30EC_U+30A4_U+30E4_U+30FC 1
 62
   179
420
  2234388
370
     9
100
AcDbVertex
100
AcDb2dVertex
 10
117.2820628412186
 20
-114.6541535824475
 30
0.0
  0
VERTEX
  5
BB
330
B9
100
AcDbEntity
  8
_U+30EC_U+30A4_U+30E4_U+30FC 1
 62
   179
420
  2234388
370
     9
100
AcDbVertex
100
AcDb2dVertex
 10
117.2820628412186
 20
-112.1936696941739
 30
0.0
  0
SEQEND
  5
BC
330
B9
100
AcDbEntity
  8
_U+30EC_U+30A4_U+30E4_U+30FC 1
 62
   179
420
  2234388
370
     9
  0
POLYLINE
  5
BD
330
1F
100
AcDbEntity
  8
_U+30EC_U+30A4_U+30E4_U+30FC 1
 62
   179
420
  2234388
370
     9
100
AcDb2dPolyline
 66
     1
 10
0.0
 20
0.0
 30
0.0
  0
VERTEX
  5
BE
330
BD
100
AcDbEntity
  8
_U+30EC_U+30A4_U+30E4_U+30FC 1
 62
   179
420
  2234388
370
     9
100
AcDbVertex
100
AcDb2dVertex
 10
57.2822916523461
 20
-146.1943566301181
 30
0.0
  0
VERTEX
  5
BF
330
BD
100
AcDbEntity
  8
_U+30EC_U+30A4_U+30E4_U+30FC 1
 62
   179
420
  2234388
370
     9
100
AcDbVertex
100
AcDb2dVertex
 10
117.2820628412186
 20
-146.1943566301181
 30
0.0
  0
SEQEND
  5
C0
330
BD
100
AcDbEntity
  8
_U+30EC_U+30A4_U+30E4_U+30FC 1
 62
   179
420
  2234388
370
     9
  0
POLYLINE
  5
C1
330
1F
100
AcDbEntity
  8
_U+30EC_U+30A4_U+30E4_U+30FC 1
 62
   179
420
  2234388
370
     9
100
AcDb2dPolyline
 66
     1
 10
0.0
 20
0.0
 30
0.0
  0
VERTEX
  5
C2
330
C1
100
AcDbEntity
  8
_U+30EC_U+30A4_U+30E4_U+30FC 1
 62
   179
420
  2234388
370
     9
100
AcDbVertex
100
AcDb2dVertex
 10
57.2822916523461
 20
-144.7343152415944
 30
0.0
  0
VERTEX
  5
C3
330
C1
100
AcDbEntity
  8
_U+30EC_U+30A4_U+30E4_U+30FC 1
 62
   179
420
  2234388
370
     9
100
AcDbVertex
100
AcDb2dVertex
 10
57.2822916523461
 20
-147.1941288520906
 30
0.0
  0
SEQEND
  5
C4
330
C1
100
AcDbEntity
  8
_U+30EC_U+30A4_U+30E4_U+30FC 1
 62
   179
420
  2234388
370
     9
  0
POLYLINE
  5
C5
330
1F
100
AcDbEntity
  8
_U+30EC_U+30A4_U+30E4_U+30FC 1
 62
   179
420
  2234388
370
     9
100
AcDb2dPolyline
 66
     1
 10
0.0
 20
0.0
 30
0.0
  0
VERTEX
  5
C6
330
C5
100
AcDbEntity
  8
_U+30EC_U+30A4_U+30E4_U+30FC 1
 62
   179
420
  2234388
370
     9
100
AcDbVertex
100
AcDb2dVertex
 10
117.2820628412186
 20
-144.7343152415944
 30
0.0
  0
VERTEX
  5
C7
330
C5
100
AcDbEntity
  8
_U+30EC_U+30A4_U+30E4_U+30FC 1
 62
   179
420
  2234388
370
     9
100
AcDbVertex
100
AcDb2dVertex
 10
117.2820628412186
 20
-147.1941288520906
 30
0.0
  0
SEQEND
  5
C8
330
C5
100
AcDbEntity
  8
_U+30EC_U+30A4_U+30E4_U+30FC 1
 62
   179
420
  2234388
370
     9
  0
POLYLINE
  5
C9
330
1F
100
AcDbEntity
  8
_U+30EC_U+30A4_U+30E4_U+30FC 1
 62
   179
420
  2234388
370
     9
100
AcDb2dPolyline
 66
     1
 10
0.0
 20
0.0
 30
0.0
  0
VERTEX
  5
CA
330
C9
100
AcDbEntity
  8
_U+30EC_U+30A4_U+30E4_U+30FC 1
 62
   179
420
  2234388
370
     9
100
AcDbVertex
100
AcDb2dVertex
 10
119.9726988836859
 20
-117.1942241373681
 30
0.0
  0
VERTEX
  5
CB
330
C9
100
AcDbEntity
  8
_U+30EC_U+30A4_U+30E4_U+30FC 1
 62
   179
420
  2234388
370
     9
100
AcDbVertex
100
AcDb2dVertex
 10
119.9726988836859
 20
-142.1945974644512
 30
0.0
  0
SEQEND
  5
CC
330
C9
100
AcDbEntity
  8
_U+30EC_U+30A4_U+30E4_U+30FC 1
 62
   179
420
  2234388
370
     9
  0
POLYLINE
  5
CD
330
1F
100
AcDbEntity
  8
_U+30EC_U+30A4_U+30E4_U+30FC 1
 62
   179
420
  2234388
370
     9
100
AcDb2dPolyline
 66
     1
 10
0.0
 20
0.0
 30
0.0
  0
VERTEX
  5
CE
330
CD
100
AcDbEntity
  8
_U+30EC_U+30A4_U+30E4_U+30FC 1
 62
   179
420
  2234388
370
     9
100
AcDbVertex
100
AcDb2dVertex
 10
118.5126575320458
 20
-117.1942241373681
 30
0.0
  0
VERTEX
  5
CF
330
CD
100
AcDbEntity
  8
_U+30EC_U+30A4_U+30E4_U+30FC 1
 62
   179
420
  2234388
370
     9
100
AcDbVertex
100
AcDb2dVertex
 10
120.9731444142009
 20
-117.1942241373681
 30
0.0
  0
SEQEND
  5
D0
330
CD
100
AcDbEntity
  8
_U+30EC_U+30A4_U+30E4_U+30FC 1
 62
   179
420
  2234388
370
     9
  0
POLYLINE
  5
D1
330
1F
100
AcDbEntity
  8
_U+30EC_U+30A4_U+30E4_U+30FC 1
 62
   179
420
  2234388
370
     9
100
AcDb2dPolyline
 66
     1
 10
0.0
 20
0.0
 30
0.0
  0
VERTEX
  5
D2
330
D1
100
AcDbEntity
  8
_U+30EC_U+30A4_U+30E4_U+30FC 1
 62
   179
420
  2234388
370
     9
100
AcDbVertex
100
AcDb2dVertex
 10
98.28236943705231
 20
-117.1942241373681
 30
0.0
  0
VERTEX
  5
D3
330
D1
100
AcDbEntity
  8
_U+30EC_U+30A4_U+30E4_U+30FC 1
 62
   179
420
  2234388
370
     9
100
AcDbVertex
100
AcDb2dVertex
 10
98.28236943705231
 20
-125.1944127464792
 30
0.0
  0
SEQEND
  5
D4
330
D1
100
AcDbEntity
  8
_U+30EC_U+30A4_U+30E4_U+30FC 1
 62
   179
420
  2234388
370
     9
  0
POLYLINE
  5
D5
330
1F
100
AcDbEntity
  8
_U+30EC_U+30A4_U+30E4_U+30FC 1
 62
   179
420
  2234388
370
     9
100
AcDb2dPolyline
 66
     1
 10
0.0
 20
0.0
 30
0.0
  0
VERTEX
  5
D6
330
D5
100
AcDbEntity
  8
_U+30EC_U+30A4_U+30E4_U+30FC 1
 62
   179
420
  2234388
370
     9
100
AcDbVertex
100
AcDb2dVertex
 10
99.74241078869244
 20
-117.1942241373681
 30
0.0
  0
VERTEX
  5
D7
330
D5
100
AcDbEntity
  8
_U+30EC_U+30A4_U+30E4_U+30FC 1
 62
   179
420
  2234388
370
     9
100
AcDbVertex
100
AcDb2dVertex
 10
97.2825972403364
 20
-117.1942241373681
 30
0.0
  0
SEQEND
  5
D8
330
D5
100
AcDbEntity
  8
_U+30EC_U+30A4_U+30E4_U+30FC 1
 62
   179
420
  2234388
370
     9
  0
POLYLINE
  5
D9
330
1F
100
AcDbEntity
  8
_U+30EC_U+30A4_U+30E4_U+30FC 1
 62
   179
420
  2234388
370
     9
100
AcDb2dPolyline
 66
     1
 10
0.0
 20
0.0
 30
0.0
  0
VERTEX
  5
DA
330
D9
100
AcDbEntity
  8
_U+30EC_U+30A4_U+30E4_U+30FC 1
 62
   179
420
  2234388
370
     9
100
AcDbVertex
100
AcDb2dVertex
 10
122.6047416360152
 20
-143.1943696864238
 30
0.0
  0
VERTEX
  5
DB
330
D9
100
AcDbEntity
  8
_U+30EC_U+30A4_U+30E4_U+30FC 1
 62
   179
420
  2234388
370
     9
100
AcDbVertex
100
AcDb2dVertex
 10
122.6047416360152
 20
-139.1946105207569
 30
0.0
  0
SEQEND
  5
DC
330
D9
100
AcDbEntity
  8
_U+30EC_U+30A4_U+30E4_U+30FC 1
 62
   179
420
  2234388
370
     9
  0
POLYLINE
  5
DD
330
1F
100
AcDbEntity
  8
_U+30EC_U+30A4_U+30E4_U+30FC 1
 62
   179
420
  2234388
370
     9
100
AcDb2dPolyline
 66
     1
 10
0.0
 20
0.0
 30
0.0
  0
VERTEX
  5
DE
330
DD
100
AcDbEntity
  8
_U+30EC_U+30A4_U+30E4_U+30FC 1
 62
   179
420
  2234388
370
     9
100
AcDbVertex
100
AcDb2dVertex
 10
118.5126575320458
 20
-142.1945974644512
 30
0.0
  0
VERTEX
  5
DF
330
DD
100
AcDbEntity
  8
_U+30EC_U+30A4_U+30E4_U+30FC 1
 62
   179
420
  2234388
370
     9
100
AcDbVertex
100
AcDb2dVertex
 10
123.9007735056946
 20
-142.1945974644512
 30
0.0
  0
SEQEND
  5
E0
330
DD
100
AcDbEntity
  8
_U+30EC_U+30A4_U+30E4_U+30FC 1
 62
   179
420
  2234388
370
     9
  0
POLYLINE
  5
E1
330
1F
100
AcDbEntity
  8
_U+30EC_U+30A4_U+30E4_U+30FC 1
 62
   179
420
  2234388
370
     9
100
AcDb2dPolyline
 66
     1
 10
0.0
 20
0.0
 30
0.0
  0
VERTEX
  5
E2
330
E1
100
AcDbEntity
  8
_U+30EC_U+30A4_U+30E4_U+30FC 1
 62
   179
420
  2234388
370
     9
100
AcDbVertex
100
AcDb2dVertex
 10
118.4740666370483
 20
-140.1943827427294
 30
0.0
  0
VERTEX
  5
E3
330
E1
100
AcDbEntity
  8
_U+30EC_U+30A4_U+30E4_U+30FC 1
 62
   179
420
  2234388
370
     9
100
AcDbVertex
100
AcDb2dVertex
 10
123.9007735056946
 20
-140.1943827427294
 30
0.0
  0
SEQEND
  5
E4
330
E1
100
AcDbEntity
  8
_U+30EC_U+30A4_U+30E4_U+30FC 1
 62
   179
420
  2234388
370
     9
  0
INSERT
  5
E6
330
1F
100
AcDbEntity
  8
_U+30EC_U+30A4_U+30E4_U+30FC 1
100
AcDbBlockReference
  2
block 2
 10
0.0
 20
0.0
 30
0.0
  0
INSERT
  5
EE
330
1F
100
AcDbEntity
  8
_U+30EC_U+30A4_U+30E4_U+30FC 1
100
AcDbBlockReference
  2
block 3
 10
0.0
 20
0.0
 30
0.0
  0
INSERT
  5
F6
330
1F
100
AcDbEntity
  8
_U+30EC_U+30A4_U+30E4_U+30FC 1
100
AcDbBlockReference
  2
block 4
 10
0.0
 20
0.0
 30
0.0
  0
INSERT
  5
100
330
1F
100
AcDbEntity
  8
_U+30EC_U+30A4_U+30E4_U+30FC 1
100
AcDbBlockReference
  2
block 5
 10
0.0
 20
0.0
 30
0.0
  0
INSERT
  5
108
330
1F
100
AcDbEntity
  8
_U+30EC_U+30A4_U+30E4_U+30FC 1
100
AcDbBlockReference
  2
block 6
 10
0.0
 20
0.0
 30
0.0
  0
INSERT
  5
110
330
1F
100
AcDbEntity
  8
_U+30EC_U+30A4_U+30E4_U+30FC 1
100
AcDbBlockReference
  2
block 7
 10
0.0
 20
0.0
 30
0.0
  0
ENDSEC
  0
SECTION
  2
OBJECTS
  0
DICTIONARY
  5
C
330
0
100
AcDbDictionary
281
     1
  3
ACAD_GROUP
350
D
  3
ACAD_LAYOUT
350
1A
  3
ACAD_MATERIAL
350
3B
  3
ACAD_MLEADERSTYLE
350
116
  3
ACAD_MLINESTYLE
350
17
  3
ACAD_PLOTSETTINGS
350
19
  3
ACAD_PLOTSTYLENAME
350
E
  3
ACAD_TABLESTYLE
350
115
  3
ACAD_VISUALSTYLE
350
2A
  0
SUN
  5
3F
330
29
100
AcDbSun
 90
        1
290
     0
 63
     7
421
 16777215
 40
1.0
291
     1
 91
  2455826
 92
 54000000
292
     0
 70
     2
 71
   256
280
     1
  0
DICTIONARY
  5
D
102
{ACAD_REACTORS
330
C
102
}
330
C
100
AcDbDictionary
281
     1
  0
DICTIONARY
  5
1A
102
{ACAD_REACTORS
330
C
102
}
330
C
100
AcDbDictionary
281
     1
  3
Layout1
350
1E
  3
Layout2
350
26
  3
Model
350
22
  0
DICTIONARY
  5
3B
102
{ACAD_REACTORS
330
C
102
}
330
C
100
AcDbDictionary
281
     1
  3
ByBlock
350
3D
  3
ByLayer
350
3C
  3
Global
350
3E
  0
DICTIONARY
  5
116
102
{ACAD_REACTORS
330
C
102
}
330
C
100
AcDbDictionary
281
     1
  0
DICTIONARY
  5
17
102
{ACAD_REACTORS
330
C
102
}
330
C
100
AcDbDictionary
281
     1
  3
Standard
350
18
  0
DICTIONARY
  5
19
102
{ACAD_REACTORS
330
C
102
}
330
C
100
AcDbDictionary
281
     1
  0
ACDBDICTIONARYWDFLT
  5
E
102
{ACAD_REACTORS
330
C
102
}
330
C
100
AcDbDictionary
281
     1
  3
Normal
350
F
100
AcDbDictionaryWithDefault
340
F
  0
DICTIONARY
  5
115
102
{ACAD_REACTORS
330
C
102
}
330
C
100
AcDbDictionary
281
     1
  0
DICTIONARY
  5
2A
102
{ACAD_REACTORS
330
C
102
}
330
C
100
AcDbDictionary
281
     1
  3
2dWireframe
350
2F
  3
3D Hidden
350
31
  3
3dWireframe
350
30
  3
Basic
350
32
  3
Brighten
350
36
  3
ColorChange
350
3A
  3
Conceptual
350
34
  3
Dim
350
35
  3
Facepattern
350
39
  3
Flat
350
2B
  3
FlatWithEdges
350
2C
  3
Gouraud
350
2D
  3
GouraudWithEdges
350
2E
  3
Linepattern
350
38
  3
Realistic
350
33
  3
Thicken
350
37
  0
LAYOUT
  5
1E
102
{ACAD_REACTORS
330
1A
102
}
330
1A
100
AcDbPlotSettings
  1

  2
none_device
  4

  6

 40
0.0
 41
0.0
 42
0.0
 43
0.0
 44
0.0
 45
0.0
 46
0.0
 47
0.0
 48
0.0
 49
0.0
140
0.0
141
0.0
142
1.0
143
1.0
 70
   688
 72
     0
 73
     0
 74
     5
  7

 75
    16
 76
     0
 77
     2
 78
   300
147
1.0
148
0.0
149
0.0
100
AcDbLayout
  1
Layout1
 70
     1
 71
     1
 10
0.0
 20
0.0
 11
12.0
 21
9.0
 12
0.0
 22
0.0
 32
0.0
 14
1.000000000000000E+20
 24
1.000000000000000E+20
 34
1.000000000000000E+20
 15
-1.000000000000000E+20
 25
-1.000000000000000E+20
 35
-1.000000000000000E+20
146
0.0
 13
0.0
 23
0.0
 33
0.0
 16
1.0
 26
0.0
 36
0.0
 17
0.0
 27
1.0
 37
0.0
 76
     0
330
1B
  0
LAYOUT
  5
26
102
{ACAD_REACTORS
330
1A
102
}
330
1A
100
AcDbPlotSettings
  1

  2
none_device
  4

  6

 40
0.0
 41
0.0
 42
0.0
 43
0.0
 44
0.0
 45
0.0
 46
0.0
 47
0.0
 48
0.0
 49
0.0
140
0.0
141
0.0
142
1.0
143
1.0
 70
   688
 72
     0
 73
     0
 74
     5
  7

 75
    16
 76
     0
 77
     2
 78
   300
147
1.0
148
0.0
149
0.0
100
AcDbLayout
  1
Layout2
 70
     1
 71
     2
 10
0.0
 20
0.0
 11
0.0
 21
0.0
 12
0.0
 22
0.0
 32
0.0
 14
0.0
 24
0.0
 34
0.0
 15
0.0
 25
0.0
 35
0.0
146
0.0
 13
0.0
 23
0.0
 33
0.0
 16
1.0
 26
0.0
 36
0.0
 17
0.0
 27
1.0
 37
0.0
 76
     0
330
23
  0
LAYOUT
  5
22
102
{ACAD_REACTORS
330
1A
102
}
330
1A
100
AcDbPlotSettings
  1

  2
none_device
  4

  6

 40
0.0
 41
0.0
 42
0.0
 43
0.0
 44
0.0
 45
0.0
 46
0.0
 47
0.0
 48
0.0
 49
0.0
140
0.0
141
0.0
142
1.0
143
1.0
 70
  1712
 72
     0
 73
     0
 74
     0
  7

 75
     0
 76
     0
 77
     2
 78
   300
147
1.0
148
0.0
149
0.0
100
AcDbLayout
  1
Model
 70
     1
 71
     0
 10
0.0
 20
0.0
 11
12.0
 21
9.0
 12
0.0
 22
0.0
 32
0.0
 14
1.000000000000000E+20
 24
1.000000000000000E+20
 34
1.000000000000000E+20
 15
-1.000000000000000E+20
 25
-1.000000000000000E+20
 35
-1.000000000000000E+20
146
0.0
 13
0.0
 23
0.0
 33
0.0
 16
1.0
 26
0.0
 36
0.0
 17
0.0
 27
1.0
 37
0.0
 76
     0
330
1F
331
29
  0
MATERIAL
  5
3D
102
{ACAD_REACTORS
330
3B
102
}
330
3B
100
AcDbMaterial
  1
ByBlock
 72
     1
 94
      127
  0
MATERIAL
  5
3C
102
{ACAD_REACTORS
330
3B
102
}
330
3B
100
AcDbMaterial
  1
ByLayer
 72
     1
 94
      127
  0
MATERIAL
  5
3E
102
{ACAD_REACTORS
330
3B
102
}
330
3B
100
AcDbMaterial
  1
Global
 72
     1
 94
      127
  0
MLINESTYLE
  5
18
102
{ACAD_REACTORS
330
17
102
}
330
17
100
AcDbMlineStyle
  2
Standard
 70
     0
  3

 62
   256
 51
90.0
 52
90.0
 71
     2
 49
0.5
 62
   256
  6
BYLAYER
 49
-0.5
 62
   256
  6
BYLAYER
  0
ACDBPLACEHOLDER
  5
F
102
{ACAD_REACTORS
330
E
102
}
330
E
  0
VISUALSTYLE
  5
2F
102
{ACAD_REACTORS
330
2A
102
}
330
2A
100
AcDbVisualStyle
  2
2dWireframe
 70
     4
177
     2
291
     0
 71
     0
176
     1
 72
     2
176
     1
 73
     0
176
     1
 90
        0
176
     1
 40
-0.6
176
     1
 41
-30.0
176
     1
 62
     5
 63
     7
421
 16777215
176
     1
 74
     1
176
     1
 91
        4
176
     1
 64
     7
176
     1
 65
   257
176
     1
 75
     1
176
     1
175
     1
176
     1
 42
1.0
176
     1
 92
        0
176
     1
 66
   257
176
     1
 43
1.0
176
     1
 76
     1
176
     1
 77
     6
176
     1
 78
     2
176
     1
 67
     7
176
     1
 79
     5
176
     1
170
     0
176
     1
171
     0
176
     1
290
     0
176
     1
 93
        1
176
     1
 44
0.0
176
     1
173
     0
176
     1
  0
VISUALSTYLE
  5
31
102
{ACAD_REACTORS
330
2A
102
}
330
2A
100
AcDbVisualStyle
  2
3D Hidden
 70
     6
177
     2
291
     0
 71
     1
176
     1
 72
     2
176
     1
 73
     2
176
     1
 90
        0
176
     1
 40
-0.6
176
     1
 41
-30.0
176
     1
 62
     5
 63
     7
421
 16777215
176
     1
 74
     2
176
     1
 91
        2
176
     1
 64
     7
176
     1
 65
   257
176
     1
 75
     2
176
     1
175
     1
176
     1
 42
40.0
176
     1
 92
        0
176
     1
 66
   257
176
     1
 43
1.0
176
     1
 76
     1
176
     1
 77
     6
176
     1
 78
     2
176
     1
 67
     7
176
     1
 79
     3
176
     1
170
     0
176
     1
171
     0
176
     1
290
     0
176
     1
 93
        1
176
     1
 44
0.0
176
     1
173
     0
176
     1
  0
VISUALSTYLE
  5
30
102
{ACAD_REACTORS
330
2A
102
}
330
2A
100
AcDbVisualStyle
  2
3dWireframe
 70
     5
177
     2
291
     0
 71
     0
176
     1
 72
     2
176
     1
 73
     0
176
     1
 90
        0
176
     1
 40
-0.6
176
     1
 41
-30.0
176
     1
 62
     5
 63
     7
421
 16777215
176
     1
 74
     1
176
     1
 91
        4
176
     1
 64
     7
176
     1
 65
   257
176
     1
 75
     1
176
     1
175
     1
176
     1
 42
1.0
176
     1
 92
        0
176
     1
 66
   257
176
     1
 43
1.0
176
     1
 76
     1
176
     1
 77
     6
176
     1
 78
     2
176
     1
 67
     7
176
     1
 79
     5
176
     1
170
     0
176
     1
171
     0
176
     1
290
     0
176
     1
 93
        1
176
     1
 44
0.0
176
     1
173
     0
176
     1
  0
VISUALSTYLE
  5
32
102
{ACAD_REACTORS
330
2A
102
}
330
2A
100
AcDbVisualStyle
  2
Basic
 70
     7
177
     2
291
     1
 71
     1
176
     1
 72
     0
176
     1
 73
     1
176
     1
 90
        0
176
     1
 40
-0.6
176
     1
 41
-30.0
176
     1
 62
     5
 63
     7
421
 16777215
176
     1
 74
     0
176
     1
 91
        4
176
     1
 64
     7
176
     1
 65
   257
176
     1
 75
     1
176
     1
175
     1
176
     1
 42
1.0
176
     1
 92
        8
176
     1
 66
     7
176
     1
 43
1.0
176
     1
 76
     1
176
     1
 77
     6
176
     1
 78
     2
176
     1
 67
     7
176
     1
 79
     5
176
     1
170
     0
176
     1
171
     0
176
     1
290
     0
176
     1
 93
        1
176
     1
 44
0.0
176
     1
173
     0
176
     1
  0
VISUALSTYLE
  5
36
102
{ACAD_REACTORS
330
2A
102
}
330
2A
100
AcDbVisualStyle
  2
Brighten
 70
    12
177
     2
291
     1
 71
     2
176
     1
 72
     2
176
     1
 73
     0
176
     1
 90
        0
176
     1
 40
-0.6
176
     1
 41
-30.0
176
     1
 62
     5
 63
     7
421
 16777215
176
     1
 74
     1
176
     1
 91
        4
176
     1
 64
     7
176
     1
 65
   257
176
     1
 75
     1
176
     1
175
     1
176
     1
 42
1.0
176
     1
 92
        8
176
     1
 66
     7
176
     1
 43
1.0
176
     1
 76
     1
176
     1
 77
     6
176
     1
 78
     2
176
     1
 67
     7
176
     1
 79
     5
176
     1
170
     0
176
     1
171
     0
176
     1
290
     0
176
     1
 93
        1
176
     1
 44
50.0
176
     1
173
     0
176
     1
  0
VISUALSTYLE
  5
3A
102
{ACAD_REACTORS
330
2A
102
}
330
2A
100
AcDbVisualStyle
  2
ColorChange
 70
    16
177
     2
291
     1
 71
     2
176
     1
 72
     2
176
     1
 73
     3
176
     1
 90
        0
176
     1
 40
-0.6
176
     1
 41
-30.0
176
     1
 62
     5
 63
     8
421
  8421504
176
     1
 74
     1
176
     1
 91
        4
176
     1
 64
     7
176
     1
 65
   257
176
     1
 75
     1
176
     1
175
     1
176
     1
 42
1.0
176
     1
 92
        8
176
     1
 66
     8
424
  8421504
176
     1
 43
1.0
176
     1
 76
     1
176
     1
 77
     6
176
     1
 78
     2
176
     1
 67
     7
176
     1
 79
     5
176
     1
170
     0
176
     1
171
     0
176
     1
290
     0
176
     1
 93
        1
176
     1
 44
0.0
176
     1
173
     0
176
     1
  0
VISUALSTYLE
  5
34
102
{ACAD_REACTORS
330
2A
102
}
330
2A
100
AcDbVisualStyle
  2
Conceptual
 70
     9
177
     2
291
     0
 71
     3
176
     1
 72
     2
176
     1
 73
     0
176
     1
 90
        0
176
     1
 40
-0.6
176
     1
 41
-30.0
176
     1
 62
     5
 63
     7
421
 16777215
176
     1
 74
     2
176
     1
 91
        2
176
     1
 64
     7
176
     1
 65
   257
176
     1
 75
     1
176
     1
175
     1
176
     1
 42
40.0
176
     1
 92
        8
176
     1
 66
     7
176
     1
 43
1.0
176
     1
 76
     1
176
     1
 77
     6
176
     1
 78
     2
176
     1
 67
     7
176
     1
 79
     3
176
     1
170
     0
176
     1
171
     0
176
     1
290
     0
176
     1
 93
        1
176
     1
 44
0.0
176
     1
173
     0
176
     1
  0
VISUALSTYLE
  5
35
102
{ACAD_REACTORS
330
2A
102
}
330
2A
100
AcDbVisualStyle
  2
Dim
 70
    11
177
     2
291
     1
 71
     2
176
     1
 72
     2
176
     1
 73
     0
176
     1
 90
        0
176
     1
 40
-0.6
176
     1
 41
-30.0
176
     1
 62
     5
 63
     7
421
 16777215
176
     1
 74
     1
176
     1
 91
        4
176
     1
 64
     7
176
     1
 65
   257
176
     1
 75
     1
176
     1
175
     1
176
     1
 42
1.0
176
     1
 92
        8
176
     1
 66
     7
176
     1
 43
1.0
176
     1
 76
     1
176
     1
 77
     6
176
     1
 78
     2
176
     1
 67
     7
176
     1
 79
     5
176
     1
170
     0
176
     1
171
     0
176
     1
290
     0
176
     1
 93
        1
176
     1
 44
-50.0
176
     1
173
     0
176
     1
  0
VISUALSTYLE
  5
39
102
{ACAD_REACTORS
330
2A
102
}
330
2A
100
AcDbVisualStyle
  2
Facepattern
 70
    15
177
     2
291
     1
 71
     2
176
     1
 72
     2
176
     1
 73
     0
176
     1
 90
        0
176
     1
 40
-0.6
176
     1
 41
-30.0
176
     1
 62
     5
 63
     7
421
 16777215
176
     1
 74
     1
176
     1
 91
        4
176
     1
 64
     7
176
     1
 65
   257
176
     1
 75
     1
176
     1
175
     1
176
     1
 42
1.0
176
     1
 92
        8
176
     1
 66
     7
176
     1
 43
1.0
176
     1
 76
     1
176
     1
 77
     6
176
     1
 78
     2
176
     1
 67
     7
176
     1
 79
     5
176
     1
170
     0
176
     1
171
     0
176
     1
290
     0
176
     1
 93
        1
176
     1
 44
0.0
176
     1
173
     0
176
     1
  0
VISUALSTYLE
  5
2B
102
{ACAD_REACTORS
330
2A
102
}
330
2A
100
AcDbVisualStyle
  2
Flat
 70
     0
177
     2
291
     1
 71
     2
176
     1
 72
     1
176
     1
 73
     1
176
     1
 90
        2
176
     1
 40
-0.6
176
     1
 41
30.0
176
     1
 62
     5
 63
     7
421
 16777215
176
     1
 74
     0
176
     1
 91
        4
176
     1
 64
     7
176
     1
 65
   257
176
     1
 75
     1
176
     1
175
     1
176
     1
 42
1.0
176
     1
 92
        8
176
     1
 66
     7
176
     1
 43
1.0
176
     1
 76
     1
176
     1
 77
     6
176
     1
 78
     2
176
     1
 67
     7
176
     1
 79
     5
176
     1
170
     0
176
     1
171
     0
176
     1
290
     0
176
     1
 93
       13
176
     1
 44
0.0
176
     1
173
     0
176
     1
  0
VISUALSTYLE
  5
2C
102
{ACAD_REACTORS
330
2A
102
}
330
2A
100
AcDbVisualStyle
  2
FlatWithEdges
 70
     1
177
     2
291
     1
 71
     2
176
     1
 72
     1
176
     1
 73
     1
176
     1
 90
        2
176
     1
 40
-0.6
176
     1
 41
30.0
176
     1
 62
     5
 63
     7
421
 16777215
176
     1
 74
     1
176
     1
 91
        4
176
     1
 64
     7
176
     1
 65
   257
176
     1
 75
     1
176
     1
175
     1
176
     1
 42
1.0
176
     1
 92
        0
176
     1
 66
   257
176
     1
 43
1.0
176
     1
 76
     1
176
     1
 77
     6
176
     1
 78
     2
176
     1
 67
     7
176
     1
 79
     5
176
     1
170
     0
176
     1
171
     0
176
     1
290
     0
176
     1
 93
       13
176
     1
 44
0.0
176
     1
173
     0
176
     1
  0
VISUALSTYLE
  5
2D
102
{ACAD_REACTORS
330
2A
102
}
330
2A
100
AcDbVisualStyle
  2
Gouraud
 70
     2
177
     2
291
     1
 71
     2
176
     1
 72
     2
176
     1
 73
     1
176
     1
 90
        2
176
     1
 40
-0.6
176
     1
 41
30.0
176
     1
 62
     5
 63
     7
421
 16777215
176
     1
 74
     0
176
     1
 91
        4
176
     1
 64
     7
176
     1
 65
   257
176
     1
 75
     1
176
     1
175
     1
176
     1
 42
1.0
176
     1
 92
        0
176
     1
 66
     7
176
     1
 43
1.0
176
     1
 76
     1
176
     1
 77
     6
176
     1
 78
     2
176
     1
 67
     7
176
     1
 79
     5
176
     1
170
     0
176
     1
171
     0
176
     1
290
     0
176
     1
 93
       13
176
     1
 44
0.0
176
     1
173
     0
176
     1
  0
VISUALSTYLE
  5
2E
102
{ACAD_REACTORS
330
2A
102
}
330
2A
100
AcDbVisualStyle
  2
GouraudWithEdges
 70
     3
177
     2
291
     1
 71
     2
176
     1
 72
     2
176
     1
 73
     1
176
     1
 90
        2
176
     1
 40
-0.6
176
     1
 41
30.0
176
     1
 62
     5
 63
     7
421
 16777215
176
     1
 74
     1
176
     1
 91
        4
176
     1
 64
     7
176
     1
 65
   257
176
     1
 75
     1
176
     1
175
     1
176
     1
 42
1.0
176
     1
 92
        0
176
     1
 66
   257
176
     1
 43
1.0
176
     1
 76
     1
176
     1
 77
     6
176
     1
 78
     2
176
     1
 67
     7
176
     1
 79
     5
176
     1
170
     0
176
     1
171
     0
176
     1
290
     0
176
     1
 93
       13
176
     1
 44
0.0
176
     1
173
     0
176
     1
  0
VISUALSTYLE
  5
38
102
{ACAD_REACTORS
330
2A
102
}
330
2A
100
AcDbVisualStyle
  2
Linepattern
 70
    14
177
     2
291
     1
 71
     2
176
     1
 72
     2
176
     1
 73
     0
176
     1
 90
        0
176
     1
 40
-0.6
176
     1
 41
-30.0
176
     1
 62
     5
 63
     7
421
 16777215
176
     1
 74
     1
176
     1
 91
        4
176
     1
 64
     7
176
     1
 65
   257
176
     1
 75
     7
176
     1
175
     7
176
     1
 42
1.0
176
     1
 92
        8
176
     1
 66
     7
176
     1
 43
1.0
176
     1
 76
     1
176
     1
 77
     6
176
     1
 78
     2
176
     1
 67
     7
176
     1
 79
     5
176
     1
170
     0
176
     1
171
     0
176
     1
290
     0
176
     1
 93
        1
176
     1
 44
0.0
176
     1
173
     0
176
     1
  0
VISUALSTYLE
  5
33
102
{ACAD_REACTORS
330
2A
102
}
330
2A
100
AcDbVisualStyle
  2
Realistic
 70
     8
177
     2
291
     0
 71
     2
176
     1
 72
     2
176
     1
 73
     0
176
     1
 90
        0
176
     1
 40
-0.6
176
     1
 41
-30.0
176
     1
 62
     5
 63
     7
421
 16777215
176
     1
 74
     1
176
     1
 91
        0
176
     1
 64
     7
176
     1
 65
   257
176
     1
 75
     1
176
     1
175
     1
176
     1
 42
1.0
176
     1
 92
        8
176
     1
 66
     8
424
  7895160
176
     1
 43
1.0
176
     1
 76
     1
176
     1
 77
     6
176
     1
 78
     2
176
     1
 67
     7
176
     1
 79
     5
176
     1
170
     0
176
     1
171
     0
176
     1
290
     0
176
     1
 93
       13
176
     1
 44
0.0
176
     1
173
     0
176
     1
  0
VISUALSTYLE
  5
37
102
{ACAD_REACTORS
330
2A
102
}
330
2A
100
AcDbVisualStyle
  2
Thicken
 70
    13
177
     2
291
     1
 71
     2
176
     1
 72
     2
176
     1
 73
     0
176
     1
 90
        0
176
     1
 40
-0.6
176
     1
 41
-30.0
176
     1
 62
     5
 63
     7
421
 16777215
176
     1
 74
     1
176
     1
 91
        4
176
     1
 64
     7
176
     1
 65
   257
176
     1
 75
     1
176
     1
175
     1
176
     1
 42
1.0
176
     1
 92
       12
176
     1
 66
     7
176
     1
 43
1.0
176
     1
 76
     1
176
     1
 77
     6
176
     1
 78
     2
176
     1
 67
     7
176
     1
 79
     5
176
     1
170
     0
176
     1
171
     0
176
     1
290
     0
176
     1
 93
        1
176
     1
 44
0.0
176
     1
173
     0
176
     1
  0
ENDSEC
  0
EOF
