  0
SECTION
  2
HEADER
  9
$ACADVER
  1
AC1024
  9
$ACADMAINTVER
 70
   226
  9
$DWGCODEPAGE
  3
ANSI_932
  9
$INSBASE
 10
0.0
 20
0.0
 30
0.0
  9
$EXTMIN
 10
1.000000000000000E+20
 20
1.000000000000000E+20
 30
1.000000000000000E+20
  9
$EXTMAX
 10
-1.000000000000000E+20
 20
-1.000000000000000E+20
 30
-1.000000000000000E+20
  9
$LIMMIN
 10
0.0
 20
0.0
  9
$LIMMAX
 10
12.0
 20
9.0
  9
$ORTHOMODE
 70
     0
  9
$REGENMODE
 70
     1
  9
$FILLMODE
 70
     1
  9
$QTEXTMODE
 70
     0
  9
$MIRRTEXT
 70
     0
  9
$LTSCALE
 40
1.0
  9
$ATTMODE
 70
     1
  9
$TEXTSIZE
 40
0.2
  9
$TRACEWID
 40
0.05
  9
$TEXTSTYLE
  7
Standard
  9
$CLAYER
  8
0
  9
$CELTYPE
  6
ByLayer
  9
$CECOLOR
 62
   256
  9
$CELTSCALE
 40
1.0
  9
$DISPSILH
 70
     0
  9
$DIMSCALE
 40
1.0
  9
$DIMASZ
 40
0.18
  9
$DIMEXO
 40
0.0625
  9
$DIMDLI
 40
0.38
  9
$DIMRND
 40
0.0
  9
$DIMDLE
 40
0.0
  9
$DIMEXE
 40
0.18
  9
$DIMTP
 40
0.0
  9
$DIMTM
 40
0.0
  9
$DIMTXT
 40
0.18
  9
$DIMCEN
 40
0.09
  9
$DIMTSZ
 40
0.0
  9
$DIMTOL
 70
     0
  9
$DIMLIM
 70
     0
  9
$DIMTIH
 70
     1
  9
$DIMTOH
 70
     1
  9
$DIMSE1
 70
     0
  9
$DIMSE2
 70
     0
  9
$DIMTAD
 70
     0
  9
$DIMZIN
 70
     0
  9
$DIMBLK
  1

  9
$DIMASO
 70
     1
  9
$DIMSHO
 70
     1
  9
$DIMPOST
  1

  9
$DIMAPOST
  1

  9
$DIMALT
 70
     0
  9
$DIMALTD
 70
     2
  9
$DIMALTF
 40
25.4
  9
$DIMLFAC
 40
1.0
  9
$DIMTOFL
 70
     0
  9
$DIMTVP
 40
0.0
  9
$DIMTIX
 70
     0
  9
$DIMSOXD
 70
     0
  9
$DIMSAH
 70
     0
  9
$DIMBLK1
  1

  9
$DIMBLK2
  1

  9
$DIMSTYLE
  2
Standard
  9
$DIMCLRD
 70
     0
  9
$DIMCLRE
 70
     0
  9
$DIMCLRT
 70
     0
  9
$DIMTFAC
 40
1.0
  9
$DIMGAP
 40
0.09
  9
$DIMJUST
 70
     0
  9
$DIMSD1
 70
     0
  9
$DIMSD2
 70
     0
  9
$DIMTOLJ
 70
     1
  9
$DIMTZIN
 70
     0
  9
$DIMALTZ
 70
     0
  9
$DIMALTTZ
 70
     0
  9
$DIMUPT
 70
     0
  9
$DIMDEC
 70
     4
  9
$DIMTDEC
 70
     4
  9
$DIMALTU
 70
     2
  9
$DIMALTTD
 70
     2
  9
$DIMTXSTY
  7
Standard
  9
$DIMAUNIT
 70
     0
  9
$DIMADEC
 70
     0
  9
$DIMALTRND
 40
0.0
  9
$DIMAZIN
 70
     0
  9
$DIMDSEP
 70
    46
  9
$DIMATFIT
 70
     3
  9
$DIMFRAC
 70
     0
  9
$DIMLDRBLK
  1

  9
$DIMLUNIT
 70
     2
  9
$DIMLWD
 70
    -2
  9
$DIMLWE
 70
    -2
  9
$DIMTMOVE
 70
     0
  9
$DIMFXL
 40
1.0
  9
$DIMFXLON
 70
     0
  9
$DIMJOGANG
 40
0.7853981633974483
  9
$DIMTFILL
 70
     0
  9
$DIMTFILLCLR
 70
     0
  9
$DIMARCSYM
 70
     0
  9
$DIMLTYPE
  6

  9
$DIMLTEX1
  6

  9
$DIMLTEX2
  6

  9
$DIMTXTDIRECTION
 70
     0
  9
$LUNITS
 70
     2
  9
$LUPREC
 70
     4
  9
$SKETCHINC
 40
0.1
  9
$FILLETRAD
 40
0.0
  9
$AUNITS
 70
     0
  9
$AUPREC
 70
     0
  9
$MENU
  1
.
  9
$ELEVATION
 40
0.0
  9
$PELEVATION
 40
0.0
  9
$THICKNESS
 40
0.0
  9
$LIMCHECK
 70
     0
  9
$CHAMFERA
 40
0.0
  9
$CHAMFERB
 40
0.0
  9
$CHAMFERC
 40
0.0
  9
$CHAMFERD
 40
0.0
  9
$SKPOLY
 70
     0
  9
$TDCREATE
 40
2459569.490393519
  9
$TDUCREATE
 40
2459569.115393519
  9
$TDUPDATE
 40
2459569.490393519
  9
$TDUUPDATE
 40
2459569.115393519
  9
$TDINDWG
 40
0.0000000000
  9
$TDUSRTIMER
 40
0.0000000000
  9
$USRTIMER
 70
     1
  9
$ANGBASE
 50
0.0
  9
$ANGDIR
 70
     0
  9
$PDMODE
 70
     0
  9
$PDSIZE
 40
0.0
  9
$PLINEWID
 40
0.0
  9
$SPLFRAME
 70
     0
  9
$SPLINETYPE
 70
     6
  9
$SPLINESEGS
 70
     8
  9
$HANDSEED
  5
194
  9
$SURFTAB1
 70
     6
  9
$SURFTAB2
 70
     6
  9
$SURFTYPE
 70
     6
  9
$SURFU
 70
     6
  9
$SURFV
 70
     6
  9
$UCSBASE
  2

  9
$UCSNAME
  2

  9
$UCSORG
 10
0.0
 20
0.0
 30
0.0
  9
$UCSXDIR
 10
1.0
 20
0.0
 30
0.0
  9
$UCSYDIR
 10
0.0
 20
1.0
 30
0.0
  9
$UCSORTHOREF
  2

  9
$UCSORTHOVIEW
 70
     0
  9
$UCSORGTOP
 10
0.0
 20
0.0
 30
0.0
  9
$UCSORGBOTTOM
 10
0.0
 20
0.0
 30
0.0
  9
$UCSORGLEFT
 10
0.0
 20
0.0
 30
0.0
  9
$UCSORGRIGHT
 10
0.0
 20
0.0
 30
0.0
  9
$UCSORGFRONT
 10
0.0
 20
0.0
 30
0.0
  9
$UCSORGBACK
 10
0.0
 20
0.0
 30
0.0
  9
$PUCSBASE
  2

  9
$PUCSNAME
  2

  9
$PUCSORG
 10
0.0
 20
0.0
 30
0.0
  9
$PUCSXDIR
 10
1.0
 20
0.0
 30
0.0
  9
$PUCSYDIR
 10
0.0
 20
1.0
 30
0.0
  9
$PUCSORTHOREF
  2

  9
$PUCSORTHOVIEW
 70
     0
  9
$PUCSORGTOP
 10
0.0
 20
0.0
 30
0.0
  9
$PUCSORGBOTTOM
 10
0.0
 20
0.0
 30
0.0
  9
$PUCSORGLEFT
 10
0.0
 20
0.0
 30
0.0
  9
$PUCSORGRIGHT
 10
0.0
 20
0.0
 30
0.0
  9
$PUCSORGFRONT
 10
0.0
 20
0.0
 30
0.0
  9
$PUCSORGBACK
 10
0.0
 20
0.0
 30
0.0
  9
$USERI1
 70
     0
  9
$USERI2
 70
     0
  9
$USERI3
 70
     0
  9
$USERI4
 70
     0
  9
$USERI5
 70
     0
  9
$USERR1
 40
0.0
  9
$USERR2
 40
0.0
  9
$USERR3
 40
0.0
  9
$USERR4
 40
0.0
  9
$USERR5
 40
0.0
  9
$WORLDVIEW
 70
     1
  9
$SHADEDGE
 70
     3
  9
$SHADEDIF
 70
    70
  9
$TILEMODE
 70
     1
  9
$MAXACTVP
 70
    64
  9
$PINSBASE
 10
0.0
 20
0.0
 30
0.0
  9
$PLIMCHECK
 70
     0
  9
$PEXTMIN
 10
1.000000000000000E+20
 20
1.000000000000000E+20
 30
1.000000000000000E+20
  9
$PEXTMAX
 10
-1.000000000000000E+20
 20
-1.000000000000000E+20
 30
-1.000000000000000E+20
  9
$PLIMMIN
 10
0.0
 20
0.0
  9
$PLIMMAX
 10
12.0
 20
9.0
  9
$UNITMODE
 70
     0
  9
$VISRETAIN
 70
     1
  9
$PLINEGEN
 70
     0
  9
$PSLTSCALE
 70
     1
  9
$TREEDEPTH
 70
  3020
  9
$CMLSTYLE
  2
Standard
  9
$CMLJUST
 70
     0
  9
$CMLSCALE
 40
1.0
  9
$PROXYGRAPHICS
 70
     1
  9
$MEASUREMENT
 70
     0
  9
$CELWEIGHT
370
    -1
  9
$ENDCAPS
280
     0
  9
$JOINSTYLE
280
     0
  9
$LWDISPLAY
290
     1
  9
$INSUNITS
 70
     4
  9
$HYPERLINKBASE
  1

  9
$STYLESHEET
  1

  9
$XEDIT
290
     1
  9
$CEPSNTYPE
380
     0
  9
$PSTYLEMODE
290
     1
  9
$FINGERPRINTGUID
  2
{07467173-2584-684F-BBF1-0822832F79AF}
  9
$VERSIONGUID
  2
{0888C4B6-0435-B04D-8BD0-7EA19F8D0B96}
  9
$EXTNAMES
290
     1
  9
$PSVPSCALE
 40
0.0
  9
$OLESTARTUP
290
     0
  9
$SORTENTS
280
   127
  9
$INDEXCTL
280
     0
  9
$HIDETEXT
280
     1
  9
$XCLIPFRAME
280
     2
  9
$HALOGAP
280
     0
  9
$OBSCOLOR
 70
   257
  9
$OBSLTYPE
280
     0
  9
$INTERSECTIONDISPLAY
280
     0
  9
$INTERSECTIONCOLOR
 70
   257
  9
$DIMASSOC
280
     2
  9
$PROJECTNAME
  1

  9
$CAMERADISPLAY
290
     0
  9
$LENSLENGTH
 40
50.0
  9
$CAMERAHEIGHT
 40
0.0
  9
$STEPSPERSEC
 40
2.0
  9
$STEPSIZE
 40
6.0
  9
$3DDWFPREC
 40
2.0
  9
$PSOLWIDTH
 40
0.25
  9
$PSOLHEIGHT
 40
4.0
  9
$LOFTANG1
 40
1.570796326794896
  9
$LOFTANG2
 40
1.570796326794896
  9
$LOFTMAG1
 40
0.0
  9
$LOFTMAG2
 40
0.0
  9
$LOFTPARAM
 70
     7
  9
$LOFTNORMALS
280
     1
  9
$LATITUDE
 40
37.795
  9
$LONGITUDE
 40
-122.394
  9
$NORTHDIRECTION
 40
0.0
  9
$TIMEZONE
 70
 -8000
  9
$LIGHTGLYPHDISPLAY
280
     1
  9
$TILEMODELIGHTSYNCH
280
     1
  9
$CMATERIAL
347
11
  9
$SOLIDHIST
280
     0
  9
$SHOWHIST
280
     1
  9
$DWFFRAME
280
     2
  9
$DGNFRAME
280
     0
  9
$REALWORLDSCALE
290
     1
  9
$INTERFERECOLOR
 62
     1
  9
$INTERFEREOBJVS
345
33
  9
$INTERFEREVPVS
346
30
  9
$CSHADOW
280
     0
  9
$SHADOWPLANELOCATION
 40
0.0
  0
ENDSEC
  0
SECTION
  2
CLASSES
  0
CLASS
  1
ACDBDICTIONARYWDFLT
  2
AcDbDictionaryWithDefault
  3
ObjectDBX Classes
 90
        0
 91
        1
280
     0
281
     0
  0
CLASS
  1
MATERIAL
  2
AcDbMaterial
  3
ObjectDBX Classes
 90
     1153
 91
        3
280
     0
281
     0
  0
CLASS
  1
VISUALSTYLE
  2
AcDbVisualStyle
  3
ObjectDBX Classes
 90
     4095
 91
       24
280
     0
281
     0
  0
CLASS
  1
SCALE
  2
AcDbScale
  3
ObjectDBX Classes
 90
     1153
 91
       17
280
     0
281
     0
  0
CLASS
  1
TABLESTYLE
  2
AcDbTableStyle
  3
ObjectDBX Classes
 90
     4095
 91
        1
280
     0
281
     0
  0
CLASS
  1
MLEADERSTYLE
  2
AcDbMLeaderStyle
  3
ACDB_MLEADERSTYLE_CLASS
 90
     4095
 91
        1
280
     0
281
     0
  0
CLASS
  1
ACDBSECTIONVIEWSTYLE
  2
AcDbSectionViewStyle
  3
ObjectDBX Classes
 90
     1025
 91
        1
280
     0
281
     0
  0
CLASS
  1
ACDBDETAILVIEWSTYLE
  2
AcDbDetailViewStyle
  3
ObjectDBX Classes
 90
     1025
 91
        1
280
     0
281
     0
  0
CLASS
  1
DICTIONARYVAR
  2
AcDbDictionaryVar
  3
ObjectDBX Classes
 90
        0
 91
        5
280
     0
281
     0
  0
CLASS
  1
CELLSTYLEMAP
  2
AcDbCellStyleMap
  3
ObjectDBX Classes
 90
     1152
 91
        1
280
     0
281
     0
  0
ENDSEC
  0
SECTION
  2
TABLES
  0
TABLE
  2
VPORT
  5
8
330
0
100
AcDbSymbolTable
 70
     1
  0
VPORT
  5
57
330
8
100
AcDbSymbolTableRecord
100
AcDbViewportTableRecord
  2
*Active
 70
     0
 10
0.0
 20
0.0
 11
1.0
 21
1.0
 12
0.0
 22
0.0
 13
0.0
 23
0.0
 14
1.0
 24
1.0
 15
0.0
 25
0.0
 16
0.0
 26
0.0
 36
1.0
 17
104.9999999737534
 27
-148.4999999628701
 37
0.0
 40
302.939999924255
 41
0.7070707070707534
 42
50.0
 43
0.0
 44
0.0
 50
0.0
 51
0.0
 71
     0
 72
   100
 73
     1
 74
     0
 75
     1
 76
     0
 77
     0
 78
     0
281
     0
 65
     1
110
0.0
120
0.0
130
0.0
111
1.0
121
0.0
131
0.0
112
0.0
122
1.0
132
0.0
 79
     0
146
0.0
 60
     3
 61
     5
292
     1
282
     1
141
0.0
142
0.0
 63
   250
421
  3355443
  0
ENDTAB
  0
TABLE
  2
LTYPE
  5
5
330
0
100
AcDbSymbolTable
 70
     2
  0
LTYPE
  5
5B
330
5
100
AcDbSymbolTableRecord
100
AcDbLinetypeTableRecord
  2
ByBlock
 70
     0
  3

 72
    65
 73
     0
 40
0.0
  0
LTYPE
  5
5C
330
5
100
AcDbSymbolTableRecord
100
AcDbLinetypeTableRecord
  2
ByLayer
 70
     0
  3

 72
    65
 73
     0
 40
0.0
  0
LTYPE
  5
5D
330
5
100
AcDbSymbolTableRecord
100
AcDbLinetypeTableRecord
  2
Continuous
 70
     0
  3
Solid line
 72
    65
 73
     0
 40
0.0
  0
LTYPE
  5
D3
330
5
100
AcDbSymbolTableRecord
100
AcDbLinetypeTableRecord
  2
AI-Linetype-0
 70
     0
  3
Adobe Illustrator Linetype No. 0
 72
    65
 73
     2
 40
1.411111110758333
 49
0.7055555553791667
 74
     0
 49
-0.7055555553791667
 74
     0
  0
ENDTAB
  0
TABLE
  2
LAYER
  5
2
330
0
100
AcDbSymbolTable
 70
     2
  0
LAYER
  5
54
330
2
100
AcDbSymbolTableRecord
100
AcDbLayerTableRecord
  2
0
 70
     0
 62
     7
  6
Continuous
370
    -3
390
F
347
21
  0
LAYER
  5
78
330
2
100
AcDbSymbolTableRecord
100
AcDbLayerTableRecord
  2
レイヤー 1
 70
     0
 62
     7
  6
Continuous
370
     0
390
F
347
21
  0
ENDTAB
  0
TABLE
  2
STYLE
  5
3
330
0
100
AcDbSymbolTable
 70
     2
  0
STYLE
  5
55
330
3
100
AcDbSymbolTableRecord
100
AcDbTextStyleTableRecord
  2
Standard
 70
     0
 40
0.0
 41
1.0
 50
0.0
 71
     0
 42
0.2
  3
txt
  4

  0
STYLE
  5
5A
330
3
100
AcDbSymbolTableRecord
100
AcDbTextStyleTableRecord
  2
Annotative
 70
     0
 40
0.0
 41
1.0
 50
0.0
 71
     0
 42
0.2
  3
txt
  4

1001
AcadAnnotative
1000
AnnotativeData
1002
{
1070
     1
1070
     1
1002
}
  0
ENDTAB
  0
TABLE
  2
VIEW
  5
6
330
0
100
AcDbSymbolTable
 70
     0
  0
ENDTAB
  0
TABLE
  2
UCS
  5
7
330
0
100
AcDbSymbolTable
 70
     0
  0
ENDTAB
  0
TABLE
  2
APPID
  5
9
330
0
100
AcDbSymbolTable
 70
     2
  0
APPID
  5
56
330
9
100
AcDbSymbolTableRecord
100
AcDbRegAppTableRecord
  2
ACAD
 70
     0
  0
APPID
  5
5E
330
9
100
AcDbSymbolTableRecord
100
AcDbRegAppTableRecord
  2
AcadAnnotative
 70
     0
  0
ENDTAB
  0
TABLE
  2
DIMSTYLE
  5
A
330
0
100
AcDbSymbolTable
 70
     2
100
AcDbDimStyleTable
 71
     0
  0
DIMSTYLE
105
58
330
A
100
AcDbSymbolTableRecord
100
AcDbDimStyleTableRecord
  2
Standard
 70
     0
340
55
  0
DIMSTYLE
105
59
330
A
100
AcDbSymbolTableRecord
100
AcDbDimStyleTableRecord
  2
Annotative
 70
     0
340
55
1001
AcadAnnotative
1000
AnnotativeData
1002
{
1070
     1
1070
     1
1002
}
  0
ENDTAB
  0
TABLE
  2
BLOCK_RECORD
  5
1
330
0
100
AcDbSymbolTable
 70
    19
  0
BLOCK_RECORD
  5
70
330
1
100
AcDbSymbolTableRecord
100
AcDbBlockTableRecord
  2
*Model_Space
340
73
 70
     0
280
     1
281
     0
  0
BLOCK_RECORD
  5
6C
330
1
100
AcDbSymbolTableRecord
100
AcDbBlockTableRecord
  2
*Paper_Space
340
6F
 70
     0
280
     1
281
     0
  0
BLOCK_RECORD
  5
74
330
1
100
AcDbSymbolTableRecord
100
AcDbBlockTableRecord
  2
*Paper_Space0
340
77
 70
     0
280
     1
281
     0
  0
BLOCK_RECORD
  5
79
330
1
100
AcDbSymbolTableRecord
100
AcDbBlockTableRecord
  2
Block_0
340
0
102
{BLKREFS
331
7A
102
}
 70
     0
280
     1
281
     0
  0
BLOCK_RECORD
  5
90
330
1
100
AcDbSymbolTableRecord
100
AcDbBlockTableRecord
  2
Block_1
340
0
102
{BLKREFS
331
91
102
}
 70
     0
280
     1
281
     0
  0
BLOCK_RECORD
  5
94
330
1
100
AcDbSymbolTableRecord
100
AcDbBlockTableRecord
  2
Block_2
340
0
102
{BLKREFS
331
95
102
}
 70
     0
280
     1
281
     0
  0
BLOCK_RECORD
  5
A1
330
1
100
AcDbSymbolTableRecord
100
AcDbBlockTableRecord
  2
Block_3
340
0
102
{BLKREFS
331
A2
102
}
 70
     0
280
     1
281
     0
  0
BLOCK_RECORD
  5
A5
330
1
100
AcDbSymbolTableRecord
100
AcDbBlockTableRecord
  2
Block_4
340
0
102
{BLKREFS
331
A6
102
}
 70
     0
280
     1
281
     0
  0
BLOCK_RECORD
  5
AF
330
1
100
AcDbSymbolTableRecord
100
AcDbBlockTableRecord
  2
Block_5
340
0
102
{BLKREFS
331
B0
102
}
 70
     0
280
     1
281
     0
  0
BLOCK_RECORD
  5
B9
330
1
100
AcDbSymbolTableRecord
100
AcDbBlockTableRecord
  2
Block_6
340
0
102
{BLKREFS
331
BA
102
}
 70
     0
280
     1
281
     0
  0
BLOCK_RECORD
  5
C4
330
1
100
AcDbSymbolTableRecord
100
AcDbBlockTableRecord
  2
Block_7
340
0
102
{BLKREFS
331
C5
102
}
 70
     0
280
     1
281
     0
  0
BLOCK_RECORD
  5
CC
330
1
100
AcDbSymbolTableRecord
100
AcDbBlockTableRecord
  2
Block_8
340
0
102
{BLKREFS
331
CD
102
}
 70
     0
280
     1
281
     0
  0
BLOCK_RECORD
  5
D4
330
1
100
AcDbSymbolTableRecord
100
AcDbBlockTableRecord
  2
Block_9
340
0
102
{BLKREFS
331
D5
102
}
 70
     0
280
     1
281
     0
  0
BLOCK_RECORD
  5
D8
330
1
100
AcDbSymbolTableRecord
100
AcDbBlockTableRecord
  2
Block_10
340
0
102
{BLKREFS
331
D9
102
}
 70
     0
280
     1
281
     0
  0
BLOCK_RECORD
  5
DF
330
1
100
AcDbSymbolTableRecord
100
AcDbBlockTableRecord
  2
Block_11
340
0
102
{BLKREFS
331
E0
102
}
 70
     0
280
     1
281
     0
  0
BLOCK_RECORD
  5
E3
330
1
100
AcDbSymbolTableRecord
100
AcDbBlockTableRecord
  2
Block_12
340
0
102
{BLKREFS
331
E4
102
}
 70
     0
280
     1
281
     0
  0
BLOCK_RECORD
  5
FA
330
1
100
AcDbSymbolTableRecord
100
AcDbBlockTableRecord
  2
Block_13
340
0
102
{BLKREFS
331
FB
102
}
 70
     0
280
     1
281
     0
  0
BLOCK_RECORD
  5
FE
330
1
100
AcDbSymbolTableRecord
100
AcDbBlockTableRecord
  2
Block_14
340
0
102
{BLKREFS
331
FF
102
}
 70
     0
280
     1
281
     0
  0
BLOCK_RECORD
  5
105
330
1
100
AcDbSymbolTableRecord
100
AcDbBlockTableRecord
  2
Block_15
340
0
102
{BLKREFS
331
106
102
}
 70
     0
280
     1
281
     0
  0
BLOCK_RECORD
  5
109
330
1
100
AcDbSymbolTableRecord
100
AcDbBlockTableRecord
  2
Block_16
340
0
102
{BLKREFS
331
10A
102
}
 70
     0
280
     1
281
     0
  0
BLOCK_RECORD
  5
11D
330
1
100
AcDbSymbolTableRecord
100
AcDbBlockTableRecord
  2
Block_17
340
0
102
{BLKREFS
331
11E
102
}
 70
     0
280
     1
281
     0
  0
ENDTAB
  0
ENDSEC
  0
SECTION
  2
BLOCKS
  0
BLOCK
  5
71
330
70
100
AcDbEntity
  8
0
100
AcDbBlockBegin
  2
*Model_Space
 70
     0
 10
0.0
 20
0.0
 30
0.0
  3
*Model_Space
  1

  0
ENDBLK
  5
72
330
70
100
AcDbEntity
  8
0
100
AcDbBlockEnd
  0
BLOCK
  5
6D
330
6C
100
AcDbEntity
 67
     1
  8
0
100
AcDbBlockBegin
  2
*Paper_Space
 70
     0
 10
0.0
 20
0.0
 30
0.0
  3
*Paper_Space
  1

  0
ENDBLK
  5
6E
330
6C
100
AcDbEntity
 67
     1
  8
0
100
AcDbBlockEnd
  0
BLOCK
  5
75
330
74
100
AcDbEntity
 67
     1
  8
0
100
AcDbBlockBegin
  2
*Paper_Space0
 70
     0
 10
0.0
 20
0.0
 30
0.0
  3
*Paper_Space0
  1

  0
ENDBLK
  5
76
330
74
100
AcDbEntity
 67
     1
  8
0
100
AcDbBlockEnd
  0
BLOCK
  5
7B
330
79
100
AcDbEntity
  8
0
100
AcDbBlockBegin
  2
Block_0
 70
     0
 10
0.0
 20
0.0
 30
0.0
  3
Block_0
  1

  0
LINE
  5
7D
330
79
100
AcDbEntity
  8
レイヤー 1
 62
   250
420
  2299925
370
    25
100
AcDbLine
 10
121.9387373298309
 20
-152.9278892484517
 30
0.0
 11
116.938869012829
 21
-152.9278892484517
 31
0.0
  0
LINE
  5
7E
330
79
100
AcDbEntity
  8
レイヤー 1
 62
   250
420
  2299925
370
    25
100
AcDbLine
 10
90.93731943384524
 20
-146.4278014444834
 30
0.0
 11
90.93731943384524
 21
-146.9280050554693
 31
0.0
  0
LINE
  5
7F
330
79
100
AcDbEntity
  8
レイヤー 1
 62
   250
420
  2299925
370
    25
100
AcDbLine
 10
117.9393468498528
 20
-146.9280050554693
 30
0.0
 11
90.93731943384524
 21
-146.9280050554693
 31
0.0
  0
LINE
  5
80
330
79
100
AcDbEntity
  8
レイヤー 1
 62
   250
420
  2299925
370
    25
100
AcDbLine
 10
116.999107901703
 20
-145.6657308891186
 30
0.0
 11
117.9386412348016
 21
-145.6657308891186
 31
0.0
  0
LINE
  5
81
330
79
100
AcDbEntity
  8
レイヤー 1
 62
   250
420
  2299925
370
    25
100
AcDbLine
 10
117.9386410652595
 20
-145.6657308891186
 30
0.0
 11
117.9386410652595
 21
-151.9277642208863
 31
0.0
  0
LINE
  5
82
330
79
100
AcDbEntity
  8
レイヤー 1
 62
   250
420
  2299925
370
    25
100
AcDbLine
 10
116.938869012829
 20
-146.9280050554693
 30
0.0
 11
116.938869012829
 21
-152.9278892206366
 31
0.0
  0
LINE
  5
83
330
79
100
AcDbEntity
  8
レイヤー 1
 62
   250
420
  2299925
370
    25
100
AcDbLine
 10
121.9387372450599
 20
-151.927764248702
 30
0.0
 11
117.9386410652595
 21
-151.927764248702
 31
0.0
  0
LINE
  5
84
330
79
100
AcDbEntity
  8
レイヤー 1
 62
   250
420
  2299925
370
    25
100
AcDbLine
 10
120.9382594928064
 20
-145.6657308891186
 30
0.0
 11
120.9382594928064
 21
-151.9277642208863
 31
0.0
  0
LINE
  5
85
330
79
100
AcDbEntity
  8
レイヤー 1
 62
   250
420
  2299925
370
    25
100
AcDbLine
 10
121.9387372450599
 20
-145.6657308891186
 30
0.0
 11
121.9387372450599
 21
-152.9278892206366
 31
0.0
  0
SPLINE
  5
86
330
79
100
AcDbEntity
  8
レイヤー 1
 62
   250
420
  2299925
370
     9
100
AcDbSpline
210
0.0
220
0.0
230
1.0
 70
     9
 71
     3
 72
    17
 73
    13
 74
     0
 42
0.0000000001
 43
0.0000000001
 40
0.0
 40
0.0
 40
0.0
 40
0.0
 40
1.0
 40
1.0
 40
1.0
 40
2.0
 40
2.0
 40
2.0
 40
3.0
 40
3.0
 40
3.0
 40
4.0
 40
4.0
 40
4.0
 40
4.0
 10
91.0372260979634
 20
-141.6659717234514
 30
0.0
 10
91.0372260979634
 20
-141.6105150567987
 30
0.0
 10
90.99246068598235
 20
-141.5657122790323
 30
0.0
 10
90.93731943384524
 20
-141.5657122790323
 30
0.0
 10
90.8822155463625
 20
-141.5657122790323
 30
0.0
 10
90.83741276972773
 20
-141.6105150567987
 30
0.0
 10
90.83741276972773
 20
-141.6659717234514
 30
0.0
 10
90.83741276972773
 20
-141.7211108901045
 30
0.0
 10
90.8822155463625
 20
-141.7658783900934
 30
0.0
 10
90.93731943384524
 20
-141.7658783900934
 30
0.0
 10
90.99246068598235
 20
-141.7658783900934
 30
0.0
 10
91.0372260979634
 20
-141.7211108901045
 30
0.0
 10
91.0372260979634
 20
-141.6659717234514
 30
0.0
  0
SPLINE
  5
87
330
79
100
AcDbEntity
  8
レイヤー 1
 62
   250
420
  2299925
370
     9
100
AcDbSpline
210
0.0
220
0.0
230
1.0
 70
     9
 71
     3
 72
    17
 73
    13
 74
     0
 42
0.0000000001
 43
0.0000000001
 40
0.0
 40
0.0
 40
0.0
 40
0.0
 40
1.0
 40
1.0
 40
1.0
 40
2.0
 40
2.0
 40
2.0
 40
3.0
 40
3.0
 40
3.0
 40
4.0
 40
4.0
 40
4.0
 40
4.0
 10
87.03750231111596
 20
-146.4278014444834
 30
0.0
 10
87.03750231111596
 20
-146.3726622778304
 30
0.0
 10
86.99269953448121
 20
-146.3278947778418
 30
0.0
 10
86.93724286922936
 20
-146.3278947778418
 30
0.0
 10
86.88210370396941
 20
-146.3278947778418
 30
0.0
 10
86.83733620511153
 20
-146.3726622778304
 30
0.0
 10
86.83733620511153
 20
-146.4278014444834
 30
0.0
 10
86.83733620511153
 20
-146.4829053333583
 30
0.0
 10
86.88210370396941
 20
-146.5277081111251
 30
0.0
 10
86.93724286922936
 20
-146.5277081111251
 30
0.0
 10
86.99269953448121
 20
-146.5277081111251
 30
0.0
 10
87.03750231111596
 20
-146.4829053333583
 30
0.0
 10
87.03750231111596
 20
-146.4278014444834
 30
0.0
  0
SPLINE
  5
88
330
79
100
AcDbEntity
  8
レイヤー 1
 62
   250
420
  2299925
370
     9
100
AcDbSpline
210
0.0
220
0.0
230
1.0
 70
     9
 71
     3
 72
    17
 73
    13
 74
     0
 42
0.0000000001
 43
0.0000000001
 40
0.0
 40
0.0
 40
0.0
 40
0.0
 40
1.0
 40
1.0
 40
1.0
 40
2.0
 40
2.0
 40
2.0
 40
3.0
 40
3.0
 40
3.0
 40
4.0
 40
4.0
 40
4.0
 40
4.0
 10
87.03750231111596
 20
-146.9280050554693
 30
0.0
 10
87.03750231111596
 20
-146.8729011665944
 30
0.0
 10
86.99269953448121
 20
-146.8280983888277
 30
0.0
 10
86.93724286922936
 20
-146.8280983888277
 30
0.0
 10
86.88210370396941
 20
-146.8280983888277
 30
0.0
 10
86.83733620511153
 20
-146.8729011665944
 30
0.0
 10
86.83733620511153
 20
-146.9280050554693
 30
0.0
 10
86.83733620511153
 20
-146.9831442221224
 30
0.0
 10
86.88210370396941
 20
-147.0279117221109
 30
0.0
 10
86.93724286922936
 20
-147.0279117221109
 30
0.0
 10
86.99269953448121
 20
-147.0279117221109
 30
0.0
 10
87.03750231111596
 20
-146.9831442221224
 30
0.0
 10
87.03750231111596
 20
-146.9280050554693
 30
0.0
  0
SPLINE
  5
89
330
79
100
AcDbEntity
  8
レイヤー 1
 62
   250
420
  2299925
370
     9
100
AcDbSpline
210
0.0
220
0.0
230
1.0
 70
     9
 71
     3
 72
    17
 73
    13
 74
     0
 42
0.0000000001
 43
0.0000000001
 40
0.0
 40
0.0
 40
0.0
 40
0.0
 40
1.0
 40
1.0
 40
1.0
 40
2.0
 40
2.0
 40
2.0
 40
3.0
 40
3.0
 40
3.0
 40
4.0
 40
4.0
 40
4.0
 40
4.0
 10
87.03750231111596
 20
-152.9278892484517
 30
0.0
 10
87.03750231111596
 20
-152.8727500817986
 30
0.0
 10
86.99269953448121
 20
-152.82798258181
 30
0.0
 10
86.93724286922936
 20
-152.82798258181
 30
0.0
 10
86.88210370396941
 20
-152.82798258181
 30
0.0
 10
86.83733620511153
 20
-152.8727500817986
 30
0.0
 10
86.83733620511153
 20
-152.9278892484517
 30
0.0
 10
86.83733620511153
 20
-152.9829931373266
 30
0.0
 10
86.88210370396941
 20
-153.0277959150927
 30
0.0
 10
86.93724286922936
 20
-153.0277959150927
 30
0.0
 10
86.99269953448121
 20
-153.0277959150927
 30
0.0
 10
87.03750231111596
 20
-152.9829931373266
 30
0.0
 10
87.03750231111596
 20
-152.9278892484517
 30
0.0
  0
SPLINE
  5
8A
330
79
100
AcDbEntity
  8
レイヤー 1
 62
   250
420
  2299925
370
     9
100
AcDbSpline
210
0.0
220
0.0
230
1.0
 70
     9
 71
     3
 72
    17
 73
    13
 74
     0
 42
0.0000000001
 43
0.0000000001
 40
0.0
 40
0.0
 40
0.0
 40
0.0
 40
1.0
 40
1.0
 40
1.0
 40
2.0
 40
2.0
 40
2.0
 40
3.0
 40
3.0
 40
3.0
 40
4.0
 40
4.0
 40
4.0
 40
4.0
 10
118.0385451133552
 20
-141.6659717234514
 30
0.0
 10
118.0385451133552
 20
-141.6105150567987
 30
0.0
 10
117.9937423367205
 20
-141.5657122790323
 30
0.0
 10
117.9386410652595
 20
-141.5657122790323
 30
0.0
 10
117.8834992839774
 20
-141.5657122790323
 30
0.0
 10
117.8387317851195
 20
-141.6105150567987
 30
0.0
 10
117.8387317851195
 20
-141.6659717234514
 30
0.0
 10
117.8387317851195
 20
-141.7211108901045
 30
0.0
 10
117.8834992839774
 20
-141.7658783900934
 30
0.0
 10
117.9386410652595
 20
-141.7658783900934
 30
0.0
 10
117.9937423367205
 20
-141.7658783900934
 30
0.0
 10
118.0385451133552
 20
-141.7211108901045
 30
0.0
 10
118.0385451133552
 20
-141.6659717234514
 30
0.0
  0
SPLINE
  5
8B
330
79
100
AcDbEntity
  8
レイヤー 1
 62
   250
420
  2299925
370
     9
100
AcDbSpline
210
0.0
220
0.0
230
1.0
 70
     9
 71
     3
 72
    17
 73
    13
 74
     0
 42
0.0000000001
 43
0.0000000001
 40
0.0
 40
0.0
 40
0.0
 40
0.0
 40
1.0
 40
1.0
 40
1.0
 40
2.0
 40
2.0
 40
2.0
 40
3.0
 40
3.0
 40
3.0
 40
4.0
 40
4.0
 40
4.0
 40
4.0
 10
121.0381689270332
 20
-141.6659717234514
 30
0.0
 10
121.0381689270332
 20
-141.6105150567987
 30
0.0
 10
120.9933986580664
 20
-141.5657122790323
 30
0.0
 10
120.9382594928064
 20
-141.5657122790323
 30
0.0
 10
120.8831556053234
 20
-141.5657122790323
 30
0.0
 10
120.8383528286886
 20
-141.6105150567987
 30
0.0
 10
120.8383528286886
 20
-141.6659717234514
 30
0.0
 10
120.8383528286886
 20
-141.7211108901045
 30
0.0
 10
120.8831556053234
 20
-141.7658783900934
 30
0.0
 10
120.9382594928064
 20
-141.7658783900934
 30
0.0
 10
120.9933986580664
 20
-141.7658783900934
 30
0.0
 10
121.0381689270332
 20
-141.7211108901045
 30
0.0
 10
121.0381689270332
 20
-141.6659717234514
 30
0.0
  0
LINE
  5
8C
330
79
100
AcDbEntity
  8
レイヤー 1
 62
   250
420
  2299925
370
     9
100
AcDbLine
 10
86.93724286922936
 20
-146.4278014444834
 30
0.0
 11
86.93724286922936
 21
-141.1698956124645
 31
0.0
  0
LINE
  5
8D
330
79
100
AcDbEntity
  8
レイヤー 1
 62
   250
420
  2299925
370
     9
100
AcDbLine
 10
86.93724286922936
 20
-146.4278014444834
 30
0.0
 11
86.93724286922936
 21
-146.9280050554693
 31
0.0
  0
LINE
  5
8E
330
79
100
AcDbEntity
  8
レイヤー 1
 62
   250
420
  2299925
370
     9
100
AcDbLine
 10
88.39724894309261
 20
-146.4278014444834
 30
0.0
 11
85.937117894745
 21
-146.4278014444834
 31
0.0
  0
LINE
  5
8F
330
79
100
AcDbEntity
  8
レイヤー 1
 62
   250
420
  2299925
370
     9
100
AcDbLine
 10
88.39724894309261
 20
-146.9280050554693
 30
0.0
 11
85.937117894745
 21
-146.9280050554693
 31
0.0
  0
INSERT
  5
91
330
79
100
AcDbEntity
  8
レイヤー 1
100
AcDbBlockReference
  2
Block_1
 10
0.0
 20
0.0
 30
0.0
  0
LINE
  5
9F
330
79
100
AcDbEntity
  8
レイヤー 1
 62
   250
420
  2299925
370
     9
100
AcDbLine
 10
90.93731943384524
 20
-141.6659717234514
 30
0.0
 11
117.9386412348016
 21
-141.6659717234514
 31
0.0
  0
LINE
  5
A0
330
79
100
AcDbEntity
  8
レイヤー 1
 62
   250
420
  2299925
370
     9
100
AcDbLine
 10
90.93731943384524
 20
-143.8880483895627
 30
0.0
 11
90.93731943384524
 21
-140.6658467237017
 31
0.0
  0
INSERT
  5
A2
330
79
100
AcDbEntity
  8
レイヤー 1
100
AcDbBlockReference
  2
Block_3
 10
0.0
 20
0.0
 30
0.0
  0
LINE
  5
AD
330
79
100
AcDbEntity
  8
レイヤー 1
 62
   250
420
  2299925
370
     9
100
AcDbLine
 10
86.93724286922936
 20
-146.9280050554693
 30
0.0
 11
86.93724286922936
 21
-152.9278892206366
 31
0.0
  0
LINE
  5
AE
330
79
100
AcDbEntity
  8
レイヤー 1
 62
   250
420
  2299925
370
     9
100
AcDbLine
 10
114.3991487090793
 20
-152.9278892206366
 30
0.0
 11
85.937117894745
 21
-152.9278892206366
 31
0.0
  0
INSERT
  5
B0
330
79
100
AcDbEntity
  8
レイヤー 1
100
AcDbBlockReference
  2
Block_5
 10
0.0
 20
0.0
 30
0.0
  0
LINE
  5
B6
330
79
100
AcDbEntity
  8
レイヤー 1
 62
   250
420
  2299925
370
     9
100
AcDbLine
 10
117.9386410652595
 20
-141.6659717234514
 30
0.0
 11
120.9382594080355
 21
-141.6659717234514
 31
0.0
  0
LINE
  5
B7
330
79
100
AcDbEntity
  8
レイヤー 1
 62
   250
420
  2299925
370
     9
100
AcDbLine
 10
117.9386410652595
 20
-143.1260131119751
 30
0.0
 11
117.9386410652595
 21
-140.6658467237017
 31
0.0
  0
LINE
  5
B8
330
79
100
AcDbEntity
  8
レイヤー 1
 62
   250
420
  2299925
370
     9
100
AcDbLine
 10
120.9382594928064
 20
-143.1260131119751
 30
0.0
 11
120.9382594928064
 21
-140.6658467237017
 31
0.0
  0
INSERT
  5
BA
330
79
100
AcDbEntity
  8
レイヤー 1
100
AcDbBlockReference
  2
Block_6
 10
0.0
 20
0.0
 30
0.0
  0
SPLINE
  5
BF
330
79
100
AcDbEntity
  8
レイヤー 1
 62
   250
420
  2299925
370
     9
100
AcDbSpline
210
0.0
220
0.0
230
1.0
 70
     9
 71
     3
 72
    17
 73
    13
 74
     0
 42
0.0000000001
 43
0.0000000001
 40
0.0
 40
0.0
 40
0.0
 40
0.0
 40
1.0
 40
1.0
 40
1.0
 40
2.0
 40
2.0
 40
2.0
 40
3.0
 40
3.0
 40
3.0
 40
4.0
 40
4.0
 40
4.0
 40
4.0
 10
117.0387729166393
 20
-157.0413134140903
 30
0.0
 10
117.0387729166393
 20
-156.9862095252148
 30
0.0
 10
116.9932998622439
 20
-156.9414067474481
 30
0.0
 10
116.9381959747608
 20
-156.9414067474481
 30
0.0
 10
116.8830568095009
 20
-156.9414067474481
 30
0.0
 10
116.8382893106429
 20
-156.9862095252148
 30
0.0
 10
116.8382893106429
 20
-157.0413134140903
 30
0.0
 10
116.8382893106429
 20
-157.0964525807428
 30
0.0
 10
116.8830568095009
 20
-157.141220080732
 30
0.0
 10
116.9381959747608
 20
-157.141220080732
 30
0.0
 10
116.9932998622439
 20
-157.141220080732
 30
0.0
 10
117.0387729166393
 20
-157.0964525807428
 30
0.0
 10
117.0387729166393
 20
-157.0413134140903
 30
0.0
  0
SPLINE
  5
C0
330
79
100
AcDbEntity
  8
レイヤー 1
 62
   250
420
  2299925
370
     9
100
AcDbSpline
210
0.0
220
0.0
230
1.0
 70
     9
 71
     3
 72
    17
 73
    13
 74
     0
 42
0.0000000001
 43
0.0000000001
 40
0.0
 40
0.0
 40
0.0
 40
0.0
 40
1.0
 40
1.0
 40
1.0
 40
2.0
 40
2.0
 40
2.0
 40
3.0
 40
3.0
 40
3.0
 40
4.0
 40
4.0
 40
4.0
 40
4.0
 10
122.0386467045606
 20
-157.0413134140903
 30
0.0
 10
122.0386467045606
 20
-156.9862095252148
 30
0.0
 10
121.9938439267939
 20
-156.9414067474481
 30
0.0
 10
121.9387372450599
 20
-156.9414067474481
 30
0.0
 10
121.8829278020393
 20
-156.9414067474481
 30
0.0
 10
121.8388305809421
 20
-156.9862095252148
 30
0.0
 10
121.8388305809421
 20
-157.0413134140903
 30
0.0
 10
121.8388305809421
 20
-157.0964525807428
 30
0.0
 10
121.8829278020393
 20
-157.141220080732
 30
0.0
 10
121.9387372450599
 20
-157.141220080732
 30
0.0
 10
121.9938439267939
 20
-157.141220080732
 30
0.0
 10
122.0386467045606
 20
-157.0964525807428
 30
0.0
 10
122.0386467045606
 20
-157.0413134140903
 30
0.0
  0
LINE
  5
C1
330
79
100
AcDbEntity
  8
レイヤー 1
 62
   250
420
  2299925
370
     9
100
AcDbLine
 10
121.9387373298309
 20
-157.0413134140903
 30
0.0
 11
116.9381961443028
 21
-157.0413134140903
 31
0.0
  0
LINE
  5
C2
330
79
100
AcDbEntity
  8
レイヤー 1
 62
   250
420
  2299925
370
     9
100
AcDbLine
 10
121.9387372450599
 20
-155.5813073033435
 30
0.0
 11
121.9387372450599
 21
-158.04143841384
 31
0.0
  0
LINE
  5
C3
330
79
100
AcDbEntity
  8
レイヤー 1
 62
   250
420
  2299925
370
     9
100
AcDbLine
 10
116.9381959747608
 20
-155.5813073033435
 30
0.0
 11
116.9381959747608
 21
-158.04143841384
 31
0.0
  0
INSERT
  5
C5
330
79
100
AcDbEntity
  8
レイヤー 1
100
AcDbBlockReference
  2
Block_7
 10
0.0
 20
0.0
 30
0.0
  0
LINE
  5
CA
330
79
100
AcDbEntity
  8
レイヤー 1
 62
   250
420
  2299925
370
    25
100
AcDbLine
 10
121.9387372450599
 20
-145.6657308891186
 30
0.0
 11
120.9382594928064
 21
-145.6657308891186
 31
0.0
  0
LINE
  5
CB
330
79
100
AcDbEntity
  8
レイヤー 1
 62
   250
420
  2299925
370
     9
100
AcDbLine
 10
119.4388030017876
 20
-150.573168137929
 30
0.0
 11
126.8803776321582
 21
-150.573168137929
 31
0.0
  0
INSERT
  5
CD
330
79
100
AcDbEntity
  8
レイヤー 1
100
AcDbBlockReference
  2
Block_8
 10
0.0
 20
0.0
 30
0.0
  0
LINE
  5
D2
330
79
100
AcDbEntity
  8
レイヤー 1
  6
AI-Linetype-0
 62
   154
420
    23468
370
    25
100
AcDbLine
 10
90.93731943384524
 20
-147.8034231108059
 30
0.0
 11
105.9373194300953
 21
-147.8034231108059
 31
0.0
  0
INSERT
  5
D5
330
79
100
AcDbEntity
  8
レイヤー 1
100
AcDbBlockReference
  2
Block_9
 10
0.0
 20
0.0
 30
0.0
  0
ENDBLK
  5
7C
330
79
100
AcDbEntity
  8
0
100
AcDbBlockEnd
  0
BLOCK
  5
92
330
90
100
AcDbEntity
  8
0
100
AcDbBlockBegin
  2
Block_1
 70
     0
 10
0.0
 20
0.0
 30
0.0
  3
Block_1
  1

  0
INSERT
  5
95
330
90
100
AcDbEntity
  8
レイヤー 1
100
AcDbBlockReference
  2
Block_2
 10
0.0
 20
0.0
 30
0.0
  0
ENDBLK
  5
93
330
90
100
AcDbEntity
  8
0
100
AcDbBlockEnd
  0
BLOCK
  5
96
330
94
100
AcDbEntity
  8
0
100
AcDbBlockBegin
  2
Block_2
 70
     0
 10
0.0
 20
0.0
 30
0.0
  3
Block_2
  1

  0
SPLINE
  5
98
330
94
100
AcDbEntity
  8
レイヤー 1
100
AcDbSpline
210
0.0
220
0.0
230
1.0
 70
     9
 71
     3
 72
    17
 73
    13
 74
     0
 42
0.0000000001
 43
0.0000000001
 40
0.0
 40
0.0
 40
0.0
 40
0.0
 40
1.0
 40
1.0
 40
1.0
 40
2.0
 40
2.0
 40
2.0
 40
3.0
 40
3.0
 40
3.0
 40
4.0
 40
4.0
 40
4.0
 40
4.0
 10
84.09271373765738
 20
-147.5417263086007
 30
0.0
 10
84.09271373765738
 20
-147.7914957312813
 30
0.0
 10
84.37607284131919
 20
-147.8380045203321
 30
0.0
 10
84.7209268993927
 20
-147.8380045203321
 30
0.0
 10
85.04045950564961
 20
-147.8380045203321
 30
0.0
 10
85.34931231590226
 20
-147.801831017737
 30
0.0
 10
85.34931231590226
 20
-147.5417263086007
 30
0.0
 10
85.34931231590226
 20
-147.2940239432112
 30
0.0
 10
85.06784801475735
 20
-147.2454480968692
 30
0.0
 10
84.7209268993927
 20
-147.2454480968692
 30
0.0
 10
84.40156654791001
 20
-147.2454480968692
 30
0.0
 10
84.09271373765738
 20
-147.2836886567555
 30
0.0
 10
84.09271373765738
 20
-147.5417263086007
 30
0.0
  0
SPLINE
  5
99
330
94
100
AcDbEntity
  8
レイヤー 1
100
AcDbSpline
210
0.0
220
0.0
230
1.0
 70
     9
 71
     3
 72
    29
 73
    25
 74
     0
 42
0.0000000001
 43
0.0000000001
 40
0.0
 40
0.0
 40
0.0
 40
0.0
 40
1.0
 40
1.0
 40
1.0
 40
2.0
 40
2.0
 40
2.0
 40
3.0
 40
3.0
 40
3.0
 40
4.0
 40
4.0
 40
4.0
 40
5.0
 40
5.0
 40
5.0
 40
6.0
 40
6.0
 40
6.0
 40
7.0
 40
7.0
 40
7.0
 40
8.0
 40
8.0
 40
8.0
 40
8.0
 10
85.31537812537255
 20
-147.1438177800543
 30
0.0
 10
85.52483993087575
 20
-147.2519937782911
 30
0.0
 10
85.54396021081888
 20
-147.4252820811992
 30
0.0
 10
85.54396021081888
 20
-147.5417263086007
 30
0.0
 10
85.54396021081888
 20
-147.7026122677618
 30
0.0
 10
85.49745142176801
 20
-147.8442056922056
 30
0.0
 10
85.31537812537255
 20
-147.9392903275985
 30
0.0
 10
85.12090248523019
 20
-148.0429877017045
 30
0.0
 10
84.88387991584501
 20
-148.0622802364219
 30
0.0
 10
84.7209268993927
 20
-148.0622802364219
 30
0.0
 10
84.5770941628835
 20
-148.0622802364219
 30
0.0
 10
84.32542993768601
 20
-148.0450547589957
 30
0.0
 10
84.12647567341283
 20
-147.9392903275985
 30
0.0
 10
83.92338729455735
 20
-147.8314588389102
 30
0.0
 10
83.90013290003192
 20
-147.670572879749
 30
0.0
 10
83.90013290003192
 20
-147.5417263086007
 30
0.0
 10
83.90013290003192
 20
-147.3829074067307
 30
0.0
 10
83.94457463179163
 20
-147.2392469249957
 30
0.0
 10
84.12647567341283
 20
-147.1438177800543
 30
0.0
 10
84.3190565110383
 20
-147.0445990300791
 30
0.0
 10
84.54746634171035
 20
-147.0211723807794
 30
0.0
 10
84.7209268993927
 20
-147.0211723807794
 30
0.0
 10
84.89232039978388
 20
-147.0211723807794
 30
0.0
 10
85.12296954252134
 20
-147.042531972788
 30
0.0
 10
85.31537812537255
 20
-147.1438177800543
 30
0.0
  0
HATCH
  5
9A
330
94
100
AcDbEntity
  8
レイヤー 1
 62
   250
420
  2299925
440
 33554687
100
AcDbHatch
 10
0.0
 20
0.0
 30
0.0
210
0.0
220
0.0
230
1.0
  2
SOLID
 70
     1
 71
     1
 91
        2
 92
        1
 93
        1
 72
     4
 94
        3
 73
     0
 74
     0
 95
       17
 96
       13
 40
0.0
 40
0.0
 40
0.0
 40
0.0
 40
1.0
 40
1.0
 40
1.0
 40
2.0
 40
2.0
 40
2.0
 40
3.0
 40
3.0
 40
3.0
 40
4.0
 40
4.0
 40
4.0
 40
4.0
 10
84.09271373765738
 20
-147.5417263086007
 10
84.09271373765738
 20
-147.7914957312813
 10
84.37607284131919
 20
-147.8380045203321
 10
84.7209268993927
 20
-147.8380045203321
 10
85.04045950564961
 20
-147.8380045203321
 10
85.34931231590226
 20
-147.801831017737
 10
85.34931231590226
 20
-147.5417263086007
 10
85.34931231590226
 20
-147.2940239432112
 10
85.06784801475735
 20
-147.2454480968692
 10
84.7209268993927
 20
-147.2454480968692
 10
84.40156654791001
 20
-147.2454480968692
 10
84.09271373765738
 20
-147.2836886567555
 10
84.09271373765738
 20
-147.5417263086007
 97
        0
 97
        1
330
98
 92
        1
 93
        1
 72
     4
 94
        3
 73
     0
 74
     0
 95
       29
 96
       25
 40
0.0
 40
0.0
 40
0.0
 40
0.0
 40
1.0
 40
1.0
 40
1.0
 40
2.0
 40
2.0
 40
2.0
 40
3.0
 40
3.0
 40
3.0
 40
4.0
 40
4.0
 40
4.0
 40
5.0
 40
5.0
 40
5.0
 40
6.0
 40
6.0
 40
6.0
 40
7.0
 40
7.0
 40
7.0
 40
8.0
 40
8.0
 40
8.0
 40
8.0
 10
85.31537812537255
 20
-147.1438177800543
 10
85.52483993087575
 20
-147.2519937782911
 10
85.54396021081888
 20
-147.4252820811992
 10
85.54396021081888
 20
-147.5417263086007
 10
85.54396021081888
 20
-147.7026122677618
 10
85.49745142176801
 20
-147.8442056922056
 10
85.31537812537255
 20
-147.9392903275985
 10
85.12090248523019
 20
-148.0429877017045
 10
84.88387991584501
 20
-148.0622802364219
 10
84.7209268993927
 20
-148.0622802364219
 10
84.5770941628835
 20
-148.0622802364219
 10
84.32542993768601
 20
-148.0450547589957
 10
84.12647567341283
 20
-147.9392903275985
 10
83.92338729455735
 20
-147.8314588389102
 10
83.90013290003192
 20
-147.670572879749
 10
83.90013290003192
 20
-147.5417263086007
 10
83.90013290003192
 20
-147.3829074067307
 10
83.94457463179163
 20
-147.2392469249957
 10
84.12647567341283
 20
-147.1438177800543
 10
84.3190565110383
 20
-147.0445990300791
 10
84.54746634171035
 20
-147.0211723807794
 10
84.7209268993927
 20
-147.0211723807794
 10
84.89232039978388
 20
-147.0211723807794
 10
85.12296954252134
 20
-147.042531972788
 10
85.31537812537255
 20
-147.1438177800543
 97
        0
 97
        1
330
99
 75
     2
 76
     1
 98
        1
 10
0.0
 20
0.0
450
        0
451
        0
460
0.0
461
0.0
452
        0
462
0.0
453
        0
470

  0
SPLINE
  5
9B
330
94
100
AcDbEntity
  8
レイヤー 1
100
AcDbSpline
210
0.0
220
0.0
230
1.0
 70
    11
 71
     3
 72
    17
 73
    13
 74
     0
 42
0.0000000001
 43
0.0000000001
 40
0.0
 40
0.0
 40
0.0
 40
0.0
 40
1.0
 40
1.0
 40
1.0
 40
2.0
 40
2.0
 40
2.0
 40
3.0
 40
3.0
 40
3.0
 40
4.0
 40
4.0
 40
4.0
 40
4.0
 10
85.49314505241143
 20
-146.8048203843057
 30
0.0
 10
85.49314505241143
 20
-146.8048203843057
 30
0.0
 10
85.24148082721394
 20
-146.8048203843057
 30
0.0
 10
85.24148082721394
 20
-146.8048203843057
 30
0.0
 10
85.24148082721394
 20
-146.8048203843057
 30
0.0
 10
85.24148082721394
 20
-146.5529839043339
 30
0.0
 10
85.24148082721394
 20
-146.5529839043339
 30
0.0
 10
85.24148082721394
 20
-146.5529839043339
 30
0.0
 10
85.49314505241143
 20
-146.5529839043339
 30
0.0
 10
85.49314505241143
 20
-146.5529839043339
 30
0.0
 10
85.49314505241143
 20
-146.5529839043339
 30
0.0
 10
85.49314505241143
 20
-146.8048203843057
 30
0.0
 10
85.49314505241143
 20
-146.8048203843057
 30
0.0
  0
HATCH
  5
9C
330
94
100
AcDbEntity
  8
レイヤー 1
 62
   250
420
  2299925
440
 33554687
100
AcDbHatch
 10
0.0
 20
0.0
 30
0.0
210
0.0
220
0.0
230
1.0
  2
SOLID
 70
     1
 71
     1
 91
        1
 92
        1
 93
        1
 72
     4
 94
        3
 73
     0
 74
     0
 95
       17
 96
       13
 40
0.0
 40
0.0
 40
0.0
 40
0.0
 40
1.0
 40
1.0
 40
1.0
 40
2.0
 40
2.0
 40
2.0
 40
3.0
 40
3.0
 40
3.0
 40
4.0
 40
4.0
 40
4.0
 40
4.0
 10
85.49314505241143
 20
-146.8048203843057
 10
85.49314505241143
 20
-146.8048203843057
 10
85.24148082721394
 20
-146.8048203843057
 10
85.24148082721394
 20
-146.8048203843057
 10
85.24148082721394
 20
-146.8048203843057
 10
85.24148082721394
 20
-146.5529839043339
 10
85.24148082721394
 20
-146.5529839043339
 10
85.24148082721394
 20
-146.5529839043339
 10
85.49314505241143
 20
-146.5529839043339
 10
85.49314505241143
 20
-146.5529839043339
 10
85.49314505241143
 20
-146.5529839043339
 10
85.49314505241143
 20
-146.8048203843057
 10
85.49314505241143
 20
-146.8048203843057
 97
        0
 97
        1
330
9B
 75
     2
 76
     1
 98
        1
 10
0.0
 20
0.0
450
        0
451
        0
460
0.0
461
0.0
452
        0
462
0.0
453
        0
470

  0
SPLINE
  5
9D
330
94
100
AcDbEntity
  8
レイヤー 1
100
AcDbSpline
210
0.0
220
0.0
230
1.0
 70
     9
 71
     3
 72
    53
 73
    49
 74
     0
 42
0.0000000001
 43
0.0000000001
 40
0.0
 40
0.0
 40
0.0
 40
0.0
 40
1.0
 40
1.0
 40
1.0
 40
2.0
 40
2.0
 40
2.0
 40
3.0
 40
3.0
 40
3.0
 40
4.0
 40
4.0
 40
4.0
 40
5.0
 40
5.0
 40
5.0
 40
6.0
 40
6.0
 40
6.0
 40
7.0
 40
7.0
 40
7.0
 40
8.0
 40
8.0
 40
8.0
 40
9.0
 40
9.0
 40
9.0
 40
10.0
 40
10.0
 40
10.0
 40
11.0
 40
11.0
 40
11.0
 40
12.0
 40
12.0
 40
12.0
 40
13.0
 40
13.0
 40
13.0
 40
14.0
 40
14.0
 40
14.0
 40
15.0
 40
15.0
 40
15.0
 40
16.0
 40
16.0
 40
16.0
 40
16.0
 10
85.54396021081888
 20
-145.8357150243049
 30
0.0
 10
85.54396021081888
 20
-145.9139186918201
 30
0.0
 10
85.52707924294116
 20
-146.015549008635
 30
0.0
 10
85.46351723123828
 20
-146.1171793254498
 30
0.0
 10
85.35344643048455
 20
-146.2904676283579
 30
0.0
 10
85.22236054727079
 20
-146.3118272203665
 30
0.0
 10
85.11452905858247
 20
-146.3307752455353
 30
0.0
 10
85.11452905858247
 20
-146.3307752455353
 30
0.0
 10
85.11452905858247
 20
-146.1085665867367
 30
0.0
 10
85.11452905858247
 20
-146.1085665867367
 30
0.0
 10
85.3133110680814
 20
-146.0537895685212
 30
0.0
 10
85.34293888925454
 20
-145.9266655451155
 30
0.0
 10
85.34293888925454
 20
-145.8336479670138
 30
0.0
 10
85.34293888925454
 20
-145.6941215998612
 30
0.0
 10
85.24354788450509
 20
-145.5418483794131
 30
0.0
 10
85.01083168447646
 20
-145.5418483794131
 30
0.0
 10
84.75486108992241
 20
-145.5418483794131
 30
0.0
 10
84.68509790634609
 20
-145.7216823637432
 30
0.0
 10
84.68509790634609
 20
-145.8422607057269
 30
0.0
 10
84.68509790634609
 20
-145.8739555841912
 30
0.0
 10
84.68509790634609
 20
-146.015549008635
 30
0.0
 10
84.81411673226871
 20
-146.1044324721544
 30
0.0
 10
84.81411673226871
 20
-146.1044324721544
 30
0.0
 10
84.79499645232555
 20
-146.2801323419022
 30
0.0
 10
84.79499645232555
 20
-146.2801323419022
 30
0.0
 10
84.79499645232555
 20
-146.2801323419022
 30
0.0
 10
83.94888100114819
 20
-146.1595539999184
 30
0.0
 10
83.94888100114819
 20
-146.1595539999184
 30
0.0
 10
83.94888100114819
 20
-146.1595539999184
 30
0.0
 10
83.94888100114819
 20
-145.380962420252
 30
0.0
 10
83.94888100114819
 20
-145.380962420252
 30
0.0
 10
83.94888100114819
 20
-145.380962420252
 30
0.0
 10
84.14352889606481
 20
-145.380962420252
 30
0.0
 10
84.14352889606481
 20
-145.380962420252
 30
0.0
 10
84.14352889606481
 20
-145.380962420252
 30
0.0
 10
84.14352889606481
 20
-145.9966009834661
 30
0.0
 10
84.14352889606481
 20
-145.9966009834661
 30
0.0
 10
84.14352889606481
 20
-145.9966009834661
 30
0.0
 10
84.56658662165351
 20
-146.0620577976858
 30
0.0
 10
84.56658662165351
 20
-146.0620577976858
 30
0.0
 10
84.53265243112378
 20
-146.0007350980484
 30
0.0
 10
84.49251706872063
 20
-145.9183973159509
 30
0.0
 10
84.49251706872063
 20
-145.7998860312583
 30
0.0
 10
84.49251706872063
 20
-145.5459824939954
 30
0.0
 10
84.67872447969837
 20
-145.3089599246102
 30
0.0
 10
84.99171140453332
 20
-145.3089599246102
 30
0.0
 10
85.30917695349911
 20
-145.3089599246102
 30
0.0
 10
85.54396021081888
 20
-145.5332356407
 30
0.0
 10
85.54396021081888
 20
-145.8357150243049
 30
0.0
  0
HATCH
  5
9E
330
94
100
AcDbEntity
  8
レイヤー 1
 62
   250
420
  2299925
440
 33554687
100
AcDbHatch
 10
0.0
 20
0.0
 30
0.0
210
0.0
220
0.0
230
1.0
  2
SOLID
 70
     1
 71
     1
 91
        1
 92
        1
 93
        1
 72
     4
 94
        3
 73
     0
 74
     0
 95
       53
 96
       49
 40
0.0
 40
0.0
 40
0.0
 40
0.0
 40
1.0
 40
1.0
 40
1.0
 40
2.0
 40
2.0
 40
2.0
 40
3.0
 40
3.0
 40
3.0
 40
4.0
 40
4.0
 40
4.0
 40
5.0
 40
5.0
 40
5.0
 40
6.0
 40
6.0
 40
6.0
 40
7.0
 40
7.0
 40
7.0
 40
8.0
 40
8.0
 40
8.0
 40
9.0
 40
9.0
 40
9.0
 40
10.0
 40
10.0
 40
10.0
 40
11.0
 40
11.0
 40
11.0
 40
12.0
 40
12.0
 40
12.0
 40
13.0
 40
13.0
 40
13.0
 40
14.0
 40
14.0
 40
14.0
 40
15.0
 40
15.0
 40
15.0
 40
16.0
 40
16.0
 40
16.0
 40
16.0
 10
85.54396021081888
 20
-145.8357150243049
 10
85.54396021081888
 20
-145.9139186918201
 10
85.52707924294116
 20
-146.015549008635
 10
85.46351723123828
 20
-146.1171793254498
 10
85.35344643048455
 20
-146.2904676283579
 10
85.22236054727079
 20
-146.3118272203665
 10
85.11452905858247
 20
-146.3307752455353
 10
85.11452905858247
 20
-146.3307752455353
 10
85.11452905858247
 20
-146.1085665867367
 10
85.11452905858247
 20
-146.1085665867367
 10
85.3133110680814
 20
-146.0537895685212
 10
85.34293888925454
 20
-145.9266655451155
 10
85.34293888925454
 20
-145.8336479670138
 10
85.34293888925454
 20
-145.6941215998612
 10
85.24354788450509
 20
-145.5418483794131
 10
85.01083168447646
 20
-145.5418483794131
 10
84.75486108992241
 20
-145.5418483794131
 10
84.68509790634609
 20
-145.7216823637432
 10
84.68509790634609
 20
-145.8422607057269
 10
84.68509790634609
 20
-145.8739555841912
 10
84.68509790634609
 20
-146.015549008635
 10
84.81411673226871
 20
-146.1044324721544
 10
84.81411673226871
 20
-146.1044324721544
 10
84.79499645232555
 20
-146.2801323419022
 10
84.79499645232555
 20
-146.2801323419022
 10
84.79499645232555
 20
-146.2801323419022
 10
83.94888100114819
 20
-146.1595539999184
 10
83.94888100114819
 20
-146.1595539999184
 10
83.94888100114819
 20
-146.1595539999184
 10
83.94888100114819
 20
-145.380962420252
 10
83.94888100114819
 20
-145.380962420252
 10
83.94888100114819
 20
-145.380962420252
 10
84.14352889606481
 20
-145.380962420252
 10
84.14352889606481
 20
-145.380962420252
 10
84.14352889606481
 20
-145.380962420252
 10
84.14352889606481
 20
-145.9966009834661
 10
84.14352889606481
 20
-145.9966009834661
 10
84.14352889606481
 20
-145.9966009834661
 10
84.56658662165351
 20
-146.0620577976858
 10
84.56658662165351
 20
-146.0620577976858
 10
84.53265243112378
 20
-146.0007350980484
 10
84.49251706872063
 20
-145.9183973159509
 10
84.49251706872063
 20
-145.7998860312583
 10
84.49251706872063
 20
-145.5459824939954
 10
84.67872447969837
 20
-145.3089599246102
 10
84.99171140453332
 20
-145.3089599246102
 10
85.30917695349911
 20
-145.3089599246102
 10
85.54396021081888
 20
-145.5332356407
 10
85.54396021081888
 20
-145.8357150243049
 97
        0
 97
        1
330
9D
 75
     2
 76
     1
 98
        1
 10
0.0
 20
0.0
450
        0
451
        0
460
0.0
461
0.0
452
        0
462
0.0
453
        0
470

  0
ENDBLK
  5
97
330
94
100
AcDbEntity
  8
0
100
AcDbBlockEnd
  0
BLOCK
  5
A3
330
A1
100
AcDbEntity
  8
0
100
AcDbBlockBegin
  2
Block_3
 70
     0
 10
0.0
 20
0.0
 30
0.0
  3
Block_3
  1

  0
INSERT
  5
A6
330
A1
100
AcDbEntity
  8
レイヤー 1
100
AcDbBlockReference
  2
Block_4
 10
0.0
 20
0.0
 30
0.0
  0
ENDBLK
  5
A4
330
A1
100
AcDbEntity
  8
0
100
AcDbBlockEnd
  0
BLOCK
  5
A7
330
A5
100
AcDbEntity
  8
0
100
AcDbBlockBegin
  2
Block_4
 70
     0
 10
0.0
 20
0.0
 30
0.0
  3
Block_4
  1

  0
SPLINE
  5
A9
330
A5
100
AcDbEntity
  8
レイヤー 1
100
AcDbSpline
210
0.0
220
0.0
230
1.0
 70
     9
 71
     3
 72
    44
 73
    40
 74
     0
 42
0.0000000001
 43
0.0000000001
 40
0.0
 40
0.0
 40
0.0
 40
0.0
 40
1.0
 40
1.0
 40
1.0
 40
2.0
 40
2.0
 40
2.0
 40
3.0
 40
3.0
 40
3.0
 40
4.0
 40
4.0
 40
4.0
 40
5.0
 40
5.0
 40
5.0
 40
6.0
 40
6.0
 40
6.0
 40
7.0
 40
7.0
 40
7.0
 40
8.0
 40
8.0
 40
8.0
 40
9.0
 40
9.0
 40
9.0
 40
10.0
 40
10.0
 40
10.0
 40
11.0
 40
11.0
 40
11.0
 40
12.0
 40
12.0
 40
12.0
 40
13.0
 40
13.0
 40
13.0
 40
13.0
 10
103.9419758854728
 20
-140.3721380942472
 30
0.0
 10
103.7240735960308
 20
-140.530784741343
 30
0.0
 10
103.6308837631548
 20
-140.6048542942758
 30
0.0
 10
103.5823079168127
 20
-140.748687030785
 30
0.0
 10
103.5823079168127
 20
-140.748687030785
 30
0.0
 10
104.3607272417049
 20
-140.748687030785
 30
0.0
 10
104.3607272417049
 20
-140.748687030785
 30
0.0
 10
104.3607272417049
 20
-140.748687030785
 30
0.0
 10
104.3607272417049
 20
-140.9538424669317
 30
0.0
 10
104.3607272417049
 20
-140.9538424669317
 30
0.0
 10
104.3607272417049
 20
-140.9538424669317
 30
0.0
 10
103.3327107489064
 20
-140.9538424669317
 30
0.0
 10
103.3327107489064
 20
-140.9538424669317
 30
0.0
 10
103.3644056273707
 20
-140.5962415555627
 30
0.0
 10
103.4298624415904
 20
-140.5180378880476
 30
0.0
 10
103.8150241168414
 20
-140.2196926190249
 30
0.0
 10
104.0709947113954
 20
-140.020910609526
 30
0.0
 10
104.1364515256152
 20
-139.9532144832408
 30
0.0
 10
104.1364515256152
 20
-139.8157551733794
 30
0.0
 10
104.1364515256152
 20
-139.6972438886868
 30
0.0
 10
104.0646212847477
 20
-139.5659857506988
 30
0.0
 10
103.8679063325399
 20
-139.5659857506988
 30
0.0
 10
103.6076293686293
 20
-139.5659857506988
 30
0.0
 10
103.5991888846905
 20
-139.7966348934363
 30
0.0
 10
103.5948825153339
 20
-139.9130791208377
 30
0.0
 10
103.5948825153339
 20
-139.9130791208377
 30
0.0
 10
103.3707790540184
 20
-139.9130791208377
 30
0.0
 10
103.3707790540184
 20
-139.9130791208377
 30
0.0
 10
103.3792195379573
 20
-139.7861273522062
 30
0.0
 10
103.3897270791873
 20
-139.6739894941613
 30
0.0
 10
103.4701700587679
 20
-139.5554782094688
 30
0.0
 10
103.5800686047473
 20
-139.3947645050818
 30
0.0
 10
103.7662760157251
 20
-139.3608303145521
 30
0.0
 10
103.8827202431265
 20
-139.3608303145521
 30
0.0
 10
104.1598781749149
 20
-139.3608303145521
 30
0.0
 10
104.3671006683527
 20
-139.5449706682387
 30
0.0
 10
104.3671006683527
 20
-139.8178222306705
 30
0.0
 10
104.3671006683527
 20
-140.0462320613426
 30
0.0
 10
104.2508286957255
 20
-140.1457953208663
 30
0.0
 10
103.9419758854728
 20
-140.3721380942472
 30
0.0
  0
HATCH
  5
AA
330
A5
100
AcDbEntity
  8
レイヤー 1
 62
   250
420
  2299925
440
 33554687
100
AcDbHatch
 10
0.0
 20
0.0
 30
0.0
210
0.0
220
0.0
230
1.0
  2
SOLID
 70
     1
 71
     1
 91
        1
 92
        1
 93
        1
 72
     4
 94
        3
 73
     0
 74
     0
 95
       44
 96
       40
 40
0.0
 40
0.0
 40
0.0
 40
0.0
 40
1.0
 40
1.0
 40
1.0
 40
2.0
 40
2.0
 40
2.0
 40
3.0
 40
3.0
 40
3.0
 40
4.0
 40
4.0
 40
4.0
 40
5.0
 40
5.0
 40
5.0
 40
6.0
 40
6.0
 40
6.0
 40
7.0
 40
7.0
 40
7.0
 40
8.0
 40
8.0
 40
8.0
 40
9.0
 40
9.0
 40
9.0
 40
10.0
 40
10.0
 40
10.0
 40
11.0
 40
11.0
 40
11.0
 40
12.0
 40
12.0
 40
12.0
 40
13.0
 40
13.0
 40
13.0
 40
13.0
 10
103.9419758854728
 20
-140.3721380942472
 10
103.7240735960308
 20
-140.530784741343
 10
103.6308837631548
 20
-140.6048542942758
 10
103.5823079168127
 20
-140.748687030785
 10
103.5823079168127
 20
-140.748687030785
 10
104.3607272417049
 20
-140.748687030785
 10
104.3607272417049
 20
-140.748687030785
 10
104.3607272417049
 20
-140.748687030785
 10
104.3607272417049
 20
-140.9538424669317
 10
104.3607272417049
 20
-140.9538424669317
 10
104.3607272417049
 20
-140.9538424669317
 10
103.3327107489064
 20
-140.9538424669317
 10
103.3327107489064
 20
-140.9538424669317
 10
103.3644056273707
 20
-140.5962415555627
 10
103.4298624415904
 20
-140.5180378880476
 10
103.8150241168414
 20
-140.2196926190249
 10
104.0709947113954
 20
-140.020910609526
 10
104.1364515256152
 20
-139.9532144832408
 10
104.1364515256152
 20
-139.8157551733794
 10
104.1364515256152
 20
-139.6972438886868
 10
104.0646212847477
 20
-139.5659857506988
 10
103.8679063325399
 20
-139.5659857506988
 10
103.6076293686293
 20
-139.5659857506988
 10
103.5991888846905
 20
-139.7966348934363
 10
103.5948825153339
 20
-139.9130791208377
 10
103.5948825153339
 20
-139.9130791208377
 10
103.3707790540184
 20
-139.9130791208377
 10
103.3707790540184
 20
-139.9130791208377
 10
103.3792195379573
 20
-139.7861273522062
 10
103.3897270791873
 20
-139.6739894941613
 10
103.4701700587679
 20
-139.5554782094688
 10
103.5800686047473
 20
-139.3947645050818
 10
103.7662760157251
 20
-139.3608303145521
 10
103.8827202431265
 20
-139.3608303145521
 10
104.1598781749149
 20
-139.3608303145521
 10
104.3671006683527
 20
-139.5449706682387
 10
104.3671006683527
 20
-139.8178222306705
 10
104.3671006683527
 20
-140.0462320613426
 10
104.2508286957255
 20
-140.1457953208663
 10
103.9419758854728
 20
-140.3721380942472
 97
        0
 97
        1
330
A9
 75
     2
 76
     1
 98
        1
 10
0.0
 20
0.0
450
        0
451
        0
460
0.0
461
0.0
452
        0
462
0.0
453
        0
470

  0
SPLINE
  5
AB
330
A5
100
AcDbEntity
  8
レイヤー 1
100
AcDbSpline
210
0.0
220
0.0
230
1.0
 70
     9
 71
     3
 72
    26
 73
    22
 74
     0
 42
0.0000000001
 43
0.0000000001
 40
0.0
 40
0.0
 40
0.0
 40
0.0
 40
1.0
 40
1.0
 40
1.0
 40
2.0
 40
2.0
 40
2.0
 40
3.0
 40
3.0
 40
3.0
 40
4.0
 40
4.0
 40
4.0
 40
5.0
 40
5.0
 40
5.0
 40
6.0
 40
6.0
 40
6.0
 40
7.0
 40
7.0
 40
7.0
 40
7.0
 10
104.9367472068387
 20
-140.9538424669317
 30
0.0
 10
104.9367472068387
 20
-140.9538424669317
 30
0.0
 10
104.6998968922278
 20
-140.9538424669317
 30
0.0
 10
104.6998968922278
 20
-140.9538424669317
 30
0.0
 10
104.7252183440444
 20
-140.644989656679
 30
0.0
 10
104.9177991816698
 20
-140.1266750409232
 30
0.0
 10
105.3239759393808
 20
-139.6211072784627
 30
0.0
 10
105.3239759393808
 20
-139.6211072784627
 30
0.0
 10
104.486128717368
 20
-139.6211072784627
 30
0.0
 10
104.486128717368
 20
-139.6211072784627
 30
0.0
 10
104.486128717368
 20
-139.6211072784627
 30
0.0
 10
104.486128717368
 20
-139.4095784156684
 30
0.0
 10
104.486128717368
 20
-139.4095784156684
 30
0.0
 10
104.486128717368
 20
-139.4095784156684
 30
0.0
 10
105.5608262539917
 20
-139.4095784156684
 30
0.0
 10
105.5608262539917
 20
-139.4095784156684
 30
0.0
 10
105.5608262539917
 20
-139.4095784156684
 30
0.0
 10
105.5608262539917
 20
-139.6211072784627
 30
0.0
 10
105.5608262539917
 20
-139.6211072784627
 30
0.0
 10
105.2371595331525
 20
-139.9108398087723
 30
0.0
 10
104.9706813973684
 20
-140.503223977461
 30
0.0
 10
104.9367472068387
 20
-140.9538424669317
 30
0.0
  0
HATCH
  5
AC
330
A5
100
AcDbEntity
  8
レイヤー 1
 62
   250
420
  2299925
440
 33554687
100
AcDbHatch
 10
0.0
 20
0.0
 30
0.0
210
0.0
220
0.0
230
1.0
  2
SOLID
 70
     1
 71
     1
 91
        1
 92
        1
 93
        1
 72
     4
 94
        3
 73
     0
 74
     0
 95
       26
 96
       22
 40
0.0
 40
0.0
 40
0.0
 40
0.0
 40
1.0
 40
1.0
 40
1.0
 40
2.0
 40
2.0
 40
2.0
 40
3.0
 40
3.0
 40
3.0
 40
4.0
 40
4.0
 40
4.0
 40
5.0
 40
5.0
 40
5.0
 40
6.0
 40
6.0
 40
6.0
 40
7.0
 40
7.0
 40
7.0
 40
7.0
 10
104.9367472068387
 20
-140.9538424669317
 10
104.9367472068387
 20
-140.9538424669317
 10
104.6998968922278
 20
-140.9538424669317
 10
104.6998968922278
 20
-140.9538424669317
 10
104.7252183440444
 20
-140.644989656679
 10
104.9177991816698
 20
-140.1266750409232
 10
105.3239759393808
 20
-139.6211072784627
 10
105.3239759393808
 20
-139.6211072784627
 10
104.486128717368
 20
-139.6211072784627
 10
104.486128717368
 20
-139.6211072784627
 10
104.486128717368
 20
-139.6211072784627
 10
104.486128717368
 20
-139.4095784156684
 10
104.486128717368
 20
-139.4095784156684
 10
104.486128717368
 20
-139.4095784156684
 10
105.5608262539917
 20
-139.4095784156684
 10
105.5608262539917
 20
-139.4095784156684
 10
105.5608262539917
 20
-139.4095784156684
 10
105.5608262539917
 20
-139.6211072784627
 10
105.5608262539917
 20
-139.6211072784627
 10
105.2371595331525
 20
-139.9108398087723
 10
104.9706813973684
 20
-140.503223977461
 10
104.9367472068387
 20
-140.9538424669317
 97
        0
 97
        1
330
AB
 75
     2
 76
     1
 98
        1
 10
0.0
 20
0.0
450
        0
451
        0
460
0.0
461
0.0
452
        0
462
0.0
453
        0
470

  0
ENDBLK
  5
A8
330
A5
100
AcDbEntity
  8
0
100
AcDbBlockEnd
  0
BLOCK
  5
B1
330
AF
100
AcDbEntity
  8
0
100
AcDbBlockBegin
  2
Block_5
 70
     0
 10
0.0
 20
0.0
 30
0.0
  3
Block_5
  1

  0
SPLINE
  5
B3
330
AF
100
AcDbEntity
  8
レイヤー 1
100
AcDbSpline
210
0.0
220
0.0
230
1.0
 70
     9
 71
     3
 72
    17
 73
    13
 74
     0
 42
0.0000000001
 43
0.0000000001
 40
0.0
 40
0.0
 40
0.0
 40
0.0
 40
1.0
 40
1.0
 40
1.0
 40
2.0
 40
2.0
 40
2.0
 40
3.0
 40
3.0
 40
3.0
 40
4.0
 40
4.0
 40
4.0
 40
4.0
 10
85.41563040399331
 20
-149.9071288687732
 30
0.0
 10
85.41563040399331
 20
-150.1693006352007
 30
0.0
 10
85.62715926678766
 20
-150.207541195087
 30
0.0
 10
85.74343123941485
 20
-150.207541195087
 30
0.0
 10
85.91895885438832
 20
-150.207541195087
 30
0.0
 10
86.08191187084065
 20
-150.1121120501456
 30
0.0
 10
86.08191187084065
 20
-149.9281439512332
 30
0.0
 10
86.08191187084065
 20
-149.8075656092495
 30
0.0
 10
86.02265622849435
 20
-149.6318657395017
 30
0.0
 10
85.73705781276713
 20
-149.6318657395017
 30
0.0
 10
85.51278209667737
 20
-149.6318657395017
 30
0.0
 10
85.41563040399331
 20
-149.7717366162029
 30
0.0
 10
85.41563040399331
 20
-149.9071288687732
 30
0.0
  0
SPLINE
  5
B4
330
AF
100
AcDbEntity
  8
レイヤー 1
100
AcDbSpline
210
0.0
220
0.0
230
1.0
 70
     9
 71
     3
 72
    32
 73
    28
 74
     0
 42
0.0000000001
 43
0.0000000001
 40
0.0
 40
0.0
 40
0.0
 40
0.0
 40
1.0
 40
1.0
 40
1.0
 40
2.0
 40
2.0
 40
2.0
 40
3.0
 40
3.0
 40
3.0
 40
4.0
 40
4.0
 40
4.0
 40
5.0
 40
5.0
 40
5.0
 40
6.0
 40
6.0
 40
6.0
 40
7.0
 40
7.0
 40
7.0
 40
8.0
 40
8.0
 40
8.0
 40
9.0
 40
9.0
 40
9.0
 40
9.0
 10
86.27449270846609
 20
-149.9240098366509
 30
0.0
 10
86.27449270846609
 20
-150.4400851403414
 30
0.0
 10
85.7201768448894
 20
-150.4486978790545
 30
0.0
 10
85.50658092480391
 20
-150.4486978790545
 30
0.0
 10
85.27593178206643
 20
-150.4486978790545
 30
0.0
 10
84.628598340388
 20
-150.4294053443371
 30
0.0
 10
84.628598340388
 20
-149.8857692767647
 30
0.0
 10
84.628598340388
 20
-149.7124809738566
 30
0.0
 10
84.6983615239643
 20
-149.4668456657583
 30
0.0
 10
85.03046872874239
 20
-149.4289496154205
 30
0.0
 10
85.03046872874239
 20
-149.4289496154205
 30
0.0
 10
85.03046872874239
 20
-149.642545535506
 30
0.0
 10
85.03046872874239
 20
-149.642545535506
 30
0.0
 10
84.97345239846151
 20
-149.6532253315103
 30
0.0
 10
84.82531329259577
 20
-149.6849202099746
 30
0.0
 10
84.82531329259577
 20
-149.8878363340558
 30
0.0
 10
84.82531329259577
 20
-150.179980431205
 30
0.0
 10
85.15328638279155
 20
-150.2199435388339
 30
0.0
 10
85.35844181893818
 20
-150.2326903921293
 30
0.0
 10
85.28023815142301
 20
-150.1396728140276
 30
0.0
 10
85.22098250907671
 20
-150.0718044329682
 30
0.0
 10
85.22098250907671
 20
-149.8899033913469
 30
0.0
 10
85.22098250907671
 20
-149.7100694070169
 30
0.0
 10
85.32881399776503
 20
-149.407590023412
 30
0.0
 10
85.73499075547598
 20
-149.407590023412
 30
0.0
 10
86.05435110695863
 20
-149.407590023412
 30
0.0
 10
86.27449270846609
 20
-149.6067165424594
 30
0.0
 10
86.27449270846609
 20
-149.9240098366509
 30
0.0
  0
HATCH
  5
B5
330
AF
100
AcDbEntity
  8
レイヤー 1
 62
   250
420
  2299925
440
 33554687
100
AcDbHatch
 10
0.0
 20
0.0
 30
0.0
210
0.0
220
0.0
230
1.0
  2
SOLID
 70
     1
 71
     1
 91
        2
 92
        1
 93
        1
 72
     4
 94
        3
 73
     0
 74
     0
 95
       17
 96
       13
 40
0.0
 40
0.0
 40
0.0
 40
0.0
 40
1.0
 40
1.0
 40
1.0
 40
2.0
 40
2.0
 40
2.0
 40
3.0
 40
3.0
 40
3.0
 40
4.0
 40
4.0
 40
4.0
 40
4.0
 10
85.41563040399331
 20
-149.9071288687732
 10
85.41563040399331
 20
-150.1693006352007
 10
85.62715926678766
 20
-150.207541195087
 10
85.74343123941485
 20
-150.207541195087
 10
85.91895885438832
 20
-150.207541195087
 10
86.08191187084065
 20
-150.1121120501456
 10
86.08191187084065
 20
-149.9281439512332
 10
86.08191187084065
 20
-149.8075656092495
 10
86.02265622849435
 20
-149.6318657395017
 10
85.73705781276713
 20
-149.6318657395017
 10
85.51278209667737
 20
-149.6318657395017
 10
85.41563040399331
 20
-149.7717366162029
 10
85.41563040399331
 20
-149.9071288687732
 97
        0
 97
        1
330
B3
 92
        1
 93
        1
 72
     4
 94
        3
 73
     0
 74
     0
 95
       32
 96
       28
 40
0.0
 40
0.0
 40
0.0
 40
0.0
 40
1.0
 40
1.0
 40
1.0
 40
2.0
 40
2.0
 40
2.0
 40
3.0
 40
3.0
 40
3.0
 40
4.0
 40
4.0
 40
4.0
 40
5.0
 40
5.0
 40
5.0
 40
6.0
 40
6.0
 40
6.0
 40
7.0
 40
7.0
 40
7.0
 40
8.0
 40
8.0
 40
8.0
 40
9.0
 40
9.0
 40
9.0
 40
9.0
 10
86.27449270846609
 20
-149.9240098366509
 10
86.27449270846609
 20
-150.4400851403414
 10
85.7201768448894
 20
-150.4486978790545
 10
85.50658092480391
 20
-150.4486978790545
 10
85.27593178206643
 20
-150.4486978790545
 10
84.628598340388
 20
-150.4294053443371
 10
84.628598340388
 20
-149.8857692767647
 10
84.628598340388
 20
-149.7124809738566
 10
84.6983615239643
 20
-149.4668456657583
 10
85.03046872874239
 20
-149.4289496154205
 10
85.03046872874239
 20
-149.4289496154205
 10
85.03046872874239
 20
-149.642545535506
 10
85.03046872874239
 20
-149.642545535506
 10
84.97345239846151
 20
-149.6532253315103
 10
84.82531329259577
 20
-149.6849202099746
 10
84.82531329259577
 20
-149.8878363340558
 10
84.82531329259577
 20
-150.179980431205
 10
85.15328638279155
 20
-150.2199435388339
 10
85.35844181893818
 20
-150.2326903921293
 10
85.28023815142301
 20
-150.1396728140276
 10
85.22098250907671
 20
-150.0718044329682
 10
85.22098250907671
 20
-149.8899033913469
 10
85.22098250907671
 20
-149.7100694070169
 10
85.32881399776503
 20
-149.407590023412
 10
85.73499075547598
 20
-149.407590023412
 10
86.05435110695863
 20
-149.407590023412
 10
86.27449270846609
 20
-149.6067165424594
 10
86.27449270846609
 20
-149.9240098366509
 97
        0
 97
        1
330
B4
 75
     2
 76
     1
 98
        1
 10
0.0
 20
0.0
450
        0
451
        0
460
0.0
461
0.0
452
        0
462
0.0
453
        0
470

  0
ENDBLK
  5
B2
330
AF
100
AcDbEntity
  8
0
100
AcDbBlockEnd
  0
BLOCK
  5
BB
330
B9
100
AcDbEntity
  8
0
100
AcDbBlockBegin
  2
Block_6
 70
     0
 10
0.0
 20
0.0
 30
0.0
  3
Block_6
  1

  0
SPLINE
  5
BD
330
B9
100
AcDbEntity
  8
レイヤー 1
100
AcDbSpline
210
0.0
220
0.0
230
1.0
 70
     9
 71
     3
 72
    62
 73
    58
 74
     0
 42
0.0000000001
 43
0.0000000001
 40
0.0
 40
0.0
 40
0.0
 40
0.0
 40
1.0
 40
1.0
 40
1.0
 40
2.0
 40
2.0
 40
2.0
 40
3.0
 40
3.0
 40
3.0
 40
4.0
 40
4.0
 40
4.0
 40
5.0
 40
5.0
 40
5.0
 40
6.0
 40
6.0
 40
6.0
 40
7.0
 40
7.0
 40
7.0
 40
8.0
 40
8.0
 40
8.0
 40
9.0
 40
9.0
 40
9.0
 40
10.0
 40
10.0
 40
10.0
 40
11.0
 40
11.0
 40
11.0
 40
12.0
 40
12.0
 40
12.0
 40
13.0
 40
13.0
 40
13.0
 40
14.0
 40
14.0
 40
14.0
 40
15.0
 40
15.0
 40
15.0
 40
16.0
 40
16.0
 40
16.0
 40
17.0
 40
17.0
 40
17.0
 40
18.0
 40
18.0
 40
18.0
 40
19.0
 40
19.0
 40
19.0
 40
19.0
 10
119.429747148962
 20
-141.0036240966935
 30
0.0
 10
119.3343180040206
 20
-141.0036240966935
 30
0.0
 10
119.1165879693528
 20
-140.9824367594592
 30
0.0
 10
118.9915310032382
 20
-140.7962293484815
 30
0.0
 10
118.9174614503053
 20
-140.6840914904366
 30
0.0
 10
118.913327335723
 20
-140.5847004856871
 30
0.0
 10
118.9091932211407
 20
-140.5001233915243
 30
0.0
 10
118.9091932211407
 20
-140.5001233915243
 30
0.0
 10
119.1293348226482
 20
-140.5001233915243
 30
0.0
 10
119.1293348226482
 20
-140.5001233915243
 30
0.0
 10
119.1314018799394
 20
-140.5741929444571
 30
0.0
 10
119.1417371663951
 20
-140.8089762017769
 30
0.0
 10
119.4252685248311
 20
-140.8089762017769
 30
0.0
 10
119.5627278346926
 20
-140.8089762017769
 30
0.0
 10
119.7150010551407
 20
-140.7392130182006
 30
0.0
 10
119.7150010551407
 20
-140.5106309327543
 30
0.0
 10
119.7150010551407
 20
-140.3943589601271
 30
0.0
 10
119.6771050048029
 20
-140.3456108590108
 30
0.0
 10
119.6454101263386
 20
-140.3139159805465
 30
0.0
 10
119.5713405734057
 20
-140.2398464276136
 30
0.0
 10
119.4548963460043
 20
-140.2272718290925
 30
0.0
 10
119.4001193277888
 20
-140.2272718290925
 30
0.0
 10
119.3808267930714
 20
-140.2272718290925
 30
0.0
 10
119.3449978000248
 20
-140.2293388863836
 30
0.0
 10
119.3174370361428
 20
-140.2334730009659
 30
0.0
 10
119.3174370361428
 20
-140.2334730009659
 30
0.0
 10
119.3174370361428
 20
-140.0389973608236
 30
0.0
 10
119.3174370361428
 20
-140.0389973608236
 30
0.0
 10
119.3556775960291
 20
-140.045198532697
 30
0.0
 10
119.3977077609492
 20
-140.0474378447624
 30
0.0
 10
119.4042534423711
 20
-140.0474378447624
 30
0.0
 10
119.4697102565909
 20
-140.0474378447624
 30
0.0
 10
119.6684922660898
 20
-140.0262505075281
 30
0.0
 10
119.6684922660898
 20
-139.7892279381429
 30
0.0
 10
119.6684922660898
 20
-139.6116332658783
 30
0.0
 10
119.5375786376503
 20
-139.5565117381143
 30
0.0
 10
119.4273355821223
 20
-139.5565117381143
 30
0.0
 10
119.1630967584037
 20
-139.5565117381143
 30
0.0
 10
119.1544840196905
 20
-139.7892279381429
 30
0.0
 10
119.1503499051082
 20
-139.8612304337847
 30
0.0
 10
119.1503499051082
 20
-139.8612304337847
 30
0.0
 10
118.9470892714785
 20
-139.8612304337847
 30
0.0
 10
118.9470892714785
 20
-139.8612304337847
 30
0.0
 10
118.9557020101916
 20
-139.7363457224443
 30
0.0
 10
118.9832627740736
 20
-139.3597967859065
 30
0.0
 10
119.4400824354177
 20
-139.3597967859065
 30
0.0
 10
119.6643581515075
 20
-139.3597967859065
 30
0.0
 10
119.905514835475
 20
-139.486748554538
 30
0.0
 10
119.905514835475
 20
-139.7828545114952
 30
0.0
 10
119.905514835475
 20
-139.969061922473
 30
0.0
 10
119.8104302000821
 20
-140.0515719593447
 30
0.0
 10
119.7108669405584
 20
-140.1128946589822
 30
0.0
 10
119.7721896401958
 20
-140.1404554228642
 30
0.0
 10
119.954090681817
 20
-140.2208984024448
 30
0.0
 10
119.954090681817
 20
-140.4980563342331
 30
0.0
 10
119.954090681817
 20
-140.8365369656589
 30
0.0
 10
119.7067328259761
 20
-141.0036240966935
 30
0.0
 10
119.429747148962
 20
-141.0036240966935
 30
0.0
  0
HATCH
  5
BE
330
B9
100
AcDbEntity
  8
レイヤー 1
 62
   250
420
  2299925
440
 33554687
100
AcDbHatch
 10
0.0
 20
0.0
 30
0.0
210
0.0
220
0.0
230
1.0
  2
SOLID
 70
     1
 71
     1
 91
        1
 92
        1
 93
        1
 72
     4
 94
        3
 73
     0
 74
     0
 95
       62
 96
       58
 40
0.0
 40
0.0
 40
0.0
 40
0.0
 40
1.0
 40
1.0
 40
1.0
 40
2.0
 40
2.0
 40
2.0
 40
3.0
 40
3.0
 40
3.0
 40
4.0
 40
4.0
 40
4.0
 40
5.0
 40
5.0
 40
5.0
 40
6.0
 40
6.0
 40
6.0
 40
7.0
 40
7.0
 40
7.0
 40
8.0
 40
8.0
 40
8.0
 40
9.0
 40
9.0
 40
9.0
 40
10.0
 40
10.0
 40
10.0
 40
11.0
 40
11.0
 40
11.0
 40
12.0
 40
12.0
 40
12.0
 40
13.0
 40
13.0
 40
13.0
 40
14.0
 40
14.0
 40
14.0
 40
15.0
 40
15.0
 40
15.0
 40
16.0
 40
16.0
 40
16.0
 40
17.0
 40
17.0
 40
17.0
 40
18.0
 40
18.0
 40
18.0
 40
19.0
 40
19.0
 40
19.0
 40
19.0
 10
119.429747148962
 20
-141.0036240966935
 10
119.3343180040206
 20
-141.0036240966935
 10
119.1165879693528
 20
-140.9824367594592
 10
118.9915310032382
 20
-140.7962293484815
 10
118.9174614503053
 20
-140.6840914904366
 10
118.913327335723
 20
-140.5847004856871
 10
118.9091932211407
 20
-140.5001233915243
 10
118.9091932211407
 20
-140.5001233915243
 10
119.1293348226482
 20
-140.5001233915243
 10
119.1293348226482
 20
-140.5001233915243
 10
119.1314018799394
 20
-140.5741929444571
 10
119.1417371663951
 20
-140.8089762017769
 10
119.4252685248311
 20
-140.8089762017769
 10
119.5627278346926
 20
-140.8089762017769
 10
119.7150010551407
 20
-140.7392130182006
 10
119.7150010551407
 20
-140.5106309327543
 10
119.7150010551407
 20
-140.3943589601271
 10
119.6771050048029
 20
-140.3456108590108
 10
119.6454101263386
 20
-140.3139159805465
 10
119.5713405734057
 20
-140.2398464276136
 10
119.4548963460043
 20
-140.2272718290925
 10
119.4001193277888
 20
-140.2272718290925
 10
119.3808267930714
 20
-140.2272718290925
 10
119.3449978000248
 20
-140.2293388863836
 10
119.3174370361428
 20
-140.2334730009659
 10
119.3174370361428
 20
-140.2334730009659
 10
119.3174370361428
 20
-140.0389973608236
 10
119.3174370361428
 20
-140.0389973608236
 10
119.3556775960291
 20
-140.045198532697
 10
119.3977077609492
 20
-140.0474378447624
 10
119.4042534423711
 20
-140.0474378447624
 10
119.4697102565909
 20
-140.0474378447624
 10
119.6684922660898
 20
-140.0262505075281
 10
119.6684922660898
 20
-139.7892279381429
 10
119.6684922660898
 20
-139.6116332658783
 10
119.5375786376503
 20
-139.5565117381143
 10
119.4273355821223
 20
-139.5565117381143
 10
119.1630967584037
 20
-139.5565117381143
 10
119.1544840196905
 20
-139.7892279381429
 10
119.1503499051082
 20
-139.8612304337847
 10
119.1503499051082
 20
-139.8612304337847
 10
118.9470892714785
 20
-139.8612304337847
 10
118.9470892714785
 20
-139.8612304337847
 10
118.9557020101916
 20
-139.7363457224443
 10
118.9832627740736
 20
-139.3597967859065
 10
119.4400824354177
 20
-139.3597967859065
 10
119.6643581515075
 20
-139.3597967859065
 10
119.905514835475
 20
-139.486748554538
 10
119.905514835475
 20
-139.7828545114952
 10
119.905514835475
 20
-139.969061922473
 10
119.8104302000821
 20
-140.0515719593447
 10
119.7108669405584
 20
-140.1128946589822
 10
119.7721896401958
 20
-140.1404554228642
 10
119.954090681817
 20
-140.2208984024448
 10
119.954090681817
 20
-140.4980563342331
 10
119.954090681817
 20
-140.8365369656589
 10
119.7067328259761
 20
-141.0036240966935
 10
119.429747148962
 20
-141.0036240966935
 97
        0
 97
        1
330
BD
 75
     2
 76
     1
 98
        1
 10
0.0
 20
0.0
450
        0
451
        0
460
0.0
461
0.0
452
        0
462
0.0
453
        0
470

  0
ENDBLK
  5
BC
330
B9
100
AcDbEntity
  8
0
100
AcDbBlockEnd
  0
BLOCK
  5
C6
330
C4
100
AcDbEntity
  8
0
100
AcDbBlockBegin
  2
Block_7
 70
     0
 10
0.0
 20
0.0
 30
0.0
  3
Block_7
  1

  0
SPLINE
  5
C8
330
C4
100
AcDbEntity
  8
レイヤー 1
100
AcDbSpline
210
0.0
220
0.0
230
1.0
 70
     9
 71
     3
 72
    53
 73
    49
 74
     0
 42
0.0000000001
 43
0.0000000001
 40
0.0
 40
0.0
 40
0.0
 40
0.0
 40
1.0
 40
1.0
 40
1.0
 40
2.0
 40
2.0
 40
2.0
 40
3.0
 40
3.0
 40
3.0
 40
4.0
 40
4.0
 40
4.0
 40
5.0
 40
5.0
 40
5.0
 40
6.0
 40
6.0
 40
6.0
 40
7.0
 40
7.0
 40
7.0
 40
8.0
 40
8.0
 40
8.0
 40
9.0
 40
9.0
 40
9.0
 40
10.0
 40
10.0
 40
10.0
 40
11.0
 40
11.0
 40
11.0
 40
12.0
 40
12.0
 40
12.0
 40
13.0
 40
13.0
 40
13.0
 40
14.0
 40
14.0
 40
14.0
 40
15.0
 40
15.0
 40
15.0
 40
16.0
 40
16.0
 40
16.0
 40
16.0
 10
119.4190673529577
 20
-156.3804632855577
 30
0.0
 10
119.3408636854425
 20
-156.3804632855577
 30
0.0
 10
119.2392333686277
 20
-156.3635823176799
 30
0.0
 10
119.1376030518128
 20
-156.3001925607513
 30
0.0
 10
118.9643147489047
 20
-156.1902940147718
 30
0.0
 10
118.9429551568962
 20
-156.0590358767838
 30
0.0
 10
118.9240071317273
 20
-155.9512043880955
 30
0.0
 10
118.9240071317273
 20
-155.9512043880955
 30
0.0
 10
119.1462157905259
 20
-155.9512043880955
 30
0.0
 10
119.1462157905259
 20
-155.9512043880955
 30
0.0
 10
119.2009928087414
 20
-156.1499863975944
 30
0.0
 10
119.3281168321471
 20
-156.1796142187676
 30
0.0
 10
119.4211344102489
 20
-156.1796142187676
 30
0.0
 10
119.5606607774015
 20
-156.1796142187676
 30
0.0
 10
119.7129339978495
 20
-156.0800509592439
 30
0.0
 10
119.7129339978495
 20
-155.8475070139895
 30
0.0
 10
119.7129339978495
 20
-155.5915364194354
 30
0.0
 10
119.5331000135195
 20
-155.5216009810848
 30
0.0
 10
119.4125216715357
 20
-155.5216009810848
 30
0.0
 10
119.3808267930714
 20
-155.5216009810848
 30
0.0
 10
119.2392333686277
 20
-155.5216009810848
 30
0.0
 10
119.1503499051082
 20
-155.6507920617817
 30
0.0
 10
119.1503499051082
 20
-155.6507920617817
 30
0.0
 10
118.9746500353605
 20
-155.6318440366128
 30
0.0
 10
118.9746500353605
 20
-155.6318440366128
 30
0.0
 10
118.9746500353605
 20
-155.6318440366128
 30
0.0
 10
119.0952283773442
 20
-154.785384075887
 30
0.0
 10
119.0952283773442
 20
-154.785384075887
 30
0.0
 10
119.0952283773442
 20
-154.785384075887
 30
0.0
 10
119.8738199570107
 20
-154.785384075887
 30
0.0
 10
119.8738199570107
 20
-154.785384075887
 30
0.0
 10
119.8738199570107
 20
-154.785384075887
 30
0.0
 10
119.8738199570107
 20
-154.9800319708036
 30
0.0
 10
119.8738199570107
 20
-154.9800319708036
 30
0.0
 10
119.8738199570107
 20
-154.9800319708036
 30
0.0
 10
119.2581813937966
 20
-154.9800319708036
 30
0.0
 10
119.2581813937966
 20
-154.9800319708036
 30
0.0
 10
119.2581813937966
 20
-154.9800319708036
 30
0.0
 10
119.1927245795768
 20
-155.4030896963923
 30
0.0
 10
119.1927245795768
 20
-155.4030896963923
 30
0.0
 10
119.2540472792142
 20
-155.3693277606368
 30
0.0
 10
119.3363850613117
 20
-155.3290201434594
 30
0.0
 10
119.4548963460043
 20
-155.3290201434594
 30
0.0
 10
119.7087998832672
 20
-155.3290201434594
 30
0.0
 10
119.9458224526524
 20
-155.5153998092114
 30
0.0
 10
119.9458224526524
 20
-155.8285589888206
 30
0.0
 10
119.9458224526524
 20
-156.1458522830121
 30
0.0
 10
119.7215467365627
 20
-156.3804632855577
 30
0.0
 10
119.4190673529577
 20
-156.3804632855577
 30
0.0
  0
HATCH
  5
C9
330
C4
100
AcDbEntity
  8
レイヤー 1
 62
   250
420
  2299925
440
 33554687
100
AcDbHatch
 10
0.0
 20
0.0
 30
0.0
210
0.0
220
0.0
230
1.0
  2
SOLID
 70
     1
 71
     1
 91
        1
 92
        1
 93
        1
 72
     4
 94
        3
 73
     0
 74
     0
 95
       53
 96
       49
 40
0.0
 40
0.0
 40
0.0
 40
0.0
 40
1.0
 40
1.0
 40
1.0
 40
2.0
 40
2.0
 40
2.0
 40
3.0
 40
3.0
 40
3.0
 40
4.0
 40
4.0
 40
4.0
 40
5.0
 40
5.0
 40
5.0
 40
6.0
 40
6.0
 40
6.0
 40
7.0
 40
7.0
 40
7.0
 40
8.0
 40
8.0
 40
8.0
 40
9.0
 40
9.0
 40
9.0
 40
10.0
 40
10.0
 40
10.0
 40
11.0
 40
11.0
 40
11.0
 40
12.0
 40
12.0
 40
12.0
 40
13.0
 40
13.0
 40
13.0
 40
14.0
 40
14.0
 40
14.0
 40
15.0
 40
15.0
 40
15.0
 40
16.0
 40
16.0
 40
16.0
 40
16.0
 10
119.4190673529577
 20
-156.3804632855577
 10
119.3408636854425
 20
-156.3804632855577
 10
119.2392333686277
 20
-156.3635823176799
 10
119.1376030518128
 20
-156.3001925607513
 10
118.9643147489047
 20
-156.1902940147718
 10
118.9429551568962
 20
-156.0590358767838
 10
118.9240071317273
 20
-155.9512043880955
 10
118.9240071317273
 20
-155.9512043880955
 10
119.1462157905259
 20
-155.9512043880955
 10
119.1462157905259
 20
-155.9512043880955
 10
119.2009928087414
 20
-156.1499863975944
 10
119.3281168321471
 20
-156.1796142187676
 10
119.4211344102489
 20
-156.1796142187676
 10
119.5606607774015
 20
-156.1796142187676
 10
119.7129339978495
 20
-156.0800509592439
 10
119.7129339978495
 20
-155.8475070139895
 10
119.7129339978495
 20
-155.5915364194354
 10
119.5331000135195
 20
-155.5216009810848
 10
119.4125216715357
 20
-155.5216009810848
 10
119.3808267930714
 20
-155.5216009810848
 10
119.2392333686277
 20
-155.5216009810848
 10
119.1503499051082
 20
-155.6507920617817
 10
119.1503499051082
 20
-155.6507920617817
 10
118.9746500353605
 20
-155.6318440366128
 10
118.9746500353605
 20
-155.6318440366128
 10
118.9746500353605
 20
-155.6318440366128
 10
119.0952283773442
 20
-154.785384075887
 10
119.0952283773442
 20
-154.785384075887
 10
119.0952283773442
 20
-154.785384075887
 10
119.8738199570107
 20
-154.785384075887
 10
119.8738199570107
 20
-154.785384075887
 10
119.8738199570107
 20
-154.785384075887
 10
119.8738199570107
 20
-154.9800319708036
 10
119.8738199570107
 20
-154.9800319708036
 10
119.8738199570107
 20
-154.9800319708036
 10
119.2581813937966
 20
-154.9800319708036
 10
119.2581813937966
 20
-154.9800319708036
 10
119.2581813937966
 20
-154.9800319708036
 10
119.1927245795768
 20
-155.4030896963923
 10
119.1927245795768
 20
-155.4030896963923
 10
119.2540472792142
 20
-155.3693277606368
 10
119.3363850613117
 20
-155.3290201434594
 10
119.4548963460043
 20
-155.3290201434594
 10
119.7087998832672
 20
-155.3290201434594
 10
119.9458224526524
 20
-155.5153998092114
 10
119.9458224526524
 20
-155.8285589888206
 10
119.9458224526524
 20
-156.1458522830121
 10
119.7215467365627
 20
-156.3804632855577
 10
119.4190673529577
 20
-156.3804632855577
 97
        0
 97
        1
330
C8
 75
     2
 76
     1
 98
        1
 10
0.0
 20
0.0
450
        0
451
        0
460
0.0
461
0.0
452
        0
462
0.0
453
        0
470

  0
ENDBLK
  5
C7
330
C4
100
AcDbEntity
  8
0
100
AcDbBlockEnd
  0
BLOCK
  5
CE
330
CC
100
AcDbEntity
  8
0
100
AcDbBlockBegin
  2
Block_8
 70
     0
 10
0.0
 20
0.0
 30
0.0
  3
Block_8
  1

  0
SPLINE
  5
D0
330
CC
100
AcDbEntity
  8
レイヤー 1
100
AcDbSpline
210
0.0
220
0.0
230
1.0
 70
    11
 71
     3
 72
    26
 73
    22
 74
     0
 42
0.0000000001
 43
0.0000000001
 40
0.0
 40
0.0
 40
0.0
 40
0.0
 40
1.0
 40
1.0
 40
1.0
 40
2.0
 40
2.0
 40
2.0
 40
3.0
 40
3.0
 40
3.0
 40
4.0
 40
4.0
 40
4.0
 40
5.0
 40
5.0
 40
5.0
 40
6.0
 40
6.0
 40
6.0
 40
7.0
 40
7.0
 40
7.0
 40
7.0
 10
123.8401583891788
 20
-149.8065320806039
 30
0.0
 10
123.8401583891788
 20
-149.8065320806039
 30
0.0
 10
123.8401583891788
 20
-148.7023789775813
 30
0.0
 10
123.8401583891788
 20
-148.7023789775813
 30
0.0
 10
123.8401583891788
 20
-148.7023789775813
 30
0.0
 10
123.5101182416919
 20
-148.7023789775813
 30
0.0
 10
123.5101182416919
 20
-148.7023789775813
 30
0.0
 10
123.5101182416919
 20
-148.7023789775813
 30
0.0
 10
123.5101182416919
 20
-148.5542398717156
 30
0.0
 10
123.5101182416919
 20
-148.5542398717156
 30
0.0
 10
123.84222544647
 20
-148.5395982159033
 30
0.0
 10
123.8887342355208
 20
-148.376645199451
 30
0.0
 10
123.918362056694
 20
-148.2624402841149
 30
0.0
 10
123.918362056694
 20
-148.2624402841149
 30
0.0
 10
124.0644341052686
 20
-148.2624402841149
 30
0.0
 10
124.0644341052686
 20
-148.2624402841149
 30
0.0
 10
124.0644341052686
 20
-148.2624402841149
 30
0.0
 10
124.0644341052686
 20
-149.8065320806039
 30
0.0
 10
124.0644341052686
 20
-149.8065320806039
 30
0.0
 10
124.0644341052686
 20
-149.8065320806039
 30
0.0
 10
123.8401583891788
 20
-149.8065320806039
 30
0.0
 10
123.8401583891788
 20
-149.8065320806039
 30
0.0
  0
HATCH
  5
D1
330
CC
100
AcDbEntity
  8
レイヤー 1
 62
   250
420
  2299925
440
 33554687
100
AcDbHatch
 10
0.0
 20
0.0
 30
0.0
210
0.0
220
0.0
230
1.0
  2
SOLID
 70
     1
 71
     1
 91
        1
 92
        1
 93
        1
 72
     4
 94
        3
 73
     0
 74
     0
 95
       26
 96
       22
 40
0.0
 40
0.0
 40
0.0
 40
0.0
 40
1.0
 40
1.0
 40
1.0
 40
2.0
 40
2.0
 40
2.0
 40
3.0
 40
3.0
 40
3.0
 40
4.0
 40
4.0
 40
4.0
 40
5.0
 40
5.0
 40
5.0
 40
6.0
 40
6.0
 40
6.0
 40
7.0
 40
7.0
 40
7.0
 40
7.0
 10
123.8401583891788
 20
-149.8065320806039
 10
123.8401583891788
 20
-149.8065320806039
 10
123.8401583891788
 20
-148.7023789775813
 10
123.8401583891788
 20
-148.7023789775813
 10
123.8401583891788
 20
-148.7023789775813
 10
123.5101182416919
 20
-148.7023789775813
 10
123.5101182416919
 20
-148.7023789775813
 10
123.5101182416919
 20
-148.7023789775813
 10
123.5101182416919
 20
-148.5542398717156
 10
123.5101182416919
 20
-148.5542398717156
 10
123.84222544647
 20
-148.5395982159033
 10
123.8887342355208
 20
-148.376645199451
 10
123.918362056694
 20
-148.2624402841149
 10
123.918362056694
 20
-148.2624402841149
 10
124.0644341052686
 20
-148.2624402841149
 10
124.0644341052686
 20
-148.2624402841149
 10
124.0644341052686
 20
-148.2624402841149
 10
124.0644341052686
 20
-149.8065320806039
 10
124.0644341052686
 20
-149.8065320806039
 10
124.0644341052686
 20
-149.8065320806039
 10
123.8401583891788
 20
-149.8065320806039
 10
123.8401583891788
 20
-149.8065320806039
 97
        0
 97
        1
330
D0
 75
     2
 76
     1
 98
        1
 10
0.0
 20
0.0
450
        0
451
        0
460
0.0
461
0.0
452
        0
462
0.0
453
        0
470

  0
ENDBLK
  5
CF
330
CC
100
AcDbEntity
  8
0
100
AcDbBlockEnd
  0
BLOCK
  5
D6
330
D4
100
AcDbEntity
  8
0
100
AcDbBlockBegin
  2
Block_9
 70
     0
 10
0.0
 20
0.0
 30
0.0
  3
Block_9
  1

  0
INSERT
  5
D9
330
D4
100
AcDbEntity
  8
レイヤー 1
100
AcDbBlockReference
  2
Block_10
 10
0.0
 20
0.0
 30
0.0
  0
INSERT
  5
E0
330
D4
100
AcDbEntity
  8
レイヤー 1
100
AcDbBlockReference
  2
Block_11
 10
0.0
 20
0.0
 30
0.0
  0
ENDBLK
  5
D7
330
D4
100
AcDbEntity
  8
0
100
AcDbBlockEnd
  0
BLOCK
  5
DA
330
D8
100
AcDbEntity
  8
0
100
AcDbBlockBegin
  2
Block_10
 70
     0
 10
0.0
 20
0.0
 30
0.0
  3
Block_10
  1

  0
LINE
  5
DC
330
D8
100
AcDbEntity
  8
レイヤー 1
 62
    18
420
        0
370
     9
100
AcDbLine
 10
95.1942534919088
 20
-147.9322575552183
 30
0.0
 11
96.00557180454368
 21
-148.5168808884056
 31
0.0
  0
LINE
  5
DD
330
D8
100
AcDbEntity
  8
レイヤー 1
 62
    18
420
        0
370
     9
100
AcDbLine
 10
95.1942534919088
 20
-147.9322575552183
 30
0.0
 11
97.77189481503659
 21
-151.0893364433179
 31
0.0
  0
LINE
  5
DE
330
D8
100
AcDbEntity
  8
レイヤー 1
 62
    18
420
        0
370
     9
100
AcDbLine
 10
95.1942534919088
 20
-147.9322575552183
 30
0.0
 11
95.60456931477411
 21
-148.8443644994347
 31
0.0
  0
ENDBLK
  5
DB
330
D8
100
AcDbEntity
  8
0
100
AcDbBlockEnd
  0
BLOCK
  5
E1
330
DF
100
AcDbEntity
  8
0
100
AcDbBlockBegin
  2
Block_11
 70
     0
 10
0.0
 20
0.0
 30
0.0
  3
Block_11
  1

  0
INSERT
  5
E4
330
DF
100
AcDbEntity
  8
レイヤー 1
100
AcDbBlockReference
  2
Block_12
 10
0.0
 20
0.0
 30
0.0
  0
ENDBLK
  5
E2
330
DF
100
AcDbEntity
  8
0
100
AcDbBlockEnd
  0
BLOCK
  5
E5
330
E3
100
AcDbEntity
  8
0
100
AcDbBlockBegin
  2
Block_12
 70
     0
 10
0.0
 20
0.0
 30
0.0
  3
Block_12
  1

  0
SPLINE
  5
E7
330
E3
100
AcDbEntity
  8
レイヤー 1
100
AcDbSpline
210
0.0
220
0.0
230
1.0
 70
     9
 71
     3
 72
    17
 73
    13
 74
     0
 42
0.0000000001
 43
0.0000000001
 40
0.0
 40
0.0
 40
0.0
 40
0.0
 40
1.0
 40
1.0
 40
1.0
 40
2.0
 40
2.0
 40
2.0
 40
3.0
 40
3.0
 40
3.0
 40
4.0
 40
4.0
 40
4.0
 40
4.0
 10
99.43820255760574
 20
-150.8886365725209
 30
0.0
 10
99.42132158972802
 20
-150.918264393694
 30
0.0
 10
99.37050643132058
 20
-151.0112819717958
 30
0.0
 10
99.35999889009057
 20
-151.0302299969646
 30
0.0
 10
99.55034041565061
 20
-151.0894856393109
 30
0.0
 10
99.57152775288491
 20
-151.0960313207329
 30
0.0
 10
99.64353024852663
 20
-151.1232475750664
 30
0.0
 10
99.69847952151637
 20
-151.0367756783866
 30
0.0
 10
99.72173391604179
 20
-150.9627061254537
 30
0.0
 10
99.73654782662837
 20
-150.8886365725209
 30
0.0
 10
99.73654782662837
 20
-150.8886365725209
 30
0.0
 10
99.43820255760574
 20
-150.8886365725209
 30
0.0
 10
99.43820255760574
 20
-150.8886365725209
 30
0.0
  0
SPLINE
  5
E8
330
E3
100
AcDbEntity
  8
レイヤー 1
100
AcDbSpline
210
0.0
220
0.0
230
1.0
 70
    11
 71
     3
 72
    20
 73
    16
 74
     0
 42
0.0000000001
 43
0.0000000001
 40
0.0
 40
0.0
 40
0.0
 40
0.0
 40
1.0
 40
1.0
 40
1.0
 40
2.0
 40
2.0
 40
2.0
 40
3.0
 40
3.0
 40
3.0
 40
4.0
 40
4.0
 40
4.0
 40
5.0
 40
5.0
 40
5.0
 40
5.0
 10
99.37481280067714
 20
-150.0380424972127
 30
0.0
 10
99.37481280067714
 20
-150.0380424972127
 30
0.0
 10
99.34311792221285
 20
-150.0380424972127
 30
0.0
 10
99.34311792221285
 20
-150.0380424972127
 30
0.0
 10
99.3896267112637
 20
-150.1376057567364
 30
0.0
 10
99.42132158972802
 20
-150.2178764815427
 30
0.0
 10
99.45525578025772
 20
-150.3450005049485
 30
0.0
 10
99.45525578025772
 20
-150.3450005049485
 30
0.0
 10
99.66247827369549
 20
-150.3450005049485
 30
0.0
 10
99.66247827369549
 20
-150.3450005049485
 30
0.0
 10
99.69417315215979
 20
-150.2519829268467
 30
0.0
 10
99.71742754668524
 20
-150.1672335779096
 30
0.0
 10
99.74068194121066
 20
-150.0380424972127
 30
0.0
 10
99.74068194121066
 20
-150.0380424972127
 30
0.0
 10
99.37481280067714
 20
-150.0380424972127
 30
0.0
 10
99.37481280067714
 20
-150.0380424972127
 30
0.0
  0
SPLINE
  5
E9
330
E3
100
AcDbEntity
  8
レイヤー 1
100
AcDbSpline
210
0.0
220
0.0
230
1.0
 70
     9
 71
     3
 72
   242
 73
   238
 74
     0
 42
0.0000000001
 43
0.0000000001
 40
0.0
 40
0.0
 40
0.0
 40
0.0
 40
1.0
 40
1.0
 40
1.0
 40
2.0
 40
2.0
 40
2.0
 40
3.0
 40
3.0
 40
3.0
 40
4.0
 40
4.0
 40
4.0
 40
5.0
 40
5.0
 40
5.0
 40
6.0
 40
6.0
 40
6.0
 40
7.0
 40
7.0
 40
7.0
 40
8.0
 40
8.0
 40
8.0
 40
9.0
 40
9.0
 40
9.0
 40
10.0
 40
10.0
 40
10.0
 40
11.0
 40
11.0
 40
11.0
 40
12.0
 40
12.0
 40
12.0
 40
13.0
 40
13.0
 40
13.0
 40
14.0
 40
14.0
 40
14.0
 40
15.0
 40
15.0
 40
15.0
 40
16.0
 40
16.0
 40
16.0
 40
17.0
 40
17.0
 40
17.0
 40
18.0
 40
18.0
 40
18.0
 40
19.0
 40
19.0
 40
19.0
 40
20.0
 40
20.0
 40
20.0
 40
21.0
 40
21.0
 40
21.0
 40
22.0
 40
22.0
 40
22.0
 40
23.0
 40
23.0
 40
23.0
 40
24.0
 40
24.0
 40
24.0
 40
25.0
 40
25.0
 40
25.0
 40
26.0
 40
26.0
 40
26.0
 40
27.0
 40
27.0
 40
27.0
 40
28.0
 40
28.0
 40
28.0
 40
29.0
 40
29.0
 40
29.0
 40
30.0
 40
30.0
 40
30.0
 40
31.0
 40
31.0
 40
31.0
 40
32.0
 40
32.0
 40
32.0
 40
33.0
 40
33.0
 40
33.0
 40
34.0
 40
34.0
 40
34.0
 40
35.0
 40
35.0
 40
35.0
 40
36.0
 40
36.0
 40
36.0
 40
37.0
 40
37.0
 40
37.0
 40
38.0
 40
38.0
 40
38.0
 40
39.0
 40
39.0
 40
39.0
 40
40.0
 40
40.0
 40
40.0
 40
41.0
 40
41.0
 40
41.0
 40
42.0
 40
42.0
 40
42.0
 40
43.0
 40
43.0
 40
43.0
 40
44.0
 40
44.0
 40
44.0
 40
45.0
 40
45.0
 40
45.0
 40
46.0
 40
46.0
 40
46.0
 40
47.0
 40
47.0
 40
47.0
 40
48.0
 40
48.0
 40
48.0
 40
49.0
 40
49.0
 40
49.0
 40
50.0
 40
50.0
 40
50.0
 40
51.0
 40
51.0
 40
51.0
 40
52.0
 40
52.0
 40
52.0
 40
53.0
 40
53.0
 40
53.0
 40
54.0
 40
54.0
 40
54.0
 40
55.0
 40
55.0
 40
55.0
 40
56.0
 40
56.0
 40
56.0
 40
57.0
 40
57.0
 40
57.0
 40
58.0
 40
58.0
 40
58.0
 40
59.0
 40
59.0
 40
59.0
 40
60.0
 40
60.0
 40
60.0
 40
61.0
 40
61.0
 40
61.0
 40
62.0
 40
62.0
 40
62.0
 40
63.0
 40
63.0
 40
63.0
 40
64.0
 40
64.0
 40
64.0
 40
65.0
 40
65.0
 40
65.0
 40
66.0
 40
66.0
 40
66.0
 40
67.0
 40
67.0
 40
67.0
 40
68.0
 40
68.0
 40
68.0
 40
69.0
 40
69.0
 40
69.0
 40
70.0
 40
70.0
 40
70.0
 40
71.0
 40
71.0
 40
71.0
 40
72.0
 40
72.0
 40
72.0
 40
73.0
 40
73.0
 40
73.0
 40
74.0
 40
74.0
 40
74.0
 40
75.0
 40
75.0
 40
75.0
 40
76.0
 40
76.0
 40
76.0
 40
77.0
 40
77.0
 40
77.0
 40
78.0
 40
78.0
 40
78.0
 40
79.0
 40
79.0
 40
79.0
 40
79.0
 10
100.0030259624124
 20
-150.5034748972699
 30
0.0
 10
100.0030259624124
 20
-150.5034748972699
 30
0.0
 10
99.7492946799238
 20
-150.5034748972699
 30
0.0
 10
99.7492946799238
 20
-150.5034748972699
 30
0.0
 10
99.7492946799238
 20
-150.5034748972699
 30
0.0
 10
99.47213674813545
 20
-150.5034748972699
 30
0.0
 10
99.47213674813545
 20
-150.5034748972699
 30
0.0
 10
99.47213674813545
 20
-150.5034748972699
 30
0.0
 10
99.5990885167669
 20
-150.5458495717385
 30
0.0
 10
99.5990885167669
 20
-150.5458495717385
 30
0.0
 10
99.60959605799692
 20
-150.5499836863208
 30
0.0
 10
99.62234291129234
 20
-150.5565293677428
 30
0.0
 10
99.62234291129234
 20
-150.5692762210382
 30
0.0
 10
99.62234291129234
 20
-150.5902913034983
 30
0.0
 10
99.59064803282805
 20
-150.5964924753717
 30
0.0
 10
99.56946069559375
 20
-150.6009710995025
 30
0.0
 10
99.55878089958948
 20
-150.6240532392537
 30
0.0
 10
99.52915307841633
 20
-150.6898545630219
 30
0.0
 10
99.51020505324745
 20
-150.7342962947817
 30
0.0
 10
99.51020505324745
 20
-150.7342962947817
 30
0.0
 10
99.7809895583881
 20
-150.7342962947817
 30
0.0
 10
99.7809895583881
 20
-150.7342962947817
 30
0.0
 10
99.87194007919867
 20
-150.7342962947817
 30
0.0
 10
100.0686550314064
 20
-150.7298176706509
 30
0.0
 10
100.2104207106244
 20
-150.7215494414863
 30
0.0
 10
100.2104207106244
 20
-150.7215494414863
 30
0.0
 10
100.2104207106244
 20
-150.8993163685252
 30
0.0
 10
100.2104207106244
 20
-150.8993163685252
 30
0.0
 10
100.1279106737527
 20
-150.8948377443943
 30
0.0
 10
100.1067233365184
 20
-150.8948377443943
 30
0.0
 10
99.92688935218843
 20
-150.890703629812
 30
0.0
 10
99.89519447372412
 20
-151.0450439075512
 30
0.0
 10
99.85075274196439
 20
-151.125659141906
 30
0.0
 10
99.80631101020469
 20
-151.1952500707081
 30
0.0
 10
99.92688935218843
 20
-151.2545057130544
 30
0.0
 10
100.0326537835856
 20
-151.3223740941138
 30
0.0
 10
100.1363511576916
 20
-151.4047118762113
 30
0.0
 10
100.1363511576916
 20
-151.4047118762113
 30
0.0
 10
100.017839872999
 20
-151.5717990072459
 30
0.0
 10
100.017839872999
 20
-151.5717990072459
 30
0.0
 10
99.99458547847359
 20
-151.552850982077
 30
0.0
 10
99.98201087995241
 20
-151.5442382433639
 30
0.0
 10
99.86987302190755
 20
-151.4598334039753
 30
0.0
 10
99.82112492079124
 20
-151.421592844089
 30
0.0
 10
99.76186927844494
 20
-151.3857638510424
 30
0.0
 10
99.68159855363865
 20
-151.3413221192827
 30
0.0
 10
99.46989743607003
 20
-151.5273572754862
 30
0.0
 10
99.26474199992341
 20
-151.5507839247859
 30
0.0
 10
98.9750094696139
 20
-151.5804117459591
 30
0.0
 10
98.9750094696139
 20
-151.5804117459591
 30
0.0
 10
98.87131209550787
 20
-151.400577761629
 30
0.0
 10
98.87131209550787
 20
-151.400577761629
 30
0.0
 10
99.18860538969937
 20
-151.3964436470467
 30
0.0
 10
99.36413300467286
 20
-151.3709499404559
 30
0.0
 10
99.51657847989515
 20
-151.2610513944764
 30
0.0
 10
99.39806719520257
 20
-151.2100639812947
 30
0.0
 10
99.30918373168312
 20
-151.1825032174127
 30
0.0
 10
99.27318248386228
 20
-151.1701008736658
 30
0.0
 10
99.2542344586934
 20
-151.1973171279993
 30
0.0
 10
99.23942054810682
 20
-151.2166096627167
 30
0.0
 10
99.21185978422482
 20
-151.2503715984721
 30
0.0
 10
99.21185978422482
 20
-151.2503715984721
 30
0.0
 10
99.01514483201706
 20
-151.1676893068261
 30
0.0
 10
99.01514483201706
 20
-151.1676893068261
 30
0.0
 10
99.09765486888879
 20
-151.0874185820198
 30
0.0
 10
99.15897756852622
 20
-150.9923339466269
 30
0.0
 10
99.21616615358139
 20
-150.890703629812
 30
0.0
 10
99.02565237324708
 20
-150.8948377443943
 30
0.0
 10
99.00463729078705
 20
-150.8948377443943
 30
0.0
 10
98.9221272539153
 20
-150.8993163685252
 30
0.0
 10
98.9221272539153
 20
-150.8993163685252
 30
0.0
 10
98.9221272539153
 20
-150.7215494414863
 30
0.0
 10
98.9221272539153
 20
-150.7215494414863
 30
0.0
 10
99.06165362106792
 20
-150.7277506133597
 30
0.0
 10
99.27111542657112
 20
-150.731884727942
 30
0.0
 10
99.29643687838769
 20
-150.731884727942
 30
0.0
 10
99.3134901010397
 20
-150.6981227921866
 30
0.0
 10
99.36843937402942
 20
-150.5775444502028
 30
0.0
 10
99.38755965397255
 20
-150.5034748972699
 30
0.0
 10
99.36843937402942
 20
-150.5034748972699
 30
0.0
 10
99.19067244699053
 20
-150.5100205786919
 30
0.0
 10
98.99619680684818
 20
-150.5227674319874
 30
0.0
 10
98.99619680684818
 20
-150.5227674319874
 30
0.0
 10
98.99619680684818
 20
-150.655748117718
 30
0.0
 10
98.99619680684818
 20
-150.655748117718
 30
0.0
 10
98.94744870573189
 20
-150.6812418243088
 30
0.0
 10
98.88819306338561
 20
-150.7129367027731
 30
0.0
 10
98.75486786810643
 20
-150.7787380265414
 30
0.0
 10
98.75486786810643
 20
-150.7787380265414
 30
0.0
 10
98.75486786810643
 20
-150.9244655655675
 30
0.0
 10
98.75486786810643
 20
-150.9244655655675
 30
0.0
 10
98.75486786810643
 20
-150.9244655655675
 30
0.0
 10
98.75486786810643
 20
-151.3919650229159
 30
0.0
 10
98.75486786810643
 20
-151.3919650229159
 30
0.0
 10
98.75486786810643
 20
-151.5190890463216
 30
0.0
 10
98.71903887505983
 20
-151.5783446886679
 30
0.0
 10
98.43550751662377
 20
-151.5697319499548
 30
0.0
 10
98.43550751662377
 20
-151.5697319499548
 30
0.0
 10
98.33181014251776
 20
-151.3623372017427
 30
0.0
 10
98.33181014251776
 20
-151.3623372017427
 30
0.0
 10
98.39537215422062
 20
-151.3750840550381
 30
0.0
 10
98.44394800056264
 20
-151.379562679169
 30
0.0
 10
98.48408336296579
 20
-151.379562679169
 30
0.0
 10
98.56039222796407
 20
-151.379562679169
 30
0.0
 10
98.57089976919409
 20
-151.3561360298693
 30
0.0
 10
98.57089976919409
 20
-151.2906792156495
 30
0.0
 10
98.57089976919409
 20
-151.2906792156495
 30
0.0
 10
98.57089976919409
 20
-150.8610758086389
 30
0.0
 10
98.57089976919409
 20
-150.8610758086389
 30
0.0
 10
98.47357582173579
 20
-150.9013834258163
 30
0.0
 10
98.45669485385805
 20
-150.9075845976898
 30
0.0
 10
98.41018606480718
 20
-150.9265326228586
 30
0.0
 10
98.40587969545062
 20
-150.9478922148672
 30
0.0
 10
98.40157332609406
 20
-150.9775200360403
 30
0.0
 10
98.38262530092519
 20
-150.9775200360403
 30
0.0
 10
98.37418481698632
 20
-150.9775200360403
 30
0.0
 10
98.36350502098206
 20
-150.973385921458
 30
0.0
 10
98.3573038491086
 20
-150.9499592721583
 30
0.0
 10
98.3573038491086
 20
-150.9499592721583
 30
0.0
 10
98.30442163341002
 20
-150.7573784345329
 30
0.0
 10
98.30442163341002
 20
-150.7573784345329
 30
0.0
 10
98.45032142721034
 20
-150.710869645482
 30
0.0
 10
98.51595049620435
 20
-150.6877875057308
 30
0.0
 10
98.57089976919409
 20
-150.6664279137223
 30
0.0
 10
98.57089976919409
 20
-150.6664279137223
 30
0.0
 10
98.57089976919409
 20
-150.2540499841378
 30
0.0
 10
98.57089976919409
 20
-150.2540499841378
 30
0.0
 10
98.57089976919409
 20
-150.2540499841378
 30
0.0
 10
98.5180175534955
 20
-150.2540499841378
 30
0.0
 10
98.5180175534955
 20
-150.2540499841378
 30
0.0
 10
98.5180175534955
 20
-150.2540499841378
 30
0.0
 10
98.43981388598033
 20
-150.2540499841378
 30
0.0
 10
98.43981388598033
 20
-150.2540499841378
 30
0.0
 10
98.37211775969517
 20
-150.2540499841378
 30
0.0
 10
98.36350502098206
 20
-150.2540499841378
 30
0.0
 10
98.32767602793545
 20
-150.2602511560113
 30
0.0
 10
98.32767602793545
 20
-150.2602511560113
 30
0.0
 10
98.32767602793545
 20
-150.0656032610947
 30
0.0
 10
98.32767602793545
 20
-150.0656032610947
 30
0.0
 10
98.35506453704319
 20
-150.0721489425167
 30
0.0
 10
98.36350502098206
 20
-150.0721489425167
 30
0.0
 10
98.43344045933262
 20
-150.0721489425167
 30
0.0
 10
98.43344045933262
 20
-150.0721489425167
 30
0.0
 10
98.56659339983753
 20
-150.0721489425167
 30
0.0
 10
98.56659339983753
 20
-150.0721489425167
 30
0.0
 10
98.56659339983753
 20
-150.0022135041661
 30
0.0
 10
98.56659339983753
 20
-149.9195312125201
 30
0.0
 10
98.56452634254637
 20
-149.9153970979378
 30
0.0
 10
98.55608585860752
 20
-149.7355631136078
 30
0.0
 10
98.55608585860752
 20
-149.7166150884389
 30
0.0
 10
98.55401880131637
 20
-149.670106299388
 30
0.0
 10
98.55401880131637
 20
-149.670106299388
 30
0.0
 10
98.76968177869301
 20
-149.6783745285526
 30
0.0
 10
98.76968177869301
 20
-149.6783745285526
 30
0.0
 10
98.78036157469729
 20
-149.6783745285526
 30
0.0
 10
98.80154891193157
 20
-149.6807860953923
 30
0.0
 10
98.80154891193157
 20
-149.69766706327
 30
0.0
 10
98.80154891193157
 20
-149.7166150884389
 30
0.0
 10
98.786735001345
 20
-149.7272948844432
 30
0.0
 10
98.76124129475414
 20
-149.746242909612
 30
0.0
 10
98.76124129475414
 20
-149.7968858132452
 30
0.0
 10
98.75486786810643
 20
-150.0256401534658
 30
0.0
 10
98.75710718017185
 20
-150.0721489425167
 30
0.0
 10
98.88612600609445
 20
-150.0721489425167
 30
0.0
 10
98.89887285938987
 20
-150.0721489425167
 30
0.0
 10
98.99619680684818
 20
-150.0635362038036
 30
0.0
 10
98.99619680684818
 20
-150.0635362038036
 30
0.0
 10
98.99619680684818
 20
-150.2581840987202
 30
0.0
 10
98.99619680684818
 20
-150.2581840987202
 30
0.0
 10
98.95795624696191
 20
-150.256117041429
 30
0.0
 10
98.89026012067674
 20
-150.2519829268467
 30
0.0
 10
98.75486786810643
 20
-150.2540499841378
 30
0.0
 10
98.75486786810643
 20
-150.2540499841378
 30
0.0
 10
98.75486786810643
 20
-150.5923583607894
 30
0.0
 10
98.75486786810643
 20
-150.5923583607894
 30
0.0
 10
98.80998939587042
 20
-150.5692762210382
 30
0.0
 10
98.87544621009018
 20
-150.5417154571562
 30
0.0
 10
98.92419431120645
 20
-150.5182888078565
 30
0.0
 10
98.92419431120645
 20
-150.5182888078565
 30
0.0
 10
98.92419431120645
 20
-150.3405218808176
 30
0.0
 10
98.92419431120645
 20
-150.3405218808176
 30
0.0
 10
99.03839922654249
 20
-150.353268734113
 30
0.0
 10
99.15691051123509
 20
-150.353268734113
 30
0.0
 10
99.27318248386228
 20
-150.353268734113
 30
0.0
 10
99.24992808933684
 20
-150.2581840987202
 30
0.0
 10
99.2225395802291
 20
-150.1755018070742
 30
0.0
 10
99.15897756852622
 20
-150.0425211213435
 30
0.0
 10
99.11453583676651
 20
-150.0445881786347
 30
0.0
 10
99.03202579989478
 20
-150.048722293217
 30
0.0
 10
98.99395749478276
 20
-150.0507893505081
 30
0.0
 10
98.99395749478276
 20
-150.0507893505081
 30
0.0
 10
98.99395749478276
 20
-149.8709553661781
 30
0.0
 10
98.99395749478276
 20
-149.8709553661781
 30
0.0
 10
99.11884220612307
 20
-149.8795681048912
 30
0.0
 10
99.2923027638054
 20
-149.8837022194735
 30
0.0
 10
99.37481280067714
 20
-149.8837022194735
 30
0.0
 10
99.37481280067714
 20
-149.8837022194735
 30
0.0
 10
99.45732283754887
 20
-149.8837022194735
 30
0.0
 10
99.45732283754887
 20
-149.8837022194735
 30
0.0
 10
99.45732283754887
 20
-149.7207492030212
 30
0.0
 10
99.45732283754887
 20
-149.7104139165655
 30
0.0
 10
99.45525578025772
 20
-149.6552923888014
 30
0.0
 10
99.45525578025772
 20
-149.6552923888014
 30
0.0
 10
99.67935924157323
 20
-149.6807860953923
 30
0.0
 10
99.67935924157323
 20
-149.6807860953923
 30
0.0
 10
99.68366561092977
 20
-149.6807860953923
 30
0.0
 10
99.70485294816407
 20
-149.6828531526834
 30
0.0
 10
99.70485294816407
 20
-149.6997341205611
 30
0.0
 10
99.70485294816407
 20
-149.7145480311477
 30
0.0
 10
99.69417315215979
 20
-149.7228162603123
 30
0.0
 10
99.66678464305205
 20
-149.7376301708989
 30
0.0
 10
99.66041121640435
 20
-149.8034314946672
 30
0.0
 10
99.6583441591132
 20
-149.8244465771272
 30
0.0
 10
99.6583441591132
 20
-149.8837022194735
 30
0.0
 10
99.6583441591132
 20
-149.8837022194735
 30
0.0
 10
99.75342879450609
 20
-149.8837022194735
 30
0.0
 10
99.75342879450609
 20
-149.8837022194735
 30
0.0
 10
99.83593883137784
 20
-149.8837022194735
 30
0.0
 10
100.0093993890601
 20
-149.8795681048912
 30
0.0
 10
100.1342841004004
 20
-149.8709553661781
 30
0.0
 10
100.1342841004004
 20
-149.8709553661781
 30
0.0
 10
100.1342841004004
 20
-150.0507893505081
 30
0.0
 10
100.1342841004004
 20
-150.0507893505081
 30
0.0
 10
100.1046562792273
 20
-150.048722293217
 30
0.0
 10
99.98614499453472
 20
-150.0445881786347
 30
0.0
 10
99.94600963213157
 20
-150.0425211213435
 30
0.0
 10
99.93119572154498
 20
-150.0931640249767
 30
0.0
 10
99.89726153101528
 20
-150.2051296282473
 30
0.0
 10
99.83180471679553
 20
-150.3450005049485
 30
0.0
 10
99.87400713648984
 20
-150.3450005049485
 30
0.0
 10
100.1511650682782
 20
-150.3257079702311
 30
0.0
 10
100.2124877679156
 20
-150.3236409129399
 30
0.0
 10
100.2124877679156
 20
-150.3236409129399
 30
0.0
 10
100.2124877679156
 20
-150.5079535214008
 30
0.0
 10
100.2124877679156
 20
-150.5079535214008
 30
0.0
 10
100.1828599467424
 20
-150.5079535214008
 30
0.0
 10
100.1659789788647
 20
-150.5034748972699
 30
0.0
 10
100.0030259624124
 20
-150.5034748972699
 30
0.0
  0
HATCH
  5
EA
330
E3
100
AcDbEntity
  8
レイヤー 1
 62
    18
420
        0
440
 33554687
100
AcDbHatch
 10
0.0
 20
0.0
 30
0.0
210
0.0
220
0.0
230
1.0
  2
SOLID
 70
     1
 71
     1
 91
        3
 92
        1
 93
        1
 72
     4
 94
        3
 73
     0
 74
     0
 95
       17
 96
       13
 40
0.0
 40
0.0
 40
0.0
 40
0.0
 40
1.0
 40
1.0
 40
1.0
 40
2.0
 40
2.0
 40
2.0
 40
3.0
 40
3.0
 40
3.0
 40
4.0
 40
4.0
 40
4.0
 40
4.0
 10
99.43820255760574
 20
-150.8886365725209
 10
99.42132158972802
 20
-150.918264393694
 10
99.37050643132058
 20
-151.0112819717958
 10
99.35999889009057
 20
-151.0302299969646
 10
99.55034041565061
 20
-151.0894856393109
 10
99.57152775288491
 20
-151.0960313207329
 10
99.64353024852663
 20
-151.1232475750664
 10
99.69847952151637
 20
-151.0367756783866
 10
99.72173391604179
 20
-150.9627061254537
 10
99.73654782662837
 20
-150.8886365725209
 10
99.73654782662837
 20
-150.8886365725209
 10
99.43820255760574
 20
-150.8886365725209
 10
99.43820255760574
 20
-150.8886365725209
 97
        0
 97
        1
330
E7
 92
        1
 93
        1
 72
     4
 94
        3
 73
     0
 74
     0
 95
       20
 96
       16
 40
0.0
 40
0.0
 40
0.0
 40
0.0
 40
1.0
 40
1.0
 40
1.0
 40
2.0
 40
2.0
 40
2.0
 40
3.0
 40
3.0
 40
3.0
 40
4.0
 40
4.0
 40
4.0
 40
5.0
 40
5.0
 40
5.0
 40
5.0
 10
99.37481280067714
 20
-150.0380424972127
 10
99.37481280067714
 20
-150.0380424972127
 10
99.34311792221285
 20
-150.0380424972127
 10
99.34311792221285
 20
-150.0380424972127
 10
99.3896267112637
 20
-150.1376057567364
 10
99.42132158972802
 20
-150.2178764815427
 10
99.45525578025772
 20
-150.3450005049485
 10
99.45525578025772
 20
-150.3450005049485
 10
99.66247827369549
 20
-150.3450005049485
 10
99.66247827369549
 20
-150.3450005049485
 10
99.69417315215979
 20
-150.2519829268467
 10
99.71742754668524
 20
-150.1672335779096
 10
99.74068194121066
 20
-150.0380424972127
 10
99.74068194121066
 20
-150.0380424972127
 10
99.37481280067714
 20
-150.0380424972127
 10
99.37481280067714
 20
-150.0380424972127
 97
        0
 97
        1
330
E8
 92
        1
 93
        1
 72
     4
 94
        3
 73
     0
 74
     0
 95
      242
 96
      238
 40
0.0
 40
0.0
 40
0.0
 40
0.0
 40
1.0
 40
1.0
 40
1.0
 40
2.0
 40
2.0
 40
2.0
 40
3.0
 40
3.0
 40
3.0
 40
4.0
 40
4.0
 40
4.0
 40
5.0
 40
5.0
 40
5.0
 40
6.0
 40
6.0
 40
6.0
 40
7.0
 40
7.0
 40
7.0
 40
8.0
 40
8.0
 40
8.0
 40
9.0
 40
9.0
 40
9.0
 40
10.0
 40
10.0
 40
10.0
 40
11.0
 40
11.0
 40
11.0
 40
12.0
 40
12.0
 40
12.0
 40
13.0
 40
13.0
 40
13.0
 40
14.0
 40
14.0
 40
14.0
 40
15.0
 40
15.0
 40
15.0
 40
16.0
 40
16.0
 40
16.0
 40
17.0
 40
17.0
 40
17.0
 40
18.0
 40
18.0
 40
18.0
 40
19.0
 40
19.0
 40
19.0
 40
20.0
 40
20.0
 40
20.0
 40
21.0
 40
21.0
 40
21.0
 40
22.0
 40
22.0
 40
22.0
 40
23.0
 40
23.0
 40
23.0
 40
24.0
 40
24.0
 40
24.0
 40
25.0
 40
25.0
 40
25.0
 40
26.0
 40
26.0
 40
26.0
 40
27.0
 40
27.0
 40
27.0
 40
28.0
 40
28.0
 40
28.0
 40
29.0
 40
29.0
 40
29.0
 40
30.0
 40
30.0
 40
30.0
 40
31.0
 40
31.0
 40
31.0
 40
32.0
 40
32.0
 40
32.0
 40
33.0
 40
33.0
 40
33.0
 40
34.0
 40
34.0
 40
34.0
 40
35.0
 40
35.0
 40
35.0
 40
36.0
 40
36.0
 40
36.0
 40
37.0
 40
37.0
 40
37.0
 40
38.0
 40
38.0
 40
38.0
 40
39.0
 40
39.0
 40
39.0
 40
40.0
 40
40.0
 40
40.0
 40
41.0
 40
41.0
 40
41.0
 40
42.0
 40
42.0
 40
42.0
 40
43.0
 40
43.0
 40
43.0
 40
44.0
 40
44.0
 40
44.0
 40
45.0
 40
45.0
 40
45.0
 40
46.0
 40
46.0
 40
46.0
 40
47.0
 40
47.0
 40
47.0
 40
48.0
 40
48.0
 40
48.0
 40
49.0
 40
49.0
 40
49.0
 40
50.0
 40
50.0
 40
50.0
 40
51.0
 40
51.0
 40
51.0
 40
52.0
 40
52.0
 40
52.0
 40
53.0
 40
53.0
 40
53.0
 40
54.0
 40
54.0
 40
54.0
 40
55.0
 40
55.0
 40
55.0
 40
56.0
 40
56.0
 40
56.0
 40
57.0
 40
57.0
 40
57.0
 40
58.0
 40
58.0
 40
58.0
 40
59.0
 40
59.0
 40
59.0
 40
60.0
 40
60.0
 40
60.0
 40
61.0
 40
61.0
 40
61.0
 40
62.0
 40
62.0
 40
62.0
 40
63.0
 40
63.0
 40
63.0
 40
64.0
 40
64.0
 40
64.0
 40
65.0
 40
65.0
 40
65.0
 40
66.0
 40
66.0
 40
66.0
 40
67.0
 40
67.0
 40
67.0
 40
68.0
 40
68.0
 40
68.0
 40
69.0
 40
69.0
 40
69.0
 40
70.0
 40
70.0
 40
70.0
 40
71.0
 40
71.0
 40
71.0
 40
72.0
 40
72.0
 40
72.0
 40
73.0
 40
73.0
 40
73.0
 40
74.0
 40
74.0
 40
74.0
 40
75.0
 40
75.0
 40
75.0
 40
76.0
 40
76.0
 40
76.0
 40
77.0
 40
77.0
 40
77.0
 40
78.0
 40
78.0
 40
78.0
 40
79.0
 40
79.0
 40
79.0
 40
79.0
 10
100.0030259624124
 20
-150.5034748972699
 10
100.0030259624124
 20
-150.5034748972699
 10
99.7492946799238
 20
-150.5034748972699
 10
99.7492946799238
 20
-150.5034748972699
 10
99.7492946799238
 20
-150.5034748972699
 10
99.47213674813545
 20
-150.5034748972699
 10
99.47213674813545
 20
-150.5034748972699
 10
99.47213674813545
 20
-150.5034748972699
 10
99.5990885167669
 20
-150.5458495717385
 10
99.5990885167669
 20
-150.5458495717385
 10
99.60959605799692
 20
-150.5499836863208
 10
99.62234291129234
 20
-150.5565293677428
 10
99.62234291129234
 20
-150.5692762210382
 10
99.62234291129234
 20
-150.5902913034983
 10
99.59064803282805
 20
-150.5964924753717
 10
99.56946069559375
 20
-150.6009710995025
 10
99.55878089958948
 20
-150.6240532392537
 10
99.52915307841633
 20
-150.6898545630219
 10
99.51020505324745
 20
-150.7342962947817
 10
99.51020505324745
 20
-150.7342962947817
 10
99.7809895583881
 20
-150.7342962947817
 10
99.7809895583881
 20
-150.7342962947817
 10
99.87194007919867
 20
-150.7342962947817
 10
100.0686550314064
 20
-150.7298176706509
 10
100.2104207106244
 20
-150.7215494414863
 10
100.2104207106244
 20
-150.7215494414863
 10
100.2104207106244
 20
-150.8993163685252
 10
100.2104207106244
 20
-150.8993163685252
 10
100.1279106737527
 20
-150.8948377443943
 10
100.1067233365184
 20
-150.8948377443943
 10
99.92688935218843
 20
-150.890703629812
 10
99.89519447372412
 20
-151.0450439075512
 10
99.85075274196439
 20
-151.125659141906
 10
99.80631101020469
 20
-151.1952500707081
 10
99.92688935218843
 20
-151.2545057130544
 10
100.0326537835856
 20
-151.3223740941138
 10
100.1363511576916
 20
-151.4047118762113
 10
100.1363511576916
 20
-151.4047118762113
 10
100.017839872999
 20
-151.5717990072459
 10
100.017839872999
 20
-151.5717990072459
 10
99.99458547847359
 20
-151.552850982077
 10
99.98201087995241
 20
-151.5442382433639
 10
99.86987302190755
 20
-151.4598334039753
 10
99.82112492079124
 20
-151.421592844089
 10
99.76186927844494
 20
-151.3857638510424
 10
99.68159855363865
 20
-151.3413221192827
 10
99.46989743607003
 20
-151.5273572754862
 10
99.26474199992341
 20
-151.5507839247859
 10
98.9750094696139
 20
-151.5804117459591
 10
98.9750094696139
 20
-151.5804117459591
 10
98.87131209550787
 20
-151.400577761629
 10
98.87131209550787
 20
-151.400577761629
 10
99.18860538969937
 20
-151.3964436470467
 10
99.36413300467286
 20
-151.3709499404559
 10
99.51657847989515
 20
-151.2610513944764
 10
99.39806719520257
 20
-151.2100639812947
 10
99.30918373168312
 20
-151.1825032174127
 10
99.27318248386228
 20
-151.1701008736658
 10
99.2542344586934
 20
-151.1973171279993
 10
99.23942054810682
 20
-151.2166096627167
 10
99.21185978422482
 20
-151.2503715984721
 10
99.21185978422482
 20
-151.2503715984721
 10
99.01514483201706
 20
-151.1676893068261
 10
99.01514483201706
 20
-151.1676893068261
 10
99.09765486888879
 20
-151.0874185820198
 10
99.15897756852622
 20
-150.9923339466269
 10
99.21616615358139
 20
-150.890703629812
 10
99.02565237324708
 20
-150.8948377443943
 10
99.00463729078705
 20
-150.8948377443943
 10
98.9221272539153
 20
-150.8993163685252
 10
98.9221272539153
 20
-150.8993163685252
 10
98.9221272539153
 20
-150.7215494414863
 10
98.9221272539153
 20
-150.7215494414863
 10
99.06165362106792
 20
-150.7277506133597
 10
99.27111542657112
 20
-150.731884727942
 10
99.29643687838769
 20
-150.731884727942
 10
99.3134901010397
 20
-150.6981227921866
 10
99.36843937402942
 20
-150.5775444502028
 10
99.38755965397255
 20
-150.5034748972699
 10
99.36843937402942
 20
-150.5034748972699
 10
99.19067244699053
 20
-150.5100205786919
 10
98.99619680684818
 20
-150.5227674319874
 10
98.99619680684818
 20
-150.5227674319874
 10
98.99619680684818
 20
-150.655748117718
 10
98.99619680684818
 20
-150.655748117718
 10
98.94744870573189
 20
-150.6812418243088
 10
98.88819306338561
 20
-150.7129367027731
 10
98.75486786810643
 20
-150.7787380265414
 10
98.75486786810643
 20
-150.7787380265414
 10
98.75486786810643
 20
-150.9244655655675
 10
98.75486786810643
 20
-150.9244655655675
 10
98.75486786810643
 20
-150.9244655655675
 10
98.75486786810643
 20
-151.3919650229159
 10
98.75486786810643
 20
-151.3919650229159
 10
98.75486786810643
 20
-151.5190890463216
 10
98.71903887505983
 20
-151.5783446886679
 10
98.43550751662377
 20
-151.5697319499548
 10
98.43550751662377
 20
-151.5697319499548
 10
98.33181014251776
 20
-151.3623372017427
 10
98.33181014251776
 20
-151.3623372017427
 10
98.39537215422062
 20
-151.3750840550381
 10
98.44394800056264
 20
-151.379562679169
 10
98.48408336296579
 20
-151.379562679169
 10
98.56039222796407
 20
-151.379562679169
 10
98.57089976919409
 20
-151.3561360298693
 10
98.57089976919409
 20
-151.2906792156495
 10
98.57089976919409
 20
-151.2906792156495
 10
98.57089976919409
 20
-150.8610758086389
 10
98.57089976919409
 20
-150.8610758086389
 10
98.47357582173579
 20
-150.9013834258163
 10
98.45669485385805
 20
-150.9075845976898
 10
98.41018606480718
 20
-150.9265326228586
 10
98.40587969545062
 20
-150.9478922148672
 10
98.40157332609406
 20
-150.9775200360403
 10
98.38262530092519
 20
-150.9775200360403
 10
98.37418481698632
 20
-150.9775200360403
 10
98.36350502098206
 20
-150.973385921458
 10
98.3573038491086
 20
-150.9499592721583
 10
98.3573038491086
 20
-150.9499592721583
 10
98.30442163341002
 20
-150.7573784345329
 10
98.30442163341002
 20
-150.7573784345329
 10
98.45032142721034
 20
-150.710869645482
 10
98.51595049620435
 20
-150.6877875057308
 10
98.57089976919409
 20
-150.6664279137223
 10
98.57089976919409
 20
-150.6664279137223
 10
98.57089976919409
 20
-150.2540499841378
 10
98.57089976919409
 20
-150.2540499841378
 10
98.57089976919409
 20
-150.2540499841378
 10
98.5180175534955
 20
-150.2540499841378
 10
98.5180175534955
 20
-150.2540499841378
 10
98.5180175534955
 20
-150.2540499841378
 10
98.43981388598033
 20
-150.2540499841378
 10
98.43981388598033
 20
-150.2540499841378
 10
98.37211775969517
 20
-150.2540499841378
 10
98.36350502098206
 20
-150.2540499841378
 10
98.32767602793545
 20
-150.2602511560113
 10
98.32767602793545
 20
-150.2602511560113
 10
98.32767602793545
 20
-150.0656032610947
 10
98.32767602793545
 20
-150.0656032610947
 10
98.35506453704319
 20
-150.0721489425167
 10
98.36350502098206
 20
-150.0721489425167
 10
98.43344045933262
 20
-150.0721489425167
 10
98.43344045933262
 20
-150.0721489425167
 10
98.56659339983753
 20
-150.0721489425167
 10
98.56659339983753
 20
-150.0721489425167
 10
98.56659339983753
 20
-150.0022135041661
 10
98.56659339983753
 20
-149.9195312125201
 10
98.56452634254637
 20
-149.9153970979378
 10
98.55608585860752
 20
-149.7355631136078
 10
98.55608585860752
 20
-149.7166150884389
 10
98.55401880131637
 20
-149.670106299388
 10
98.55401880131637
 20
-149.670106299388
 10
98.76968177869301
 20
-149.6783745285526
 10
98.76968177869301
 20
-149.6783745285526
 10
98.78036157469729
 20
-149.6783745285526
 10
98.80154891193157
 20
-149.6807860953923
 10
98.80154891193157
 20
-149.69766706327
 10
98.80154891193157
 20
-149.7166150884389
 10
98.786735001345
 20
-149.7272948844432
 10
98.76124129475414
 20
-149.746242909612
 10
98.76124129475414
 20
-149.7968858132452
 10
98.75486786810643
 20
-150.0256401534658
 10
98.75710718017185
 20
-150.0721489425167
 10
98.88612600609445
 20
-150.0721489425167
 10
98.89887285938987
 20
-150.0721489425167
 10
98.99619680684818
 20
-150.0635362038036
 10
98.99619680684818
 20
-150.0635362038036
 10
98.99619680684818
 20
-150.2581840987202
 10
98.99619680684818
 20
-150.2581840987202
 10
98.95795624696191
 20
-150.256117041429
 10
98.89026012067674
 20
-150.2519829268467
 10
98.75486786810643
 20
-150.2540499841378
 10
98.75486786810643
 20
-150.2540499841378
 10
98.75486786810643
 20
-150.5923583607894
 10
98.75486786810643
 20
-150.5923583607894
 10
98.80998939587042
 20
-150.5692762210382
 10
98.87544621009018
 20
-150.5417154571562
 10
98.92419431120645
 20
-150.5182888078565
 10
98.92419431120645
 20
-150.5182888078565
 10
98.92419431120645
 20
-150.3405218808176
 10
98.92419431120645
 20
-150.3405218808176
 10
99.03839922654249
 20
-150.353268734113
 10
99.15691051123509
 20
-150.353268734113
 10
99.27318248386228
 20
-150.353268734113
 10
99.24992808933684
 20
-150.2581840987202
 10
99.2225395802291
 20
-150.1755018070742
 10
99.15897756852622
 20
-150.0425211213435
 10
99.11453583676651
 20
-150.0445881786347
 10
99.03202579989478
 20
-150.048722293217
 10
98.99395749478276
 20
-150.0507893505081
 10
98.99395749478276
 20
-150.0507893505081
 10
98.99395749478276
 20
-149.8709553661781
 10
98.99395749478276
 20
-149.8709553661781
 10
99.11884220612307
 20
-149.8795681048912
 10
99.2923027638054
 20
-149.8837022194735
 10
99.37481280067714
 20
-149.8837022194735
 10
99.37481280067714
 20
-149.8837022194735
 10
99.45732283754887
 20
-149.8837022194735
 10
99.45732283754887
 20
-149.8837022194735
 10
99.45732283754887
 20
-149.7207492030212
 10
99.45732283754887
 20
-149.7104139165655
 10
99.45525578025772
 20
-149.6552923888014
 10
99.45525578025772
 20
-149.6552923888014
 10
99.67935924157323
 20
-149.6807860953923
 10
99.67935924157323
 20
-149.6807860953923
 10
99.68366561092977
 20
-149.6807860953923
 10
99.70485294816407
 20
-149.6828531526834
 10
99.70485294816407
 20
-149.6997341205611
 10
99.70485294816407
 20
-149.7145480311477
 10
99.69417315215979
 20
-149.7228162603123
 10
99.66678464305205
 20
-149.7376301708989
 10
99.66041121640435
 20
-149.8034314946672
 10
99.6583441591132
 20
-149.8244465771272
 10
99.6583441591132
 20
-149.8837022194735
 10
99.6583441591132
 20
-149.8837022194735
 10
99.75342879450609
 20
-149.8837022194735
 10
99.75342879450609
 20
-149.8837022194735
 10
99.83593883137784
 20
-149.8837022194735
 10
100.0093993890601
 20
-149.8795681048912
 10
100.1342841004004
 20
-149.8709553661781
 10
100.1342841004004
 20
-149.8709553661781
 10
100.1342841004004
 20
-150.0507893505081
 10
100.1342841004004
 20
-150.0507893505081
 10
100.1046562792273
 20
-150.048722293217
 10
99.98614499453472
 20
-150.0445881786347
 10
99.94600963213157
 20
-150.0425211213435
 10
99.93119572154498
 20
-150.0931640249767
 10
99.89726153101528
 20
-150.2051296282473
 10
99.83180471679553
 20
-150.3450005049485
 10
99.87400713648984
 20
-150.3450005049485
 10
100.1511650682782
 20
-150.3257079702311
 10
100.2124877679156
 20
-150.3236409129399
 10
100.2124877679156
 20
-150.3236409129399
 10
100.2124877679156
 20
-150.5079535214008
 10
100.2124877679156
 20
-150.5079535214008
 10
100.1828599467424
 20
-150.5079535214008
 10
100.1659789788647
 20
-150.5034748972699
 10
100.0030259624124
 20
-150.5034748972699
 97
        0
 97
        1
330
E9
 75
     2
 76
     1
 98
        1
 10
0.0
 20
0.0
450
        0
451
        0
460
0.0
461
0.0
452
        0
462
0.0
453
        0
470

  0
SPLINE
  5
EB
330
E3
100
AcDbEntity
  8
レイヤー 1
100
AcDbSpline
210
0.0
220
0.0
230
1.0
 70
    11
 71
     3
 72
    17
 73
    13
 74
     0
 42
0.0000000001
 43
0.0000000001
 40
0.0
 40
0.0
 40
0.0
 40
0.0
 40
1.0
 40
1.0
 40
1.0
 40
2.0
 40
2.0
 40
2.0
 40
3.0
 40
3.0
 40
3.0
 40
4.0
 40
4.0
 40
4.0
 40
4.0
 10
101.8595879194136
 20
-151.3030815593964
 30
0.0
 10
101.8595879194136
 20
-151.3030815593964
 30
0.0
 10
101.1529988353888
 20
-151.3030815593964
 30
0.0
 10
101.1529988353888
 20
-151.3030815593964
 30
0.0
 10
101.1529988353888
 20
-151.3030815593964
 30
0.0
 10
101.1529988353888
 20
-151.4174587295067
 30
0.0
 10
101.1529988353888
 20
-151.4174587295067
 30
0.0
 10
101.1529988353888
 20
-151.4174587295067
 30
0.0
 10
101.8595879194136
 20
-151.4174587295067
 30
0.0
 10
101.8595879194136
 20
-151.4174587295067
 30
0.0
 10
101.8595879194136
 20
-151.4174587295067
 30
0.0
 10
101.8595879194136
 20
-151.3030815593964
 30
0.0
 10
101.8595879194136
 20
-151.3030815593964
 30
0.0
  0
SPLINE
  5
EC
330
E3
100
AcDbEntity
  8
レイヤー 1
100
AcDbSpline
210
0.0
220
0.0
230
1.0
 70
    11
 71
     3
 72
    17
 73
    13
 74
     0
 42
0.0000000001
 43
0.0000000001
 40
0.0
 40
0.0
 40
0.0
 40
0.0
 40
1.0
 40
1.0
 40
1.0
 40
2.0
 40
2.0
 40
2.0
 40
3.0
 40
3.0
 40
3.0
 40
4.0
 40
4.0
 40
4.0
 40
4.0
 10
101.8595879194136
 20
-151.0598578181378
 30
0.0
 10
101.8595879194136
 20
-151.0598578181378
 30
0.0
 10
101.1529988353888
 20
-151.0598578181378
 30
0.0
 10
101.1529988353888
 20
-151.0598578181378
 30
0.0
 10
101.1529988353888
 20
-151.0598578181378
 30
0.0
 10
101.1529988353888
 20
-151.1742349882481
 30
0.0
 10
101.1529988353888
 20
-151.1742349882481
 30
0.0
 10
101.1529988353888
 20
-151.1742349882481
 30
0.0
 10
101.8595879194136
 20
-151.1742349882481
 30
0.0
 10
101.8595879194136
 20
-151.1742349882481
 30
0.0
 10
101.8595879194136
 20
-151.1742349882481
 30
0.0
 10
101.8595879194136
 20
-151.0598578181378
 30
0.0
 10
101.8595879194136
 20
-151.0598578181378
 30
0.0
  0
SPLINE
  5
ED
330
E3
100
AcDbEntity
  8
レイヤー 1
100
AcDbSpline
210
0.0
220
0.0
230
1.0
 70
    11
 71
     3
 72
    17
 73
    13
 74
     0
 42
0.0000000001
 43
0.0000000001
 40
0.0
 40
0.0
 40
0.0
 40
0.0
 40
1.0
 40
1.0
 40
1.0
 40
2.0
 40
2.0
 40
2.0
 40
3.0
 40
3.0
 40
3.0
 40
4.0
 40
4.0
 40
4.0
 40
4.0
 10
101.8595879194136
 20
-150.8273138728834
 30
0.0
 10
101.8595879194136
 20
-150.8273138728834
 30
0.0
 10
101.1529988353888
 20
-150.8273138728834
 30
0.0
 10
101.1529988353888
 20
-150.8273138728834
 30
0.0
 10
101.1529988353888
 20
-150.8273138728834
 30
0.0
 10
101.1529988353888
 20
-150.9351453615718
 30
0.0
 10
101.1529988353888
 20
-150.9351453615718
 30
0.0
 10
101.1529988353888
 20
-150.9351453615718
 30
0.0
 10
101.8595879194136
 20
-150.9351453615718
 30
0.0
 10
101.8595879194136
 20
-150.9351453615718
 30
0.0
 10
101.8595879194136
 20
-150.9351453615718
 30
0.0
 10
101.8595879194136
 20
-150.8273138728834
 30
0.0
 10
101.8595879194136
 20
-150.8273138728834
 30
0.0
  0
SPLINE
  5
EE
330
E3
100
AcDbEntity
  8
レイヤー 1
100
AcDbSpline
210
0.0
220
0.0
230
1.0
 70
     9
 71
     3
 72
   203
 73
   199
 74
     0
 42
0.0000000001
 43
0.0000000001
 40
0.0
 40
0.0
 40
0.0
 40
0.0
 40
1.0
 40
1.0
 40
1.0
 40
2.0
 40
2.0
 40
2.0
 40
3.0
 40
3.0
 40
3.0
 40
4.0
 40
4.0
 40
4.0
 40
5.0
 40
5.0
 40
5.0
 40
6.0
 40
6.0
 40
6.0
 40
7.0
 40
7.0
 40
7.0
 40
8.0
 40
8.0
 40
8.0
 40
9.0
 40
9.0
 40
9.0
 40
10.0
 40
10.0
 40
10.0
 40
11.0
 40
11.0
 40
11.0
 40
12.0
 40
12.0
 40
12.0
 40
13.0
 40
13.0
 40
13.0
 40
14.0
 40
14.0
 40
14.0
 40
15.0
 40
15.0
 40
15.0
 40
16.0
 40
16.0
 40
16.0
 40
17.0
 40
17.0
 40
17.0
 40
18.0
 40
18.0
 40
18.0
 40
19.0
 40
19.0
 40
19.0
 40
20.0
 40
20.0
 40
20.0
 40
21.0
 40
21.0
 40
21.0
 40
22.0
 40
22.0
 40
22.0
 40
23.0
 40
23.0
 40
23.0
 40
24.0
 40
24.0
 40
24.0
 40
25.0
 40
25.0
 40
25.0
 40
26.0
 40
26.0
 40
26.0
 40
27.0
 40
27.0
 40
27.0
 40
28.0
 40
28.0
 40
28.0
 40
29.0
 40
29.0
 40
29.0
 40
30.0
 40
30.0
 40
30.0
 40
31.0
 40
31.0
 40
31.0
 40
32.0
 40
32.0
 40
32.0
 40
33.0
 40
33.0
 40
33.0
 40
34.0
 40
34.0
 40
34.0
 40
35.0
 40
35.0
 40
35.0
 40
36.0
 40
36.0
 40
36.0
 40
37.0
 40
37.0
 40
37.0
 40
38.0
 40
38.0
 40
38.0
 40
39.0
 40
39.0
 40
39.0
 40
40.0
 40
40.0
 40
40.0
 40
41.0
 40
41.0
 40
41.0
 40
42.0
 40
42.0
 40
42.0
 40
43.0
 40
43.0
 40
43.0
 40
44.0
 40
44.0
 40
44.0
 40
45.0
 40
45.0
 40
45.0
 40
46.0
 40
46.0
 40
46.0
 40
47.0
 40
47.0
 40
47.0
 40
48.0
 40
48.0
 40
48.0
 40
49.0
 40
49.0
 40
49.0
 40
50.0
 40
50.0
 40
50.0
 40
51.0
 40
51.0
 40
51.0
 40
52.0
 40
52.0
 40
52.0
 40
53.0
 40
53.0
 40
53.0
 40
54.0
 40
54.0
 40
54.0
 40
55.0
 40
55.0
 40
55.0
 40
56.0
 40
56.0
 40
56.0
 40
57.0
 40
57.0
 40
57.0
 40
58.0
 40
58.0
 40
58.0
 40
59.0
 40
59.0
 40
59.0
 40
60.0
 40
60.0
 40
60.0
 40
61.0
 40
61.0
 40
61.0
 40
62.0
 40
62.0
 40
62.0
 40
63.0
 40
63.0
 40
63.0
 40
64.0
 40
64.0
 40
64.0
 40
65.0
 40
65.0
 40
65.0
 40
66.0
 40
66.0
 40
66.0
 40
66.0
 10
101.6945678456701
 20
-150.5713432783293
 30
0.0
 10
101.6945678456701
 20
-150.5713432783293
 30
0.0
 10
101.1361178675111
 20
-150.5713432783293
 30
0.0
 10
101.1361178675111
 20
-150.5713432783293
 30
0.0
 10
101.1254380715068
 20
-150.6157850100891
 30
0.0
 10
101.116997587568
 20
-150.6474798885534
 30
0.0
 10
101.1042507342725
 20
-150.6853759388911
 30
0.0
 10
101.1297444408634
 20
-150.6853759388911
 30
0.0
 10
101.1445583514499
 20
-150.6877875057308
 30
0.0
 10
101.1509317780977
 20
-150.6877875057308
 30
0.0
 10
101.1509317780977
 20
-150.6877875057308
 30
0.0
 10
101.3392062463666
 20
-150.6877875057308
 30
0.0
 10
101.3392062463666
 20
-150.6877875057308
 30
0.0
 10
101.3392062463666
 20
-150.6877875057308
 30
0.0
 10
101.713515870839
 20
-150.6877875057308
 30
0.0
 10
101.713515870839
 20
-150.6877875057308
 30
0.0
 10
101.7643310292464
 20
-150.6877875057308
 30
0.0
 10
102.0478623876825
 20
-150.6750406524354
 30
0.0
 10
102.0795572661467
 20
-150.6750406524354
 30
0.0
 10
102.0774902088556
 20
-150.7026014163174
 30
0.0
 10
102.0752508967902
 20
-150.7215494414863
 30
0.0
 10
102.0752508967902
 20
-150.7511772626594
 30
0.0
 10
102.073183839499
 20
-150.7828721411237
 30
0.0
 10
102.073183839499
 20
-150.918264393694
 30
0.0
 10
102.073183839499
 20
-150.945825157576
 30
0.0
 10
102.073183839499
 20
-150.945825157576
 30
0.0
 10
102.073183839499
 20
-151.1911159561258
 30
0.0
 10
102.073183839499
 20
-151.1911159561258
 30
0.0
 10
102.073183839499
 20
-151.2355576878855
 30
0.0
 10
102.0774902088556
 20
-151.4322726400933
 30
0.0
 10
102.0816243234379
 20
-151.5845458605413
 30
0.0
 10
102.0816243234379
 20
-151.5845458605413
 30
0.0
 10
101.855281550057
 20
-151.5845458605413
 30
0.0
 10
101.855281550057
 20
-151.5845458605413
 30
0.0
 10
101.855281550057
 20
-151.5845458605413
 30
0.0
 10
101.8573486073481
 20
-151.5507839247859
 30
0.0
 10
101.8573486073481
 20
-151.5507839247859
 30
0.0
 10
101.8573486073481
 20
-151.5507839247859
 30
0.0
 10
101.15506589268
 20
-151.5507839247859
 30
0.0
 10
101.15506589268
 20
-151.5507839247859
 30
0.0
 10
101.15506589268
 20
-151.5507839247859
 30
0.0
 10
101.1571329499711
 20
-151.5845458605413
 30
0.0
 10
101.1571329499711
 20
-151.5845458605413
 30
0.0
 10
101.1571329499711
 20
-151.5845458605413
 30
0.0
 10
100.9392306605291
 20
-151.5845458605413
 30
0.0
 10
100.9392306605291
 20
-151.5845458605413
 30
0.0
 10
100.9435370298856
 20
-151.5294243327774
 30
0.0
 10
100.9435370298856
 20
-151.5170219890304
 30
0.0
 10
100.9499104565333
 20
-151.4026448189202
 30
0.0
 10
100.9519775138245
 20
-151.3750840550381
 30
0.0
 10
100.9540445711156
 20
-151.241758859759
 30
0.0
 10
100.9540445711156
 20
-151.2228108345901
 30
0.0
 10
100.9540445711156
 20
-151.2228108345901
 30
0.0
 10
100.9540445711156
 20
-151.0198947105089
 30
0.0
 10
100.9540445711156
 20
-151.0198947105089
 30
0.0
 10
100.814518203963
 20
-151.269319623641
 30
0.0
 10
100.645191760863
 20
-151.400577761629
 30
0.0
 10
100.5394273294658
 20
-151.4660345758487
 30
0.0
 10
100.5394273294658
 20
-151.4660345758487
 30
0.0
 10
100.3659667717835
 20
-151.3265082086961
 30
0.0
 10
100.3659667717835
 20
-151.3265082086961
 30
0.0
 10
100.4548502353029
 20
-151.275865305063
 30
0.0
 10
100.5986829718121
 20
-151.1890488988347
 30
0.0
 10
100.7361422816736
 20
-150.9944010039181
 30
0.0
 10
100.8272650572584
 20
-150.8672769805123
 30
0.0
 10
100.8927218714782
 20
-150.7236164987774
 30
0.0
 10
100.9266560620079
 20
-150.5713432783293
 30
0.0
 10
100.6980739765616
 20
-150.5734103356205
 30
0.0
 10
100.5182399922315
 20
-150.579611507494
 30
0.0
 10
100.4231553568386
 20
-150.5816785647851
 30
0.0
 10
100.4231553568386
 20
-150.5816785647851
 30
0.0
 10
100.4231553568386
 20
-150.4042561472948
 30
0.0
 10
100.4231553568386
 20
-150.4042561472948
 30
0.0
 10
100.6198703090464
 20
-150.4104573191682
 30
0.0
 10
100.9034016674825
 20
-150.4145914337505
 30
0.0
 10
101.0536078306394
 20
-150.4145914337505
 30
0.0
 10
101.0536078306394
 20
-150.4145914337505
 30
0.0
 10
101.2672037507248
 20
-150.4145914337505
 30
0.0
 10
101.2672037507248
 20
-150.4145914337505
 30
0.0
 10
101.2672037507248
 20
-150.4145914337505
 30
0.0
 10
101.2672037507248
 20
-150.3067599450622
 30
0.0
 10
101.2672037507248
 20
-150.3067599450622
 30
0.0
 10
101.2672037507248
 20
-150.3067599450622
 30
0.0
 10
101.1213039569245
 20
-150.3067599450622
 30
0.0
 10
101.1213039569245
 20
-150.3067599450622
 30
0.0
 10
100.9519775138245
 20
-150.3067599450622
 30
0.0
 10
100.7828233254987
 20
-150.3108940596445
 30
0.0
 10
100.6155639396898
 20
-150.3174397410665
 30
0.0
 10
100.6155639396898
 20
-150.3174397410665
 30
0.0
 10
100.6155639396898
 20
-150.1462184954496
 30
0.0
 10
100.6155639396898
 20
-150.1462184954496
 30
0.0
 10
100.7700764722033
 20
-150.1565537819053
 30
0.0
 10
100.956283883181
 20
-150.1565537819053
 30
0.0
 10
101.1213039569245
 20
-150.1565537819053
 30
0.0
 10
101.1213039569245
 20
-150.1565537819053
 30
0.0
 10
101.2672037507248
 20
-150.1565537819053
 30
0.0
 10
101.2672037507248
 20
-150.1565537819053
 30
0.0
 10
101.2672037507248
 20
-150.1565537819053
 30
0.0
 10
101.2672037507248
 20
-150.0380424972127
 30
0.0
 10
101.2672037507248
 20
-150.0380424972127
 30
0.0
 10
101.2672037507248
 20
-150.0380424972127
 30
0.0
 10
101.1361178675111
 20
-150.0380424972127
 30
0.0
 10
101.1361178675111
 20
-150.0380424972127
 30
0.0
 10
101.0894368236859
 20
-150.0380424972127
 30
0.0
 10
100.8863484448305
 20
-150.0466552359258
 30
0.0
 10
100.8441460251362
 20
-150.0466552359258
 30
0.0
 10
100.6410576462807
 20
-150.0507893505081
 30
0.0
 10
100.5649210360567
 20
-150.0528564077993
 30
0.0
 10
100.4865451137672
 20
-150.0549234650904
 30
0.0
 10
100.4865451137672
 20
-150.0549234650904
 30
0.0
 10
100.4865451137672
 20
-149.8709553661781
 30
0.0
 10
100.4865451137672
 20
-149.8709553661781
 30
0.0
 10
100.6007500291033
 20
-149.8795681048912
 30
0.0
 10
100.645191760863
 20
-149.8795681048912
 30
0.0
 10
101.0281141240485
 20
-149.8878363340558
 30
0.0
 10
100.9647243671199
 20
-149.7927516986629
 30
0.0
 10
100.9371636032379
 20
-149.7651909347809
 30
0.0
 10
100.901162355417
 20
-149.7293619417343
 30
0.0
 10
100.901162355417
 20
-149.7293619417343
 30
0.0
 10
101.0768622251648
 20
-149.6466796500883
 30
0.0
 10
101.0768622251648
 20
-149.6466796500883
 30
0.0
 10
101.116997587568
 20
-149.6828531526834
 30
0.0
 10
101.1614393193277
 20
-149.725227827152
 30
0.0
 10
101.2355088722605
 20
-149.8351263731315
 30
0.0
 10
101.2355088722605
 20
-149.8351263731315
 30
0.0
 10
101.1213039569245
 20
-149.8902479008955
 30
0.0
 10
101.1213039569245
 20
-149.8902479008955
 30
0.0
 10
101.1213039569245
 20
-149.8902479008955
 30
0.0
 10
101.1318114981545
 20
-149.8902479008955
 30
0.0
 10
101.1318114981545
 20
-149.8902479008955
 30
0.0
 10
101.1318114981545
 20
-149.8902479008955
 30
0.0
 10
101.6544324832669
 20
-149.8902479008955
 30
0.0
 10
101.6544324832669
 20
-149.8902479008955
 30
0.0
 10
101.6544324832669
 20
-149.8902479008955
 30
0.0
 10
101.5591755930998
 20
-149.8458061691358
 30
0.0
 10
101.5591755930998
 20
-149.8458061691358
 30
0.0
 10
101.5865641022075
 20
-149.8075656092495
 30
0.0
 10
101.6437526872626
 20
-149.7272948844432
 30
0.0
 10
101.6585665978492
 20
-149.6532253315103
 30
0.0
 10
101.6585665978492
 20
-149.6532253315103
 30
0.0
 10
101.8721625179347
 20
-149.7166150884389
 30
0.0
 10
101.8721625179347
 20
-149.7166150884389
 30
0.0
 10
101.8807752566478
 20
-149.71868214573
 30
0.0
 10
101.9017903391079
 20
-149.7293619417343
 30
0.0
 10
101.9017903391079
 20
-149.7503770241943
 30
0.0
 10
101.9017903391079
 20
-149.7886175840806
 30
0.0
 10
101.8363335248881
 20
-149.7886175840806
 30
0.0
 10
101.817213244945
 20
-149.7886175840806
 30
0.0
 10
101.806705703715
 20
-149.8075656092495
 30
0.0
 10
101.7834513091895
 20
-149.8478732264269
 30
0.0
 10
101.7538234880164
 20
-149.8878363340558
 30
0.0
 10
102.1536268190796
 20
-149.8816351621823
 30
0.0
 10
102.1832546402528
 20
-149.8795681048912
 30
0.0
 10
102.2593912504768
 20
-149.8730224234692
 30
0.0
 10
102.2593912504768
 20
-149.8730224234692
 30
0.0
 10
102.2593912504768
 20
-150.0549234650904
 30
0.0
 10
102.2593912504768
 20
-150.0549234650904
 30
0.0
 10
102.2402709705337
 20
-150.0549234650904
 30
0.0
 10
102.2149495187171
 20
-150.0528564077993
 30
0.0
 10
101.9949801719839
 20
-150.0445881786347
 30
0.0
 10
101.9441650135764
 20
-150.0425211213435
 30
0.0
 10
101.7241956668432
 20
-150.0380424972127
 30
0.0
 10
101.6797539350835
 20
-150.0380424972127
 30
0.0
 10
101.6797539350835
 20
-150.0380424972127
 30
0.0
 10
101.4639187029326
 20
-150.0380424972127
 30
0.0
 10
101.4639187029326
 20
-150.0380424972127
 30
0.0
 10
101.4639187029326
 20
-150.0380424972127
 30
0.0
 10
101.4639187029326
 20
-150.1565537819053
 30
0.0
 10
101.4639187029326
 20
-150.1565537819053
 30
0.0
 10
101.4639187029326
 20
-150.1565537819053
 30
0.0
 10
101.6373792606149
 20
-150.1565537819053
 30
0.0
 10
101.6373792606149
 20
-150.1565537819053
 30
0.0
 10
101.8003322770673
 20
-150.1565537819053
 30
0.0
 10
101.9906738026273
 20
-150.1565537819053
 30
0.0
 10
102.1472533924319
 20
-150.1462184954496
 30
0.0
 10
102.1472533924319
 20
-150.1462184954496
 30
0.0
 10
102.1472533924319
 20
-150.3174397410665
 30
0.0
 10
102.1472533924319
 20
-150.3174397410665
 30
0.0
 10
101.9377915869287
 20
-150.3088270023533
 30
0.0
 10
101.741076634721
 20
-150.3067599450622
 30
0.0
 10
101.6373792606149
 20
-150.3067599450622
 30
0.0
 10
101.6373792606149
 20
-150.3067599450622
 30
0.0
 10
101.4639187029326
 20
-150.3067599450622
 30
0.0
 10
101.4639187029326
 20
-150.3067599450622
 30
0.0
 10
101.4639187029326
 20
-150.3067599450622
 30
0.0
 10
101.4639187029326
 20
-150.4145914337505
 30
0.0
 10
101.4639187029326
 20
-150.4145914337505
 30
0.0
 10
101.4639187029326
 20
-150.4145914337505
 30
0.0
 10
101.6945678456701
 20
-150.4145914337505
 30
0.0
 10
101.6945678456701
 20
-150.4145914337505
 30
0.0
 10
101.8278930409493
 20
-150.4145914337505
 30
0.0
 10
102.1155585139676
 20
-150.4104573191682
 30
0.0
 10
102.3250203194708
 20
-150.4042561472948
 30
0.0
 10
102.3250203194708
 20
-150.4042561472948
 30
0.0
 10
102.3250203194708
 20
-150.5816785647851
 30
0.0
 10
102.3250203194708
 20
-150.5816785647851
 30
0.0
 10
102.1324394818453
 20
-150.5754773929117
 30
0.0
 10
101.8192803022361
 20
-150.5713432783293
 30
0.0
 10
101.6945678456701
 20
-150.5713432783293
 30
0.0
  0
HATCH
  5
EF
330
E3
100
AcDbEntity
  8
レイヤー 1
 62
    18
420
        0
440
 33554687
100
AcDbHatch
 10
0.0
 20
0.0
 30
0.0
210
0.0
220
0.0
230
1.0
  2
SOLID
 70
     1
 71
     1
 91
        4
 92
        1
 93
        1
 72
     4
 94
        3
 73
     0
 74
     0
 95
       17
 96
       13
 40
0.0
 40
0.0
 40
0.0
 40
0.0
 40
1.0
 40
1.0
 40
1.0
 40
2.0
 40
2.0
 40
2.0
 40
3.0
 40
3.0
 40
3.0
 40
4.0
 40
4.0
 40
4.0
 40
4.0
 10
101.8595879194136
 20
-151.3030815593964
 10
101.8595879194136
 20
-151.3030815593964
 10
101.1529988353888
 20
-151.3030815593964
 10
101.1529988353888
 20
-151.3030815593964
 10
101.1529988353888
 20
-151.3030815593964
 10
101.1529988353888
 20
-151.4174587295067
 10
101.1529988353888
 20
-151.4174587295067
 10
101.1529988353888
 20
-151.4174587295067
 10
101.8595879194136
 20
-151.4174587295067
 10
101.8595879194136
 20
-151.4174587295067
 10
101.8595879194136
 20
-151.4174587295067
 10
101.8595879194136
 20
-151.3030815593964
 10
101.8595879194136
 20
-151.3030815593964
 97
        0
 97
        1
330
EB
 92
        1
 93
        1
 72
     4
 94
        3
 73
     0
 74
     0
 95
       17
 96
       13
 40
0.0
 40
0.0
 40
0.0
 40
0.0
 40
1.0
 40
1.0
 40
1.0
 40
2.0
 40
2.0
 40
2.0
 40
3.0
 40
3.0
 40
3.0
 40
4.0
 40
4.0
 40
4.0
 40
4.0
 10
101.8595879194136
 20
-151.0598578181378
 10
101.8595879194136
 20
-151.0598578181378
 10
101.1529988353888
 20
-151.0598578181378
 10
101.1529988353888
 20
-151.0598578181378
 10
101.1529988353888
 20
-151.0598578181378
 10
101.1529988353888
 20
-151.1742349882481
 10
101.1529988353888
 20
-151.1742349882481
 10
101.1529988353888
 20
-151.1742349882481
 10
101.8595879194136
 20
-151.1742349882481
 10
101.8595879194136
 20
-151.1742349882481
 10
101.8595879194136
 20
-151.1742349882481
 10
101.8595879194136
 20
-151.0598578181378
 10
101.8595879194136
 20
-151.0598578181378
 97
        0
 97
        1
330
EC
 92
        1
 93
        1
 72
     4
 94
        3
 73
     0
 74
     0
 95
       17
 96
       13
 40
0.0
 40
0.0
 40
0.0
 40
0.0
 40
1.0
 40
1.0
 40
1.0
 40
2.0
 40
2.0
 40
2.0
 40
3.0
 40
3.0
 40
3.0
 40
4.0
 40
4.0
 40
4.0
 40
4.0
 10
101.8595879194136
 20
-150.8273138728834
 10
101.8595879194136
 20
-150.8273138728834
 10
101.1529988353888
 20
-150.8273138728834
 10
101.1529988353888
 20
-150.8273138728834
 10
101.1529988353888
 20
-150.8273138728834
 10
101.1529988353888
 20
-150.9351453615718
 10
101.1529988353888
 20
-150.9351453615718
 10
101.1529988353888
 20
-150.9351453615718
 10
101.8595879194136
 20
-150.9351453615718
 10
101.8595879194136
 20
-150.9351453615718
 10
101.8595879194136
 20
-150.9351453615718
 10
101.8595879194136
 20
-150.8273138728834
 10
101.8595879194136
 20
-150.8273138728834
 97
        0
 97
        1
330
ED
 92
        1
 93
        1
 72
     4
 94
        3
 73
     0
 74
     0
 95
      203
 96
      199
 40
0.0
 40
0.0
 40
0.0
 40
0.0
 40
1.0
 40
1.0
 40
1.0
 40
2.0
 40
2.0
 40
2.0
 40
3.0
 40
3.0
 40
3.0
 40
4.0
 40
4.0
 40
4.0
 40
5.0
 40
5.0
 40
5.0
 40
6.0
 40
6.0
 40
6.0
 40
7.0
 40
7.0
 40
7.0
 40
8.0
 40
8.0
 40
8.0
 40
9.0
 40
9.0
 40
9.0
 40
10.0
 40
10.0
 40
10.0
 40
11.0
 40
11.0
 40
11.0
 40
12.0
 40
12.0
 40
12.0
 40
13.0
 40
13.0
 40
13.0
 40
14.0
 40
14.0
 40
14.0
 40
15.0
 40
15.0
 40
15.0
 40
16.0
 40
16.0
 40
16.0
 40
17.0
 40
17.0
 40
17.0
 40
18.0
 40
18.0
 40
18.0
 40
19.0
 40
19.0
 40
19.0
 40
20.0
 40
20.0
 40
20.0
 40
21.0
 40
21.0
 40
21.0
 40
22.0
 40
22.0
 40
22.0
 40
23.0
 40
23.0
 40
23.0
 40
24.0
 40
24.0
 40
24.0
 40
25.0
 40
25.0
 40
25.0
 40
26.0
 40
26.0
 40
26.0
 40
27.0
 40
27.0
 40
27.0
 40
28.0
 40
28.0
 40
28.0
 40
29.0
 40
29.0
 40
29.0
 40
30.0
 40
30.0
 40
30.0
 40
31.0
 40
31.0
 40
31.0
 40
32.0
 40
32.0
 40
32.0
 40
33.0
 40
33.0
 40
33.0
 40
34.0
 40
34.0
 40
34.0
 40
35.0
 40
35.0
 40
35.0
 40
36.0
 40
36.0
 40
36.0
 40
37.0
 40
37.0
 40
37.0
 40
38.0
 40
38.0
 40
38.0
 40
39.0
 40
39.0
 40
39.0
 40
40.0
 40
40.0
 40
40.0
 40
41.0
 40
41.0
 40
41.0
 40
42.0
 40
42.0
 40
42.0
 40
43.0
 40
43.0
 40
43.0
 40
44.0
 40
44.0
 40
44.0
 40
45.0
 40
45.0
 40
45.0
 40
46.0
 40
46.0
 40
46.0
 40
47.0
 40
47.0
 40
47.0
 40
48.0
 40
48.0
 40
48.0
 40
49.0
 40
49.0
 40
49.0
 40
50.0
 40
50.0
 40
50.0
 40
51.0
 40
51.0
 40
51.0
 40
52.0
 40
52.0
 40
52.0
 40
53.0
 40
53.0
 40
53.0
 40
54.0
 40
54.0
 40
54.0
 40
55.0
 40
55.0
 40
55.0
 40
56.0
 40
56.0
 40
56.0
 40
57.0
 40
57.0
 40
57.0
 40
58.0
 40
58.0
 40
58.0
 40
59.0
 40
59.0
 40
59.0
 40
60.0
 40
60.0
 40
60.0
 40
61.0
 40
61.0
 40
61.0
 40
62.0
 40
62.0
 40
62.0
 40
63.0
 40
63.0
 40
63.0
 40
64.0
 40
64.0
 40
64.0
 40
65.0
 40
65.0
 40
65.0
 40
66.0
 40
66.0
 40
66.0
 40
66.0
 10
101.6945678456701
 20
-150.5713432783293
 10
101.6945678456701
 20
-150.5713432783293
 10
101.1361178675111
 20
-150.5713432783293
 10
101.1361178675111
 20
-150.5713432783293
 10
101.1254380715068
 20
-150.6157850100891
 10
101.116997587568
 20
-150.6474798885534
 10
101.1042507342725
 20
-150.6853759388911
 10
101.1297444408634
 20
-150.6853759388911
 10
101.1445583514499
 20
-150.6877875057308
 10
101.1509317780977
 20
-150.6877875057308
 10
101.1509317780977
 20
-150.6877875057308
 10
101.3392062463666
 20
-150.6877875057308
 10
101.3392062463666
 20
-150.6877875057308
 10
101.3392062463666
 20
-150.6877875057308
 10
101.713515870839
 20
-150.6877875057308
 10
101.713515870839
 20
-150.6877875057308
 10
101.7643310292464
 20
-150.6877875057308
 10
102.0478623876825
 20
-150.6750406524354
 10
102.0795572661467
 20
-150.6750406524354
 10
102.0774902088556
 20
-150.7026014163174
 10
102.0752508967902
 20
-150.7215494414863
 10
102.0752508967902
 20
-150.7511772626594
 10
102.073183839499
 20
-150.7828721411237
 10
102.073183839499
 20
-150.918264393694
 10
102.073183839499
 20
-150.945825157576
 10
102.073183839499
 20
-150.945825157576
 10
102.073183839499
 20
-151.1911159561258
 10
102.073183839499
 20
-151.1911159561258
 10
102.073183839499
 20
-151.2355576878855
 10
102.0774902088556
 20
-151.4322726400933
 10
102.0816243234379
 20
-151.5845458605413
 10
102.0816243234379
 20
-151.5845458605413
 10
101.855281550057
 20
-151.5845458605413
 10
101.855281550057
 20
-151.5845458605413
 10
101.855281550057
 20
-151.5845458605413
 10
101.8573486073481
 20
-151.5507839247859
 10
101.8573486073481
 20
-151.5507839247859
 10
101.8573486073481
 20
-151.5507839247859
 10
101.15506589268
 20
-151.5507839247859
 10
101.15506589268
 20
-151.5507839247859
 10
101.15506589268
 20
-151.5507839247859
 10
101.1571329499711
 20
-151.5845458605413
 10
101.1571329499711
 20
-151.5845458605413
 10
101.1571329499711
 20
-151.5845458605413
 10
100.9392306605291
 20
-151.5845458605413
 10
100.9392306605291
 20
-151.5845458605413
 10
100.9435370298856
 20
-151.5294243327774
 10
100.9435370298856
 20
-151.5170219890304
 10
100.9499104565333
 20
-151.4026448189202
 10
100.9519775138245
 20
-151.3750840550381
 10
100.9540445711156
 20
-151.241758859759
 10
100.9540445711156
 20
-151.2228108345901
 10
100.9540445711156
 20
-151.2228108345901
 10
100.9540445711156
 20
-151.0198947105089
 10
100.9540445711156
 20
-151.0198947105089
 10
100.814518203963
 20
-151.269319623641
 10
100.645191760863
 20
-151.400577761629
 10
100.5394273294658
 20
-151.4660345758487
 10
100.5394273294658
 20
-151.4660345758487
 10
100.3659667717835
 20
-151.3265082086961
 10
100.3659667717835
 20
-151.3265082086961
 10
100.4548502353029
 20
-151.275865305063
 10
100.5986829718121
 20
-151.1890488988347
 10
100.7361422816736
 20
-150.9944010039181
 10
100.8272650572584
 20
-150.8672769805123
 10
100.8927218714782
 20
-150.7236164987774
 10
100.9266560620079
 20
-150.5713432783293
 10
100.6980739765616
 20
-150.5734103356205
 10
100.5182399922315
 20
-150.579611507494
 10
100.4231553568386
 20
-150.5816785647851
 10
100.4231553568386
 20
-150.5816785647851
 10
100.4231553568386
 20
-150.4042561472948
 10
100.4231553568386
 20
-150.4042561472948
 10
100.6198703090464
 20
-150.4104573191682
 10
100.9034016674825
 20
-150.4145914337505
 10
101.0536078306394
 20
-150.4145914337505
 10
101.0536078306394
 20
-150.4145914337505
 10
101.2672037507248
 20
-150.4145914337505
 10
101.2672037507248
 20
-150.4145914337505
 10
101.2672037507248
 20
-150.4145914337505
 10
101.2672037507248
 20
-150.3067599450622
 10
101.2672037507248
 20
-150.3067599450622
 10
101.2672037507248
 20
-150.3067599450622
 10
101.1213039569245
 20
-150.3067599450622
 10
101.1213039569245
 20
-150.3067599450622
 10
100.9519775138245
 20
-150.3067599450622
 10
100.7828233254987
 20
-150.3108940596445
 10
100.6155639396898
 20
-150.3174397410665
 10
100.6155639396898
 20
-150.3174397410665
 10
100.6155639396898
 20
-150.1462184954496
 10
100.6155639396898
 20
-150.1462184954496
 10
100.7700764722033
 20
-150.1565537819053
 10
100.956283883181
 20
-150.1565537819053
 10
101.1213039569245
 20
-150.1565537819053
 10
101.1213039569245
 20
-150.1565537819053
 10
101.2672037507248
 20
-150.1565537819053
 10
101.2672037507248
 20
-150.1565537819053
 10
101.2672037507248
 20
-150.1565537819053
 10
101.2672037507248
 20
-150.0380424972127
 10
101.2672037507248
 20
-150.0380424972127
 10
101.2672037507248
 20
-150.0380424972127
 10
101.1361178675111
 20
-150.0380424972127
 10
101.1361178675111
 20
-150.0380424972127
 10
101.0894368236859
 20
-150.0380424972127
 10
100.8863484448305
 20
-150.0466552359258
 10
100.8441460251362
 20
-150.0466552359258
 10
100.6410576462807
 20
-150.0507893505081
 10
100.5649210360567
 20
-150.0528564077993
 10
100.4865451137672
 20
-150.0549234650904
 10
100.4865451137672
 20
-150.0549234650904
 10
100.4865451137672
 20
-149.8709553661781
 10
100.4865451137672
 20
-149.8709553661781
 10
100.6007500291033
 20
-149.8795681048912
 10
100.645191760863
 20
-149.8795681048912
 10
101.0281141240485
 20
-149.8878363340558
 10
100.9647243671199
 20
-149.7927516986629
 10
100.9371636032379
 20
-149.7651909347809
 10
100.901162355417
 20
-149.7293619417343
 10
100.901162355417
 20
-149.7293619417343
 10
101.0768622251648
 20
-149.6466796500883
 10
101.0768622251648
 20
-149.6466796500883
 10
101.116997587568
 20
-149.6828531526834
 10
101.1614393193277
 20
-149.725227827152
 10
101.2355088722605
 20
-149.8351263731315
 10
101.2355088722605
 20
-149.8351263731315
 10
101.1213039569245
 20
-149.8902479008955
 10
101.1213039569245
 20
-149.8902479008955
 10
101.1213039569245
 20
-149.8902479008955
 10
101.1318114981545
 20
-149.8902479008955
 10
101.1318114981545
 20
-149.8902479008955
 10
101.1318114981545
 20
-149.8902479008955
 10
101.6544324832669
 20
-149.8902479008955
 10
101.6544324832669
 20
-149.8902479008955
 10
101.6544324832669
 20
-149.8902479008955
 10
101.5591755930998
 20
-149.8458061691358
 10
101.5591755930998
 20
-149.8458061691358
 10
101.5865641022075
 20
-149.8075656092495
 10
101.6437526872626
 20
-149.7272948844432
 10
101.6585665978492
 20
-149.6532253315103
 10
101.6585665978492
 20
-149.6532253315103
 10
101.8721625179347
 20
-149.7166150884389
 10
101.8721625179347
 20
-149.7166150884389
 10
101.8807752566478
 20
-149.71868214573
 10
101.9017903391079
 20
-149.7293619417343
 10
101.9017903391079
 20
-149.7503770241943
 10
101.9017903391079
 20
-149.7886175840806
 10
101.8363335248881
 20
-149.7886175840806
 10
101.817213244945
 20
-149.7886175840806
 10
101.806705703715
 20
-149.8075656092495
 10
101.7834513091895
 20
-149.8478732264269
 10
101.7538234880164
 20
-149.8878363340558
 10
102.1536268190796
 20
-149.8816351621823
 10
102.1832546402528
 20
-149.8795681048912
 10
102.2593912504768
 20
-149.8730224234692
 10
102.2593912504768
 20
-149.8730224234692
 10
102.2593912504768
 20
-150.0549234650904
 10
102.2593912504768
 20
-150.0549234650904
 10
102.2402709705337
 20
-150.0549234650904
 10
102.2149495187171
 20
-150.0528564077993
 10
101.9949801719839
 20
-150.0445881786347
 10
101.9441650135764
 20
-150.0425211213435
 10
101.7241956668432
 20
-150.0380424972127
 10
101.6797539350835
 20
-150.0380424972127
 10
101.6797539350835
 20
-150.0380424972127
 10
101.4639187029326
 20
-150.0380424972127
 10
101.4639187029326
 20
-150.0380424972127
 10
101.4639187029326
 20
-150.0380424972127
 10
101.4639187029326
 20
-150.1565537819053
 10
101.4639187029326
 20
-150.1565537819053
 10
101.4639187029326
 20
-150.1565537819053
 10
101.6373792606149
 20
-150.1565537819053
 10
101.6373792606149
 20
-150.1565537819053
 10
101.8003322770673
 20
-150.1565537819053
 10
101.9906738026273
 20
-150.1565537819053
 10
102.1472533924319
 20
-150.1462184954496
 10
102.1472533924319
 20
-150.1462184954496
 10
102.1472533924319
 20
-150.3174397410665
 10
102.1472533924319
 20
-150.3174397410665
 10
101.9377915869287
 20
-150.3088270023533
 10
101.741076634721
 20
-150.3067599450622
 10
101.6373792606149
 20
-150.3067599450622
 10
101.6373792606149
 20
-150.3067599450622
 10
101.4639187029326
 20
-150.3067599450622
 10
101.4639187029326
 20
-150.3067599450622
 10
101.4639187029326
 20
-150.3067599450622
 10
101.4639187029326
 20
-150.4145914337505
 10
101.4639187029326
 20
-150.4145914337505
 10
101.4639187029326
 20
-150.4145914337505
 10
101.6945678456701
 20
-150.4145914337505
 10
101.6945678456701
 20
-150.4145914337505
 10
101.8278930409493
 20
-150.4145914337505
 10
102.1155585139676
 20
-150.4104573191682
 10
102.3250203194708
 20
-150.4042561472948
 10
102.3250203194708
 20
-150.4042561472948
 10
102.3250203194708
 20
-150.5816785647851
 10
102.3250203194708
 20
-150.5816785647851
 10
102.1324394818453
 20
-150.5754773929117
 10
101.8192803022361
 20
-150.5713432783293
 10
101.6945678456701
 20
-150.5713432783293
 97
        0
 97
        1
330
EE
 75
     2
 76
     1
 98
        1
 10
0.0
 20
0.0
450
        0
451
        0
460
0.0
461
0.0
452
        0
462
0.0
453
        0
470

  0
SPLINE
  5
F0
330
E3
100
AcDbEntity
  8
レイヤー 1
100
AcDbSpline
210
0.0
220
0.0
230
1.0
 70
     9
 71
     3
 72
    29
 73
    25
 74
     0
 42
0.0000000001
 43
0.0000000001
 40
0.0
 40
0.0
 40
0.0
 40
0.0
 40
1.0
 40
1.0
 40
1.0
 40
2.0
 40
2.0
 40
2.0
 40
3.0
 40
3.0
 40
3.0
 40
4.0
 40
4.0
 40
4.0
 40
5.0
 40
5.0
 40
5.0
 40
6.0
 40
6.0
 40
6.0
 40
7.0
 40
7.0
 40
7.0
 40
8.0
 40
8.0
 40
8.0
 40
8.0
 10
103.5700778278401
 20
-150.0190944720438
 30
0.0
 10
103.5700778278401
 20
-150.0190944720438
 30
0.0
 10
103.2167832858277
 20
-150.0190944720438
 30
0.0
 10
103.2167832858277
 20
-150.0190944720438
 30
0.0
 10
103.1046454277829
 20
-150.0190944720438
 30
0.0
 10
102.964946805856
 20
-150.0256401534658
 30
0.0
 10
102.8571153171677
 20
-150.0380424972127
 30
0.0
 10
102.8571153171677
 20
-150.0380424972127
 30
0.0
 10
102.8571153171677
 20
-149.8034314946672
 30
0.0
 10
102.8571153171677
 20
-149.8034314946672
 30
0.0
 10
102.9756266018603
 20
-149.8182454052537
 30
0.0
 10
103.1595947007726
 20
-149.8223795198361
 30
0.0
 10
103.2167832858277
 20
-149.8223795198361
 30
0.0
 10
103.2167832858277
 20
-149.8223795198361
 30
0.0
 10
103.5700778278401
 20
-149.8223795198361
 30
0.0
 10
103.5700778278401
 20
-149.8223795198361
 30
0.0
 10
103.589025853009
 20
-149.8223795198361
 30
0.0
 10
103.7921142318644
 20
-149.8223795198361
 30
0.0
 10
103.9338799110825
 20
-149.8034314946672
 30
0.0
 10
103.9338799110825
 20
-149.8034314946672
 30
0.0
 10
103.9338799110825
 20
-150.0380424972127
 30
0.0
 10
103.9338799110825
 20
-150.0380424972127
 30
0.0
 10
103.7773003212779
 20
-150.0190944720438
 30
0.0
 10
103.5869587957178
 20
-150.0190944720438
 30
0.0
 10
103.5700778278401
 20
-150.0190944720438
 30
0.0
  0
SPLINE
  5
F1
330
E3
100
AcDbEntity
  8
レイヤー 1
100
AcDbSpline
210
0.0
220
0.0
230
1.0
 70
     9
 71
     3
 72
    47
 73
    43
 74
     0
 42
0.0000000001
 43
0.0000000001
 40
0.0
 40
0.0
 40
0.0
 40
0.0
 40
1.0
 40
1.0
 40
1.0
 40
2.0
 40
2.0
 40
2.0
 40
3.0
 40
3.0
 40
3.0
 40
4.0
 40
4.0
 40
4.0
 40
5.0
 40
5.0
 40
5.0
 40
6.0
 40
6.0
 40
6.0
 40
7.0
 40
7.0
 40
7.0
 40
8.0
 40
8.0
 40
8.0
 40
9.0
 40
9.0
 40
9.0
 40
10.0
 40
10.0
 40
10.0
 40
11.0
 40
11.0
 40
11.0
 40
12.0
 40
12.0
 40
12.0
 40
13.0
 40
13.0
 40
13.0
 40
14.0
 40
14.0
 40
14.0
 40
14.0
 10
103.6715358898807
 20
-150.5479166290297
 30
0.0
 10
103.6715358898807
 20
-150.5479166290297
 30
0.0
 10
103.5700778278401
 20
-150.5479166290297
 30
0.0
 10
103.5700778278401
 20
-150.5479166290297
 30
0.0
 10
103.5700778278401
 20
-150.634733035258
 30
0.0
 10
103.5488904906058
 20
-151.0240288250912
 30
0.0
 10
103.3521755383981
 20
-151.2441704265986
 30
0.0
 10
103.1997300631757
 20
-151.4133246149244
 30
0.0
 10
102.992507569738
 20
-151.4829155437265
 30
0.0
 10
102.9079304755751
 20
-151.5104763076085
 30
0.0
 10
102.9079304755751
 20
-151.5104763076085
 30
0.0
 10
102.7132825806585
 20
-151.3433891765739
 30
0.0
 10
102.7132825806585
 20
-151.3433891765739
 30
0.0
 10
102.8106065281168
 20
-151.3306423232784
 30
0.0
 10
102.9861341430903
 20
-151.3075601835272
 30
0.0
 10
103.1744086113592
 20
-151.1191134604841
 30
0.0
 10
103.248478164292
 20
-151.0471109648424
 30
0.0
 10
103.3521755383981
 20
-150.9075845976898
 30
0.0
 10
103.3521755383981
 20
-150.5479166290297
 30
0.0
 10
103.3521755383981
 20
-150.5479166290297
 30
0.0
 10
103.1215263956606
 20
-150.5479166290297
 30
0.0
 10
103.1215263956606
 20
-150.5479166290297
 30
0.0
 10
102.9353189846828
 20
-150.5479166290297
 30
0.0
 10
102.7491115737051
 20
-150.5523952531605
 30
0.0
 10
102.5630764175016
 20
-150.5672091637471
 30
0.0
 10
102.5630764175016
 20
-150.5672091637471
 30
0.0
 10
102.5630764175016
 20
-150.3470675622396
 30
0.0
 10
102.5630764175016
 20
-150.3470675622396
 30
0.0
 10
102.7513508857705
 20
-150.3618814728262
 30
0.0
 10
103.0369493014977
 20
-150.3660155874085
 30
0.0
 10
103.1215263956606
 20
-150.3660155874085
 30
0.0
 10
103.1215263956606
 20
-150.3660155874085
 30
0.0
 10
103.6715358898807
 20
-150.3660155874085
 30
0.0
 10
103.6715358898807
 20
-150.3660155874085
 30
0.0
 10
103.6906561698238
 20
-150.3660155874085
 30
0.0
 10
104.0079494640154
 20
-150.3660155874085
 30
0.0
 10
104.2363592946874
 20
-150.3470675622396
 30
0.0
 10
104.2363592946874
 20
-150.3470675622396
 30
0.0
 10
104.2363592946874
 20
-150.5672091637471
 30
0.0
 10
104.2363592946874
 20
-150.5672091637471
 30
0.0
 10
104.0480848264185
 20
-150.5523952531605
 30
0.0
 10
103.8598103581496
 20
-150.5479166290297
 30
0.0
 10
103.6715358898807
 20
-150.5479166290297
 30
0.0
  0
HATCH
  5
F2
330
E3
100
AcDbEntity
  8
レイヤー 1
 62
    18
420
        0
440
 33554687
100
AcDbHatch
 10
0.0
 20
0.0
 30
0.0
210
0.0
220
0.0
230
1.0
  2
SOLID
 70
     1
 71
     1
 91
        2
 92
        1
 93
        1
 72
     4
 94
        3
 73
     0
 74
     0
 95
       29
 96
       25
 40
0.0
 40
0.0
 40
0.0
 40
0.0
 40
1.0
 40
1.0
 40
1.0
 40
2.0
 40
2.0
 40
2.0
 40
3.0
 40
3.0
 40
3.0
 40
4.0
 40
4.0
 40
4.0
 40
5.0
 40
5.0
 40
5.0
 40
6.0
 40
6.0
 40
6.0
 40
7.0
 40
7.0
 40
7.0
 40
8.0
 40
8.0
 40
8.0
 40
8.0
 10
103.5700778278401
 20
-150.0190944720438
 10
103.5700778278401
 20
-150.0190944720438
 10
103.2167832858277
 20
-150.0190944720438
 10
103.2167832858277
 20
-150.0190944720438
 10
103.1046454277829
 20
-150.0190944720438
 10
102.964946805856
 20
-150.0256401534658
 10
102.8571153171677
 20
-150.0380424972127
 10
102.8571153171677
 20
-150.0380424972127
 10
102.8571153171677
 20
-149.8034314946672
 10
102.8571153171677
 20
-149.8034314946672
 10
102.9756266018603
 20
-149.8182454052537
 10
103.1595947007726
 20
-149.8223795198361
 10
103.2167832858277
 20
-149.8223795198361
 10
103.2167832858277
 20
-149.8223795198361
 10
103.5700778278401
 20
-149.8223795198361
 10
103.5700778278401
 20
-149.8223795198361
 10
103.589025853009
 20
-149.8223795198361
 10
103.7921142318644
 20
-149.8223795198361
 10
103.9338799110825
 20
-149.8034314946672
 10
103.9338799110825
 20
-149.8034314946672
 10
103.9338799110825
 20
-150.0380424972127
 10
103.9338799110825
 20
-150.0380424972127
 10
103.7773003212779
 20
-150.0190944720438
 10
103.5869587957178
 20
-150.0190944720438
 10
103.5700778278401
 20
-150.0190944720438
 97
        0
 97
        1
330
F0
 92
        1
 93
        1
 72
     4
 94
        3
 73
     0
 74
     0
 95
       47
 96
       43
 40
0.0
 40
0.0
 40
0.0
 40
0.0
 40
1.0
 40
1.0
 40
1.0
 40
2.0
 40
2.0
 40
2.0
 40
3.0
 40
3.0
 40
3.0
 40
4.0
 40
4.0
 40
4.0
 40
5.0
 40
5.0
 40
5.0
 40
6.0
 40
6.0
 40
6.0
 40
7.0
 40
7.0
 40
7.0
 40
8.0
 40
8.0
 40
8.0
 40
9.0
 40
9.0
 40
9.0
 40
10.0
 40
10.0
 40
10.0
 40
11.0
 40
11.0
 40
11.0
 40
12.0
 40
12.0
 40
12.0
 40
13.0
 40
13.0
 40
13.0
 40
14.0
 40
14.0
 40
14.0
 40
14.0
 10
103.6715358898807
 20
-150.5479166290297
 10
103.6715358898807
 20
-150.5479166290297
 10
103.5700778278401
 20
-150.5479166290297
 10
103.5700778278401
 20
-150.5479166290297
 10
103.5700778278401
 20
-150.634733035258
 10
103.5488904906058
 20
-151.0240288250912
 10
103.3521755383981
 20
-151.2441704265986
 10
103.1997300631757
 20
-151.4133246149244
 10
102.992507569738
 20
-151.4829155437265
 10
102.9079304755751
 20
-151.5104763076085
 10
102.9079304755751
 20
-151.5104763076085
 10
102.7132825806585
 20
-151.3433891765739
 10
102.7132825806585
 20
-151.3433891765739
 10
102.8106065281168
 20
-151.3306423232784
 10
102.9861341430903
 20
-151.3075601835272
 10
103.1744086113592
 20
-151.1191134604841
 10
103.248478164292
 20
-151.0471109648424
 10
103.3521755383981
 20
-150.9075845976898
 10
103.3521755383981
 20
-150.5479166290297
 10
103.3521755383981
 20
-150.5479166290297
 10
103.1215263956606
 20
-150.5479166290297
 10
103.1215263956606
 20
-150.5479166290297
 10
102.9353189846828
 20
-150.5479166290297
 10
102.7491115737051
 20
-150.5523952531605
 10
102.5630764175016
 20
-150.5672091637471
 10
102.5630764175016
 20
-150.5672091637471
 10
102.5630764175016
 20
-150.3470675622396
 10
102.5630764175016
 20
-150.3470675622396
 10
102.7513508857705
 20
-150.3618814728262
 10
103.0369493014977
 20
-150.3660155874085
 10
103.1215263956606
 20
-150.3660155874085
 10
103.1215263956606
 20
-150.3660155874085
 10
103.6715358898807
 20
-150.3660155874085
 10
103.6715358898807
 20
-150.3660155874085
 10
103.6906561698238
 20
-150.3660155874085
 10
104.0079494640154
 20
-150.3660155874085
 10
104.2363592946874
 20
-150.3470675622396
 10
104.2363592946874
 20
-150.3470675622396
 10
104.2363592946874
 20
-150.5672091637471
 10
104.2363592946874
 20
-150.5672091637471
 10
104.0480848264185
 20
-150.5523952531605
 10
103.8598103581496
 20
-150.5479166290297
 10
103.6715358898807
 20
-150.5479166290297
 97
        0
 97
        1
330
F1
 75
     2
 76
     1
 98
        1
 10
0.0
 20
0.0
450
        0
451
        0
460
0.0
461
0.0
452
        0
462
0.0
453
        0
470

  0
SPLINE
  5
F3
330
E3
100
AcDbEntity
  8
レイヤー 1
100
AcDbSpline
210
0.0
220
0.0
230
1.0
 70
     9
 71
     3
 72
    29
 73
    25
 74
     0
 42
0.0000000001
 43
0.0000000001
 40
0.0
 40
0.0
 40
0.0
 40
0.0
 40
1.0
 40
1.0
 40
1.0
 40
2.0
 40
2.0
 40
2.0
 40
3.0
 40
3.0
 40
3.0
 40
4.0
 40
4.0
 40
4.0
 40
5.0
 40
5.0
 40
5.0
 40
6.0
 40
6.0
 40
6.0
 40
7.0
 40
7.0
 40
7.0
 40
8.0
 40
8.0
 40
8.0
 40
8.0
 10
105.5174180508776
 20
-150.710869645482
 30
0.0
 10
105.5174180508776
 20
-150.710869645482
 30
0.0
 10
105.0328653708772
 20
-150.710869645482
 30
0.0
 10
105.0328653708772
 20
-150.710869645482
 30
0.0
 10
105.0053046069952
 20
-150.710869645482
 30
0.0
 10
104.6880113128037
 20
-150.710869645482
 30
0.0
 10
104.4764824500093
 20
-150.7363633520728
 30
0.0
 10
104.4764824500093
 20
-150.7363633520728
 30
0.0
 10
104.4764824500093
 20
-150.5055419545611
 30
0.0
 10
104.4764824500093
 20
-150.5055419545611
 30
0.0
 10
104.6351290971051
 20
-150.5289686038608
 30
0.0
 10
104.8254706226651
 20
-150.531035661152
 30
0.0
 10
105.0328653708772
 20
-150.531035661152
 30
0.0
 10
105.0328653708772
 20
-150.531035661152
 30
0.0
 10
105.5174180508776
 20
-150.531035661152
 30
0.0
 10
105.5174180508776
 20
-150.531035661152
 30
0.0
 10
105.703453207081
 20
-150.531035661152
 30
0.0
 10
105.8894883632846
 20
-150.5289686038608
 30
0.0
 10
106.0738009717454
 20
-150.5055419545611
 30
0.0
 10
106.0738009717454
 20
-150.5055419545611
 30
0.0
 10
106.0738009717454
 20
-150.7363633520728
 30
0.0
 10
106.0738009717454
 20
-150.7363633520728
 30
0.0
 10
105.8894883632846
 20
-150.7129367027731
 30
0.0
 10
105.6421305074436
 20
-150.710869645482
 30
0.0
 10
105.5174180508776
 20
-150.710869645482
 30
0.0
  0
HATCH
  5
F4
330
E3
100
AcDbEntity
  8
レイヤー 1
 62
    18
420
        0
440
 33554687
100
AcDbHatch
 10
0.0
 20
0.0
 30
0.0
210
0.0
220
0.0
230
1.0
  2
SOLID
 70
     1
 71
     1
 91
        1
 92
        1
 93
        1
 72
     4
 94
        3
 73
     0
 74
     0
 95
       29
 96
       25
 40
0.0
 40
0.0
 40
0.0
 40
0.0
 40
1.0
 40
1.0
 40
1.0
 40
2.0
 40
2.0
 40
2.0
 40
3.0
 40
3.0
 40
3.0
 40
4.0
 40
4.0
 40
4.0
 40
5.0
 40
5.0
 40
5.0
 40
6.0
 40
6.0
 40
6.0
 40
7.0
 40
7.0
 40
7.0
 40
8.0
 40
8.0
 40
8.0
 40
8.0
 10
105.5174180508776
 20
-150.710869645482
 10
105.5174180508776
 20
-150.710869645482
 10
105.0328653708772
 20
-150.710869645482
 10
105.0328653708772
 20
-150.710869645482
 10
105.0053046069952
 20
-150.710869645482
 10
104.6880113128037
 20
-150.710869645482
 10
104.4764824500093
 20
-150.7363633520728
 10
104.4764824500093
 20
-150.7363633520728
 10
104.4764824500093
 20
-150.5055419545611
 10
104.4764824500093
 20
-150.5055419545611
 10
104.6351290971051
 20
-150.5289686038608
 10
104.8254706226651
 20
-150.531035661152
 10
105.0328653708772
 20
-150.531035661152
 10
105.0328653708772
 20
-150.531035661152
 10
105.5174180508776
 20
-150.531035661152
 10
105.5174180508776
 20
-150.531035661152
 10
105.703453207081
 20
-150.531035661152
 10
105.8894883632846
 20
-150.5289686038608
 10
106.0738009717454
 20
-150.5055419545611
 10
106.0738009717454
 20
-150.5055419545611
 10
106.0738009717454
 20
-150.7363633520728
 10
106.0738009717454
 20
-150.7363633520728
 10
105.8894883632846
 20
-150.7129367027731
 10
105.6421305074436
 20
-150.710869645482
 10
105.5174180508776
 20
-150.710869645482
 97
        0
 97
        1
330
F3
 75
     2
 76
     1
 98
        1
 10
0.0
 20
0.0
450
        0
451
        0
460
0.0
461
0.0
452
        0
462
0.0
453
        0
470

  0
SPLINE
  5
F5
330
E3
100
AcDbEntity
  8
レイヤー 1
100
AcDbSpline
210
0.0
220
0.0
230
1.0
 70
     9
 71
     3
 72
    47
 73
    43
 74
     0
 42
0.0000000001
 43
0.0000000001
 40
0.0
 40
0.0
 40
0.0
 40
0.0
 40
1.0
 40
1.0
 40
1.0
 40
2.0
 40
2.0
 40
2.0
 40
3.0
 40
3.0
 40
3.0
 40
4.0
 40
4.0
 40
4.0
 40
5.0
 40
5.0
 40
5.0
 40
6.0
 40
6.0
 40
6.0
 40
7.0
 40
7.0
 40
7.0
 40
8.0
 40
8.0
 40
8.0
 40
9.0
 40
9.0
 40
9.0
 40
10.0
 40
10.0
 40
10.0
 40
11.0
 40
11.0
 40
11.0
 40
12.0
 40
12.0
 40
12.0
 40
13.0
 40
13.0
 40
13.0
 40
14.0
 40
14.0
 40
14.0
 40
14.0
 10
107.7374375815726
 20
-150.1165906742764
 30
0.0
 10
107.667502143222
 20
-150.3956434085816
 30
0.0
 10
107.591365532998
 20
-150.7001898494777
 30
0.0
 10
107.2785508629373
 20
-151.0322970542558
 30
0.0
 10
107.0415282935521
 20
-151.2820664769364
 30
0.0
 10
106.7962374950023
 20
-151.3816297364601
 30
0.0
 10
106.6904730636051
 20
-151.4236599013802
 30
0.0
 10
106.6904730636051
 20
-151.4236599013802
 30
0.0
 10
106.4958251686885
 20
-151.241758859759
 30
0.0
 10
106.4958251686885
 20
-151.241758859759
 30
0.0
 10
106.681860324892
 20
-151.1952500707081
 30
0.0
 10
107.0435953508432
 20
-151.1022324926064
 30
0.0
 10
107.3398735625747
 20
-150.607172271376
 30
0.0
 10
107.5004150121874
 20
-150.3405218808176
 30
0.0
 10
107.5131618654828
 20
-150.1672335779096
 30
0.0
 10
107.5217746041959
 20
-150.076283057099
 30
0.0
 10
107.5217746041959
 20
-150.076283057099
 30
0.0
 10
107.0160345869612
 20
-150.076283057099
 30
0.0
 10
107.0160345869612
 20
-150.076283057099
 30
0.0
 10
106.8975233022687
 20
-150.076283057099
 30
0.0
 10
106.4765326339711
 20
-150.0952310822678
 30
0.0
 10
106.3242594135231
 20
-150.1059108782721
 30
0.0
 10
106.3242594135231
 20
-150.1059108782721
 30
0.0
 10
106.3242594135231
 20
-149.8964490727689
 30
0.0
 10
106.3242594135231
 20
-149.8964490727689
 30
0.0
 10
106.4661973475154
 20
-149.9091959260644
 30
0.0
 10
106.7431830245295
 20
-149.9133300406467
 30
0.0
 10
106.8596272519309
 20
-149.9133300406467
 30
0.0
 10
106.8596272519309
 20
-149.9133300406467
 30
0.0
 10
107.2148165964602
 20
-149.9133300406467
 30
0.0
 10
107.2148165964602
 20
-149.9133300406467
 30
0.0
 10
107.2423773603422
 20
-149.9133300406467
 30
0.0
 10
107.4032633195033
 20
-149.9112629833555
 30
0.0
 10
107.5131618654828
 20
-149.8964490727689
 30
0.0
 10
107.5703504505379
 20
-149.8902479008955
 30
0.0
 10
107.5872314184157
 20
-149.8709553661781
 30
0.0
 10
107.6106580677154
 20
-149.8478732264269
 30
0.0
 10
107.6106580677154
 20
-149.8478732264269
 30
0.0
 10
107.79876028121
 20
-149.9980793895838
 30
0.0
 10
107.79876028121
 20
-149.9980793895838
 30
0.0
 10
107.7839463706234
 20
-150.027707210757
 30
0.0
 10
107.7736110841677
 20
-150.0466552359258
 30
0.0
 10
107.7374375815726
 20
-150.1165906742764
 30
0.0
  0
HATCH
  5
F6
330
E3
100
AcDbEntity
  8
レイヤー 1
 62
    18
420
        0
440
 33554687
100
AcDbHatch
 10
0.0
 20
0.0
 30
0.0
210
0.0
220
0.0
230
1.0
  2
SOLID
 70
     1
 71
     1
 91
        1
 92
        1
 93
        1
 72
     4
 94
        3
 73
     0
 74
     0
 95
       47
 96
       43
 40
0.0
 40
0.0
 40
0.0
 40
0.0
 40
1.0
 40
1.0
 40
1.0
 40
2.0
 40
2.0
 40
2.0
 40
3.0
 40
3.0
 40
3.0
 40
4.0
 40
4.0
 40
4.0
 40
5.0
 40
5.0
 40
5.0
 40
6.0
 40
6.0
 40
6.0
 40
7.0
 40
7.0
 40
7.0
 40
8.0
 40
8.0
 40
8.0
 40
9.0
 40
9.0
 40
9.0
 40
10.0
 40
10.0
 40
10.0
 40
11.0
 40
11.0
 40
11.0
 40
12.0
 40
12.0
 40
12.0
 40
13.0
 40
13.0
 40
13.0
 40
14.0
 40
14.0
 40
14.0
 40
14.0
 10
107.7374375815726
 20
-150.1165906742764
 10
107.667502143222
 20
-150.3956434085816
 10
107.591365532998
 20
-150.7001898494777
 10
107.2785508629373
 20
-151.0322970542558
 10
107.0415282935521
 20
-151.2820664769364
 10
106.7962374950023
 20
-151.3816297364601
 10
106.6904730636051
 20
-151.4236599013802
 10
106.6904730636051
 20
-151.4236599013802
 10
106.4958251686885
 20
-151.241758859759
 10
106.4958251686885
 20
-151.241758859759
 10
106.681860324892
 20
-151.1952500707081
 10
107.0435953508432
 20
-151.1022324926064
 10
107.3398735625747
 20
-150.607172271376
 10
107.5004150121874
 20
-150.3405218808176
 10
107.5131618654828
 20
-150.1672335779096
 10
107.5217746041959
 20
-150.076283057099
 10
107.5217746041959
 20
-150.076283057099
 10
107.0160345869612
 20
-150.076283057099
 10
107.0160345869612
 20
-150.076283057099
 10
106.8975233022687
 20
-150.076283057099
 10
106.4765326339711
 20
-150.0952310822678
 10
106.3242594135231
 20
-150.1059108782721
 10
106.3242594135231
 20
-150.1059108782721
 10
106.3242594135231
 20
-149.8964490727689
 10
106.3242594135231
 20
-149.8964490727689
 10
106.4661973475154
 20
-149.9091959260644
 10
106.7431830245295
 20
-149.9133300406467
 10
106.8596272519309
 20
-149.9133300406467
 10
106.8596272519309
 20
-149.9133300406467
 10
107.2148165964602
 20
-149.9133300406467
 10
107.2148165964602
 20
-149.9133300406467
 10
107.2423773603422
 20
-149.9133300406467
 10
107.4032633195033
 20
-149.9112629833555
 10
107.5131618654828
 20
-149.8964490727689
 10
107.5703504505379
 20
-149.8902479008955
 10
107.5872314184157
 20
-149.8709553661781
 10
107.6106580677154
 20
-149.8478732264269
 10
107.6106580677154
 20
-149.8478732264269
 10
107.79876028121
 20
-149.9980793895838
 10
107.79876028121
 20
-149.9980793895838
 10
107.7839463706234
 20
-150.027707210757
 10
107.7736110841677
 20
-150.0466552359258
 10
107.7374375815726
 20
-150.1165906742764
 97
        0
 97
        1
330
F5
 75
     2
 76
     1
 98
        1
 10
0.0
 20
0.0
450
        0
451
        0
460
0.0
461
0.0
452
        0
462
0.0
453
        0
470

  0
SPLINE
  5
F7
330
E3
100
AcDbEntity
  8
レイヤー 1
100
AcDbSpline
210
0.0
220
0.0
230
1.0
 70
    11
 71
     3
 72
    17
 73
    13
 74
     0
 42
0.0000000001
 43
0.0000000001
 40
0.0
 40
0.0
 40
0.0
 40
0.0
 40
1.0
 40
1.0
 40
1.0
 40
2.0
 40
2.0
 40
2.0
 40
3.0
 40
3.0
 40
3.0
 40
4.0
 40
4.0
 40
4.0
 40
4.0
 10
108.1277669000514
 20
-149.8985161300601
 30
0.0
 10
108.1277669000514
 20
-149.9577717724064
 30
0.0
 10
108.1742756891022
 20
-150.0042805614573
 30
0.0
 10
108.2335313314485
 20
-150.0042805614573
 30
0.0
 10
108.2927869737948
 20
-150.0042805614573
 30
0.0
 10
108.3413628201369
 20
-149.9577717724064
 30
0.0
 10
108.3413628201369
 20
-149.8985161300601
 30
0.0
 10
108.3413628201369
 20
-149.8392604877138
 30
0.0
 10
108.2927869737948
 20
-149.7906846413718
 30
0.0
 10
108.2335313314485
 20
-149.7906846413718
 30
0.0
 10
108.1742756891022
 20
-149.7906846413718
 30
0.0
 10
108.1277669000514
 20
-149.8392604877138
 30
0.0
 10
108.1277669000514
 20
-149.8985161300601
 30
0.0
  0
SPLINE
  5
F8
330
E3
100
AcDbEntity
  8
レイヤー 1
100
AcDbSpline
210
0.0
220
0.0
230
1.0
 70
     9
 71
     3
 72
    17
 73
    13
 74
     0
 42
0.0000000001
 43
0.0000000001
 40
0.0
 40
0.0
 40
0.0
 40
0.0
 40
1.0
 40
1.0
 40
1.0
 40
2.0
 40
2.0
 40
2.0
 40
3.0
 40
3.0
 40
3.0
 40
4.0
 40
4.0
 40
4.0
 40
4.0
 10
108.4429931369517
 20
-149.8985161300601
 30
0.0
 10
108.4429931369517
 20
-150.0128933001704
 30
0.0
 10
108.34997555885
 20
-150.1079779355633
 30
0.0
 10
108.2335313314485
 20
-150.1079779355633
 30
0.0
 10
108.1191541613383
 20
-150.1079779355633
 30
0.0
 10
108.0240695259454
 20
-150.0128933001704
 30
0.0
 10
108.0240695259454
 20
-149.8985161300601
 30
0.0
 10
108.0240695259454
 20
-149.7820719026586
 30
0.0
 10
108.1191541613383
 20
-149.6890543245569
 30
0.0
 10
108.2335313314485
 20
-149.6890543245569
 30
0.0
 10
108.3479085015588
 20
-149.6890543245569
 30
0.0
 10
108.4429931369517
 20
-149.7820719026586
 30
0.0
 10
108.4429931369517
 20
-149.8985161300601
 30
0.0
  0
HATCH
  5
F9
330
E3
100
AcDbEntity
  8
レイヤー 1
 62
    18
420
        0
440
 33554687
100
AcDbHatch
 10
0.0
 20
0.0
 30
0.0
210
0.0
220
0.0
230
1.0
  2
SOLID
 70
     1
 71
     1
 91
        2
 92
        1
 93
        1
 72
     4
 94
        3
 73
     0
 74
     0
 95
       17
 96
       13
 40
0.0
 40
0.0
 40
0.0
 40
0.0
 40
1.0
 40
1.0
 40
1.0
 40
2.0
 40
2.0
 40
2.0
 40
3.0
 40
3.0
 40
3.0
 40
4.0
 40
4.0
 40
4.0
 40
4.0
 10
108.1277669000514
 20
-149.8985161300601
 10
108.1277669000514
 20
-149.9577717724064
 10
108.1742756891022
 20
-150.0042805614573
 10
108.2335313314485
 20
-150.0042805614573
 10
108.2927869737948
 20
-150.0042805614573
 10
108.3413628201369
 20
-149.9577717724064
 10
108.3413628201369
 20
-149.8985161300601
 10
108.3413628201369
 20
-149.8392604877138
 10
108.2927869737948
 20
-149.7906846413718
 10
108.2335313314485
 20
-149.7906846413718
 10
108.1742756891022
 20
-149.7906846413718
 10
108.1277669000514
 20
-149.8392604877138
 10
108.1277669000514
 20
-149.8985161300601
 97
        0
 97
        1
330
F7
 92
        1
 93
        1
 72
     4
 94
        3
 73
     0
 74
     0
 95
       17
 96
       13
 40
0.0
 40
0.0
 40
0.0
 40
0.0
 40
1.0
 40
1.0
 40
1.0
 40
2.0
 40
2.0
 40
2.0
 40
3.0
 40
3.0
 40
3.0
 40
4.0
 40
4.0
 40
4.0
 40
4.0
 10
108.4429931369517
 20
-149.8985161300601
 10
108.4429931369517
 20
-150.0128933001704
 10
108.34997555885
 20
-150.1079779355633
 10
108.2335313314485
 20
-150.1079779355633
 10
108.1191541613383
 20
-150.1079779355633
 10
108.0240695259454
 20
-150.0128933001704
 10
108.0240695259454
 20
-149.8985161300601
 10
108.0240695259454
 20
-149.7820719026586
 10
108.1191541613383
 20
-149.6890543245569
 10
108.2335313314485
 20
-149.6890543245569
 10
108.3479085015588
 20
-149.6890543245569
 10
108.4429931369517
 20
-149.7820719026586
 10
108.4429931369517
 20
-149.8985161300601
 97
        0
 97
        1
330
F8
 75
     2
 76
     1
 98
        1
 10
0.0
 20
0.0
450
        0
451
        0
460
0.0
461
0.0
452
        0
462
0.0
453
        0
470

  0
ENDBLK
  5
E6
330
E3
100
AcDbEntity
  8
0
100
AcDbBlockEnd
  0
BLOCK
  5
FC
330
FA
100
AcDbEntity
  8
0
100
AcDbBlockBegin
  2
Block_13
 70
     0
 10
0.0
 20
0.0
 30
0.0
  3
Block_13
  1

  0
INSERT
  5
FF
330
FA
100
AcDbEntity
  8
レイヤー 1
100
AcDbBlockReference
  2
Block_14
 10
0.0
 20
0.0
 30
0.0
  0
INSERT
  5
106
330
FA
100
AcDbEntity
  8
レイヤー 1
100
AcDbBlockReference
  2
Block_15
 10
0.0
 20
0.0
 30
0.0
  0
ENDBLK
  5
FD
330
FA
100
AcDbEntity
  8
0
100
AcDbBlockEnd
  0
BLOCK
  5
100
330
FE
100
AcDbEntity
  8
0
100
AcDbBlockBegin
  2
Block_14
 70
     0
 10
0.0
 20
0.0
 30
0.0
  3
Block_14
  1

  0
LWPOLYLINE
  5
102
330
FE
100
AcDbEntity
  8
レイヤー 1
 62
   250
420
  2299925
370
     9
100
AcDbPolyline
 90
        4
 70
     1
 43
0.0
 10
116.339519705677
 20
-153.6422285627361
 10
116.3888027612202
 20
-154.2013813403738
 10
116.6228708167168
 20
-153.2970355072665
 10
115.7467824836028
 20
-153.662548562731
  0
HATCH
  5
103
330
FE
100
AcDbEntity
  8
レイヤー 1
 62
   250
420
  2299925
440
 33554687
100
AcDbHatch
 10
0.0
 20
0.0
 30
0.0
210
0.0
220
0.0
230
1.0
  2
SOLID
 70
     1
 71
     1
 91
        1
 92
        1
 93
        4
 72
     1
 10
116.339519705677
 20
-153.6422285627361
 11
116.3888027612202
 21
-154.2013813403738
 72
     1
 10
116.3888027612202
 20
-154.2013813403738
 11
116.6228708167168
 21
-153.2970355072665
 72
     1
 10
116.6228708167168
 20
-153.2970355072665
 11
115.7467824836028
 21
-153.662548562731
 72
     1
 10
115.7467824836028
 20
-153.662548562731
 11
116.339519705677
 21
-153.6422285627361
 97
        1
330
102
 75
     2
 76
     1
 98
        1
 10
0.0
 20
0.0
450
        0
451
        0
460
0.0
461
0.0
452
        0
462
0.0
453
        0
470

  0
LINE
  5
104
330
FE
100
AcDbEntity
  8
レイヤー 1
 62
   250
420
  2299925
370
     9
100
AcDbLine
 10
116.339519705677
 20
-153.6422285627361
 30
0.0
 11
115.4103735947984
 21
-154.7498096735705
 31
0.0
  0
ENDBLK
  5
101
330
FE
100
AcDbEntity
  8
0
100
AcDbBlockEnd
  0
BLOCK
  5
107
330
105
100
AcDbEntity
  8
0
100
AcDbBlockBegin
  2
Block_15
 70
     0
 10
0.0
 20
0.0
 30
0.0
  3
Block_15
  1

  0
INSERT
  5
10A
330
105
100
AcDbEntity
  8
レイヤー 1
100
AcDbBlockReference
  2
Block_16
 10
0.0
 20
0.0
 30
0.0
  0
ENDBLK
  5
108
330
105
100
AcDbEntity
  8
0
100
AcDbBlockEnd
  0
BLOCK
  5
10B
330
109
100
AcDbEntity
  8
0
100
AcDbBlockBegin
  2
Block_16
 70
     0
 10
0.0
 20
0.0
 30
0.0
  3
Block_16
  1

  0
SPLINE
  5
10D
330
109
100
AcDbEntity
  8
レイヤー 1
100
AcDbSpline
210
0.0
220
0.0
230
1.0
 70
     9
 71
     3
 72
    38
 73
    34
 74
     0
 42
0.0000000001
 43
0.0000000001
 40
0.0
 40
0.0
 40
0.0
 40
0.0
 40
1.0
 40
1.0
 40
1.0
 40
2.0
 40
2.0
 40
2.0
 40
3.0
 40
3.0
 40
3.0
 40
4.0
 40
4.0
 40
4.0
 40
5.0
 40
5.0
 40
5.0
 40
6.0
 40
6.0
 40
6.0
 40
7.0
 40
7.0
 40
7.0
 40
8.0
 40
8.0
 40
8.0
 40
9.0
 40
9.0
 40
9.0
 40
10.0
 40
10.0
 40
10.0
 40
11.0
 40
11.0
 40
11.0
 40
11.0
 10
112.1344129493969
 20
-155.2973252649951
 30
0.0
 10
112.2274305274987
 20
-155.1746798657202
 30
0.0
 10
112.3524874936132
 20
-154.9948458813902
 30
0.0
 10
112.4475721290061
 20
-154.5462944492106
 30
0.0
 10
112.4475721290061
 20
-154.5462944492106
 30
0.0
 10
112.6146592600408
 20
-154.565586983928
 30
0.0
 10
112.6146592600408
 20
-154.565586983928
 30
0.0
 10
112.5891655534499
 20
-154.6861653259118
 30
0.0
 10
112.5660834136987
 20
-154.7771158467224
 30
0.0
 10
112.5278428538125
 20
-154.8849473354107
 30
0.0
 10
112.5278428538125
 20
-154.8849473354107
 30
0.0
 10
113.156228270322
 20
-154.8849473354107
 30
0.0
 10
113.156228270322
 20
-154.8849473354107
 30
0.0
 10
113.156228270322
 20
-154.8849473354107
 30
0.0
 10
113.156228270322
 20
-155.0372205558588
 30
0.0
 10
113.156228270322
 20
-155.0372205558588
 30
0.0
 10
113.1224663345666
 20
-155.1788139803025
 30
0.0
 10
113.0270371896252
 20
-155.4371961416962
 30
0.0
 10
112.9529676366923
 20
-155.5557074263888
 30
0.0
 10
112.9529676366923
 20
-155.5557074263888
 30
0.0
 10
112.8006944162442
 20
-155.4771592493251
 30
0.0
 10
112.8006944162442
 20
-155.4771592493251
 30
0.0
 10
112.8961235611857
 20
-155.3417669967548
 30
0.0
 10
112.9615803754054
 20
-155.1536647832602
 30
0.0
 10
112.9891411392874
 20
-155.0437662372807
 30
0.0
 10
112.9891411392874
 20
-155.0437662372807
 30
0.0
 10
112.4706542687573
 20
-155.0437662372807
 30
0.0
 10
112.4706542687573
 20
-155.0437662372807
 30
0.0
 10
112.3714355187821
 20
-155.2849229212482
 30
0.0
 10
112.2973659658493
 20
-155.3734618752191
 30
0.0
 10
112.259125405963
 20
-155.4179036069788
 30
0.0
 10
112.259125405963
 20
-155.4179036069788
 30
0.0
 10
112.1344129493969
 20
-155.2973252649951
 30
0.0
 10
112.1344129493969
 20
-155.2973252649951
 30
0.0
  0
SPLINE
  5
10E
330
109
100
AcDbEntity
  8
レイヤー 1
100
AcDbSpline
210
0.0
220
0.0
230
1.0
 70
     9
 71
     3
 72
    38
 73
    34
 74
     0
 42
0.0000000001
 43
0.0000000001
 40
0.0
 40
0.0
 40
0.0
 40
0.0
 40
1.0
 40
1.0
 40
1.0
 40
2.0
 40
2.0
 40
2.0
 40
3.0
 40
3.0
 40
3.0
 40
4.0
 40
4.0
 40
4.0
 40
5.0
 40
5.0
 40
5.0
 40
6.0
 40
6.0
 40
6.0
 40
7.0
 40
7.0
 40
7.0
 40
8.0
 40
8.0
 40
8.0
 40
9.0
 40
9.0
 40
9.0
 40
10.0
 40
10.0
 40
10.0
 40
11.0
 40
11.0
 40
11.0
 40
11.0
 10
112.0200357792866
 20
-156.3701279991019
 30
0.0
 10
112.1027180709326
 20
-156.317073528629
 30
0.0
 10
112.2677381446761
 20
-156.2092420399407
 30
0.0
 10
112.3735025760733
 20
-156.0018472917287
 30
0.0
 10
112.521641681939
 20
-155.710047704128
 30
0.0
 10
112.521641681939
 20
-155.4837049307471
 30
0.0
 10
112.521641681939
 20
-155.39895558181
 30
0.0
 10
112.521641681939
 20
-155.39895558181
 30
0.0
 10
112.521641681939
 20
-155.1643445792645
 30
0.0
 10
112.521641681939
 20
-155.1643445792645
 30
0.0
 10
112.521641681939
 20
-155.1643445792645
 30
0.0
 10
112.6866617556825
 20
-155.1643445792645
 30
0.0
 10
112.6866617556825
 20
-155.1643445792645
 30
0.0
 10
112.6866617556825
 20
-155.1643445792645
 30
0.0
 10
112.6866617556825
 20
-155.3906873526454
 30
0.0
 10
112.6866617556825
 20
-155.3906873526454
 30
0.0
 10
112.6866617556825
 20
-155.5894693621443
 30
0.0
 10
112.7521185699022
 20
-155.8264919315295
 30
0.0
 10
112.8537488867171
 20
-155.9997802344375
 30
0.0
 10
112.9701931141185
 20
-156.1985622439364
 30
0.0
 10
113.0990396852669
 20
-156.2981255034602
 30
0.0
 10
113.183789034204
 20
-156.3594482030976
 30
0.0
 10
113.183789034204
 20
-156.3594482030976
 30
0.0
 10
113.0759575455157
 20
-156.5096543662545
 30
0.0
 10
113.0759575455157
 20
-156.5096543662545
 30
0.0
 10
112.8981906184768
 20
-156.3804632855577
 30
0.0
 10
112.6994086089779
 20
-156.1413736588813
 30
0.0
 10
112.6208604319142
 20
-155.7882513716432
 30
0.0
 10
112.5554036176945
 20
-156.0273409983196
 30
0.0
 10
112.4537733008796
 20
-156.296058446169
 30
0.0
 10
112.1450927454012
 20
-156.5055202516722
 30
0.0
 10
112.1450927454012
 20
-156.5055202516722
 30
0.0
 10
112.0200357792866
 20
-156.3701279991019
 30
0.0
 10
112.0200357792866
 20
-156.3701279991019
 30
0.0
  0
SPLINE
  5
10F
330
109
100
AcDbEntity
  8
レイヤー 1
100
AcDbSpline
210
0.0
220
0.0
230
1.0
 70
    11
 71
     3
 72
    17
 73
    13
 74
     0
 42
0.0000000001
 43
0.0000000001
 40
0.0
 40
0.0
 40
0.0
 40
0.0
 40
1.0
 40
1.0
 40
1.0
 40
2.0
 40
2.0
 40
2.0
 40
3.0
 40
3.0
 40
3.0
 40
4.0
 40
4.0
 40
4.0
 40
4.0
 10
111.9780056143666
 20
-155.481637873456
 30
0.0
 10
111.9780056143666
 20
-155.481637873456
 30
0.0
 10
111.7664767515722
 20
-155.481637873456
 30
0.0
 10
111.7664767515722
 20
-155.481637873456
 30
0.0
 10
111.7664767515722
 20
-155.481637873456
 30
0.0
 10
111.7664767515722
 20
-155.6886881121195
 30
0.0
 10
111.7664767515722
 20
-155.6886881121195
 30
0.0
 10
111.7664767515722
 20
-155.6886881121195
 30
0.0
 10
111.9780056143666
 20
-155.6886881121195
 30
0.0
 10
111.9780056143666
 20
-155.6886881121195
 30
0.0
 10
111.9780056143666
 20
-155.6886881121195
 30
0.0
 10
111.9780056143666
 20
-155.481637873456
 30
0.0
 10
111.9780056143666
 20
-155.481637873456
 30
0.0
  0
SPLINE
  5
110
330
109
100
AcDbEntity
  8
レイヤー 1
100
AcDbSpline
210
0.0
220
0.0
230
1.0
 70
    11
 71
     3
 72
    17
 73
    13
 74
     0
 42
0.0000000001
 43
0.0000000001
 40
0.0
 40
0.0
 40
0.0
 40
0.0
 40
1.0
 40
1.0
 40
1.0
 40
2.0
 40
2.0
 40
2.0
 40
3.0
 40
3.0
 40
3.0
 40
4.0
 40
4.0
 40
4.0
 40
4.0
 10
111.9780056143666
 20
-155.1557318405513
 30
0.0
 10
111.9780056143666
 20
-155.1557318405513
 30
0.0
 10
111.7664767515722
 20
-155.1557318405513
 30
0.0
 10
111.7664767515722
 20
-155.1557318405513
 30
0.0
 10
111.7664767515722
 20
-155.1557318405513
 30
0.0
 10
111.7664767515722
 20
-155.3586479646326
 30
0.0
 10
111.7664767515722
 20
-155.3586479646326
 30
0.0
 10
111.7664767515722
 20
-155.3586479646326
 30
0.0
 10
111.9780056143666
 20
-155.3586479646326
 30
0.0
 10
111.9780056143666
 20
-155.3586479646326
 30
0.0
 10
111.9780056143666
 20
-155.3586479646326
 30
0.0
 10
111.9780056143666
 20
-155.1557318405513
 30
0.0
 10
111.9780056143666
 20
-155.1557318405513
 30
0.0
  0
SPLINE
  5
111
330
109
100
AcDbEntity
  8
レイヤー 1
100
AcDbSpline
210
0.0
220
0.0
230
1.0
 70
    11
 71
     3
 72
    17
 73
    13
 74
     0
 42
0.0000000001
 43
0.0000000001
 40
0.0
 40
0.0
 40
0.0
 40
0.0
 40
1.0
 40
1.0
 40
1.0
 40
2.0
 40
2.0
 40
2.0
 40
3.0
 40
3.0
 40
3.0
 40
4.0
 40
4.0
 40
4.0
 40
4.0
 10
111.6117919642845
 20
-155.481637873456
 30
0.0
 10
111.6117919642845
 20
-155.481637873456
 30
0.0
 10
111.404741725621
 20
-155.481637873456
 30
0.0
 10
111.404741725621
 20
-155.481637873456
 30
0.0
 10
111.404741725621
 20
-155.481637873456
 30
0.0
 10
111.404741725621
 20
-155.6886881121195
 30
0.0
 10
111.404741725621
 20
-155.6886881121195
 30
0.0
 10
111.404741725621
 20
-155.6886881121195
 30
0.0
 10
111.6117919642845
 20
-155.6886881121195
 30
0.0
 10
111.6117919642845
 20
-155.6886881121195
 30
0.0
 10
111.6117919642845
 20
-155.6886881121195
 30
0.0
 10
111.6117919642845
 20
-155.481637873456
 30
0.0
 10
111.6117919642845
 20
-155.481637873456
 30
0.0
  0
SPLINE
  5
112
330
109
100
AcDbEntity
  8
レイヤー 1
100
AcDbSpline
210
0.0
220
0.0
230
1.0
 70
    11
 71
     3
 72
    17
 73
    13
 74
     0
 42
0.0000000001
 43
0.0000000001
 40
0.0
 40
0.0
 40
0.0
 40
0.0
 40
1.0
 40
1.0
 40
1.0
 40
2.0
 40
2.0
 40
2.0
 40
3.0
 40
3.0
 40
3.0
 40
4.0
 40
4.0
 40
4.0
 40
4.0
 10
111.6117919642845
 20
-155.1557318405513
 30
0.0
 10
111.6117919642845
 20
-155.1557318405513
 30
0.0
 10
111.404741725621
 20
-155.1557318405513
 30
0.0
 10
111.404741725621
 20
-155.1557318405513
 30
0.0
 10
111.404741725621
 20
-155.1557318405513
 30
0.0
 10
111.404741725621
 20
-155.3586479646326
 30
0.0
 10
111.404741725621
 20
-155.3586479646326
 30
0.0
 10
111.404741725621
 20
-155.3586479646326
 30
0.0
 10
111.6117919642845
 20
-155.3586479646326
 30
0.0
 10
111.6117919642845
 20
-155.3586479646326
 30
0.0
 10
111.6117919642845
 20
-155.3586479646326
 30
0.0
 10
111.6117919642845
 20
-155.1557318405513
 30
0.0
 10
111.6117919642845
 20
-155.1557318405513
 30
0.0
  0
SPLINE
  5
113
330
109
100
AcDbEntity
  8
レイヤー 1
100
AcDbSpline
210
0.0
220
0.0
230
1.0
 70
    11
 71
     3
 72
    89
 73
    85
 74
     0
 42
0.0000000001
 43
0.0000000001
 40
0.0
 40
0.0
 40
0.0
 40
0.0
 40
1.0
 40
1.0
 40
1.0
 40
2.0
 40
2.0
 40
2.0
 40
3.0
 40
3.0
 40
3.0
 40
4.0
 40
4.0
 40
4.0
 40
5.0
 40
5.0
 40
5.0
 40
6.0
 40
6.0
 40
6.0
 40
7.0
 40
7.0
 40
7.0
 40
8.0
 40
8.0
 40
8.0
 40
9.0
 40
9.0
 40
9.0
 40
10.0
 40
10.0
 40
10.0
 40
11.0
 40
11.0
 40
11.0
 40
12.0
 40
12.0
 40
12.0
 40
13.0
 40
13.0
 40
13.0
 40
14.0
 40
14.0
 40
14.0
 40
15.0
 40
15.0
 40
15.0
 40
16.0
 40
16.0
 40
16.0
 40
17.0
 40
17.0
 40
17.0
 40
18.0
 40
18.0
 40
18.0
 40
19.0
 40
19.0
 40
19.0
 40
20.0
 40
20.0
 40
20.0
 40
21.0
 40
21.0
 40
21.0
 40
22.0
 40
22.0
 40
22.0
 40
23.0
 40
23.0
 40
23.0
 40
24.0
 40
24.0
 40
24.0
 40
25.0
 40
25.0
 40
25.0
 40
26.0
 40
26.0
 40
26.0
 40
27.0
 40
27.0
 40
27.0
 40
28.0
 40
28.0
 40
28.0
 40
28.0
 10
111.6117919642845
 20
-154.7071804083718
 30
0.0
 10
111.6117919642845
 20
-154.7071804083718
 30
0.0
 10
111.6117919642845
 20
-154.5462944492106
 30
0.0
 10
111.6117919642845
 20
-154.5462944492106
 30
0.0
 10
111.6117919642845
 20
-154.5462944492106
 30
0.0
 10
111.7664767515722
 20
-154.5462944492106
 30
0.0
 10
111.7664767515722
 20
-154.5462944492106
 30
0.0
 10
111.7664767515722
 20
-154.5462944492106
 30
0.0
 10
111.7664767515722
 20
-154.7071804083718
 30
0.0
 10
111.7664767515722
 20
-154.7071804083718
 30
0.0
 10
111.7664767515722
 20
-154.7071804083718
 30
0.0
 10
112.1599066559878
 20
-154.7071804083718
 30
0.0
 10
112.1599066559878
 20
-154.7071804083718
 30
0.0
 10
112.1599066559878
 20
-154.7071804083718
 30
0.0
 10
112.1599066559878
 20
-154.861520686111
 30
0.0
 10
112.1599066559878
 20
-154.861520686111
 30
0.0
 10
112.1599066559878
 20
-154.861520686111
 30
0.0
 10
111.7664767515722
 20
-154.861520686111
 30
0.0
 10
111.7664767515722
 20
-154.861520686111
 30
0.0
 10
111.7664767515722
 20
-154.861520686111
 30
0.0
 10
111.7664767515722
 20
-155.0162054733987
 30
0.0
 10
111.7664767515722
 20
-155.0162054733987
 30
0.0
 10
111.7664767515722
 20
-155.0162054733987
 30
0.0
 10
112.1216660961015
 20
-155.0162054733987
 30
0.0
 10
112.1216660961015
 20
-155.0162054733987
 30
0.0
 10
112.1216660961015
 20
-155.0162054733987
 30
0.0
 10
112.1216660961015
 20
-155.8285589888206
 30
0.0
 10
112.1216660961015
 20
-155.8285589888206
 30
0.0
 10
112.1216660961015
 20
-155.8285589888206
 30
0.0
 10
111.7664767515722
 20
-155.8285589888206
 30
0.0
 10
111.7664767515722
 20
-155.8285589888206
 30
0.0
 10
111.7664767515722
 20
-155.8285589888206
 30
0.0
 10
111.7664767515722
 20
-155.9977131771464
 30
0.0
 10
111.7664767515722
 20
-155.9977131771464
 30
0.0
 10
111.7664767515722
 20
-155.9977131771464
 30
0.0
 10
112.1747205665744
 20
-155.9977131771464
 30
0.0
 10
112.1747205665744
 20
-155.9977131771464
 30
0.0
 10
112.1747205665744
 20
-155.9977131771464
 30
0.0
 10
112.1747205665744
 20
-156.1520534548856
 30
0.0
 10
112.1747205665744
 20
-156.1520534548856
 30
0.0
 10
112.1747205665744
 20
-156.1520534548856
 30
0.0
 10
111.7664767515722
 20
-156.1520534548856
 30
0.0
 10
111.7664767515722
 20
-156.1520534548856
 30
0.0
 10
111.7664767515722
 20
-156.1520534548856
 30
0.0
 10
111.7664767515722
 20
-156.5055202516722
 30
0.0
 10
111.7664767515722
 20
-156.5055202516722
 30
0.0
 10
111.7664767515722
 20
-156.5055202516722
 30
0.0
 10
111.6117919642845
 20
-156.5055202516722
 30
0.0
 10
111.6117919642845
 20
-156.5055202516722
 30
0.0
 10
111.6117919642845
 20
-156.5055202516722
 30
0.0
 10
111.6117919642845
 20
-156.1520534548856
 30
0.0
 10
111.6117919642845
 20
-156.1520534548856
 30
0.0
 10
111.6117919642845
 20
-156.1520534548856
 30
0.0
 10
111.2014810919913
 20
-156.1520534548856
 30
0.0
 10
111.2014810919913
 20
-156.1520534548856
 30
0.0
 10
111.2014810919913
 20
-156.1520534548856
 30
0.0
 10
111.2014810919913
 20
-155.9977131771464
 30
0.0
 10
111.2014810919913
 20
-155.9977131771464
 30
0.0
 10
111.2014810919913
 20
-155.9977131771464
 30
0.0
 10
111.6117919642845
 20
-155.9977131771464
 30
0.0
 10
111.6117919642845
 20
-155.9977131771464
 30
0.0
 10
111.6117919642845
 20
-155.9977131771464
 30
0.0
 10
111.6117919642845
 20
-155.8285589888206
 30
0.0
 10
111.6117919642845
 20
-155.8285589888206
 30
0.0
 10
111.6117919642845
 20
-155.8285589888206
 30
0.0
 10
111.2628037916287
 20
-155.8285589888206
 30
0.0
 10
111.2628037916287
 20
-155.8285589888206
 30
0.0
 10
111.2628037916287
 20
-155.8285589888206
 30
0.0
 10
111.2628037916287
 20
-155.0162054733987
 30
0.0
 10
111.2628037916287
 20
-155.0162054733987
 30
0.0
 10
111.2628037916287
 20
-155.0162054733987
 30
0.0
 10
111.6117919642845
 20
-155.0162054733987
 30
0.0
 10
111.6117919642845
 20
-155.0162054733987
 30
0.0
 10
111.6117919642845
 20
-155.0162054733987
 30
0.0
 10
111.6117919642845
 20
-154.861520686111
 30
0.0
 10
111.6117919642845
 20
-154.861520686111
 30
0.0
 10
111.6117919642845
 20
-154.861520686111
 30
0.0
 10
111.2224961744513
 20
-154.861520686111
 30
0.0
 10
111.2224961744513
 20
-154.861520686111
 30
0.0
 10
111.2224961744513
 20
-154.861520686111
 30
0.0
 10
111.2224961744513
 20
-154.7071804083718
 30
0.0
 10
111.2224961744513
 20
-154.7071804083718
 30
0.0
 10
111.2224961744513
 20
-154.7071804083718
 30
0.0
 10
111.6117919642845
 20
-154.7071804083718
 30
0.0
 10
111.6117919642845
 20
-154.7071804083718
 30
0.0
  0
HATCH
  5
114
330
109
100
AcDbEntity
  8
レイヤー 1
 62
    12
420
 15007762
440
 33554687
100
AcDbHatch
 10
0.0
 20
0.0
 30
0.0
210
0.0
220
0.0
230
1.0
  2
SOLID
 70
     1
 71
     1
 91
        7
 92
        1
 93
        1
 72
     4
 94
        3
 73
     0
 74
     0
 95
       38
 96
       34
 40
0.0
 40
0.0
 40
0.0
 40
0.0
 40
1.0
 40
1.0
 40
1.0
 40
2.0
 40
2.0
 40
2.0
 40
3.0
 40
3.0
 40
3.0
 40
4.0
 40
4.0
 40
4.0
 40
5.0
 40
5.0
 40
5.0
 40
6.0
 40
6.0
 40
6.0
 40
7.0
 40
7.0
 40
7.0
 40
8.0
 40
8.0
 40
8.0
 40
9.0
 40
9.0
 40
9.0
 40
10.0
 40
10.0
 40
10.0
 40
11.0
 40
11.0
 40
11.0
 40
11.0
 10
112.1344129493969
 20
-155.2973252649951
 10
112.2274305274987
 20
-155.1746798657202
 10
112.3524874936132
 20
-154.9948458813902
 10
112.4475721290061
 20
-154.5462944492106
 10
112.4475721290061
 20
-154.5462944492106
 10
112.6146592600408
 20
-154.565586983928
 10
112.6146592600408
 20
-154.565586983928
 10
112.5891655534499
 20
-154.6861653259118
 10
112.5660834136987
 20
-154.7771158467224
 10
112.5278428538125
 20
-154.8849473354107
 10
112.5278428538125
 20
-154.8849473354107
 10
113.156228270322
 20
-154.8849473354107
 10
113.156228270322
 20
-154.8849473354107
 10
113.156228270322
 20
-154.8849473354107
 10
113.156228270322
 20
-155.0372205558588
 10
113.156228270322
 20
-155.0372205558588
 10
113.1224663345666
 20
-155.1788139803025
 10
113.0270371896252
 20
-155.4371961416962
 10
112.9529676366923
 20
-155.5557074263888
 10
112.9529676366923
 20
-155.5557074263888
 10
112.8006944162442
 20
-155.4771592493251
 10
112.8006944162442
 20
-155.4771592493251
 10
112.8961235611857
 20
-155.3417669967548
 10
112.9615803754054
 20
-155.1536647832602
 10
112.9891411392874
 20
-155.0437662372807
 10
112.9891411392874
 20
-155.0437662372807
 10
112.4706542687573
 20
-155.0437662372807
 10
112.4706542687573
 20
-155.0437662372807
 10
112.3714355187821
 20
-155.2849229212482
 10
112.2973659658493
 20
-155.3734618752191
 10
112.259125405963
 20
-155.4179036069788
 10
112.259125405963
 20
-155.4179036069788
 10
112.1344129493969
 20
-155.2973252649951
 10
112.1344129493969
 20
-155.2973252649951
 97
        0
 97
        1
330
10D
 92
        1
 93
        1
 72
     4
 94
        3
 73
     0
 74
     0
 95
       38
 96
       34
 40
0.0
 40
0.0
 40
0.0
 40
0.0
 40
1.0
 40
1.0
 40
1.0
 40
2.0
 40
2.0
 40
2.0
 40
3.0
 40
3.0
 40
3.0
 40
4.0
 40
4.0
 40
4.0
 40
5.0
 40
5.0
 40
5.0
 40
6.0
 40
6.0
 40
6.0
 40
7.0
 40
7.0
 40
7.0
 40
8.0
 40
8.0
 40
8.0
 40
9.0
 40
9.0
 40
9.0
 40
10.0
 40
10.0
 40
10.0
 40
11.0
 40
11.0
 40
11.0
 40
11.0
 10
112.0200357792866
 20
-156.3701279991019
 10
112.1027180709326
 20
-156.317073528629
 10
112.2677381446761
 20
-156.2092420399407
 10
112.3735025760733
 20
-156.0018472917287
 10
112.521641681939
 20
-155.710047704128
 10
112.521641681939
 20
-155.4837049307471
 10
112.521641681939
 20
-155.39895558181
 10
112.521641681939
 20
-155.39895558181
 10
112.521641681939
 20
-155.1643445792645
 10
112.521641681939
 20
-155.1643445792645
 10
112.521641681939
 20
-155.1643445792645
 10
112.6866617556825
 20
-155.1643445792645
 10
112.6866617556825
 20
-155.1643445792645
 10
112.6866617556825
 20
-155.1643445792645
 10
112.6866617556825
 20
-155.3906873526454
 10
112.6866617556825
 20
-155.3906873526454
 10
112.6866617556825
 20
-155.5894693621443
 10
112.7521185699022
 20
-155.8264919315295
 10
112.8537488867171
 20
-155.9997802344375
 10
112.9701931141185
 20
-156.1985622439364
 10
113.0990396852669
 20
-156.2981255034602
 10
113.183789034204
 20
-156.3594482030976
 10
113.183789034204
 20
-156.3594482030976
 10
113.0759575455157
 20
-156.5096543662545
 10
113.0759575455157
 20
-156.5096543662545
 10
112.8981906184768
 20
-156.3804632855577
 10
112.6994086089779
 20
-156.1413736588813
 10
112.6208604319142
 20
-155.7882513716432
 10
112.5554036176945
 20
-156.0273409983196
 10
112.4537733008796
 20
-156.296058446169
 10
112.1450927454012
 20
-156.5055202516722
 10
112.1450927454012
 20
-156.5055202516722
 10
112.0200357792866
 20
-156.3701279991019
 10
112.0200357792866
 20
-156.3701279991019
 97
        0
 97
        1
330
10E
 92
        1
 93
        1
 72
     4
 94
        3
 73
     0
 74
     0
 95
       17
 96
       13
 40
0.0
 40
0.0
 40
0.0
 40
0.0
 40
1.0
 40
1.0
 40
1.0
 40
2.0
 40
2.0
 40
2.0
 40
3.0
 40
3.0
 40
3.0
 40
4.0
 40
4.0
 40
4.0
 40
4.0
 10
111.9780056143666
 20
-155.481637873456
 10
111.9780056143666
 20
-155.481637873456
 10
111.7664767515722
 20
-155.481637873456
 10
111.7664767515722
 20
-155.481637873456
 10
111.7664767515722
 20
-155.481637873456
 10
111.7664767515722
 20
-155.6886881121195
 10
111.7664767515722
 20
-155.6886881121195
 10
111.7664767515722
 20
-155.6886881121195
 10
111.9780056143666
 20
-155.6886881121195
 10
111.9780056143666
 20
-155.6886881121195
 10
111.9780056143666
 20
-155.6886881121195
 10
111.9780056143666
 20
-155.481637873456
 10
111.9780056143666
 20
-155.481637873456
 97
        0
 97
        1
330
10F
 92
        1
 93
        1
 72
     4
 94
        3
 73
     0
 74
     0
 95
       17
 96
       13
 40
0.0
 40
0.0
 40
0.0
 40
0.0
 40
1.0
 40
1.0
 40
1.0
 40
2.0
 40
2.0
 40
2.0
 40
3.0
 40
3.0
 40
3.0
 40
4.0
 40
4.0
 40
4.0
 40
4.0
 10
111.9780056143666
 20
-155.1557318405513
 10
111.9780056143666
 20
-155.1557318405513
 10
111.7664767515722
 20
-155.1557318405513
 10
111.7664767515722
 20
-155.1557318405513
 10
111.7664767515722
 20
-155.1557318405513
 10
111.7664767515722
 20
-155.3586479646326
 10
111.7664767515722
 20
-155.3586479646326
 10
111.7664767515722
 20
-155.3586479646326
 10
111.9780056143666
 20
-155.3586479646326
 10
111.9780056143666
 20
-155.3586479646326
 10
111.9780056143666
 20
-155.3586479646326
 10
111.9780056143666
 20
-155.1557318405513
 10
111.9780056143666
 20
-155.1557318405513
 97
        0
 97
        1
330
110
 92
        1
 93
        1
 72
     4
 94
        3
 73
     0
 74
     0
 95
       17
 96
       13
 40
0.0
 40
0.0
 40
0.0
 40
0.0
 40
1.0
 40
1.0
 40
1.0
 40
2.0
 40
2.0
 40
2.0
 40
3.0
 40
3.0
 40
3.0
 40
4.0
 40
4.0
 40
4.0
 40
4.0
 10
111.6117919642845
 20
-155.481637873456
 10
111.6117919642845
 20
-155.481637873456
 10
111.404741725621
 20
-155.481637873456
 10
111.404741725621
 20
-155.481637873456
 10
111.404741725621
 20
-155.481637873456
 10
111.404741725621
 20
-155.6886881121195
 10
111.404741725621
 20
-155.6886881121195
 10
111.404741725621
 20
-155.6886881121195
 10
111.6117919642845
 20
-155.6886881121195
 10
111.6117919642845
 20
-155.6886881121195
 10
111.6117919642845
 20
-155.6886881121195
 10
111.6117919642845
 20
-155.481637873456
 10
111.6117919642845
 20
-155.481637873456
 97
        0
 97
        1
330
111
 92
        1
 93
        1
 72
     4
 94
        3
 73
     0
 74
     0
 95
       17
 96
       13
 40
0.0
 40
0.0
 40
0.0
 40
0.0
 40
1.0
 40
1.0
 40
1.0
 40
2.0
 40
2.0
 40
2.0
 40
3.0
 40
3.0
 40
3.0
 40
4.0
 40
4.0
 40
4.0
 40
4.0
 10
111.6117919642845
 20
-155.1557318405513
 10
111.6117919642845
 20
-155.1557318405513
 10
111.404741725621
 20
-155.1557318405513
 10
111.404741725621
 20
-155.1557318405513
 10
111.404741725621
 20
-155.1557318405513
 10
111.404741725621
 20
-155.3586479646326
 10
111.404741725621
 20
-155.3586479646326
 10
111.404741725621
 20
-155.3586479646326
 10
111.6117919642845
 20
-155.3586479646326
 10
111.6117919642845
 20
-155.3586479646326
 10
111.6117919642845
 20
-155.3586479646326
 10
111.6117919642845
 20
-155.1557318405513
 10
111.6117919642845
 20
-155.1557318405513
 97
        0
 97
        1
330
112
 92
        1
 93
        1
 72
     4
 94
        3
 73
     0
 74
     0
 95
       89
 96
       85
 40
0.0
 40
0.0
 40
0.0
 40
0.0
 40
1.0
 40
1.0
 40
1.0
 40
2.0
 40
2.0
 40
2.0
 40
3.0
 40
3.0
 40
3.0
 40
4.0
 40
4.0
 40
4.0
 40
5.0
 40
5.0
 40
5.0
 40
6.0
 40
6.0
 40
6.0
 40
7.0
 40
7.0
 40
7.0
 40
8.0
 40
8.0
 40
8.0
 40
9.0
 40
9.0
 40
9.0
 40
10.0
 40
10.0
 40
10.0
 40
11.0
 40
11.0
 40
11.0
 40
12.0
 40
12.0
 40
12.0
 40
13.0
 40
13.0
 40
13.0
 40
14.0
 40
14.0
 40
14.0
 40
15.0
 40
15.0
 40
15.0
 40
16.0
 40
16.0
 40
16.0
 40
17.0
 40
17.0
 40
17.0
 40
18.0
 40
18.0
 40
18.0
 40
19.0
 40
19.0
 40
19.0
 40
20.0
 40
20.0
 40
20.0
 40
21.0
 40
21.0
 40
21.0
 40
22.0
 40
22.0
 40
22.0
 40
23.0
 40
23.0
 40
23.0
 40
24.0
 40
24.0
 40
24.0
 40
25.0
 40
25.0
 40
25.0
 40
26.0
 40
26.0
 40
26.0
 40
27.0
 40
27.0
 40
27.0
 40
28.0
 40
28.0
 40
28.0
 40
28.0
 10
111.6117919642845
 20
-154.7071804083718
 10
111.6117919642845
 20
-154.7071804083718
 10
111.6117919642845
 20
-154.5462944492106
 10
111.6117919642845
 20
-154.5462944492106
 10
111.6117919642845
 20
-154.5462944492106
 10
111.7664767515722
 20
-154.5462944492106
 10
111.7664767515722
 20
-154.5462944492106
 10
111.7664767515722
 20
-154.5462944492106
 10
111.7664767515722
 20
-154.7071804083718
 10
111.7664767515722
 20
-154.7071804083718
 10
111.7664767515722
 20
-154.7071804083718
 10
112.1599066559878
 20
-154.7071804083718
 10
112.1599066559878
 20
-154.7071804083718
 10
112.1599066559878
 20
-154.7071804083718
 10
112.1599066559878
 20
-154.861520686111
 10
112.1599066559878
 20
-154.861520686111
 10
112.1599066559878
 20
-154.861520686111
 10
111.7664767515722
 20
-154.861520686111
 10
111.7664767515722
 20
-154.861520686111
 10
111.7664767515722
 20
-154.861520686111
 10
111.7664767515722
 20
-155.0162054733987
 10
111.7664767515722
 20
-155.0162054733987
 10
111.7664767515722
 20
-155.0162054733987
 10
112.1216660961015
 20
-155.0162054733987
 10
112.1216660961015
 20
-155.0162054733987
 10
112.1216660961015
 20
-155.0162054733987
 10
112.1216660961015
 20
-155.8285589888206
 10
112.1216660961015
 20
-155.8285589888206
 10
112.1216660961015
 20
-155.8285589888206
 10
111.7664767515722
 20
-155.8285589888206
 10
111.7664767515722
 20
-155.8285589888206
 10
111.7664767515722
 20
-155.8285589888206
 10
111.7664767515722
 20
-155.9977131771464
 10
111.7664767515722
 20
-155.9977131771464
 10
111.7664767515722
 20
-155.9977131771464
 10
112.1747205665744
 20
-155.9977131771464
 10
112.1747205665744
 20
-155.9977131771464
 10
112.1747205665744
 20
-155.9977131771464
 10
112.1747205665744
 20
-156.1520534548856
 10
112.1747205665744
 20
-156.1520534548856
 10
112.1747205665744
 20
-156.1520534548856
 10
111.7664767515722
 20
-156.1520534548856
 10
111.7664767515722
 20
-156.1520534548856
 10
111.7664767515722
 20
-156.1520534548856
 10
111.7664767515722
 20
-156.5055202516722
 10
111.7664767515722
 20
-156.5055202516722
 10
111.7664767515722
 20
-156.5055202516722
 10
111.6117919642845
 20
-156.5055202516722
 10
111.6117919642845
 20
-156.5055202516722
 10
111.6117919642845
 20
-156.5055202516722
 10
111.6117919642845
 20
-156.1520534548856
 10
111.6117919642845
 20
-156.1520534548856
 10
111.6117919642845
 20
-156.1520534548856
 10
111.2014810919913
 20
-156.1520534548856
 10
111.2014810919913
 20
-156.1520534548856
 10
111.2014810919913
 20
-156.1520534548856
 10
111.2014810919913
 20
-155.9977131771464
 10
111.2014810919913
 20
-155.9977131771464
 10
111.2014810919913
 20
-155.9977131771464
 10
111.6117919642845
 20
-155.9977131771464
 10
111.6117919642845
 20
-155.9977131771464
 10
111.6117919642845
 20
-155.9977131771464
 10
111.6117919642845
 20
-155.8285589888206
 10
111.6117919642845
 20
-155.8285589888206
 10
111.6117919642845
 20
-155.8285589888206
 10
111.2628037916287
 20
-155.8285589888206
 10
111.2628037916287
 20
-155.8285589888206
 10
111.2628037916287
 20
-155.8285589888206
 10
111.2628037916287
 20
-155.0162054733987
 10
111.2628037916287
 20
-155.0162054733987
 10
111.2628037916287
 20
-155.0162054733987
 10
111.6117919642845
 20
-155.0162054733987
 10
111.6117919642845
 20
-155.0162054733987
 10
111.6117919642845
 20
-155.0162054733987
 10
111.6117919642845
 20
-154.861520686111
 10
111.6117919642845
 20
-154.861520686111
 10
111.6117919642845
 20
-154.861520686111
 10
111.2224961744513
 20
-154.861520686111
 10
111.2224961744513
 20
-154.861520686111
 10
111.2224961744513
 20
-154.861520686111
 10
111.2224961744513
 20
-154.7071804083718
 10
111.2224961744513
 20
-154.7071804083718
 10
111.2224961744513
 20
-154.7071804083718
 10
111.6117919642845
 20
-154.7071804083718
 10
111.6117919642845
 20
-154.7071804083718
 97
        0
 97
        1
330
113
 75
     2
 76
     1
 98
        1
 10
0.0
 20
0.0
450
        0
451
        0
460
0.0
461
0.0
452
        0
462
0.0
453
        0
470

  0
SPLINE
  5
115
330
109
100
AcDbEntity
  8
レイヤー 1
100
AcDbSpline
210
0.0
220
0.0
230
1.0
 70
     9
 71
     3
 72
    17
 73
    13
 74
     0
 42
0.0000000001
 43
0.0000000001
 40
0.0
 40
0.0
 40
0.0
 40
0.0
 40
1.0
 40
1.0
 40
1.0
 40
2.0
 40
2.0
 40
2.0
 40
3.0
 40
3.0
 40
3.0
 40
4.0
 40
4.0
 40
4.0
 40
4.0
 10
114.6489881440808
 20
-156.1964951866453
 30
0.0
 10
114.8687852360397
 20
-156.3088052994644
 30
0.0
 10
115.1354356265981
 20
-156.3467013498022
 30
0.0
 10
115.2642821977464
 20
-156.3573811458065
 30
0.0
 10
115.2642821977464
 20
-156.3573811458065
 30
0.0
 10
115.1946912689444
 20
-156.5117214235456
 30
0.0
 10
115.1946912689444
 20
-156.5117214235456
 30
0.0
 10
115.0741129269606
 20
-156.4969075129591
 30
0.0
 10
114.8115966509846
 20
-156.4565998957817
 30
0.0
 10
114.5473578272659
 20
-156.3108723567556
 30
0.0
 10
114.5473578272659
 20
-156.3108723567556
 30
0.0
 10
114.6489881440808
 20
-156.1964951866453
 30
0.0
 10
114.6489881440808
 20
-156.1964951866453
 30
0.0
  0
SPLINE
  5
116
330
109
100
AcDbEntity
  8
レイヤー 1
100
AcDbSpline
210
0.0
220
0.0
230
1.0
 70
    11
 71
     3
 72
    50
 73
    46
 74
     0
 42
0.0000000001
 43
0.0000000001
 40
0.0
 40
0.0
 40
0.0
 40
0.0
 40
1.0
 40
1.0
 40
1.0
 40
2.0
 40
2.0
 40
2.0
 40
3.0
 40
3.0
 40
3.0
 40
4.0
 40
4.0
 40
4.0
 40
5.0
 40
5.0
 40
5.0
 40
6.0
 40
6.0
 40
6.0
 40
7.0
 40
7.0
 40
7.0
 40
8.0
 40
8.0
 40
8.0
 40
9.0
 40
9.0
 40
9.0
 40
10.0
 40
10.0
 40
10.0
 40
11.0
 40
11.0
 40
11.0
 40
12.0
 40
12.0
 40
12.0
 40
13.0
 40
13.0
 40
13.0
 40
14.0
 40
14.0
 40
14.0
 40
15.0
 40
15.0
 40
15.0
 40
15.0
 10
114.5366780312617
 20
-154.8446397182333
 30
0.0
 10
114.5366780312617
 20
-154.8446397182333
 30
0.0
 10
115.2728949364595
 20
-154.8446397182333
 30
0.0
 10
115.2728949364595
 20
-154.8446397182333
 30
0.0
 10
115.2728949364595
 20
-154.8446397182333
 30
0.0
 10
115.2728949364595
 20
-154.9696966843479
 30
0.0
 10
115.2728949364595
 20
-154.9696966843479
 30
0.0
 10
115.2728949364595
 20
-154.9696966843479
 30
0.0
 10
114.9428547889726
 20
-154.9696966843479
 30
0.0
 10
114.9428547889726
 20
-154.9696966843479
 30
0.0
 10
114.9428547889726
 20
-154.9696966843479
 30
0.0
 10
114.9428547889726
 20
-155.2446153040708
 30
0.0
 10
114.9428547889726
 20
-155.2446153040708
 30
0.0
 10
114.9428547889726
 20
-155.2446153040708
 30
0.0
 10
114.7864474539423
 20
-155.2446153040708
 30
0.0
 10
114.7864474539423
 20
-155.2446153040708
 30
0.0
 10
114.7864474539423
 20
-155.2446153040708
 30
0.0
 10
114.7864474539423
 20
-154.9696966843479
 30
0.0
 10
114.7864474539423
 20
-154.9696966843479
 30
0.0
 10
114.7864474539423
 20
-154.9696966843479
 30
0.0
 10
114.5218641206751
 20
-154.9696966843479
 30
0.0
 10
114.5218641206751
 20
-154.9696966843479
 30
0.0
 10
114.4963704140842
 20
-155.0985432554962
 30
0.0
 10
114.4457275104511
 20
-155.1894937763068
 30
0.0
 10
114.348575817767
 20
-155.2721760679528
 30
0.0
 10
114.348575817767
 20
-155.2721760679528
 30
0.0
 10
114.2255859089436
 20
-155.1643445792645
 30
0.0
 10
114.2255859089436
 20
-155.1643445792645
 30
0.0
 10
114.3609781615139
 20
-155.0541015237365
 30
0.0
 10
114.3844048108136
 20
-154.916642213875
 30
0.0
 10
114.3844048108136
 20
-154.8425726609421
 30
0.0
 10
114.3844048108136
 20
-154.8425726609421
 30
0.0
 10
114.3844048108136
 20
-154.5993489196835
 30
0.0
 10
114.3844048108136
 20
-154.5993489196835
 30
0.0
 10
114.8539713254532
 20
-154.5993489196835
 30
0.0
 10
115.0210584564878
 20
-154.5590413025061
 30
0.0
 10
115.1650634477712
 20
-154.5166666280375
 30
0.0
 10
115.1650634477712
 20
-154.5166666280375
 30
0.0
 10
115.2243190901175
 20
-154.6544704474475
 30
0.0
 10
115.2243190901175
 20
-154.6544704474475
 30
0.0
 10
114.9535345849769
 20
-154.7240613762495
 30
0.0
 10
114.6383083480765
 20
-154.7285400003804
 30
0.0
 10
114.5366780312617
 20
-154.7285400003804
 30
0.0
 10
114.5366780312617
 20
-154.7285400003804
 30
0.0
 10
114.5366780312617
 20
-154.8446397182333
 30
0.0
 10
114.5366780312617
 20
-154.8446397182333
 30
0.0
  0
SPLINE
  5
117
330
109
100
AcDbEntity
  8
レイヤー 1
100
AcDbSpline
210
0.0
220
0.0
230
1.0
 70
    11
 71
     3
 72
    17
 73
    13
 74
     0
 42
0.0000000001
 43
0.0000000001
 40
0.0
 40
0.0
 40
0.0
 40
0.0
 40
1.0
 40
1.0
 40
1.0
 40
2.0
 40
2.0
 40
2.0
 40
3.0
 40
3.0
 40
3.0
 40
4.0
 40
4.0
 40
4.0
 40
4.0
 10
114.872919350622
 20
-155.9150308855004
 30
0.0
 10
114.872919350622
 20
-155.9150308855004
 30
0.0
 10
113.7136447198355
 20
-155.9150308855004
 30
0.0
 10
113.7136447198355
 20
-155.9150308855004
 30
0.0
 10
113.7136447198355
 20
-155.9150308855004
 30
0.0
 10
113.7136447198355
 20
-156.0549017622015
 30
0.0
 10
113.7136447198355
 20
-156.0549017622015
 30
0.0
 10
113.7136447198355
 20
-156.0549017622015
 30
0.0
 10
114.872919350622
 20
-156.0549017622015
 30
0.0
 10
114.872919350622
 20
-156.0549017622015
 30
0.0
 10
114.872919350622
 20
-156.0549017622015
 30
0.0
 10
114.872919350622
 20
-155.9150308855004
 30
0.0
 10
114.872919350622
 20
-155.9150308855004
 30
0.0
  0
SPLINE
  5
118
330
109
100
AcDbEntity
  8
レイヤー 1
100
AcDbSpline
210
0.0
220
0.0
230
1.0
 70
    11
 71
     3
 72
    17
 73
    13
 74
     0
 42
0.0000000001
 43
0.0000000001
 40
0.0
 40
0.0
 40
0.0
 40
0.0
 40
1.0
 40
1.0
 40
1.0
 40
2.0
 40
2.0
 40
2.0
 40
3.0
 40
3.0
 40
3.0
 40
4.0
 40
4.0
 40
4.0
 40
4.0
 10
114.872919350622
 20
-155.6635389150772
 30
0.0
 10
114.872919350622
 20
-155.6635389150772
 30
0.0
 10
113.7136447198355
 20
-155.6635389150772
 30
0.0
 10
113.7136447198355
 20
-155.6635389150772
 30
0.0
 10
113.7136447198355
 20
-155.6635389150772
 30
0.0
 10
113.7136447198355
 20
-155.8051323395209
 30
0.0
 10
113.7136447198355
 20
-155.8051323395209
 30
0.0
 10
113.7136447198355
 20
-155.8051323395209
 30
0.0
 10
114.872919350622
 20
-155.8051323395209
 30
0.0
 10
114.872919350622
 20
-155.8051323395209
 30
0.0
 10
114.872919350622
 20
-155.8051323395209
 30
0.0
 10
114.872919350622
 20
-155.6635389150772
 30
0.0
 10
114.872919350622
 20
-155.6635389150772
 30
0.0
  0
SPLINE
  5
119
330
109
100
AcDbEntity
  8
レイヤー 1
100
AcDbSpline
210
0.0
220
0.0
230
1.0
 70
    11
 71
     3
 72
    17
 73
    13
 74
     0
 42
0.0000000001
 43
0.0000000001
 40
0.0
 40
0.0
 40
0.0
 40
0.0
 40
1.0
 40
1.0
 40
1.0
 40
2.0
 40
2.0
 40
2.0
 40
3.0
 40
3.0
 40
3.0
 40
4.0
 40
4.0
 40
4.0
 40
4.0
 10
114.872919350622
 20
-155.4244492884008
 30
0.0
 10
114.872919350622
 20
-155.4244492884008
 30
0.0
 10
113.7136447198355
 20
-155.4244492884008
 30
0.0
 10
113.7136447198355
 20
-155.4244492884008
 30
0.0
 10
113.7136447198355
 20
-155.4244492884008
 30
0.0
 10
113.7136447198355
 20
-155.5532958595492
 30
0.0
 10
113.7136447198355
 20
-155.5532958595492
 30
0.0
 10
113.7136447198355
 20
-155.5532958595492
 30
0.0
 10
114.872919350622
 20
-155.5532958595492
 30
0.0
 10
114.872919350622
 20
-155.5532958595492
 30
0.0
 10
114.872919350622
 20
-155.5532958595492
 30
0.0
 10
114.872919350622
 20
-155.4244492884008
 30
0.0
 10
114.872919350622
 20
-155.4244492884008
 30
0.0
  0
SPLINE
  5
11A
330
109
100
AcDbEntity
  8
レイヤー 1
100
AcDbSpline
210
0.0
220
0.0
230
1.0
 70
    11
 71
     3
 72
    32
 73
    28
 74
     0
 42
0.0000000001
 43
0.0000000001
 40
0.0
 40
0.0
 40
0.0
 40
0.0
 40
1.0
 40
1.0
 40
1.0
 40
2.0
 40
2.0
 40
2.0
 40
3.0
 40
3.0
 40
3.0
 40
4.0
 40
4.0
 40
4.0
 40
5.0
 40
5.0
 40
5.0
 40
6.0
 40
6.0
 40
6.0
 40
7.0
 40
7.0
 40
7.0
 40
8.0
 40
8.0
 40
8.0
 40
9.0
 40
9.0
 40
9.0
 40
9.0
 10
113.5444905315097
 20
-156.1902940147718
 30
0.0
 10
113.5444905315097
 20
-156.1902940147718
 30
0.0
 10
113.5444905315097
 20
-155.2911240931217
 30
0.0
 10
113.5444905315097
 20
-155.2911240931217
 30
0.0
 10
113.5444905315097
 20
-155.2911240931217
 30
0.0
 10
115.0424180484963
 20
-155.2911240931217
 30
0.0
 10
115.0424180484963
 20
-155.2911240931217
 30
0.0
 10
115.0424180484963
 20
-155.2911240931217
 30
0.0
 10
115.0424180484963
 20
-156.1902940147718
 30
0.0
 10
115.0424180484963
 20
-156.1902940147718
 30
0.0
 10
115.0424180484963
 20
-156.1902940147718
 30
0.0
 10
113.8979573282963
 20
-156.1902940147718
 30
0.0
 10
113.8979573282963
 20
-156.1902940147718
 30
0.0
 10
113.8979573282963
 20
-156.1902940147718
 30
0.0
 10
114.0037217596935
 20
-156.3001925607513
 30
0.0
 10
114.0037217596935
 20
-156.3001925607513
 30
0.0
 10
113.83870168595
 20
-156.3952771961442
 30
0.0
 10
113.6736816122066
 20
-156.4565998957817
 30
0.0
 10
113.3774034004751
 20
-156.5075873089634
 30
0.0
 10
113.3774034004751
 20
-156.5075873089634
 30
0.0
 10
113.3119465862553
 20
-156.3553140885153
 30
0.0
 10
113.3119465862553
 20
-156.3553140885153
 30
0.0
 10
113.6905625800843
 20
-156.3022596180425
 30
0.0
 10
113.8132079793592
 20
-156.2347357465316
 30
0.0
 10
113.8934787041655
 20
-156.1902940147718
 30
0.0
 10
113.8934787041655
 20
-156.1902940147718
 30
0.0
 10
113.5444905315097
 20
-156.1902940147718
 30
0.0
 10
113.5444905315097
 20
-156.1902940147718
 30
0.0
  0
SPLINE
  5
11B
330
109
100
AcDbEntity
  8
レイヤー 1
100
AcDbSpline
210
0.0
220
0.0
230
1.0
 70
    11
 71
     3
 72
    50
 73
    46
 74
     0
 42
0.0000000001
 43
0.0000000001
 40
0.0
 40
0.0
 40
0.0
 40
0.0
 40
1.0
 40
1.0
 40
1.0
 40
2.0
 40
2.0
 40
2.0
 40
3.0
 40
3.0
 40
3.0
 40
4.0
 40
4.0
 40
4.0
 40
5.0
 40
5.0
 40
5.0
 40
6.0
 40
6.0
 40
6.0
 40
7.0
 40
7.0
 40
7.0
 40
8.0
 40
8.0
 40
8.0
 40
9.0
 40
9.0
 40
9.0
 40
10.0
 40
10.0
 40
10.0
 40
11.0
 40
11.0
 40
11.0
 40
12.0
 40
12.0
 40
12.0
 40
13.0
 40
13.0
 40
13.0
 40
14.0
 40
14.0
 40
14.0
 40
15.0
 40
15.0
 40
15.0
 40
15.0
 10
113.6292398804468
 20
-154.8446397182333
 30
0.0
 10
113.6292398804468
 20
-154.8446397182333
 30
0.0
 10
114.2807074367076
 20
-154.8446397182333
 30
0.0
 10
114.2807074367076
 20
-154.8446397182333
 30
0.0
 10
114.2807074367076
 20
-154.8446397182333
 30
0.0
 10
114.2807074367076
 20
-154.9696966843479
 30
0.0
 10
114.2807074367076
 20
-154.9696966843479
 30
0.0
 10
114.2807074367076
 20
-154.9696966843479
 30
0.0
 10
114.0037217596935
 20
-154.9696966843479
 30
0.0
 10
114.0037217596935
 20
-154.9696966843479
 30
0.0
 10
114.0037217596935
 20
-154.9696966843479
 30
0.0
 10
114.0037217596935
 20
-155.2446153040708
 30
0.0
 10
114.0037217596935
 20
-155.2446153040708
 30
0.0
 10
114.0037217596935
 20
-155.2446153040708
 30
0.0
 10
113.8428358005323
 20
-155.2446153040708
 30
0.0
 10
113.8428358005323
 20
-155.2446153040708
 30
0.0
 10
113.8428358005323
 20
-155.2446153040708
 30
0.0
 10
113.8428358005323
 20
-154.9696966843479
 30
0.0
 10
113.8428358005323
 20
-154.9696966843479
 30
0.0
 10
113.8428358005323
 20
-154.9696966843479
 30
0.0
 10
113.6226941990249
 20
-154.9696966843479
 30
0.0
 10
113.6226941990249
 20
-154.9696966843479
 30
0.0
 10
113.6123589125691
 20
-155.0392876131499
 30
0.0
 10
113.5868652059783
 20
-155.2339355080665
 30
0.0
 10
113.4325249282391
 20
-155.3841416712234
 30
0.0
 10
113.4325249282391
 20
-155.3841416712234
 30
0.0
 10
113.3098795289642
 20
-155.2742431252439
 30
0.0
 10
113.3098795289642
 20
-155.2742431252439
 30
0.0
 10
113.4304578709479
 20
-155.1746798657202
 30
0.0
 10
113.472488035868
 20
-154.9696966843479
 30
0.0
 10
113.472488035868
 20
-154.8870143927018
 30
0.0
 10
113.472488035868
 20
-154.8870143927018
 30
0.0
 10
113.472488035868
 20
-154.6014159769747
 30
0.0
 10
113.472488035868
 20
-154.6014159769747
 30
0.0
 10
113.9572129706426
 20
-154.6014159769747
 30
0.0
 10
114.1115532483818
 20
-154.5549071879238
 30
0.0
 10
114.2066378837747
 20
-154.5273464240418
 30
0.0
 10
114.2066378837747
 20
-154.5273464240418
 30
0.0
 10
114.2596923542475
 20
-154.6668727911944
 30
0.0
 10
114.2596923542475
 20
-154.6668727911944
 30
0.0
 10
114.0502305487444
 20
-154.7157931470849
 30
0.0
 10
113.8872775322921
 20
-154.7261284335407
 30
0.0
 10
113.6292398804468
 20
-154.7306070576715
 30
0.0
 10
113.6292398804468
 20
-154.7306070576715
 30
0.0
 10
113.6292398804468
 20
-154.8446397182333
 30
0.0
 10
113.6292398804468
 20
-154.8446397182333
 30
0.0
  0
HATCH
  5
11C
330
109
100
AcDbEntity
  8
レイヤー 1
 62
    12
420
 15007762
440
 33554687
100
AcDbHatch
 10
0.0
 20
0.0
 30
0.0
210
0.0
220
0.0
230
1.0
  2
SOLID
 70
     1
 71
     1
 91
        7
 92
        1
 93
        1
 72
     4
 94
        3
 73
     0
 74
     0
 95
       17
 96
       13
 40
0.0
 40
0.0
 40
0.0
 40
0.0
 40
1.0
 40
1.0
 40
1.0
 40
2.0
 40
2.0
 40
2.0
 40
3.0
 40
3.0
 40
3.0
 40
4.0
 40
4.0
 40
4.0
 40
4.0
 10
114.6489881440808
 20
-156.1964951866453
 10
114.8687852360397
 20
-156.3088052994644
 10
115.1354356265981
 20
-156.3467013498022
 10
115.2642821977464
 20
-156.3573811458065
 10
115.2642821977464
 20
-156.3573811458065
 10
115.1946912689444
 20
-156.5117214235456
 10
115.1946912689444
 20
-156.5117214235456
 10
115.0741129269606
 20
-156.4969075129591
 10
114.8115966509846
 20
-156.4565998957817
 10
114.5473578272659
 20
-156.3108723567556
 10
114.5473578272659
 20
-156.3108723567556
 10
114.6489881440808
 20
-156.1964951866453
 10
114.6489881440808
 20
-156.1964951866453
 97
        0
 97
        1
330
115
 92
        1
 93
        1
 72
     4
 94
        3
 73
     0
 74
     0
 95
       50
 96
       46
 40
0.0
 40
0.0
 40
0.0
 40
0.0
 40
1.0
 40
1.0
 40
1.0
 40
2.0
 40
2.0
 40
2.0
 40
3.0
 40
3.0
 40
3.0
 40
4.0
 40
4.0
 40
4.0
 40
5.0
 40
5.0
 40
5.0
 40
6.0
 40
6.0
 40
6.0
 40
7.0
 40
7.0
 40
7.0
 40
8.0
 40
8.0
 40
8.0
 40
9.0
 40
9.0
 40
9.0
 40
10.0
 40
10.0
 40
10.0
 40
11.0
 40
11.0
 40
11.0
 40
12.0
 40
12.0
 40
12.0
 40
13.0
 40
13.0
 40
13.0
 40
14.0
 40
14.0
 40
14.0
 40
15.0
 40
15.0
 40
15.0
 40
15.0
 10
114.5366780312617
 20
-154.8446397182333
 10
114.5366780312617
 20
-154.8446397182333
 10
115.2728949364595
 20
-154.8446397182333
 10
115.2728949364595
 20
-154.8446397182333
 10
115.2728949364595
 20
-154.8446397182333
 10
115.2728949364595
 20
-154.9696966843479
 10
115.2728949364595
 20
-154.9696966843479
 10
115.2728949364595
 20
-154.9696966843479
 10
114.9428547889726
 20
-154.9696966843479
 10
114.9428547889726
 20
-154.9696966843479
 10
114.9428547889726
 20
-154.9696966843479
 10
114.9428547889726
 20
-155.2446153040708
 10
114.9428547889726
 20
-155.2446153040708
 10
114.9428547889726
 20
-155.2446153040708
 10
114.7864474539423
 20
-155.2446153040708
 10
114.7864474539423
 20
-155.2446153040708
 10
114.7864474539423
 20
-155.2446153040708
 10
114.7864474539423
 20
-154.9696966843479
 10
114.7864474539423
 20
-154.9696966843479
 10
114.7864474539423
 20
-154.9696966843479
 10
114.5218641206751
 20
-154.9696966843479
 10
114.5218641206751
 20
-154.9696966843479
 10
114.4963704140842
 20
-155.0985432554962
 10
114.4457275104511
 20
-155.1894937763068
 10
114.348575817767
 20
-155.2721760679528
 10
114.348575817767
 20
-155.2721760679528
 10
114.2255859089436
 20
-155.1643445792645
 10
114.2255859089436
 20
-155.1643445792645
 10
114.3609781615139
 20
-155.0541015237365
 10
114.3844048108136
 20
-154.916642213875
 10
114.3844048108136
 20
-154.8425726609421
 10
114.3844048108136
 20
-154.8425726609421
 10
114.3844048108136
 20
-154.5993489196835
 10
114.3844048108136
 20
-154.5993489196835
 10
114.8539713254532
 20
-154.5993489196835
 10
115.0210584564878
 20
-154.5590413025061
 10
115.1650634477712
 20
-154.5166666280375
 10
115.1650634477712
 20
-154.5166666280375
 10
115.2243190901175
 20
-154.6544704474475
 10
115.2243190901175
 20
-154.6544704474475
 10
114.9535345849769
 20
-154.7240613762495
 10
114.6383083480765
 20
-154.7285400003804
 10
114.5366780312617
 20
-154.7285400003804
 10
114.5366780312617
 20
-154.7285400003804
 10
114.5366780312617
 20
-154.8446397182333
 10
114.5366780312617
 20
-154.8446397182333
 97
        0
 97
        1
330
116
 92
        1
 93
        1
 72
     4
 94
        3
 73
     0
 74
     0
 95
       17
 96
       13
 40
0.0
 40
0.0
 40
0.0
 40
0.0
 40
1.0
 40
1.0
 40
1.0
 40
2.0
 40
2.0
 40
2.0
 40
3.0
 40
3.0
 40
3.0
 40
4.0
 40
4.0
 40
4.0
 40
4.0
 10
114.872919350622
 20
-155.9150308855004
 10
114.872919350622
 20
-155.9150308855004
 10
113.7136447198355
 20
-155.9150308855004
 10
113.7136447198355
 20
-155.9150308855004
 10
113.7136447198355
 20
-155.9150308855004
 10
113.7136447198355
 20
-156.0549017622015
 10
113.7136447198355
 20
-156.0549017622015
 10
113.7136447198355
 20
-156.0549017622015
 10
114.872919350622
 20
-156.0549017622015
 10
114.872919350622
 20
-156.0549017622015
 10
114.872919350622
 20
-156.0549017622015
 10
114.872919350622
 20
-155.9150308855004
 10
114.872919350622
 20
-155.9150308855004
 97
        0
 97
        1
330
117
 92
        1
 93
        1
 72
     4
 94
        3
 73
     0
 74
     0
 95
       17
 96
       13
 40
0.0
 40
0.0
 40
0.0
 40
0.0
 40
1.0
 40
1.0
 40
1.0
 40
2.0
 40
2.0
 40
2.0
 40
3.0
 40
3.0
 40
3.0
 40
4.0
 40
4.0
 40
4.0
 40
4.0
 10
114.872919350622
 20
-155.6635389150772
 10
114.872919350622
 20
-155.6635389150772
 10
113.7136447198355
 20
-155.6635389150772
 10
113.7136447198355
 20
-155.6635389150772
 10
113.7136447198355
 20
-155.6635389150772
 10
113.7136447198355
 20
-155.8051323395209
 10
113.7136447198355
 20
-155.8051323395209
 10
113.7136447198355
 20
-155.8051323395209
 10
114.872919350622
 20
-155.8051323395209
 10
114.872919350622
 20
-155.8051323395209
 10
114.872919350622
 20
-155.8051323395209
 10
114.872919350622
 20
-155.6635389150772
 10
114.872919350622
 20
-155.6635389150772
 97
        0
 97
        1
330
118
 92
        1
 93
        1
 72
     4
 94
        3
 73
     0
 74
     0
 95
       17
 96
       13
 40
0.0
 40
0.0
 40
0.0
 40
0.0
 40
1.0
 40
1.0
 40
1.0
 40
2.0
 40
2.0
 40
2.0
 40
3.0
 40
3.0
 40
3.0
 40
4.0
 40
4.0
 40
4.0
 40
4.0
 10
114.872919350622
 20
-155.4244492884008
 10
114.872919350622
 20
-155.4244492884008
 10
113.7136447198355
 20
-155.4244492884008
 10
113.7136447198355
 20
-155.4244492884008
 10
113.7136447198355
 20
-155.4244492884008
 10
113.7136447198355
 20
-155.5532958595492
 10
113.7136447198355
 20
-155.5532958595492
 10
113.7136447198355
 20
-155.5532958595492
 10
114.872919350622
 20
-155.5532958595492
 10
114.872919350622
 20
-155.5532958595492
 10
114.872919350622
 20
-155.5532958595492
 10
114.872919350622
 20
-155.4244492884008
 10
114.872919350622
 20
-155.4244492884008
 97
        0
 97
        1
330
119
 92
        1
 93
        1
 72
     4
 94
        3
 73
     0
 74
     0
 95
       32
 96
       28
 40
0.0
 40
0.0
 40
0.0
 40
0.0
 40
1.0
 40
1.0
 40
1.0
 40
2.0
 40
2.0
 40
2.0
 40
3.0
 40
3.0
 40
3.0
 40
4.0
 40
4.0
 40
4.0
 40
5.0
 40
5.0
 40
5.0
 40
6.0
 40
6.0
 40
6.0
 40
7.0
 40
7.0
 40
7.0
 40
8.0
 40
8.0
 40
8.0
 40
9.0
 40
9.0
 40
9.0
 40
9.0
 10
113.5444905315097
 20
-156.1902940147718
 10
113.5444905315097
 20
-156.1902940147718
 10
113.5444905315097
 20
-155.2911240931217
 10
113.5444905315097
 20
-155.2911240931217
 10
113.5444905315097
 20
-155.2911240931217
 10
115.0424180484963
 20
-155.2911240931217
 10
115.0424180484963
 20
-155.2911240931217
 10
115.0424180484963
 20
-155.2911240931217
 10
115.0424180484963
 20
-156.1902940147718
 10
115.0424180484963
 20
-156.1902940147718
 10
115.0424180484963
 20
-156.1902940147718
 10
113.8979573282963
 20
-156.1902940147718
 10
113.8979573282963
 20
-156.1902940147718
 10
113.8979573282963
 20
-156.1902940147718
 10
114.0037217596935
 20
-156.3001925607513
 10
114.0037217596935
 20
-156.3001925607513
 10
113.83870168595
 20
-156.3952771961442
 10
113.6736816122066
 20
-156.4565998957817
 10
113.3774034004751
 20
-156.5075873089634
 10
113.3774034004751
 20
-156.5075873089634
 10
113.3119465862553
 20
-156.3553140885153
 10
113.3119465862553
 20
-156.3553140885153
 10
113.6905625800843
 20
-156.3022596180425
 10
113.8132079793592
 20
-156.2347357465316
 10
113.8934787041655
 20
-156.1902940147718
 10
113.8934787041655
 20
-156.1902940147718
 10
113.5444905315097
 20
-156.1902940147718
 10
113.5444905315097
 20
-156.1902940147718
 97
        0
 97
        1
330
11A
 92
        1
 93
        1
 72
     4
 94
        3
 73
     0
 74
     0
 95
       50
 96
       46
 40
0.0
 40
0.0
 40
0.0
 40
0.0
 40
1.0
 40
1.0
 40
1.0
 40
2.0
 40
2.0
 40
2.0
 40
3.0
 40
3.0
 40
3.0
 40
4.0
 40
4.0
 40
4.0
 40
5.0
 40
5.0
 40
5.0
 40
6.0
 40
6.0
 40
6.0
 40
7.0
 40
7.0
 40
7.0
 40
8.0
 40
8.0
 40
8.0
 40
9.0
 40
9.0
 40
9.0
 40
10.0
 40
10.0
 40
10.0
 40
11.0
 40
11.0
 40
11.0
 40
12.0
 40
12.0
 40
12.0
 40
13.0
 40
13.0
 40
13.0
 40
14.0
 40
14.0
 40
14.0
 40
15.0
 40
15.0
 40
15.0
 40
15.0
 10
113.6292398804468
 20
-154.8446397182333
 10
113.6292398804468
 20
-154.8446397182333
 10
114.2807074367076
 20
-154.8446397182333
 10
114.2807074367076
 20
-154.8446397182333
 10
114.2807074367076
 20
-154.8446397182333
 10
114.2807074367076
 20
-154.9696966843479
 10
114.2807074367076
 20
-154.9696966843479
 10
114.2807074367076
 20
-154.9696966843479
 10
114.0037217596935
 20
-154.9696966843479
 10
114.0037217596935
 20
-154.9696966843479
 10
114.0037217596935
 20
-154.9696966843479
 10
114.0037217596935
 20
-155.2446153040708
 10
114.0037217596935
 20
-155.2446153040708
 10
114.0037217596935
 20
-155.2446153040708
 10
113.8428358005323
 20
-155.2446153040708
 10
113.8428358005323
 20
-155.2446153040708
 10
113.8428358005323
 20
-155.2446153040708
 10
113.8428358005323
 20
-154.9696966843479
 10
113.8428358005323
 20
-154.9696966843479
 10
113.8428358005323
 20
-154.9696966843479
 10
113.6226941990249
 20
-154.9696966843479
 10
113.6226941990249
 20
-154.9696966843479
 10
113.6123589125691
 20
-155.0392876131499
 10
113.5868652059783
 20
-155.2339355080665
 10
113.4325249282391
 20
-155.3841416712234
 10
113.4325249282391
 20
-155.3841416712234
 10
113.3098795289642
 20
-155.2742431252439
 10
113.3098795289642
 20
-155.2742431252439
 10
113.4304578709479
 20
-155.1746798657202
 10
113.472488035868
 20
-154.9696966843479
 10
113.472488035868
 20
-154.8870143927018
 10
113.472488035868
 20
-154.8870143927018
 10
113.472488035868
 20
-154.6014159769747
 10
113.472488035868
 20
-154.6014159769747
 10
113.9572129706426
 20
-154.6014159769747
 10
114.1115532483818
 20
-154.5549071879238
 10
114.2066378837747
 20
-154.5273464240418
 10
114.2066378837747
 20
-154.5273464240418
 10
114.2596923542475
 20
-154.6668727911944
 10
114.2596923542475
 20
-154.6668727911944
 10
114.0502305487444
 20
-154.7157931470849
 10
113.8872775322921
 20
-154.7261284335407
 10
113.6292398804468
 20
-154.7306070576715
 10
113.6292398804468
 20
-154.7306070576715
 10
113.6292398804468
 20
-154.8446397182333
 10
113.6292398804468
 20
-154.8446397182333
 97
        0
 97
        1
330
11B
 75
     2
 76
     1
 98
        1
 10
0.0
 20
0.0
450
        0
451
        0
460
0.0
461
0.0
452
        0
462
0.0
453
        0
470

  0
ENDBLK
  5
10C
330
109
100
AcDbEntity
  8
0
100
AcDbBlockEnd
  0
BLOCK
  5
11F
330
11D
100
AcDbEntity
  8
0
100
AcDbBlockBegin
  2
Block_17
 70
     0
 10
0.0
 20
0.0
 30
0.0
  3
Block_17
  1

  0
LINE
  5
121
330
11D
100
AcDbEntity
  8
レイヤー 1
 62
   250
420
  2299925
370
    25
100
AcDbLine
 10
90.93731943384524
 20
-146.427801515
 30
0.0
 11
91.44824396019435
 21
-146.8140062482005
 31
0.0
  0
LINE
  5
122
330
11D
100
AcDbEntity
  8
レイヤー 1
 62
   250
420
  2299925
370
    25
100
AcDbLine
 10
91.44824396019435
 20
-146.8140062482005
 30
0.0
 11
91.93667578758455
 21
-146.4003967094315
 31
0.0
  0
LINE
  5
123
330
11D
100
AcDbEntity
  8
レイヤー 1
 62
   250
420
  2299925
370
    25
100
AcDbLine
 10
92.44756503731087
 20
-146.7866011572071
 30
0.0
 11
92.93670496595629
 21
-146.3726798372999
 31
0.0
  0
LINE
  5
124
330
11D
100
AcDbEntity
  8
レイヤー 1
 62
   250
420
  2299925
370
    25
100
AcDbLine
 10
91.93667578758455
 20
-146.4003967094315
 30
0.0
 11
92.44756503731087
 21
-146.7866011572071
 31
0.0
  0
LINE
  5
125
330
11D
100
AcDbEntity
  8
レイヤー 1
 62
   250
420
  2299925
370
    25
100
AcDbLine
 10
92.93670496595629
 20
-146.3726798372999
 30
0.0
 11
93.44759421568291
 21
-146.7588842850754
 31
0.0
  0
LINE
  5
126
330
11D
100
AcDbEntity
  8
レイヤー 1
 62
   250
420
  2299925
370
    25
100
AcDbLine
 10
93.44759421568291
 20
-146.7588842850754
 30
0.0
 11
93.93602604307281
 21
-146.3452747463068
 31
0.0
  0
LINE
  5
127
330
11D
100
AcDbEntity
  8
レイヤー 1
 62
   250
420
  2299925
370
    25
100
AcDbLine
 10
93.93602604307281
 20
-146.3452747463068
 30
0.0
 11
94.44691814703409
 21
-146.731126427852
 31
0.0
  0
LINE
  5
128
330
11D
100
AcDbEntity
  8
レイヤー 1
 62
   250
420
  2299925
370
    25
100
AcDbLine
 10
94.44691814703409
 20
-146.731126427852
 30
0.0
 11
94.93570274064571
 21
-146.3175197433174
 31
0.0
  0
LINE
  5
129
330
11D
100
AcDbEntity
  8
レイヤー 1
 62
   250
420
  2299925
370
    25
100
AcDbLine
 10
94.93570274064571
 20
-146.3175197433174
 30
0.0
 11
95.44659484460702
 21
-146.7033714248622
 31
0.0
  0
LINE
  5
12A
330
11D
100
AcDbEntity
  8
レイヤー 1
 62
   250
420
  2299925
370
    25
100
AcDbLine
 10
95.44659484460702
 20
-146.7033714248622
 30
0.0
 11
95.93537943821926
 21
-146.289764740328
 31
0.0
  0
LINE
  5
12B
330
11D
100
AcDbEntity
  8
レイヤー 1
 62
   250
420
  2299925
370
    25
100
AcDbLine
 10
95.93537943821926
 20
-146.289764740328
 30
0.0
 11
96.44626840252236
 21
-146.6760044647276
 31
0.0
  0
LINE
  5
12C
330
11D
100
AcDbEntity
  8
レイヤー 1
 62
   250
420
  2299925
370
    25
100
AcDbLine
 10
96.44626840252236
 20
-146.6760044647276
 30
0.0
 11
96.93505299613493
 21
-146.2623977801933
 31
0.0
  0
LINE
  5
12D
330
11D
100
AcDbEntity
  8
レイヤー 1
 62
   250
420
  2299925
370
    25
100
AcDbLine
 10
96.93505299613493
 20
-146.2623977801933
 30
0.0
 11
97.44562475626134
 21
-146.6485996591581
 31
0.0
  0
LINE
  5
12E
330
11D
100
AcDbEntity
  8
レイヤー 1
 62
   250
420
  2299925
370
    25
100
AcDbLine
 10
97.44562475626134
 20
-146.6485996591581
 30
0.0
 11
97.93472969370753
 21
-146.2346427772042
 31
0.0
  0
LINE
  5
12F
330
11D
100
AcDbEntity
  8
レイヤー 1
 62
   250
420
  2299925
370
    25
100
AcDbLine
 10
98.44565422005663
 20
-146.6208475104033
 30
0.0
 11
98.93408604744651
 21
-146.2072379716354
 31
0.0
  0
LINE
  5
130
330
11D
100
AcDbEntity
  8
レイヤー 1
 62
   250
420
  2299925
370
    25
100
AcDbLine
 10
97.93472969370753
 20
-146.2346427772042
 30
0.0
 11
98.44565422005663
 21
-146.6208475104033
 31
0.0
  0
LINE
  5
131
330
11D
100
AcDbEntity
  8
レイヤー 1
 62
   250
420
  2299925
370
    25
100
AcDbLine
 10
98.93408604744651
 20
-146.2072379716354
 30
0.0
 11
99.44497815140749
 21
-146.5930896531799
 31
0.0
  0
LINE
  5
132
330
11D
100
AcDbEntity
  8
レイヤー 1
 62
   250
420
  2299925
370
    25
100
AcDbLine
 10
99.44497815140749
 20
-146.5930896531799
 30
0.0
 11
99.93408023461967
 21
-146.1794855374567
 31
0.0
  0
LINE
  5
133
330
11D
100
AcDbEntity
  8
レイヤー 1
 62
   250
420
  2299925
370
    25
100
AcDbLine
 10
100.4450073297795
 20
-146.5653727810482
 30
0.0
 11
100.9334391571694
 21
-146.1517632422793
 31
0.0
  0
LINE
  5
134
330
11D
100
AcDbEntity
  8
レイヤー 1
 62
   250
420
  2299925
370
    25
100
AcDbLine
 10
99.93408023461967
 20
-146.1794855374567
 30
0.0
 11
100.4450073297795
 21
-146.5653727810482
 31
0.0
  0
LINE
  5
135
330
11D
100
AcDbEntity
  8
レイヤー 1
 62
   250
420
  2299925
370
    25
100
AcDbLine
 10
101.444328406896
 20
-146.5379676900555
 30
0.0
 11
101.9334657667303
 21
-146.1243638597556
 31
0.0
  0
LINE
  5
136
330
11D
100
AcDbEntity
  8
レイヤー 1
 62
   250
420
  2299925
370
    25
100
AcDbLine
 10
100.9334391571694
 20
-146.1517632422793
 30
0.0
 11
101.444328406896
 21
-146.5379676900555
 31
0.0
  0
LINE
  5
137
330
11D
100
AcDbEntity
  8
レイヤー 1
 62
   250
420
  2299925
370
    25
100
AcDbLine
 10
101.9334657667303
 20
-146.1243638597556
 30
0.0
 11
102.444355016457
 21
-146.5105683075315
 31
0.0
  0
LINE
  5
138
330
11D
100
AcDbEntity
  8
レイヤー 1
 62
   250
420
  2299925
370
    25
100
AcDbLine
 10
102.444355016457
 20
-146.5105683075315
 30
0.0
 11
102.9327896980812
 21
-146.0966060025322
 31
0.0
  0
LINE
  5
139
330
11D
100
AcDbEntity
  8
レイヤー 1
 62
   250
420
  2299925
370
    25
100
AcDbLine
 10
102.9327896980812
 20
-146.0966060025322
 30
0.0
 11
103.4436789478078
 21
-146.482810450308
 31
0.0
  0
LINE
  5
13A
330
11D
100
AcDbEntity
  8
レイヤー 1
 62
   250
420
  2299925
370
    25
100
AcDbLine
 10
103.4436789478078
 20
-146.482810450308
 30
0.0
 11
103.9321104897745
 21
-146.0692361881622
 31
0.0
  0
LINE
  5
13B
330
11D
100
AcDbEntity
  8
レイヤー 1
 62
   250
420
  2299925
370
    25
100
AcDbLine
 10
103.9321104897745
 20
-146.0692361881622
 30
0.0
 11
104.4430025937361
 21
-146.4550878697074
 31
0.0
  0
LINE
  5
13C
330
11D
100
AcDbEntity
  8
レイヤー 1
 62
   250
420
  2299925
370
    25
100
AcDbLine
 10
104.4430025937361
 20
-146.4550878697074
 30
0.0
 11
104.9321399535698
 21
-146.0414840394077
 31
0.0
  0
LINE
  5
13D
330
11D
100
AcDbEntity
  8
レイヤー 1
 62
   250
420
  2299925
370
    25
100
AcDbLine
 10
104.9321399535698
 20
-146.0414840394077
 30
0.0
 11
105.4430320575311
 21
-146.4273357209526
 31
0.0
  0
LINE
  5
13E
330
11D
100
AcDbEntity
  8
レイヤー 1
 62
   250
420
  2299925
370
    25
100
AcDbLine
 10
105.4430320575311
 20
-146.4273357209526
 30
0.0
 11
105.931463884921
 21
-146.013726182184
 31
0.0
  0
LINE
  5
13F
330
11D
100
AcDbEntity
  8
レイヤー 1
 62
   250
420
  2299925
370
    25
100
AcDbLine
 10
105.931463884921
 20
-146.013726182184
 30
0.0
 11
106.4423908883448
 21
-146.3999309354256
 31
0.0
  0
LINE
  5
140
330
11D
100
AcDbEntity
  8
レイヤー 1
 62
   250
420
  2299925
370
    25
100
AcDbLine
 10
106.4423908883448
 20
-146.3999309354256
 30
0.0
 11
106.9314904944816
 21
-145.9863267996606
 31
0.0
  0
LINE
  5
141
330
11D
100
AcDbEntity
  8
レイヤー 1
 62
   250
420
  2299925
370
    25
100
AcDbLine
 10
106.9314904944816
 20
-145.9863267996606
 30
0.0
 11
107.4423797442085
 21
-146.3725312474368
 31
0.0
  0
LINE
  5
142
330
11D
100
AcDbEntity
  8
レイヤー 1
 62
   250
420
  2299925
370
    25
100
AcDbLine
 10
107.4423797442085
 20
-146.3725312474368
 30
0.0
 11
107.9308141404092
 21
-145.9586042190596
 31
0.0
  0
LINE
  5
143
330
11D
100
AcDbEntity
  8
レイヤー 1
 62
   250
420
  2299925
370
    25
100
AcDbLine
 10
107.9308141404092
 20
-145.9586042190596
 30
0.0
 11
108.4417411943271
 21
-146.3448089727097
 31
0.0
  0
LINE
  5
144
330
11D
100
AcDbEntity
  8
レイヤー 1
 62
   250
420
  2299925
370
    25
100
AcDbLine
 10
108.4417411943271
 20
-146.3448089727097
 30
0.0
 11
108.9308407499705
 21
-145.9312048365362
 31
0.0
  0
LINE
  5
145
330
11D
100
AcDbEntity
  8
レイヤー 1
 62
   250
420
  2299925
370
    25
100
AcDbLine
 10
108.9308407499705
 20
-145.9312048365362
 30
0.0
 11
109.4417706833774
 21
-146.3170568241593
 31
0.0
  0
LINE
  5
146
330
11D
100
AcDbEntity
  8
レイヤー 1
 62
   250
420
  2299925
370
    25
100
AcDbLine
 10
109.4417706833774
 20
-146.3170568241593
 30
0.0
 11
109.9302025230208
 21
-145.9034472854899
 31
0.0
  0
LINE
  5
147
330
11D
100
AcDbEntity
  8
レイヤー 1
 62
   250
420
  2299925
370
    25
100
AcDbLine
 10
109.9302025230208
 20
-145.9034472854899
 30
0.0
 11
110.441094354543
 21
-146.289334243763
 31
0.0
  0
LINE
  5
148
330
11D
100
AcDbEntity
  8
レイヤー 1
 62
   250
420
  2299925
370
    25
100
AcDbLine
 10
110.441094354543
 20
-146.289334243763
 30
0.0
 11
110.930193859693
 21
-145.8757301071805
 31
0.0
  0
LINE
  5
149
330
11D
100
AcDbEntity
  8
レイヤー 1
 62
   250
420
  2299925
370
    25
100
AcDbLine
 10
110.9336770609575
 20
-145.8757582897568
 30
0.0
 11
111.4445691649188
 21
-146.261609971302
 31
0.0
  0
LINE
  5
14A
330
11D
100
AcDbEntity
  8
レイヤー 1
 62
   250
420
  2299925
370
    25
100
AcDbLine
 10
111.4445691649188
 20
-146.261609971302
 30
0.0
 11
111.933000992309
 21
-145.8480004325331
 31
0.0
  0
LINE
  5
14B
330
11D
100
AcDbEntity
  8
レイヤー 1
 62
   250
420
  2299925
370
    25
100
AcDbLine
 10
111.933000992309
 20
-145.8480004325331
 30
0.0
 11
112.4439279957329
 21
-146.234205185775
 31
0.0
  0
LINE
  5
14C
330
11D
100
AcDbEntity
  8
レイヤー 1
 62
   250
420
  2299925
370
    25
100
AcDbLine
 10
112.4439279957329
 20
-146.234205185775
 30
0.0
 11
112.9330276018696
 21
-145.8206010500097
 31
0.0
  0
LINE
  5
14D
330
11D
100
AcDbEntity
  8
レイヤー 1
 62
   250
420
  2299925
370
    25
100
AcDbLine
 10
112.9330276018696
 20
-145.8206010500097
 30
0.0
 11
113.443916851596
 21
-146.2068054977859
 31
0.0
  0
LINE
  5
14E
330
11D
100
AcDbEntity
  8
レイヤー 1
 62
   250
420
  2299925
370
    25
100
AcDbLine
 10
113.443916851596
 20
-146.2068054977859
 30
0.0
 11
113.9323512477973
 21
-145.7928784694093
 31
0.0
  0
LINE
  5
14F
330
11D
100
AcDbEntity
  8
レイヤー 1
 62
   250
420
  2299925
370
    25
100
AcDbLine
 10
113.9323512477973
 20
-145.7928784694093
 30
0.0
 11
114.4432783017151
 21
-146.1790832230591
 31
0.0
  0
LINE
  5
150
330
11D
100
AcDbEntity
  8
レイヤー 1
 62
   250
420
  2299925
370
    25
100
AcDbLine
 10
114.4432783017151
 20
-146.1790832230591
 30
0.0
 11
114.9323778573579
 21
-145.7654790868853
 31
0.0
  0
LINE
  5
151
330
11D
100
AcDbEntity
  8
レイヤー 1
 62
   250
420
  2299925
370
    25
100
AcDbLine
 10
114.9323778573579
 20
-145.7654790868853
 30
0.0
 11
115.4433077907654
 21
-146.1513310745084
 31
0.0
  0
LINE
  5
152
330
11D
100
AcDbEntity
  8
レイヤー 1
 62
   250
420
  2299925
370
    25
100
AcDbLine
 10
115.4433077907654
 20
-146.1513310745084
 30
0.0
 11
115.9317396304089
 21
-145.7377215358395
 31
0.0
  0
LINE
  5
153
330
11D
100
AcDbEntity
  8
レイヤー 1
 62
   250
420
  2299925
370
    25
100
AcDbLine
 10
115.9317396304089
 20
-145.7377215358395
 30
0.0
 11
116.4426314619311
 21
-146.1236084941121
 31
0.0
  0
LINE
  5
154
330
11D
100
AcDbEntity
  8
レイヤー 1
 62
   250
420
  2299925
370
    25
100
AcDbLine
 10
116.4426314619311
 20
-146.1236084941121
 30
0.0
 11
116.9317309670811
 21
-145.7100043575295
 31
0.0
  0
ENDBLK
  5
120
330
11D
100
AcDbEntity
  8
0
100
AcDbBlockEnd
  0
ENDSEC
  0
SECTION
  2
ENTITIES
  0
INSERT
  5
7A
330
70
100
AcDbEntity
  8
レイヤー 1
100
AcDbBlockReference
  2
Block_0
 10
0.0
 20
0.0
 30
0.0
  0
INSERT
  5
FB
330
70
100
AcDbEntity
  8
レイヤー 1
100
AcDbBlockReference
  2
Block_13
 10
0.0
 20
0.0
 30
0.0
  0
INSERT
  5
11E
330
70
100
AcDbEntity
  8
レイヤー 1
100
AcDbBlockReference
  2
Block_17
 10
0.0
 20
0.0
 30
0.0
  0
ENDSEC
  0
SECTION
  2
OBJECTS
  0
DICTIONARY
  5
C
330
0
100
AcDbDictionary
281
     1
  3
ACAD_COLOR
350
63
  3
ACAD_DETAILVIEWSTYLE
350
6A
  3
ACAD_GROUP
350
D
  3
ACAD_LAYOUT
350
62
  3
ACAD_MATERIAL
350
10
  3
ACAD_MLEADERSTYLE
350
66
  3
ACAD_MLINESTYLE
350
5F
  3
ACAD_PLOTSETTINGS
350
61
  3
ACAD_PLOTSTYLENAME
350
E
  3
ACAD_SCALELIST
350
42
  3
ACAD_SECTIONVIEWSTYLE
350
68
  3
ACAD_TABLESTYLE
350
64
  3
ACAD_VISUALSTYLE
350
29
  3
ACDB_RECOMPOSE_DATA
350
15D
  3
AcDbVariableDictionary
350
155
  0
DICTIONARY
  5
63
102
{ACAD_REACTORS
330
C
102
}
330
C
100
AcDbDictionary
281
     1
  0
DICTIONARY
  5
6A
102
{ACAD_REACTORS
330
C
102
}
330
C
100
AcDbDictionary
281
     1
  3
Imperial24
350
6B
  0
DICTIONARY
  5
D
102
{ACAD_REACTORS
330
C
102
}
330
C
100
AcDbDictionary
281
     1
  0
DICTIONARY
  5
62
102
{ACAD_REACTORS
330
C
102
}
330
C
100
AcDbDictionary
281
     1
  3
Layout1
350
6F
  3
Layout2
350
77
  3
Model
350
73
  0
DICTIONARY
  5
10
102
{ACAD_REACTORS
330
C
102
}
330
C
100
AcDbDictionary
281
     1
  3
ByBlock
350
19
  3
ByLayer
350
11
  3
Global
350
21
  0
DICTIONARY
  5
66
102
{ACAD_REACTORS
330
C
102
}
330
C
100
AcDbDictionary
281
     1
  3
Standard
350
67
  0
DICTIONARY
  5
5F
102
{ACAD_REACTORS
330
C
102
}
330
C
100
AcDbDictionary
281
     1
  3
Standard
350
60
  0
DICTIONARY
  5
61
102
{ACAD_REACTORS
330
C
102
}
330
C
100
AcDbDictionary
281
     1
  0
ACDBDICTIONARYWDFLT
  5
E
102
{ACAD_REACTORS
330
C
102
}
330
C
100
AcDbDictionary
281
     1
  3
Normal
350
F
100
AcDbDictionaryWithDefault
340
F
  0
DICTIONARY
  5
42
102
{ACAD_REACTORS
330
C
102
}
330
C
100
AcDbDictionary
281
     1
  3
A0
350
43
  3
A1
350
44
  3
A2
350
45
  3
A3
350
46
  3
A4
350
47
  3
A5
350
48
  3
A6
350
49
  3
A7
350
4A
  3
A8
350
4B
  3
A9
350
4C
  3
B0
350
4D
  3
B1
350
4E
  3
B2
350
4F
  3
B3
350
50
  3
B4
350
51
  3
B5
350
52
  3
B6
350
53
  0
DICTIONARY
  5
68
102
{ACAD_REACTORS
330
C
102
}
330
C
100
AcDbDictionary
281
     1
  3
Imperial24
350
69
  0
DICTIONARY
  5
64
102
{ACAD_REACTORS
330
C
102
}
330
C
100
AcDbDictionary
281
     1
  3
Standard
350
65
  0
DICTIONARY
  5
29
102
{ACAD_REACTORS
330
C
102
}
330
C
100
AcDbDictionary
281
     1
  3
2dWireframe
350
2F
  3
Basic
350
2E
  3
Brighten
350
35
  3
ColorChange
350
39
  3
Conceptual
350
32
  3
Dim
350
34
  3
EdgeColorOff
350
41
  3
Facepattern
350
38
  3
Flat
350
2A
  3
FlatWithEdges
350
2B
  3
Gouraud
350
2C
  3
GouraudWithEdges
350
2D
  3
Hidden
350
31
  3
JitterOff
350
3F
  3
Linepattern
350
37
  3
OverhangOff
350
40
  3
Realistic
350
33
  3
Shaded
350
3E
  3
Shaded with edges
350
3D
  3
Shades of Gray
350
3A
  3
Sketchy
350
3B
  3
Thicken
350
36
  3
Wireframe
350
30
  3
X-Ray
350
3C
  0
XRECORD
  5
15D
102
{ACAD_REACTORS
330
C
102
}
330
C
100
AcDbXrecord
280
     1
 90
        1
330
65
  0
DICTIONARY
  5
155
102
{ACAD_REACTORS
330
C
102
}
330
C
100
AcDbDictionary
281
     1
  3
CANNOSCALE
350
15A
  3
CMLEADERSTYLE
350
157
  3
CTABLESTYLE
350
156
  3
CVIEWDETAILSTYLE
350
158
  3
CVIEWSECTIONSTYLE
350
159
  0
ACDBDETAILVIEWSTYLE
  5
6B
102
{ACAD_XDICTIONARY
360
192
102
}
102
{ACAD_REACTORS
330
6A
102
}
330
6A
100
AcDbModelDocViewStyle
 70
     0
  3
Imperial24
290
     0
100
AcDbDetailViewStyle
 70
     0
 71
     0
 90
        3
 71
     1
340
55
 62
   256
 40
0.24
340
0
 62
   256
 40
0.24
300

 40
0.36
280
     3
 71
     2
340
5D
 90
       25
 62
   256
 71
     3
340
55
 62
   256
 40
0.24
 90
        1
 40
0.75
 90
        1
300
%<\AcVar ViewType \f "%tc1">% %<\AcVar ViewDetailId>%\PSCALE %<\AcVar ViewScale \f "%sn">%
 71
     4
340
5D
 90
       25
 62
   256
340
5D
 90
       25
 62
   256
280
     0
  0
LAYOUT
  5
6F
102
{ACAD_REACTORS
330
62
102
}
330
62
100
AcDbPlotSettings
  1

  2

  4

  6

 40
0.0
 41
0.0
 42
0.0
 43
0.0
 44
0.0
 45
0.0
 46
0.0
 47
0.0
 48
0.0
 49
0.0
140
0.0
141
0.0
142
1.0
143
1.0
 70
   688
 72
     0
 73
     0
 74
     5
  7

 75
    16
147
1.0
 76
     0
 77
     2
 78
   300
148
0.0
149
0.0
100
AcDbLayout
  1
Layout1
 70
     1
 71
     1
 10
0.0
 20
0.0
 11
12.0
 21
9.0
 12
0.0
 22
0.0
 32
0.0
 14
0.0
 24
0.0
 34
0.0
 15
0.0
 25
0.0
 35
0.0
146
0.0
 13
0.0
 23
0.0
 33
0.0
 16
1.0
 26
0.0
 36
0.0
 17
0.0
 27
1.0
 37
0.0
 76
     0
330
6C
  0
LAYOUT
  5
77
102
{ACAD_REACTORS
330
62
102
}
330
62
100
AcDbPlotSettings
  1

  2

  4

  6

 40
0.0
 41
0.0
 42
0.0
 43
0.0
 44
0.0
 45
0.0
 46
0.0
 47
0.0
 48
0.0
 49
0.0
140
0.0
141
0.0
142
1.0
143
1.0
 70
   688
 72
     0
 73
     0
 74
     5
  7

 75
    16
147
1.0
 76
     0
 77
     2
 78
   300
148
0.0
149
0.0
100
AcDbLayout
  1
Layout2
 70
     1
 71
     2
 10
0.0
 20
0.0
 11
12.0
 21
9.0
 12
0.0
 22
0.0
 32
0.0
 14
0.0
 24
0.0
 34
0.0
 15
0.0
 25
0.0
 35
0.0
146
0.0
 13
0.0
 23
0.0
 33
0.0
 16
1.0
 26
0.0
 36
0.0
 17
0.0
 27
1.0
 37
0.0
 76
     0
330
74
  0
LAYOUT
  5
73
102
{ACAD_REACTORS
330
62
102
}
330
62
100
AcDbPlotSettings
  1

  2

  4

  6

 40
0.0
 41
0.0
 42
0.0
 43
0.0
 44
0.0
 45
0.0
 46
0.0
 47
0.0
 48
0.0
 49
0.0
140
0.0
141
0.0
142
1.0
143
1.0
 70
  1712
 72
     0
 73
     0
 74
     0
  7

 75
     0
147
1.0
 76
     0
 77
     2
 78
   300
148
0.0
149
0.0
100
AcDbLayout
  1
Model
 70
     1
 71
     0
 10
0.0
 20
0.0
 11
12.0
 21
9.0
 12
0.0
 22
0.0
 32
0.0
 14
0.0
 24
0.0
 34
0.0
 15
0.0
 25
0.0
 35
0.0
146
0.0
 13
0.0
 23
0.0
 33
0.0
 16
1.0
 26
0.0
 36
0.0
 17
0.0
 27
1.0
 37
0.0
 76
     0
330
70
  0
MATERIAL
  5
19
102
{ACAD_XDICTIONARY
360
1A
102
}
102
{ACAD_REACTORS
330
10
102
}
330
10
100
AcDbMaterial
  1
ByBlock
 72
     0
 43
0.0208333333333333
 43
0.0
 43
0.0
 43
0.0
 43
0.0
 43
0.0208333333333333
 43
0.0
 43
0.0
 43
0.0
 43
0.0
 43
1.0
 43
0.0
 43
0.0
 43
0.0
 43
0.0
 43
1.0
 77
     0
 47
0.0208333333333333
 47
0.0
 47
0.0
 47
0.0
 47
0.0
 47
0.0208333333333333
 47
0.0
 47
0.0
 47
0.0
 47
0.0
 47
1.0
 47
0.0
 47
0.0
 47
0.0
 47
0.0
 47
1.0
171
     0
 49
0.0208333333333333
 49
0.0
 49
0.0
 49
0.0
 49
0.0
 49
0.0208333333333333
 49
0.0
 49
0.0
 49
0.0
 49
0.0
 49
1.0
 49
0.0
 49
0.0
 49
0.0
 49
0.0
 49
1.0
175
     0
142
0.0208333333333333
142
0.0
142
0.0
142
0.0
142
0.0
142
0.0208333333333333
142
0.0
142
0.0
142
0.0
142
0.0
142
1.0
142
0.0
142
0.0
142
0.0
142
0.0
142
1.0
179
     0
144
0.0208333333333333
144
0.0
144
0.0
144
0.0
144
0.0
144
0.0208333333333333
144
0.0
144
0.0
144
0.0
144
0.0
144
1.0
144
0.0
144
0.0
144
0.0
144
0.0
144
1.0
147
0.0208333333333333
147
0.0
147
0.0
147
0.0
147
0.0
147
0.0208333333333333
147
0.0
147
0.0
147
0.0
147
0.0
147
1.0
147
0.0
147
0.0
147
0.0
147
0.0
147
1.0
  0
MATERIAL
  5
11
102
{ACAD_XDICTIONARY
360
12
102
}
102
{ACAD_REACTORS
330
10
102
}
330
10
100
AcDbMaterial
  1
ByLayer
 72
     0
 43
0.0208333333333333
 43
0.0
 43
0.0
 43
0.0
 43
0.0
 43
0.0208333333333333
 43
0.0
 43
0.0
 43
0.0
 43
0.0
 43
1.0
 43
0.0
 43
0.0
 43
0.0
 43
0.0
 43
1.0
 77
     0
 47
0.0208333333333333
 47
0.0
 47
0.0
 47
0.0
 47
0.0
 47
0.0208333333333333
 47
0.0
 47
0.0
 47
0.0
 47
0.0
 47
1.0
 47
0.0
 47
0.0
 47
0.0
 47
0.0
 47
1.0
171
     0
 49
0.0208333333333333
 49
0.0
 49
0.0
 49
0.0
 49
0.0
 49
0.0208333333333333
 49
0.0
 49
0.0
 49
0.0
 49
0.0
 49
1.0
 49
0.0
 49
0.0
 49
0.0
 49
0.0
 49
1.0
175
     0
142
0.0208333333333333
142
0.0
142
0.0
142
0.0
142
0.0
142
0.0208333333333333
142
0.0
142
0.0
142
0.0
142
0.0
142
1.0
142
0.0
142
0.0
142
0.0
142
0.0
142
1.0
179
     0
144
0.0208333333333333
144
0.0
144
0.0
144
0.0
144
0.0
144
0.0208333333333333
144
0.0
144
0.0
144
0.0
144
0.0
144
1.0
144
0.0
144
0.0
144
0.0
144
0.0
144
1.0
147
0.0208333333333333
147
0.0
147
0.0
147
0.0
147
0.0
147
0.0208333333333333
147
0.0
147
0.0
147
0.0
147
0.0
147
1.0
147
0.0
147
0.0
147
0.0
147
0.0
147
1.0
  0
MATERIAL
  5
21
102
{ACAD_XDICTIONARY
360
22
102
}
102
{ACAD_REACTORS
330
10
102
}
330
10
100
AcDbMaterial
  1
Global
 72
     0
 43
0.0208333333333333
 43
0.0
 43
0.0
 43
0.0
 43
0.0
 43
0.0208333333333333
 43
0.0
 43
0.0
 43
0.0
 43
0.0
 43
1.0
 43
0.0
 43
0.0
 43
0.0
 43
0.0
 43
1.0
 77
     0
 47
0.0208333333333333
 47
0.0
 47
0.0
 47
0.0
 47
0.0
 47
0.0208333333333333
 47
0.0
 47
0.0
 47
0.0
 47
0.0
 47
1.0
 47
0.0
 47
0.0
 47
0.0
 47
0.0
 47
1.0
171
     0
 49
0.0208333333333333
 49
0.0
 49
0.0
 49
0.0
 49
0.0
 49
0.0208333333333333
 49
0.0
 49
0.0
 49
0.0
 49
0.0
 49
1.0
 49
0.0
 49
0.0
 49
0.0
 49
0.0
 49
1.0
175
     0
142
0.0208333333333333
142
0.0
142
0.0
142
0.0
142
0.0
142
0.0208333333333333
142
0.0
142
0.0
142
0.0
142
0.0
142
1.0
142
0.0
142
0.0
142
0.0
142
0.0
142
1.0
179
     0
144
0.0208333333333333
144
0.0
144
0.0
144
0.0
144
0.0
144
0.0208333333333333
144
0.0
144
0.0
144
0.0
144
0.0
144
1.0
144
0.0
144
0.0
144
0.0
144
0.0
144
1.0
147
0.0208333333333333
147
0.0
147
0.0
147
0.0
147
0.0
147
0.0208333333333333
147
0.0
147
0.0
147
0.0
147
0.0
147
1.0
147
0.0
147
0.0
147
0.0
147
0.0
147
1.0
  0
MLEADERSTYLE
  5
67
102
{ACAD_XDICTIONARY
360
18E
102
}
102
{ACAD_REACTORS
330
66
102
}
330
66
100
AcDbMLeaderStyle
179
     2
170
     2
171
     1
172
     0
 90
        2
 40
0.0
 41
0.0
173
     1
 91
-1056964608
340
5B
 92
       -2
290
     1
 42
0.09
291
     1
 43
0.36
  3
Standard
 44
0.18
300

342
55
174
     1
178
     6
175
     1
176
     0
 93
-1056964608
 45
0.18
292
     0
297
     0
 46
0.18
 94
-1056964608
 47
1.0
 49
1.0
140
1.0
293
     1
141
0.0
294
     1
177
     0
142
1.0
295
     0
296
     0
143
0.125
271
     0
272
     9
273
     9
  0
MLINESTYLE
  5
60
102
{ACAD_REACTORS
330
5F
102
}
330
5F
100
AcDbMlineStyle
  2
STANDARD
 70
     0
  3

 62
   256
 51
90.0
 52
90.0
 71
     2
 49
0.5
 62
   256
  6
BYLAYER
 49
-0.5
 62
   256
  6
BYLAYER
  0
ACDBPLACEHOLDER
  5
F
102
{ACAD_REACTORS
330
E
102
}
330
E
  0
SCALE
  5
43
102
{ACAD_REACTORS
330
42
102
}
330
42
100
AcDbScale
 70
     0
300
1:1
140
1.0
141
1.0
290
     1
  0
SCALE
  5
44
102
{ACAD_REACTORS
330
42
102
}
330
42
100
AcDbScale
 70
     0
300
1/128" = 1'-0"
140
0.0078125
141
12.0
290
     0
  0
SCALE
  5
45
102
{ACAD_REACTORS
330
42
102
}
330
42
100
AcDbScale
 70
     0
300
1/64" = 1'-0"
140
0.015625
141
12.0
290
     0
  0
SCALE
  5
46
102
{ACAD_REACTORS
330
42
102
}
330
42
100
AcDbScale
 70
     0
300
1/32" = 1'-0"
140
0.03125
141
12.0
290
     0
  0
SCALE
  5
47
102
{ACAD_REACTORS
330
42
102
}
330
42
100
AcDbScale
 70
     0
300
1/16" = 1'-0"
140
0.0625
141
12.0
290
     0
  0
SCALE
  5
48
102
{ACAD_REACTORS
330
42
102
}
330
42
100
AcDbScale
 70
     0
300
3/32" = 1'-0"
140
0.09375
141
12.0
290
     0
  0
SCALE
  5
49
102
{ACAD_REACTORS
330
42
102
}
330
42
100
AcDbScale
 70
     0
300
1/8" = 1'-0"
140
0.125
141
12.0
290
     0
  0
SCALE
  5
4A
102
{ACAD_REACTORS
330
42
102
}
330
42
100
AcDbScale
 70
     0
300
3/16" = 1'-0"
140
0.1875
141
12.0
290
     0
  0
SCALE
  5
4B
102
{ACAD_REACTORS
330
42
102
}
330
42
100
AcDbScale
 70
     0
300
1/4" = 1'-0"
140
0.25
141
12.0
290
     0
  0
SCALE
  5
4C
102
{ACAD_REACTORS
330
42
102
}
330
42
100
AcDbScale
 70
     0
300
3/8" = 1'-0"
140
0.375
141
12.0
290
     0
  0
SCALE
  5
4D
102
{ACAD_REACTORS
330
42
102
}
330
42
100
AcDbScale
 70
     0
300
1/2" = 1'-0"
140
0.5
141
12.0
290
     0
  0
SCALE
  5
4E
102
{ACAD_REACTORS
330
42
102
}
330
42
100
AcDbScale
 70
     0
300
3/4" = 1'-0"
140
0.75
141
12.0
290
     0
  0
SCALE
  5
4F
102
{ACAD_REACTORS
330
42
102
}
330
42
100
AcDbScale
 70
     0
300
1" = 1'-0"
140
1.0
141
12.0
290
     0
  0
SCALE
  5
50
102
{ACAD_REACTORS
330
42
102
}
330
42
100
AcDbScale
 70
     0
300
1-1/2" = 1'-0"
140
1.5
141
12.0
290
     0
  0
SCALE
  5
51
102
{ACAD_REACTORS
330
42
102
}
330
42
100
AcDbScale
 70
     0
300
3" = 1'-0"
140
3.0
141
12.0
290
     0
  0
SCALE
  5
52
102
{ACAD_REACTORS
330
42
102
}
330
42
100
AcDbScale
 70
     0
300
6" = 1'-0"
140
6.0
141
12.0
290
     0
  0
SCALE
  5
53
102
{ACAD_REACTORS
330
42
102
}
330
42
100
AcDbScale
 70
     0
300
1'-0" = 1'-0"
140
12.0
141
12.0
290
     0
  0
ACDBSECTIONVIEWSTYLE
  5
69
102
{ACAD_XDICTIONARY
360
190
102
}
102
{ACAD_REACTORS
330
68
102
}
330
68
100
AcDbModelDocViewStyle
 70
     0
  3
Imperial24
290
     0
100
AcDbSectionViewStyle
 70
     0
 71
     0
 90
       78
 71
     1
340
55
 62
   256
 40
0.24
340
0
340
0
 62
   256
 40
0.24
300
I, O, Q, S, X, Z
 40
0.48
 90
        3
 40
0.18
 90
        1
 71
     2
340
5D
 90
       25
 62
   256
340
5D
 90
       50
 62
   256
 40
0.24
 40
0.0
 40
0.24
 71
     3
340
55
 62
   256
 40
0.24
 90
        1
 40
0.75
 90
        1
300
%<\AcVar ViewType \f "%tc1">% %<\AcVar ViewSectionStartId>%-%<\AcVar ViewSectionEndId>%\PSCALE %<\AcVar ViewScale \f "%sn">%
 71
     4
 62
   256
 62
   257
300
ANSI31
 40
1.0
 90
        0
290
     0
290
     0
 90
        6
 40
0.0
 40
1.570796326794896
 40
0.2617993877991494
 40
1.308996938995747
 40
-0.2617993877991494
 40
1.832595714594046
  0
TABLESTYLE
  5
65
102
{ACAD_XDICTIONARY
360
15B
102
}
102
{ACAD_REACTORS
330
64
102
}
330
64
100
AcDbTableStyle
280
     0
  3
Standard
 70
     0
 71
     0
 40
0.06
 41
0.06
280
     0
281
     0
  7
Standard
140
0.18
170
     2
 62
     0
 63
     7
283
     0
 90
      512
 91
        0
  1

274
    -2
284
     1
 64
     0
275
    -2
285
     1
 65
     0
276
    -2
286
     1
 66
     0
277
    -2
287
     1
 67
     0
278
    -2
288
     1
 68
     0
279
    -2
289
     1
 69
     0
  7
Standard
140
0.25
170
     5
 62
     0
 63
     7
283
     0
 90
      512
 91
        0
  1

274
    -2
284
     1
 64
     0
275
    -2
285
     1
 65
     0
276
    -2
286
     1
 66
     0
277
    -2
287
     1
 67
     0
278
    -2
288
     1
 68
     0
279
    -2
289
     1
 69
     0
  7
Standard
140
0.18
170
     5
 62
     0
 63
     7
283
     0
 90
      512
 91
        0
  1

274
    -2
284
     1
 64
     0
275
    -2
285
     1
 65
     0
276
    -2
286
     1
 66
     0
277
    -2
287
     1
 67
     0
278
    -2
288
     1
 68
     0
279
    -2
289
     1
 69
     0
  0
VISUALSTYLE
  5
2F
102
{ACAD_XDICTIONARY
360
168
102
}
102
{ACAD_REACTORS
330
29
102
}
330
29
100
AcDbVisualStyle
  2
2dWireframe
 70
     4
177
     2
291
     0
 71
     0
176
     1
 72
     2
176
     1
 73
     0
176
     1
 90
        0
176
     1
 40
0.6
176
     1
 41
30.0
176
     1
 63
     7
421
 16777215
176
     1
 74
     1
176
     1
 91
        4
176
     1
 64
     7
176
     1
 65
   257
176
     1
 75
     1
176
     1
175
     1
176
     1
 42
1.0
176
     1
 92
        0
176
     1
 66
   257
176
     1
 43
1.0
176
     1
 76
     1
176
     1
 77
     6
176
     1
 78
     2
176
     1
 67
     7
176
     1
 79
     5
176
     1
170
     0
176
     1
171
     0
176
     1
290
     0
176
     1
 93
        1
176
     1
 44
0.0
176
     1
173
     0
176
     1
1001
ACAD
1000
AcDbSavedByObjectVersion
1070
     0
  0
VISUALSTYLE
  5
2E
102
{ACAD_XDICTIONARY
360
166
102
}
102
{ACAD_REACTORS
330
29
102
}
330
29
100
AcDbVisualStyle
  2
Basic
 70
     7
177
     2
291
     1
 71
     1
176
     1
 72
     0
176
     1
 73
     1
176
     1
 90
        0
176
     1
 40
0.6
176
     1
 41
30.0
176
     1
 63
     7
421
 16777215
176
     1
 74
     0
176
     1
 91
        4
176
     1
 64
     7
176
     1
 65
   257
176
     1
 75
     1
176
     1
175
     1
176
     1
 42
1.0
176
     1
 92
        8
176
     1
 66
     7
176
     1
 43
1.0
176
     1
 76
     1
176
     1
 77
     6
176
     1
 78
     2
176
     1
 67
     7
176
     1
 79
     5
176
     1
170
     0
176
     1
171
     0
176
     1
290
     0
176
     1
 93
        1
176
     1
 44
0.0
176
     1
173
     0
176
     1
1001
ACAD
1000
AcDbSavedByObjectVersion
1070
     0
  0
VISUALSTYLE
  5
35
102
{ACAD_XDICTIONARY
360
174
102
}
102
{ACAD_REACTORS
330
29
102
}
330
29
100
AcDbVisualStyle
  2
Brighten
 70
    12
177
     2
291
     1
 71
     2
176
     1
 72
     2
176
     1
 73
     0
176
     1
 90
        0
176
     1
 40
0.6
176
     1
 41
30.0
176
     1
 63
     7
421
 16777215
176
     1
 74
     1
176
     1
 91
        4
176
     1
 64
     7
176
     1
 65
   257
176
     1
 75
     1
176
     1
175
     1
176
     1
 42
1.0
176
     1
 92
        8
176
     1
 66
     7
176
     1
 43
1.0
176
     1
 76
     1
176
     1
 77
     6
176
     1
 78
     2
176
     1
 67
     7
176
     1
 79
     5
176
     1
170
     0
176
     1
171
     0
176
     1
290
     0
176
     1
 93
        1
176
     1
 44
50.0
176
     1
173
     0
176
     1
1001
ACAD
1000
AcDbSavedByObjectVersion
1070
     0
  0
VISUALSTYLE
  5
39
102
{ACAD_XDICTIONARY
360
17C
102
}
102
{ACAD_REACTORS
330
29
102
}
330
29
100
AcDbVisualStyle
  2
ColorChange
 70
    16
177
     2
291
     1
 71
     2
176
     1
 72
     2
176
     1
 73
     3
176
     1
 90
        0
176
     1
 40
0.6
176
     1
 41
30.0
176
     1
 63
     8
421
  8421504
176
     1
 74
     1
176
     1
 91
        4
176
     1
 64
     7
176
     1
 65
   257
176
     1
 75
     1
176
     1
175
     1
176
     1
 42
1.0
176
     1
 92
        8
176
     1
 66
     8
424
  8421504
176
     1
 43
1.0
176
     1
 76
     1
176
     1
 77
     6
176
     1
 78
     2
176
     1
 67
     7
176
     1
 79
     5
176
     1
170
     0
176
     1
171
     0
176
     1
290
     0
176
     1
 93
        1
176
     1
 44
0.0
176
     1
173
     0
176
     1
1001
ACAD
1000
AcDbSavedByObjectVersion
1070
     0
  0
VISUALSTYLE
  5
32
102
{ACAD_XDICTIONARY
360
16E
102
}
102
{ACAD_REACTORS
330
29
102
}
330
29
100
AcDbVisualStyle
  2
Conceptual
 70
     9
177
     2
291
     0
 71
     3
176
     1
 72
     2
176
     1
 73
     0
176
     1
 90
        0
176
     1
 40
0.6
176
     1
 41
30.0
176
     1
 63
     7
421
 16777215
176
     1
 74
     2
176
     1
 91
        2
176
     1
 64
     7
176
     1
 65
   257
176
     1
 75
     1
176
     1
175
     1
176
     1
 42
179.0
176
     1
 92
        8
176
     1
 66
     7
176
     1
 43
1.0
176
     1
 76
     1
176
     1
 77
     6
176
     1
 78
     2
176
     1
 67
     7
176
     1
 79
     3
176
     1
170
     0
176
     1
171
     0
176
     1
290
     0
176
     1
 93
        1
176
     1
 44
0.0
176
     1
173
     0
176
     1
1001
ACAD
1000
AcDbSavedByObjectVersion
1070
     0
  0
VISUALSTYLE
  5
34
102
{ACAD_XDICTIONARY
360
172
102
}
102
{ACAD_REACTORS
330
29
102
}
330
29
100
AcDbVisualStyle
  2
Dim
 70
    11
177
     2
291
     1
 71
     2
176
     1
 72
     2
176
     1
 73
     0
176
     1
 90
        0
176
     1
 40
0.6
176
     1
 41
30.0
176
     1
 63
     7
421
 16777215
176
     1
 74
     1
176
     1
 91
        4
176
     1
 64
     7
176
     1
 65
   257
176
     1
 75
     1
176
     1
175
     1
176
     1
 42
1.0
176
     1
 92
        8
176
     1
 66
     7
176
     1
 43
1.0
176
     1
 76
     1
176
     1
 77
     6
176
     1
 78
     2
176
     1
 67
     7
176
     1
 79
     5
176
     1
170
     0
176
     1
171
     0
176
     1
290
     0
176
     1
 93
        1
176
     1
 44
-50.0
176
     1
173
     0
176
     1
1001
ACAD
1000
AcDbSavedByObjectVersion
1070
     0
  0
VISUALSTYLE
  5
41
102
{ACAD_XDICTIONARY
360
18C
102
}
102
{ACAD_REACTORS
330
29
102
}
330
29
100
AcDbVisualStyle
  2
EdgeColorOff
 70
    22
177
     2
291
     1
 71
     2
176
     0
 72
     2
176
     0
 73
     0
176
     0
 90
        0
176
     0
 40
0.6
176
     0
 41
30.0
176
     0
 63
     7
421
 16777215
176
     0
 74
     1
176
     0
 91
        4
176
     0
 64
     7
176
     0
 65
   257
176
     0
 75
     1
176
     0
175
     1
176
     0
 42
1.0
176
     0
 92
        8
176
     2
 66
     7
176
     0
 43
1.0
176
     0
 76
     1
176
     0
 77
     6
176
     0
 78
     2
176
     0
 67
     7
176
     0
 79
     5
176
     0
170
     0
176
     0
171
     0
176
     0
290
     0
176
     0
 93
        1
176
     0
 44
0.0
176
     0
173
     0
176
     0
1001
ACAD
1000
AcDbSavedByObjectVersion
1070
     0
  0
VISUALSTYLE
  5
38
102
{ACAD_XDICTIONARY
360
17A
102
}
102
{ACAD_REACTORS
330
29
102
}
330
29
100
AcDbVisualStyle
  2
Facepattern
 70
    15
177
     2
291
     1
 71
     2
176
     1
 72
     2
176
     1
 73
     0
176
     1
 90
        0
176
     1
 40
0.6
176
     1
 41
30.0
176
     1
 63
     7
421
 16777215
176
     1
 74
     1
176
     1
 91
        4
176
     1
 64
     7
176
     1
 65
   257
176
     1
 75
     1
176
     1
175
     1
176
     1
 42
1.0
176
     1
 92
        8
176
     1
 66
     7
176
     1
 43
1.0
176
     1
 76
     1
176
     1
 77
     6
176
     1
 78
     2
176
     1
 67
     7
176
     1
 79
     5
176
     1
170
     0
176
     1
171
     0
176
     1
290
     0
176
     1
 93
        1
176
     1
 44
0.0
176
     1
173
     0
176
     1
1001
ACAD
1000
AcDbSavedByObjectVersion
1070
     0
  0
VISUALSTYLE
  5
2A
102
{ACAD_XDICTIONARY
360
15E
102
}
102
{ACAD_REACTORS
330
29
102
}
330
29
100
AcDbVisualStyle
  2
Flat
 70
     0
177
     2
291
     1
 71
     2
176
     1
 72
     1
176
     1
 73
     1
176
     1
 90
        2
176
     1
 40
0.6
176
     1
 41
30.0
176
     1
 63
     7
421
 16777215
176
     1
 74
     0
176
     1
 91
        0
176
     1
 64
     7
176
     1
 65
   257
176
     1
 75
     1
176
     1
175
     1
176
     1
 42
1.0
176
     1
 92
        8
176
     1
 66
     7
176
     1
 43
1.0
176
     1
 76
     1
176
     1
 77
     6
176
     1
 78
     2
176
     1
 67
     7
176
     1
 79
     5
176
     1
170
     0
176
     1
171
     0
176
     1
290
     0
176
     1
 93
       13
176
     1
 44
0.0
176
     1
173
     0
176
     1
1001
ACAD
1000
AcDbSavedByObjectVersion
1070
     0
  0
VISUALSTYLE
  5
2B
102
{ACAD_XDICTIONARY
360
160
102
}
102
{ACAD_REACTORS
330
29
102
}
330
29
100
AcDbVisualStyle
  2
FlatWithEdges
 70
     1
177
     2
291
     1
 71
     2
176
     1
 72
     1
176
     1
 73
     1
176
     1
 90
        2
176
     1
 40
0.6
176
     1
 41
30.0
176
     1
 63
     7
421
 16777215
176
     1
 74
     1
176
     1
 91
        0
176
     1
 64
     7
176
     1
 65
   257
176
     1
 75
     1
176
     1
175
     1
176
     1
 42
1.0
176
     1
 92
        0
176
     1
 66
   257
176
     1
 43
1.0
176
     1
 76
     1
176
     1
 77
     6
176
     1
 78
     2
176
     1
 67
     7
176
     1
 79
     5
176
     1
170
     0
176
     1
171
     0
176
     1
290
     0
176
     1
 93
       13
176
     1
 44
0.0
176
     1
173
     0
176
     1
1001
ACAD
1000
AcDbSavedByObjectVersion
1070
     0
  0
VISUALSTYLE
  5
2C
102
{ACAD_XDICTIONARY
360
162
102
}
102
{ACAD_REACTORS
330
29
102
}
330
29
100
AcDbVisualStyle
  2
Gouraud
 70
     2
177
     2
291
     1
 71
     2
176
     1
 72
     2
176
     1
 73
     1
176
     1
 90
        2
176
     1
 40
0.6
176
     1
 41
30.0
176
     1
 63
     7
421
 16777215
176
     1
 74
     0
176
     1
 91
        0
176
     1
 64
     7
176
     1
 65
   257
176
     1
 75
     1
176
     1
175
     1
176
     1
 42
1.0
176
     1
 92
        0
176
     1
 66
     7
176
     1
 43
1.0
176
     1
 76
     1
176
     1
 77
     6
176
     1
 78
     2
176
     1
 67
     7
176
     1
 79
     5
176
     1
170
     0
176
     1
171
     0
176
     1
290
     0
176
     1
 93
       13
176
     1
 44
0.0
176
     1
173
     0
176
     1
1001
ACAD
1000
AcDbSavedByObjectVersion
1070
     0
  0
VISUALSTYLE
  5
2D
102
{ACAD_XDICTIONARY
360
164
102
}
102
{ACAD_REACTORS
330
29
102
}
330
29
100
AcDbVisualStyle
  2
GouraudWithEdges
 70
     3
177
     2
291
     1
 71
     2
176
     1
 72
     2
176
     1
 73
     1
176
     1
 90
        2
176
     1
 40
0.6
176
     1
 41
30.0
176
     1
 63
     7
421
 16777215
176
     1
 74
     1
176
     1
 91
        0
176
     1
 64
     7
176
     1
 65
   257
176
     1
 75
     1
176
     1
175
     1
176
     1
 42
1.0
176
     1
 92
        0
176
     1
 66
   257
176
     1
 43
1.0
176
     1
 76
     1
176
     1
 77
     6
176
     1
 78
     2
176
     1
 67
     7
176
     1
 79
     5
176
     1
170
     0
176
     1
171
     0
176
     1
290
     0
176
     1
 93
       13
176
     1
 44
0.0
176
     1
173
     0
176
     1
1001
ACAD
1000
AcDbSavedByObjectVersion
1070
     0
  0
VISUALSTYLE
  5
31
102
{ACAD_XDICTIONARY
360
16C
102
}
102
{ACAD_REACTORS
330
29
102
}
330
29
100
AcDbVisualStyle
  2
Hidden
 70
     6
177
     2
291
     0
 71
     1
176
     1
 72
     2
176
     1
 73
     2
176
     1
 90
        0
176
     1
 40
0.6
176
     1
 41
30.0
176
     1
 63
     7
421
 16777215
176
     1
 74
     2
176
     1
 91
        2
176
     1
 64
     7
176
     1
 65
   257
176
     1
 75
     2
176
     1
175
     1
176
     1
 42
40.0
176
     1
 92
        0
176
     1
 66
   257
176
     1
 43
1.0
176
     1
 76
     1
176
     1
 77
     6
176
     1
 78
     2
176
     1
 67
     7
176
     1
 79
     3
176
     1
170
     0
176
     1
171
     0
176
     1
290
     0
176
     1
 93
        1
176
     1
 44
0.0
176
     1
173
     0
176
     1
1001
ACAD
1000
AcDbSavedByObjectVersion
1070
     0
  0
VISUALSTYLE
  5
3F
102
{ACAD_XDICTIONARY
360
188
102
}
102
{ACAD_REACTORS
330
29
102
}
330
29
100
AcDbVisualStyle
  2
JitterOff
 70
    20
177
     2
291
     1
 71
     2
176
     0
 72
     2
176
     0
 73
     0
176
     0
 90
        0
176
     0
 40
0.6
176
     0
 41
30.0
176
     0
 63
     7
421
 16777215
176
     0
 74
     1
176
     0
 91
        4
176
     0
 64
     7
176
     0
 65
   257
176
     0
 75
     1
176
     0
175
     1
176
     0
 42
1.0
176
     0
 92
       10
176
     2
 66
     7
176
     0
 43
1.0
176
     0
 76
     1
176
     0
 77
     6
176
     0
 78
     2
176
     0
 67
     7
176
     0
 79
     5
176
     0
170
     0
176
     0
171
     0
176
     0
290
     0
176
     0
 93
        1
176
     0
 44
0.0
176
     0
173
     0
176
     0
1001
ACAD
1000
AcDbSavedByObjectVersion
1070
     0
  0
VISUALSTYLE
  5
37
102
{ACAD_XDICTIONARY
360
178
102
}
102
{ACAD_REACTORS
330
29
102
}
330
29
100
AcDbVisualStyle
  2
Linepattern
 70
    14
177
     2
291
     1
 71
     2
176
     1
 72
     2
176
     1
 73
     0
176
     1
 90
        0
176
     1
 40
0.6
176
     1
 41
30.0
176
     1
 63
     7
421
 16777215
176
     1
 74
     1
176
     1
 91
        4
176
     1
 64
     7
176
     1
 65
   257
176
     1
 75
     7
176
     1
175
     7
176
     1
 42
1.0
176
     1
 92
        8
176
     1
 66
     7
176
     1
 43
1.0
176
     1
 76
     1
176
     1
 77
     6
176
     1
 78
     2
176
     1
 67
     7
176
     1
 79
     5
176
     1
170
     0
176
     1
171
     0
176
     1
290
     0
176
     1
 93
        1
176
     1
 44
0.0
176
     1
173
     0
176
     1
1001
ACAD
1000
AcDbSavedByObjectVersion
1070
     0
  0
VISUALSTYLE
  5
40
102
{ACAD_XDICTIONARY
360
18A
102
}
102
{ACAD_REACTORS
330
29
102
}
330
29
100
AcDbVisualStyle
  2
OverhangOff
 70
    21
177
     2
291
     1
 71
     2
176
     0
 72
     2
176
     0
 73
     0
176
     0
 90
        0
176
     0
 40
0.6
176
     0
 41
30.0
176
     0
 63
     7
421
 16777215
176
     0
 74
     1
176
     0
 91
        4
176
     0
 64
     7
176
     0
 65
   257
176
     0
 75
     1
176
     0
175
     1
176
     0
 42
1.0
176
     0
 92
        9
176
     2
 66
     7
176
     0
 43
1.0
176
     0
 76
     1
176
     0
 77
     6
176
     0
 78
     2
176
     0
 67
     7
176
     0
 79
     5
176
     0
170
     0
176
     0
171
     0
176
     0
290
     0
176
     0
 93
        1
176
     0
 44
0.0
176
     0
173
     0
176
     0
1001
ACAD
1000
AcDbSavedByObjectVersion
1070
     0
  0
VISUALSTYLE
  5
33
102
{ACAD_XDICTIONARY
360
170
102
}
102
{ACAD_REACTORS
330
29
102
}
330
29
100
AcDbVisualStyle
  2
Realistic
 70
     8
177
     2
291
     0
 71
     2
176
     1
 72
     3
176
     1
 73
     0
176
     1
 90
        2
176
     1
 40
0.6
176
     1
 41
30.0
176
     1
 63
     7
421
 16777215
176
     1
 74
     0
176
     1
 91
        0
176
     1
 64
     7
176
     1
 65
   257
176
     1
 75
     1
176
     1
175
     1
176
     1
 42
1.0
176
     1
 92
        8
176
     1
 66
   257
176
     1
 43
1.0
176
     1
 76
     1
176
     1
 77
     6
176
     1
 78
     2
176
     1
 67
     7
176
     1
 79
     3
176
     1
170
     0
176
     1
171
     0
176
     1
290
     0
176
     1
 93
       13
176
     1
 44
0.0
176
     1
173
     0
176
     1
1001
ACAD
1000
AcDbSavedByObjectVersion
1070
     0
  0
VISUALSTYLE
  5
3E
102
{ACAD_XDICTIONARY
360
186
102
}
102
{ACAD_REACTORS
330
29
102
}
330
29
100
AcDbVisualStyle
  2
Shaded
 70
    27
177
     2
291
     0
 71
     2
176
     1
 72
     2
176
     1
 73
     1
176
     1
 90
        2
176
     1
 40
0.6
176
     1
 41
30.0
176
     1
 63
     7
421
 16777215
176
     1
 74
     0
176
     1
 91
        4
176
     1
 64
     7
176
     1
 65
   257
176
     1
 75
     1
176
     1
175
     1
176
     1
 42
1.0
176
     1
 92
        8
176
     1
 66
   257
176
     1
 43
1.0
176
     1
 76
     1
176
     1
 77
     6
176
     1
 78
     2
176
     1
 67
     8
425
  7895160
176
     1
 79
     3
176
     1
170
     0
176
     1
171
     0
176
     1
290
     0
176
     1
 93
        5
176
     1
 44
0.0
176
     1
173
     0
176
     1
1001
ACAD
1000
AcDbSavedByObjectVersion
1070
     0
  0
VISUALSTYLE
  5
3D
102
{ACAD_XDICTIONARY
360
184
102
}
102
{ACAD_REACTORS
330
29
102
}
330
29
100
AcDbVisualStyle
  2
Shaded with edges
 70
    26
177
     2
291
     0
 71
     2
176
     1
 72
     2
176
     1
 73
     1
176
     1
 90
        2
176
     1
 40
0.6
176
     1
 41
30.0
176
     1
 63
     7
421
 16777215
176
     1
 74
     1
176
     1
 91
        2
176
     1
 64
     7
176
     1
 65
   257
176
     1
 75
     2
176
     1
175
     1
176
     1
 42
1.0
176
     1
 92
        8
176
     1
 66
   257
176
     1
 43
1.0
176
     1
 76
     1
176
     1
 77
     6
176
     1
 78
     2
176
     1
 67
     7
176
     1
 79
     3
176
     1
170
     0
176
     1
171
     0
176
     1
290
     0
176
     1
 93
        5
176
     1
 44
0.0
176
     1
173
     0
176
     1
1001
ACAD
1000
AcDbSavedByObjectVersion
1070
     0
  0
VISUALSTYLE
  5
3A
102
{ACAD_XDICTIONARY
360
17E
102
}
102
{ACAD_REACTORS
330
29
102
}
330
29
100
AcDbVisualStyle
  2
Shades of Gray
 70
    23
177
     2
291
     0
 71
     2
176
     1
 72
     2
176
     1
 73
     3
176
     1
 90
        0
176
     1
 40
0.6
176
     1
 41
30.0
176
     1
 63
     7
421
 16777215
176
     1
 74
     2
176
     1
 91
        2
176
     1
 64
     7
176
     1
 65
     7
176
     1
 75
     1
176
     1
175
     1
176
     1
 42
40.0
176
     1
 92
        8
176
     1
 66
     7
176
     1
 43
1.0
176
     1
 76
     1
176
     1
 77
     6
176
     1
 78
     2
176
     1
 67
     7
176
     1
 79
     3
176
     1
170
     0
176
     1
171
     0
176
     1
290
     0
176
     1
 93
        1
176
     1
 44
0.0
176
     1
173
     0
176
     1
1001
ACAD
1000
AcDbSavedByObjectVersion
1070
     0
  0
VISUALSTYLE
  5
3B
102
{ACAD_XDICTIONARY
360
180
102
}
102
{ACAD_REACTORS
330
29
102
}
330
29
100
AcDbVisualStyle
  2
Sketchy
 70
    24
177
     2
291
     0
 71
     1
176
     1
 72
     2
176
     1
 73
     2
176
     1
 90
        0
176
     1
 40
0.6
176
     1
 41
30.0
176
     1
 63
     7
421
 16777215
176
     1
 74
     2
176
     1
 91
        2
176
     1
 64
     7
176
     1
 65
     7
176
     1
 75
     1
176
     1
175
     1
176
     1
 42
40.0
176
     1
 92
       11
176
     1
 66
     7
176
     1
 43
1.0
176
     1
 76
     1
176
     1
 77
     6
176
     1
 78
     2
176
     1
 67
     7
176
     1
 79
     6
176
     1
170
     0
176
     1
171
     0
176
     1
290
     0
176
     1
 93
        1
176
     1
 44
0.0
176
     1
173
     0
176
     1
1001
ACAD
1000
AcDbSavedByObjectVersion
1070
     0
  0
VISUALSTYLE
  5
36
102
{ACAD_XDICTIONARY
360
176
102
}
102
{ACAD_REACTORS
330
29
102
}
330
29
100
AcDbVisualStyle
  2
Thicken
 70
    13
177
     2
291
     1
 71
     2
176
     1
 72
     2
176
     1
 73
     0
176
     1
 90
        0
176
     1
 40
0.6
176
     1
 41
30.0
176
     1
 63
     7
421
 16777215
176
     1
 74
     1
176
     1
 91
        4
176
     1
 64
     7
176
     1
 65
   257
176
     1
 75
     1
176
     1
175
     1
176
     1
 42
1.0
176
     1
 92
       12
176
     1
 66
     7
176
     1
 43
1.0
176
     1
 76
     1
176
     1
 77
     6
176
     1
 78
     2
176
     1
 67
     7
176
     1
 79
     5
176
     1
170
     0
176
     1
171
     0
176
     1
290
     0
176
     1
 93
        1
176
     1
 44
0.0
176
     1
173
     0
176
     1
1001
ACAD
1000
AcDbSavedByObjectVersion
1070
     0
  0
VISUALSTYLE
  5
30
102
{ACAD_XDICTIONARY
360
16A
102
}
102
{ACAD_REACTORS
330
29
102
}
330
29
100
AcDbVisualStyle
  2
Wireframe
 70
     5
177
     2
291
     0
 71
     0
176
     1
 72
     2
176
     1
 73
     0
176
     1
 90
        0
176
     1
 40
0.6
176
     1
 41
30.0
176
     1
 63
     7
421
 16777215
176
     1
 74
     1
176
     1
 91
        4
176
     1
 64
     7
176
     1
 65
   257
176
     1
 75
     1
176
     1
175
     1
176
     1
 42
1.0
176
     1
 92
        0
176
     1
 66
   257
176
     1
 43
1.0
176
     1
 76
     1
176
     1
 77
     6
176
     1
 78
     2
176
     1
 67
     7
176
     1
 79
     3
176
     1
170
     0
176
     1
171
     0
176
     1
290
     0
176
     1
 93
        1
176
     1
 44
0.0
176
     1
173
     0
176
     1
1001
ACAD
1000
AcDbSavedByObjectVersion
1070
     0
  0
VISUALSTYLE
  5
3C
102
{ACAD_XDICTIONARY
360
182
102
}
102
{ACAD_REACTORS
330
29
102
}
330
29
100
AcDbVisualStyle
  2
X-Ray
 70
    25
177
     2
291
     0
 71
     2
176
     1
 72
     2
176
     1
 73
     1
176
     1
 90
        1
176
     1
 40
0.5
176
     1
 41
30.0
176
     1
 63
     7
421
 16777215
176
     1
 74
     1
176
     1
 91
        0
176
     1
 64
     7
176
     1
 65
   257
176
     1
 75
     1
176
     1
175
     1
176
     1
 42
1.0
176
     1
 92
        8
176
     1
 66
     7
176
     1
 43
1.0
176
     1
 76
     1
176
     1
 77
     6
176
     1
 78
     2
176
     1
 67
     7
176
     1
 79
     3
176
     1
170
     0
176
     1
171
     0
176
     1
290
     0
176
     1
 93
       13
176
     1
 44
0.0
176
     1
173
     0
176
     1
1001
ACAD
1000
AcDbSavedByObjectVersion
1070
     0
  0
DICTIONARYVAR
  5
15A
102
{ACAD_REACTORS
330
155
102
}
330
155
100
DictionaryVariables
280
     0
  1
1:1
  0
DICTIONARYVAR
  5
157
102
{ACAD_REACTORS
330
155
102
}
330
155
100
DictionaryVariables
280
     0
  1
STANDARD
  0
DICTIONARYVAR
  5
156
102
{ACAD_REACTORS
330
155
102
}
330
155
100
DictionaryVariables
280
     0
  1
STANDARD
  0
DICTIONARYVAR
  5
158
102
{ACAD_REACTORS
330
155
102
}
330
155
100
DictionaryVariables
280
     0
  1
Imperial24
  0
DICTIONARYVAR
  5
159
102
{ACAD_REACTORS
330
155
102
}
330
155
100
DictionaryVariables
280
     0
  1
Imperial24
  0
DICTIONARY
  5
192
330
6B
100
AcDbDictionary
280
     1
281
     1
  3
ACAD_XREC_ROUNDTRIP
360
193
  0
DICTIONARY
  5
1A
330
19
100
AcDbDictionary
280
     1
281
     1
  3
BUMPTILE
360
1C
  3
DIFFUSETILE
360
1B
  3
OPACITYTILE
360
1F
  3
REFLECTIONTILE
360
1E
  3
REFRACTIONTILE
360
20
  3
SPECULARTILE
360
1D
  0
DICTIONARY
  5
12
330
11
100
AcDbDictionary
280
     1
281
     1
  3
BUMPTILE
360
14
  3
DIFFUSETILE
360
13
  3
OPACITYTILE
360
17
  3
REFLECTIONTILE
360
16
  3
REFRACTIONTILE
360
18
  3
SPECULARTILE
360
15
  0
DICTIONARY
  5
22
330
21
100
AcDbDictionary
280
     1
281
     1
  3
BUMPTILE
360
24
  3
DIFFUSETILE
360
23
  3
OPACITYTILE
360
27
  3
REFLECTIONTILE
360
26
  3
REFRACTIONTILE
360
28
  3
SPECULARTILE
360
25
  0
DICTIONARY
  5
18E
330
67
100
AcDbDictionary
280
     1
281
     1
  3
ACAD_XREC_ROUNDTRIP
360
18F
  0
DICTIONARY
  5
190
330
69
100
AcDbDictionary
280
     1
281
     1
  3
ACAD_XREC_ROUNDTRIP
360
191
  0
DICTIONARY
  5
15B
330
65
100
AcDbDictionary
280
     1
281
     1
  3
ACAD_ROUNDTRIP_2008_TABLESTYLE_CELLSTYLEMAP
360
15C
  0
DICTIONARY
  5
168
330
2F
100
AcDbDictionary
280
     1
281
     1
  3
ACAD_XREC_ROUNDTRIP
360
169
  0
DICTIONARY
  5
166
330
2E
100
AcDbDictionary
280
     1
281
     1
  3
ACAD_XREC_ROUNDTRIP
360
167
  0
DICTIONARY
  5
174
330
35
100
AcDbDictionary
280
     1
281
     1
  3
ACAD_XREC_ROUNDTRIP
360
175
  0
DICTIONARY
  5
17C
330
39
100
AcDbDictionary
280
     1
281
     1
  3
ACAD_XREC_ROUNDTRIP
360
17D
  0
DICTIONARY
  5
16E
330
32
100
AcDbDictionary
280
     1
281
     1
  3
ACAD_XREC_ROUNDTRIP
360
16F
  0
DICTIONARY
  5
172
330
34
100
AcDbDictionary
280
     1
281
     1
  3
ACAD_XREC_ROUNDTRIP
360
173
  0
DICTIONARY
  5
18C
330
41
100
AcDbDictionary
280
     1
281
     1
  3
ACAD_XREC_ROUNDTRIP
360
18D
  0
DICTIONARY
  5
17A
330
38
100
AcDbDictionary
280
     1
281
     1
  3
ACAD_XREC_ROUNDTRIP
360
17B
  0
DICTIONARY
  5
15E
330
2A
100
AcDbDictionary
280
     1
281
     1
  3
ACAD_XREC_ROUNDTRIP
360
15F
  0
DICTIONARY
  5
160
330
2B
100
AcDbDictionary
280
     1
281
     1
  3
ACAD_XREC_ROUNDTRIP
360
161
  0
DICTIONARY
  5
162
330
2C
100
AcDbDictionary
280
     1
281
     1
  3
ACAD_XREC_ROUNDTRIP
360
163
  0
DICTIONARY
  5
164
330
2D
100
AcDbDictionary
280
     1
281
     1
  3
ACAD_XREC_ROUNDTRIP
360
165
  0
DICTIONARY
  5
16C
330
31
100
AcDbDictionary
280
     1
281
     1
  3
ACAD_XREC_ROUNDTRIP
360
16D
  0
DICTIONARY
  5
188
330
3F
100
AcDbDictionary
280
     1
281
     1
  3
ACAD_XREC_ROUNDTRIP
360
189
  0
DICTIONARY
  5
178
330
37
100
AcDbDictionary
280
     1
281
     1
  3
ACAD_XREC_ROUNDTRIP
360
179
  0
DICTIONARY
  5
18A
330
40
100
AcDbDictionary
280
     1
281
     1
  3
ACAD_XREC_ROUNDTRIP
360
18B
  0
DICTIONARY
  5
170
330
33
100
AcDbDictionary
280
     1
281
     1
  3
ACAD_XREC_ROUNDTRIP
360
171
  0
DICTIONARY
  5
186
330
3E
100
AcDbDictionary
280
     1
281
     1
  3
ACAD_XREC_ROUNDTRIP
360
187
  0
DICTIONARY
  5
184
330
3D
100
AcDbDictionary
280
     1
281
     1
  3
ACAD_XREC_ROUNDTRIP
360
185
  0
DICTIONARY
  5
17E
330
3A
100
AcDbDictionary
280
     1
281
     1
  3
ACAD_XREC_ROUNDTRIP
360
17F
  0
DICTIONARY
  5
180
330
3B
100
AcDbDictionary
280
     1
281
     1
  3
ACAD_XREC_ROUNDTRIP
360
181
  0
DICTIONARY
  5
176
330
36
100
AcDbDictionary
280
     1
281
     1
  3
ACAD_XREC_ROUNDTRIP
360
177
  0
DICTIONARY
  5
16A
330
30
100
AcDbDictionary
280
     1
281
     1
  3
ACAD_XREC_ROUNDTRIP
360
16B
  0
DICTIONARY
  5
182
330
3C
100
AcDbDictionary
280
     1
281
     1
  3
ACAD_XREC_ROUNDTRIP
360
183
  0
XRECORD
  5
193
102
{ACAD_REACTORS
330
192
102
}
330
192
100
AcDbXrecord
280
     1
102
DISPLAYNAME
  1
Imperial24
102
FLAGS
 90
        0
  0
XRECORD
  5
1C
102
{ACAD_REACTORS
330
1A
102
}
330
1A
100
AcDbXrecord
280
     1
270
     1
271
     1
  0
XRECORD
  5
1B
102
{ACAD_REACTORS
330
1A
102
}
330
1A
100
AcDbXrecord
280
     1
270
     1
271
     1
  0
XRECORD
  5
1F
102
{ACAD_REACTORS
330
1A
102
}
330
1A
100
AcDbXrecord
280
     1
270
     1
271
     1
  0
XRECORD
  5
1E
102
{ACAD_REACTORS
330
1A
102
}
330
1A
100
AcDbXrecord
280
     1
270
     1
271
     1
  0
XRECORD
  5
20
102
{ACAD_REACTORS
330
1A
102
}
330
1A
100
AcDbXrecord
280
     1
270
     1
271
     1
  0
XRECORD
  5
1D
102
{ACAD_REACTORS
330
1A
102
}
330
1A
100
AcDbXrecord
280
     1
270
     1
271
     1
  0
XRECORD
  5
14
102
{ACAD_REACTORS
330
12
102
}
330
12
100
AcDbXrecord
280
     1
270
     1
271
     1
  0
XRECORD
  5
13
102
{ACAD_REACTORS
330
12
102
}
330
12
100
AcDbXrecord
280
     1
270
     1
271
     1
  0
XRECORD
  5
17
102
{ACAD_REACTORS
330
12
102
}
330
12
100
AcDbXrecord
280
     1
270
     1
271
     1
  0
XRECORD
  5
16
102
{ACAD_REACTORS
330
12
102
}
330
12
100
AcDbXrecord
280
     1
270
     1
271
     1
  0
XRECORD
  5
18
102
{ACAD_REACTORS
330
12
102
}
330
12
100
AcDbXrecord
280
     1
270
     1
271
     1
  0
XRECORD
  5
15
102
{ACAD_REACTORS
330
12
102
}
330
12
100
AcDbXrecord
280
     1
270
     1
271
     1
  0
XRECORD
  5
24
102
{ACAD_REACTORS
330
22
102
}
330
22
100
AcDbXrecord
280
     1
270
     1
271
     1
  0
XRECORD
  5
23
102
{ACAD_REACTORS
330
22
102
}
330
22
100
AcDbXrecord
280
     1
270
     1
271
     1
  0
XRECORD
  5
27
102
{ACAD_REACTORS
330
22
102
}
330
22
100
AcDbXrecord
280
     1
270
     1
271
     1
  0
XRECORD
  5
26
102
{ACAD_REACTORS
330
22
102
}
330
22
100
AcDbXrecord
280
     1
270
     1
271
     1
  0
XRECORD
  5
28
102
{ACAD_REACTORS
330
22
102
}
330
22
100
AcDbXrecord
280
     1
270
     1
271
     1
  0
XRECORD
  5
25
102
{ACAD_REACTORS
330
22
102
}
330
22
100
AcDbXrecord
280
     1
270
     1
271
     1
  0
XRECORD
  5
18F
102
{ACAD_REACTORS
330
18E
102
}
330
18E
100
AcDbXrecord
280
     1
102
ACAD_ROUNDTRIP_2012_MLEADER_STYLE
298
     1
  0
XRECORD
  5
191
102
{ACAD_REACTORS
330
190
102
}
330
190
100
AcDbXrecord
280
     1
102
DISPLAYNAME
  1
Imperial24
102
FLAGS
 90
        0
  0
CELLSTYLEMAP
  5
15C
102
{ACAD_REACTORS
330
15B
102
}
330
15B
100
AcDbCellStyleMap
 90
        3
300
CELLSTYLE
  1
TABLEFORMAT_BEGIN
 90
        5
170
     1
 91
        0
 92
    32768
 62
   257
 93
        1
300
CONTENTFORMAT
  1
CONTENTFORMAT_BEGIN
 90
        0
 91
        0
 92
      512
 93
        0
300

 40
0.0
140
1.0
 94
        5
 62
     0
340
55
144
0.25
309
CONTENTFORMAT_END
171
     0
 94
        0
309
TABLEFORMAT_END
  1
CELLSTYLE_BEGIN
 90
        1
 91
        1
300
_TITLE
309
CELLSTYLE_END
300
CELLSTYLE
  1
TABLEFORMAT_BEGIN
 90
        5
170
     1
 91
        0
 92
        0
 62
   257
 93
        1
300
CONTENTFORMAT
  1
CONTENTFORMAT_BEGIN
 90
        0
 91
        0
 92
      512
 93
        0
300

 40
0.0
140
1.0
 94
        5
 62
     0
340
55
144
0.18
309
CONTENTFORMAT_END
171
     0
 94
        0
309
TABLEFORMAT_END
  1
CELLSTYLE_BEGIN
 90
        2
 91
        1
300
_HEADER
309
CELLSTYLE_END
300
CELLSTYLE
  1
TABLEFORMAT_BEGIN
 90
        5
170
     1
 91
        0
 92
        0
 62
   257
 93
        1
300
CONTENTFORMAT
  1
CONTENTFORMAT_BEGIN
 90
        0
 91
        0
 92
      512
 93
        0
300

 40
0.0
140
1.0
 94
        2
 62
     0
340
55
144
0.18
309
CONTENTFORMAT_END
171
     0
 94
        0
309
TABLEFORMAT_END
  1
CELLSTYLE_BEGIN
 90
        3
 91
        2
300
_DATA
309
CELLSTYLE_END
  0
XRECORD
  5
169
102
{ACAD_REACTORS
330
168
102
}
330
168
100
AcDbXrecord
280
     1
102
RTVSPost2010Prop28
280
     1
102
RTVSPost2010PropOp28
 70
     1
102
RTVSPost2010Prop29
280
     1
102
RTVSPost2010PropOp29
 70
     1
102
RTVSPost2010Prop30
280
     0
102
RTVSPost2010PropOp30
 70
     1
102
RTVSPost2010Prop31
280
     0
102
RTVSPost2010PropOp31
 70
     1
102
RTVSPost2010Prop32
280
     0
102
RTVSPost2010PropOp32
 70
     1
102
RTVSPost2010Prop33
280
     0
102
RTVSPost2010PropOp33
 70
     1
102
RTVSPost2010Prop34
280
     0
102
RTVSPost2010PropOp34
 70
     1
102
RTVSPost2010Prop35
280
     0
102
RTVSPost2010PropOp35
 70
     1
102
RTVSPost2010Prop36
280
     0
102
RTVSPost2010PropOp36
 70
     1
102
RTVSPost2010Prop37
 90
       50
102
RTVSPost2010PropOp37
 70
     1
102
RTVSPost2010Prop38
140
0.0
102
RTVSPost2010PropOp38
 70
     1
102
RTVSPost2010Prop39
140
1.0
102
RTVSPost2010PropOp39
 70
     1
102
RTVSPost2010Prop40
 90
        0
102
RTVSPost2010PropOp40
 70
     1
102
RTVSPost2010Prop41ColorIndex
 90
       18
102
RTVSPost2010Prop41ColorRGB
 90
        0
102
RTVSPost2010PropOp41
 70
     1
102
RTVSPost2010Prop42
 90
       50
102
RTVSPost2010PropOp42
 70
     1
102
RTVSPost2010Prop43
 90
        3
102
RTVSPost2010PropOp43
 70
     1
102
RTVSPost2010Prop44ColorIndex
 90
        5
102
RTVSPost2010Prop44ColorRGB
 90
      255
102
RTVSPost2010PropOp44
 70
     1
102
RTVSPost2010Prop45
280
     0
102
RTVSPost2010PropOp45
 70
     1
102
RTVSPost2010Prop46
 90
       50
102
RTVSPost2010PropOp46
 70
     1
102
RTVSPost2010Prop47
 90
       50
102
RTVSPost2010PropOp47
 70
     1
102
RTVSPost2010Prop48
 90
       50
102
RTVSPost2010PropOp48
 70
     1
102
RTVSPost2010Prop49
280
     0
102
RTVSPost2010PropOp49
 70
     1
102
RTVSPost2010Prop50
 90
       50
102
RTVSPost2010PropOp50
 70
     1
102
RTVSPost2010Prop51ColorIndex
 90
      256
102
RTVSPost2010Prop51ColorRGB
 90
-16777216
102
RTVSPost2010PropOp51
 70
     0
102
RTVSPost2010Prop52
140
1.0
102
RTVSPost2010PropOp52
 70
     0
102
RTVSPost2010Prop53
 90
        2
102
RTVSPost2010PropOp53
 70
     1
102
RTVSPost2010Prop54
  1
strokes_ogs.tif
102
RTVSPost2010PropOp54
 70
     1
102
RTVSPost2010Prop55
280
     0
102
RTVSPost2010PropOp55
 70
     1
102
RTVSPost2010Prop56
140
1.0
102
RTVSPost2010PropOp56
 70
     1
102
RTVSPost2010Prop57
140
1.0
102
RTVSPost2010PropOp57
 70
     1
  0
XRECORD
  5
167
102
{ACAD_REACTORS
330
166
102
}
330
166
100
AcDbXrecord
280
     1
102
RTVSPost2010Prop28
280
     0
102
RTVSPost2010PropOp28
 70
     1
102
RTVSPost2010Prop29
280
     1
102
RTVSPost2010PropOp29
 70
     1
102
RTVSPost2010Prop30
280
     1
102
RTVSPost2010PropOp30
 70
     1
102
RTVSPost2010Prop31
280
     0
102
RTVSPost2010PropOp31
 70
     1
102
RTVSPost2010Prop32
280
     0
102
RTVSPost2010PropOp32
 70
     1
102
RTVSPost2010Prop33
280
     0
102
RTVSPost2010PropOp33
 70
     1
102
RTVSPost2010Prop34
280
     0
102
RTVSPost2010PropOp34
 70
     1
102
RTVSPost2010Prop35
280
     0
102
RTVSPost2010PropOp35
 70
     1
102
RTVSPost2010Prop36
280
     0
102
RTVSPost2010PropOp36
 70
     1
102
RTVSPost2010Prop37
 90
       50
102
RTVSPost2010PropOp37
 70
     1
102
RTVSPost2010Prop38
140
0.0
102
RTVSPost2010PropOp38
 70
     1
102
RTVSPost2010Prop39
140
1.0
102
RTVSPost2010PropOp39
 70
     1
102
RTVSPost2010Prop40
 90
        0
102
RTVSPost2010PropOp40
 70
     1
102
RTVSPost2010Prop41ColorIndex
 90
       18
102
RTVSPost2010Prop41ColorRGB
 90
        0
102
RTVSPost2010PropOp41
 70
     1
102
RTVSPost2010Prop42
 90
       50
102
RTVSPost2010PropOp42
 70
     1
102
RTVSPost2010Prop43
 90
        3
102
RTVSPost2010PropOp43
 70
     1
102
RTVSPost2010Prop44ColorIndex
 90
        5
102
RTVSPost2010Prop44ColorRGB
 90
      255
102
RTVSPost2010PropOp44
 70
     1
102
RTVSPost2010Prop45
280
     0
102
RTVSPost2010PropOp45
 70
     1
102
RTVSPost2010Prop46
 90
       50
102
RTVSPost2010PropOp46
 70
     1
102
RTVSPost2010Prop47
 90
       50
102
RTVSPost2010PropOp47
 70
     1
102
RTVSPost2010Prop48
 90
       50
102
RTVSPost2010PropOp48
 70
     1
102
RTVSPost2010Prop49
280
     0
102
RTVSPost2010PropOp49
 70
     1
102
RTVSPost2010Prop50
 90
       50
102
RTVSPost2010PropOp50
 70
     1
102
RTVSPost2010Prop51ColorIndex
 90
      256
102
RTVSPost2010Prop51ColorRGB
 90
-16777216
102
RTVSPost2010PropOp51
 70
     0
102
RTVSPost2010Prop52
140
1.0
102
RTVSPost2010PropOp52
 70
     0
102
RTVSPost2010Prop53
 90
        2
102
RTVSPost2010PropOp53
 70
     1
102
RTVSPost2010Prop54
  1
strokes_ogs.tif
102
RTVSPost2010PropOp54
 70
     1
102
RTVSPost2010Prop55
280
     0
102
RTVSPost2010PropOp55
 70
     1
102
RTVSPost2010Prop56
140
1.0
102
RTVSPost2010PropOp56
 70
     1
102
RTVSPost2010Prop57
140
1.0
102
RTVSPost2010PropOp57
 70
     1
  0
XRECORD
  5
175
102
{ACAD_REACTORS
330
174
102
}
330
174
100
AcDbXrecord
280
     1
102
RTVSPost2010Prop28
280
     0
102
RTVSPost2010PropOp28
 70
     1
102
RTVSPost2010Prop29
280
     1
102
RTVSPost2010PropOp29
 70
     1
102
RTVSPost2010Prop30
280
     1
102
RTVSPost2010PropOp30
 70
     1
102
RTVSPost2010Prop31
280
     0
102
RTVSPost2010PropOp31
 70
     1
102
RTVSPost2010Prop32
280
     0
102
RTVSPost2010PropOp32
 70
     1
102
RTVSPost2010Prop33
280
     0
102
RTVSPost2010PropOp33
 70
     1
102
RTVSPost2010Prop34
280
     0
102
RTVSPost2010PropOp34
 70
     1
102
RTVSPost2010Prop35
280
     0
102
RTVSPost2010PropOp35
 70
     1
102
RTVSPost2010Prop36
280
     0
102
RTVSPost2010PropOp36
 70
     1
102
RTVSPost2010Prop37
 90
       50
102
RTVSPost2010PropOp37
 70
     1
102
RTVSPost2010Prop38
140
0.0
102
RTVSPost2010PropOp38
 70
     1
102
RTVSPost2010Prop39
140
1.0
102
RTVSPost2010PropOp39
 70
     1
102
RTVSPost2010Prop40
 90
        0
102
RTVSPost2010PropOp40
 70
     1
102
RTVSPost2010Prop41ColorIndex
 90
       18
102
RTVSPost2010Prop41ColorRGB
 90
        0
102
RTVSPost2010PropOp41
 70
     1
102
RTVSPost2010Prop42
 90
       50
102
RTVSPost2010PropOp42
 70
     1
102
RTVSPost2010Prop43
 90
        3
102
RTVSPost2010PropOp43
 70
     1
102
RTVSPost2010Prop44ColorIndex
 90
        5
102
RTVSPost2010Prop44ColorRGB
 90
      255
102
RTVSPost2010PropOp44
 70
     1
102
RTVSPost2010Prop45
280
     0
102
RTVSPost2010PropOp45
 70
     1
102
RTVSPost2010Prop46
 90
       50
102
RTVSPost2010PropOp46
 70
     1
102
RTVSPost2010Prop47
 90
       50
102
RTVSPost2010PropOp47
 70
     1
102
RTVSPost2010Prop48
 90
       50
102
RTVSPost2010PropOp48
 70
     1
102
RTVSPost2010Prop49
280
     0
102
RTVSPost2010PropOp49
 70
     1
102
RTVSPost2010Prop50
 90
       50
102
RTVSPost2010PropOp50
 70
     1
102
RTVSPost2010Prop51ColorIndex
 90
      256
102
RTVSPost2010Prop51ColorRGB
 90
-16777216
102
RTVSPost2010PropOp51
 70
     0
102
RTVSPost2010Prop52
140
1.0
102
RTVSPost2010PropOp52
 70
     0
102
RTVSPost2010Prop53
 90
        2
102
RTVSPost2010PropOp53
 70
     1
102
RTVSPost2010Prop54
  1
strokes_ogs.tif
102
RTVSPost2010PropOp54
 70
     1
102
RTVSPost2010Prop55
280
     0
102
RTVSPost2010PropOp55
 70
     1
102
RTVSPost2010Prop56
140
1.0
102
RTVSPost2010PropOp56
 70
     1
102
RTVSPost2010Prop57
140
1.0
102
RTVSPost2010PropOp57
 70
     1
  0
XRECORD
  5
17D
102
{ACAD_REACTORS
330
17C
102
}
330
17C
100
AcDbXrecord
280
     1
102
RTVSPost2010Prop28
280
     0
102
RTVSPost2010PropOp28
 70
     1
102
RTVSPost2010Prop29
280
     1
102
RTVSPost2010PropOp29
 70
     1
102
RTVSPost2010Prop30
280
     1
102
RTVSPost2010PropOp30
 70
     1
102
RTVSPost2010Prop31
280
     0
102
RTVSPost2010PropOp31
 70
     1
102
RTVSPost2010Prop32
280
     0
102
RTVSPost2010PropOp32
 70
     1
102
RTVSPost2010Prop33
280
     0
102
RTVSPost2010PropOp33
 70
     1
102
RTVSPost2010Prop34
280
     0
102
RTVSPost2010PropOp34
 70
     1
102
RTVSPost2010Prop35
280
     0
102
RTVSPost2010PropOp35
 70
     1
102
RTVSPost2010Prop36
280
     0
102
RTVSPost2010PropOp36
 70
     1
102
RTVSPost2010Prop37
 90
       50
102
RTVSPost2010PropOp37
 70
     1
102
RTVSPost2010Prop38
140
0.0
102
RTVSPost2010PropOp38
 70
     1
102
RTVSPost2010Prop39
140
1.0
102
RTVSPost2010PropOp39
 70
     1
102
RTVSPost2010Prop40
 90
        0
102
RTVSPost2010PropOp40
 70
     1
102
RTVSPost2010Prop41ColorIndex
 90
       18
102
RTVSPost2010Prop41ColorRGB
 90
        0
102
RTVSPost2010PropOp41
 70
     1
102
RTVSPost2010Prop42
 90
       50
102
RTVSPost2010PropOp42
 70
     1
102
RTVSPost2010Prop43
 90
        3
102
RTVSPost2010PropOp43
 70
     1
102
RTVSPost2010Prop44ColorIndex
 90
        5
102
RTVSPost2010Prop44ColorRGB
 90
      255
102
RTVSPost2010PropOp44
 70
     1
102
RTVSPost2010Prop45
280
     0
102
RTVSPost2010PropOp45
 70
     1
102
RTVSPost2010Prop46
 90
       50
102
RTVSPost2010PropOp46
 70
     1
102
RTVSPost2010Prop47
 90
       50
102
RTVSPost2010PropOp47
 70
     1
102
RTVSPost2010Prop48
 90
       50
102
RTVSPost2010PropOp48
 70
     1
102
RTVSPost2010Prop49
280
     0
102
RTVSPost2010PropOp49
 70
     1
102
RTVSPost2010Prop50
 90
       50
102
RTVSPost2010PropOp50
 70
     1
102
RTVSPost2010Prop51ColorIndex
 90
      256
102
RTVSPost2010Prop51ColorRGB
 90
-16777216
102
RTVSPost2010PropOp51
 70
     0
102
RTVSPost2010Prop52
140
1.0
102
RTVSPost2010PropOp52
 70
     0
102
RTVSPost2010Prop53
 90
        2
102
RTVSPost2010PropOp53
 70
     1
102
RTVSPost2010Prop54
  1
strokes_ogs.tif
102
RTVSPost2010PropOp54
 70
     1
102
RTVSPost2010Prop55
280
     0
102
RTVSPost2010PropOp55
 70
     1
102
RTVSPost2010Prop56
140
1.0
102
RTVSPost2010PropOp56
 70
     1
102
RTVSPost2010Prop57
140
1.0
102
RTVSPost2010PropOp57
 70
     1
  0
XRECORD
  5
16F
102
{ACAD_REACTORS
330
16E
102
}
330
16E
100
AcDbXrecord
280
     1
102
RTVSPost2010Prop28
280
     0
102
RTVSPost2010PropOp28
 70
     1
102
RTVSPost2010Prop29
280
     1
102
RTVSPost2010PropOp29
 70
     1
102
RTVSPost2010Prop30
280
     1
102
RTVSPost2010PropOp30
 70
     1
102
RTVSPost2010Prop31
280
     0
102
RTVSPost2010PropOp31
 70
     1
102
RTVSPost2010Prop32
280
     0
102
RTVSPost2010PropOp32
 70
     1
102
RTVSPost2010Prop33
280
     0
102
RTVSPost2010PropOp33
 70
     1
102
RTVSPost2010Prop34
280
     0
102
RTVSPost2010PropOp34
 70
     1
102
RTVSPost2010Prop35
280
     0
102
RTVSPost2010PropOp35
 70
     1
102
RTVSPost2010Prop36
280
     0
102
RTVSPost2010PropOp36
 70
     1
102
RTVSPost2010Prop37
 90
       50
102
RTVSPost2010PropOp37
 70
     1
102
RTVSPost2010Prop38
140
0.0
102
RTVSPost2010PropOp38
 70
     1
102
RTVSPost2010Prop39
140
1.0
102
RTVSPost2010PropOp39
 70
     1
102
RTVSPost2010Prop40
 90
        0
102
RTVSPost2010PropOp40
 70
     1
102
RTVSPost2010Prop41ColorIndex
 90
       18
102
RTVSPost2010Prop41ColorRGB
 90
        0
102
RTVSPost2010PropOp41
 70
     1
102
RTVSPost2010Prop42
 90
       50
102
RTVSPost2010PropOp42
 70
     1
102
RTVSPost2010Prop43
 90
        3
102
RTVSPost2010PropOp43
 70
     1
102
RTVSPost2010Prop44ColorIndex
 90
        5
102
RTVSPost2010Prop44ColorRGB
 90
      255
102
RTVSPost2010PropOp44
 70
     1
102
RTVSPost2010Prop45
280
     0
102
RTVSPost2010PropOp45
 70
     1
102
RTVSPost2010Prop46
 90
       50
102
RTVSPost2010PropOp46
 70
     1
102
RTVSPost2010Prop47
 90
       50
102
RTVSPost2010PropOp47
 70
     1
102
RTVSPost2010Prop48
 90
       50
102
RTVSPost2010PropOp48
 70
     1
102
RTVSPost2010Prop49
280
     0
102
RTVSPost2010PropOp49
 70
     1
102
RTVSPost2010Prop50
 90
       50
102
RTVSPost2010PropOp50
 70
     1
102
RTVSPost2010Prop51ColorIndex
 90
      256
102
RTVSPost2010Prop51ColorRGB
 90
-16777216
102
RTVSPost2010PropOp51
 70
     0
102
RTVSPost2010Prop52
140
1.0
102
RTVSPost2010PropOp52
 70
     0
102
RTVSPost2010Prop53
 90
        2
102
RTVSPost2010PropOp53
 70
     1
102
RTVSPost2010Prop54
  1
strokes_ogs.tif
102
RTVSPost2010PropOp54
 70
     1
102
RTVSPost2010Prop55
280
     0
102
RTVSPost2010PropOp55
 70
     1
102
RTVSPost2010Prop56
140
1.0
102
RTVSPost2010PropOp56
 70
     1
102
RTVSPost2010Prop57
140
1.0
102
RTVSPost2010PropOp57
 70
     1
  0
XRECORD
  5
173
102
{ACAD_REACTORS
330
172
102
}
330
172
100
AcDbXrecord
280
     1
102
RTVSPost2010Prop28
280
     0
102
RTVSPost2010PropOp28
 70
     1
102
RTVSPost2010Prop29
280
     1
102
RTVSPost2010PropOp29
 70
     1
102
RTVSPost2010Prop30
280
     1
102
RTVSPost2010PropOp30
 70
     1
102
RTVSPost2010Prop31
280
     0
102
RTVSPost2010PropOp31
 70
     1
102
RTVSPost2010Prop32
280
     0
102
RTVSPost2010PropOp32
 70
     1
102
RTVSPost2010Prop33
280
     0
102
RTVSPost2010PropOp33
 70
     1
102
RTVSPost2010Prop34
280
     0
102
RTVSPost2010PropOp34
 70
     1
102
RTVSPost2010Prop35
280
     0
102
RTVSPost2010PropOp35
 70
     1
102
RTVSPost2010Prop36
280
     0
102
RTVSPost2010PropOp36
 70
     1
102
RTVSPost2010Prop37
 90
       50
102
RTVSPost2010PropOp37
 70
     1
102
RTVSPost2010Prop38
140
0.0
102
RTVSPost2010PropOp38
 70
     1
102
RTVSPost2010Prop39
140
1.0
102
RTVSPost2010PropOp39
 70
     1
102
RTVSPost2010Prop40
 90
        0
102
RTVSPost2010PropOp40
 70
     1
102
RTVSPost2010Prop41ColorIndex
 90
       18
102
RTVSPost2010Prop41ColorRGB
 90
        0
102
RTVSPost2010PropOp41
 70
     1
102
RTVSPost2010Prop42
 90
       50
102
RTVSPost2010PropOp42
 70
     1
102
RTVSPost2010Prop43
 90
        3
102
RTVSPost2010PropOp43
 70
     1
102
RTVSPost2010Prop44ColorIndex
 90
        5
102
RTVSPost2010Prop44ColorRGB
 90
      255
102
RTVSPost2010PropOp44
 70
     1
102
RTVSPost2010Prop45
280
     0
102
RTVSPost2010PropOp45
 70
     1
102
RTVSPost2010Prop46
 90
       50
102
RTVSPost2010PropOp46
 70
     1
102
RTVSPost2010Prop47
 90
       50
102
RTVSPost2010PropOp47
 70
     1
102
RTVSPost2010Prop48
 90
       50
102
RTVSPost2010PropOp48
 70
     1
102
RTVSPost2010Prop49
280
     0
102
RTVSPost2010PropOp49
 70
     1
102
RTVSPost2010Prop50
 90
       50
102
RTVSPost2010PropOp50
 70
     1
102
RTVSPost2010Prop51ColorIndex
 90
      256
102
RTVSPost2010Prop51ColorRGB
 90
-16777216
102
RTVSPost2010PropOp51
 70
     0
102
RTVSPost2010Prop52
140
1.0
102
RTVSPost2010PropOp52
 70
     0
102
RTVSPost2010Prop53
 90
        2
102
RTVSPost2010PropOp53
 70
     1
102
RTVSPost2010Prop54
  1
strokes_ogs.tif
102
RTVSPost2010PropOp54
 70
     1
102
RTVSPost2010Prop55
280
     0
102
RTVSPost2010PropOp55
 70
     1
102
RTVSPost2010Prop56
140
1.0
102
RTVSPost2010PropOp56
 70
     1
102
RTVSPost2010Prop57
140
1.0
102
RTVSPost2010PropOp57
 70
     1
  0
XRECORD
  5
18D
102
{ACAD_REACTORS
330
18C
102
}
330
18C
100
AcDbXrecord
280
     1
102
RTVSPost2010Prop28
280
     0
102
RTVSPost2010PropOp28
 70
     0
102
RTVSPost2010Prop29
280
     1
102
RTVSPost2010PropOp29
 70
     0
102
RTVSPost2010Prop30
280
     1
102
RTVSPost2010PropOp30
 70
     0
102
RTVSPost2010Prop31
280
     0
102
RTVSPost2010PropOp31
 70
     0
102
RTVSPost2010Prop32
280
     0
102
RTVSPost2010PropOp32
 70
     0
102
RTVSPost2010Prop33
280
     0
102
RTVSPost2010PropOp33
 70
     0
102
RTVSPost2010Prop34
280
     0
102
RTVSPost2010PropOp34
 70
     0
102
RTVSPost2010Prop35
280
     0
102
RTVSPost2010PropOp35
 70
     0
102
RTVSPost2010Prop36
280
     0
102
RTVSPost2010PropOp36
 70
     0
102
RTVSPost2010Prop37
 90
       50
102
RTVSPost2010PropOp37
 70
     0
102
RTVSPost2010Prop38
140
0.0
102
RTVSPost2010PropOp38
 70
     0
102
RTVSPost2010Prop39
140
1.0
102
RTVSPost2010PropOp39
 70
     0
102
RTVSPost2010Prop40
 90
        0
102
RTVSPost2010PropOp40
 70
     0
102
RTVSPost2010Prop41ColorIndex
 90
       18
102
RTVSPost2010Prop41ColorRGB
 90
        0
102
RTVSPost2010PropOp41
 70
     0
102
RTVSPost2010Prop42
 90
       50
102
RTVSPost2010PropOp42
 70
     0
102
RTVSPost2010Prop43
 90
        3
102
RTVSPost2010PropOp43
 70
     0
102
RTVSPost2010Prop44ColorIndex
 90
        5
102
RTVSPost2010Prop44ColorRGB
 90
      255
102
RTVSPost2010PropOp44
 70
     0
102
RTVSPost2010Prop45
280
     0
102
RTVSPost2010PropOp45
 70
     0
102
RTVSPost2010Prop46
 90
       50
102
RTVSPost2010PropOp46
 70
     0
102
RTVSPost2010Prop47
 90
       50
102
RTVSPost2010PropOp47
 70
     0
102
RTVSPost2010Prop48
 90
       50
102
RTVSPost2010PropOp48
 70
     0
102
RTVSPost2010Prop49
280
     0
102
RTVSPost2010PropOp49
 70
     0
102
RTVSPost2010Prop50
 90
       50
102
RTVSPost2010PropOp50
 70
     0
102
RTVSPost2010Prop51ColorIndex
 90
      256
102
RTVSPost2010Prop51ColorRGB
 90
-16777216
102
RTVSPost2010PropOp51
 70
     0
102
RTVSPost2010Prop52
140
1.0
102
RTVSPost2010PropOp52
 70
     0
102
RTVSPost2010Prop53
 90
        2
102
RTVSPost2010PropOp53
 70
     0
102
RTVSPost2010Prop54
  1
strokes_ogs.tif
102
RTVSPost2010PropOp54
 70
     0
102
RTVSPost2010Prop55
280
     0
102
RTVSPost2010PropOp55
 70
     0
102
RTVSPost2010Prop56
140
1.0
102
RTVSPost2010PropOp56
 70
     0
102
RTVSPost2010Prop57
140
1.0
102
RTVSPost2010PropOp57
 70
     0
  0
XRECORD
  5
17B
102
{ACAD_REACTORS
330
17A
102
}
330
17A
100
AcDbXrecord
280
     1
102
RTVSPost2010Prop28
280
     0
102
RTVSPost2010PropOp28
 70
     1
102
RTVSPost2010Prop29
280
     1
102
RTVSPost2010PropOp29
 70
     1
102
RTVSPost2010Prop30
280
     1
102
RTVSPost2010PropOp30
 70
     1
102
RTVSPost2010Prop31
280
     0
102
RTVSPost2010PropOp31
 70
     1
102
RTVSPost2010Prop32
280
     0
102
RTVSPost2010PropOp32
 70
     1
102
RTVSPost2010Prop33
280
     0
102
RTVSPost2010PropOp33
 70
     1
102
RTVSPost2010Prop34
280
     0
102
RTVSPost2010PropOp34
 70
     1
102
RTVSPost2010Prop35
280
     0
102
RTVSPost2010PropOp35
 70
     1
102
RTVSPost2010Prop36
280
     0
102
RTVSPost2010PropOp36
 70
     1
102
RTVSPost2010Prop37
 90
       50
102
RTVSPost2010PropOp37
 70
     1
102
RTVSPost2010Prop38
140
0.0
102
RTVSPost2010PropOp38
 70
     1
102
RTVSPost2010Prop39
140
1.0
102
RTVSPost2010PropOp39
 70
     1
102
RTVSPost2010Prop40
 90
        0
102
RTVSPost2010PropOp40
 70
     1
102
RTVSPost2010Prop41ColorIndex
 90
       18
102
RTVSPost2010Prop41ColorRGB
 90
        0
102
RTVSPost2010PropOp41
 70
     1
102
RTVSPost2010Prop42
 90
       50
102
RTVSPost2010PropOp42
 70
     1
102
RTVSPost2010Prop43
 90
        3
102
RTVSPost2010PropOp43
 70
     1
102
RTVSPost2010Prop44ColorIndex
 90
        5
102
RTVSPost2010Prop44ColorRGB
 90
      255
102
RTVSPost2010PropOp44
 70
     1
102
RTVSPost2010Prop45
280
     0
102
RTVSPost2010PropOp45
 70
     1
102
RTVSPost2010Prop46
 90
       50
102
RTVSPost2010PropOp46
 70
     1
102
RTVSPost2010Prop47
 90
       50
102
RTVSPost2010PropOp47
 70
     1
102
RTVSPost2010Prop48
 90
       50
102
RTVSPost2010PropOp48
 70
     1
102
RTVSPost2010Prop49
280
     0
102
RTVSPost2010PropOp49
 70
     1
102
RTVSPost2010Prop50
 90
       50
102
RTVSPost2010PropOp50
 70
     1
102
RTVSPost2010Prop51ColorIndex
 90
      256
102
RTVSPost2010Prop51ColorRGB
 90
-16777216
102
RTVSPost2010PropOp51
 70
     0
102
RTVSPost2010Prop52
140
1.0
102
RTVSPost2010PropOp52
 70
     0
102
RTVSPost2010Prop53
 90
        2
102
RTVSPost2010PropOp53
 70
     1
102
RTVSPost2010Prop54
  1
strokes_ogs.tif
102
RTVSPost2010PropOp54
 70
     1
102
RTVSPost2010Prop55
280
     0
102
RTVSPost2010PropOp55
 70
     1
102
RTVSPost2010Prop56
140
1.0
102
RTVSPost2010PropOp56
 70
     1
102
RTVSPost2010Prop57
140
1.0
102
RTVSPost2010PropOp57
 70
     1
  0
XRECORD
  5
15F
102
{ACAD_REACTORS
330
15E
102
}
330
15E
100
AcDbXrecord
280
     1
102
RTVSPost2010Prop28
280
     0
102
RTVSPost2010PropOp28
 70
     1
102
RTVSPost2010Prop29
280
     1
102
RTVSPost2010PropOp29
 70
     1
102
RTVSPost2010Prop30
280
     1
102
RTVSPost2010PropOp30
 70
     1
102
RTVSPost2010Prop31
280
     0
102
RTVSPost2010PropOp31
 70
     1
102
RTVSPost2010Prop32
280
     0
102
RTVSPost2010PropOp32
 70
     1
102
RTVSPost2010Prop33
280
     0
102
RTVSPost2010PropOp33
 70
     1
102
RTVSPost2010Prop34
280
     0
102
RTVSPost2010PropOp34
 70
     1
102
RTVSPost2010Prop35
280
     0
102
RTVSPost2010PropOp35
 70
     1
102
RTVSPost2010Prop36
280
     0
102
RTVSPost2010PropOp36
 70
     1
102
RTVSPost2010Prop37
 90
       50
102
RTVSPost2010PropOp37
 70
     1
102
RTVSPost2010Prop38
140
0.0
102
RTVSPost2010PropOp38
 70
     1
102
RTVSPost2010Prop39
140
1.0
102
RTVSPost2010PropOp39
 70
     1
102
RTVSPost2010Prop40
 90
        0
102
RTVSPost2010PropOp40
 70
     1
102
RTVSPost2010Prop41ColorIndex
 90
       18
102
RTVSPost2010Prop41ColorRGB
 90
        0
102
RTVSPost2010PropOp41
 70
     1
102
RTVSPost2010Prop42
 90
       50
102
RTVSPost2010PropOp42
 70
     1
102
RTVSPost2010Prop43
 90
        3
102
RTVSPost2010PropOp43
 70
     1
102
RTVSPost2010Prop44ColorIndex
 90
        5
102
RTVSPost2010Prop44ColorRGB
 90
      255
102
RTVSPost2010PropOp44
 70
     1
102
RTVSPost2010Prop45
280
     0
102
RTVSPost2010PropOp45
 70
     1
102
RTVSPost2010Prop46
 90
       50
102
RTVSPost2010PropOp46
 70
     1
102
RTVSPost2010Prop47
 90
       50
102
RTVSPost2010PropOp47
 70
     1
102
RTVSPost2010Prop48
 90
       50
102
RTVSPost2010PropOp48
 70
     1
102
RTVSPost2010Prop49
280
     0
102
RTVSPost2010PropOp49
 70
     1
102
RTVSPost2010Prop50
 90
       50
102
RTVSPost2010PropOp50
 70
     1
102
RTVSPost2010Prop51ColorIndex
 90
      256
102
RTVSPost2010Prop51ColorRGB
 90
-16777216
102
RTVSPost2010PropOp51
 70
     0
102
RTVSPost2010Prop52
140
1.0
102
RTVSPost2010PropOp52
 70
     0
102
RTVSPost2010Prop53
 90
        2
102
RTVSPost2010PropOp53
 70
     1
102
RTVSPost2010Prop54
  1
strokes_ogs.tif
102
RTVSPost2010PropOp54
 70
     1
102
RTVSPost2010Prop55
280
     0
102
RTVSPost2010PropOp55
 70
     1
102
RTVSPost2010Prop56
140
1.0
102
RTVSPost2010PropOp56
 70
     1
102
RTVSPost2010Prop57
140
1.0
102
RTVSPost2010PropOp57
 70
     1
  0
XRECORD
  5
161
102
{ACAD_REACTORS
330
160
102
}
330
160
100
AcDbXrecord
280
     1
102
RTVSPost2010Prop28
280
     0
102
RTVSPost2010PropOp28
 70
     1
102
RTVSPost2010Prop29
280
     1
102
RTVSPost2010PropOp29
 70
     1
102
RTVSPost2010Prop30
280
     1
102
RTVSPost2010PropOp30
 70
     1
102
RTVSPost2010Prop31
280
     0
102
RTVSPost2010PropOp31
 70
     1
102
RTVSPost2010Prop32
280
     0
102
RTVSPost2010PropOp32
 70
     1
102
RTVSPost2010Prop33
280
     0
102
RTVSPost2010PropOp33
 70
     1
102
RTVSPost2010Prop34
280
     0
102
RTVSPost2010PropOp34
 70
     1
102
RTVSPost2010Prop35
280
     0
102
RTVSPost2010PropOp35
 70
     1
102
RTVSPost2010Prop36
280
     0
102
RTVSPost2010PropOp36
 70
     1
102
RTVSPost2010Prop37
 90
       50
102
RTVSPost2010PropOp37
 70
     1
102
RTVSPost2010Prop38
140
0.0
102
RTVSPost2010PropOp38
 70
     1
102
RTVSPost2010Prop39
140
1.0
102
RTVSPost2010PropOp39
 70
     1
102
RTVSPost2010Prop40
 90
        0
102
RTVSPost2010PropOp40
 70
     1
102
RTVSPost2010Prop41ColorIndex
 90
       18
102
RTVSPost2010Prop41ColorRGB
 90
        0
102
RTVSPost2010PropOp41
 70
     1
102
RTVSPost2010Prop42
 90
       50
102
RTVSPost2010PropOp42
 70
     1
102
RTVSPost2010Prop43
 90
        3
102
RTVSPost2010PropOp43
 70
     1
102
RTVSPost2010Prop44ColorIndex
 90
        5
102
RTVSPost2010Prop44ColorRGB
 90
      255
102
RTVSPost2010PropOp44
 70
     1
102
RTVSPost2010Prop45
280
     0
102
RTVSPost2010PropOp45
 70
     1
102
RTVSPost2010Prop46
 90
       50
102
RTVSPost2010PropOp46
 70
     1
102
RTVSPost2010Prop47
 90
       50
102
RTVSPost2010PropOp47
 70
     1
102
RTVSPost2010Prop48
 90
       50
102
RTVSPost2010PropOp48
 70
     1
102
RTVSPost2010Prop49
280
     0
102
RTVSPost2010PropOp49
 70
     1
102
RTVSPost2010Prop50
 90
       50
102
RTVSPost2010PropOp50
 70
     1
102
RTVSPost2010Prop51ColorIndex
 90
      256
102
RTVSPost2010Prop51ColorRGB
 90
-16777216
102
RTVSPost2010PropOp51
 70
     0
102
RTVSPost2010Prop52
140
1.0
102
RTVSPost2010PropOp52
 70
     0
102
RTVSPost2010Prop53
 90
        2
102
RTVSPost2010PropOp53
 70
     1
102
RTVSPost2010Prop54
  1
strokes_ogs.tif
102
RTVSPost2010PropOp54
 70
     1
102
RTVSPost2010Prop55
280
     0
102
RTVSPost2010PropOp55
 70
     1
102
RTVSPost2010Prop56
140
1.0
102
RTVSPost2010PropOp56
 70
     1
102
RTVSPost2010Prop57
140
1.0
102
RTVSPost2010PropOp57
 70
     1
  0
XRECORD
  5
163
102
{ACAD_REACTORS
330
162
102
}
330
162
100
AcDbXrecord
280
     1
102
RTVSPost2010Prop28
280
     0
102
RTVSPost2010PropOp28
 70
     1
102
RTVSPost2010Prop29
280
     1
102
RTVSPost2010PropOp29
 70
     1
102
RTVSPost2010Prop30
280
     1
102
RTVSPost2010PropOp30
 70
     1
102
RTVSPost2010Prop31
280
     0
102
RTVSPost2010PropOp31
 70
     1
102
RTVSPost2010Prop32
280
     0
102
RTVSPost2010PropOp32
 70
     1
102
RTVSPost2010Prop33
280
     0
102
RTVSPost2010PropOp33
 70
     1
102
RTVSPost2010Prop34
280
     0
102
RTVSPost2010PropOp34
 70
     1
102
RTVSPost2010Prop35
280
     0
102
RTVSPost2010PropOp35
 70
     1
102
RTVSPost2010Prop36
280
     0
102
RTVSPost2010PropOp36
 70
     1
102
RTVSPost2010Prop37
 90
       50
102
RTVSPost2010PropOp37
 70
     1
102
RTVSPost2010Prop38
140
0.0
102
RTVSPost2010PropOp38
 70
     1
102
RTVSPost2010Prop39
140
1.0
102
RTVSPost2010PropOp39
 70
     1
102
RTVSPost2010Prop40
 90
        0
102
RTVSPost2010PropOp40
 70
     1
102
RTVSPost2010Prop41ColorIndex
 90
       18
102
RTVSPost2010Prop41ColorRGB
 90
        0
102
RTVSPost2010PropOp41
 70
     1
102
RTVSPost2010Prop42
 90
       50
102
RTVSPost2010PropOp42
 70
     1
102
RTVSPost2010Prop43
 90
        3
102
RTVSPost2010PropOp43
 70
     1
102
RTVSPost2010Prop44ColorIndex
 90
        5
102
RTVSPost2010Prop44ColorRGB
 90
      255
102
RTVSPost2010PropOp44
 70
     1
102
RTVSPost2010Prop45
280
     0
102
RTVSPost2010PropOp45
 70
     1
102
RTVSPost2010Prop46
 90
       50
102
RTVSPost2010PropOp46
 70
     1
102
RTVSPost2010Prop47
 90
       50
102
RTVSPost2010PropOp47
 70
     1
102
RTVSPost2010Prop48
 90
       50
102
RTVSPost2010PropOp48
 70
     1
102
RTVSPost2010Prop49
280
     0
102
RTVSPost2010PropOp49
 70
     1
102
RTVSPost2010Prop50
 90
       50
102
RTVSPost2010PropOp50
 70
     1
102
RTVSPost2010Prop51ColorIndex
 90
      256
102
RTVSPost2010Prop51ColorRGB
 90
-16777216
102
RTVSPost2010PropOp51
 70
     0
102
RTVSPost2010Prop52
140
1.0
102
RTVSPost2010PropOp52
 70
     0
102
RTVSPost2010Prop53
 90
        2
102
RTVSPost2010PropOp53
 70
     1
102
RTVSPost2010Prop54
  1
strokes_ogs.tif
102
RTVSPost2010PropOp54
 70
     1
102
RTVSPost2010Prop55
280
     0
102
RTVSPost2010PropOp55
 70
     1
102
RTVSPost2010Prop56
140
1.0
102
RTVSPost2010PropOp56
 70
     1
102
RTVSPost2010Prop57
140
1.0
102
RTVSPost2010PropOp57
 70
     1
  0
XRECORD
  5
165
102
{ACAD_REACTORS
330
164
102
}
330
164
100
AcDbXrecord
280
     1
102
RTVSPost2010Prop28
280
     0
102
RTVSPost2010PropOp28
 70
     1
102
RTVSPost2010Prop29
280
     1
102
RTVSPost2010PropOp29
 70
     1
102
RTVSPost2010Prop30
280
     1
102
RTVSPost2010PropOp30
 70
     1
102
RTVSPost2010Prop31
280
     0
102
RTVSPost2010PropOp31
 70
     1
102
RTVSPost2010Prop32
280
     0
102
RTVSPost2010PropOp32
 70
     1
102
RTVSPost2010Prop33
280
     0
102
RTVSPost2010PropOp33
 70
     1
102
RTVSPost2010Prop34
280
     0
102
RTVSPost2010PropOp34
 70
     1
102
RTVSPost2010Prop35
280
     0
102
RTVSPost2010PropOp35
 70
     1
102
RTVSPost2010Prop36
280
     0
102
RTVSPost2010PropOp36
 70
     1
102
RTVSPost2010Prop37
 90
       50
102
RTVSPost2010PropOp37
 70
     1
102
RTVSPost2010Prop38
140
0.0
102
RTVSPost2010PropOp38
 70
     1
102
RTVSPost2010Prop39
140
1.0
102
RTVSPost2010PropOp39
 70
     1
102
RTVSPost2010Prop40
 90
        0
102
RTVSPost2010PropOp40
 70
     1
102
RTVSPost2010Prop41ColorIndex
 90
       18
102
RTVSPost2010Prop41ColorRGB
 90
        0
102
RTVSPost2010PropOp41
 70
     1
102
RTVSPost2010Prop42
 90
       50
102
RTVSPost2010PropOp42
 70
     1
102
RTVSPost2010Prop43
 90
        3
102
RTVSPost2010PropOp43
 70
     1
102
RTVSPost2010Prop44ColorIndex
 90
        5
102
RTVSPost2010Prop44ColorRGB
 90
      255
102
RTVSPost2010PropOp44
 70
     1
102
RTVSPost2010Prop45
280
     0
102
RTVSPost2010PropOp45
 70
     1
102
RTVSPost2010Prop46
 90
       50
102
RTVSPost2010PropOp46
 70
     1
102
RTVSPost2010Prop47
 90
       50
102
RTVSPost2010PropOp47
 70
     1
102
RTVSPost2010Prop48
 90
       50
102
RTVSPost2010PropOp48
 70
     1
102
RTVSPost2010Prop49
280
     0
102
RTVSPost2010PropOp49
 70
     1
102
RTVSPost2010Prop50
 90
       50
102
RTVSPost2010PropOp50
 70
     1
102
RTVSPost2010Prop51ColorIndex
 90
      256
102
RTVSPost2010Prop51ColorRGB
 90
-16777216
102
RTVSPost2010PropOp51
 70
     0
102
RTVSPost2010Prop52
140
1.0
102
RTVSPost2010PropOp52
 70
     0
102
RTVSPost2010Prop53
 90
        2
102
RTVSPost2010PropOp53
 70
     1
102
RTVSPost2010Prop54
  1
strokes_ogs.tif
102
RTVSPost2010PropOp54
 70
     1
102
RTVSPost2010Prop55
280
     0
102
RTVSPost2010PropOp55
 70
     1
102
RTVSPost2010Prop56
140
1.0
102
RTVSPost2010PropOp56
 70
     1
102
RTVSPost2010Prop57
140
1.0
102
RTVSPost2010PropOp57
 70
     1
  0
XRECORD
  5
16D
102
{ACAD_REACTORS
330
16C
102
}
330
16C
100
AcDbXrecord
280
     1
102
RTVSPost2010Prop28
280
     0
102
RTVSPost2010PropOp28
 70
     1
102
RTVSPost2010Prop29
280
     1
102
RTVSPost2010PropOp29
 70
     1
102
RTVSPost2010Prop30
280
     1
102
RTVSPost2010PropOp30
 70
     1
102
RTVSPost2010Prop31
280
     0
102
RTVSPost2010PropOp31
 70
     1
102
RTVSPost2010Prop32
280
     0
102
RTVSPost2010PropOp32
 70
     1
102
RTVSPost2010Prop33
280
     0
102
RTVSPost2010PropOp33
 70
     1
102
RTVSPost2010Prop34
280
     0
102
RTVSPost2010PropOp34
 70
     1
102
RTVSPost2010Prop35
280
     0
102
RTVSPost2010PropOp35
 70
     1
102
RTVSPost2010Prop36
280
     0
102
RTVSPost2010PropOp36
 70
     1
102
RTVSPost2010Prop37
 90
       50
102
RTVSPost2010PropOp37
 70
     1
102
RTVSPost2010Prop38
140
0.0
102
RTVSPost2010PropOp38
 70
     1
102
RTVSPost2010Prop39
140
1.0
102
RTVSPost2010PropOp39
 70
     1
102
RTVSPost2010Prop40
 90
        0
102
RTVSPost2010PropOp40
 70
     1
102
RTVSPost2010Prop41ColorIndex
 90
       18
102
RTVSPost2010Prop41ColorRGB
 90
        0
102
RTVSPost2010PropOp41
 70
     1
102
RTVSPost2010Prop42
 90
       50
102
RTVSPost2010PropOp42
 70
     1
102
RTVSPost2010Prop43
 90
        3
102
RTVSPost2010PropOp43
 70
     1
102
RTVSPost2010Prop44ColorIndex
 90
        5
102
RTVSPost2010Prop44ColorRGB
 90
      255
102
RTVSPost2010PropOp44
 70
     1
102
RTVSPost2010Prop45
280
     0
102
RTVSPost2010PropOp45
 70
     1
102
RTVSPost2010Prop46
 90
       50
102
RTVSPost2010PropOp46
 70
     1
102
RTVSPost2010Prop47
 90
       50
102
RTVSPost2010PropOp47
 70
     1
102
RTVSPost2010Prop48
 90
       50
102
RTVSPost2010PropOp48
 70
     1
102
RTVSPost2010Prop49
280
     0
102
RTVSPost2010PropOp49
 70
     1
102
RTVSPost2010Prop50
 90
       50
102
RTVSPost2010PropOp50
 70
     1
102
RTVSPost2010Prop51ColorIndex
 90
      256
102
RTVSPost2010Prop51ColorRGB
 90
-16777216
102
RTVSPost2010PropOp51
 70
     0
102
RTVSPost2010Prop52
140
1.0
102
RTVSPost2010PropOp52
 70
     0
102
RTVSPost2010Prop53
 90
        2
102
RTVSPost2010PropOp53
 70
     1
102
RTVSPost2010Prop54
  1
strokes_ogs.tif
102
RTVSPost2010PropOp54
 70
     1
102
RTVSPost2010Prop55
280
     0
102
RTVSPost2010PropOp55
 70
     1
102
RTVSPost2010Prop56
140
1.0
102
RTVSPost2010PropOp56
 70
     1
102
RTVSPost2010Prop57
140
1.0
102
RTVSPost2010PropOp57
 70
     1
  0
XRECORD
  5
189
102
{ACAD_REACTORS
330
188
102
}
330
188
100
AcDbXrecord
280
     1
102
RTVSPost2010Prop28
280
     0
102
RTVSPost2010PropOp28
 70
     0
102
RTVSPost2010Prop29
280
     1
102
RTVSPost2010PropOp29
 70
     0
102
RTVSPost2010Prop30
280
     1
102
RTVSPost2010PropOp30
 70
     0
102
RTVSPost2010Prop31
280
     0
102
RTVSPost2010PropOp31
 70
     0
102
RTVSPost2010Prop32
280
     0
102
RTVSPost2010PropOp32
 70
     0
102
RTVSPost2010Prop33
280
     0
102
RTVSPost2010PropOp33
 70
     0
102
RTVSPost2010Prop34
280
     0
102
RTVSPost2010PropOp34
 70
     0
102
RTVSPost2010Prop35
280
     0
102
RTVSPost2010PropOp35
 70
     0
102
RTVSPost2010Prop36
280
     0
102
RTVSPost2010PropOp36
 70
     0
102
RTVSPost2010Prop37
 90
       50
102
RTVSPost2010PropOp37
 70
     0
102
RTVSPost2010Prop38
140
0.0
102
RTVSPost2010PropOp38
 70
     0
102
RTVSPost2010Prop39
140
1.0
102
RTVSPost2010PropOp39
 70
     0
102
RTVSPost2010Prop40
 90
        0
102
RTVSPost2010PropOp40
 70
     0
102
RTVSPost2010Prop41ColorIndex
 90
       18
102
RTVSPost2010Prop41ColorRGB
 90
        0
102
RTVSPost2010PropOp41
 70
     0
102
RTVSPost2010Prop42
 90
       50
102
RTVSPost2010PropOp42
 70
     0
102
RTVSPost2010Prop43
 90
        3
102
RTVSPost2010PropOp43
 70
     0
102
RTVSPost2010Prop44ColorIndex
 90
        5
102
RTVSPost2010Prop44ColorRGB
 90
      255
102
RTVSPost2010PropOp44
 70
     0
102
RTVSPost2010Prop45
280
     0
102
RTVSPost2010PropOp45
 70
     0
102
RTVSPost2010Prop46
 90
       50
102
RTVSPost2010PropOp46
 70
     0
102
RTVSPost2010Prop47
 90
       50
102
RTVSPost2010PropOp47
 70
     0
102
RTVSPost2010Prop48
 90
       50
102
RTVSPost2010PropOp48
 70
     0
102
RTVSPost2010Prop49
280
     0
102
RTVSPost2010PropOp49
 70
     0
102
RTVSPost2010Prop50
 90
       50
102
RTVSPost2010PropOp50
 70
     0
102
RTVSPost2010Prop51ColorIndex
 90
      256
102
RTVSPost2010Prop51ColorRGB
 90
-16777216
102
RTVSPost2010PropOp51
 70
     0
102
RTVSPost2010Prop52
140
1.0
102
RTVSPost2010PropOp52
 70
     0
102
RTVSPost2010Prop53
 90
        2
102
RTVSPost2010PropOp53
 70
     0
102
RTVSPost2010Prop54
  1
strokes_ogs.tif
102
RTVSPost2010PropOp54
 70
     0
102
RTVSPost2010Prop55
280
     0
102
RTVSPost2010PropOp55
 70
     0
102
RTVSPost2010Prop56
140
1.0
102
RTVSPost2010PropOp56
 70
     0
102
RTVSPost2010Prop57
140
1.0
102
RTVSPost2010PropOp57
 70
     0
  0
XRECORD
  5
179
102
{ACAD_REACTORS
330
178
102
}
330
178
100
AcDbXrecord
280
     1
102
RTVSPost2010Prop28
280
     0
102
RTVSPost2010PropOp28
 70
     1
102
RTVSPost2010Prop29
280
     1
102
RTVSPost2010PropOp29
 70
     1
102
RTVSPost2010Prop30
280
     1
102
RTVSPost2010PropOp30
 70
     1
102
RTVSPost2010Prop31
280
     0
102
RTVSPost2010PropOp31
 70
     1
102
RTVSPost2010Prop32
280
     0
102
RTVSPost2010PropOp32
 70
     1
102
RTVSPost2010Prop33
280
     0
102
RTVSPost2010PropOp33
 70
     1
102
RTVSPost2010Prop34
280
     0
102
RTVSPost2010PropOp34
 70
     1
102
RTVSPost2010Prop35
280
     0
102
RTVSPost2010PropOp35
 70
     1
102
RTVSPost2010Prop36
280
     0
102
RTVSPost2010PropOp36
 70
     1
102
RTVSPost2010Prop37
 90
       50
102
RTVSPost2010PropOp37
 70
     1
102
RTVSPost2010Prop38
140
0.0
102
RTVSPost2010PropOp38
 70
     1
102
RTVSPost2010Prop39
140
1.0
102
RTVSPost2010PropOp39
 70
     1
102
RTVSPost2010Prop40
 90
        0
102
RTVSPost2010PropOp40
 70
     1
102
RTVSPost2010Prop41ColorIndex
 90
       18
102
RTVSPost2010Prop41ColorRGB
 90
        0
102
RTVSPost2010PropOp41
 70
     1
102
RTVSPost2010Prop42
 90
       50
102
RTVSPost2010PropOp42
 70
     1
102
RTVSPost2010Prop43
 90
        3
102
RTVSPost2010PropOp43
 70
     1
102
RTVSPost2010Prop44ColorIndex
 90
        5
102
RTVSPost2010Prop44ColorRGB
 90
      255
102
RTVSPost2010PropOp44
 70
     1
102
RTVSPost2010Prop45
280
     0
102
RTVSPost2010PropOp45
 70
     1
102
RTVSPost2010Prop46
 90
       50
102
RTVSPost2010PropOp46
 70
     1
102
RTVSPost2010Prop47
 90
       50
102
RTVSPost2010PropOp47
 70
     1
102
RTVSPost2010Prop48
 90
       50
102
RTVSPost2010PropOp48
 70
     1
102
RTVSPost2010Prop49
280
     0
102
RTVSPost2010PropOp49
 70
     1
102
RTVSPost2010Prop50
 90
       50
102
RTVSPost2010PropOp50
 70
     1
102
RTVSPost2010Prop51ColorIndex
 90
      256
102
RTVSPost2010Prop51ColorRGB
 90
-16777216
102
RTVSPost2010PropOp51
 70
     0
102
RTVSPost2010Prop52
140
1.0
102
RTVSPost2010PropOp52
 70
     0
102
RTVSPost2010Prop53
 90
        2
102
RTVSPost2010PropOp53
 70
     1
102
RTVSPost2010Prop54
  1
strokes_ogs.tif
102
RTVSPost2010PropOp54
 70
     1
102
RTVSPost2010Prop55
280
     0
102
RTVSPost2010PropOp55
 70
     1
102
RTVSPost2010Prop56
140
1.0
102
RTVSPost2010PropOp56
 70
     1
102
RTVSPost2010Prop57
140
1.0
102
RTVSPost2010PropOp57
 70
     1
  0
XRECORD
  5
18B
102
{ACAD_REACTORS
330
18A
102
}
330
18A
100
AcDbXrecord
280
     1
102
RTVSPost2010Prop28
280
     0
102
RTVSPost2010PropOp28
 70
     0
102
RTVSPost2010Prop29
280
     1
102
RTVSPost2010PropOp29
 70
     0
102
RTVSPost2010Prop30
280
     1
102
RTVSPost2010PropOp30
 70
     0
102
RTVSPost2010Prop31
280
     0
102
RTVSPost2010PropOp31
 70
     0
102
RTVSPost2010Prop32
280
     0
102
RTVSPost2010PropOp32
 70
     0
102
RTVSPost2010Prop33
280
     0
102
RTVSPost2010PropOp33
 70
     0
102
RTVSPost2010Prop34
280
     0
102
RTVSPost2010PropOp34
 70
     0
102
RTVSPost2010Prop35
280
     0
102
RTVSPost2010PropOp35
 70
     0
102
RTVSPost2010Prop36
280
     0
102
RTVSPost2010PropOp36
 70
     0
102
RTVSPost2010Prop37
 90
       50
102
RTVSPost2010PropOp37
 70
     0
102
RTVSPost2010Prop38
140
0.0
102
RTVSPost2010PropOp38
 70
     0
102
RTVSPost2010Prop39
140
1.0
102
RTVSPost2010PropOp39
 70
     0
102
RTVSPost2010Prop40
 90
        0
102
RTVSPost2010PropOp40
 70
     0
102
RTVSPost2010Prop41ColorIndex
 90
       18
102
RTVSPost2010Prop41ColorRGB
 90
        0
102
RTVSPost2010PropOp41
 70
     0
102
RTVSPost2010Prop42
 90
       50
102
RTVSPost2010PropOp42
 70
     0
102
RTVSPost2010Prop43
 90
        3
102
RTVSPost2010PropOp43
 70
     0
102
RTVSPost2010Prop44ColorIndex
 90
        5
102
RTVSPost2010Prop44ColorRGB
 90
      255
102
RTVSPost2010PropOp44
 70
     0
102
RTVSPost2010Prop45
280
     0
102
RTVSPost2010PropOp45
 70
     0
102
RTVSPost2010Prop46
 90
       50
102
RTVSPost2010PropOp46
 70
     0
102
RTVSPost2010Prop47
 90
       50
102
RTVSPost2010PropOp47
 70
     0
102
RTVSPost2010Prop48
 90
       50
102
RTVSPost2010PropOp48
 70
     0
102
RTVSPost2010Prop49
280
     0
102
RTVSPost2010PropOp49
 70
     0
102
RTVSPost2010Prop50
 90
       50
102
RTVSPost2010PropOp50
 70
     0
102
RTVSPost2010Prop51ColorIndex
 90
      256
102
RTVSPost2010Prop51ColorRGB
 90
-16777216
102
RTVSPost2010PropOp51
 70
     0
102
RTVSPost2010Prop52
140
1.0
102
RTVSPost2010PropOp52
 70
     0
102
RTVSPost2010Prop53
 90
        2
102
RTVSPost2010PropOp53
 70
     0
102
RTVSPost2010Prop54
  1
strokes_ogs.tif
102
RTVSPost2010PropOp54
 70
     0
102
RTVSPost2010Prop55
280
     0
102
RTVSPost2010PropOp55
 70
     0
102
RTVSPost2010Prop56
140
1.0
102
RTVSPost2010PropOp56
 70
     0
102
RTVSPost2010Prop57
140
1.0
102
RTVSPost2010PropOp57
 70
     0
  0
XRECORD
  5
171
102
{ACAD_REACTORS
330
170
102
}
330
170
100
AcDbXrecord
280
     1
102
RTVSPost2010Prop28
280
     0
102
RTVSPost2010PropOp28
 70
     1
102
RTVSPost2010Prop29
280
     1
102
RTVSPost2010PropOp29
 70
     1
102
RTVSPost2010Prop30
280
     1
102
RTVSPost2010PropOp30
 70
     1
102
RTVSPost2010Prop31
280
     0
102
RTVSPost2010PropOp31
 70
     1
102
RTVSPost2010Prop32
280
     0
102
RTVSPost2010PropOp32
 70
     1
102
RTVSPost2010Prop33
280
     0
102
RTVSPost2010PropOp33
 70
     1
102
RTVSPost2010Prop34
280
     0
102
RTVSPost2010PropOp34
 70
     1
102
RTVSPost2010Prop35
280
     0
102
RTVSPost2010PropOp35
 70
     1
102
RTVSPost2010Prop36
280
     0
102
RTVSPost2010PropOp36
 70
     1
102
RTVSPost2010Prop37
 90
       50
102
RTVSPost2010PropOp37
 70
     1
102
RTVSPost2010Prop38
140
0.0
102
RTVSPost2010PropOp38
 70
     1
102
RTVSPost2010Prop39
140
1.0
102
RTVSPost2010PropOp39
 70
     1
102
RTVSPost2010Prop40
 90
        0
102
RTVSPost2010PropOp40
 70
     1
102
RTVSPost2010Prop41ColorIndex
 90
       18
102
RTVSPost2010Prop41ColorRGB
 90
        0
102
RTVSPost2010PropOp41
 70
     1
102
RTVSPost2010Prop42
 90
       50
102
RTVSPost2010PropOp42
 70
     1
102
RTVSPost2010Prop43
 90
        3
102
RTVSPost2010PropOp43
 70
     1
102
RTVSPost2010Prop44ColorIndex
 90
        5
102
RTVSPost2010Prop44ColorRGB
 90
      255
102
RTVSPost2010PropOp44
 70
     1
102
RTVSPost2010Prop45
280
     0
102
RTVSPost2010PropOp45
 70
     1
102
RTVSPost2010Prop46
 90
       50
102
RTVSPost2010PropOp46
 70
     1
102
RTVSPost2010Prop47
 90
       50
102
RTVSPost2010PropOp47
 70
     1
102
RTVSPost2010Prop48
 90
       50
102
RTVSPost2010PropOp48
 70
     1
102
RTVSPost2010Prop49
280
     0
102
RTVSPost2010PropOp49
 70
     1
102
RTVSPost2010Prop50
 90
       50
102
RTVSPost2010PropOp50
 70
     1
102
RTVSPost2010Prop51ColorIndex
 90
      256
102
RTVSPost2010Prop51ColorRGB
 90
-16777216
102
RTVSPost2010PropOp51
 70
     0
102
RTVSPost2010Prop52
140
1.0
102
RTVSPost2010PropOp52
 70
     0
102
RTVSPost2010Prop53
 90
        2
102
RTVSPost2010PropOp53
 70
     1
102
RTVSPost2010Prop54
  1
strokes_ogs.tif
102
RTVSPost2010PropOp54
 70
     1
102
RTVSPost2010Prop55
280
     0
102
RTVSPost2010PropOp55
 70
     1
102
RTVSPost2010Prop56
140
1.0
102
RTVSPost2010PropOp56
 70
     1
102
RTVSPost2010Prop57
140
1.0
102
RTVSPost2010PropOp57
 70
     1
  0
XRECORD
  5
187
102
{ACAD_REACTORS
330
186
102
}
330
186
100
AcDbXrecord
280
     1
102
RTVSPost2010Prop28
280
     0
102
RTVSPost2010PropOp28
 70
     1
102
RTVSPost2010Prop29
280
     1
102
RTVSPost2010PropOp29
 70
     1
102
RTVSPost2010Prop30
280
     1
102
RTVSPost2010PropOp30
 70
     1
102
RTVSPost2010Prop31
280
     0
102
RTVSPost2010PropOp31
 70
     1
102
RTVSPost2010Prop32
280
     0
102
RTVSPost2010PropOp32
 70
     1
102
RTVSPost2010Prop33
280
     0
102
RTVSPost2010PropOp33
 70
     1
102
RTVSPost2010Prop34
280
     0
102
RTVSPost2010PropOp34
 70
     1
102
RTVSPost2010Prop35
280
     0
102
RTVSPost2010PropOp35
 70
     1
102
RTVSPost2010Prop36
280
     0
102
RTVSPost2010PropOp36
 70
     1
102
RTVSPost2010Prop37
 90
       50
102
RTVSPost2010PropOp37
 70
     1
102
RTVSPost2010Prop38
140
0.0
102
RTVSPost2010PropOp38
 70
     1
102
RTVSPost2010Prop39
140
1.0
102
RTVSPost2010PropOp39
 70
     1
102
RTVSPost2010Prop40
 90
        0
102
RTVSPost2010PropOp40
 70
     1
102
RTVSPost2010Prop41ColorIndex
 90
       18
102
RTVSPost2010Prop41ColorRGB
 90
        0
102
RTVSPost2010PropOp41
 70
     1
102
RTVSPost2010Prop42
 90
       50
102
RTVSPost2010PropOp42
 70
     1
102
RTVSPost2010Prop43
 90
        3
102
RTVSPost2010PropOp43
 70
     1
102
RTVSPost2010Prop44ColorIndex
 90
        5
102
RTVSPost2010Prop44ColorRGB
 90
      255
102
RTVSPost2010PropOp44
 70
     1
102
RTVSPost2010Prop45
280
     0
102
RTVSPost2010PropOp45
 70
     1
102
RTVSPost2010Prop46
 90
       50
102
RTVSPost2010PropOp46
 70
     1
102
RTVSPost2010Prop47
 90
       50
102
RTVSPost2010PropOp47
 70
     1
102
RTVSPost2010Prop48
 90
       50
102
RTVSPost2010PropOp48
 70
     1
102
RTVSPost2010Prop49
280
     0
102
RTVSPost2010PropOp49
 70
     1
102
RTVSPost2010Prop50
 90
       50
102
RTVSPost2010PropOp50
 70
     1
102
RTVSPost2010Prop51ColorIndex
 90
      256
102
RTVSPost2010Prop51ColorRGB
 90
-16777216
102
RTVSPost2010PropOp51
 70
     0
102
RTVSPost2010Prop52
140
1.0
102
RTVSPost2010PropOp52
 70
     0
102
RTVSPost2010Prop53
 90
        2
102
RTVSPost2010PropOp53
 70
     1
102
RTVSPost2010Prop54
  1
strokes_ogs.tif
102
RTVSPost2010PropOp54
 70
     1
102
RTVSPost2010Prop55
280
     0
102
RTVSPost2010PropOp55
 70
     1
102
RTVSPost2010Prop56
140
1.0
102
RTVSPost2010PropOp56
 70
     1
102
RTVSPost2010Prop57
140
1.0
102
RTVSPost2010PropOp57
 70
     1
  0
XRECORD
  5
185
102
{ACAD_REACTORS
330
184
102
}
330
184
100
AcDbXrecord
280
     1
102
RTVSPost2010Prop28
280
     0
102
RTVSPost2010PropOp28
 70
     1
102
RTVSPost2010Prop29
280
     1
102
RTVSPost2010PropOp29
 70
     1
102
RTVSPost2010Prop30
280
     1
102
RTVSPost2010PropOp30
 70
     1
102
RTVSPost2010Prop31
280
     0
102
RTVSPost2010PropOp31
 70
     1
102
RTVSPost2010Prop32
280
     0
102
RTVSPost2010PropOp32
 70
     1
102
RTVSPost2010Prop33
280
     0
102
RTVSPost2010PropOp33
 70
     1
102
RTVSPost2010Prop34
280
     0
102
RTVSPost2010PropOp34
 70
     1
102
RTVSPost2010Prop35
280
     0
102
RTVSPost2010PropOp35
 70
     1
102
RTVSPost2010Prop36
280
     0
102
RTVSPost2010PropOp36
 70
     1
102
RTVSPost2010Prop37
 90
       50
102
RTVSPost2010PropOp37
 70
     1
102
RTVSPost2010Prop38
140
0.0
102
RTVSPost2010PropOp38
 70
     1
102
RTVSPost2010Prop39
140
1.0
102
RTVSPost2010PropOp39
 70
     1
102
RTVSPost2010Prop40
 90
        0
102
RTVSPost2010PropOp40
 70
     1
102
RTVSPost2010Prop41ColorIndex
 90
       18
102
RTVSPost2010Prop41ColorRGB
 90
        0
102
RTVSPost2010PropOp41
 70
     1
102
RTVSPost2010Prop42
 90
       50
102
RTVSPost2010PropOp42
 70
     1
102
RTVSPost2010Prop43
 90
        3
102
RTVSPost2010PropOp43
 70
     1
102
RTVSPost2010Prop44ColorIndex
 90
        5
102
RTVSPost2010Prop44ColorRGB
 90
      255
102
RTVSPost2010PropOp44
 70
     1
102
RTVSPost2010Prop45
280
     0
102
RTVSPost2010PropOp45
 70
     1
102
RTVSPost2010Prop46
 90
       50
102
RTVSPost2010PropOp46
 70
     1
102
RTVSPost2010Prop47
 90
       50
102
RTVSPost2010PropOp47
 70
     1
102
RTVSPost2010Prop48
 90
       50
102
RTVSPost2010PropOp48
 70
     1
102
RTVSPost2010Prop49
280
     0
102
RTVSPost2010PropOp49
 70
     1
102
RTVSPost2010Prop50
 90
       50
102
RTVSPost2010PropOp50
 70
     1
102
RTVSPost2010Prop51ColorIndex
 90
      256
102
RTVSPost2010Prop51ColorRGB
 90
-16777216
102
RTVSPost2010PropOp51
 70
     0
102
RTVSPost2010Prop52
140
1.0
102
RTVSPost2010PropOp52
 70
     0
102
RTVSPost2010Prop53
 90
        2
102
RTVSPost2010PropOp53
 70
     1
102
RTVSPost2010Prop54
  1
strokes_ogs.tif
102
RTVSPost2010PropOp54
 70
     1
102
RTVSPost2010Prop55
280
     0
102
RTVSPost2010PropOp55
 70
     1
102
RTVSPost2010Prop56
140
1.0
102
RTVSPost2010PropOp56
 70
     1
102
RTVSPost2010Prop57
140
1.0
102
RTVSPost2010PropOp57
 70
     1
  0
XRECORD
  5
17F
102
{ACAD_REACTORS
330
17E
102
}
330
17E
100
AcDbXrecord
280
     1
102
RTVSPost2010Prop28
280
     0
102
RTVSPost2010PropOp28
 70
     1
102
RTVSPost2010Prop29
280
     1
102
RTVSPost2010PropOp29
 70
     1
102
RTVSPost2010Prop30
280
     1
102
RTVSPost2010PropOp30
 70
     1
102
RTVSPost2010Prop31
280
     0
102
RTVSPost2010PropOp31
 70
     1
102
RTVSPost2010Prop32
280
     0
102
RTVSPost2010PropOp32
 70
     1
102
RTVSPost2010Prop33
280
     0
102
RTVSPost2010PropOp33
 70
     1
102
RTVSPost2010Prop34
280
     0
102
RTVSPost2010PropOp34
 70
     1
102
RTVSPost2010Prop35
280
     0
102
RTVSPost2010PropOp35
 70
     1
102
RTVSPost2010Prop36
280
     0
102
RTVSPost2010PropOp36
 70
     1
102
RTVSPost2010Prop37
 90
       50
102
RTVSPost2010PropOp37
 70
     1
102
RTVSPost2010Prop38
140
0.0
102
RTVSPost2010PropOp38
 70
     1
102
RTVSPost2010Prop39
140
1.0
102
RTVSPost2010PropOp39
 70
     1
102
RTVSPost2010Prop40
 90
        0
102
RTVSPost2010PropOp40
 70
     1
102
RTVSPost2010Prop41ColorIndex
 90
       18
102
RTVSPost2010Prop41ColorRGB
 90
        0
102
RTVSPost2010PropOp41
 70
     1
102
RTVSPost2010Prop42
 90
       50
102
RTVSPost2010PropOp42
 70
     1
102
RTVSPost2010Prop43
 90
        3
102
RTVSPost2010PropOp43
 70
     1
102
RTVSPost2010Prop44ColorIndex
 90
        5
102
RTVSPost2010Prop44ColorRGB
 90
      255
102
RTVSPost2010PropOp44
 70
     1
102
RTVSPost2010Prop45
280
     0
102
RTVSPost2010PropOp45
 70
     1
102
RTVSPost2010Prop46
 90
       50
102
RTVSPost2010PropOp46
 70
     1
102
RTVSPost2010Prop47
 90
       50
102
RTVSPost2010PropOp47
 70
     1
102
RTVSPost2010Prop48
 90
       50
102
RTVSPost2010PropOp48
 70
     1
102
RTVSPost2010Prop49
280
     0
102
RTVSPost2010PropOp49
 70
     1
102
RTVSPost2010Prop50
 90
       50
102
RTVSPost2010PropOp50
 70
     1
102
RTVSPost2010Prop51ColorIndex
 90
      256
102
RTVSPost2010Prop51ColorRGB
 90
-16777216
102
RTVSPost2010PropOp51
 70
     0
102
RTVSPost2010Prop52
140
1.0
102
RTVSPost2010PropOp52
 70
     0
102
RTVSPost2010Prop53
 90
        2
102
RTVSPost2010PropOp53
 70
     1
102
RTVSPost2010Prop54
  1
strokes_ogs.tif
102
RTVSPost2010PropOp54
 70
     1
102
RTVSPost2010Prop55
280
     0
102
RTVSPost2010PropOp55
 70
     1
102
RTVSPost2010Prop56
140
1.0
102
RTVSPost2010PropOp56
 70
     1
102
RTVSPost2010Prop57
140
1.0
102
RTVSPost2010PropOp57
 70
     1
  0
XRECORD
  5
181
102
{ACAD_REACTORS
330
180
102
}
330
180
100
AcDbXrecord
280
     1
102
RTVSPost2010Prop28
280
     0
102
RTVSPost2010PropOp28
 70
     1
102
RTVSPost2010Prop29
280
     1
102
RTVSPost2010PropOp29
 70
     1
102
RTVSPost2010Prop30
280
     1
102
RTVSPost2010PropOp30
 70
     1
102
RTVSPost2010Prop31
280
     0
102
RTVSPost2010PropOp31
 70
     1
102
RTVSPost2010Prop32
280
     0
102
RTVSPost2010PropOp32
 70
     1
102
RTVSPost2010Prop33
280
     0
102
RTVSPost2010PropOp33
 70
     1
102
RTVSPost2010Prop34
280
     0
102
RTVSPost2010PropOp34
 70
     1
102
RTVSPost2010Prop35
280
     0
102
RTVSPost2010PropOp35
 70
     1
102
RTVSPost2010Prop36
280
     0
102
RTVSPost2010PropOp36
 70
     1
102
RTVSPost2010Prop37
 90
       50
102
RTVSPost2010PropOp37
 70
     1
102
RTVSPost2010Prop38
140
0.0
102
RTVSPost2010PropOp38
 70
     1
102
RTVSPost2010Prop39
140
1.0
102
RTVSPost2010PropOp39
 70
     1
102
RTVSPost2010Prop40
 90
        0
102
RTVSPost2010PropOp40
 70
     1
102
RTVSPost2010Prop41ColorIndex
 90
       18
102
RTVSPost2010Prop41ColorRGB
 90
        0
102
RTVSPost2010PropOp41
 70
     1
102
RTVSPost2010Prop42
 90
       50
102
RTVSPost2010PropOp42
 70
     1
102
RTVSPost2010Prop43
 90
        3
102
RTVSPost2010PropOp43
 70
     1
102
RTVSPost2010Prop44ColorIndex
 90
        5
102
RTVSPost2010Prop44ColorRGB
 90
      255
102
RTVSPost2010PropOp44
 70
     1
102
RTVSPost2010Prop45
280
     0
102
RTVSPost2010PropOp45
 70
     1
102
RTVSPost2010Prop46
 90
       50
102
RTVSPost2010PropOp46
 70
     1
102
RTVSPost2010Prop47
 90
       50
102
RTVSPost2010PropOp47
 70
     1
102
RTVSPost2010Prop48
 90
       50
102
RTVSPost2010PropOp48
 70
     1
102
RTVSPost2010Prop49
280
     0
102
RTVSPost2010PropOp49
 70
     1
102
RTVSPost2010Prop50
 90
       50
102
RTVSPost2010PropOp50
 70
     1
102
RTVSPost2010Prop51ColorIndex
 90
      256
102
RTVSPost2010Prop51ColorRGB
 90
-16777216
102
RTVSPost2010PropOp51
 70
     0
102
RTVSPost2010Prop52
140
1.0
102
RTVSPost2010PropOp52
 70
     0
102
RTVSPost2010Prop53
 90
        2
102
RTVSPost2010PropOp53
 70
     1
102
RTVSPost2010Prop54
  1
strokes_ogs.tif
102
RTVSPost2010PropOp54
 70
     1
102
RTVSPost2010Prop55
280
     0
102
RTVSPost2010PropOp55
 70
     1
102
RTVSPost2010Prop56
140
1.0
102
RTVSPost2010PropOp56
 70
     1
102
RTVSPost2010Prop57
140
1.0
102
RTVSPost2010PropOp57
 70
     1
  0
XRECORD
  5
177
102
{ACAD_REACTORS
330
176
102
}
330
176
100
AcDbXrecord
280
     1
102
RTVSPost2010Prop28
280
     0
102
RTVSPost2010PropOp28
 70
     1
102
RTVSPost2010Prop29
280
     1
102
RTVSPost2010PropOp29
 70
     1
102
RTVSPost2010Prop30
280
     1
102
RTVSPost2010PropOp30
 70
     1
102
RTVSPost2010Prop31
280
     0
102
RTVSPost2010PropOp31
 70
     1
102
RTVSPost2010Prop32
280
     0
102
RTVSPost2010PropOp32
 70
     1
102
RTVSPost2010Prop33
280
     0
102
RTVSPost2010PropOp33
 70
     1
102
RTVSPost2010Prop34
280
     0
102
RTVSPost2010PropOp34
 70
     1
102
RTVSPost2010Prop35
280
     0
102
RTVSPost2010PropOp35
 70
     1
102
RTVSPost2010Prop36
280
     0
102
RTVSPost2010PropOp36
 70
     1
102
RTVSPost2010Prop37
 90
       50
102
RTVSPost2010PropOp37
 70
     1
102
RTVSPost2010Prop38
140
0.0
102
RTVSPost2010PropOp38
 70
     1
102
RTVSPost2010Prop39
140
1.0
102
RTVSPost2010PropOp39
 70
     1
102
RTVSPost2010Prop40
 90
        0
102
RTVSPost2010PropOp40
 70
     1
102
RTVSPost2010Prop41ColorIndex
 90
       18
102
RTVSPost2010Prop41ColorRGB
 90
        0
102
RTVSPost2010PropOp41
 70
     1
102
RTVSPost2010Prop42
 90
       50
102
RTVSPost2010PropOp42
 70
     1
102
RTVSPost2010Prop43
 90
        3
102
RTVSPost2010PropOp43
 70
     1
102
RTVSPost2010Prop44ColorIndex
 90
        5
102
RTVSPost2010Prop44ColorRGB
 90
      255
102
RTVSPost2010PropOp44
 70
     1
102
RTVSPost2010Prop45
280
     0
102
RTVSPost2010PropOp45
 70
     1
102
RTVSPost2010Prop46
 90
       50
102
RTVSPost2010PropOp46
 70
     1
102
RTVSPost2010Prop47
 90
       50
102
RTVSPost2010PropOp47
 70
     1
102
RTVSPost2010Prop48
 90
       50
102
RTVSPost2010PropOp48
 70
     1
102
RTVSPost2010Prop49
280
     0
102
RTVSPost2010PropOp49
 70
     1
102
RTVSPost2010Prop50
 90
       50
102
RTVSPost2010PropOp50
 70
     1
102
RTVSPost2010Prop51ColorIndex
 90
      256
102
RTVSPost2010Prop51ColorRGB
 90
-16777216
102
RTVSPost2010PropOp51
 70
     0
102
RTVSPost2010Prop52
140
1.0
102
RTVSPost2010PropOp52
 70
     0
102
RTVSPost2010Prop53
 90
        2
102
RTVSPost2010PropOp53
 70
     1
102
RTVSPost2010Prop54
  1
strokes_ogs.tif
102
RTVSPost2010PropOp54
 70
     1
102
RTVSPost2010Prop55
280
     0
102
RTVSPost2010PropOp55
 70
     1
102
RTVSPost2010Prop56
140
1.0
102
RTVSPost2010PropOp56
 70
     1
102
RTVSPost2010Prop57
140
1.0
102
RTVSPost2010PropOp57
 70
     1
  0
XRECORD
  5
16B
102
{ACAD_REACTORS
330
16A
102
}
330
16A
100
AcDbXrecord
280
     1
102
RTVSPost2010Prop28
280
     0
102
RTVSPost2010PropOp28
 70
     1
102
RTVSPost2010Prop29
280
     1
102
RTVSPost2010PropOp29
 70
     1
102
RTVSPost2010Prop30
280
     1
102
RTVSPost2010PropOp30
 70
     1
102
RTVSPost2010Prop31
280
     0
102
RTVSPost2010PropOp31
 70
     1
102
RTVSPost2010Prop32
280
     0
102
RTVSPost2010PropOp32
 70
     1
102
RTVSPost2010Prop33
280
     0
102
RTVSPost2010PropOp33
 70
     1
102
RTVSPost2010Prop34
280
     0
102
RTVSPost2010PropOp34
 70
     1
102
RTVSPost2010Prop35
280
     0
102
RTVSPost2010PropOp35
 70
     1
102
RTVSPost2010Prop36
280
     0
102
RTVSPost2010PropOp36
 70
     1
102
RTVSPost2010Prop37
 90
       50
102
RTVSPost2010PropOp37
 70
     1
102
RTVSPost2010Prop38
140
0.0
102
RTVSPost2010PropOp38
 70
     1
102
RTVSPost2010Prop39
140
1.0
102
RTVSPost2010PropOp39
 70
     1
102
RTVSPost2010Prop40
 90
        0
102
RTVSPost2010PropOp40
 70
     1
102
RTVSPost2010Prop41ColorIndex
 90
       18
102
RTVSPost2010Prop41ColorRGB
 90
        0
102
RTVSPost2010PropOp41
 70
     1
102
RTVSPost2010Prop42
 90
       50
102
RTVSPost2010PropOp42
 70
     1
102
RTVSPost2010Prop43
 90
        3
102
RTVSPost2010PropOp43
 70
     1
102
RTVSPost2010Prop44ColorIndex
 90
        5
102
RTVSPost2010Prop44ColorRGB
 90
      255
102
RTVSPost2010PropOp44
 70
     1
102
RTVSPost2010Prop45
280
     0
102
RTVSPost2010PropOp45
 70
     1
102
RTVSPost2010Prop46
 90
       50
102
RTVSPost2010PropOp46
 70
     1
102
RTVSPost2010Prop47
 90
       50
102
RTVSPost2010PropOp47
 70
     1
102
RTVSPost2010Prop48
 90
       50
102
RTVSPost2010PropOp48
 70
     1
102
RTVSPost2010Prop49
280
     0
102
RTVSPost2010PropOp49
 70
     1
102
RTVSPost2010Prop50
 90
       50
102
RTVSPost2010PropOp50
 70
     1
102
RTVSPost2010Prop51ColorIndex
 90
      256
102
RTVSPost2010Prop51ColorRGB
 90
-16777216
102
RTVSPost2010PropOp51
 70
     0
102
RTVSPost2010Prop52
140
1.0
102
RTVSPost2010PropOp52
 70
     0
102
RTVSPost2010Prop53
 90
        2
102
RTVSPost2010PropOp53
 70
     1
102
RTVSPost2010Prop54
  1
strokes_ogs.tif
102
RTVSPost2010PropOp54
 70
     1
102
RTVSPost2010Prop55
280
     0
102
RTVSPost2010PropOp55
 70
     1
102
RTVSPost2010Prop56
140
1.0
102
RTVSPost2010PropOp56
 70
     1
102
RTVSPost2010Prop57
140
1.0
102
RTVSPost2010PropOp57
 70
     1
  0
XRECORD
  5
183
102
{ACAD_REACTORS
330
182
102
}
330
182
100
AcDbXrecord
280
     1
102
RTVSPost2010Prop28
280
     0
102
RTVSPost2010PropOp28
 70
     1
102
RTVSPost2010Prop29
280
     1
102
RTVSPost2010PropOp29
 70
     1
102
RTVSPost2010Prop30
280
     1
102
RTVSPost2010PropOp30
 70
     1
102
RTVSPost2010Prop31
280
     0
102
RTVSPost2010PropOp31
 70
     1
102
RTVSPost2010Prop32
280
     0
102
RTVSPost2010PropOp32
 70
     1
102
RTVSPost2010Prop33
280
     0
102
RTVSPost2010PropOp33
 70
     1
102
RTVSPost2010Prop34
280
     0
102
RTVSPost2010PropOp34
 70
     1
102
RTVSPost2010Prop35
280
     0
102
RTVSPost2010PropOp35
 70
     1
102
RTVSPost2010Prop36
280
     0
102
RTVSPost2010PropOp36
 70
     1
102
RTVSPost2010Prop37
 90
       50
102
RTVSPost2010PropOp37
 70
     1
102
RTVSPost2010Prop38
140
0.0
102
RTVSPost2010PropOp38
 70
     1
102
RTVSPost2010Prop39
140
1.0
102
RTVSPost2010PropOp39
 70
     1
102
RTVSPost2010Prop40
 90
        0
102
RTVSPost2010PropOp40
 70
     1
102
RTVSPost2010Prop41ColorIndex
 90
       18
102
RTVSPost2010Prop41ColorRGB
 90
        0
102
RTVSPost2010PropOp41
 70
     1
102
RTVSPost2010Prop42
 90
       50
102
RTVSPost2010PropOp42
 70
     1
102
RTVSPost2010Prop43
 90
        3
102
RTVSPost2010PropOp43
 70
     1
102
RTVSPost2010Prop44ColorIndex
 90
        5
102
RTVSPost2010Prop44ColorRGB
 90
      255
102
RTVSPost2010PropOp44
 70
     1
102
RTVSPost2010Prop45
280
     0
102
RTVSPost2010PropOp45
 70
     1
102
RTVSPost2010Prop46
 90
       50
102
RTVSPost2010PropOp46
 70
     1
102
RTVSPost2010Prop47
 90
       50
102
RTVSPost2010PropOp47
 70
     1
102
RTVSPost2010Prop48
 90
       50
102
RTVSPost2010PropOp48
 70
     1
102
RTVSPost2010Prop49
280
     0
102
RTVSPost2010PropOp49
 70
     1
102
RTVSPost2010Prop50
 90
       50
102
RTVSPost2010PropOp50
 70
     1
102
RTVSPost2010Prop51ColorIndex
 90
      256
102
RTVSPost2010Prop51ColorRGB
 90
-16777216
102
RTVSPost2010PropOp51
 70
     0
102
RTVSPost2010Prop52
140
1.0
102
RTVSPost2010PropOp52
 70
     0
102
RTVSPost2010Prop53
 90
        2
102
RTVSPost2010PropOp53
 70
     1
102
RTVSPost2010Prop54
  1
strokes_ogs.tif
102
RTVSPost2010PropOp54
 70
     1
102
RTVSPost2010Prop55
280
     0
102
RTVSPost2010PropOp55
 70
     1
102
RTVSPost2010Prop56
140
1.0
102
RTVSPost2010PropOp56
 70
     1
102
RTVSPost2010Prop57
140
1.0
102
RTVSPost2010PropOp57
 70
     1
  0
ENDSEC
  0
EOF
