  0
SECTION
  2
HEADER
  9
$ACADVER
  1
AC1024
  9
$ACADMAINTVER
 70
   226
  9
$DWGCODEPAGE
  3
ANSI_932
  9
$INSBASE
 10
0.0
 20
0.0
 30
0.0
  9
$EXTMIN
 10
1.000000000000000E+20
 20
1.000000000000000E+20
 30
1.000000000000000E+20
  9
$EXTMAX
 10
-1.000000000000000E+20
 20
-1.000000000000000E+20
 30
-1.000000000000000E+20
  9
$LIMMIN
 10
0.0
 20
0.0
  9
$LIMMAX
 10
12.0
 20
9.0
  9
$ORTHOMODE
 70
     0
  9
$REGENMODE
 70
     1
  9
$FILLMODE
 70
     1
  9
$QTEXTMODE
 70
     0
  9
$MIRRTEXT
 70
     0
  9
$LTSCALE
 40
1.0
  9
$ATTMODE
 70
     1
  9
$TEXTSIZE
 40
0.2
  9
$TRACEWID
 40
0.05
  9
$TEXTSTYLE
  7
Standard
  9
$CLAYER
  8
0
  9
$CELTYPE
  6
ByLayer
  9
$CECOLOR
 62
   256
  9
$CELTSCALE
 40
1.0
  9
$DISPSILH
 70
     0
  9
$DIMSCALE
 40
1.0
  9
$DIMASZ
 40
0.18
  9
$DIMEXO
 40
0.0625
  9
$DIMDLI
 40
0.38
  9
$DIMRND
 40
0.0
  9
$DIMDLE
 40
0.0
  9
$DIMEXE
 40
0.18
  9
$DIMTP
 40
0.0
  9
$DIMTM
 40
0.0
  9
$DIMTXT
 40
0.18
  9
$DIMCEN
 40
0.09
  9
$DIMTSZ
 40
0.0
  9
$DIMTOL
 70
     0
  9
$DIMLIM
 70
     0
  9
$DIMTIH
 70
     1
  9
$DIMTOH
 70
     1
  9
$DIMSE1
 70
     0
  9
$DIMSE2
 70
     0
  9
$DIMTAD
 70
     0
  9
$DIMZIN
 70
     0
  9
$DIMBLK
  1

  9
$DIMASO
 70
     1
  9
$DIMSHO
 70
     1
  9
$DIMPOST
  1

  9
$DIMAPOST
  1

  9
$DIMALT
 70
     0
  9
$DIMALTD
 70
     2
  9
$DIMALTF
 40
25.4
  9
$DIMLFAC
 40
1.0
  9
$DIMTOFL
 70
     0
  9
$DIMTVP
 40
0.0
  9
$DIMTIX
 70
     0
  9
$DIMSOXD
 70
     0
  9
$DIMSAH
 70
     0
  9
$DIMBLK1
  1

  9
$DIMBLK2
  1

  9
$DIMSTYLE
  2
Standard
  9
$DIMCLRD
 70
     0
  9
$DIMCLRE
 70
     0
  9
$DIMCLRT
 70
     0
  9
$DIMTFAC
 40
1.0
  9
$DIMGAP
 40
0.09
  9
$DIMJUST
 70
     0
  9
$DIMSD1
 70
     0
  9
$DIMSD2
 70
     0
  9
$DIMTOLJ
 70
     1
  9
$DIMTZIN
 70
     0
  9
$DIMALTZ
 70
     0
  9
$DIMALTTZ
 70
     0
  9
$DIMUPT
 70
     0
  9
$DIMDEC
 70
     4
  9
$DIMTDEC
 70
     4
  9
$DIMALTU
 70
     2
  9
$DIMALTTD
 70
     2
  9
$DIMTXSTY
  7
Standard
  9
$DIMAUNIT
 70
     0
  9
$DIMADEC
 70
     0
  9
$DIMALTRND
 40
0.0
  9
$DIMAZIN
 70
     0
  9
$DIMDSEP
 70
    46
  9
$DIMATFIT
 70
     3
  9
$DIMFRAC
 70
     0
  9
$DIMLDRBLK
  1

  9
$DIMLUNIT
 70
     2
  9
$DIMLWD
 70
    -2
  9
$DIMLWE
 70
    -2
  9
$DIMTMOVE
 70
     0
  9
$DIMFXL
 40
1.0
  9
$DIMFXLON
 70
     0
  9
$DIMJOGANG
 40
0.7853981633974483
  9
$DIMTFILL
 70
     0
  9
$DIMTFILLCLR
 70
     0
  9
$DIMARCSYM
 70
     0
  9
$DIMLTYPE
  6

  9
$DIMLTEX1
  6

  9
$DIMLTEX2
  6

  9
$DIMTXTDIRECTION
 70
     0
  9
$LUNITS
 70
     2
  9
$LUPREC
 70
     4
  9
$SKETCHINC
 40
0.1
  9
$FILLETRAD
 40
0.0
  9
$AUNITS
 70
     0
  9
$AUPREC
 70
     0
  9
$MENU
  1
.
  9
$ELEVATION
 40
0.0
  9
$PELEVATION
 40
0.0
  9
$THICKNESS
 40
0.0
  9
$LIMCHECK
 70
     0
  9
$CHAMFERA
 40
0.0
  9
$CHAMFERB
 40
0.0
  9
$CHAMFERC
 40
0.0
  9
$CHAMFERD
 40
0.0
  9
$SKPOLY
 70
     0
  9
$TDCREATE
 40
2459569.503981481
  9
$TDUCREATE
 40
2459569.128981482
  9
$TDUPDATE
 40
2459569.503981481
  9
$TDUUPDATE
 40
2459569.128981482
  9
$TDINDWG
 40
0.0000000000
  9
$TDUSRTIMER
 40
0.0000000000
  9
$USRTIMER
 70
     1
  9
$ANGBASE
 50
0.0
  9
$ANGDIR
 70
     0
  9
$PDMODE
 70
     0
  9
$PDSIZE
 40
0.0
  9
$PLINEWID
 40
0.0
  9
$SPLFRAME
 70
     0
  9
$SPLINETYPE
 70
     6
  9
$SPLINESEGS
 70
     8
  9
$HANDSEED
  5
1C0
  9
$SURFTAB1
 70
     6
  9
$SURFTAB2
 70
     6
  9
$SURFTYPE
 70
     6
  9
$SURFU
 70
     6
  9
$SURFV
 70
     6
  9
$UCSBASE
  2

  9
$UCSNAME
  2

  9
$UCSORG
 10
0.0
 20
0.0
 30
0.0
  9
$UCSXDIR
 10
1.0
 20
0.0
 30
0.0
  9
$UCSYDIR
 10
0.0
 20
1.0
 30
0.0
  9
$UCSORTHOREF
  2

  9
$UCSORTHOVIEW
 70
     0
  9
$UCSORGTOP
 10
0.0
 20
0.0
 30
0.0
  9
$UCSORGBOTTOM
 10
0.0
 20
0.0
 30
0.0
  9
$UCSORGLEFT
 10
0.0
 20
0.0
 30
0.0
  9
$UCSORGRIGHT
 10
0.0
 20
0.0
 30
0.0
  9
$UCSORGFRONT
 10
0.0
 20
0.0
 30
0.0
  9
$UCSORGBACK
 10
0.0
 20
0.0
 30
0.0
  9
$PUCSBASE
  2

  9
$PUCSNAME
  2

  9
$PUCSORG
 10
0.0
 20
0.0
 30
0.0
  9
$PUCSXDIR
 10
1.0
 20
0.0
 30
0.0
  9
$PUCSYDIR
 10
0.0
 20
1.0
 30
0.0
  9
$PUCSORTHOREF
  2

  9
$PUCSORTHOVIEW
 70
     0
  9
$PUCSORGTOP
 10
0.0
 20
0.0
 30
0.0
  9
$PUCSORGBOTTOM
 10
0.0
 20
0.0
 30
0.0
  9
$PUCSORGLEFT
 10
0.0
 20
0.0
 30
0.0
  9
$PUCSORGRIGHT
 10
0.0
 20
0.0
 30
0.0
  9
$PUCSORGFRONT
 10
0.0
 20
0.0
 30
0.0
  9
$PUCSORGBACK
 10
0.0
 20
0.0
 30
0.0
  9
$USERI1
 70
     0
  9
$USERI2
 70
     0
  9
$USERI3
 70
     0
  9
$USERI4
 70
     0
  9
$USERI5
 70
     0
  9
$USERR1
 40
0.0
  9
$USERR2
 40
0.0
  9
$USERR3
 40
0.0
  9
$USERR4
 40
0.0
  9
$USERR5
 40
0.0
  9
$WORLDVIEW
 70
     1
  9
$SHADEDGE
 70
     3
  9
$SHADEDIF
 70
    70
  9
$TILEMODE
 70
     1
  9
$MAXACTVP
 70
    64
  9
$PINSBASE
 10
0.0
 20
0.0
 30
0.0
  9
$PLIMCHECK
 70
     0
  9
$PEXTMIN
 10
1.000000000000000E+20
 20
1.000000000000000E+20
 30
1.000000000000000E+20
  9
$PEXTMAX
 10
-1.000000000000000E+20
 20
-1.000000000000000E+20
 30
-1.000000000000000E+20
  9
$PLIMMIN
 10
0.0
 20
0.0
  9
$PLIMMAX
 10
12.0
 20
9.0
  9
$UNITMODE
 70
     0
  9
$VISRETAIN
 70
     1
  9
$PLINEGEN
 70
     0
  9
$PSLTSCALE
 70
     1
  9
$TREEDEPTH
 70
  3020
  9
$CMLSTYLE
  2
Standard
  9
$CMLJUST
 70
     0
  9
$CMLSCALE
 40
1.0
  9
$PROXYGRAPHICS
 70
     1
  9
$MEASUREMENT
 70
     0
  9
$CELWEIGHT
370
    -1
  9
$ENDCAPS
280
     0
  9
$JOINSTYLE
280
     0
  9
$LWDISPLAY
290
     1
  9
$INSUNITS
 70
     4
  9
$HYPERLINKBASE
  1

  9
$STYLESHEET
  1

  9
$XEDIT
290
     1
  9
$CEPSNTYPE
380
     0
  9
$PSTYLEMODE
290
     1
  9
$FINGERPRINTGUID
  2
{0AE325C2-60E3-2B43-A061-28AC5A3027FC}
  9
$VERSIONGUID
  2
{DE467AA7-923A-8A43-86F7-EAB2B1F186AF}
  9
$EXTNAMES
290
     1
  9
$PSVPSCALE
 40
0.0
  9
$OLESTARTUP
290
     0
  9
$SORTENTS
280
   127
  9
$INDEXCTL
280
     0
  9
$HIDETEXT
280
     1
  9
$XCLIPFRAME
280
     2
  9
$HALOGAP
280
     0
  9
$OBSCOLOR
 70
   257
  9
$OBSLTYPE
280
     0
  9
$INTERSECTIONDISPLAY
280
     0
  9
$INTERSECTIONCOLOR
 70
   257
  9
$DIMASSOC
280
     2
  9
$PROJECTNAME
  1

  9
$CAMERADISPLAY
290
     0
  9
$LENSLENGTH
 40
50.0
  9
$CAMERAHEIGHT
 40
0.0
  9
$STEPSPERSEC
 40
2.0
  9
$STEPSIZE
 40
6.0
  9
$3DDWFPREC
 40
2.0
  9
$PSOLWIDTH
 40
0.25
  9
$PSOLHEIGHT
 40
4.0
  9
$LOFTANG1
 40
1.570796326794896
  9
$LOFTANG2
 40
1.570796326794896
  9
$LOFTMAG1
 40
0.0
  9
$LOFTMAG2
 40
0.0
  9
$LOFTPARAM
 70
     7
  9
$LOFTNORMALS
280
     1
  9
$LATITUDE
 40
37.795
  9
$LONGITUDE
 40
-122.394
  9
$NORTHDIRECTION
 40
0.0
  9
$TIMEZONE
 70
 -8000
  9
$LIGHTGLYPHDISPLAY
280
     1
  9
$TILEMODELIGHTSYNCH
280
     1
  9
$CMATERIAL
347
11
  9
$SOLIDHIST
280
     0
  9
$SHOWHIST
280
     1
  9
$DWFFRAME
280
     2
  9
$DGNFRAME
280
     0
  9
$REALWORLDSCALE
290
     1
  9
$INTERFERECOLOR
 62
     1
  9
$INTERFEREOBJVS
345
33
  9
$INTERFEREVPVS
346
30
  9
$CSHADOW
280
     0
  9
$SHADOWPLANELOCATION
 40
0.0
  0
ENDSEC
  0
SECTION
  2
CLASSES
  0
CLASS
  1
ACDBDICTIONARYWDFLT
  2
AcDbDictionaryWithDefault
  3
ObjectDBX Classes
 90
        0
 91
        1
280
     0
281
     0
  0
CLASS
  1
MATERIAL
  2
AcDbMaterial
  3
ObjectDBX Classes
 90
     1153
 91
        3
280
     0
281
     0
  0
CLASS
  1
VISUALSTYLE
  2
AcDbVisualStyle
  3
ObjectDBX Classes
 90
     4095
 91
       24
280
     0
281
     0
  0
CLASS
  1
SCALE
  2
AcDbScale
  3
ObjectDBX Classes
 90
     1153
 91
       17
280
     0
281
     0
  0
CLASS
  1
TABLESTYLE
  2
AcDbTableStyle
  3
ObjectDBX Classes
 90
     4095
 91
        1
280
     0
281
     0
  0
CLASS
  1
MLEADERSTYLE
  2
AcDbMLeaderStyle
  3
ACDB_MLEADERSTYLE_CLASS
 90
     4095
 91
        1
280
     0
281
     0
  0
CLASS
  1
ACDBSECTIONVIEWSTYLE
  2
AcDbSectionViewStyle
  3
ObjectDBX Classes
 90
     1025
 91
        1
280
     0
281
     0
  0
CLASS
  1
ACDBDETAILVIEWSTYLE
  2
AcDbDetailViewStyle
  3
ObjectDBX Classes
 90
     1025
 91
        1
280
     0
281
     0
  0
CLASS
  1
DICTIONARYVAR
  2
AcDbDictionaryVar
  3
ObjectDBX Classes
 90
        0
 91
        5
280
     0
281
     0
  0
CLASS
  1
CELLSTYLEMAP
  2
AcDbCellStyleMap
  3
ObjectDBX Classes
 90
     1152
 91
        1
280
     0
281
     0
  0
ENDSEC
  0
SECTION
  2
TABLES
  0
TABLE
  2
VPORT
  5
8
330
0
100
AcDbSymbolTable
 70
     1
  0
VPORT
  5
57
330
8
100
AcDbSymbolTableRecord
100
AcDbViewportTableRecord
  2
*Active
 70
     0
 10
0.0
 20
0.0
 11
1.0
 21
1.0
 12
0.0
 22
0.0
 13
0.0
 23
0.0
 14
1.0
 24
1.0
 15
0.0
 25
0.0
 16
0.0
 26
0.0
 36
1.0
 17
104.9999999737534
 27
-148.4999999628701
 37
0.0
 40
302.939999924255
 41
0.7070707070707534
 42
50.0
 43
0.0
 44
0.0
 50
0.0
 51
0.0
 71
     0
 72
   100
 73
     1
 74
     0
 75
     1
 76
     0
 77
     0
 78
     0
281
     0
 65
     1
110
0.0
120
0.0
130
0.0
111
1.0
121
0.0
131
0.0
112
0.0
122
1.0
132
0.0
 79
     0
146
0.0
 60
     3
 61
     5
292
     1
282
     1
141
0.0
142
0.0
 63
   250
421
  3355443
  0
ENDTAB
  0
TABLE
  2
LTYPE
  5
5
330
0
100
AcDbSymbolTable
 70
     3
  0
LTYPE
  5
5B
330
5
100
AcDbSymbolTableRecord
100
AcDbLinetypeTableRecord
  2
ByBlock
 70
     0
  3

 72
    65
 73
     0
 40
0.0
  0
LTYPE
  5
5C
330
5
100
AcDbSymbolTableRecord
100
AcDbLinetypeTableRecord
  2
ByLayer
 70
     0
  3

 72
    65
 73
     0
 40
0.0
  0
LTYPE
  5
5D
330
5
100
AcDbSymbolTableRecord
100
AcDbLinetypeTableRecord
  2
Continuous
 70
     0
  3
Solid line
 72
    65
 73
     0
 40
0.0
  0
LTYPE
  5
7A
330
5
100
AcDbSymbolTableRecord
100
AcDbLinetypeTableRecord
  2
AI-Linetype-0
 70
     0
  3
Adobe Illustrator Linetype No. 0
 72
    65
 73
     2
 40
1.411111110758333
 49
0.7055555553791667
 74
     0
 49
-0.7055555553791667
 74
     0
  0
LTYPE
  5
7C
330
5
100
AcDbSymbolTableRecord
100
AcDbLinetypeTableRecord
  2
AI-Linetype-1
 70
     0
  3
Adobe Illustrator Linetype No. 1
 72
    65
 73
     2
 40
1.411111110758333
 49
0.7055555553791667
 74
     0
 49
-0.7055555553791667
 74
     0
  0
ENDTAB
  0
TABLE
  2
LAYER
  5
2
330
0
100
AcDbSymbolTable
 70
     2
  0
LAYER
  5
54
330
2
100
AcDbSymbolTableRecord
100
AcDbLayerTableRecord
  2
0
 70
     0
 62
     7
  6
Continuous
370
    -3
390
F
347
21
  0
LAYER
  5
78
330
2
100
AcDbSymbolTableRecord
100
AcDbLayerTableRecord
  2
レイヤー 1
 70
     0
 62
     7
  6
Continuous
370
     0
390
F
347
21
  0
ENDTAB
  0
TABLE
  2
STYLE
  5
3
330
0
100
AcDbSymbolTable
 70
     2
  0
STYLE
  5
55
330
3
100
AcDbSymbolTableRecord
100
AcDbTextStyleTableRecord
  2
Standard
 70
     0
 40
0.0
 41
1.0
 50
0.0
 71
     0
 42
0.2
  3
txt
  4

  0
STYLE
  5
5A
330
3
100
AcDbSymbolTableRecord
100
AcDbTextStyleTableRecord
  2
Annotative
 70
     0
 40
0.0
 41
1.0
 50
0.0
 71
     0
 42
0.2
  3
txt
  4

1001
AcadAnnotative
1000
AnnotativeData
1002
{
1070
     1
1070
     1
1002
}
  0
ENDTAB
  0
TABLE
  2
VIEW
  5
6
330
0
100
AcDbSymbolTable
 70
     0
  0
ENDTAB
  0
TABLE
  2
UCS
  5
7
330
0
100
AcDbSymbolTable
 70
     0
  0
ENDTAB
  0
TABLE
  2
APPID
  5
9
330
0
100
AcDbSymbolTable
 70
     2
  0
APPID
  5
56
330
9
100
AcDbSymbolTableRecord
100
AcDbRegAppTableRecord
  2
ACAD
 70
     0
  0
APPID
  5
5E
330
9
100
AcDbSymbolTableRecord
100
AcDbRegAppTableRecord
  2
AcadAnnotative
 70
     0
  0
ENDTAB
  0
TABLE
  2
DIMSTYLE
  5
A
330
0
100
AcDbSymbolTable
 70
     2
100
AcDbDimStyleTable
 71
     0
  0
DIMSTYLE
105
58
330
A
100
AcDbSymbolTableRecord
100
AcDbDimStyleTableRecord
  2
Standard
 70
     0
340
55
  0
DIMSTYLE
105
59
330
A
100
AcDbSymbolTableRecord
100
AcDbDimStyleTableRecord
  2
Annotative
 70
     0
340
55
1001
AcadAnnotative
1000
AnnotativeData
1002
{
1070
     1
1070
     1
1002
}
  0
ENDTAB
  0
TABLE
  2
BLOCK_RECORD
  5
1
330
0
100
AcDbSymbolTable
 70
    19
  0
BLOCK_RECORD
  5
70
330
1
100
AcDbSymbolTableRecord
100
AcDbBlockTableRecord
  2
*Model_Space
340
73
 70
     0
280
     1
281
     0
  0
BLOCK_RECORD
  5
6C
330
1
100
AcDbSymbolTableRecord
100
AcDbBlockTableRecord
  2
*Paper_Space
340
6F
 70
     0
280
     1
281
     0
  0
BLOCK_RECORD
  5
74
330
1
100
AcDbSymbolTableRecord
100
AcDbBlockTableRecord
  2
*Paper_Space0
340
77
 70
     0
280
     1
281
     0
  0
BLOCK_RECORD
  5
7D
330
1
100
AcDbSymbolTableRecord
100
AcDbBlockTableRecord
  2
Block_0
340
0
102
{BLKREFS
331
7E
102
}
 70
     0
280
     1
281
     0
  0
BLOCK_RECORD
  5
EB
330
1
100
AcDbSymbolTableRecord
100
AcDbBlockTableRecord
  2
Block_1
340
0
102
{BLKREFS
331
EC
102
}
 70
     0
280
     1
281
     0
  0
BLOCK_RECORD
  5
EF
330
1
100
AcDbSymbolTableRecord
100
AcDbBlockTableRecord
  2
Block_2
340
0
102
{BLKREFS
331
F0
102
}
 70
     0
280
     1
281
     0
  0
BLOCK_RECORD
  5
FC
330
1
100
AcDbSymbolTableRecord
100
AcDbBlockTableRecord
  2
Block_3
340
0
102
{BLKREFS
331
FD
102
}
 70
     0
280
     1
281
     0
  0
BLOCK_RECORD
  5
100
330
1
100
AcDbSymbolTableRecord
100
AcDbBlockTableRecord
  2
Block_4
340
0
102
{BLKREFS
331
101
102
}
 70
     0
280
     1
281
     0
  0
BLOCK_RECORD
  5
10A
330
1
100
AcDbSymbolTableRecord
100
AcDbBlockTableRecord
  2
Block_5
340
0
102
{BLKREFS
331
10B
102
}
 70
     0
280
     1
281
     0
  0
BLOCK_RECORD
  5
113
330
1
100
AcDbSymbolTableRecord
100
AcDbBlockTableRecord
  2
Block_6
340
0
102
{BLKREFS
331
114
102
}
 70
     0
280
     1
281
     0
  0
BLOCK_RECORD
  5
117
330
1
100
AcDbSymbolTableRecord
100
AcDbBlockTableRecord
  2
Block_7
340
0
102
{BLKREFS
331
118
102
}
 70
     0
280
     1
281
     0
  0
BLOCK_RECORD
  5
122
330
1
100
AcDbSymbolTableRecord
100
AcDbBlockTableRecord
  2
Block_8
340
0
102
{BLKREFS
331
123
102
}
 70
     0
280
     1
281
     0
  0
BLOCK_RECORD
  5
126
330
1
100
AcDbSymbolTableRecord
100
AcDbBlockTableRecord
  2
Block_9
340
0
102
{BLKREFS
331
127
102
}
 70
     0
280
     1
281
     0
  0
BLOCK_RECORD
  5
134
330
1
100
AcDbSymbolTableRecord
100
AcDbBlockTableRecord
  2
Block_10
340
0
102
{BLKREFS
331
135
102
}
 70
     0
280
     1
281
     0
  0
BLOCK_RECORD
  5
138
330
1
100
AcDbSymbolTableRecord
100
AcDbBlockTableRecord
  2
Block_11
340
0
102
{BLKREFS
331
139
102
}
 70
     0
280
     1
281
     0
  0
BLOCK_RECORD
  5
141
330
1
100
AcDbSymbolTableRecord
100
AcDbBlockTableRecord
  2
Block_12
340
0
102
{BLKREFS
331
142
102
}
 70
     0
280
     1
281
     0
  0
BLOCK_RECORD
  5
147
330
1
100
AcDbSymbolTableRecord
100
AcDbBlockTableRecord
  2
Block_13
340
0
102
{BLKREFS
331
148
102
}
 70
     0
280
     1
281
     0
  0
BLOCK_RECORD
  5
14E
330
1
100
AcDbSymbolTableRecord
100
AcDbBlockTableRecord
  2
Block_14
340
0
102
{BLKREFS
331
14F
102
}
 70
     0
280
     1
281
     0
  0
BLOCK_RECORD
  5
152
330
1
100
AcDbSymbolTableRecord
100
AcDbBlockTableRecord
  2
Block_15
340
0
102
{BLKREFS
331
153
102
}
 70
     0
280
     1
281
     0
  0
BLOCK_RECORD
  5
166
330
1
100
AcDbSymbolTableRecord
100
AcDbBlockTableRecord
  2
Block_16
340
0
102
{BLKREFS
331
167
102
}
 70
     0
280
     1
281
     0
  0
BLOCK_RECORD
  5
16A
330
1
100
AcDbSymbolTableRecord
100
AcDbBlockTableRecord
  2
Block_17
340
0
102
{BLKREFS
331
16B
102
}
 70
     0
280
     1
281
     0
  0
ENDTAB
  0
ENDSEC
  0
SECTION
  2
BLOCKS
  0
BLOCK
  5
71
330
70
100
AcDbEntity
  8
0
100
AcDbBlockBegin
  2
*Model_Space
 70
     0
 10
0.0
 20
0.0
 30
0.0
  3
*Model_Space
  1

  0
ENDBLK
  5
72
330
70
100
AcDbEntity
  8
0
100
AcDbBlockEnd
  0
BLOCK
  5
6D
330
6C
100
AcDbEntity
 67
     1
  8
0
100
AcDbBlockBegin
  2
*Paper_Space
 70
     0
 10
0.0
 20
0.0
 30
0.0
  3
*Paper_Space
  1

  0
ENDBLK
  5
6E
330
6C
100
AcDbEntity
 67
     1
  8
0
100
AcDbBlockEnd
  0
BLOCK
  5
75
330
74
100
AcDbEntity
 67
     1
  8
0
100
AcDbBlockBegin
  2
*Paper_Space0
 70
     0
 10
0.0
 20
0.0
 30
0.0
  3
*Paper_Space0
  1

  0
ENDBLK
  5
76
330
74
100
AcDbEntity
 67
     1
  8
0
100
AcDbBlockEnd
  0
BLOCK
  5
7F
330
7D
100
AcDbEntity
  8
0
100
AcDbBlockBegin
  2
Block_0
 70
     0
 10
0.0
 20
0.0
 30
0.0
  3
Block_0
  1

  0
LINE
  5
81
330
7D
100
AcDbEntity
  8
レイヤー 1
 62
    18
420
        0
370
     9
100
AcDbLine
 10
131.2649212895991
 20
-148.5335225823453
 30
0.0
 11
132.0765571022259
 21
-149.1178284155327
 31
0.0
  0
LINE
  5
82
330
7D
100
AcDbEntity
  8
レイヤー 1
 62
    18
420
        0
370
     9
100
AcDbLine
 10
131.2649212895991
 20
-148.5335225823453
 30
0.0
 11
133.84252733495
 21
-151.6906367482227
 31
0.0
  0
LINE
  5
83
330
7D
100
AcDbEntity
  8
レイヤー 1
 62
    18
420
        0
370
     9
100
AcDbLine
 10
131.2649212895991
 20
-148.5335225823453
 30
0.0
 11
131.6755546124563
 21
-149.4454531376725
 31
0.0
  0
ENDBLK
  5
80
330
7D
100
AcDbEntity
  8
0
100
AcDbBlockEnd
  0
BLOCK
  5
ED
330
EB
100
AcDbEntity
  8
0
100
AcDbBlockBegin
  2
Block_1
 70
     0
 10
0.0
 20
0.0
 30
0.0
  3
Block_1
  1

  0
INSERT
  5
F0
330
EB
100
AcDbEntity
  8
レイヤー 1
100
AcDbBlockReference
  2
Block_2
 10
0.0
 20
0.0
 30
0.0
  0
ENDBLK
  5
EE
330
EB
100
AcDbEntity
  8
0
100
AcDbBlockEnd
  0
BLOCK
  5
F1
330
EF
100
AcDbEntity
  8
0
100
AcDbBlockBegin
  2
Block_2
 70
     0
 10
0.0
 20
0.0
 30
0.0
  3
Block_2
  1

  0
SPLINE
  5
F3
330
EF
100
AcDbEntity
  8
レイヤー 1
100
AcDbSpline
210
0.0
220
0.0
230
1.0
 70
     9
 71
     3
 72
    17
 73
    13
 74
     0
 42
0.0000000001
 43
0.0000000001
 40
0.0
 40
0.0
 40
0.0
 40
0.0
 40
1.0
 40
1.0
 40
1.0
 40
2.0
 40
2.0
 40
2.0
 40
3.0
 40
3.0
 40
3.0
 40
4.0
 40
4.0
 40
4.0
 40
4.0
 10
68.09541285189976
 20
-147.8118217946442
 30
0.0
 10
68.09541285189976
 20
-148.0615912173249
 30
0.0
 10
68.37877195556156
 20
-148.1081000063757
 30
0.0
 10
68.72362601363507
 20
-148.1081000063757
 30
0.0
 10
69.043158619892
 20
-148.1081000063757
 30
0.0
 10
69.35201143014464
 20
-148.0719265037806
 30
0.0
 10
69.35201143014464
 20
-147.8118217946442
 30
0.0
 10
69.35201143014464
 20
-147.5641194292548
 30
0.0
 10
69.07054712899972
 20
-147.5155435829128
 30
0.0
 10
68.72362601363507
 20
-147.5155435829128
 30
0.0
 10
68.40426566215241
 20
-147.5155435829128
 30
0.0
 10
68.09541285189976
 20
-147.553784142799
 30
0.0
 10
68.09541285189976
 20
-147.8118217946442
 30
0.0
  0
SPLINE
  5
F4
330
EF
100
AcDbEntity
  8
レイヤー 1
100
AcDbSpline
210
0.0
220
0.0
230
1.0
 70
     9
 71
     3
 72
    29
 73
    25
 74
     0
 42
0.0000000001
 43
0.0000000001
 40
0.0
 40
0.0
 40
0.0
 40
0.0
 40
1.0
 40
1.0
 40
1.0
 40
2.0
 40
2.0
 40
2.0
 40
3.0
 40
3.0
 40
3.0
 40
4.0
 40
4.0
 40
4.0
 40
5.0
 40
5.0
 40
5.0
 40
6.0
 40
6.0
 40
6.0
 40
7.0
 40
7.0
 40
7.0
 40
8.0
 40
8.0
 40
8.0
 40
8.0
 10
69.31807723961492
 20
-147.4139132660979
 30
0.0
 10
69.52753904511812
 20
-147.5220892643347
 30
0.0
 10
69.54665932506125
 20
-147.6953775672428
 30
0.0
 10
69.54665932506125
 20
-147.8118217946442
 30
0.0
 10
69.54665932506125
 20
-147.9727077538054
 30
0.0
 10
69.50015053601038
 20
-148.1143011782492
 30
0.0
 10
69.31807723961492
 20
-148.2093858136421
 30
0.0
 10
69.12360159947258
 20
-148.3130831877481
 30
0.0
 10
68.88657903008739
 20
-148.3323757224655
 30
0.0
 10
68.72362601363507
 20
-148.3323757224655
 30
0.0
 10
68.57979327712588
 20
-148.3323757224655
 30
0.0
 10
68.32812905192838
 20
-148.3151502450392
 30
0.0
 10
68.12917478765522
 20
-148.2093858136421
 30
0.0
 10
67.92608640879973
 20
-148.1015543249537
 30
0.0
 10
67.90283201427429
 20
-147.9406683657926
 30
0.0
 10
67.90283201427429
 20
-147.8118217946442
 30
0.0
 10
67.90283201427429
 20
-147.6530028927742
 30
0.0
 10
67.94727374603401
 20
-147.5093424110393
 30
0.0
 10
68.12917478765522
 20
-147.4139132660979
 30
0.0
 10
68.32175562528068
 20
-147.3146945161227
 30
0.0
 10
68.55016545595273
 20
-147.291267866823
 30
0.0
 10
68.72362601363507
 20
-147.291267866823
 30
0.0
 10
68.89501951402625
 20
-147.291267866823
 30
0.0
 10
69.12566865676372
 20
-147.3126274588316
 30
0.0
 10
69.31807723961492
 20
-147.4139132660979
 30
0.0
  0
HATCH
  5
F5
330
EF
100
AcDbEntity
  8
レイヤー 1
 62
    18
420
        0
440
 33554687
100
AcDbHatch
 10
0.0
 20
0.0
 30
0.0
210
0.0
220
0.0
230
1.0
  2
SOLID
 70
     1
 71
     1
 91
        2
 92
        1
 93
        1
 72
     4
 94
        3
 73
     0
 74
     0
 95
       17
 96
       13
 40
0.0
 40
0.0
 40
0.0
 40
0.0
 40
1.0
 40
1.0
 40
1.0
 40
2.0
 40
2.0
 40
2.0
 40
3.0
 40
3.0
 40
3.0
 40
4.0
 40
4.0
 40
4.0
 40
4.0
 10
68.09541285189976
 20
-147.8118217946442
 10
68.09541285189976
 20
-148.0615912173249
 10
68.37877195556156
 20
-148.1081000063757
 10
68.72362601363507
 20
-148.1081000063757
 10
69.043158619892
 20
-148.1081000063757
 10
69.35201143014464
 20
-148.0719265037806
 10
69.35201143014464
 20
-147.8118217946442
 10
69.35201143014464
 20
-147.5641194292548
 10
69.07054712899972
 20
-147.5155435829128
 10
68.72362601363507
 20
-147.5155435829128
 10
68.40426566215241
 20
-147.5155435829128
 10
68.09541285189976
 20
-147.553784142799
 10
68.09541285189976
 20
-147.8118217946442
 97
        0
 97
        1
330
F3
 92
        1
 93
        1
 72
     4
 94
        3
 73
     0
 74
     0
 95
       29
 96
       25
 40
0.0
 40
0.0
 40
0.0
 40
0.0
 40
1.0
 40
1.0
 40
1.0
 40
2.0
 40
2.0
 40
2.0
 40
3.0
 40
3.0
 40
3.0
 40
4.0
 40
4.0
 40
4.0
 40
5.0
 40
5.0
 40
5.0
 40
6.0
 40
6.0
 40
6.0
 40
7.0
 40
7.0
 40
7.0
 40
8.0
 40
8.0
 40
8.0
 40
8.0
 10
69.31807723961492
 20
-147.4139132660979
 10
69.52753904511812
 20
-147.5220892643347
 10
69.54665932506125
 20
-147.6953775672428
 10
69.54665932506125
 20
-147.8118217946442
 10
69.54665932506125
 20
-147.9727077538054
 10
69.50015053601038
 20
-148.1143011782492
 10
69.31807723961492
 20
-148.2093858136421
 10
69.12360159947258
 20
-148.3130831877481
 10
68.88657903008739
 20
-148.3323757224655
 10
68.72362601363507
 20
-148.3323757224655
 10
68.57979327712588
 20
-148.3323757224655
 10
68.32812905192838
 20
-148.3151502450392
 10
68.12917478765522
 20
-148.2093858136421
 10
67.92608640879973
 20
-148.1015543249537
 10
67.90283201427429
 20
-147.9406683657926
 10
67.90283201427429
 20
-147.8118217946442
 10
67.90283201427429
 20
-147.6530028927742
 10
67.94727374603401
 20
-147.5093424110393
 10
68.12917478765522
 20
-147.4139132660979
 10
68.32175562528068
 20
-147.3146945161227
 10
68.55016545595273
 20
-147.291267866823
 10
68.72362601363507
 20
-147.291267866823
 10
68.89501951402625
 20
-147.291267866823
 10
69.12566865676372
 20
-147.3126274588316
 10
69.31807723961492
 20
-147.4139132660979
 97
        0
 97
        1
330
F4
 75
     2
 76
     1
 98
        1
 10
0.0
 20
0.0
450
        0
451
        0
460
0.0
461
0.0
452
        0
462
0.0
453
        0
470

  0
SPLINE
  5
F6
330
EF
100
AcDbEntity
  8
レイヤー 1
100
AcDbSpline
210
0.0
220
0.0
230
1.0
 70
    11
 71
     3
 72
    17
 73
    13
 74
     0
 42
0.0000000001
 43
0.0000000001
 40
0.0
 40
0.0
 40
0.0
 40
0.0
 40
1.0
 40
1.0
 40
1.0
 40
2.0
 40
2.0
 40
2.0
 40
3.0
 40
3.0
 40
3.0
 40
4.0
 40
4.0
 40
4.0
 40
4.0
 10
69.49584416665382
 20
-147.0749158703493
 30
0.0
 10
69.49584416665382
 20
-147.0749158703493
 30
0.0
 10
69.24417994145632
 20
-147.0749158703493
 30
0.0
 10
69.24417994145632
 20
-147.0749158703493
 30
0.0
 10
69.24417994145632
 20
-147.0749158703493
 30
0.0
 10
69.24417994145632
 20
-146.8230793903775
 30
0.0
 10
69.24417994145632
 20
-146.8230793903775
 30
0.0
 10
69.24417994145632
 20
-146.8230793903775
 30
0.0
 10
69.49584416665382
 20
-146.8230793903775
 30
0.0
 10
69.49584416665382
 20
-146.8230793903775
 30
0.0
 10
69.49584416665382
 20
-146.8230793903775
 30
0.0
 10
69.49584416665382
 20
-147.0749158703493
 30
0.0
 10
69.49584416665382
 20
-147.0749158703493
 30
0.0
  0
HATCH
  5
F7
330
EF
100
AcDbEntity
  8
レイヤー 1
 62
    18
420
        0
440
 33554687
100
AcDbHatch
 10
0.0
 20
0.0
 30
0.0
210
0.0
220
0.0
230
1.0
  2
SOLID
 70
     1
 71
     1
 91
        1
 92
        1
 93
        1
 72
     4
 94
        3
 73
     0
 74
     0
 95
       17
 96
       13
 40
0.0
 40
0.0
 40
0.0
 40
0.0
 40
1.0
 40
1.0
 40
1.0
 40
2.0
 40
2.0
 40
2.0
 40
3.0
 40
3.0
 40
3.0
 40
4.0
 40
4.0
 40
4.0
 40
4.0
 10
69.49584416665382
 20
-147.0749158703493
 10
69.49584416665382
 20
-147.0749158703493
 10
69.24417994145632
 20
-147.0749158703493
 10
69.24417994145632
 20
-147.0749158703493
 10
69.24417994145632
 20
-147.0749158703493
 10
69.24417994145632
 20
-146.8230793903775
 10
69.24417994145632
 20
-146.8230793903775
 10
69.24417994145632
 20
-146.8230793903775
 10
69.49584416665382
 20
-146.8230793903775
 10
69.49584416665382
 20
-146.8230793903775
 10
69.49584416665382
 20
-146.8230793903775
 10
69.49584416665382
 20
-147.0749158703493
 10
69.49584416665382
 20
-147.0749158703493
 97
        0
 97
        1
330
F6
 75
     2
 76
     1
 98
        1
 10
0.0
 20
0.0
450
        0
451
        0
460
0.0
461
0.0
452
        0
462
0.0
453
        0
470

  0
SPLINE
  5
F8
330
EF
100
AcDbEntity
  8
レイヤー 1
100
AcDbSpline
210
0.0
220
0.0
230
1.0
 70
     9
 71
     3
 72
    53
 73
    49
 74
     0
 42
0.0000000001
 43
0.0000000001
 40
0.0
 40
0.0
 40
0.0
 40
0.0
 40
1.0
 40
1.0
 40
1.0
 40
2.0
 40
2.0
 40
2.0
 40
3.0
 40
3.0
 40
3.0
 40
4.0
 40
4.0
 40
4.0
 40
5.0
 40
5.0
 40
5.0
 40
6.0
 40
6.0
 40
6.0
 40
7.0
 40
7.0
 40
7.0
 40
8.0
 40
8.0
 40
8.0
 40
9.0
 40
9.0
 40
9.0
 40
10.0
 40
10.0
 40
10.0
 40
11.0
 40
11.0
 40
11.0
 40
12.0
 40
12.0
 40
12.0
 40
13.0
 40
13.0
 40
13.0
 40
14.0
 40
14.0
 40
14.0
 40
15.0
 40
15.0
 40
15.0
 40
16.0
 40
16.0
 40
16.0
 40
16.0
 10
69.54665932506125
 20
-146.1058105103485
 30
0.0
 10
69.54665932506125
 20
-146.1840141778637
 30
0.0
 10
69.52977835718353
 20
-146.2856444946786
 30
0.0
 10
69.46621634548067
 20
-146.3872748114934
 30
0.0
 10
69.35614554472694
 20
-146.5605631144015
 30
0.0
 10
69.22505966151319
 20
-146.58192270641
 30
0.0
 10
69.11722817282487
 20
-146.6008707315789
 30
0.0
 10
69.11722817282487
 20
-146.6008707315789
 30
0.0
 10
69.11722817282487
 20
-146.3786620727803
 30
0.0
 10
69.11722817282487
 20
-146.3786620727803
 30
0.0
 10
69.31601018232377
 20
-146.3238850545648
 30
0.0
 10
69.34563800349692
 20
-146.1967610311591
 30
0.0
 10
69.34563800349692
 20
-146.1037434530574
 30
0.0
 10
69.34563800349692
 20
-145.9642170859048
 30
0.0
 10
69.24624699874747
 20
-145.8119438654567
 30
0.0
 10
69.01353079871885
 20
-145.8119438654567
 30
0.0
 10
68.75756020416478
 20
-145.8119438654567
 30
0.0
 10
68.68779702058848
 20
-145.9917778497868
 30
0.0
 10
68.68779702058848
 20
-146.1123561917705
 30
0.0
 10
68.68779702058848
 20
-146.1440510702348
 30
0.0
 10
68.68779702058848
 20
-146.2856444946786
 30
0.0
 10
68.81681584651108
 20
-146.374527958198
 30
0.0
 10
68.81681584651108
 20
-146.374527958198
 30
0.0
 10
68.79769556656794
 20
-146.5502278279458
 30
0.0
 10
68.79769556656794
 20
-146.5502278279458
 30
0.0
 10
68.79769556656794
 20
-146.5502278279458
 30
0.0
 10
67.95158011539058
 20
-146.429649485962
 30
0.0
 10
67.95158011539058
 20
-146.429649485962
 30
0.0
 10
67.95158011539058
 20
-146.429649485962
 30
0.0
 10
67.95158011539058
 20
-145.6510579062955
 30
0.0
 10
67.95158011539058
 20
-145.6510579062955
 30
0.0
 10
67.95158011539058
 20
-145.6510579062955
 30
0.0
 10
68.14622801030719
 20
-145.6510579062955
 30
0.0
 10
68.14622801030719
 20
-145.6510579062955
 30
0.0
 10
68.14622801030719
 20
-145.6510579062955
 30
0.0
 10
68.14622801030719
 20
-146.2666964695097
 30
0.0
 10
68.14622801030719
 20
-146.2666964695097
 30
0.0
 10
68.14622801030719
 20
-146.2666964695097
 30
0.0
 10
68.56928573589588
 20
-146.3321532837294
 30
0.0
 10
68.56928573589588
 20
-146.3321532837294
 30
0.0
 10
68.53535154536617
 20
-146.270830584092
 30
0.0
 10
68.495216182963
 20
-146.1884928019945
 30
0.0
 10
68.495216182963
 20
-146.0699815173019
 30
0.0
 10
68.495216182963
 20
-145.816077980039
 30
0.0
 10
68.68142359394076
 20
-145.5790554106538
 30
0.0
 10
68.99441051877571
 20
-145.5790554106538
 30
0.0
 10
69.31187606774148
 20
-145.5790554106538
 30
0.0
 10
69.54665932506125
 20
-145.8033311267436
 30
0.0
 10
69.54665932506125
 20
-146.1058105103485
 30
0.0
  0
HATCH
  5
F9
330
EF
100
AcDbEntity
  8
レイヤー 1
 62
    18
420
        0
440
 33554687
100
AcDbHatch
 10
0.0
 20
0.0
 30
0.0
210
0.0
220
0.0
230
1.0
  2
SOLID
 70
     1
 71
     1
 91
        1
 92
        1
 93
        1
 72
     4
 94
        3
 73
     0
 74
     0
 95
       53
 96
       49
 40
0.0
 40
0.0
 40
0.0
 40
0.0
 40
1.0
 40
1.0
 40
1.0
 40
2.0
 40
2.0
 40
2.0
 40
3.0
 40
3.0
 40
3.0
 40
4.0
 40
4.0
 40
4.0
 40
5.0
 40
5.0
 40
5.0
 40
6.0
 40
6.0
 40
6.0
 40
7.0
 40
7.0
 40
7.0
 40
8.0
 40
8.0
 40
8.0
 40
9.0
 40
9.0
 40
9.0
 40
10.0
 40
10.0
 40
10.0
 40
11.0
 40
11.0
 40
11.0
 40
12.0
 40
12.0
 40
12.0
 40
13.0
 40
13.0
 40
13.0
 40
14.0
 40
14.0
 40
14.0
 40
15.0
 40
15.0
 40
15.0
 40
16.0
 40
16.0
 40
16.0
 40
16.0
 10
69.54665932506125
 20
-146.1058105103485
 10
69.54665932506125
 20
-146.1840141778637
 10
69.52977835718353
 20
-146.2856444946786
 10
69.46621634548067
 20
-146.3872748114934
 10
69.35614554472694
 20
-146.5605631144015
 10
69.22505966151319
 20
-146.58192270641
 10
69.11722817282487
 20
-146.6008707315789
 10
69.11722817282487
 20
-146.6008707315789
 10
69.11722817282487
 20
-146.3786620727803
 10
69.11722817282487
 20
-146.3786620727803
 10
69.31601018232377
 20
-146.3238850545648
 10
69.34563800349692
 20
-146.1967610311591
 10
69.34563800349692
 20
-146.1037434530574
 10
69.34563800349692
 20
-145.9642170859048
 10
69.24624699874747
 20
-145.8119438654567
 10
69.01353079871885
 20
-145.8119438654567
 10
68.75756020416478
 20
-145.8119438654567
 10
68.68779702058848
 20
-145.9917778497868
 10
68.68779702058848
 20
-146.1123561917705
 10
68.68779702058848
 20
-146.1440510702348
 10
68.68779702058848
 20
-146.2856444946786
 10
68.81681584651108
 20
-146.374527958198
 10
68.81681584651108
 20
-146.374527958198
 10
68.79769556656794
 20
-146.5502278279458
 10
68.79769556656794
 20
-146.5502278279458
 10
68.79769556656794
 20
-146.5502278279458
 10
67.95158011539058
 20
-146.429649485962
 10
67.95158011539058
 20
-146.429649485962
 10
67.95158011539058
 20
-146.429649485962
 10
67.95158011539058
 20
-145.6510579062955
 10
67.95158011539058
 20
-145.6510579062955
 10
67.95158011539058
 20
-145.6510579062955
 10
68.14622801030719
 20
-145.6510579062955
 10
68.14622801030719
 20
-145.6510579062955
 10
68.14622801030719
 20
-145.6510579062955
 10
68.14622801030719
 20
-146.2666964695097
 10
68.14622801030719
 20
-146.2666964695097
 10
68.14622801030719
 20
-146.2666964695097
 10
68.56928573589588
 20
-146.3321532837294
 10
68.56928573589588
 20
-146.3321532837294
 10
68.53535154536617
 20
-146.270830584092
 10
68.495216182963
 20
-146.1884928019945
 10
68.495216182963
 20
-146.0699815173019
 10
68.495216182963
 20
-145.816077980039
 10
68.68142359394076
 20
-145.5790554106538
 10
68.99441051877571
 20
-145.5790554106538
 10
69.31187606774148
 20
-145.5790554106538
 10
69.54665932506125
 20
-145.8033311267436
 10
69.54665932506125
 20
-146.1058105103485
 97
        0
 97
        1
330
F8
 75
     2
 76
     1
 98
        1
 10
0.0
 20
0.0
450
        0
451
        0
460
0.0
461
0.0
452
        0
462
0.0
453
        0
470

  0
ENDBLK
  5
F2
330
EF
100
AcDbEntity
  8
0
100
AcDbBlockEnd
  0
BLOCK
  5
FE
330
FC
100
AcDbEntity
  8
0
100
AcDbBlockBegin
  2
Block_3
 70
     0
 10
0.0
 20
0.0
 30
0.0
  3
Block_3
  1

  0
INSERT
  5
101
330
FC
100
AcDbEntity
  8
レイヤー 1
100
AcDbBlockReference
  2
Block_4
 10
0.0
 20
0.0
 30
0.0
  0
ENDBLK
  5
FF
330
FC
100
AcDbEntity
  8
0
100
AcDbBlockEnd
  0
BLOCK
  5
102
330
100
100
AcDbEntity
  8
0
100
AcDbBlockBegin
  2
Block_4
 70
     0
 10
0.0
 20
0.0
 30
0.0
  3
Block_4
  1

  0
SPLINE
  5
104
330
100
100
AcDbEntity
  8
レイヤー 1
100
AcDbSpline
210
0.0
220
0.0
230
1.0
 70
     9
 71
     3
 72
    44
 73
    40
 74
     0
 42
0.0000000001
 43
0.0000000001
 40
0.0
 40
0.0
 40
0.0
 40
0.0
 40
1.0
 40
1.0
 40
1.0
 40
2.0
 40
2.0
 40
2.0
 40
3.0
 40
3.0
 40
3.0
 40
4.0
 40
4.0
 40
4.0
 40
5.0
 40
5.0
 40
5.0
 40
6.0
 40
6.0
 40
6.0
 40
7.0
 40
7.0
 40
7.0
 40
8.0
 40
8.0
 40
8.0
 40
9.0
 40
9.0
 40
9.0
 40
10.0
 40
10.0
 40
10.0
 40
11.0
 40
11.0
 40
11.0
 40
12.0
 40
12.0
 40
12.0
 40
13.0
 40
13.0
 40
13.0
 40
13.0
 10
84.86906600525843
 20
-140.5995143962737
 30
0.0
 10
84.65116371581638
 20
-140.7581610433695
 30
0.0
 10
84.55797388294037
 20
-140.8322305963023
 30
0.0
 10
84.50939803659835
 20
-140.9760633328115
 30
0.0
 10
84.50939803659835
 20
-140.9760633328115
 30
0.0
 10
85.28781736149054
 20
-140.9760633328115
 30
0.0
 10
85.28781736149054
 20
-140.9760633328115
 30
0.0
 10
85.28781736149054
 20
-140.9760633328115
 30
0.0
 10
85.28781736149054
 20
-141.1812187689581
 30
0.0
 10
85.28781736149054
 20
-141.1812187689581
 30
0.0
 10
85.28781736149054
 20
-141.1812187689581
 30
0.0
 10
84.259800868692
 20
-141.1812187689581
 30
0.0
 10
84.259800868692
 20
-141.1812187689581
 30
0.0
 10
84.29149574715628
 20
-140.8236178575892
 30
0.0
 10
84.35695256137604
 20
-140.745414190074
 30
0.0
 10
84.74211423662698
 20
-140.4470689210514
 30
0.0
 10
84.99808483118103
 20
-140.2482869115525
 30
0.0
 10
85.06354164540079
 20
-140.1805907852673
 30
0.0
 10
85.06354164540079
 20
-140.0431314754059
 30
0.0
 10
85.06354164540079
 20
-139.9246201907133
 30
0.0
 10
84.99171140453332
 20
-139.7933620527252
 30
0.0
 10
84.79499645232555
 20
-139.7933620527252
 30
0.0
 10
84.53471948841494
 20
-139.7933620527252
 30
0.0
 10
84.52627900447607
 20
-140.0240111954627
 30
0.0
 10
84.52197263511951
 20
-140.1404554228642
 30
0.0
 10
84.52197263511951
 20
-140.1404554228642
 30
0.0
 10
84.297869173804
 20
-140.1404554228642
 30
0.0
 10
84.297869173804
 20
-140.1404554228642
 30
0.0
 10
84.30630965774287
 20
-140.0135036542327
 30
0.0
 10
84.31681719897289
 20
-139.9013657961878
 30
0.0
 10
84.39726017855347
 20
-139.7828545114952
 30
0.0
 10
84.50715872453294
 20
-139.6221408071083
 30
0.0
 10
84.69336613551069
 20
-139.5882066165786
 30
0.0
 10
84.80981036291213
 20
-139.5882066165786
 30
0.0
 10
85.08696829470048
 20
-139.5882066165786
 30
0.0
 10
85.29419078813827
 20
-139.7723469702652
 30
0.0
 10
85.29419078813827
 20
-140.045198532697
 30
0.0
 10
85.29419078813827
 20
-140.2736083633691
 30
0.0
 10
85.17791881551108
 20
-140.3731716228928
 30
0.0
 10
84.86906600525843
 20
-140.5995143962737
 30
0.0
  0
HATCH
  5
105
330
100
100
AcDbEntity
  8
レイヤー 1
 62
    18
420
        0
440
 33554687
100
AcDbHatch
 10
0.0
 20
0.0
 30
0.0
210
0.0
220
0.0
230
1.0
  2
SOLID
 70
     1
 71
     1
 91
        1
 92
        1
 93
        1
 72
     4
 94
        3
 73
     0
 74
     0
 95
       44
 96
       40
 40
0.0
 40
0.0
 40
0.0
 40
0.0
 40
1.0
 40
1.0
 40
1.0
 40
2.0
 40
2.0
 40
2.0
 40
3.0
 40
3.0
 40
3.0
 40
4.0
 40
4.0
 40
4.0
 40
5.0
 40
5.0
 40
5.0
 40
6.0
 40
6.0
 40
6.0
 40
7.0
 40
7.0
 40
7.0
 40
8.0
 40
8.0
 40
8.0
 40
9.0
 40
9.0
 40
9.0
 40
10.0
 40
10.0
 40
10.0
 40
11.0
 40
11.0
 40
11.0
 40
12.0
 40
12.0
 40
12.0
 40
13.0
 40
13.0
 40
13.0
 40
13.0
 10
84.86906600525843
 20
-140.5995143962737
 10
84.65116371581638
 20
-140.7581610433695
 10
84.55797388294037
 20
-140.8322305963023
 10
84.50939803659835
 20
-140.9760633328115
 10
84.50939803659835
 20
-140.9760633328115
 10
85.28781736149054
 20
-140.9760633328115
 10
85.28781736149054
 20
-140.9760633328115
 10
85.28781736149054
 20
-140.9760633328115
 10
85.28781736149054
 20
-141.1812187689581
 10
85.28781736149054
 20
-141.1812187689581
 10
85.28781736149054
 20
-141.1812187689581
 10
84.259800868692
 20
-141.1812187689581
 10
84.259800868692
 20
-141.1812187689581
 10
84.29149574715628
 20
-140.8236178575892
 10
84.35695256137604
 20
-140.745414190074
 10
84.74211423662698
 20
-140.4470689210514
 10
84.99808483118103
 20
-140.2482869115525
 10
85.06354164540079
 20
-140.1805907852673
 10
85.06354164540079
 20
-140.0431314754059
 10
85.06354164540079
 20
-139.9246201907133
 10
84.99171140453332
 20
-139.7933620527252
 10
84.79499645232555
 20
-139.7933620527252
 10
84.53471948841494
 20
-139.7933620527252
 10
84.52627900447607
 20
-140.0240111954627
 10
84.52197263511951
 20
-140.1404554228642
 10
84.52197263511951
 20
-140.1404554228642
 10
84.297869173804
 20
-140.1404554228642
 10
84.297869173804
 20
-140.1404554228642
 10
84.30630965774287
 20
-140.0135036542327
 10
84.31681719897289
 20
-139.9013657961878
 10
84.39726017855347
 20
-139.7828545114952
 10
84.50715872453294
 20
-139.6221408071083
 10
84.69336613551069
 20
-139.5882066165786
 10
84.80981036291213
 20
-139.5882066165786
 10
85.08696829470048
 20
-139.5882066165786
 10
85.29419078813827
 20
-139.7723469702652
 10
85.29419078813827
 20
-140.045198532697
 10
85.29419078813827
 20
-140.2736083633691
 10
85.17791881551108
 20
-140.3731716228928
 10
84.86906600525843
 20
-140.5995143962737
 97
        0
 97
        1
330
104
 75
     2
 76
     1
 98
        1
 10
0.0
 20
0.0
450
        0
451
        0
460
0.0
461
0.0
452
        0
462
0.0
453
        0
470

  0
SPLINE
  5
106
330
100
100
AcDbEntity
  8
レイヤー 1
100
AcDbSpline
210
0.0
220
0.0
230
1.0
 70
    11
 71
     3
 72
    26
 73
    22
 74
     0
 42
0.0000000001
 43
0.0000000001
 40
0.0
 40
0.0
 40
0.0
 40
0.0
 40
1.0
 40
1.0
 40
1.0
 40
2.0
 40
2.0
 40
2.0
 40
3.0
 40
3.0
 40
3.0
 40
4.0
 40
4.0
 40
4.0
 40
5.0
 40
5.0
 40
5.0
 40
6.0
 40
6.0
 40
6.0
 40
7.0
 40
7.0
 40
7.0
 40
7.0
 10
85.90414494380175
 20
-141.1812187689581
 30
0.0
 10
85.90414494380175
 20
-141.1812187689581
 30
0.0
 10
85.90414494380175
 20
-140.0768934111613
 30
0.0
 10
85.90414494380175
 20
-140.0768934111613
 30
0.0
 10
85.90414494380175
 20
-140.0768934111613
 30
0.0
 10
85.57410479631482
 20
-140.0768934111613
 30
0.0
 10
85.57410479631482
 20
-140.0768934111613
 30
0.0
 10
85.57410479631482
 20
-140.0768934111613
 30
0.0
 10
85.57410479631482
 20
-139.9287543052956
 30
0.0
 10
85.57410479631482
 20
-139.9287543052956
 30
0.0
 10
85.90621200109289
 20
-139.9141126494833
 30
0.0
 10
85.95272079014376
 20
-139.7511596330309
 30
0.0
 10
85.98234861131691
 20
-139.6369547176949
 30
0.0
 10
85.98234861131691
 20
-139.6369547176949
 30
0.0
 10
86.1284206598915
 20
-139.6369547176949
 30
0.0
 10
86.1284206598915
 20
-139.6369547176949
 30
0.0
 10
86.1284206598915
 20
-139.6369547176949
 30
0.0
 10
86.1284206598915
 20
-141.1812187689581
 30
0.0
 10
86.1284206598915
 20
-141.1812187689581
 30
0.0
 10
86.1284206598915
 20
-141.1812187689581
 30
0.0
 10
85.90414494380175
 20
-141.1812187689581
 30
0.0
 10
85.90414494380175
 20
-141.1812187689581
 30
0.0
  0
HATCH
  5
107
330
100
100
AcDbEntity
  8
レイヤー 1
 62
    18
420
        0
440
 33554687
100
AcDbHatch
 10
0.0
 20
0.0
 30
0.0
210
0.0
220
0.0
230
1.0
  2
SOLID
 70
     1
 71
     1
 91
        1
 92
        1
 93
        1
 72
     4
 94
        3
 73
     0
 74
     0
 95
       26
 96
       22
 40
0.0
 40
0.0
 40
0.0
 40
0.0
 40
1.0
 40
1.0
 40
1.0
 40
2.0
 40
2.0
 40
2.0
 40
3.0
 40
3.0
 40
3.0
 40
4.0
 40
4.0
 40
4.0
 40
5.0
 40
5.0
 40
5.0
 40
6.0
 40
6.0
 40
6.0
 40
7.0
 40
7.0
 40
7.0
 40
7.0
 10
85.90414494380175
 20
-141.1812187689581
 10
85.90414494380175
 20
-141.1812187689581
 10
85.90414494380175
 20
-140.0768934111613
 10
85.90414494380175
 20
-140.0768934111613
 10
85.90414494380175
 20
-140.0768934111613
 10
85.57410479631482
 20
-140.0768934111613
 10
85.57410479631482
 20
-140.0768934111613
 10
85.57410479631482
 20
-140.0768934111613
 10
85.57410479631482
 20
-139.9287543052956
 10
85.57410479631482
 20
-139.9287543052956
 10
85.90621200109289
 20
-139.9141126494833
 10
85.95272079014376
 20
-139.7511596330309
 10
85.98234861131691
 20
-139.6369547176949
 10
85.98234861131691
 20
-139.6369547176949
 10
86.1284206598915
 20
-139.6369547176949
 10
86.1284206598915
 20
-139.6369547176949
 10
86.1284206598915
 20
-139.6369547176949
 10
86.1284206598915
 20
-141.1812187689581
 10
86.1284206598915
 20
-141.1812187689581
 10
86.1284206598915
 20
-141.1812187689581
 10
85.90414494380175
 20
-141.1812187689581
 10
85.90414494380175
 20
-141.1812187689581
 97
        0
 97
        1
330
106
 75
     2
 76
     1
 98
        1
 10
0.0
 20
0.0
450
        0
451
        0
460
0.0
461
0.0
452
        0
462
0.0
453
        0
470

  0
ENDBLK
  5
103
330
100
100
AcDbEntity
  8
0
100
AcDbBlockEnd
  0
BLOCK
  5
10C
330
10A
100
AcDbEntity
  8
0
100
AcDbBlockBegin
  2
Block_5
 70
     0
 10
0.0
 20
0.0
 30
0.0
  3
Block_5
  1

  0
SPLINE
  5
10E
330
10A
100
AcDbEntity
  8
レイヤー 1
100
AcDbSpline
210
0.0
220
0.0
230
1.0
 70
     9
 71
     3
 72
    17
 73
    13
 74
     0
 42
0.0000000001
 43
0.0000000001
 40
0.0
 40
0.0
 40
0.0
 40
0.0
 40
1.0
 40
1.0
 40
1.0
 40
2.0
 40
2.0
 40
2.0
 40
3.0
 40
3.0
 40
3.0
 40
4.0
 40
4.0
 40
4.0
 40
4.0
 10
69.41798500868717
 20
-150.1338161517026
 30
0.0
 10
69.41798500868717
 20
-150.3959879181302
 30
0.0
 10
69.62951387148151
 20
-150.4338839684679
 30
0.0
 10
69.7457858441087
 20
-150.4338839684679
 30
0.0
 10
69.92131345908217
 20
-150.4338839684679
 30
0.0
 10
70.08426647553449
 20
-150.338799333075
 30
0.0
 10
70.08426647553449
 20
-150.1548312341627
 30
0.0
 10
70.08426647553449
 20
-150.0342528921789
 30
0.0
 10
70.02501083318819
 20
-149.8585530224312
 30
0.0
 10
69.73941241746098
 20
-149.8585530224312
 30
0.0
 10
69.51513670137122
 20
-149.8585530224312
 30
0.0
 10
69.41798500868717
 20
-149.9980793895838
 30
0.0
 10
69.41798500868717
 20
-150.1338161517026
 30
0.0
  0
SPLINE
  5
10F
330
10A
100
AcDbEntity
  8
レイヤー 1
100
AcDbSpline
210
0.0
220
0.0
230
1.0
 70
     9
 71
     3
 72
    32
 73
    28
 74
     0
 42
0.0000000001
 43
0.0000000001
 40
0.0
 40
0.0
 40
0.0
 40
0.0
 40
1.0
 40
1.0
 40
1.0
 40
2.0
 40
2.0
 40
2.0
 40
3.0
 40
3.0
 40
3.0
 40
4.0
 40
4.0
 40
4.0
 40
5.0
 40
5.0
 40
5.0
 40
6.0
 40
6.0
 40
6.0
 40
7.0
 40
7.0
 40
7.0
 40
8.0
 40
8.0
 40
8.0
 40
9.0
 40
9.0
 40
9.0
 40
9.0
 10
70.27684731315996
 20
-150.1506971195804
 30
0.0
 10
70.27684731315996
 20
-150.6667724232708
 30
0.0
 10
69.72253144958326
 20
-150.6753851619839
 30
0.0
 10
69.50893552949776
 20
-150.6753851619839
 30
0.0
 10
69.27828638676029
 20
-150.6753851619839
 30
0.0
 10
68.63095294508184
 20
-150.6560926272665
 30
0.0
 10
68.63095294508184
 20
-150.1124565596941
 30
0.0
 10
68.63095294508184
 20
-149.939168256786
 30
0.0
 10
68.70071612865816
 20
-149.6935329486877
 30
0.0
 10
69.03282333343624
 20
-149.65563689835
 30
0.0
 10
69.03282333343624
 20
-149.65563689835
 30
0.0
 10
69.03282333343624
 20
-149.8692328184354
 30
0.0
 10
69.03282333343624
 20
-149.8692328184354
 30
0.0
 10
68.97580700315535
 20
-149.8799126144397
 30
0.0
 10
68.82766789728961
 20
-149.911607492904
 30
0.0
 10
68.82766789728961
 20
-150.1145236169852
 30
0.0
 10
68.82766789728961
 20
-150.4066677141344
 30
0.0
 10
69.15564098748539
 20
-150.4466308217633
 30
0.0
 10
69.36079642363202
 20
-150.4593776750587
 30
0.0
 10
69.28259275611686
 20
-150.366360096957
 30
0.0
 10
69.22333711377055
 20
-150.2984917158976
 30
0.0
 10
69.22333711377055
 20
-150.1165906742764
 30
0.0
 10
69.22333711377055
 20
-149.9367566899463
 30
0.0
 10
69.33116860245887
 20
-149.6342773063414
 30
0.0
 10
69.73734536016984
 20
-149.6342773063414
 30
0.0
 10
70.0567057116525
 20
-149.6342773063414
 30
0.0
 10
70.27684731315996
 20
-149.8334038253888
 30
0.0
 10
70.27684731315996
 20
-150.1506971195804
 30
0.0
  0
HATCH
  5
110
330
10A
100
AcDbEntity
  8
レイヤー 1
 62
    18
420
        0
440
 33554687
100
AcDbHatch
 10
0.0
 20
0.0
 30
0.0
210
0.0
220
0.0
230
1.0
  2
SOLID
 70
     1
 71
     1
 91
        2
 92
        1
 93
        1
 72
     4
 94
        3
 73
     0
 74
     0
 95
       17
 96
       13
 40
0.0
 40
0.0
 40
0.0
 40
0.0
 40
1.0
 40
1.0
 40
1.0
 40
2.0
 40
2.0
 40
2.0
 40
3.0
 40
3.0
 40
3.0
 40
4.0
 40
4.0
 40
4.0
 40
4.0
 10
69.41798500868717
 20
-150.1338161517026
 10
69.41798500868717
 20
-150.3959879181302
 10
69.62951387148151
 20
-150.4338839684679
 10
69.7457858441087
 20
-150.4338839684679
 10
69.92131345908217
 20
-150.4338839684679
 10
70.08426647553449
 20
-150.338799333075
 10
70.08426647553449
 20
-150.1548312341627
 10
70.08426647553449
 20
-150.0342528921789
 10
70.02501083318819
 20
-149.8585530224312
 10
69.73941241746098
 20
-149.8585530224312
 10
69.51513670137122
 20
-149.8585530224312
 10
69.41798500868717
 20
-149.9980793895838
 10
69.41798500868717
 20
-150.1338161517026
 97
        0
 97
        1
330
10E
 92
        1
 93
        1
 72
     4
 94
        3
 73
     0
 74
     0
 95
       32
 96
       28
 40
0.0
 40
0.0
 40
0.0
 40
0.0
 40
1.0
 40
1.0
 40
1.0
 40
2.0
 40
2.0
 40
2.0
 40
3.0
 40
3.0
 40
3.0
 40
4.0
 40
4.0
 40
4.0
 40
5.0
 40
5.0
 40
5.0
 40
6.0
 40
6.0
 40
6.0
 40
7.0
 40
7.0
 40
7.0
 40
8.0
 40
8.0
 40
8.0
 40
9.0
 40
9.0
 40
9.0
 40
9.0
 10
70.27684731315996
 20
-150.1506971195804
 10
70.27684731315996
 20
-150.6667724232708
 10
69.72253144958326
 20
-150.6753851619839
 10
69.50893552949776
 20
-150.6753851619839
 10
69.27828638676029
 20
-150.6753851619839
 10
68.63095294508184
 20
-150.6560926272665
 10
68.63095294508184
 20
-150.1124565596941
 10
68.63095294508184
 20
-149.939168256786
 10
68.70071612865816
 20
-149.6935329486877
 10
69.03282333343624
 20
-149.65563689835
 10
69.03282333343624
 20
-149.65563689835
 10
69.03282333343624
 20
-149.8692328184354
 10
69.03282333343624
 20
-149.8692328184354
 10
68.97580700315535
 20
-149.8799126144397
 10
68.82766789728961
 20
-149.911607492904
 10
68.82766789728961
 20
-150.1145236169852
 10
68.82766789728961
 20
-150.4066677141344
 10
69.15564098748539
 20
-150.4466308217633
 10
69.36079642363202
 20
-150.4593776750587
 10
69.28259275611686
 20
-150.366360096957
 10
69.22333711377055
 20
-150.2984917158976
 10
69.22333711377055
 20
-150.1165906742764
 10
69.22333711377055
 20
-149.9367566899463
 10
69.33116860245887
 20
-149.6342773063414
 10
69.73734536016984
 20
-149.6342773063414
 10
70.0567057116525
 20
-149.6342773063414
 10
70.27684731315996
 20
-149.8334038253888
 10
70.27684731315996
 20
-150.1506971195804
 97
        0
 97
        1
330
10F
 75
     2
 76
     1
 98
        1
 10
0.0
 20
0.0
450
        0
451
        0
460
0.0
461
0.0
452
        0
462
0.0
453
        0
470

  0
ENDBLK
  5
10D
330
10A
100
AcDbEntity
  8
0
100
AcDbBlockEnd
  0
BLOCK
  5
115
330
113
100
AcDbEntity
  8
0
100
AcDbBlockBegin
  2
Block_6
 70
     0
 10
0.0
 20
0.0
 30
0.0
  3
Block_6
  1

  0
INSERT
  5
118
330
113
100
AcDbEntity
  8
レイヤー 1
100
AcDbBlockReference
  2
Block_7
 10
0.0
 20
0.0
 30
0.0
  0
ENDBLK
  5
116
330
113
100
AcDbEntity
  8
0
100
AcDbBlockEnd
  0
BLOCK
  5
119
330
117
100
AcDbEntity
  8
0
100
AcDbBlockBegin
  2
Block_7
 70
     0
 10
0.0
 20
0.0
 30
0.0
  3
Block_7
  1

  0
SPLINE
  5
11B
330
117
100
AcDbEntity
  8
レイヤー 1
100
AcDbSpline
210
0.0
220
0.0
230
1.0
 70
     9
 71
     3
 72
    44
 73
    40
 74
     0
 42
0.0000000001
 43
0.0000000001
 40
0.0
 40
0.0
 40
0.0
 40
0.0
 40
1.0
 40
1.0
 40
1.0
 40
2.0
 40
2.0
 40
2.0
 40
3.0
 40
3.0
 40
3.0
 40
4.0
 40
4.0
 40
4.0
 40
5.0
 40
5.0
 40
5.0
 40
6.0
 40
6.0
 40
6.0
 40
7.0
 40
7.0
 40
7.0
 40
8.0
 40
8.0
 40
8.0
 40
9.0
 40
9.0
 40
9.0
 40
10.0
 40
10.0
 40
10.0
 40
11.0
 40
11.0
 40
11.0
 40
12.0
 40
12.0
 40
12.0
 40
13.0
 40
13.0
 40
13.0
 40
13.0
 10
125.9706054372573
 20
-140.5995143962737
 30
0.0
 10
125.7528754025895
 20
-140.7581610433695
 30
0.0
 10
125.6598578244878
 20
-140.8322305963023
 30
0.0
 10
125.6109374685973
 20
-140.9760633328115
 30
0.0
 10
125.6109374685973
 20
-140.9760633328115
 30
0.0
 10
126.3895290482637
 20
-140.9760633328115
 30
0.0
 10
126.3895290482637
 20
-140.9760633328115
 30
0.0
 10
126.3895290482637
 20
-140.9760633328115
 30
0.0
 10
126.3895290482637
 20
-141.1812187689581
 30
0.0
 10
126.3895290482637
 20
-141.1812187689581
 30
0.0
 10
126.3895290482637
 20
-141.1812187689581
 30
0.0
 10
125.3615125554652
 20
-141.1812187689581
 30
0.0
 10
125.3615125554652
 20
-141.1812187689581
 30
0.0
 10
125.3932074339294
 20
-140.8236178575892
 30
0.0
 10
125.4586642481492
 20
-140.745414190074
 30
0.0
 10
125.8438259234001
 20
-140.4470689210514
 30
0.0
 10
126.0997965179542
 20
-140.2482869115525
 30
0.0
 10
126.165253332174
 20
-140.1805907852673
 30
0.0
 10
126.165253332174
 20
-140.0431314754059
 30
0.0
 10
126.165253332174
 20
-139.9246201907133
 30
0.0
 10
126.0932508365322
 20
-139.7933620527252
 30
0.0
 10
125.8965358843245
 20
-139.7933620527252
 30
0.0
 10
125.6364311751881
 20
-139.7933620527252
 30
0.0
 10
125.6281629460235
 20
-140.0240111954627
 30
0.0
 10
125.6236843218927
 20
-140.1404554228642
 30
0.0
 10
125.6236843218927
 20
-140.1404554228642
 30
0.0
 10
125.3994086058029
 20
-140.1404554228642
 30
0.0
 10
125.3994086058029
 20
-140.1404554228642
 30
0.0
 10
125.408021344516
 20
-140.0135036542327
 30
0.0
 10
125.4187011405203
 20
-139.9013657961878
 30
0.0
 10
125.4989718653266
 20
-139.7828545114952
 30
0.0
 10
125.6088704113061
 20
-139.6221408071083
 30
0.0
 10
125.7952500770581
 20
-139.5882066165786
 30
0.0
 10
125.911349794911
 20
-139.5882066165786
 30
0.0
 10
126.1886799814736
 20
-139.5882066165786
 30
0.0
 10
126.3960747296857
 20
-139.7723469702652
 30
0.0
 10
126.3960747296857
 20
-140.045198532697
 30
0.0
 10
126.3960747296857
 20
-140.2736083633691
 30
0.0
 10
126.2796305022842
 20
-140.3731716228928
 30
0.0
 10
125.9706054372573
 20
-140.5995143962737
 30
0.0
  0
HATCH
  5
11C
330
117
100
AcDbEntity
  8
レイヤー 1
 62
    18
420
        0
440
 33554687
100
AcDbHatch
 10
0.0
 20
0.0
 30
0.0
210
0.0
220
0.0
230
1.0
  2
SOLID
 70
     1
 71
     1
 91
        1
 92
        1
 93
        1
 72
     4
 94
        3
 73
     0
 74
     0
 95
       44
 96
       40
 40
0.0
 40
0.0
 40
0.0
 40
0.0
 40
1.0
 40
1.0
 40
1.0
 40
2.0
 40
2.0
 40
2.0
 40
3.0
 40
3.0
 40
3.0
 40
4.0
 40
4.0
 40
4.0
 40
5.0
 40
5.0
 40
5.0
 40
6.0
 40
6.0
 40
6.0
 40
7.0
 40
7.0
 40
7.0
 40
8.0
 40
8.0
 40
8.0
 40
9.0
 40
9.0
 40
9.0
 40
10.0
 40
10.0
 40
10.0
 40
11.0
 40
11.0
 40
11.0
 40
12.0
 40
12.0
 40
12.0
 40
13.0
 40
13.0
 40
13.0
 40
13.0
 10
125.9706054372573
 20
-140.5995143962737
 10
125.7528754025895
 20
-140.7581610433695
 10
125.6598578244878
 20
-140.8322305963023
 10
125.6109374685973
 20
-140.9760633328115
 10
125.6109374685973
 20
-140.9760633328115
 10
126.3895290482637
 20
-140.9760633328115
 10
126.3895290482637
 20
-140.9760633328115
 10
126.3895290482637
 20
-140.9760633328115
 10
126.3895290482637
 20
-141.1812187689581
 10
126.3895290482637
 20
-141.1812187689581
 10
126.3895290482637
 20
-141.1812187689581
 10
125.3615125554652
 20
-141.1812187689581
 10
125.3615125554652
 20
-141.1812187689581
 10
125.3932074339294
 20
-140.8236178575892
 10
125.4586642481492
 20
-140.745414190074
 10
125.8438259234001
 20
-140.4470689210514
 10
126.0997965179542
 20
-140.2482869115525
 10
126.165253332174
 20
-140.1805907852673
 10
126.165253332174
 20
-140.0431314754059
 10
126.165253332174
 20
-139.9246201907133
 10
126.0932508365322
 20
-139.7933620527252
 10
125.8965358843245
 20
-139.7933620527252
 10
125.6364311751881
 20
-139.7933620527252
 10
125.6281629460235
 20
-140.0240111954627
 10
125.6236843218927
 20
-140.1404554228642
 10
125.6236843218927
 20
-140.1404554228642
 10
125.3994086058029
 20
-140.1404554228642
 10
125.3994086058029
 20
-140.1404554228642
 10
125.408021344516
 20
-140.0135036542327
 10
125.4187011405203
 20
-139.9013657961878
 10
125.4989718653266
 20
-139.7828545114952
 10
125.6088704113061
 20
-139.6221408071083
 10
125.7952500770581
 20
-139.5882066165786
 10
125.911349794911
 20
-139.5882066165786
 10
126.1886799814736
 20
-139.5882066165786
 10
126.3960747296857
 20
-139.7723469702652
 10
126.3960747296857
 20
-140.045198532697
 10
126.3960747296857
 20
-140.2736083633691
 10
126.2796305022842
 20
-140.3731716228928
 10
125.9706054372573
 20
-140.5995143962737
 97
        0
 97
        1
330
11B
 75
     2
 76
     1
 98
        1
 10
0.0
 20
0.0
450
        0
451
        0
460
0.0
461
0.0
452
        0
462
0.0
453
        0
470

  0
SPLINE
  5
11D
330
117
100
AcDbEntity
  8
レイヤー 1
100
AcDbSpline
210
0.0
220
0.0
230
1.0
 70
    11
 71
     3
 72
    26
 73
    22
 74
     0
 42
0.0000000001
 43
0.0000000001
 40
0.0
 40
0.0
 40
0.0
 40
0.0
 40
1.0
 40
1.0
 40
1.0
 40
2.0
 40
2.0
 40
2.0
 40
3.0
 40
3.0
 40
3.0
 40
4.0
 40
4.0
 40
4.0
 40
5.0
 40
5.0
 40
5.0
 40
6.0
 40
6.0
 40
6.0
 40
7.0
 40
7.0
 40
7.0
 40
7.0
 10
127.0058566305749
 20
-141.1812187689581
 30
0.0
 10
127.0058566305749
 20
-141.1812187689581
 30
0.0
 10
127.0058566305749
 20
-140.0768934111613
 30
0.0
 10
127.0058566305749
 20
-140.0768934111613
 30
0.0
 10
127.0058566305749
 20
-140.0768934111613
 30
0.0
 10
126.675816483088
 20
-140.0768934111613
 30
0.0
 10
126.675816483088
 20
-140.0768934111613
 30
0.0
 10
126.675816483088
 20
-140.0768934111613
 30
0.0
 10
126.675816483088
 20
-139.9287543052956
 30
0.0
 10
126.675816483088
 20
-139.9287543052956
 30
0.0
 10
127.0079236878661
 20
-139.9141126494833
 30
0.0
 10
127.0544324769169
 20
-139.7511596330309
 30
0.0
 10
127.0840602980901
 20
-139.6369547176949
 30
0.0
 10
127.0840602980901
 20
-139.6369547176949
 30
0.0
 10
127.2301323466647
 20
-139.6369547176949
 30
0.0
 10
127.2301323466647
 20
-139.6369547176949
 30
0.0
 10
127.2301323466647
 20
-139.6369547176949
 30
0.0
 10
127.2301323466647
 20
-141.1812187689581
 30
0.0
 10
127.2301323466647
 20
-141.1812187689581
 30
0.0
 10
127.2301323466647
 20
-141.1812187689581
 30
0.0
 10
127.0058566305749
 20
-141.1812187689581
 30
0.0
 10
127.0058566305749
 20
-141.1812187689581
 30
0.0
  0
HATCH
  5
11E
330
117
100
AcDbEntity
  8
レイヤー 1
 62
    18
420
        0
440
 33554687
100
AcDbHatch
 10
0.0
 20
0.0
 30
0.0
210
0.0
220
0.0
230
1.0
  2
SOLID
 70
     1
 71
     1
 91
        1
 92
        1
 93
        1
 72
     4
 94
        3
 73
     0
 74
     0
 95
       26
 96
       22
 40
0.0
 40
0.0
 40
0.0
 40
0.0
 40
1.0
 40
1.0
 40
1.0
 40
2.0
 40
2.0
 40
2.0
 40
3.0
 40
3.0
 40
3.0
 40
4.0
 40
4.0
 40
4.0
 40
5.0
 40
5.0
 40
5.0
 40
6.0
 40
6.0
 40
6.0
 40
7.0
 40
7.0
 40
7.0
 40
7.0
 10
127.0058566305749
 20
-141.1812187689581
 10
127.0058566305749
 20
-141.1812187689581
 10
127.0058566305749
 20
-140.0768934111613
 10
127.0058566305749
 20
-140.0768934111613
 10
127.0058566305749
 20
-140.0768934111613
 10
126.675816483088
 20
-140.0768934111613
 10
126.675816483088
 20
-140.0768934111613
 10
126.675816483088
 20
-140.0768934111613
 10
126.675816483088
 20
-139.9287543052956
 10
126.675816483088
 20
-139.9287543052956
 10
127.0079236878661
 20
-139.9141126494833
 10
127.0544324769169
 20
-139.7511596330309
 10
127.0840602980901
 20
-139.6369547176949
 10
127.0840602980901
 20
-139.6369547176949
 10
127.2301323466647
 20
-139.6369547176949
 10
127.2301323466647
 20
-139.6369547176949
 10
127.2301323466647
 20
-139.6369547176949
 10
127.2301323466647
 20
-141.1812187689581
 10
127.2301323466647
 20
-141.1812187689581
 10
127.2301323466647
 20
-141.1812187689581
 10
127.0058566305749
 20
-141.1812187689581
 10
127.0058566305749
 20
-141.1812187689581
 97
        0
 97
        1
330
11D
 75
     2
 76
     1
 98
        1
 10
0.0
 20
0.0
450
        0
451
        0
460
0.0
461
0.0
452
        0
462
0.0
453
        0
470

  0
ENDBLK
  5
11A
330
117
100
AcDbEntity
  8
0
100
AcDbBlockEnd
  0
BLOCK
  5
124
330
122
100
AcDbEntity
  8
0
100
AcDbBlockBegin
  2
Block_8
 70
     0
 10
0.0
 20
0.0
 30
0.0
  3
Block_8
  1

  0
INSERT
  5
127
330
122
100
AcDbEntity
  8
レイヤー 1
100
AcDbBlockReference
  2
Block_9
 10
0.0
 20
0.0
 30
0.0
  0
ENDBLK
  5
125
330
122
100
AcDbEntity
  8
0
100
AcDbBlockEnd
  0
BLOCK
  5
128
330
126
100
AcDbEntity
  8
0
100
AcDbBlockBegin
  2
Block_9
 70
     0
 10
0.0
 20
0.0
 30
0.0
  3
Block_9
  1

  0
SPLINE
  5
12A
330
126
100
AcDbEntity
  8
レイヤー 1
100
AcDbSpline
210
0.0
220
0.0
230
1.0
 70
     9
 71
     3
 72
    44
 73
    40
 74
     0
 42
0.0000000001
 43
0.0000000001
 40
0.0
 40
0.0
 40
0.0
 40
0.0
 40
1.0
 40
1.0
 40
1.0
 40
2.0
 40
2.0
 40
2.0
 40
3.0
 40
3.0
 40
3.0
 40
4.0
 40
4.0
 40
4.0
 40
5.0
 40
5.0
 40
5.0
 40
6.0
 40
6.0
 40
6.0
 40
7.0
 40
7.0
 40
7.0
 40
8.0
 40
8.0
 40
8.0
 40
9.0
 40
9.0
 40
9.0
 40
10.0
 40
10.0
 40
10.0
 40
11.0
 40
11.0
 40
11.0
 40
12.0
 40
12.0
 40
12.0
 40
13.0
 40
13.0
 40
13.0
 40
13.0
 10
105.4943359111264
 20
-140.5995143962737
 30
0.0
 10
105.2764336216843
 20
-140.7581610433695
 30
0.0
 10
105.1832437888083
 20
-140.8322305963023
 30
0.0
 10
105.1346679424663
 20
-140.9760633328115
 30
0.0
 10
105.1346679424663
 20
-140.9760633328115
 30
0.0
 10
105.9132595221328
 20
-140.9760633328115
 30
0.0
 10
105.9132595221328
 20
-140.9760633328115
 30
0.0
 10
105.9132595221328
 20
-140.9760633328115
 30
0.0
 10
105.9132595221328
 20
-141.1812187689581
 30
0.0
 10
105.9132595221328
 20
-141.1812187689581
 30
0.0
 10
105.9132595221328
 20
-141.1812187689581
 30
0.0
 10
104.88507077456
 20
-141.1812187689581
 30
0.0
 10
104.88507077456
 20
-141.1812187689581
 30
0.0
 10
104.9167656530243
 20
-140.8236178575892
 30
0.0
 10
104.9823947220183
 20
-140.745414190074
 30
0.0
 10
105.367384142495
 20
-140.4470689210514
 30
0.0
 10
105.6231824822748
 20
-140.2482869115525
 30
0.0
 10
105.688983806043
 20
-140.1805907852673
 30
0.0
 10
105.688983806043
 20
-140.0431314754059
 30
0.0
 10
105.688983806043
 20
-139.9246201907133
 30
0.0
 10
105.6169813104013
 20
-139.7933620527252
 30
0.0
 10
105.4202663581935
 20
-139.7933620527252
 30
0.0
 10
105.1599893942829
 20
-139.7933620527252
 30
0.0
 10
105.151548910344
 20
-140.0240111954627
 30
0.0
 10
105.1472425409875
 20
-140.1404554228642
 30
0.0
 10
105.1472425409875
 20
-140.1404554228642
 30
0.0
 10
104.923139079672
 20
-140.1404554228642
 30
0.0
 10
104.923139079672
 20
-140.1404554228642
 30
0.0
 10
104.9315795636108
 20
-140.0135036542327
 30
0.0
 10
104.9420871048408
 20
-139.9013657961878
 30
0.0
 10
105.0225300844214
 20
-139.7828545114952
 30
0.0
 10
105.1324286304009
 20
-139.6221408071083
 30
0.0
 10
105.3186360413786
 20
-139.5882066165786
 30
0.0
 10
105.4350802687801
 20
-139.5882066165786
 30
0.0
 10
105.7120659457942
 20
-139.5882066165786
 30
0.0
 10
105.9194606940062
 20
-139.7723469702652
 30
0.0
 10
105.9194606940062
 20
-140.045198532697
 30
0.0
 10
105.9194606940062
 20
-140.2736083633691
 30
0.0
 10
105.8030164666048
 20
-140.3731716228928
 30
0.0
 10
105.4943359111264
 20
-140.5995143962737
 30
0.0
  0
HATCH
  5
12B
330
126
100
AcDbEntity
  8
レイヤー 1
 62
    18
420
        0
440
 33554687
100
AcDbHatch
 10
0.0
 20
0.0
 30
0.0
210
0.0
220
0.0
230
1.0
  2
SOLID
 70
     1
 71
     1
 91
        1
 92
        1
 93
        1
 72
     4
 94
        3
 73
     0
 74
     0
 95
       44
 96
       40
 40
0.0
 40
0.0
 40
0.0
 40
0.0
 40
1.0
 40
1.0
 40
1.0
 40
2.0
 40
2.0
 40
2.0
 40
3.0
 40
3.0
 40
3.0
 40
4.0
 40
4.0
 40
4.0
 40
5.0
 40
5.0
 40
5.0
 40
6.0
 40
6.0
 40
6.0
 40
7.0
 40
7.0
 40
7.0
 40
8.0
 40
8.0
 40
8.0
 40
9.0
 40
9.0
 40
9.0
 40
10.0
 40
10.0
 40
10.0
 40
11.0
 40
11.0
 40
11.0
 40
12.0
 40
12.0
 40
12.0
 40
13.0
 40
13.0
 40
13.0
 40
13.0
 10
105.4943359111264
 20
-140.5995143962737
 10
105.2764336216843
 20
-140.7581610433695
 10
105.1832437888083
 20
-140.8322305963023
 10
105.1346679424663
 20
-140.9760633328115
 10
105.1346679424663
 20
-140.9760633328115
 10
105.9132595221328
 20
-140.9760633328115
 10
105.9132595221328
 20
-140.9760633328115
 10
105.9132595221328
 20
-140.9760633328115
 10
105.9132595221328
 20
-141.1812187689581
 10
105.9132595221328
 20
-141.1812187689581
 10
105.9132595221328
 20
-141.1812187689581
 10
104.88507077456
 20
-141.1812187689581
 10
104.88507077456
 20
-141.1812187689581
 10
104.9167656530243
 20
-140.8236178575892
 10
104.9823947220183
 20
-140.745414190074
 10
105.367384142495
 20
-140.4470689210514
 10
105.6231824822748
 20
-140.2482869115525
 10
105.688983806043
 20
-140.1805907852673
 10
105.688983806043
 20
-140.0431314754059
 10
105.688983806043
 20
-139.9246201907133
 10
105.6169813104013
 20
-139.7933620527252
 10
105.4202663581935
 20
-139.7933620527252
 10
105.1599893942829
 20
-139.7933620527252
 10
105.151548910344
 20
-140.0240111954627
 10
105.1472425409875
 20
-140.1404554228642
 10
105.1472425409875
 20
-140.1404554228642
 10
104.923139079672
 20
-140.1404554228642
 10
104.923139079672
 20
-140.1404554228642
 10
104.9315795636108
 20
-140.0135036542327
 10
104.9420871048408
 20
-139.9013657961878
 10
105.0225300844214
 20
-139.7828545114952
 10
105.1324286304009
 20
-139.6221408071083
 10
105.3186360413786
 20
-139.5882066165786
 10
105.4350802687801
 20
-139.5882066165786
 10
105.7120659457942
 20
-139.5882066165786
 10
105.9194606940062
 20
-139.7723469702652
 10
105.9194606940062
 20
-140.045198532697
 10
105.9194606940062
 20
-140.2736083633691
 10
105.8030164666048
 20
-140.3731716228928
 10
105.4943359111264
 20
-140.5995143962737
 97
        0
 97
        1
330
12A
 75
     2
 76
     1
 98
        1
 10
0.0
 20
0.0
450
        0
451
        0
460
0.0
461
0.0
452
        0
462
0.0
453
        0
470

  0
SPLINE
  5
12C
330
126
100
AcDbEntity
  8
レイヤー 1
100
AcDbSpline
210
0.0
220
0.0
230
1.0
 70
     9
 71
     3
 72
    17
 73
    13
 74
     0
 42
0.0000000001
 43
0.0000000001
 40
0.0
 40
0.0
 40
0.0
 40
0.0
 40
1.0
 40
1.0
 40
1.0
 40
2.0
 40
2.0
 40
2.0
 40
3.0
 40
3.0
 40
3.0
 40
4.0
 40
4.0
 40
4.0
 40
4.0
 10
106.578162950786
 20
-139.7807874542041
 30
0.0
 10
106.3283935281054
 20
-139.7807874542041
 30
0.0
 10
106.2818847390545
 20
-140.0641465578659
 30
0.0
 10
106.2818847390545
 20
-140.4090006159394
 30
0.0
 10
106.2818847390545
 20
-140.7285332221963
 30
0.0
 10
106.3177137321011
 20
-141.037386032449
 30
0.0
 10
106.578162950786
 20
-141.037386032449
 30
0.0
 10
106.8255208066269
 20
-141.037386032449
 30
0.0
 10
106.874096652969
 20
-140.7559217313041
 30
0.0
 10
106.874096652969
 20
-140.4090006159394
 30
0.0
 10
106.874096652969
 20
-140.0896402644567
 30
0.0
 10
106.8362006026312
 20
-139.7807874542041
 30
0.0
 10
106.578162950786
 20
-139.7807874542041
 30
0.0
  0
SPLINE
  5
12D
330
126
100
AcDbEntity
  8
レイヤー 1
100
AcDbSpline
210
0.0
220
0.0
230
1.0
 70
     9
 71
     3
 72
    29
 73
    25
 74
     0
 42
0.0000000001
 43
0.0000000001
 40
0.0
 40
0.0
 40
0.0
 40
0.0
 40
1.0
 40
1.0
 40
1.0
 40
2.0
 40
2.0
 40
2.0
 40
3.0
 40
3.0
 40
3.0
 40
4.0
 40
4.0
 40
4.0
 40
5.0
 40
5.0
 40
5.0
 40
6.0
 40
6.0
 40
6.0
 40
7.0
 40
7.0
 40
7.0
 40
8.0
 40
8.0
 40
8.0
 40
8.0
 10
106.9757269697838
 20
-141.0034518419193
 30
0.0
 10
106.8678954810955
 20
-141.2129136474224
 30
0.0
 10
106.6942626686389
 20
-141.2320339273656
 30
0.0
 10
106.578162950786
 20
-141.2320339273656
 30
0.0
 10
106.4172769916248
 20
-141.2320339273656
 30
0.0
 10
106.2756835671811
 20
-141.1855251383147
 30
0.0
 10
106.1802544222396
 20
-141.0034518419193
 30
0.0
 10
106.0765570481336
 20
-140.8089762017769
 30
0.0
 10
106.0576090229647
 20
-140.5719536323917
 30
0.0
 10
106.0576090229647
 20
-140.4090006159394
 30
0.0
 10
106.0576090229647
 20
-140.2651678794302
 30
0.0
 10
106.0744899908425
 20
-140.0135036542327
 30
0.0
 10
106.1802544222396
 20
-139.8145493899595
 30
0.0
 10
106.288085910928
 20
-139.6114610111041
 30
0.0
 10
106.4489718700891
 20
-139.5882066165786
 30
0.0
 10
106.578162950786
 20
-139.5882066165786
 30
0.0
 10
106.7366373431075
 20
-139.5882066165786
 30
0.0
 10
106.8806423343909
 20
-139.6326483483383
 30
0.0
 10
106.9757269697838
 20
-139.8145493899595
 30
0.0
 10
107.0752902293075
 20
-140.007130227585
 30
0.0
 10
107.0983723690587
 20
-140.2355400582571
 30
0.0
 10
107.0983723690587
 20
-140.4090006159394
 30
0.0
 10
107.0983723690587
 20
-140.5803941163306
 30
0.0
 10
107.0773572865987
 20
-140.8110432590681
 30
0.0
 10
106.9757269697838
 20
-141.0034518419193
 30
0.0
  0
HATCH
  5
12E
330
126
100
AcDbEntity
  8
レイヤー 1
 62
    18
420
        0
440
 33554687
100
AcDbHatch
 10
0.0
 20
0.0
 30
0.0
210
0.0
220
0.0
230
1.0
  2
SOLID
 70
     1
 71
     1
 91
        2
 92
        1
 93
        1
 72
     4
 94
        3
 73
     0
 74
     0
 95
       17
 96
       13
 40
0.0
 40
0.0
 40
0.0
 40
0.0
 40
1.0
 40
1.0
 40
1.0
 40
2.0
 40
2.0
 40
2.0
 40
3.0
 40
3.0
 40
3.0
 40
4.0
 40
4.0
 40
4.0
 40
4.0
 10
106.578162950786
 20
-139.7807874542041
 10
106.3283935281054
 20
-139.7807874542041
 10
106.2818847390545
 20
-140.0641465578659
 10
106.2818847390545
 20
-140.4090006159394
 10
106.2818847390545
 20
-140.7285332221963
 10
106.3177137321011
 20
-141.037386032449
 10
106.578162950786
 20
-141.037386032449
 10
106.8255208066269
 20
-141.037386032449
 10
106.874096652969
 20
-140.7559217313041
 10
106.874096652969
 20
-140.4090006159394
 10
106.874096652969
 20
-140.0896402644567
 10
106.8362006026312
 20
-139.7807874542041
 10
106.578162950786
 20
-139.7807874542041
 97
        0
 97
        1
330
12C
 92
        1
 93
        1
 72
     4
 94
        3
 73
     0
 74
     0
 95
       29
 96
       25
 40
0.0
 40
0.0
 40
0.0
 40
0.0
 40
1.0
 40
1.0
 40
1.0
 40
2.0
 40
2.0
 40
2.0
 40
3.0
 40
3.0
 40
3.0
 40
4.0
 40
4.0
 40
4.0
 40
5.0
 40
5.0
 40
5.0
 40
6.0
 40
6.0
 40
6.0
 40
7.0
 40
7.0
 40
7.0
 40
8.0
 40
8.0
 40
8.0
 40
8.0
 10
106.9757269697838
 20
-141.0034518419193
 10
106.8678954810955
 20
-141.2129136474224
 10
106.6942626686389
 20
-141.2320339273656
 10
106.578162950786
 20
-141.2320339273656
 10
106.4172769916248
 20
-141.2320339273656
 10
106.2756835671811
 20
-141.1855251383147
 10
106.1802544222396
 20
-141.0034518419193
 10
106.0765570481336
 20
-140.8089762017769
 10
106.0576090229647
 20
-140.5719536323917
 10
106.0576090229647
 20
-140.4090006159394
 10
106.0576090229647
 20
-140.2651678794302
 10
106.0744899908425
 20
-140.0135036542327
 10
106.1802544222396
 20
-139.8145493899595
 10
106.288085910928
 20
-139.6114610111041
 10
106.4489718700891
 20
-139.5882066165786
 10
106.578162950786
 20
-139.5882066165786
 10
106.7366373431075
 20
-139.5882066165786
 10
106.8806423343909
 20
-139.6326483483383
 10
106.9757269697838
 20
-139.8145493899595
 10
107.0752902293075
 20
-140.007130227585
 10
107.0983723690587
 20
-140.2355400582571
 10
107.0983723690587
 20
-140.4090006159394
 10
107.0983723690587
 20
-140.5803941163306
 10
107.0773572865987
 20
-140.8110432590681
 10
106.9757269697838
 20
-141.0034518419193
 97
        0
 97
        1
330
12D
 75
     2
 76
     1
 98
        1
 10
0.0
 20
0.0
450
        0
451
        0
460
0.0
461
0.0
452
        0
462
0.0
453
        0
470

  0
ENDBLK
  5
129
330
126
100
AcDbEntity
  8
0
100
AcDbBlockEnd
  0
BLOCK
  5
136
330
134
100
AcDbEntity
  8
0
100
AcDbBlockBegin
  2
Block_10
 70
     0
 10
0.0
 20
0.0
 30
0.0
  3
Block_10
  1

  0
INSERT
  5
139
330
134
100
AcDbEntity
  8
レイヤー 1
100
AcDbBlockReference
  2
Block_11
 10
0.0
 20
0.0
 30
0.0
  0
ENDBLK
  5
137
330
134
100
AcDbEntity
  8
0
100
AcDbBlockEnd
  0
BLOCK
  5
13A
330
138
100
AcDbEntity
  8
0
100
AcDbBlockBegin
  2
Block_11
 70
     0
 10
0.0
 20
0.0
 30
0.0
  3
Block_11
  1

  0
SPLINE
  5
13C
330
138
100
AcDbEntity
  8
レイヤー 1
100
AcDbSpline
210
0.0
220
0.0
230
1.0
 70
     9
 71
     3
 72
    44
 73
    40
 74
     0
 42
0.0000000001
 43
0.0000000001
 40
0.0
 40
0.0
 40
0.0
 40
0.0
 40
1.0
 40
1.0
 40
1.0
 40
2.0
 40
2.0
 40
2.0
 40
3.0
 40
3.0
 40
3.0
 40
4.0
 40
4.0
 40
4.0
 40
5.0
 40
5.0
 40
5.0
 40
6.0
 40
6.0
 40
6.0
 40
7.0
 40
7.0
 40
7.0
 40
8.0
 40
8.0
 40
8.0
 40
9.0
 40
9.0
 40
9.0
 40
10.0
 40
10.0
 40
10.0
 40
11.0
 40
11.0
 40
11.0
 40
12.0
 40
12.0
 40
12.0
 40
13.0
 40
13.0
 40
13.0
 40
13.0
 10
105.5938991706501
 20
-155.9749755469437
 30
0.0
 10
105.3761691359823
 20
-156.1337944488137
 30
0.0
 10
105.2831515578806
 20
-156.2078640017466
 30
0.0
 10
105.23423120199
 20
-156.3515244834816
 30
0.0
 10
105.23423120199
 20
-156.3515244834816
 30
0.0
 10
106.0128227816565
 20
-156.3515244834816
 30
0.0
 10
106.0128227816565
 20
-156.3515244834816
 30
0.0
 10
106.0128227816565
 20
-156.3515244834816
 30
0.0
 10
106.0128227816565
 20
-156.5568521744024
 30
0.0
 10
106.0128227816565
 20
-156.5568521744024
 30
0.0
 10
106.0128227816565
 20
-156.5568521744024
 30
0.0
 10
104.984806288858
 20
-156.5568521744024
 30
0.0
 10
104.984806288858
 20
-156.5568521744024
 30
0.0
 10
105.0165011673223
 20
-156.1992512630335
 30
0.0
 10
105.081957981542
 20
-156.1210475955183
 30
0.0
 10
105.4671196567929
 20
-155.8227023264957
 30
0.0
 10
105.723090251347
 20
-155.6239203169968
 30
0.0
 10
105.7885470655667
 20
-155.5560519359374
 30
0.0
 10
105.7885470655667
 20
-155.4185926260759
 30
0.0
 10
105.7885470655667
 20
-155.3000813413833
 30
0.0
 10
105.716544569925
 20
-155.1691677129438
 30
0.0
 10
105.5198296177172
 20
-155.1691677129438
 30
0.0
 10
105.2597249085809
 20
-155.1691677129438
 30
0.0
 10
105.2511121698677
 20
-155.399644600907
 30
0.0
 10
105.2469780552855
 20
-155.5160888283085
 30
0.0
 10
105.2469780552855
 20
-155.5160888283085
 30
0.0
 10
105.0227023391957
 20
-155.5160888283085
 30
0.0
 10
105.0227023391957
 20
-155.5160888283085
 30
0.0
 10
105.0313150779088
 20
-155.3889648049027
 30
0.0
 10
105.0419948739131
 20
-155.2769992016321
 30
0.0
 10
105.1222655987194
 20
-155.1584879169395
 30
0.0
 10
105.2321641446989
 20
-154.9976019577784
 30
0.0
 10
105.4185438104509
 20
-154.9638400220229
 30
0.0
 10
105.5346435283038
 20
-154.9638400220229
 30
0.0
 10
105.8119737148664
 20
-154.9638400220229
 30
0.0
 10
106.0193684630785
 20
-155.1478081209353
 30
0.0
 10
106.0193684630785
 20
-155.420659683367
 30
0.0
 10
106.0193684630785
 20
-155.6494140235876
 30
0.0
 10
105.902924235677
 20
-155.7486327735628
 30
0.0
 10
105.5938991706501
 20
-155.9749755469437
 30
0.0
  0
HATCH
  5
13D
330
138
100
AcDbEntity
  8
レイヤー 1
 62
    18
420
        0
440
 33554687
100
AcDbHatch
 10
0.0
 20
0.0
 30
0.0
210
0.0
220
0.0
230
1.0
  2
SOLID
 70
     1
 71
     1
 91
        1
 92
        1
 93
        1
 72
     4
 94
        3
 73
     0
 74
     0
 95
       44
 96
       40
 40
0.0
 40
0.0
 40
0.0
 40
0.0
 40
1.0
 40
1.0
 40
1.0
 40
2.0
 40
2.0
 40
2.0
 40
3.0
 40
3.0
 40
3.0
 40
4.0
 40
4.0
 40
4.0
 40
5.0
 40
5.0
 40
5.0
 40
6.0
 40
6.0
 40
6.0
 40
7.0
 40
7.0
 40
7.0
 40
8.0
 40
8.0
 40
8.0
 40
9.0
 40
9.0
 40
9.0
 40
10.0
 40
10.0
 40
10.0
 40
11.0
 40
11.0
 40
11.0
 40
12.0
 40
12.0
 40
12.0
 40
13.0
 40
13.0
 40
13.0
 40
13.0
 10
105.5938991706501
 20
-155.9749755469437
 10
105.3761691359823
 20
-156.1337944488137
 10
105.2831515578806
 20
-156.2078640017466
 10
105.23423120199
 20
-156.3515244834816
 10
105.23423120199
 20
-156.3515244834816
 10
106.0128227816565
 20
-156.3515244834816
 10
106.0128227816565
 20
-156.3515244834816
 10
106.0128227816565
 20
-156.3515244834816
 10
106.0128227816565
 20
-156.5568521744024
 10
106.0128227816565
 20
-156.5568521744024
 10
106.0128227816565
 20
-156.5568521744024
 10
104.984806288858
 20
-156.5568521744024
 10
104.984806288858
 20
-156.5568521744024
 10
105.0165011673223
 20
-156.1992512630335
 10
105.081957981542
 20
-156.1210475955183
 10
105.4671196567929
 20
-155.8227023264957
 10
105.723090251347
 20
-155.6239203169968
 10
105.7885470655667
 20
-155.5560519359374
 10
105.7885470655667
 20
-155.4185926260759
 10
105.7885470655667
 20
-155.3000813413833
 10
105.716544569925
 20
-155.1691677129438
 10
105.5198296177172
 20
-155.1691677129438
 10
105.2597249085809
 20
-155.1691677129438
 10
105.2511121698677
 20
-155.399644600907
 10
105.2469780552855
 20
-155.5160888283085
 10
105.2469780552855
 20
-155.5160888283085
 10
105.0227023391957
 20
-155.5160888283085
 10
105.0227023391957
 20
-155.5160888283085
 10
105.0313150779088
 20
-155.3889648049027
 10
105.0419948739131
 20
-155.2769992016321
 10
105.1222655987194
 20
-155.1584879169395
 10
105.2321641446989
 20
-154.9976019577784
 10
105.4185438104509
 20
-154.9638400220229
 10
105.5346435283038
 20
-154.9638400220229
 10
105.8119737148664
 20
-154.9638400220229
 10
106.0193684630785
 20
-155.1478081209353
 10
106.0193684630785
 20
-155.420659683367
 10
106.0193684630785
 20
-155.6494140235876
 10
105.902924235677
 20
-155.7486327735628
 10
105.5938991706501
 20
-155.9749755469437
 97
        0
 97
        1
330
13C
 75
     2
 76
     1
 98
        1
 10
0.0
 20
0.0
450
        0
451
        0
460
0.0
461
0.0
452
        0
462
0.0
453
        0
470

  0
SPLINE
  5
13E
330
138
100
AcDbEntity
  8
レイヤー 1
100
AcDbSpline
210
0.0
220
0.0
230
1.0
 70
     9
 71
     3
 72
    44
 73
    40
 74
     0
 42
0.0000000001
 43
0.0000000001
 40
0.0
 40
0.0
 40
0.0
 40
0.0
 40
1.0
 40
1.0
 40
1.0
 40
2.0
 40
2.0
 40
2.0
 40
3.0
 40
3.0
 40
3.0
 40
4.0
 40
4.0
 40
4.0
 40
5.0
 40
5.0
 40
5.0
 40
6.0
 40
6.0
 40
6.0
 40
7.0
 40
7.0
 40
7.0
 40
8.0
 40
8.0
 40
8.0
 40
9.0
 40
9.0
 40
9.0
 40
10.0
 40
10.0
 40
10.0
 40
11.0
 40
11.0
 40
11.0
 40
12.0
 40
12.0
 40
12.0
 40
13.0
 40
13.0
 40
13.0
 40
13.0
 10
106.7707437884115
 20
-155.9749755469437
 30
0.0
 10
106.5530137537437
 20
-156.1337944488137
 30
0.0
 10
106.4599961756419
 20
-156.2078640017466
 30
0.0
 10
106.4110758197514
 20
-156.3515244834816
 30
0.0
 10
106.4110758197514
 20
-156.3515244834816
 30
0.0
 10
107.1896673994178
 20
-156.3515244834816
 30
0.0
 10
107.1896673994178
 20
-156.3515244834816
 30
0.0
 10
107.1896673994178
 20
-156.3515244834816
 30
0.0
 10
107.1896673994178
 20
-156.5568521744024
 30
0.0
 10
107.1896673994178
 20
-156.5568521744024
 30
0.0
 10
107.1896673994178
 20
-156.5568521744024
 30
0.0
 10
106.1616509066193
 20
-156.5568521744024
 30
0.0
 10
106.1616509066193
 20
-156.5568521744024
 30
0.0
 10
106.1933457850836
 20
-156.1992512630335
 30
0.0
 10
106.2588025993033
 20
-156.1210475955183
 30
0.0
 10
106.6439642745543
 20
-155.8227023264957
 30
0.0
 10
106.8999348691083
 20
-155.6239203169968
 30
0.0
 10
106.9653916833281
 20
-155.5560519359374
 30
0.0
 10
106.9653916833281
 20
-155.4185926260759
 30
0.0
 10
106.9653916833281
 20
-155.3000813413833
 30
0.0
 10
106.8933891876864
 20
-155.1691677129438
 30
0.0
 10
106.6966742354786
 20
-155.1691677129438
 30
0.0
 10
106.4365695263422
 20
-155.1691677129438
 30
0.0
 10
106.4279567876291
 20
-155.399644600907
 30
0.0
 10
106.4238226730468
 20
-155.5160888283085
 30
0.0
 10
106.4238226730468
 20
-155.5160888283085
 30
0.0
 10
106.199546956957
 20
-155.5160888283085
 30
0.0
 10
106.199546956957
 20
-155.5160888283085
 30
0.0
 10
106.2081596956702
 20
-155.3889648049027
 30
0.0
 10
106.2188394916744
 20
-155.2769992016321
 30
0.0
 10
106.2991102164808
 20
-155.1584879169395
 30
0.0
 10
106.4090087624602
 20
-154.9976019577784
 30
0.0
 10
106.5953884282123
 20
-154.9638400220229
 30
0.0
 10
106.7114881460652
 20
-154.9638400220229
 30
0.0
 10
106.9888183326278
 20
-154.9638400220229
 30
0.0
 10
107.1962130808398
 20
-155.1478081209353
 30
0.0
 10
107.1962130808398
 20
-155.420659683367
 30
0.0
 10
107.1962130808398
 20
-155.6494140235876
 30
0.0
 10
107.0797688534384
 20
-155.7486327735628
 30
0.0
 10
106.7707437884115
 20
-155.9749755469437
 30
0.0
  0
HATCH
  5
13F
330
138
100
AcDbEntity
  8
レイヤー 1
 62
    18
420
        0
440
 33554687
100
AcDbHatch
 10
0.0
 20
0.0
 30
0.0
210
0.0
220
0.0
230
1.0
  2
SOLID
 70
     1
 71
     1
 91
        1
 92
        1
 93
        1
 72
     4
 94
        3
 73
     0
 74
     0
 95
       44
 96
       40
 40
0.0
 40
0.0
 40
0.0
 40
0.0
 40
1.0
 40
1.0
 40
1.0
 40
2.0
 40
2.0
 40
2.0
 40
3.0
 40
3.0
 40
3.0
 40
4.0
 40
4.0
 40
4.0
 40
5.0
 40
5.0
 40
5.0
 40
6.0
 40
6.0
 40
6.0
 40
7.0
 40
7.0
 40
7.0
 40
8.0
 40
8.0
 40
8.0
 40
9.0
 40
9.0
 40
9.0
 40
10.0
 40
10.0
 40
10.0
 40
11.0
 40
11.0
 40
11.0
 40
12.0
 40
12.0
 40
12.0
 40
13.0
 40
13.0
 40
13.0
 40
13.0
 10
106.7707437884115
 20
-155.9749755469437
 10
106.5530137537437
 20
-156.1337944488137
 10
106.4599961756419
 20
-156.2078640017466
 10
106.4110758197514
 20
-156.3515244834816
 10
106.4110758197514
 20
-156.3515244834816
 10
107.1896673994178
 20
-156.3515244834816
 10
107.1896673994178
 20
-156.3515244834816
 10
107.1896673994178
 20
-156.3515244834816
 10
107.1896673994178
 20
-156.5568521744024
 10
107.1896673994178
 20
-156.5568521744024
 10
107.1896673994178
 20
-156.5568521744024
 10
106.1616509066193
 20
-156.5568521744024
 10
106.1616509066193
 20
-156.5568521744024
 10
106.1933457850836
 20
-156.1992512630335
 10
106.2588025993033
 20
-156.1210475955183
 10
106.6439642745543
 20
-155.8227023264957
 10
106.8999348691083
 20
-155.6239203169968
 10
106.9653916833281
 20
-155.5560519359374
 10
106.9653916833281
 20
-155.4185926260759
 10
106.9653916833281
 20
-155.3000813413833
 10
106.8933891876864
 20
-155.1691677129438
 10
106.6966742354786
 20
-155.1691677129438
 10
106.4365695263422
 20
-155.1691677129438
 10
106.4279567876291
 20
-155.399644600907
 10
106.4238226730468
 20
-155.5160888283085
 10
106.4238226730468
 20
-155.5160888283085
 10
106.199546956957
 20
-155.5160888283085
 10
106.199546956957
 20
-155.5160888283085
 10
106.2081596956702
 20
-155.3889648049027
 10
106.2188394916744
 20
-155.2769992016321
 10
106.2991102164808
 20
-155.1584879169395
 10
106.4090087624602
 20
-154.9976019577784
 10
106.5953884282123
 20
-154.9638400220229
 10
106.7114881460652
 20
-154.9638400220229
 10
106.9888183326278
 20
-154.9638400220229
 10
107.1962130808398
 20
-155.1478081209353
 10
107.1962130808398
 20
-155.420659683367
 10
107.1962130808398
 20
-155.6494140235876
 10
107.0797688534384
 20
-155.7486327735628
 10
106.7707437884115
 20
-155.9749755469437
 97
        0
 97
        1
330
13E
 75
     2
 76
     1
 98
        1
 10
0.0
 20
0.0
450
        0
451
        0
460
0.0
461
0.0
452
        0
462
0.0
453
        0
470

  0
ENDBLK
  5
13B
330
138
100
AcDbEntity
  8
0
100
AcDbBlockEnd
  0
BLOCK
  5
143
330
141
100
AcDbEntity
  8
0
100
AcDbBlockBegin
  2
Block_12
 70
     0
 10
0.0
 20
0.0
 30
0.0
  3
Block_12
  1

  0
SPLINE
  5
145
330
141
100
AcDbEntity
  8
レイヤー 1
100
AcDbSpline
210
0.0
220
0.0
230
1.0
 70
    11
 71
     3
 72
    26
 73
    22
 74
     0
 42
0.0000000001
 43
0.0000000001
 40
0.0
 40
0.0
 40
0.0
 40
0.0
 40
1.0
 40
1.0
 40
1.0
 40
2.0
 40
2.0
 40
2.0
 40
3.0
 40
3.0
 40
3.0
 40
4.0
 40
4.0
 40
4.0
 40
5.0
 40
5.0
 40
5.0
 40
6.0
 40
6.0
 40
6.0
 40
7.0
 40
7.0
 40
7.0
 40
7.0
 10
118.8730197185456
 20
-149.5343695372692
 30
0.0
 10
118.8730197185456
 20
-149.5343695372692
 30
0.0
 10
118.8730197185456
 20
-148.4300441794723
 30
0.0
 10
118.8730197185456
 20
-148.4300441794723
 30
0.0
 10
118.8730197185456
 20
-148.4300441794723
 30
0.0
 10
118.5429795710587
 20
-148.4300441794723
 30
0.0
 10
118.5429795710587
 20
-148.4300441794723
 30
0.0
 10
118.5429795710587
 20
-148.4300441794723
 30
0.0
 10
118.5429795710587
 20
-148.2819050736066
 30
0.0
 10
118.5429795710587
 20
-148.2819050736066
 30
0.0
 10
118.8750867758368
 20
-148.2672634177943
 30
0.0
 10
118.9215955648876
 20
-148.104310401342
 30
0.0
 10
118.9512233860608
 20
-147.9901054860059
 30
0.0
 10
118.9512233860608
 20
-147.9901054860059
 30
0.0
 10
119.0972954346354
 20
-147.9901054860059
 30
0.0
 10
119.0972954346354
 20
-147.9901054860059
 30
0.0
 10
119.0972954346354
 20
-147.9901054860059
 30
0.0
 10
119.0972954346354
 20
-149.5343695372692
 30
0.0
 10
119.0972954346354
 20
-149.5343695372692
 30
0.0
 10
119.0972954346354
 20
-149.5343695372692
 30
0.0
 10
118.8730197185456
 20
-149.5343695372692
 30
0.0
 10
118.8730197185456
 20
-149.5343695372692
 30
0.0
  0
HATCH
  5
146
330
141
100
AcDbEntity
  8
レイヤー 1
 62
    18
420
        0
440
 33554687
100
AcDbHatch
 10
0.0
 20
0.0
 30
0.0
210
0.0
220
0.0
230
1.0
  2
SOLID
 70
     1
 71
     1
 91
        1
 92
        1
 93
        1
 72
     4
 94
        3
 73
     0
 74
     0
 95
       26
 96
       22
 40
0.0
 40
0.0
 40
0.0
 40
0.0
 40
1.0
 40
1.0
 40
1.0
 40
2.0
 40
2.0
 40
2.0
 40
3.0
 40
3.0
 40
3.0
 40
4.0
 40
4.0
 40
4.0
 40
5.0
 40
5.0
 40
5.0
 40
6.0
 40
6.0
 40
6.0
 40
7.0
 40
7.0
 40
7.0
 40
7.0
 10
118.8730197185456
 20
-149.5343695372692
 10
118.8730197185456
 20
-149.5343695372692
 10
118.8730197185456
 20
-148.4300441794723
 10
118.8730197185456
 20
-148.4300441794723
 10
118.8730197185456
 20
-148.4300441794723
 10
118.5429795710587
 20
-148.4300441794723
 10
118.5429795710587
 20
-148.4300441794723
 10
118.5429795710587
 20
-148.4300441794723
 10
118.5429795710587
 20
-148.2819050736066
 10
118.5429795710587
 20
-148.2819050736066
 10
118.8750867758368
 20
-148.2672634177943
 10
118.9215955648876
 20
-148.104310401342
 10
118.9512233860608
 20
-147.9901054860059
 10
118.9512233860608
 20
-147.9901054860059
 10
119.0972954346354
 20
-147.9901054860059
 10
119.0972954346354
 20
-147.9901054860059
 10
119.0972954346354
 20
-147.9901054860059
 10
119.0972954346354
 20
-149.5343695372692
 10
119.0972954346354
 20
-149.5343695372692
 10
119.0972954346354
 20
-149.5343695372692
 10
118.8730197185456
 20
-149.5343695372692
 10
118.8730197185456
 20
-149.5343695372692
 97
        0
 97
        1
330
145
 75
     2
 76
     1
 98
        1
 10
0.0
 20
0.0
450
        0
451
        0
460
0.0
461
0.0
452
        0
462
0.0
453
        0
470

  0
ENDBLK
  5
144
330
141
100
AcDbEntity
  8
0
100
AcDbBlockEnd
  0
BLOCK
  5
149
330
147
100
AcDbEntity
  8
0
100
AcDbBlockBegin
  2
Block_13
 70
     0
 10
0.0
 20
0.0
 30
0.0
  3
Block_13
  1

  0
LWPOLYLINE
  5
14B
330
147
100
AcDbEntity
  8
レイヤー 1
 62
   250
420
  2299925
370
     9
100
AcDbPolyline
 90
        4
 70
     1
 43
0.0
 10
117.3970155322878
 20
-152.8881409145902
 10
117.9585671846281
 20
-152.8812617479251
 10
117.0683716789508
 20
-152.5656667480041
 10
117.3722152551427
 20
-153.4799961922194
  0
HATCH
  5
14C
330
147
100
AcDbEntity
  8
レイヤー 1
 62
   250
420
  2299925
440
 33554687
100
AcDbHatch
 10
0.0
 20
0.0
 30
0.0
210
0.0
220
0.0
230
1.0
  2
SOLID
 70
     1
 71
     1
 91
        1
 92
        1
 93
        4
 72
     1
 10
117.3970155322878
 20
-152.8881409145902
 11
117.9585671846281
 21
-152.8812617479251
 72
     1
 10
117.9585671846281
 20
-152.8812617479251
 11
117.0683716789508
 21
-152.5656667480041
 72
     1
 10
117.0683716789508
 20
-152.5656667480041
 11
117.3722152551427
 21
-153.4799961922194
 72
     1
 10
117.3722152551427
 20
-153.4799961922194
 11
117.3970155322878
 21
-152.8881409145902
 97
        1
330
14B
 75
     2
 76
     1
 98
        1
 10
0.0
 20
0.0
450
        0
451
        0
460
0.0
461
0.0
452
        0
462
0.0
453
        0
470

  0
LINE
  5
14D
330
147
100
AcDbEntity
  8
レイヤー 1
 62
   250
420
  2299925
370
     9
100
AcDbLine
 10
117.3970155322878
 20
-152.8881409145902
 30
0.0
 11
119.8010196376232
 21
-155.2776459139928
 31
0.0
  0
ENDBLK
  5
14A
330
147
100
AcDbEntity
  8
0
100
AcDbBlockEnd
  0
BLOCK
  5
150
330
14E
100
AcDbEntity
  8
0
100
AcDbBlockBegin
  2
Block_14
 70
     0
 10
0.0
 20
0.0
 30
0.0
  3
Block_14
  1

  0
INSERT
  5
153
330
14E
100
AcDbEntity
  8
レイヤー 1
100
AcDbBlockReference
  2
Block_15
 10
0.0
 20
0.0
 30
0.0
  0
ENDBLK
  5
151
330
14E
100
AcDbEntity
  8
0
100
AcDbBlockEnd
  0
BLOCK
  5
154
330
152
100
AcDbEntity
  8
0
100
AcDbBlockBegin
  2
Block_15
 70
     0
 10
0.0
 20
0.0
 30
0.0
  3
Block_15
  1

  0
SPLINE
  5
156
330
152
100
AcDbEntity
  8
レイヤー 1
100
AcDbSpline
210
0.0
220
0.0
230
1.0
 70
     9
 71
     3
 72
    38
 73
    34
 74
     0
 42
0.0000000001
 43
0.0000000001
 40
0.0
 40
0.0
 40
0.0
 40
0.0
 40
1.0
 40
1.0
 40
1.0
 40
2.0
 40
2.0
 40
2.0
 40
3.0
 40
3.0
 40
3.0
 40
4.0
 40
4.0
 40
4.0
 40
5.0
 40
5.0
 40
5.0
 40
6.0
 40
6.0
 40
6.0
 40
7.0
 40
7.0
 40
7.0
 40
8.0
 40
8.0
 40
8.0
 40
9.0
 40
9.0
 40
9.0
 40
10.0
 40
10.0
 40
10.0
 40
11.0
 40
11.0
 40
11.0
 40
11.0
 10
120.333395694743
 20
-156.3580701649035
 30
0.0
 10
120.4264132728448
 20
-156.2354247656286
 30
0.0
 10
120.5514702389593
 20
-156.0555907812986
 30
0.0
 10
120.6465548743522
 20
-155.607039349119
 30
0.0
 10
120.6465548743522
 20
-155.607039349119
 30
0.0
 10
120.8136420053868
 20
-155.6263318838365
 30
0.0
 10
120.8136420053868
 20
-155.6263318838365
 30
0.0
 10
120.788148298796
 20
-155.7469102258202
 30
0.0
 10
120.7650661590448
 20
-155.8378607466308
 30
0.0
 10
120.7268255991585
 20
-155.9456922353191
 30
0.0
 10
120.7268255991585
 20
-155.9456922353191
 30
0.0
 10
121.3552110156681
 20
-155.9456922353191
 30
0.0
 10
121.3552110156681
 20
-155.9456922353191
 30
0.0
 10
121.3552110156681
 20
-155.9456922353191
 30
0.0
 10
121.3552110156681
 20
-156.0979654557672
 30
0.0
 10
121.3552110156681
 20
-156.0979654557672
 30
0.0
 10
121.3214490799127
 20
-156.2399033897594
 30
0.0
 10
121.2260199349713
 20
-156.4979410416047
 30
0.0
 10
121.1522948915869
 20
-156.6164523262973
 30
0.0
 10
121.1522948915869
 20
-156.6164523262973
 30
0.0
 10
120.9996771615903
 20
-156.5379041492336
 30
0.0
 10
120.9996771615903
 20
-156.5379041492336
 30
0.0
 10
121.0951063065318
 20
-156.4025118966632
 30
0.0
 10
121.1605631207515
 20
-156.2144096831686
 30
0.0
 10
121.1881238846335
 20
-156.1041666276406
 30
0.0
 10
121.1881238846335
 20
-156.1041666276406
 30
0.0
 10
120.6696370141034
 20
-156.1041666276406
 30
0.0
 10
120.6696370141034
 20
-156.1041666276406
 30
0.0
 10
120.5704182641282
 20
-156.3456678211566
 30
0.0
 10
120.4963487111953
 20
-156.4342067751275
 30
0.0
 10
120.4581081513091
 20
-156.4786485068873
 30
0.0
 10
120.4581081513091
 20
-156.4786485068873
 30
0.0
 10
120.333395694743
 20
-156.3580701649035
 30
0.0
 10
120.333395694743
 20
-156.3580701649035
 30
0.0
  0
SPLINE
  5
157
330
152
100
AcDbEntity
  8
レイヤー 1
100
AcDbSpline
210
0.0
220
0.0
230
1.0
 70
     9
 71
     3
 72
    38
 73
    34
 74
     0
 42
0.0000000001
 43
0.0000000001
 40
0.0
 40
0.0
 40
0.0
 40
0.0
 40
1.0
 40
1.0
 40
1.0
 40
2.0
 40
2.0
 40
2.0
 40
3.0
 40
3.0
 40
3.0
 40
4.0
 40
4.0
 40
4.0
 40
5.0
 40
5.0
 40
5.0
 40
6.0
 40
6.0
 40
6.0
 40
7.0
 40
7.0
 40
7.0
 40
8.0
 40
8.0
 40
8.0
 40
9.0
 40
9.0
 40
9.0
 40
10.0
 40
10.0
 40
10.0
 40
11.0
 40
11.0
 40
11.0
 40
11.0
 10
120.2190185246327
 20
-157.4308728990103
 30
0.0
 10
120.3017008162787
 20
-157.3778184285375
 30
0.0
 10
120.4667208900222
 20
-157.2699869398492
 30
0.0
 10
120.5724853214193
 20
-157.0625921916371
 30
0.0
 10
120.7206244272851
 20
-156.7707926040364
 30
0.0
 10
120.7206244272851
 20
-156.5444498306555
 30
0.0
 10
120.7206244272851
 20
-156.4597004817184
 30
0.0
 10
120.7206244272851
 20
-156.4597004817184
 30
0.0
 10
120.7206244272851
 20
-156.2250894791729
 30
0.0
 10
120.7206244272851
 20
-156.2250894791729
 30
0.0
 10
120.7206244272851
 20
-156.2250894791729
 30
0.0
 10
120.8856445010286
 20
-156.2250894791729
 30
0.0
 10
120.8856445010286
 20
-156.2250894791729
 30
0.0
 10
120.8856445010286
 20
-156.2250894791729
 30
0.0
 10
120.8856445010286
 20
-156.4514322525538
 30
0.0
 10
120.8856445010286
 20
-156.4514322525538
 30
0.0
 10
120.8856445010286
 20
-156.6502142620527
 30
0.0
 10
120.9511013152483
 20
-156.8872368314379
 30
0.0
 10
121.0527316320632
 20
-157.060525134346
 30
0.0
 10
121.1691758594646
 20
-157.2593071438449
 30
0.0
 10
121.298022430613
 20
-157.3588704033686
 30
0.0
 10
121.3827717795501
 20
-157.420193103006
 30
0.0
 10
121.3827717795501
 20
-157.420193103006
 30
0.0
 10
121.2749402908618
 20
-157.5703992661629
 30
0.0
 10
121.2749402908618
 20
-157.5703992661629
 30
0.0
 10
121.0971733638229
 20
-157.441208185466
 30
0.0
 10
120.898391354324
 20
-157.2021185587897
 30
0.0
 10
120.8198431772603
 20
-156.8489962715516
 30
0.0
 10
120.7543863630406
 20
-157.0880858982279
 30
0.0
 10
120.6527560462257
 20
-157.3568033460774
 30
0.0
 10
120.3440754907473
 20
-157.5662651515806
 30
0.0
 10
120.3440754907473
 20
-157.5662651515806
 30
0.0
 10
120.2190185246327
 20
-157.4308728990103
 30
0.0
 10
120.2190185246327
 20
-157.4308728990103
 30
0.0
  0
SPLINE
  5
158
330
152
100
AcDbEntity
  8
レイヤー 1
100
AcDbSpline
210
0.0
220
0.0
230
1.0
 70
    11
 71
     3
 72
    17
 73
    13
 74
     0
 42
0.0000000001
 43
0.0000000001
 40
0.0
 40
0.0
 40
0.0
 40
0.0
 40
1.0
 40
1.0
 40
1.0
 40
2.0
 40
2.0
 40
2.0
 40
3.0
 40
3.0
 40
3.0
 40
4.0
 40
4.0
 40
4.0
 40
4.0
 10
120.1769883597127
 20
-156.5423827733644
 30
0.0
 10
120.1769883597127
 20
-156.5423827733644
 30
0.0
 10
119.9654594969183
 20
-156.5423827733644
 30
0.0
 10
119.9654594969183
 20
-156.5423827733644
 30
0.0
 10
119.9654594969183
 20
-156.5423827733644
 30
0.0
 10
119.9654594969183
 20
-156.7494330120279
 30
0.0
 10
119.9654594969183
 20
-156.7494330120279
 30
0.0
 10
119.9654594969183
 20
-156.7494330120279
 30
0.0
 10
120.1769883597127
 20
-156.7494330120279
 30
0.0
 10
120.1769883597127
 20
-156.7494330120279
 30
0.0
 10
120.1769883597127
 20
-156.7494330120279
 30
0.0
 10
120.1769883597127
 20
-156.5423827733644
 30
0.0
 10
120.1769883597127
 20
-156.5423827733644
 30
0.0
  0
SPLINE
  5
159
330
152
100
AcDbEntity
  8
レイヤー 1
100
AcDbSpline
210
0.0
220
0.0
230
1.0
 70
    11
 71
     3
 72
    17
 73
    13
 74
     0
 42
0.0000000001
 43
0.0000000001
 40
0.0
 40
0.0
 40
0.0
 40
0.0
 40
1.0
 40
1.0
 40
1.0
 40
2.0
 40
2.0
 40
2.0
 40
3.0
 40
3.0
 40
3.0
 40
4.0
 40
4.0
 40
4.0
 40
4.0
 10
120.1769883597127
 20
-156.2164767404597
 30
0.0
 10
120.1769883597127
 20
-156.2164767404597
 30
0.0
 10
119.9654594969183
 20
-156.2164767404597
 30
0.0
 10
119.9654594969183
 20
-156.2164767404597
 30
0.0
 10
119.9654594969183
 20
-156.2164767404597
 30
0.0
 10
119.9654594969183
 20
-156.419392864541
 30
0.0
 10
119.9654594969183
 20
-156.419392864541
 30
0.0
 10
119.9654594969183
 20
-156.419392864541
 30
0.0
 10
120.1769883597127
 20
-156.419392864541
 30
0.0
 10
120.1769883597127
 20
-156.419392864541
 30
0.0
 10
120.1769883597127
 20
-156.419392864541
 30
0.0
 10
120.1769883597127
 20
-156.2164767404597
 30
0.0
 10
120.1769883597127
 20
-156.2164767404597
 30
0.0
  0
SPLINE
  5
15A
330
152
100
AcDbEntity
  8
レイヤー 1
100
AcDbSpline
210
0.0
220
0.0
230
1.0
 70
    11
 71
     3
 72
    17
 73
    13
 74
     0
 42
0.0000000001
 43
0.0000000001
 40
0.0
 40
0.0
 40
0.0
 40
0.0
 40
1.0
 40
1.0
 40
1.0
 40
2.0
 40
2.0
 40
2.0
 40
3.0
 40
3.0
 40
3.0
 40
4.0
 40
4.0
 40
4.0
 40
4.0
 10
119.8107747096306
 20
-156.5423827733644
 30
0.0
 10
119.8107747096306
 20
-156.5423827733644
 30
0.0
 10
119.6037244709671
 20
-156.5423827733644
 30
0.0
 10
119.6037244709671
 20
-156.5423827733644
 30
0.0
 10
119.6037244709671
 20
-156.5423827733644
 30
0.0
 10
119.6037244709671
 20
-156.7494330120279
 30
0.0
 10
119.6037244709671
 20
-156.7494330120279
 30
0.0
 10
119.6037244709671
 20
-156.7494330120279
 30
0.0
 10
119.8107747096306
 20
-156.7494330120279
 30
0.0
 10
119.8107747096306
 20
-156.7494330120279
 30
0.0
 10
119.8107747096306
 20
-156.7494330120279
 30
0.0
 10
119.8107747096306
 20
-156.5423827733644
 30
0.0
 10
119.8107747096306
 20
-156.5423827733644
 30
0.0
  0
SPLINE
  5
15B
330
152
100
AcDbEntity
  8
レイヤー 1
100
AcDbSpline
210
0.0
220
0.0
230
1.0
 70
    11
 71
     3
 72
    17
 73
    13
 74
     0
 42
0.0000000001
 43
0.0000000001
 40
0.0
 40
0.0
 40
0.0
 40
0.0
 40
1.0
 40
1.0
 40
1.0
 40
2.0
 40
2.0
 40
2.0
 40
3.0
 40
3.0
 40
3.0
 40
4.0
 40
4.0
 40
4.0
 40
4.0
 10
119.8107747096306
 20
-156.2164767404597
 30
0.0
 10
119.8107747096306
 20
-156.2164767404597
 30
0.0
 10
119.6037244709671
 20
-156.2164767404597
 30
0.0
 10
119.6037244709671
 20
-156.2164767404597
 30
0.0
 10
119.6037244709671
 20
-156.2164767404597
 30
0.0
 10
119.6037244709671
 20
-156.419392864541
 30
0.0
 10
119.6037244709671
 20
-156.419392864541
 30
0.0
 10
119.6037244709671
 20
-156.419392864541
 30
0.0
 10
119.8107747096306
 20
-156.419392864541
 30
0.0
 10
119.8107747096306
 20
-156.419392864541
 30
0.0
 10
119.8107747096306
 20
-156.419392864541
 30
0.0
 10
119.8107747096306
 20
-156.2164767404597
 30
0.0
 10
119.8107747096306
 20
-156.2164767404597
 30
0.0
  0
SPLINE
  5
15C
330
152
100
AcDbEntity
  8
レイヤー 1
100
AcDbSpline
210
0.0
220
0.0
230
1.0
 70
    11
 71
     3
 72
    89
 73
    85
 74
     0
 42
0.0000000001
 43
0.0000000001
 40
0.0
 40
0.0
 40
0.0
 40
0.0
 40
1.0
 40
1.0
 40
1.0
 40
2.0
 40
2.0
 40
2.0
 40
3.0
 40
3.0
 40
3.0
 40
4.0
 40
4.0
 40
4.0
 40
5.0
 40
5.0
 40
5.0
 40
6.0
 40
6.0
 40
6.0
 40
7.0
 40
7.0
 40
7.0
 40
8.0
 40
8.0
 40
8.0
 40
9.0
 40
9.0
 40
9.0
 40
10.0
 40
10.0
 40
10.0
 40
11.0
 40
11.0
 40
11.0
 40
12.0
 40
12.0
 40
12.0
 40
13.0
 40
13.0
 40
13.0
 40
14.0
 40
14.0
 40
14.0
 40
15.0
 40
15.0
 40
15.0
 40
16.0
 40
16.0
 40
16.0
 40
17.0
 40
17.0
 40
17.0
 40
18.0
 40
18.0
 40
18.0
 40
19.0
 40
19.0
 40
19.0
 40
20.0
 40
20.0
 40
20.0
 40
21.0
 40
21.0
 40
21.0
 40
22.0
 40
22.0
 40
22.0
 40
23.0
 40
23.0
 40
23.0
 40
24.0
 40
24.0
 40
24.0
 40
25.0
 40
25.0
 40
25.0
 40
26.0
 40
26.0
 40
26.0
 40
27.0
 40
27.0
 40
27.0
 40
28.0
 40
28.0
 40
28.0
 40
28.0
 10
119.8107747096306
 20
-155.7679253082802
 30
0.0
 10
119.8107747096306
 20
-155.7679253082802
 30
0.0
 10
119.8107747096306
 20
-155.607039349119
 30
0.0
 10
119.8107747096306
 20
-155.607039349119
 30
0.0
 10
119.8107747096306
 20
-155.607039349119
 30
0.0
 10
119.9654594969183
 20
-155.607039349119
 30
0.0
 10
119.9654594969183
 20
-155.607039349119
 30
0.0
 10
119.9654594969183
 20
-155.607039349119
 30
0.0
 10
119.9654594969183
 20
-155.7679253082802
 30
0.0
 10
119.9654594969183
 20
-155.7679253082802
 30
0.0
 10
119.9654594969183
 20
-155.7679253082802
 30
0.0
 10
120.3588894013339
 20
-155.7679253082802
 30
0.0
 10
120.3588894013339
 20
-155.7679253082802
 30
0.0
 10
120.3588894013339
 20
-155.7679253082802
 30
0.0
 10
120.3588894013339
 20
-155.9222655860194
 30
0.0
 10
120.3588894013339
 20
-155.9222655860194
 30
0.0
 10
120.3588894013339
 20
-155.9222655860194
 30
0.0
 10
119.9654594969183
 20
-155.9222655860194
 30
0.0
 10
119.9654594969183
 20
-155.9222655860194
 30
0.0
 10
119.9654594969183
 20
-155.9222655860194
 30
0.0
 10
119.9654594969183
 20
-156.0769503733071
 30
0.0
 10
119.9654594969183
 20
-156.0769503733071
 30
0.0
 10
119.9654594969183
 20
-156.0769503733071
 30
0.0
 10
120.3206488414476
 20
-156.0769503733071
 30
0.0
 10
120.3206488414476
 20
-156.0769503733071
 30
0.0
 10
120.3206488414476
 20
-156.0769503733071
 30
0.0
 10
120.3206488414476
 20
-156.889303888729
 30
0.0
 10
120.3206488414476
 20
-156.889303888729
 30
0.0
 10
120.3206488414476
 20
-156.889303888729
 30
0.0
 10
119.9654594969183
 20
-156.889303888729
 30
0.0
 10
119.9654594969183
 20
-156.889303888729
 30
0.0
 10
119.9654594969183
 20
-156.889303888729
 30
0.0
 10
119.9654594969183
 20
-157.0584580770548
 30
0.0
 10
119.9654594969183
 20
-157.0584580770548
 30
0.0
 10
119.9654594969183
 20
-157.0584580770548
 30
0.0
 10
120.3737033119204
 20
-157.0584580770548
 30
0.0
 10
120.3737033119204
 20
-157.0584580770548
 30
0.0
 10
120.3737033119204
 20
-157.0584580770548
 30
0.0
 10
120.3737033119204
 20
-157.212798354794
 30
0.0
 10
120.3737033119204
 20
-157.212798354794
 30
0.0
 10
120.3737033119204
 20
-157.212798354794
 30
0.0
 10
119.9654594969183
 20
-157.212798354794
 30
0.0
 10
119.9654594969183
 20
-157.212798354794
 30
0.0
 10
119.9654594969183
 20
-157.212798354794
 30
0.0
 10
119.9654594969183
 20
-157.5662651515806
 30
0.0
 10
119.9654594969183
 20
-157.5662651515806
 30
0.0
 10
119.9654594969183
 20
-157.5662651515806
 30
0.0
 10
119.8107747096306
 20
-157.5662651515806
 30
0.0
 10
119.8107747096306
 20
-157.5662651515806
 30
0.0
 10
119.8107747096306
 20
-157.5662651515806
 30
0.0
 10
119.8107747096306
 20
-157.212798354794
 30
0.0
 10
119.8107747096306
 20
-157.212798354794
 30
0.0
 10
119.8107747096306
 20
-157.212798354794
 30
0.0
 10
119.4004638373374
 20
-157.212798354794
 30
0.0
 10
119.4004638373374
 20
-157.212798354794
 30
0.0
 10
119.4004638373374
 20
-157.212798354794
 30
0.0
 10
119.4004638373374
 20
-157.0584580770548
 30
0.0
 10
119.4004638373374
 20
-157.0584580770548
 30
0.0
 10
119.4004638373374
 20
-157.0584580770548
 30
0.0
 10
119.8107747096306
 20
-157.0584580770548
 30
0.0
 10
119.8107747096306
 20
-157.0584580770548
 30
0.0
 10
119.8107747096306
 20
-157.0584580770548
 30
0.0
 10
119.8107747096306
 20
-156.889303888729
 30
0.0
 10
119.8107747096306
 20
-156.889303888729
 30
0.0
 10
119.8107747096306
 20
-156.889303888729
 30
0.0
 10
119.4617865369748
 20
-156.889303888729
 30
0.0
 10
119.4617865369748
 20
-156.889303888729
 30
0.0
 10
119.4617865369748
 20
-156.889303888729
 30
0.0
 10
119.4617865369748
 20
-156.0769503733071
 30
0.0
 10
119.4617865369748
 20
-156.0769503733071
 30
0.0
 10
119.4617865369748
 20
-156.0769503733071
 30
0.0
 10
119.8107747096306
 20
-156.0769503733071
 30
0.0
 10
119.8107747096306
 20
-156.0769503733071
 30
0.0
 10
119.8107747096306
 20
-156.0769503733071
 30
0.0
 10
119.8107747096306
 20
-155.9222655860194
 30
0.0
 10
119.8107747096306
 20
-155.9222655860194
 30
0.0
 10
119.8107747096306
 20
-155.9222655860194
 30
0.0
 10
119.4214789197974
 20
-155.9222655860194
 30
0.0
 10
119.4214789197974
 20
-155.9222655860194
 30
0.0
 10
119.4214789197974
 20
-155.9222655860194
 30
0.0
 10
119.4214789197974
 20
-155.7679253082802
 30
0.0
 10
119.4214789197974
 20
-155.7679253082802
 30
0.0
 10
119.4214789197974
 20
-155.7679253082802
 30
0.0
 10
119.8107747096306
 20
-155.7679253082802
 30
0.0
 10
119.8107747096306
 20
-155.7679253082802
 30
0.0
  0
HATCH
  5
15D
330
152
100
AcDbEntity
  8
レイヤー 1
 62
    12
420
 15007762
440
 33554687
100
AcDbHatch
 10
0.0
 20
0.0
 30
0.0
210
0.0
220
0.0
230
1.0
  2
SOLID
 70
     1
 71
     1
 91
        7
 92
        1
 93
        1
 72
     4
 94
        3
 73
     0
 74
     0
 95
       38
 96
       34
 40
0.0
 40
0.0
 40
0.0
 40
0.0
 40
1.0
 40
1.0
 40
1.0
 40
2.0
 40
2.0
 40
2.0
 40
3.0
 40
3.0
 40
3.0
 40
4.0
 40
4.0
 40
4.0
 40
5.0
 40
5.0
 40
5.0
 40
6.0
 40
6.0
 40
6.0
 40
7.0
 40
7.0
 40
7.0
 40
8.0
 40
8.0
 40
8.0
 40
9.0
 40
9.0
 40
9.0
 40
10.0
 40
10.0
 40
10.0
 40
11.0
 40
11.0
 40
11.0
 40
11.0
 10
120.333395694743
 20
-156.3580701649035
 10
120.4264132728448
 20
-156.2354247656286
 10
120.5514702389593
 20
-156.0555907812986
 10
120.6465548743522
 20
-155.607039349119
 10
120.6465548743522
 20
-155.607039349119
 10
120.8136420053868
 20
-155.6263318838365
 10
120.8136420053868
 20
-155.6263318838365
 10
120.788148298796
 20
-155.7469102258202
 10
120.7650661590448
 20
-155.8378607466308
 10
120.7268255991585
 20
-155.9456922353191
 10
120.7268255991585
 20
-155.9456922353191
 10
121.3552110156681
 20
-155.9456922353191
 10
121.3552110156681
 20
-155.9456922353191
 10
121.3552110156681
 20
-155.9456922353191
 10
121.3552110156681
 20
-156.0979654557672
 10
121.3552110156681
 20
-156.0979654557672
 10
121.3214490799127
 20
-156.2399033897594
 10
121.2260199349713
 20
-156.4979410416047
 10
121.1522948915869
 20
-156.6164523262973
 10
121.1522948915869
 20
-156.6164523262973
 10
120.9996771615903
 20
-156.5379041492336
 10
120.9996771615903
 20
-156.5379041492336
 10
121.0951063065318
 20
-156.4025118966632
 10
121.1605631207515
 20
-156.2144096831686
 10
121.1881238846335
 20
-156.1041666276406
 10
121.1881238846335
 20
-156.1041666276406
 10
120.6696370141034
 20
-156.1041666276406
 10
120.6696370141034
 20
-156.1041666276406
 10
120.5704182641282
 20
-156.3456678211566
 10
120.4963487111953
 20
-156.4342067751275
 10
120.4581081513091
 20
-156.4786485068873
 10
120.4581081513091
 20
-156.4786485068873
 10
120.333395694743
 20
-156.3580701649035
 10
120.333395694743
 20
-156.3580701649035
 97
        0
 97
        1
330
156
 92
        1
 93
        1
 72
     4
 94
        3
 73
     0
 74
     0
 95
       38
 96
       34
 40
0.0
 40
0.0
 40
0.0
 40
0.0
 40
1.0
 40
1.0
 40
1.0
 40
2.0
 40
2.0
 40
2.0
 40
3.0
 40
3.0
 40
3.0
 40
4.0
 40
4.0
 40
4.0
 40
5.0
 40
5.0
 40
5.0
 40
6.0
 40
6.0
 40
6.0
 40
7.0
 40
7.0
 40
7.0
 40
8.0
 40
8.0
 40
8.0
 40
9.0
 40
9.0
 40
9.0
 40
10.0
 40
10.0
 40
10.0
 40
11.0
 40
11.0
 40
11.0
 40
11.0
 10
120.2190185246327
 20
-157.4308728990103
 10
120.3017008162787
 20
-157.3778184285375
 10
120.4667208900222
 20
-157.2699869398492
 10
120.5724853214193
 20
-157.0625921916371
 10
120.7206244272851
 20
-156.7707926040364
 10
120.7206244272851
 20
-156.5444498306555
 10
120.7206244272851
 20
-156.4597004817184
 10
120.7206244272851
 20
-156.4597004817184
 10
120.7206244272851
 20
-156.2250894791729
 10
120.7206244272851
 20
-156.2250894791729
 10
120.7206244272851
 20
-156.2250894791729
 10
120.8856445010286
 20
-156.2250894791729
 10
120.8856445010286
 20
-156.2250894791729
 10
120.8856445010286
 20
-156.2250894791729
 10
120.8856445010286
 20
-156.4514322525538
 10
120.8856445010286
 20
-156.4514322525538
 10
120.8856445010286
 20
-156.6502142620527
 10
120.9511013152483
 20
-156.8872368314379
 10
121.0527316320632
 20
-157.060525134346
 10
121.1691758594646
 20
-157.2593071438449
 10
121.298022430613
 20
-157.3588704033686
 10
121.3827717795501
 20
-157.420193103006
 10
121.3827717795501
 20
-157.420193103006
 10
121.2749402908618
 20
-157.5703992661629
 10
121.2749402908618
 20
-157.5703992661629
 10
121.0971733638229
 20
-157.441208185466
 10
120.898391354324
 20
-157.2021185587897
 10
120.8198431772603
 20
-156.8489962715516
 10
120.7543863630406
 20
-157.0880858982279
 10
120.6527560462257
 20
-157.3568033460774
 10
120.3440754907473
 20
-157.5662651515806
 10
120.3440754907473
 20
-157.5662651515806
 10
120.2190185246327
 20
-157.4308728990103
 10
120.2190185246327
 20
-157.4308728990103
 97
        0
 97
        1
330
157
 92
        1
 93
        1
 72
     4
 94
        3
 73
     0
 74
     0
 95
       17
 96
       13
 40
0.0
 40
0.0
 40
0.0
 40
0.0
 40
1.0
 40
1.0
 40
1.0
 40
2.0
 40
2.0
 40
2.0
 40
3.0
 40
3.0
 40
3.0
 40
4.0
 40
4.0
 40
4.0
 40
4.0
 10
120.1769883597127
 20
-156.5423827733644
 10
120.1769883597127
 20
-156.5423827733644
 10
119.9654594969183
 20
-156.5423827733644
 10
119.9654594969183
 20
-156.5423827733644
 10
119.9654594969183
 20
-156.5423827733644
 10
119.9654594969183
 20
-156.7494330120279
 10
119.9654594969183
 20
-156.7494330120279
 10
119.9654594969183
 20
-156.7494330120279
 10
120.1769883597127
 20
-156.7494330120279
 10
120.1769883597127
 20
-156.7494330120279
 10
120.1769883597127
 20
-156.7494330120279
 10
120.1769883597127
 20
-156.5423827733644
 10
120.1769883597127
 20
-156.5423827733644
 97
        0
 97
        1
330
158
 92
        1
 93
        1
 72
     4
 94
        3
 73
     0
 74
     0
 95
       17
 96
       13
 40
0.0
 40
0.0
 40
0.0
 40
0.0
 40
1.0
 40
1.0
 40
1.0
 40
2.0
 40
2.0
 40
2.0
 40
3.0
 40
3.0
 40
3.0
 40
4.0
 40
4.0
 40
4.0
 40
4.0
 10
120.1769883597127
 20
-156.2164767404597
 10
120.1769883597127
 20
-156.2164767404597
 10
119.9654594969183
 20
-156.2164767404597
 10
119.9654594969183
 20
-156.2164767404597
 10
119.9654594969183
 20
-156.2164767404597
 10
119.9654594969183
 20
-156.419392864541
 10
119.9654594969183
 20
-156.419392864541
 10
119.9654594969183
 20
-156.419392864541
 10
120.1769883597127
 20
-156.419392864541
 10
120.1769883597127
 20
-156.419392864541
 10
120.1769883597127
 20
-156.419392864541
 10
120.1769883597127
 20
-156.2164767404597
 10
120.1769883597127
 20
-156.2164767404597
 97
        0
 97
        1
330
159
 92
        1
 93
        1
 72
     4
 94
        3
 73
     0
 74
     0
 95
       17
 96
       13
 40
0.0
 40
0.0
 40
0.0
 40
0.0
 40
1.0
 40
1.0
 40
1.0
 40
2.0
 40
2.0
 40
2.0
 40
3.0
 40
3.0
 40
3.0
 40
4.0
 40
4.0
 40
4.0
 40
4.0
 10
119.8107747096306
 20
-156.5423827733644
 10
119.8107747096306
 20
-156.5423827733644
 10
119.6037244709671
 20
-156.5423827733644
 10
119.6037244709671
 20
-156.5423827733644
 10
119.6037244709671
 20
-156.5423827733644
 10
119.6037244709671
 20
-156.7494330120279
 10
119.6037244709671
 20
-156.7494330120279
 10
119.6037244709671
 20
-156.7494330120279
 10
119.8107747096306
 20
-156.7494330120279
 10
119.8107747096306
 20
-156.7494330120279
 10
119.8107747096306
 20
-156.7494330120279
 10
119.8107747096306
 20
-156.5423827733644
 10
119.8107747096306
 20
-156.5423827733644
 97
        0
 97
        1
330
15A
 92
        1
 93
        1
 72
     4
 94
        3
 73
     0
 74
     0
 95
       17
 96
       13
 40
0.0
 40
0.0
 40
0.0
 40
0.0
 40
1.0
 40
1.0
 40
1.0
 40
2.0
 40
2.0
 40
2.0
 40
3.0
 40
3.0
 40
3.0
 40
4.0
 40
4.0
 40
4.0
 40
4.0
 10
119.8107747096306
 20
-156.2164767404597
 10
119.8107747096306
 20
-156.2164767404597
 10
119.6037244709671
 20
-156.2164767404597
 10
119.6037244709671
 20
-156.2164767404597
 10
119.6037244709671
 20
-156.2164767404597
 10
119.6037244709671
 20
-156.419392864541
 10
119.6037244709671
 20
-156.419392864541
 10
119.6037244709671
 20
-156.419392864541
 10
119.8107747096306
 20
-156.419392864541
 10
119.8107747096306
 20
-156.419392864541
 10
119.8107747096306
 20
-156.419392864541
 10
119.8107747096306
 20
-156.2164767404597
 10
119.8107747096306
 20
-156.2164767404597
 97
        0
 97
        1
330
15B
 92
        1
 93
        1
 72
     4
 94
        3
 73
     0
 74
     0
 95
       89
 96
       85
 40
0.0
 40
0.0
 40
0.0
 40
0.0
 40
1.0
 40
1.0
 40
1.0
 40
2.0
 40
2.0
 40
2.0
 40
3.0
 40
3.0
 40
3.0
 40
4.0
 40
4.0
 40
4.0
 40
5.0
 40
5.0
 40
5.0
 40
6.0
 40
6.0
 40
6.0
 40
7.0
 40
7.0
 40
7.0
 40
8.0
 40
8.0
 40
8.0
 40
9.0
 40
9.0
 40
9.0
 40
10.0
 40
10.0
 40
10.0
 40
11.0
 40
11.0
 40
11.0
 40
12.0
 40
12.0
 40
12.0
 40
13.0
 40
13.0
 40
13.0
 40
14.0
 40
14.0
 40
14.0
 40
15.0
 40
15.0
 40
15.0
 40
16.0
 40
16.0
 40
16.0
 40
17.0
 40
17.0
 40
17.0
 40
18.0
 40
18.0
 40
18.0
 40
19.0
 40
19.0
 40
19.0
 40
20.0
 40
20.0
 40
20.0
 40
21.0
 40
21.0
 40
21.0
 40
22.0
 40
22.0
 40
22.0
 40
23.0
 40
23.0
 40
23.0
 40
24.0
 40
24.0
 40
24.0
 40
25.0
 40
25.0
 40
25.0
 40
26.0
 40
26.0
 40
26.0
 40
27.0
 40
27.0
 40
27.0
 40
28.0
 40
28.0
 40
28.0
 40
28.0
 10
119.8107747096306
 20
-155.7679253082802
 10
119.8107747096306
 20
-155.7679253082802
 10
119.8107747096306
 20
-155.607039349119
 10
119.8107747096306
 20
-155.607039349119
 10
119.8107747096306
 20
-155.607039349119
 10
119.9654594969183
 20
-155.607039349119
 10
119.9654594969183
 20
-155.607039349119
 10
119.9654594969183
 20
-155.607039349119
 10
119.9654594969183
 20
-155.7679253082802
 10
119.9654594969183
 20
-155.7679253082802
 10
119.9654594969183
 20
-155.7679253082802
 10
120.3588894013339
 20
-155.7679253082802
 10
120.3588894013339
 20
-155.7679253082802
 10
120.3588894013339
 20
-155.7679253082802
 10
120.3588894013339
 20
-155.9222655860194
 10
120.3588894013339
 20
-155.9222655860194
 10
120.3588894013339
 20
-155.9222655860194
 10
119.9654594969183
 20
-155.9222655860194
 10
119.9654594969183
 20
-155.9222655860194
 10
119.9654594969183
 20
-155.9222655860194
 10
119.9654594969183
 20
-156.0769503733071
 10
119.9654594969183
 20
-156.0769503733071
 10
119.9654594969183
 20
-156.0769503733071
 10
120.3206488414476
 20
-156.0769503733071
 10
120.3206488414476
 20
-156.0769503733071
 10
120.3206488414476
 20
-156.0769503733071
 10
120.3206488414476
 20
-156.889303888729
 10
120.3206488414476
 20
-156.889303888729
 10
120.3206488414476
 20
-156.889303888729
 10
119.9654594969183
 20
-156.889303888729
 10
119.9654594969183
 20
-156.889303888729
 10
119.9654594969183
 20
-156.889303888729
 10
119.9654594969183
 20
-157.0584580770548
 10
119.9654594969183
 20
-157.0584580770548
 10
119.9654594969183
 20
-157.0584580770548
 10
120.3737033119204
 20
-157.0584580770548
 10
120.3737033119204
 20
-157.0584580770548
 10
120.3737033119204
 20
-157.0584580770548
 10
120.3737033119204
 20
-157.212798354794
 10
120.3737033119204
 20
-157.212798354794
 10
120.3737033119204
 20
-157.212798354794
 10
119.9654594969183
 20
-157.212798354794
 10
119.9654594969183
 20
-157.212798354794
 10
119.9654594969183
 20
-157.212798354794
 10
119.9654594969183
 20
-157.5662651515806
 10
119.9654594969183
 20
-157.5662651515806
 10
119.9654594969183
 20
-157.5662651515806
 10
119.8107747096306
 20
-157.5662651515806
 10
119.8107747096306
 20
-157.5662651515806
 10
119.8107747096306
 20
-157.5662651515806
 10
119.8107747096306
 20
-157.212798354794
 10
119.8107747096306
 20
-157.212798354794
 10
119.8107747096306
 20
-157.212798354794
 10
119.4004638373374
 20
-157.212798354794
 10
119.4004638373374
 20
-157.212798354794
 10
119.4004638373374
 20
-157.212798354794
 10
119.4004638373374
 20
-157.0584580770548
 10
119.4004638373374
 20
-157.0584580770548
 10
119.4004638373374
 20
-157.0584580770548
 10
119.8107747096306
 20
-157.0584580770548
 10
119.8107747096306
 20
-157.0584580770548
 10
119.8107747096306
 20
-157.0584580770548
 10
119.8107747096306
 20
-156.889303888729
 10
119.8107747096306
 20
-156.889303888729
 10
119.8107747096306
 20
-156.889303888729
 10
119.4617865369748
 20
-156.889303888729
 10
119.4617865369748
 20
-156.889303888729
 10
119.4617865369748
 20
-156.889303888729
 10
119.4617865369748
 20
-156.0769503733071
 10
119.4617865369748
 20
-156.0769503733071
 10
119.4617865369748
 20
-156.0769503733071
 10
119.8107747096306
 20
-156.0769503733071
 10
119.8107747096306
 20
-156.0769503733071
 10
119.8107747096306
 20
-156.0769503733071
 10
119.8107747096306
 20
-155.9222655860194
 10
119.8107747096306
 20
-155.9222655860194
 10
119.8107747096306
 20
-155.9222655860194
 10
119.4214789197974
 20
-155.9222655860194
 10
119.4214789197974
 20
-155.9222655860194
 10
119.4214789197974
 20
-155.9222655860194
 10
119.4214789197974
 20
-155.7679253082802
 10
119.4214789197974
 20
-155.7679253082802
 10
119.4214789197974
 20
-155.7679253082802
 10
119.8107747096306
 20
-155.7679253082802
 10
119.8107747096306
 20
-155.7679253082802
 97
        0
 97
        1
330
15C
 75
     2
 76
     1
 98
        1
 10
0.0
 20
0.0
450
        0
451
        0
460
0.0
461
0.0
452
        0
462
0.0
453
        0
470

  0
SPLINE
  5
15E
330
152
100
AcDbEntity
  8
レイヤー 1
100
AcDbSpline
210
0.0
220
0.0
230
1.0
 70
     9
 71
     3
 72
    17
 73
    13
 74
     0
 42
0.0000000001
 43
0.0000000001
 40
0.0
 40
0.0
 40
0.0
 40
0.0
 40
1.0
 40
1.0
 40
1.0
 40
2.0
 40
2.0
 40
2.0
 40
3.0
 40
3.0
 40
3.0
 40
4.0
 40
4.0
 40
4.0
 40
4.0
 10
122.8479708894269
 20
-157.2572400865538
 30
0.0
 10
123.0677679813858
 20
-157.3695501993729
 30
0.0
 10
123.3344183719442
 20
-157.4074462497106
 30
0.0
 10
123.4632649430925
 20
-157.4181260457149
 30
0.0
 10
123.4632649430925
 20
-157.4181260457149
 30
0.0
 10
123.3936740142905
 20
-157.5724663234541
 30
0.0
 10
123.3936740142905
 20
-157.5724663234541
 30
0.0
 10
123.2730956723067
 20
-157.5576524128675
 30
0.0
 10
123.0105793963307
 20
-157.5173447956901
 30
0.0
 10
122.746340572612
 20
-157.371617256664
 30
0.0
 10
122.746340572612
 20
-157.371617256664
 30
0.0
 10
122.8479708894269
 20
-157.2572400865538
 30
0.0
 10
122.8479708894269
 20
-157.2572400865538
 30
0.0
  0
SPLINE
  5
15F
330
152
100
AcDbEntity
  8
レイヤー 1
100
AcDbSpline
210
0.0
220
0.0
230
1.0
 70
    11
 71
     3
 72
    50
 73
    46
 74
     0
 42
0.0000000001
 43
0.0000000001
 40
0.0
 40
0.0
 40
0.0
 40
0.0
 40
1.0
 40
1.0
 40
1.0
 40
2.0
 40
2.0
 40
2.0
 40
3.0
 40
3.0
 40
3.0
 40
4.0
 40
4.0
 40
4.0
 40
5.0
 40
5.0
 40
5.0
 40
6.0
 40
6.0
 40
6.0
 40
7.0
 40
7.0
 40
7.0
 40
8.0
 40
8.0
 40
8.0
 40
9.0
 40
9.0
 40
9.0
 40
10.0
 40
10.0
 40
10.0
 40
11.0
 40
11.0
 40
11.0
 40
12.0
 40
12.0
 40
12.0
 40
13.0
 40
13.0
 40
13.0
 40
14.0
 40
14.0
 40
14.0
 40
15.0
 40
15.0
 40
15.0
 40
15.0
 10
122.7356607766077
 20
-155.9053846181417
 30
0.0
 10
122.7356607766077
 20
-155.9053846181417
 30
0.0
 10
123.4718776818056
 20
-155.9053846181417
 30
0.0
 10
123.4718776818056
 20
-155.9053846181417
 30
0.0
 10
123.4718776818056
 20
-155.9053846181417
 30
0.0
 10
123.4718776818056
 20
-156.0304415842563
 30
0.0
 10
123.4718776818056
 20
-156.0304415842563
 30
0.0
 10
123.4718776818056
 20
-156.0304415842563
 30
0.0
 10
123.1418375343187
 20
-156.0304415842563
 30
0.0
 10
123.1418375343187
 20
-156.0304415842563
 30
0.0
 10
123.1418375343187
 20
-156.0304415842563
 30
0.0
 10
123.1418375343187
 20
-156.3053602039792
 30
0.0
 10
123.1418375343187
 20
-156.3053602039792
 30
0.0
 10
123.1418375343187
 20
-156.3053602039792
 30
0.0
 10
122.9854301992884
 20
-156.3053602039792
 30
0.0
 10
122.9854301992884
 20
-156.3053602039792
 30
0.0
 10
122.9854301992884
 20
-156.3053602039792
 30
0.0
 10
122.9854301992884
 20
-156.0304415842563
 30
0.0
 10
122.9854301992884
 20
-156.0304415842563
 30
0.0
 10
122.9854301992884
 20
-156.0304415842563
 30
0.0
 10
122.7208468660212
 20
-156.0304415842563
 30
0.0
 10
122.7208468660212
 20
-156.0304415842563
 30
0.0
 10
122.6953531594303
 20
-156.1592881554046
 30
0.0
 10
122.6447102557971
 20
-156.2502386762152
 30
0.0
 10
122.5475585631131
 20
-156.3329209678612
 30
0.0
 10
122.5475585631131
 20
-156.3329209678612
 30
0.0
 10
122.4245686542897
 20
-156.2250894791729
 30
0.0
 10
122.4245686542897
 20
-156.2250894791729
 30
0.0
 10
122.55996090686
 20
-156.1148464236449
 30
0.0
 10
122.5833875561597
 20
-155.9773871137834
 30
0.0
 10
122.5833875561597
 20
-155.9033175608505
 30
0.0
 10
122.5833875561597
 20
-155.9033175608505
 30
0.0
 10
122.5833875561597
 20
-155.6600938195919
 30
0.0
 10
122.5833875561597
 20
-155.6600938195919
 30
0.0
 10
123.0529540707993
 20
-155.6600938195919
 30
0.0
 10
123.2200412018338
 20
-155.6197862024145
 30
0.0
 10
123.3640461931173
 20
-155.5774115279459
 30
0.0
 10
123.3640461931173
 20
-155.5774115279459
 30
0.0
 10
123.4233018354636
 20
-155.7152153473559
 30
0.0
 10
123.4233018354636
 20
-155.7152153473559
 30
0.0
 10
123.152517330323
 20
-155.784806276158
 30
0.0
 10
122.8372910934226
 20
-155.7892849002888
 30
0.0
 10
122.7356607766077
 20
-155.7892849002888
 30
0.0
 10
122.7356607766077
 20
-155.7892849002888
 30
0.0
 10
122.7356607766077
 20
-155.9053846181417
 30
0.0
 10
122.7356607766077
 20
-155.9053846181417
 30
0.0
  0
SPLINE
  5
160
330
152
100
AcDbEntity
  8
レイヤー 1
100
AcDbSpline
210
0.0
220
0.0
230
1.0
 70
    11
 71
     3
 72
    17
 73
    13
 74
     0
 42
0.0000000001
 43
0.0000000001
 40
0.0
 40
0.0
 40
0.0
 40
0.0
 40
1.0
 40
1.0
 40
1.0
 40
2.0
 40
2.0
 40
2.0
 40
3.0
 40
3.0
 40
3.0
 40
4.0
 40
4.0
 40
4.0
 40
4.0
 10
123.0719020959681
 20
-156.9757757854088
 30
0.0
 10
123.0719020959681
 20
-156.9757757854088
 30
0.0
 10
121.9126274651815
 20
-156.9757757854088
 30
0.0
 10
121.9126274651815
 20
-156.9757757854088
 30
0.0
 10
121.9126274651815
 20
-156.9757757854088
 30
0.0
 10
121.9126274651815
 20
-157.11564666211
 30
0.0
 10
121.9126274651815
 20
-157.11564666211
 30
0.0
 10
121.9126274651815
 20
-157.11564666211
 30
0.0
 10
123.0719020959681
 20
-157.11564666211
 30
0.0
 10
123.0719020959681
 20
-157.11564666211
 30
0.0
 10
123.0719020959681
 20
-157.11564666211
 30
0.0
 10
123.0719020959681
 20
-156.9757757854088
 30
0.0
 10
123.0719020959681
 20
-156.9757757854088
 30
0.0
  0
SPLINE
  5
161
330
152
100
AcDbEntity
  8
レイヤー 1
100
AcDbSpline
210
0.0
220
0.0
230
1.0
 70
    11
 71
     3
 72
    17
 73
    13
 74
     0
 42
0.0000000001
 43
0.0000000001
 40
0.0
 40
0.0
 40
0.0
 40
0.0
 40
1.0
 40
1.0
 40
1.0
 40
2.0
 40
2.0
 40
2.0
 40
3.0
 40
3.0
 40
3.0
 40
4.0
 40
4.0
 40
4.0
 40
4.0
 10
123.0719020959681
 20
-156.7242838149856
 30
0.0
 10
123.0719020959681
 20
-156.7242838149856
 30
0.0
 10
121.9126274651815
 20
-156.7242838149856
 30
0.0
 10
121.9126274651815
 20
-156.7242838149856
 30
0.0
 10
121.9126274651815
 20
-156.7242838149856
 30
0.0
 10
121.9126274651815
 20
-156.8658772394293
 30
0.0
 10
121.9126274651815
 20
-156.8658772394293
 30
0.0
 10
121.9126274651815
 20
-156.8658772394293
 30
0.0
 10
123.0719020959681
 20
-156.8658772394293
 30
0.0
 10
123.0719020959681
 20
-156.8658772394293
 30
0.0
 10
123.0719020959681
 20
-156.8658772394293
 30
0.0
 10
123.0719020959681
 20
-156.7242838149856
 30
0.0
 10
123.0719020959681
 20
-156.7242838149856
 30
0.0
  0
SPLINE
  5
162
330
152
100
AcDbEntity
  8
レイヤー 1
100
AcDbSpline
210
0.0
220
0.0
230
1.0
 70
    11
 71
     3
 72
    17
 73
    13
 74
     0
 42
0.0000000001
 43
0.0000000001
 40
0.0
 40
0.0
 40
0.0
 40
0.0
 40
1.0
 40
1.0
 40
1.0
 40
2.0
 40
2.0
 40
2.0
 40
3.0
 40
3.0
 40
3.0
 40
4.0
 40
4.0
 40
4.0
 40
4.0
 10
123.0719020959681
 20
-156.4851941883092
 30
0.0
 10
123.0719020959681
 20
-156.4851941883092
 30
0.0
 10
121.9126274651815
 20
-156.4851941883092
 30
0.0
 10
121.9126274651815
 20
-156.4851941883092
 30
0.0
 10
121.9126274651815
 20
-156.4851941883092
 30
0.0
 10
121.9126274651815
 20
-156.6140407594576
 30
0.0
 10
121.9126274651815
 20
-156.6140407594576
 30
0.0
 10
121.9126274651815
 20
-156.6140407594576
 30
0.0
 10
123.0719020959681
 20
-156.6140407594576
 30
0.0
 10
123.0719020959681
 20
-156.6140407594576
 30
0.0
 10
123.0719020959681
 20
-156.6140407594576
 30
0.0
 10
123.0719020959681
 20
-156.4851941883092
 30
0.0
 10
123.0719020959681
 20
-156.4851941883092
 30
0.0
  0
SPLINE
  5
163
330
152
100
AcDbEntity
  8
レイヤー 1
100
AcDbSpline
210
0.0
220
0.0
230
1.0
 70
    11
 71
     3
 72
    32
 73
    28
 74
     0
 42
0.0000000001
 43
0.0000000001
 40
0.0
 40
0.0
 40
0.0
 40
0.0
 40
1.0
 40
1.0
 40
1.0
 40
2.0
 40
2.0
 40
2.0
 40
3.0
 40
3.0
 40
3.0
 40
4.0
 40
4.0
 40
4.0
 40
5.0
 40
5.0
 40
5.0
 40
6.0
 40
6.0
 40
6.0
 40
7.0
 40
7.0
 40
7.0
 40
8.0
 40
8.0
 40
8.0
 40
9.0
 40
9.0
 40
9.0
 40
9.0
 10
121.7434732768558
 20
-157.2510389146803
 30
0.0
 10
121.7434732768558
 20
-157.2510389146803
 30
0.0
 10
121.7434732768558
 20
-156.3518689930301
 30
0.0
 10
121.7434732768558
 20
-156.3518689930301
 30
0.0
 10
121.7434732768558
 20
-156.3518689930301
 30
0.0
 10
123.2414007938424
 20
-156.3518689930301
 30
0.0
 10
123.2414007938424
 20
-156.3518689930301
 30
0.0
 10
123.2414007938424
 20
-156.3518689930301
 30
0.0
 10
123.2414007938424
 20
-157.2510389146803
 30
0.0
 10
123.2414007938424
 20
-157.2510389146803
 30
0.0
 10
123.2414007938424
 20
-157.2510389146803
 30
0.0
 10
122.0969400736424
 20
-157.2510389146803
 30
0.0
 10
122.0969400736424
 20
-157.2510389146803
 30
0.0
 10
122.0969400736424
 20
-157.2510389146803
 30
0.0
 10
122.2027045050396
 20
-157.3609374606597
 30
0.0
 10
122.2027045050396
 20
-157.3609374606597
 30
0.0
 10
122.0376844312961
 20
-157.4560220960526
 30
0.0
 10
121.8726643575527
 20
-157.5173447956901
 30
0.0
 10
121.5763861458212
 20
-157.5683322088718
 30
0.0
 10
121.5763861458212
 20
-157.5683322088718
 30
0.0
 10
121.5109293316014
 20
-157.4160589884237
 30
0.0
 10
121.5109293316014
 20
-157.4160589884237
 30
0.0
 10
121.8895453254304
 20
-157.3630045179509
 30
0.0
 10
122.0121907247053
 20
-157.29548064644
 30
0.0
 10
122.0924614495116
 20
-157.2510389146803
 30
0.0
 10
122.0924614495116
 20
-157.2510389146803
 30
0.0
 10
121.7434732768558
 20
-157.2510389146803
 30
0.0
 10
121.7434732768558
 20
-157.2510389146803
 30
0.0
  0
SPLINE
  5
164
330
152
100
AcDbEntity
  8
レイヤー 1
100
AcDbSpline
210
0.0
220
0.0
230
1.0
 70
    11
 71
     3
 72
    50
 73
    46
 74
     0
 42
0.0000000001
 43
0.0000000001
 40
0.0
 40
0.0
 40
0.0
 40
0.0
 40
1.0
 40
1.0
 40
1.0
 40
2.0
 40
2.0
 40
2.0
 40
3.0
 40
3.0
 40
3.0
 40
4.0
 40
4.0
 40
4.0
 40
5.0
 40
5.0
 40
5.0
 40
6.0
 40
6.0
 40
6.0
 40
7.0
 40
7.0
 40
7.0
 40
8.0
 40
8.0
 40
8.0
 40
9.0
 40
9.0
 40
9.0
 40
10.0
 40
10.0
 40
10.0
 40
11.0
 40
11.0
 40
11.0
 40
12.0
 40
12.0
 40
12.0
 40
13.0
 40
13.0
 40
13.0
 40
14.0
 40
14.0
 40
14.0
 40
15.0
 40
15.0
 40
15.0
 40
15.0
 10
121.8282226257929
 20
-155.9053846181417
 30
0.0
 10
121.8282226257929
 20
-155.9053846181417
 30
0.0
 10
122.4796901820537
 20
-155.9053846181417
 30
0.0
 10
122.4796901820537
 20
-155.9053846181417
 30
0.0
 10
122.4796901820537
 20
-155.9053846181417
 30
0.0
 10
122.4796901820537
 20
-156.0304415842563
 30
0.0
 10
122.4796901820537
 20
-156.0304415842563
 30
0.0
 10
122.4796901820537
 20
-156.0304415842563
 30
0.0
 10
122.2027045050396
 20
-156.0304415842563
 30
0.0
 10
122.2027045050396
 20
-156.0304415842563
 30
0.0
 10
122.2027045050396
 20
-156.0304415842563
 30
0.0
 10
122.2027045050396
 20
-156.3053602039792
 30
0.0
 10
122.2027045050396
 20
-156.3053602039792
 30
0.0
 10
122.2027045050396
 20
-156.3053602039792
 30
0.0
 10
122.0418185458784
 20
-156.3053602039792
 30
0.0
 10
122.0418185458784
 20
-156.3053602039792
 30
0.0
 10
122.0418185458784
 20
-156.3053602039792
 30
0.0
 10
122.0418185458784
 20
-156.0304415842563
 30
0.0
 10
122.0418185458784
 20
-156.0304415842563
 30
0.0
 10
122.0418185458784
 20
-156.0304415842563
 30
0.0
 10
121.821676944371
 20
-156.0304415842563
 30
0.0
 10
121.821676944371
 20
-156.0304415842563
 30
0.0
 10
121.8113416579152
 20
-156.1000325130583
 30
0.0
 10
121.7858479513243
 20
-156.2946804079749
 30
0.0
 10
121.6315076735852
 20
-156.4448865711318
 30
0.0
 10
121.6315076735852
 20
-156.4448865711318
 30
0.0
 10
121.5085177647617
 20
-156.3349880251523
 30
0.0
 10
121.5085177647617
 20
-156.3349880251523
 30
0.0
 10
121.629440616294
 20
-156.2354247656286
 30
0.0
 10
121.671470781214
 20
-156.0304415842563
 30
0.0
 10
121.671470781214
 20
-155.9477592926103
 30
0.0
 10
121.671470781214
 20
-155.9477592926103
 30
0.0
 10
121.671470781214
 20
-155.662160876883
 30
0.0
 10
121.671470781214
 20
-155.662160876883
 30
0.0
 10
122.1561957159887
 20
-155.662160876883
 30
0.0
 10
122.3105359937279
 20
-155.6156520878322
 30
0.0
 10
122.4056206291208
 20
-155.5880913239502
 30
0.0
 10
122.4056206291208
 20
-155.5880913239502
 30
0.0
 10
122.4586750995936
 20
-155.7276176911028
 30
0.0
 10
122.4586750995936
 20
-155.7276176911028
 30
0.0
 10
122.2492132940905
 20
-155.7765380469934
 30
0.0
 10
122.0862602776381
 20
-155.7868733334491
 30
0.0
 10
121.8282226257929
 20
-155.7913519575799
 30
0.0
 10
121.8282226257929
 20
-155.7913519575799
 30
0.0
 10
121.8282226257929
 20
-155.9053846181417
 30
0.0
 10
121.8282226257929
 20
-155.9053846181417
 30
0.0
  0
HATCH
  5
165
330
152
100
AcDbEntity
  8
レイヤー 1
 62
    12
420
 15007762
440
 33554687
100
AcDbHatch
 10
0.0
 20
0.0
 30
0.0
210
0.0
220
0.0
230
1.0
  2
SOLID
 70
     1
 71
     1
 91
        7
 92
        1
 93
        1
 72
     4
 94
        3
 73
     0
 74
     0
 95
       17
 96
       13
 40
0.0
 40
0.0
 40
0.0
 40
0.0
 40
1.0
 40
1.0
 40
1.0
 40
2.0
 40
2.0
 40
2.0
 40
3.0
 40
3.0
 40
3.0
 40
4.0
 40
4.0
 40
4.0
 40
4.0
 10
122.8479708894269
 20
-157.2572400865538
 10
123.0677679813858
 20
-157.3695501993729
 10
123.3344183719442
 20
-157.4074462497106
 10
123.4632649430925
 20
-157.4181260457149
 10
123.4632649430925
 20
-157.4181260457149
 10
123.3936740142905
 20
-157.5724663234541
 10
123.3936740142905
 20
-157.5724663234541
 10
123.2730956723067
 20
-157.5576524128675
 10
123.0105793963307
 20
-157.5173447956901
 10
122.746340572612
 20
-157.371617256664
 10
122.746340572612
 20
-157.371617256664
 10
122.8479708894269
 20
-157.2572400865538
 10
122.8479708894269
 20
-157.2572400865538
 97
        0
 97
        1
330
15E
 92
        1
 93
        1
 72
     4
 94
        3
 73
     0
 74
     0
 95
       50
 96
       46
 40
0.0
 40
0.0
 40
0.0
 40
0.0
 40
1.0
 40
1.0
 40
1.0
 40
2.0
 40
2.0
 40
2.0
 40
3.0
 40
3.0
 40
3.0
 40
4.0
 40
4.0
 40
4.0
 40
5.0
 40
5.0
 40
5.0
 40
6.0
 40
6.0
 40
6.0
 40
7.0
 40
7.0
 40
7.0
 40
8.0
 40
8.0
 40
8.0
 40
9.0
 40
9.0
 40
9.0
 40
10.0
 40
10.0
 40
10.0
 40
11.0
 40
11.0
 40
11.0
 40
12.0
 40
12.0
 40
12.0
 40
13.0
 40
13.0
 40
13.0
 40
14.0
 40
14.0
 40
14.0
 40
15.0
 40
15.0
 40
15.0
 40
15.0
 10
122.7356607766077
 20
-155.9053846181417
 10
122.7356607766077
 20
-155.9053846181417
 10
123.4718776818056
 20
-155.9053846181417
 10
123.4718776818056
 20
-155.9053846181417
 10
123.4718776818056
 20
-155.9053846181417
 10
123.4718776818056
 20
-156.0304415842563
 10
123.4718776818056
 20
-156.0304415842563
 10
123.4718776818056
 20
-156.0304415842563
 10
123.1418375343187
 20
-156.0304415842563
 10
123.1418375343187
 20
-156.0304415842563
 10
123.1418375343187
 20
-156.0304415842563
 10
123.1418375343187
 20
-156.3053602039792
 10
123.1418375343187
 20
-156.3053602039792
 10
123.1418375343187
 20
-156.3053602039792
 10
122.9854301992884
 20
-156.3053602039792
 10
122.9854301992884
 20
-156.3053602039792
 10
122.9854301992884
 20
-156.3053602039792
 10
122.9854301992884
 20
-156.0304415842563
 10
122.9854301992884
 20
-156.0304415842563
 10
122.9854301992884
 20
-156.0304415842563
 10
122.7208468660212
 20
-156.0304415842563
 10
122.7208468660212
 20
-156.0304415842563
 10
122.6953531594303
 20
-156.1592881554046
 10
122.6447102557971
 20
-156.2502386762152
 10
122.5475585631131
 20
-156.3329209678612
 10
122.5475585631131
 20
-156.3329209678612
 10
122.4245686542897
 20
-156.2250894791729
 10
122.4245686542897
 20
-156.2250894791729
 10
122.55996090686
 20
-156.1148464236449
 10
122.5833875561597
 20
-155.9773871137834
 10
122.5833875561597
 20
-155.9033175608505
 10
122.5833875561597
 20
-155.9033175608505
 10
122.5833875561597
 20
-155.6600938195919
 10
122.5833875561597
 20
-155.6600938195919
 10
123.0529540707993
 20
-155.6600938195919
 10
123.2200412018338
 20
-155.6197862024145
 10
123.3640461931173
 20
-155.5774115279459
 10
123.3640461931173
 20
-155.5774115279459
 10
123.4233018354636
 20
-155.7152153473559
 10
123.4233018354636
 20
-155.7152153473559
 10
123.152517330323
 20
-155.784806276158
 10
122.8372910934226
 20
-155.7892849002888
 10
122.7356607766077
 20
-155.7892849002888
 10
122.7356607766077
 20
-155.7892849002888
 10
122.7356607766077
 20
-155.9053846181417
 10
122.7356607766077
 20
-155.9053846181417
 97
        0
 97
        1
330
15F
 92
        1
 93
        1
 72
     4
 94
        3
 73
     0
 74
     0
 95
       17
 96
       13
 40
0.0
 40
0.0
 40
0.0
 40
0.0
 40
1.0
 40
1.0
 40
1.0
 40
2.0
 40
2.0
 40
2.0
 40
3.0
 40
3.0
 40
3.0
 40
4.0
 40
4.0
 40
4.0
 40
4.0
 10
123.0719020959681
 20
-156.9757757854088
 10
123.0719020959681
 20
-156.9757757854088
 10
121.9126274651815
 20
-156.9757757854088
 10
121.9126274651815
 20
-156.9757757854088
 10
121.9126274651815
 20
-156.9757757854088
 10
121.9126274651815
 20
-157.11564666211
 10
121.9126274651815
 20
-157.11564666211
 10
121.9126274651815
 20
-157.11564666211
 10
123.0719020959681
 20
-157.11564666211
 10
123.0719020959681
 20
-157.11564666211
 10
123.0719020959681
 20
-157.11564666211
 10
123.0719020959681
 20
-156.9757757854088
 10
123.0719020959681
 20
-156.9757757854088
 97
        0
 97
        1
330
160
 92
        1
 93
        1
 72
     4
 94
        3
 73
     0
 74
     0
 95
       17
 96
       13
 40
0.0
 40
0.0
 40
0.0
 40
0.0
 40
1.0
 40
1.0
 40
1.0
 40
2.0
 40
2.0
 40
2.0
 40
3.0
 40
3.0
 40
3.0
 40
4.0
 40
4.0
 40
4.0
 40
4.0
 10
123.0719020959681
 20
-156.7242838149856
 10
123.0719020959681
 20
-156.7242838149856
 10
121.9126274651815
 20
-156.7242838149856
 10
121.9126274651815
 20
-156.7242838149856
 10
121.9126274651815
 20
-156.7242838149856
 10
121.9126274651815
 20
-156.8658772394293
 10
121.9126274651815
 20
-156.8658772394293
 10
121.9126274651815
 20
-156.8658772394293
 10
123.0719020959681
 20
-156.8658772394293
 10
123.0719020959681
 20
-156.8658772394293
 10
123.0719020959681
 20
-156.8658772394293
 10
123.0719020959681
 20
-156.7242838149856
 10
123.0719020959681
 20
-156.7242838149856
 97
        0
 97
        1
330
161
 92
        1
 93
        1
 72
     4
 94
        3
 73
     0
 74
     0
 95
       17
 96
       13
 40
0.0
 40
0.0
 40
0.0
 40
0.0
 40
1.0
 40
1.0
 40
1.0
 40
2.0
 40
2.0
 40
2.0
 40
3.0
 40
3.0
 40
3.0
 40
4.0
 40
4.0
 40
4.0
 40
4.0
 10
123.0719020959681
 20
-156.4851941883092
 10
123.0719020959681
 20
-156.4851941883092
 10
121.9126274651815
 20
-156.4851941883092
 10
121.9126274651815
 20
-156.4851941883092
 10
121.9126274651815
 20
-156.4851941883092
 10
121.9126274651815
 20
-156.6140407594576
 10
121.9126274651815
 20
-156.6140407594576
 10
121.9126274651815
 20
-156.6140407594576
 10
123.0719020959681
 20
-156.6140407594576
 10
123.0719020959681
 20
-156.6140407594576
 10
123.0719020959681
 20
-156.6140407594576
 10
123.0719020959681
 20
-156.4851941883092
 10
123.0719020959681
 20
-156.4851941883092
 97
        0
 97
        1
330
162
 92
        1
 93
        1
 72
     4
 94
        3
 73
     0
 74
     0
 95
       32
 96
       28
 40
0.0
 40
0.0
 40
0.0
 40
0.0
 40
1.0
 40
1.0
 40
1.0
 40
2.0
 40
2.0
 40
2.0
 40
3.0
 40
3.0
 40
3.0
 40
4.0
 40
4.0
 40
4.0
 40
5.0
 40
5.0
 40
5.0
 40
6.0
 40
6.0
 40
6.0
 40
7.0
 40
7.0
 40
7.0
 40
8.0
 40
8.0
 40
8.0
 40
9.0
 40
9.0
 40
9.0
 40
9.0
 10
121.7434732768558
 20
-157.2510389146803
 10
121.7434732768558
 20
-157.2510389146803
 10
121.7434732768558
 20
-156.3518689930301
 10
121.7434732768558
 20
-156.3518689930301
 10
121.7434732768558
 20
-156.3518689930301
 10
123.2414007938424
 20
-156.3518689930301
 10
123.2414007938424
 20
-156.3518689930301
 10
123.2414007938424
 20
-156.3518689930301
 10
123.2414007938424
 20
-157.2510389146803
 10
123.2414007938424
 20
-157.2510389146803
 10
123.2414007938424
 20
-157.2510389146803
 10
122.0969400736424
 20
-157.2510389146803
 10
122.0969400736424
 20
-157.2510389146803
 10
122.0969400736424
 20
-157.2510389146803
 10
122.2027045050396
 20
-157.3609374606597
 10
122.2027045050396
 20
-157.3609374606597
 10
122.0376844312961
 20
-157.4560220960526
 10
121.8726643575527
 20
-157.5173447956901
 10
121.5763861458212
 20
-157.5683322088718
 10
121.5763861458212
 20
-157.5683322088718
 10
121.5109293316014
 20
-157.4160589884237
 10
121.5109293316014
 20
-157.4160589884237
 10
121.8895453254304
 20
-157.3630045179509
 10
122.0121907247053
 20
-157.29548064644
 10
122.0924614495116
 20
-157.2510389146803
 10
122.0924614495116
 20
-157.2510389146803
 10
121.7434732768558
 20
-157.2510389146803
 10
121.7434732768558
 20
-157.2510389146803
 97
        0
 97
        1
330
163
 92
        1
 93
        1
 72
     4
 94
        3
 73
     0
 74
     0
 95
       50
 96
       46
 40
0.0
 40
0.0
 40
0.0
 40
0.0
 40
1.0
 40
1.0
 40
1.0
 40
2.0
 40
2.0
 40
2.0
 40
3.0
 40
3.0
 40
3.0
 40
4.0
 40
4.0
 40
4.0
 40
5.0
 40
5.0
 40
5.0
 40
6.0
 40
6.0
 40
6.0
 40
7.0
 40
7.0
 40
7.0
 40
8.0
 40
8.0
 40
8.0
 40
9.0
 40
9.0
 40
9.0
 40
10.0
 40
10.0
 40
10.0
 40
11.0
 40
11.0
 40
11.0
 40
12.0
 40
12.0
 40
12.0
 40
13.0
 40
13.0
 40
13.0
 40
14.0
 40
14.0
 40
14.0
 40
15.0
 40
15.0
 40
15.0
 40
15.0
 10
121.8282226257929
 20
-155.9053846181417
 10
121.8282226257929
 20
-155.9053846181417
 10
122.4796901820537
 20
-155.9053846181417
 10
122.4796901820537
 20
-155.9053846181417
 10
122.4796901820537
 20
-155.9053846181417
 10
122.4796901820537
 20
-156.0304415842563
 10
122.4796901820537
 20
-156.0304415842563
 10
122.4796901820537
 20
-156.0304415842563
 10
122.2027045050396
 20
-156.0304415842563
 10
122.2027045050396
 20
-156.0304415842563
 10
122.2027045050396
 20
-156.0304415842563
 10
122.2027045050396
 20
-156.3053602039792
 10
122.2027045050396
 20
-156.3053602039792
 10
122.2027045050396
 20
-156.3053602039792
 10
122.0418185458784
 20
-156.3053602039792
 10
122.0418185458784
 20
-156.3053602039792
 10
122.0418185458784
 20
-156.3053602039792
 10
122.0418185458784
 20
-156.0304415842563
 10
122.0418185458784
 20
-156.0304415842563
 10
122.0418185458784
 20
-156.0304415842563
 10
121.821676944371
 20
-156.0304415842563
 10
121.821676944371
 20
-156.0304415842563
 10
121.8113416579152
 20
-156.1000325130583
 10
121.7858479513243
 20
-156.2946804079749
 10
121.6315076735852
 20
-156.4448865711318
 10
121.6315076735852
 20
-156.4448865711318
 10
121.5085177647617
 20
-156.3349880251523
 10
121.5085177647617
 20
-156.3349880251523
 10
121.629440616294
 20
-156.2354247656286
 10
121.671470781214
 20
-156.0304415842563
 10
121.671470781214
 20
-155.9477592926103
 10
121.671470781214
 20
-155.9477592926103
 10
121.671470781214
 20
-155.662160876883
 10
121.671470781214
 20
-155.662160876883
 10
122.1561957159887
 20
-155.662160876883
 10
122.3105359937279
 20
-155.6156520878322
 10
122.4056206291208
 20
-155.5880913239502
 10
122.4056206291208
 20
-155.5880913239502
 10
122.4586750995936
 20
-155.7276176911028
 10
122.4586750995936
 20
-155.7276176911028
 10
122.2492132940905
 20
-155.7765380469934
 10
122.0862602776381
 20
-155.7868733334491
 10
121.8282226257929
 20
-155.7913519575799
 10
121.8282226257929
 20
-155.7913519575799
 10
121.8282226257929
 20
-155.9053846181417
 10
121.8282226257929
 20
-155.9053846181417
 97
        0
 97
        1
330
164
 75
     2
 76
     1
 98
        1
 10
0.0
 20
0.0
450
        0
451
        0
460
0.0
461
0.0
452
        0
462
0.0
453
        0
470

  0
ENDBLK
  5
155
330
152
100
AcDbEntity
  8
0
100
AcDbBlockEnd
  0
BLOCK
  5
168
330
166
100
AcDbEntity
  8
0
100
AcDbBlockBegin
  2
Block_16
 70
     0
 10
0.0
 20
0.0
 30
0.0
  3
Block_16
  1

  0
INSERT
  5
16B
330
166
100
AcDbEntity
  8
レイヤー 1
100
AcDbBlockReference
  2
Block_17
 10
0.0
 20
0.0
 30
0.0
  0
ENDBLK
  5
169
330
166
100
AcDbEntity
  8
0
100
AcDbBlockEnd
  0
BLOCK
  5
16C
330
16A
100
AcDbEntity
  8
0
100
AcDbBlockBegin
  2
Block_17
 70
     0
 10
0.0
 20
0.0
 30
0.0
  3
Block_17
  1

  0
SPLINE
  5
16E
330
16A
100
AcDbEntity
  8
レイヤー 1
100
AcDbSpline
210
0.0
220
0.0
230
1.0
 70
     9
 71
     3
 72
    17
 73
    13
 74
     0
 42
0.0000000001
 43
0.0000000001
 40
0.0
 40
0.0
 40
0.0
 40
0.0
 40
1.0
 40
1.0
 40
1.0
 40
2.0
 40
2.0
 40
2.0
 40
3.0
 40
3.0
 40
3.0
 40
4.0
 40
4.0
 40
4.0
 40
4.0
 10
132.1824571067113
 20
-153.6667615718264
 30
0.0
 10
132.1655761388336
 20
-153.6963893929995
 30
0.0
 10
132.1149332352004
 20
-153.7894069711013
 30
0.0
 10
132.1042534391961
 20
-153.8083549962701
 30
0.0
 10
132.2947672195305
 20
-153.8676106386164
 30
0.0
 10
132.3157823019905
 20
-153.8741563200384
 30
0.0
 10
132.3877847976322
 20
-153.9017170839204
 30
0.0
 10
132.4429063253962
 20
-153.8149006776921
 30
0.0
 10
132.4659884651474
 20
-153.7408311247592
 30
0.0
 10
132.4808023757339
 20
-153.6667615718264
 30
0.0
 10
132.4808023757339
 20
-153.6667615718264
 30
0.0
 10
132.1824571067113
 20
-153.6667615718264
 30
0.0
 10
132.1824571067113
 20
-153.6667615718264
 30
0.0
  0
SPLINE
  5
16F
330
16A
100
AcDbEntity
  8
レイヤー 1
100
AcDbSpline
210
0.0
220
0.0
230
1.0
 70
    11
 71
     3
 72
    20
 73
    16
 74
     0
 42
0.0000000001
 43
0.0000000001
 40
0.0
 40
0.0
 40
0.0
 40
0.0
 40
1.0
 40
1.0
 40
1.0
 40
2.0
 40
2.0
 40
2.0
 40
3.0
 40
3.0
 40
3.0
 40
4.0
 40
4.0
 40
4.0
 40
5.0
 40
5.0
 40
5.0
 40
5.0
 10
132.1190673497827
 20
-152.8161674965182
 30
0.0
 10
132.1190673497827
 20
-152.8161674965182
 30
0.0
 10
132.0873724713184
 20
-152.8161674965182
 30
0.0
 10
132.0873724713184
 20
-152.8161674965182
 30
0.0
 10
132.1338812603693
 20
-152.9157307560419
 30
0.0
 10
132.1655761388336
 20
-152.9960014808482
 30
0.0
 10
132.199338074589
 20
-153.1231255042539
 30
0.0
 10
132.199338074589
 20
-153.1231255042539
 30
0.0
 10
132.4067328228011
 20
-153.1231255042539
 30
0.0
 10
132.4067328228011
 20
-153.1231255042539
 30
0.0
 10
132.4384277012654
 20
-153.0301079261522
 30
0.0
 10
132.4618543505651
 20
-152.945358577215
 30
0.0
 10
132.4849364903162
 20
-152.8161674965182
 30
0.0
 10
132.4849364903162
 20
-152.8161674965182
 30
0.0
 10
132.1190673497827
 20
-152.8161674965182
 30
0.0
 10
132.1190673497827
 20
-152.8161674965182
 30
0.0
  0
SPLINE
  5
170
330
16A
100
AcDbEntity
  8
レイヤー 1
100
AcDbSpline
210
0.0
220
0.0
230
1.0
 70
     9
 71
     3
 72
   242
 73
   238
 74
     0
 42
0.0000000001
 43
0.0000000001
 40
0.0
 40
0.0
 40
0.0
 40
0.0
 40
1.0
 40
1.0
 40
1.0
 40
2.0
 40
2.0
 40
2.0
 40
3.0
 40
3.0
 40
3.0
 40
4.0
 40
4.0
 40
4.0
 40
5.0
 40
5.0
 40
5.0
 40
6.0
 40
6.0
 40
6.0
 40
7.0
 40
7.0
 40
7.0
 40
8.0
 40
8.0
 40
8.0
 40
9.0
 40
9.0
 40
9.0
 40
10.0
 40
10.0
 40
10.0
 40
11.0
 40
11.0
 40
11.0
 40
12.0
 40
12.0
 40
12.0
 40
13.0
 40
13.0
 40
13.0
 40
14.0
 40
14.0
 40
14.0
 40
15.0
 40
15.0
 40
15.0
 40
16.0
 40
16.0
 40
16.0
 40
17.0
 40
17.0
 40
17.0
 40
18.0
 40
18.0
 40
18.0
 40
19.0
 40
19.0
 40
19.0
 40
20.0
 40
20.0
 40
20.0
 40
21.0
 40
21.0
 40
21.0
 40
22.0
 40
22.0
 40
22.0
 40
23.0
 40
23.0
 40
23.0
 40
24.0
 40
24.0
 40
24.0
 40
25.0
 40
25.0
 40
25.0
 40
26.0
 40
26.0
 40
26.0
 40
27.0
 40
27.0
 40
27.0
 40
28.0
 40
28.0
 40
28.0
 40
29.0
 40
29.0
 40
29.0
 40
30.0
 40
30.0
 40
30.0
 40
31.0
 40
31.0
 40
31.0
 40
32.0
 40
32.0
 40
32.0
 40
33.0
 40
33.0
 40
33.0
 40
34.0
 40
34.0
 40
34.0
 40
35.0
 40
35.0
 40
35.0
 40
36.0
 40
36.0
 40
36.0
 40
37.0
 40
37.0
 40
37.0
 40
38.0
 40
38.0
 40
38.0
 40
39.0
 40
39.0
 40
39.0
 40
40.0
 40
40.0
 40
40.0
 40
41.0
 40
41.0
 40
41.0
 40
42.0
 40
42.0
 40
42.0
 40
43.0
 40
43.0
 40
43.0
 40
44.0
 40
44.0
 40
44.0
 40
45.0
 40
45.0
 40
45.0
 40
46.0
 40
46.0
 40
46.0
 40
47.0
 40
47.0
 40
47.0
 40
48.0
 40
48.0
 40
48.0
 40
49.0
 40
49.0
 40
49.0
 40
50.0
 40
50.0
 40
50.0
 40
51.0
 40
51.0
 40
51.0
 40
52.0
 40
52.0
 40
52.0
 40
53.0
 40
53.0
 40
53.0
 40
54.0
 40
54.0
 40
54.0
 40
55.0
 40
55.0
 40
55.0
 40
56.0
 40
56.0
 40
56.0
 40
57.0
 40
57.0
 40
57.0
 40
58.0
 40
58.0
 40
58.0
 40
59.0
 40
59.0
 40
59.0
 40
60.0
 40
60.0
 40
60.0
 40
61.0
 40
61.0
 40
61.0
 40
62.0
 40
62.0
 40
62.0
 40
63.0
 40
63.0
 40
63.0
 40
64.0
 40
64.0
 40
64.0
 40
65.0
 40
65.0
 40
65.0
 40
66.0
 40
66.0
 40
66.0
 40
67.0
 40
67.0
 40
67.0
 40
68.0
 40
68.0
 40
68.0
 40
69.0
 40
69.0
 40
69.0
 40
70.0
 40
70.0
 40
70.0
 40
71.0
 40
71.0
 40
71.0
 40
72.0
 40
72.0
 40
72.0
 40
73.0
 40
73.0
 40
73.0
 40
74.0
 40
74.0
 40
74.0
 40
75.0
 40
75.0
 40
75.0
 40
76.0
 40
76.0
 40
76.0
 40
77.0
 40
77.0
 40
77.0
 40
78.0
 40
78.0
 40
78.0
 40
79.0
 40
79.0
 40
79.0
 40
79.0
 10
132.7474527662923
 20
-153.2815998965754
 30
0.0
 10
132.7474527662923
 20
-153.2815998965754
 30
0.0
 10
132.4935492290294
 20
-153.2815998965754
 30
0.0
 10
132.4935492290294
 20
-153.2815998965754
 30
0.0
 10
132.4935492290294
 20
-153.2815998965754
 30
0.0
 10
132.2165635520153
 20
-153.2815998965754
 30
0.0
 10
132.2165635520153
 20
-153.2815998965754
 30
0.0
 10
132.2165635520153
 20
-153.2815998965754
 30
0.0
 10
132.3433430658725
 20
-153.323974571044
 30
0.0
 10
132.3433430658725
 20
-153.323974571044
 30
0.0
 10
132.3540228618768
 20
-153.3284531951748
 30
0.0
 10
132.3664252056236
 20
-153.3346543670483
 30
0.0
 10
132.3664252056236
 20
-153.3474012203437
 30
0.0
 10
132.3664252056236
 20
-153.3684163028037
 30
0.0
 10
132.3347303271594
 20
-153.3749619842257
 30
0.0
 10
132.3137152446993
 20
-153.379096098808
 30
0.0
 10
132.3030354486951
 20
-153.4021782385591
 30
0.0
 10
132.2734076275219
 20
-153.4679795623274
 30
0.0
 10
132.254459602353
 20
-153.5124212940871
 30
0.0
 10
132.254459602353
 20
-153.5124212940871
 30
0.0
 10
132.5252441074937
 20
-153.5124212940871
 30
0.0
 10
132.5252441074937
 20
-153.5124212940871
 30
0.0
 10
132.6161946283043
 20
-153.5124212940871
 30
0.0
 10
132.812909580512
 20
-153.5079426699563
 30
0.0
 10
132.9548475145043
 20
-153.4996744407917
 30
0.0
 10
132.9548475145043
 20
-153.4996744407917
 30
0.0
 10
132.9548475145043
 20
-153.6774413678306
 30
0.0
 10
132.9548475145043
 20
-153.6774413678306
 30
0.0
 10
132.8721652228583
 20
-153.6729627436998
 30
0.0
 10
132.8511501403983
 20
-153.6729627436998
 30
0.0
 10
132.6713161560683
 20
-153.6688286291175
 30
0.0
 10
132.639621277604
 20
-153.8231689068567
 30
0.0
 10
132.5951795458442
 20
-153.9037841412115
 30
0.0
 10
132.5507378140845
 20
-153.9733750700136
 30
0.0
 10
132.6713161560683
 20
-154.0326307123599
 30
0.0
 10
132.7770805874654
 20
-154.1004990934193
 30
0.0
 10
132.8807779615715
 20
-154.1828368755168
 30
0.0
 10
132.8807779615715
 20
-154.1828368755168
 30
0.0
 10
132.7622666768789
 20
-154.3499240065514
 30
0.0
 10
132.7622666768789
 20
-154.3499240065514
 30
0.0
 10
132.7388400275792
 20
-154.3309759813825
 30
0.0
 10
132.7260931742837
 20
-154.3227077522179
 30
0.0
 10
132.6141275710131
 20
-154.2379584032808
 30
0.0
 10
132.5655517246711
 20
-154.1997178433945
 30
0.0
 10
132.5062960823248
 20
-154.1638888503479
 30
0.0
 10
132.4256808479699
 20
-154.1194471185882
 30
0.0
 10
132.2141519851756
 20
-154.3054822747917
 30
0.0
 10
132.0091688038033
 20
-154.3289089240914
 30
0.0
 10
131.7190917639452
 20
-154.3585367452645
 30
0.0
 10
131.7190917639452
 20
-154.3585367452645
 30
0.0
 10
131.6157388993877
 20
-154.1787027609345
 30
0.0
 10
131.6157388993877
 20
-154.1787027609345
 30
0.0
 10
131.9330321935792
 20
-154.1745686463522
 30
0.0
 10
132.1083875537784
 20
-154.1490749397613
 30
0.0
 10
132.2606607742265
 20
-154.0391763937819
 30
0.0
 10
132.1424939990824
 20
-153.9881889806002
 30
0.0
 10
132.053610535563
 20
-153.9609727262667
 30
0.0
 10
132.0174370329679
 20
-153.9482258729712
 30
0.0
 10
131.998489007799
 20
-153.9757866368533
 30
0.0
 10
131.9836750972124
 20
-153.9947346620221
 30
0.0
 10
131.9561143333304
 20
-154.0284965977776
 30
0.0
 10
131.9561143333304
 20
-154.0284965977776
 30
0.0
 10
131.7593993811226
 20
-153.9461588156801
 30
0.0
 10
131.7593993811226
 20
-153.9461588156801
 30
0.0
 10
131.8420816727686
 20
-153.8655435813253
 30
0.0
 10
131.9034043724061
 20
-153.7704589459324
 30
0.0
 10
131.9605929574612
 20
-153.6688286291175
 30
0.0
 10
131.7700791771269
 20
-153.6729627436998
 30
0.0
 10
131.7487195851184
 20
-153.6729627436998
 30
0.0
 10
131.6663818030209
 20
-153.6774413678306
 30
0.0
 10
131.6663818030209
 20
-153.6774413678306
 30
0.0
 10
131.6663818030209
 20
-153.4996744407917
 30
0.0
 10
131.6663818030209
 20
-153.4996744407917
 30
0.0
 10
131.8059081701735
 20
-153.5058756126652
 30
0.0
 10
132.0153699756767
 20
-153.510354236796
 30
0.0
 10
132.0408636822675
 20
-153.510354236796
 30
0.0
 10
132.0577446501453
 20
-153.476247791492
 30
0.0
 10
132.1128661779093
 20
-153.3556694495083
 30
0.0
 10
132.1318142030781
 20
-153.2815998965754
 30
0.0
 10
132.1128661779093
 20
-153.2815998965754
 30
0.0
 10
131.9350992508704
 20
-153.2881455779974
 30
0.0
 10
131.7404513559538
 20
-153.3008924312928
 30
0.0
 10
131.7404513559538
 20
-153.3008924312928
 30
0.0
 10
131.7404513559538
 20
-153.434217626572
 30
0.0
 10
131.7404513559538
 20
-153.434217626572
 30
0.0
 10
131.6918755096117
 20
-153.4593668236143
 30
0.0
 10
131.6326198672655
 20
-153.4910617020786
 30
0.0
 10
131.4992946719863
 20
-153.5568630258469
 30
0.0
 10
131.4992946719863
 20
-153.5568630258469
 30
0.0
 10
131.4992946719863
 20
-153.7025905648729
 30
0.0
 10
131.4992946719863
 20
-153.7025905648729
 30
0.0
 10
131.4992946719863
 20
-153.7025905648729
 30
0.0
 10
131.4992946719863
 20
-154.1700900222214
 30
0.0
 10
131.4992946719863
 20
-154.1700900222214
 30
0.0
 10
131.4992946719863
 20
-154.2972140456271
 30
0.0
 10
131.4631211693912
 20
-154.3564696879734
 30
0.0
 10
131.1799343205036
 20
-154.3478569492602
 30
0.0
 10
131.1799343205036
 20
-154.3478569492602
 30
0.0
 10
131.0762369463976
 20
-154.1408067105967
 30
0.0
 10
131.0762369463976
 20
-154.1408067105967
 30
0.0
 10
131.1396267033262
 20
-154.1532090543436
 30
0.0
 10
131.1882025496682
 20
-154.1576876784745
 30
0.0
 10
131.2285101668456
 20
-154.1576876784745
 30
0.0
 10
131.3046467770697
 20
-154.1576876784745
 30
0.0
 10
131.3153265730739
 20
-154.1342610291748
 30
0.0
 10
131.3153265730739
 20
-154.068804214955
 30
0.0
 10
131.3153265730739
 20
-154.068804214955
 30
0.0
 10
131.3153265730739
 20
-153.6392008079443
 30
0.0
 10
131.3153265730739
 20
-153.6392008079443
 30
0.0
 10
131.2178303708414
 20
-153.6795084251218
 30
0.0
 10
131.2009494029636
 20
-153.6857095969952
 30
0.0
 10
131.1544406139128
 20
-153.7050021317126
 30
0.0
 10
131.1503064993305
 20
-153.7260172141726
 30
0.0
 10
131.1458278751997
 20
-153.7556450353458
 30
0.0
 10
131.1268798500307
 20
-153.7556450353458
 30
0.0
 10
131.1186116208661
 20
-153.7556450353458
 30
0.0
 10
131.1079318248619
 20
-153.7515109207635
 30
0.0
 10
131.1013861434399
 20
-153.7280842714638
 30
0.0
 10
131.1013861434399
 20
-153.7280842714638
 30
0.0
 10
131.0486761825156
 20
-153.5355034338383
 30
0.0
 10
131.0486761825156
 20
-153.5355034338383
 30
0.0
 10
131.1947482310902
 20
-153.4889946447875
 30
0.0
 10
131.2602050453099
 20
-153.4659125050363
 30
0.0
 10
131.3153265730739
 20
-153.4445529130277
 30
0.0
 10
131.3153265730739
 20
-153.4445529130277
 30
0.0
 10
131.3153265730739
 20
-153.0321749834433
 30
0.0
 10
131.3153265730739
 20
-153.0321749834433
 30
0.0
 10
131.3153265730739
 20
-153.0321749834433
 30
0.0
 10
131.2622721026011
 20
-153.0321749834433
 30
0.0
 10
131.2622721026011
 20
-153.0321749834433
 30
0.0
 10
131.2622721026011
 20
-153.0321749834433
 30
0.0
 10
131.1840684350859
 20
-153.0321749834433
 30
0.0
 10
131.1840684350859
 20
-153.0321749834433
 30
0.0
 10
131.1162000540265
 20
-153.0321749834433
 30
0.0
 10
131.1079318248619
 20
-153.0321749834433
 30
0.0
 10
131.0717583222668
 20
-153.0383761553168
 30
0.0
 10
131.0717583222668
 20
-153.0383761553168
 30
0.0
 10
131.0717583222668
 20
-152.8437282604001
 30
0.0
 10
131.0717583222668
 20
-152.8437282604001
 30
0.0
 10
131.0993190861488
 20
-152.8502739418222
 30
0.0
 10
131.1079318248619
 20
-152.8502739418222
 30
0.0
 10
131.1775227536639
 20
-152.8502739418222
 30
0.0
 10
131.1775227536639
 20
-152.8502739418222
 30
0.0
 10
131.3108479489431
 20
-152.8502739418222
 30
0.0
 10
131.3108479489431
 20
-152.8502739418222
 30
0.0
 10
131.3108479489431
 20
-152.7803385034716
 30
0.0
 10
131.3108479489431
 20
-152.6980007213741
 30
0.0
 10
131.3087808916519
 20
-152.6935220972433
 30
0.0
 10
131.3005126624873
 20
-152.5136881129132
 30
0.0
 10
131.3005126624873
 20
-152.4947400877444
 30
0.0
 10
131.2981010956477
 20
-152.4482312986935
 30
0.0
 10
131.2981010956477
 20
-152.4482312986935
 30
0.0
 10
131.5141085825729
 20
-152.4568440374066
 30
0.0
 10
131.5141085825729
 20
-152.4568440374066
 30
0.0
 10
131.5247883785771
 20
-152.4568440374066
 30
0.0
 10
131.5458034610371
 20
-152.4589110946978
 30
0.0
 10
131.5458034610371
 20
-152.4757920625755
 30
0.0
 10
131.5458034610371
 20
-152.4947400877444
 30
0.0
 10
131.5309895504506
 20
-152.5054198837486
 30
0.0
 10
131.5054958438597
 20
-152.5243679089175
 30
0.0
 10
131.5054958438597
 20
-152.5750108125507
 30
0.0
 10
131.4992946719863
 20
-152.8037651527713
 30
0.0
 10
131.5013617292774
 20
-152.8502739418222
 30
0.0
 10
131.6305528099743
 20
-152.8502739418222
 30
0.0
 10
131.6429551537212
 20
-152.8502739418222
 30
0.0
 10
131.7404513559538
 20
-152.841661203109
 30
0.0
 10
131.7404513559538
 20
-152.841661203109
 30
0.0
 10
131.7404513559538
 20
-153.0363090980256
 30
0.0
 10
131.7404513559538
 20
-153.0363090980256
 30
0.0
 10
131.7022107960675
 20
-153.0342420407345
 30
0.0
 10
131.6346869245566
 20
-153.0301079261522
 30
0.0
 10
131.4992946719863
 20
-153.0321749834433
 30
0.0
 10
131.4992946719863
 20
-153.0321749834433
 30
0.0
 10
131.4992946719863
 20
-153.3704833600949
 30
0.0
 10
131.4992946719863
 20
-153.3704833600949
 30
0.0
 10
131.5540716902017
 20
-153.3474012203437
 30
0.0
 10
131.61987301397
 20
-153.3198404564617
 30
0.0
 10
131.668448860312
 20
-153.296413807162
 30
0.0
 10
131.668448860312
 20
-153.296413807162
 30
0.0
 10
131.668448860312
 20
-153.1189913896716
 30
0.0
 10
131.668448860312
 20
-153.1189913896716
 30
0.0
 10
131.7828260304223
 20
-153.1313937334185
 30
0.0
 10
131.9013373151149
 20
-153.1313937334185
 30
0.0
 10
132.0174370329679
 20
-153.1313937334185
 30
0.0
 10
131.9943548932167
 20
-153.0363090980256
 30
0.0
 10
131.9667941293347
 20
-152.9539713159282
 30
0.0
 10
131.9034043724061
 20
-152.820646120649
 30
0.0
 10
131.8589626406464
 20
-152.8227131779401
 30
0.0
 10
131.7762803490004
 20
-152.8268472925224
 30
0.0
 10
131.7383842986626
 20
-152.8289143498136
 30
0.0
 10
131.7383842986626
 20
-152.8289143498136
 30
0.0
 10
131.7383842986626
 20
-152.6490803654835
 30
0.0
 10
131.7383842986626
 20
-152.6490803654835
 30
0.0
 10
131.8630967552286
 20
-152.6576931041967
 30
0.0
 10
132.0367295676852
 20
-152.661827218779
 30
0.0
 10
132.1190673497827
 20
-152.661827218779
 30
0.0
 10
132.1190673497827
 20
-152.661827218779
 30
0.0
 10
132.2017496414287
 20
-152.661827218779
 30
0.0
 10
132.2017496414287
 20
-152.661827218779
 30
0.0
 10
132.2017496414287
 20
-152.4988742023267
 30
0.0
 10
132.2017496414287
 20
-152.4885389158709
 30
0.0
 10
132.199338074589
 20
-152.4334173881069
 30
0.0
 10
132.199338074589
 20
-152.4334173881069
 30
0.0
 10
132.4236137906788
 20
-152.4589110946978
 30
0.0
 10
132.4236137906788
 20
-152.4589110946978
 30
0.0
 10
132.4280924148096
 20
-152.4589110946978
 30
0.0
 10
132.4491074972696
 20
-152.4609781519889
 30
0.0
 10
132.4491074972696
 20
-152.4778591198666
 30
0.0
 10
132.4491074972696
 20
-152.4926730304532
 30
0.0
 10
132.4384277012654
 20
-152.5012857691663
 30
0.0
 10
132.4108669373834
 20
-152.5160996797529
 30
0.0
 10
132.4046657655099
 20
-152.5815564939726
 30
0.0
 10
132.4025987082188
 20
-152.6025715764327
 30
0.0
 10
132.4025987082188
 20
-152.661827218779
 30
0.0
 10
132.4025987082188
 20
-152.661827218779
 30
0.0
 10
132.4976833436117
 20
-152.661827218779
 30
0.0
 10
132.4976833436117
 20
-152.661827218779
 30
0.0
 10
132.5803656352577
 20
-152.661827218779
 30
0.0
 10
132.7536539381657
 20
-152.6576931041967
 30
0.0
 10
132.8787109042803
 20
-152.6490803654835
 30
0.0
 10
132.8787109042803
 20
-152.6490803654835
 30
0.0
 10
132.8787109042803
 20
-152.8289143498136
 30
0.0
 10
132.8787109042803
 20
-152.8289143498136
 30
0.0
 10
132.8490830831072
 20
-152.8268472925224
 30
0.0
 10
132.7305717984146
 20
-152.8227131779401
 30
0.0
 10
132.6902641812371
 20
-152.820646120649
 30
0.0
 10
132.6754502706506
 20
-152.8712890242822
 30
0.0
 10
132.6416883348951
 20
-152.9835991371013
 30
0.0
 10
132.5758870111268
 20
-153.1231255042539
 30
0.0
 10
132.6182616855954
 20
-153.1231255042539
 30
0.0
 10
132.895591872158
 20
-153.1041774790851
 30
0.0
 10
132.9569145717955
 20
-153.1017659122454
 30
0.0
 10
132.9569145717955
 20
-153.1017659122454
 30
0.0
 10
132.9569145717955
 20
-153.2860785207063
 30
0.0
 10
132.9569145717955
 20
-153.2860785207063
 30
0.0
 10
132.9272867506223
 20
-153.2860785207063
 30
0.0
 10
132.9104057827446
 20
-153.2815998965754
 30
0.0
 10
132.7474527662923
 20
-153.2815998965754
 30
0.0
  0
HATCH
  5
171
330
16A
100
AcDbEntity
  8
レイヤー 1
 62
    18
420
        0
440
 33554687
100
AcDbHatch
 10
0.0
 20
0.0
 30
0.0
210
0.0
220
0.0
230
1.0
  2
SOLID
 70
     1
 71
     1
 91
        3
 92
        1
 93
        1
 72
     4
 94
        3
 73
     0
 74
     0
 95
       17
 96
       13
 40
0.0
 40
0.0
 40
0.0
 40
0.0
 40
1.0
 40
1.0
 40
1.0
 40
2.0
 40
2.0
 40
2.0
 40
3.0
 40
3.0
 40
3.0
 40
4.0
 40
4.0
 40
4.0
 40
4.0
 10
132.1824571067113
 20
-153.6667615718264
 10
132.1655761388336
 20
-153.6963893929995
 10
132.1149332352004
 20
-153.7894069711013
 10
132.1042534391961
 20
-153.8083549962701
 10
132.2947672195305
 20
-153.8676106386164
 10
132.3157823019905
 20
-153.8741563200384
 10
132.3877847976322
 20
-153.9017170839204
 10
132.4429063253962
 20
-153.8149006776921
 10
132.4659884651474
 20
-153.7408311247592
 10
132.4808023757339
 20
-153.6667615718264
 10
132.4808023757339
 20
-153.6667615718264
 10
132.1824571067113
 20
-153.6667615718264
 10
132.1824571067113
 20
-153.6667615718264
 97
        0
 97
        1
330
16E
 92
        1
 93
        1
 72
     4
 94
        3
 73
     0
 74
     0
 95
       20
 96
       16
 40
0.0
 40
0.0
 40
0.0
 40
0.0
 40
1.0
 40
1.0
 40
1.0
 40
2.0
 40
2.0
 40
2.0
 40
3.0
 40
3.0
 40
3.0
 40
4.0
 40
4.0
 40
4.0
 40
5.0
 40
5.0
 40
5.0
 40
5.0
 10
132.1190673497827
 20
-152.8161674965182
 10
132.1190673497827
 20
-152.8161674965182
 10
132.0873724713184
 20
-152.8161674965182
 10
132.0873724713184
 20
-152.8161674965182
 10
132.1338812603693
 20
-152.9157307560419
 10
132.1655761388336
 20
-152.9960014808482
 10
132.199338074589
 20
-153.1231255042539
 10
132.199338074589
 20
-153.1231255042539
 10
132.4067328228011
 20
-153.1231255042539
 10
132.4067328228011
 20
-153.1231255042539
 10
132.4384277012654
 20
-153.0301079261522
 10
132.4618543505651
 20
-152.945358577215
 10
132.4849364903162
 20
-152.8161674965182
 10
132.4849364903162
 20
-152.8161674965182
 10
132.1190673497827
 20
-152.8161674965182
 10
132.1190673497827
 20
-152.8161674965182
 97
        0
 97
        1
330
16F
 92
        1
 93
        1
 72
     4
 94
        3
 73
     0
 74
     0
 95
      242
 96
      238
 40
0.0
 40
0.0
 40
0.0
 40
0.0
 40
1.0
 40
1.0
 40
1.0
 40
2.0
 40
2.0
 40
2.0
 40
3.0
 40
3.0
 40
3.0
 40
4.0
 40
4.0
 40
4.0
 40
5.0
 40
5.0
 40
5.0
 40
6.0
 40
6.0
 40
6.0
 40
7.0
 40
7.0
 40
7.0
 40
8.0
 40
8.0
 40
8.0
 40
9.0
 40
9.0
 40
9.0
 40
10.0
 40
10.0
 40
10.0
 40
11.0
 40
11.0
 40
11.0
 40
12.0
 40
12.0
 40
12.0
 40
13.0
 40
13.0
 40
13.0
 40
14.0
 40
14.0
 40
14.0
 40
15.0
 40
15.0
 40
15.0
 40
16.0
 40
16.0
 40
16.0
 40
17.0
 40
17.0
 40
17.0
 40
18.0
 40
18.0
 40
18.0
 40
19.0
 40
19.0
 40
19.0
 40
20.0
 40
20.0
 40
20.0
 40
21.0
 40
21.0
 40
21.0
 40
22.0
 40
22.0
 40
22.0
 40
23.0
 40
23.0
 40
23.0
 40
24.0
 40
24.0
 40
24.0
 40
25.0
 40
25.0
 40
25.0
 40
26.0
 40
26.0
 40
26.0
 40
27.0
 40
27.0
 40
27.0
 40
28.0
 40
28.0
 40
28.0
 40
29.0
 40
29.0
 40
29.0
 40
30.0
 40
30.0
 40
30.0
 40
31.0
 40
31.0
 40
31.0
 40
32.0
 40
32.0
 40
32.0
 40
33.0
 40
33.0
 40
33.0
 40
34.0
 40
34.0
 40
34.0
 40
35.0
 40
35.0
 40
35.0
 40
36.0
 40
36.0
 40
36.0
 40
37.0
 40
37.0
 40
37.0
 40
38.0
 40
38.0
 40
38.0
 40
39.0
 40
39.0
 40
39.0
 40
40.0
 40
40.0
 40
40.0
 40
41.0
 40
41.0
 40
41.0
 40
42.0
 40
42.0
 40
42.0
 40
43.0
 40
43.0
 40
43.0
 40
44.0
 40
44.0
 40
44.0
 40
45.0
 40
45.0
 40
45.0
 40
46.0
 40
46.0
 40
46.0
 40
47.0
 40
47.0
 40
47.0
 40
48.0
 40
48.0
 40
48.0
 40
49.0
 40
49.0
 40
49.0
 40
50.0
 40
50.0
 40
50.0
 40
51.0
 40
51.0
 40
51.0
 40
52.0
 40
52.0
 40
52.0
 40
53.0
 40
53.0
 40
53.0
 40
54.0
 40
54.0
 40
54.0
 40
55.0
 40
55.0
 40
55.0
 40
56.0
 40
56.0
 40
56.0
 40
57.0
 40
57.0
 40
57.0
 40
58.0
 40
58.0
 40
58.0
 40
59.0
 40
59.0
 40
59.0
 40
60.0
 40
60.0
 40
60.0
 40
61.0
 40
61.0
 40
61.0
 40
62.0
 40
62.0
 40
62.0
 40
63.0
 40
63.0
 40
63.0
 40
64.0
 40
64.0
 40
64.0
 40
65.0
 40
65.0
 40
65.0
 40
66.0
 40
66.0
 40
66.0
 40
67.0
 40
67.0
 40
67.0
 40
68.0
 40
68.0
 40
68.0
 40
69.0
 40
69.0
 40
69.0
 40
70.0
 40
70.0
 40
70.0
 40
71.0
 40
71.0
 40
71.0
 40
72.0
 40
72.0
 40
72.0
 40
73.0
 40
73.0
 40
73.0
 40
74.0
 40
74.0
 40
74.0
 40
75.0
 40
75.0
 40
75.0
 40
76.0
 40
76.0
 40
76.0
 40
77.0
 40
77.0
 40
77.0
 40
78.0
 40
78.0
 40
78.0
 40
79.0
 40
79.0
 40
79.0
 40
79.0
 10
132.7474527662923
 20
-153.2815998965754
 10
132.7474527662923
 20
-153.2815998965754
 10
132.4935492290294
 20
-153.2815998965754
 10
132.4935492290294
 20
-153.2815998965754
 10
132.4935492290294
 20
-153.2815998965754
 10
132.2165635520153
 20
-153.2815998965754
 10
132.2165635520153
 20
-153.2815998965754
 10
132.2165635520153
 20
-153.2815998965754
 10
132.3433430658725
 20
-153.323974571044
 10
132.3433430658725
 20
-153.323974571044
 10
132.3540228618768
 20
-153.3284531951748
 10
132.3664252056236
 20
-153.3346543670483
 10
132.3664252056236
 20
-153.3474012203437
 10
132.3664252056236
 20
-153.3684163028037
 10
132.3347303271594
 20
-153.3749619842257
 10
132.3137152446993
 20
-153.379096098808
 10
132.3030354486951
 20
-153.4021782385591
 10
132.2734076275219
 20
-153.4679795623274
 10
132.254459602353
 20
-153.5124212940871
 10
132.254459602353
 20
-153.5124212940871
 10
132.5252441074937
 20
-153.5124212940871
 10
132.5252441074937
 20
-153.5124212940871
 10
132.6161946283043
 20
-153.5124212940871
 10
132.812909580512
 20
-153.5079426699563
 10
132.9548475145043
 20
-153.4996744407917
 10
132.9548475145043
 20
-153.4996744407917
 10
132.9548475145043
 20
-153.6774413678306
 10
132.9548475145043
 20
-153.6774413678306
 10
132.8721652228583
 20
-153.6729627436998
 10
132.8511501403983
 20
-153.6729627436998
 10
132.6713161560683
 20
-153.6688286291175
 10
132.639621277604
 20
-153.8231689068567
 10
132.5951795458442
 20
-153.9037841412115
 10
132.5507378140845
 20
-153.9733750700136
 10
132.6713161560683
 20
-154.0326307123599
 10
132.7770805874654
 20
-154.1004990934193
 10
132.8807779615715
 20
-154.1828368755168
 10
132.8807779615715
 20
-154.1828368755168
 10
132.7622666768789
 20
-154.3499240065514
 10
132.7622666768789
 20
-154.3499240065514
 10
132.7388400275792
 20
-154.3309759813825
 10
132.7260931742837
 20
-154.3227077522179
 10
132.6141275710131
 20
-154.2379584032808
 10
132.5655517246711
 20
-154.1997178433945
 10
132.5062960823248
 20
-154.1638888503479
 10
132.4256808479699
 20
-154.1194471185882
 10
132.2141519851756
 20
-154.3054822747917
 10
132.0091688038033
 20
-154.3289089240914
 10
131.7190917639452
 20
-154.3585367452645
 10
131.7190917639452
 20
-154.3585367452645
 10
131.6157388993877
 20
-154.1787027609345
 10
131.6157388993877
 20
-154.1787027609345
 10
131.9330321935792
 20
-154.1745686463522
 10
132.1083875537784
 20
-154.1490749397613
 10
132.2606607742265
 20
-154.0391763937819
 10
132.1424939990824
 20
-153.9881889806002
 10
132.053610535563
 20
-153.9609727262667
 10
132.0174370329679
 20
-153.9482258729712
 10
131.998489007799
 20
-153.9757866368533
 10
131.9836750972124
 20
-153.9947346620221
 10
131.9561143333304
 20
-154.0284965977776
 10
131.9561143333304
 20
-154.0284965977776
 10
131.7593993811226
 20
-153.9461588156801
 10
131.7593993811226
 20
-153.9461588156801
 10
131.8420816727686
 20
-153.8655435813253
 10
131.9034043724061
 20
-153.7704589459324
 10
131.9605929574612
 20
-153.6688286291175
 10
131.7700791771269
 20
-153.6729627436998
 10
131.7487195851184
 20
-153.6729627436998
 10
131.6663818030209
 20
-153.6774413678306
 10
131.6663818030209
 20
-153.6774413678306
 10
131.6663818030209
 20
-153.4996744407917
 10
131.6663818030209
 20
-153.4996744407917
 10
131.8059081701735
 20
-153.5058756126652
 10
132.0153699756767
 20
-153.510354236796
 10
132.0408636822675
 20
-153.510354236796
 10
132.0577446501453
 20
-153.476247791492
 10
132.1128661779093
 20
-153.3556694495083
 10
132.1318142030781
 20
-153.2815998965754
 10
132.1128661779093
 20
-153.2815998965754
 10
131.9350992508704
 20
-153.2881455779974
 10
131.7404513559538
 20
-153.3008924312928
 10
131.7404513559538
 20
-153.3008924312928
 10
131.7404513559538
 20
-153.434217626572
 10
131.7404513559538
 20
-153.434217626572
 10
131.6918755096117
 20
-153.4593668236143
 10
131.6326198672655
 20
-153.4910617020786
 10
131.4992946719863
 20
-153.5568630258469
 10
131.4992946719863
 20
-153.5568630258469
 10
131.4992946719863
 20
-153.7025905648729
 10
131.4992946719863
 20
-153.7025905648729
 10
131.4992946719863
 20
-153.7025905648729
 10
131.4992946719863
 20
-154.1700900222214
 10
131.4992946719863
 20
-154.1700900222214
 10
131.4992946719863
 20
-154.2972140456271
 10
131.4631211693912
 20
-154.3564696879734
 10
131.1799343205036
 20
-154.3478569492602
 10
131.1799343205036
 20
-154.3478569492602
 10
131.0762369463976
 20
-154.1408067105967
 10
131.0762369463976
 20
-154.1408067105967
 10
131.1396267033262
 20
-154.1532090543436
 10
131.1882025496682
 20
-154.1576876784745
 10
131.2285101668456
 20
-154.1576876784745
 10
131.3046467770697
 20
-154.1576876784745
 10
131.3153265730739
 20
-154.1342610291748
 10
131.3153265730739
 20
-154.068804214955
 10
131.3153265730739
 20
-154.068804214955
 10
131.3153265730739
 20
-153.6392008079443
 10
131.3153265730739
 20
-153.6392008079443
 10
131.2178303708414
 20
-153.6795084251218
 10
131.2009494029636
 20
-153.6857095969952
 10
131.1544406139128
 20
-153.7050021317126
 10
131.1503064993305
 20
-153.7260172141726
 10
131.1458278751997
 20
-153.7556450353458
 10
131.1268798500307
 20
-153.7556450353458
 10
131.1186116208661
 20
-153.7556450353458
 10
131.1079318248619
 20
-153.7515109207635
 10
131.1013861434399
 20
-153.7280842714638
 10
131.1013861434399
 20
-153.7280842714638
 10
131.0486761825156
 20
-153.5355034338383
 10
131.0486761825156
 20
-153.5355034338383
 10
131.1947482310902
 20
-153.4889946447875
 10
131.2602050453099
 20
-153.4659125050363
 10
131.3153265730739
 20
-153.4445529130277
 10
131.3153265730739
 20
-153.4445529130277
 10
131.3153265730739
 20
-153.0321749834433
 10
131.3153265730739
 20
-153.0321749834433
 10
131.3153265730739
 20
-153.0321749834433
 10
131.2622721026011
 20
-153.0321749834433
 10
131.2622721026011
 20
-153.0321749834433
 10
131.2622721026011
 20
-153.0321749834433
 10
131.1840684350859
 20
-153.0321749834433
 10
131.1840684350859
 20
-153.0321749834433
 10
131.1162000540265
 20
-153.0321749834433
 10
131.1079318248619
 20
-153.0321749834433
 10
131.0717583222668
 20
-153.0383761553168
 10
131.0717583222668
 20
-153.0383761553168
 10
131.0717583222668
 20
-152.8437282604001
 10
131.0717583222668
 20
-152.8437282604001
 10
131.0993190861488
 20
-152.8502739418222
 10
131.1079318248619
 20
-152.8502739418222
 10
131.1775227536639
 20
-152.8502739418222
 10
131.1775227536639
 20
-152.8502739418222
 10
131.3108479489431
 20
-152.8502739418222
 10
131.3108479489431
 20
-152.8502739418222
 10
131.3108479489431
 20
-152.7803385034716
 10
131.3108479489431
 20
-152.6980007213741
 10
131.3087808916519
 20
-152.6935220972433
 10
131.3005126624873
 20
-152.5136881129132
 10
131.3005126624873
 20
-152.4947400877444
 10
131.2981010956477
 20
-152.4482312986935
 10
131.2981010956477
 20
-152.4482312986935
 10
131.5141085825729
 20
-152.4568440374066
 10
131.5141085825729
 20
-152.4568440374066
 10
131.5247883785771
 20
-152.4568440374066
 10
131.5458034610371
 20
-152.4589110946978
 10
131.5458034610371
 20
-152.4757920625755
 10
131.5458034610371
 20
-152.4947400877444
 10
131.5309895504506
 20
-152.5054198837486
 10
131.5054958438597
 20
-152.5243679089175
 10
131.5054958438597
 20
-152.5750108125507
 10
131.4992946719863
 20
-152.8037651527713
 10
131.5013617292774
 20
-152.8502739418222
 10
131.6305528099743
 20
-152.8502739418222
 10
131.6429551537212
 20
-152.8502739418222
 10
131.7404513559538
 20
-152.841661203109
 10
131.7404513559538
 20
-152.841661203109
 10
131.7404513559538
 20
-153.0363090980256
 10
131.7404513559538
 20
-153.0363090980256
 10
131.7022107960675
 20
-153.0342420407345
 10
131.6346869245566
 20
-153.0301079261522
 10
131.4992946719863
 20
-153.0321749834433
 10
131.4992946719863
 20
-153.0321749834433
 10
131.4992946719863
 20
-153.3704833600949
 10
131.4992946719863
 20
-153.3704833600949
 10
131.5540716902017
 20
-153.3474012203437
 10
131.61987301397
 20
-153.3198404564617
 10
131.668448860312
 20
-153.296413807162
 10
131.668448860312
 20
-153.296413807162
 10
131.668448860312
 20
-153.1189913896716
 10
131.668448860312
 20
-153.1189913896716
 10
131.7828260304223
 20
-153.1313937334185
 10
131.9013373151149
 20
-153.1313937334185
 10
132.0174370329679
 20
-153.1313937334185
 10
131.9943548932167
 20
-153.0363090980256
 10
131.9667941293347
 20
-152.9539713159282
 10
131.9034043724061
 20
-152.820646120649
 10
131.8589626406464
 20
-152.8227131779401
 10
131.7762803490004
 20
-152.8268472925224
 10
131.7383842986626
 20
-152.8289143498136
 10
131.7383842986626
 20
-152.8289143498136
 10
131.7383842986626
 20
-152.6490803654835
 10
131.7383842986626
 20
-152.6490803654835
 10
131.8630967552286
 20
-152.6576931041967
 10
132.0367295676852
 20
-152.661827218779
 10
132.1190673497827
 20
-152.661827218779
 10
132.1190673497827
 20
-152.661827218779
 10
132.2017496414287
 20
-152.661827218779
 10
132.2017496414287
 20
-152.661827218779
 10
132.2017496414287
 20
-152.4988742023267
 10
132.2017496414287
 20
-152.4885389158709
 10
132.199338074589
 20
-152.4334173881069
 10
132.199338074589
 20
-152.4334173881069
 10
132.4236137906788
 20
-152.4589110946978
 10
132.4236137906788
 20
-152.4589110946978
 10
132.4280924148096
 20
-152.4589110946978
 10
132.4491074972696
 20
-152.4609781519889
 10
132.4491074972696
 20
-152.4778591198666
 10
132.4491074972696
 20
-152.4926730304532
 10
132.4384277012654
 20
-152.5012857691663
 10
132.4108669373834
 20
-152.5160996797529
 10
132.4046657655099
 20
-152.5815564939726
 10
132.4025987082188
 20
-152.6025715764327
 10
132.4025987082188
 20
-152.661827218779
 10
132.4025987082188
 20
-152.661827218779
 10
132.4976833436117
 20
-152.661827218779
 10
132.4976833436117
 20
-152.661827218779
 10
132.5803656352577
 20
-152.661827218779
 10
132.7536539381657
 20
-152.6576931041967
 10
132.8787109042803
 20
-152.6490803654835
 10
132.8787109042803
 20
-152.6490803654835
 10
132.8787109042803
 20
-152.8289143498136
 10
132.8787109042803
 20
-152.8289143498136
 10
132.8490830831072
 20
-152.8268472925224
 10
132.7305717984146
 20
-152.8227131779401
 10
132.6902641812371
 20
-152.820646120649
 10
132.6754502706506
 20
-152.8712890242822
 10
132.6416883348951
 20
-152.9835991371013
 10
132.5758870111268
 20
-153.1231255042539
 10
132.6182616855954
 20
-153.1231255042539
 10
132.895591872158
 20
-153.1041774790851
 10
132.9569145717955
 20
-153.1017659122454
 10
132.9569145717955
 20
-153.1017659122454
 10
132.9569145717955
 20
-153.2860785207063
 10
132.9569145717955
 20
-153.2860785207063
 10
132.9272867506223
 20
-153.2860785207063
 10
132.9104057827446
 20
-153.2815998965754
 10
132.7474527662923
 20
-153.2815998965754
 97
        0
 97
        1
330
170
 75
     2
 76
     1
 98
        1
 10
0.0
 20
0.0
450
        0
451
        0
460
0.0
461
0.0
452
        0
462
0.0
453
        0
470

  0
SPLINE
  5
172
330
16A
100
AcDbEntity
  8
レイヤー 1
100
AcDbSpline
210
0.0
220
0.0
230
1.0
 70
    11
 71
     3
 72
    17
 73
    13
 74
     0
 42
0.0000000001
 43
0.0000000001
 40
0.0
 40
0.0
 40
0.0
 40
0.0
 40
1.0
 40
1.0
 40
1.0
 40
2.0
 40
2.0
 40
2.0
 40
3.0
 40
3.0
 40
3.0
 40
4.0
 40
4.0
 40
4.0
 40
4.0
 10
134.6040147232934
 20
-154.0815510682504
 30
0.0
 10
134.6040147232934
 20
-154.0815510682504
 30
0.0
 10
133.8974256392687
 20
-154.0815510682504
 30
0.0
 10
133.8974256392687
 20
-154.0815510682504
 30
0.0
 10
133.8974256392687
 20
-154.0815510682504
 30
0.0
 10
133.8974256392687
 20
-154.1955837288122
 30
0.0
 10
133.8974256392687
 20
-154.1955837288122
 30
0.0
 10
133.8974256392687
 20
-154.1955837288122
 30
0.0
 10
134.6040147232934
 20
-154.1955837288122
 30
0.0
 10
134.6040147232934
 20
-154.1955837288122
 30
0.0
 10
134.6040147232934
 20
-154.1955837288122
 30
0.0
 10
134.6040147232934
 20
-154.0815510682504
 30
0.0
 10
134.6040147232934
 20
-154.0815510682504
 30
0.0
  0
SPLINE
  5
173
330
16A
100
AcDbEntity
  8
レイヤー 1
100
AcDbSpline
210
0.0
220
0.0
230
1.0
 70
    11
 71
     3
 72
    17
 73
    13
 74
     0
 42
0.0000000001
 43
0.0000000001
 40
0.0
 40
0.0
 40
0.0
 40
0.0
 40
1.0
 40
1.0
 40
1.0
 40
2.0
 40
2.0
 40
2.0
 40
3.0
 40
3.0
 40
3.0
 40
4.0
 40
4.0
 40
4.0
 40
4.0
 10
134.6040147232934
 20
-153.8379828174432
 30
0.0
 10
134.6040147232934
 20
-153.8379828174432
 30
0.0
 10
133.8974256392687
 20
-153.8379828174432
 30
0.0
 10
133.8974256392687
 20
-153.8379828174432
 30
0.0
 10
133.8974256392687
 20
-153.8379828174432
 30
0.0
 10
133.8974256392687
 20
-153.9523599875536
 30
0.0
 10
133.8974256392687
 20
-153.9523599875536
 30
0.0
 10
133.8974256392687
 20
-153.9523599875536
 30
0.0
 10
134.6040147232934
 20
-153.9523599875536
 30
0.0
 10
134.6040147232934
 20
-153.9523599875536
 30
0.0
 10
134.6040147232934
 20
-153.9523599875536
 30
0.0
 10
134.6040147232934
 20
-153.8379828174432
 30
0.0
 10
134.6040147232934
 20
-153.8379828174432
 30
0.0
  0
SPLINE
  5
174
330
16A
100
AcDbEntity
  8
レイヤー 1
100
AcDbSpline
210
0.0
220
0.0
230
1.0
 70
    11
 71
     3
 72
    17
 73
    13
 74
     0
 42
0.0000000001
 43
0.0000000001
 40
0.0
 40
0.0
 40
0.0
 40
0.0
 40
1.0
 40
1.0
 40
1.0
 40
2.0
 40
2.0
 40
2.0
 40
3.0
 40
3.0
 40
3.0
 40
4.0
 40
4.0
 40
4.0
 40
4.0
 10
134.6040147232934
 20
-153.6054388721889
 30
0.0
 10
134.6040147232934
 20
-153.6054388721889
 30
0.0
 10
133.8974256392687
 20
-153.6054388721889
 30
0.0
 10
133.8974256392687
 20
-153.6054388721889
 30
0.0
 10
133.8974256392687
 20
-153.6054388721889
 30
0.0
 10
133.8974256392687
 20
-153.7132703608772
 30
0.0
 10
133.8974256392687
 20
-153.7132703608772
 30
0.0
 10
133.8974256392687
 20
-153.7132703608772
 30
0.0
 10
134.6040147232934
 20
-153.7132703608772
 30
0.0
 10
134.6040147232934
 20
-153.7132703608772
 30
0.0
 10
134.6040147232934
 20
-153.7132703608772
 30
0.0
 10
134.6040147232934
 20
-153.6054388721889
 30
0.0
 10
134.6040147232934
 20
-153.6054388721889
 30
0.0
  0
SPLINE
  5
175
330
16A
100
AcDbEntity
  8
レイヤー 1
100
AcDbSpline
210
0.0
220
0.0
230
1.0
 70
     9
 71
     3
 72
   203
 73
   199
 74
     0
 42
0.0000000001
 43
0.0000000001
 40
0.0
 40
0.0
 40
0.0
 40
0.0
 40
1.0
 40
1.0
 40
1.0
 40
2.0
 40
2.0
 40
2.0
 40
3.0
 40
3.0
 40
3.0
 40
4.0
 40
4.0
 40
4.0
 40
5.0
 40
5.0
 40
5.0
 40
6.0
 40
6.0
 40
6.0
 40
7.0
 40
7.0
 40
7.0
 40
8.0
 40
8.0
 40
8.0
 40
9.0
 40
9.0
 40
9.0
 40
10.0
 40
10.0
 40
10.0
 40
11.0
 40
11.0
 40
11.0
 40
12.0
 40
12.0
 40
12.0
 40
13.0
 40
13.0
 40
13.0
 40
14.0
 40
14.0
 40
14.0
 40
15.0
 40
15.0
 40
15.0
 40
16.0
 40
16.0
 40
16.0
 40
17.0
 40
17.0
 40
17.0
 40
18.0
 40
18.0
 40
18.0
 40
19.0
 40
19.0
 40
19.0
 40
20.0
 40
20.0
 40
20.0
 40
21.0
 40
21.0
 40
21.0
 40
22.0
 40
22.0
 40
22.0
 40
23.0
 40
23.0
 40
23.0
 40
24.0
 40
24.0
 40
24.0
 40
25.0
 40
25.0
 40
25.0
 40
26.0
 40
26.0
 40
26.0
 40
27.0
 40
27.0
 40
27.0
 40
28.0
 40
28.0
 40
28.0
 40
29.0
 40
29.0
 40
29.0
 40
30.0
 40
30.0
 40
30.0
 40
31.0
 40
31.0
 40
31.0
 40
32.0
 40
32.0
 40
32.0
 40
33.0
 40
33.0
 40
33.0
 40
34.0
 40
34.0
 40
34.0
 40
35.0
 40
35.0
 40
35.0
 40
36.0
 40
36.0
 40
36.0
 40
37.0
 40
37.0
 40
37.0
 40
38.0
 40
38.0
 40
38.0
 40
39.0
 40
39.0
 40
39.0
 40
40.0
 40
40.0
 40
40.0
 40
41.0
 40
41.0
 40
41.0
 40
42.0
 40
42.0
 40
42.0
 40
43.0
 40
43.0
 40
43.0
 40
44.0
 40
44.0
 40
44.0
 40
45.0
 40
45.0
 40
45.0
 40
46.0
 40
46.0
 40
46.0
 40
47.0
 40
47.0
 40
47.0
 40
48.0
 40
48.0
 40
48.0
 40
49.0
 40
49.0
 40
49.0
 40
50.0
 40
50.0
 40
50.0
 40
51.0
 40
51.0
 40
51.0
 40
52.0
 40
52.0
 40
52.0
 40
53.0
 40
53.0
 40
53.0
 40
54.0
 40
54.0
 40
54.0
 40
55.0
 40
55.0
 40
55.0
 40
56.0
 40
56.0
 40
56.0
 40
57.0
 40
57.0
 40
57.0
 40
58.0
 40
58.0
 40
58.0
 40
59.0
 40
59.0
 40
59.0
 40
60.0
 40
60.0
 40
60.0
 40
61.0
 40
61.0
 40
61.0
 40
62.0
 40
62.0
 40
62.0
 40
63.0
 40
63.0
 40
63.0
 40
64.0
 40
64.0
 40
64.0
 40
65.0
 40
65.0
 40
65.0
 40
66.0
 40
66.0
 40
66.0
 40
66.0
 10
134.43899464955
 20
-153.3494682776348
 30
0.0
 10
134.43899464955
 20
-153.3494682776348
 30
0.0
 10
133.8802001618424
 20
-153.3494682776348
 30
0.0
 10
133.8802001618424
 20
-153.3494682776348
 30
0.0
 10
133.8698648753867
 20
-153.3939100093945
 30
0.0
 10
133.8612521366736
 20
-153.4256048878589
 30
0.0
 10
133.8485052833781
 20
-153.4638454477451
 30
0.0
 10
133.873998989969
 20
-153.4638454477451
 30
0.0
 10
133.8888129005556
 20
-153.4659125050363
 30
0.0
 10
133.895014072429
 20
-153.4659125050363
 30
0.0
 10
133.895014072429
 20
-153.4659125050363
 30
0.0
 10
134.0834607954722
 20
-153.4659125050363
 30
0.0
 10
134.0834607954722
 20
-153.4659125050363
 30
0.0
 10
134.0834607954722
 20
-153.4659125050363
 30
0.0
 10
134.4579426747188
 20
-153.4659125050363
 30
0.0
 10
134.4579426747188
 20
-153.4659125050363
 30
0.0
 10
134.508585578352
 20
-153.4659125050363
 30
0.0
 10
134.7921169367881
 20
-153.4531656517408
 30
0.0
 10
134.8238118152524
 20
-153.4531656517408
 30
0.0
 10
134.8217447579612
 20
-153.4807264156229
 30
0.0
 10
134.8196777006701
 20
-153.4996744407917
 30
0.0
 10
134.8196777006701
 20
-153.5293022619649
 30
0.0
 10
134.8176106433789
 20
-153.5609971404292
 30
0.0
 10
134.8176106433789
 20
-153.6963893929995
 30
0.0
 10
134.8176106433789
 20
-153.7239501568815
 30
0.0
 10
134.8176106433789
 20
-153.7239501568815
 30
0.0
 10
134.8176106433789
 20
-153.9692409554313
 30
0.0
 10
134.8176106433789
 20
-153.9692409554313
 30
0.0
 10
134.8176106433789
 20
-154.013682687191
 30
0.0
 10
134.8217447579612
 20
-154.2103976393988
 30
0.0
 10
134.8258788725435
 20
-154.3626708598468
 30
0.0
 10
134.8258788725435
 20
-154.3626708598468
 30
0.0
 10
134.5995360991626
 20
-154.3626708598468
 30
0.0
 10
134.5995360991626
 20
-154.3626708598468
 30
0.0
 10
134.5995360991626
 20
-154.3626708598468
 30
0.0
 10
134.6016031564537
 20
-154.3289089240914
 30
0.0
 10
134.6016031564537
 20
-154.3289089240914
 30
0.0
 10
134.6016031564537
 20
-154.3289089240914
 30
0.0
 10
133.8994926965598
 20
-154.3289089240914
 30
0.0
 10
133.8994926965598
 20
-154.3289089240914
 30
0.0
 10
133.8994926965598
 20
-154.3289089240914
 30
0.0
 10
133.901559753851
 20
-154.3626708598468
 30
0.0
 10
133.901559753851
 20
-154.3626708598468
 30
0.0
 10
133.901559753851
 20
-154.3626708598468
 30
0.0
 10
133.6834852096347
 20
-154.3626708598468
 30
0.0
 10
133.6834852096347
 20
-154.3626708598468
 30
0.0
 10
133.6879638337655
 20
-154.3078938416313
 30
0.0
 10
133.6879638337655
 20
-154.2951469883359
 30
0.0
 10
133.6941650056389
 20
-154.1807698182256
 30
0.0
 10
133.6962320629301
 20
-154.1532090543436
 30
0.0
 10
133.6982991202212
 20
-154.020228368613
 30
0.0
 10
133.6982991202212
 20
-154.0009358338956
 30
0.0
 10
133.6982991202212
 20
-154.0009358338956
 30
0.0
 10
133.6982991202212
 20
-153.7980197098144
 30
0.0
 10
133.6982991202212
 20
-153.7980197098144
 30
0.0
 10
133.5587727530686
 20
-154.0474446229465
 30
0.0
 10
133.3896185647428
 20
-154.1787027609345
 30
0.0
 10
133.2838541333457
 20
-154.2441595751542
 30
0.0
 10
133.2838541333457
 20
-154.2441595751542
 30
0.0
 10
133.1102213208891
 20
-154.1046332080016
 30
0.0
 10
133.1102213208891
 20
-154.1046332080016
 30
0.0
 10
133.1991047844085
 20
-154.0539903043684
 30
0.0
 10
133.343109775692
 20
-153.9671738981401
 30
0.0
 10
133.4805690855535
 20
-153.7725260032235
 30
0.0
 10
133.571519606364
 20
-153.6457464893663
 30
0.0
 10
133.6369764205838
 20
-153.5017414980829
 30
0.0
 10
133.6707383563392
 20
-153.3494682776348
 30
0.0
 10
133.4423285256672
 20
-153.351535334926
 30
0.0
 10
133.2624945413371
 20
-153.3577365067994
 30
0.0
 10
133.1674099059442
 20
-153.3601480736391
 30
0.0
 10
133.1674099059442
 20
-153.3601480736391
 30
0.0
 10
133.1674099059442
 20
-153.1823811466002
 30
0.0
 10
133.1674099059442
 20
-153.1823811466002
 30
0.0
 10
133.364124858152
 20
-153.1885823184737
 30
0.0
 10
133.6476562165881
 20
-153.1930609426045
 30
0.0
 10
133.797862379745
 20
-153.1930609426045
 30
0.0
 10
133.797862379745
 20
-153.1930609426045
 30
0.0
 10
134.0114582998304
 20
-153.1930609426045
 30
0.0
 10
134.0114582998304
 20
-153.1930609426045
 30
0.0
 10
134.0114582998304
 20
-153.1930609426045
 30
0.0
 10
134.0114582998304
 20
-153.0848849443676
 30
0.0
 10
134.0114582998304
 20
-153.0848849443676
 30
0.0
 10
134.0114582998304
 20
-153.0848849443676
 30
0.0
 10
133.8653862512559
 20
-153.0848849443676
 30
0.0
 10
133.8653862512559
 20
-153.0848849443676
 30
0.0
 10
133.6962320629301
 20
-153.0848849443676
 30
0.0
 10
133.5270778746043
 20
-153.0893635684985
 30
0.0
 10
133.3599907435697
 20
-153.0955647403719
 30
0.0
 10
133.3599907435697
 20
-153.0955647403719
 30
0.0
 10
133.3599907435697
 20
-152.924343494755
 30
0.0
 10
133.3599907435697
 20
-152.924343494755
 30
0.0
 10
133.5143310213089
 20
-152.9346787812108
 30
0.0
 10
133.7003661775124
 20
-152.9346787812108
 30
0.0
 10
133.8653862512559
 20
-152.9346787812108
 30
0.0
 10
133.8653862512559
 20
-152.9346787812108
 30
0.0
 10
134.0114582998304
 20
-152.9346787812108
 30
0.0
 10
134.0114582998304
 20
-152.9346787812108
 30
0.0
 10
134.0114582998304
 20
-152.9346787812108
 30
0.0
 10
134.0114582998304
 20
-152.8161674965182
 30
0.0
 10
134.0114582998304
 20
-152.8161674965182
 30
0.0
 10
134.0114582998304
 20
-152.8161674965182
 30
0.0
 10
133.8802001618424
 20
-152.8161674965182
 30
0.0
 10
133.8802001618424
 20
-152.8161674965182
 30
0.0
 10
133.8336913727915
 20
-152.8161674965182
 30
0.0
 10
133.6307752487103
 20
-152.8247802352313
 30
0.0
 10
133.5884005742418
 20
-152.8247802352313
 30
0.0
 10
133.3854844501606
 20
-152.8289143498136
 30
0.0
 10
133.309003330388
 20
-152.8309814071047
 30
0.0
 10
133.2307996628729
 20
-152.8333929739444
 30
0.0
 10
133.2307996628729
 20
-152.8333929739444
 30
0.0
 10
133.2307996628729
 20
-152.6490803654835
 30
0.0
 10
133.2307996628729
 20
-152.6490803654835
 30
0.0
 10
133.3451768329831
 20
-152.6576931041967
 30
0.0
 10
133.3896185647428
 20
-152.6576931041967
 30
0.0
 10
133.7723686731541
 20
-152.6663058429098
 30
0.0
 10
133.7089789162255
 20
-152.5708766979684
 30
0.0
 10
133.6814181523435
 20
-152.5433159340864
 30
0.0
 10
133.6455891592969
 20
-152.5074869410398
 30
0.0
 10
133.6455891592969
 20
-152.5074869410398
 30
0.0
 10
133.8209445194961
 20
-152.4248046493938
 30
0.0
 10
133.8209445194961
 20
-152.4248046493938
 30
0.0
 10
133.8612521366736
 20
-152.4609781519889
 30
0.0
 10
133.9056938684333
 20
-152.5033528264575
 30
0.0
 10
133.9797634213662
 20
-152.613251372437
 30
0.0
 10
133.9797634213662
 20
-152.613251372437
 30
0.0
 10
133.8653862512559
 20
-152.668372900201
 30
0.0
 10
133.8653862512559
 20
-152.668372900201
 30
0.0
 10
133.8653862512559
 20
-152.668372900201
 30
0.0
 10
133.8760660472601
 20
-152.668372900201
 30
0.0
 10
133.8760660472601
 20
-152.668372900201
 30
0.0
 10
133.8760660472601
 20
-152.668372900201
 30
0.0
 10
134.3986870323725
 20
-152.668372900201
 30
0.0
 10
134.3986870323725
 20
-152.668372900201
 30
0.0
 10
134.3986870323725
 20
-152.668372900201
 30
0.0
 10
134.3036023969796
 20
-152.6239311684412
 30
0.0
 10
134.3036023969796
 20
-152.6239311684412
 30
0.0
 10
134.3308186513131
 20
-152.5856906085549
 30
0.0
 10
134.3880072363683
 20
-152.5054198837486
 30
0.0
 10
134.4028211469548
 20
-152.4313503308158
 30
0.0
 10
134.4028211469548
 20
-152.4313503308158
 30
0.0
 10
134.6164170670403
 20
-152.4947400877444
 30
0.0
 10
134.6164170670403
 20
-152.4947400877444
 30
0.0
 10
134.6250298057535
 20
-152.4968071450355
 30
0.0
 10
134.6460448882135
 20
-152.5074869410398
 30
0.0
 10
134.6460448882135
 20
-152.5285020234998
 30
0.0
 10
134.6460448882135
 20
-152.5667425833861
 30
0.0
 10
134.5805880739937
 20
-152.5667425833861
 30
0.0
 10
134.5616400488248
 20
-152.5667425833861
 30
0.0
 10
134.5509602528206
 20
-152.5856906085549
 30
0.0
 10
134.5275336035209
 20
-152.6259982257324
 30
0.0
 10
134.4979057823477
 20
-152.6663058429098
 30
0.0
 10
134.8978813681853
 20
-152.6597601614878
 30
0.0
 10
134.9275091893584
 20
-152.6576931041967
 30
0.0
 10
135.0036457995824
 20
-152.6514919323232
 30
0.0
 10
135.0036457995824
 20
-152.6514919323232
 30
0.0
 10
135.0036457995824
 20
-152.8333929739444
 30
0.0
 10
135.0036457995824
 20
-152.8333929739444
 30
0.0
 10
134.9846977744135
 20
-152.8333929739444
 30
0.0
 10
134.9592040678227
 20
-152.8309814071047
 30
0.0
 10
134.7394069758637
 20
-152.8227131779401
 30
0.0
 10
134.688419562682
 20
-152.820646120649
 30
0.0
 10
134.4686224707231
 20
-152.8161674965182
 30
0.0
 10
134.4241807389634
 20
-152.8161674965182
 30
0.0
 10
134.4241807389634
 20
-152.8161674965182
 30
0.0
 10
134.2081732520382
 20
-152.8161674965182
 30
0.0
 10
134.2081732520382
 20
-152.8161674965182
 30
0.0
 10
134.2081732520382
 20
-152.8161674965182
 30
0.0
 10
134.2081732520382
 20
-152.9346787812108
 30
0.0
 10
134.2081732520382
 20
-152.9346787812108
 30
0.0
 10
134.2081732520382
 20
-152.9346787812108
 30
0.0
 10
134.3818060644948
 20
-152.9346787812108
 30
0.0
 10
134.3818060644948
 20
-152.9346787812108
 30
0.0
 10
134.5447590809471
 20
-152.9346787812108
 30
0.0
 10
134.7349283517329
 20
-152.9346787812108
 30
0.0
 10
134.8916801963118
 20
-152.924343494755
 30
0.0
 10
134.8916801963118
 20
-152.924343494755
 30
0.0
 10
134.8916801963118
 20
-153.0955647403719
 30
0.0
 10
134.8916801963118
 20
-153.0955647403719
 30
0.0
 10
134.6822183908086
 20
-153.0869520016588
 30
0.0
 10
134.4855034386008
 20
-153.0848849443676
 30
0.0
 10
134.3818060644948
 20
-153.0848849443676
 30
0.0
 10
134.3818060644948
 20
-153.0848849443676
 30
0.0
 10
134.2081732520382
 20
-153.0848849443676
 30
0.0
 10
134.2081732520382
 20
-153.0848849443676
 30
0.0
 10
134.2081732520382
 20
-153.0848849443676
 30
0.0
 10
134.2081732520382
 20
-153.1930609426045
 30
0.0
 10
134.2081732520382
 20
-153.1930609426045
 30
0.0
 10
134.2081732520382
 20
-153.1930609426045
 30
0.0
 10
134.43899464955
 20
-153.1930609426045
 30
0.0
 10
134.43899464955
 20
-153.1930609426045
 30
0.0
 10
134.5719753352806
 20
-153.1930609426045
 30
0.0
 10
134.8599853178475
 20
-153.1885823184737
 30
0.0
 10
135.0691026138022
 20
-153.1823811466002
 30
0.0
 10
135.0691026138022
 20
-153.1823811466002
 30
0.0
 10
135.0691026138022
 20
-153.3601480736391
 30
0.0
 10
135.0691026138022
 20
-153.3601480736391
 30
0.0
 10
134.8768662857252
 20
-153.3536023922172
 30
0.0
 10
134.563707106116
 20
-153.3494682776348
 30
0.0
 10
134.43899464955
 20
-153.3494682776348
 30
0.0
  0
HATCH
  5
176
330
16A
100
AcDbEntity
  8
レイヤー 1
 62
    18
420
        0
440
 33554687
100
AcDbHatch
 10
0.0
 20
0.0
 30
0.0
210
0.0
220
0.0
230
1.0
  2
SOLID
 70
     1
 71
     1
 91
        4
 92
        1
 93
        1
 72
     4
 94
        3
 73
     0
 74
     0
 95
       17
 96
       13
 40
0.0
 40
0.0
 40
0.0
 40
0.0
 40
1.0
 40
1.0
 40
1.0
 40
2.0
 40
2.0
 40
2.0
 40
3.0
 40
3.0
 40
3.0
 40
4.0
 40
4.0
 40
4.0
 40
4.0
 10
134.6040147232934
 20
-154.0815510682504
 10
134.6040147232934
 20
-154.0815510682504
 10
133.8974256392687
 20
-154.0815510682504
 10
133.8974256392687
 20
-154.0815510682504
 10
133.8974256392687
 20
-154.0815510682504
 10
133.8974256392687
 20
-154.1955837288122
 10
133.8974256392687
 20
-154.1955837288122
 10
133.8974256392687
 20
-154.1955837288122
 10
134.6040147232934
 20
-154.1955837288122
 10
134.6040147232934
 20
-154.1955837288122
 10
134.6040147232934
 20
-154.1955837288122
 10
134.6040147232934
 20
-154.0815510682504
 10
134.6040147232934
 20
-154.0815510682504
 97
        0
 97
        1
330
172
 92
        1
 93
        1
 72
     4
 94
        3
 73
     0
 74
     0
 95
       17
 96
       13
 40
0.0
 40
0.0
 40
0.0
 40
0.0
 40
1.0
 40
1.0
 40
1.0
 40
2.0
 40
2.0
 40
2.0
 40
3.0
 40
3.0
 40
3.0
 40
4.0
 40
4.0
 40
4.0
 40
4.0
 10
134.6040147232934
 20
-153.8379828174432
 10
134.6040147232934
 20
-153.8379828174432
 10
133.8974256392687
 20
-153.8379828174432
 10
133.8974256392687
 20
-153.8379828174432
 10
133.8974256392687
 20
-153.8379828174432
 10
133.8974256392687
 20
-153.9523599875536
 10
133.8974256392687
 20
-153.9523599875536
 10
133.8974256392687
 20
-153.9523599875536
 10
134.6040147232934
 20
-153.9523599875536
 10
134.6040147232934
 20
-153.9523599875536
 10
134.6040147232934
 20
-153.9523599875536
 10
134.6040147232934
 20
-153.8379828174432
 10
134.6040147232934
 20
-153.8379828174432
 97
        0
 97
        1
330
173
 92
        1
 93
        1
 72
     4
 94
        3
 73
     0
 74
     0
 95
       17
 96
       13
 40
0.0
 40
0.0
 40
0.0
 40
0.0
 40
1.0
 40
1.0
 40
1.0
 40
2.0
 40
2.0
 40
2.0
 40
3.0
 40
3.0
 40
3.0
 40
4.0
 40
4.0
 40
4.0
 40
4.0
 10
134.6040147232934
 20
-153.6054388721889
 10
134.6040147232934
 20
-153.6054388721889
 10
133.8974256392687
 20
-153.6054388721889
 10
133.8974256392687
 20
-153.6054388721889
 10
133.8974256392687
 20
-153.6054388721889
 10
133.8974256392687
 20
-153.7132703608772
 10
133.8974256392687
 20
-153.7132703608772
 10
133.8974256392687
 20
-153.7132703608772
 10
134.6040147232934
 20
-153.7132703608772
 10
134.6040147232934
 20
-153.7132703608772
 10
134.6040147232934
 20
-153.7132703608772
 10
134.6040147232934
 20
-153.6054388721889
 10
134.6040147232934
 20
-153.6054388721889
 97
        0
 97
        1
330
174
 92
        1
 93
        1
 72
     4
 94
        3
 73
     0
 74
     0
 95
      203
 96
      199
 40
0.0
 40
0.0
 40
0.0
 40
0.0
 40
1.0
 40
1.0
 40
1.0
 40
2.0
 40
2.0
 40
2.0
 40
3.0
 40
3.0
 40
3.0
 40
4.0
 40
4.0
 40
4.0
 40
5.0
 40
5.0
 40
5.0
 40
6.0
 40
6.0
 40
6.0
 40
7.0
 40
7.0
 40
7.0
 40
8.0
 40
8.0
 40
8.0
 40
9.0
 40
9.0
 40
9.0
 40
10.0
 40
10.0
 40
10.0
 40
11.0
 40
11.0
 40
11.0
 40
12.0
 40
12.0
 40
12.0
 40
13.0
 40
13.0
 40
13.0
 40
14.0
 40
14.0
 40
14.0
 40
15.0
 40
15.0
 40
15.0
 40
16.0
 40
16.0
 40
16.0
 40
17.0
 40
17.0
 40
17.0
 40
18.0
 40
18.0
 40
18.0
 40
19.0
 40
19.0
 40
19.0
 40
20.0
 40
20.0
 40
20.0
 40
21.0
 40
21.0
 40
21.0
 40
22.0
 40
22.0
 40
22.0
 40
23.0
 40
23.0
 40
23.0
 40
24.0
 40
24.0
 40
24.0
 40
25.0
 40
25.0
 40
25.0
 40
26.0
 40
26.0
 40
26.0
 40
27.0
 40
27.0
 40
27.0
 40
28.0
 40
28.0
 40
28.0
 40
29.0
 40
29.0
 40
29.0
 40
30.0
 40
30.0
 40
30.0
 40
31.0
 40
31.0
 40
31.0
 40
32.0
 40
32.0
 40
32.0
 40
33.0
 40
33.0
 40
33.0
 40
34.0
 40
34.0
 40
34.0
 40
35.0
 40
35.0
 40
35.0
 40
36.0
 40
36.0
 40
36.0
 40
37.0
 40
37.0
 40
37.0
 40
38.0
 40
38.0
 40
38.0
 40
39.0
 40
39.0
 40
39.0
 40
40.0
 40
40.0
 40
40.0
 40
41.0
 40
41.0
 40
41.0
 40
42.0
 40
42.0
 40
42.0
 40
43.0
 40
43.0
 40
43.0
 40
44.0
 40
44.0
 40
44.0
 40
45.0
 40
45.0
 40
45.0
 40
46.0
 40
46.0
 40
46.0
 40
47.0
 40
47.0
 40
47.0
 40
48.0
 40
48.0
 40
48.0
 40
49.0
 40
49.0
 40
49.0
 40
50.0
 40
50.0
 40
50.0
 40
51.0
 40
51.0
 40
51.0
 40
52.0
 40
52.0
 40
52.0
 40
53.0
 40
53.0
 40
53.0
 40
54.0
 40
54.0
 40
54.0
 40
55.0
 40
55.0
 40
55.0
 40
56.0
 40
56.0
 40
56.0
 40
57.0
 40
57.0
 40
57.0
 40
58.0
 40
58.0
 40
58.0
 40
59.0
 40
59.0
 40
59.0
 40
60.0
 40
60.0
 40
60.0
 40
61.0
 40
61.0
 40
61.0
 40
62.0
 40
62.0
 40
62.0
 40
63.0
 40
63.0
 40
63.0
 40
64.0
 40
64.0
 40
64.0
 40
65.0
 40
65.0
 40
65.0
 40
66.0
 40
66.0
 40
66.0
 40
66.0
 10
134.43899464955
 20
-153.3494682776348
 10
134.43899464955
 20
-153.3494682776348
 10
133.8802001618424
 20
-153.3494682776348
 10
133.8802001618424
 20
-153.3494682776348
 10
133.8698648753867
 20
-153.3939100093945
 10
133.8612521366736
 20
-153.4256048878589
 10
133.8485052833781
 20
-153.4638454477451
 10
133.873998989969
 20
-153.4638454477451
 10
133.8888129005556
 20
-153.4659125050363
 10
133.895014072429
 20
-153.4659125050363
 10
133.895014072429
 20
-153.4659125050363
 10
134.0834607954722
 20
-153.4659125050363
 10
134.0834607954722
 20
-153.4659125050363
 10
134.0834607954722
 20
-153.4659125050363
 10
134.4579426747188
 20
-153.4659125050363
 10
134.4579426747188
 20
-153.4659125050363
 10
134.508585578352
 20
-153.4659125050363
 10
134.7921169367881
 20
-153.4531656517408
 10
134.8238118152524
 20
-153.4531656517408
 10
134.8217447579612
 20
-153.4807264156229
 10
134.8196777006701
 20
-153.4996744407917
 10
134.8196777006701
 20
-153.5293022619649
 10
134.8176106433789
 20
-153.5609971404292
 10
134.8176106433789
 20
-153.6963893929995
 10
134.8176106433789
 20
-153.7239501568815
 10
134.8176106433789
 20
-153.7239501568815
 10
134.8176106433789
 20
-153.9692409554313
 10
134.8176106433789
 20
-153.9692409554313
 10
134.8176106433789
 20
-154.013682687191
 10
134.8217447579612
 20
-154.2103976393988
 10
134.8258788725435
 20
-154.3626708598468
 10
134.8258788725435
 20
-154.3626708598468
 10
134.5995360991626
 20
-154.3626708598468
 10
134.5995360991626
 20
-154.3626708598468
 10
134.5995360991626
 20
-154.3626708598468
 10
134.6016031564537
 20
-154.3289089240914
 10
134.6016031564537
 20
-154.3289089240914
 10
134.6016031564537
 20
-154.3289089240914
 10
133.8994926965598
 20
-154.3289089240914
 10
133.8994926965598
 20
-154.3289089240914
 10
133.8994926965598
 20
-154.3289089240914
 10
133.901559753851
 20
-154.3626708598468
 10
133.901559753851
 20
-154.3626708598468
 10
133.901559753851
 20
-154.3626708598468
 10
133.6834852096347
 20
-154.3626708598468
 10
133.6834852096347
 20
-154.3626708598468
 10
133.6879638337655
 20
-154.3078938416313
 10
133.6879638337655
 20
-154.2951469883359
 10
133.6941650056389
 20
-154.1807698182256
 10
133.6962320629301
 20
-154.1532090543436
 10
133.6982991202212
 20
-154.020228368613
 10
133.6982991202212
 20
-154.0009358338956
 10
133.6982991202212
 20
-154.0009358338956
 10
133.6982991202212
 20
-153.7980197098144
 10
133.6982991202212
 20
-153.7980197098144
 10
133.5587727530686
 20
-154.0474446229465
 10
133.3896185647428
 20
-154.1787027609345
 10
133.2838541333457
 20
-154.2441595751542
 10
133.2838541333457
 20
-154.2441595751542
 10
133.1102213208891
 20
-154.1046332080016
 10
133.1102213208891
 20
-154.1046332080016
 10
133.1991047844085
 20
-154.0539903043684
 10
133.343109775692
 20
-153.9671738981401
 10
133.4805690855535
 20
-153.7725260032235
 10
133.571519606364
 20
-153.6457464893663
 10
133.6369764205838
 20
-153.5017414980829
 10
133.6707383563392
 20
-153.3494682776348
 10
133.4423285256672
 20
-153.351535334926
 10
133.2624945413371
 20
-153.3577365067994
 10
133.1674099059442
 20
-153.3601480736391
 10
133.1674099059442
 20
-153.3601480736391
 10
133.1674099059442
 20
-153.1823811466002
 10
133.1674099059442
 20
-153.1823811466002
 10
133.364124858152
 20
-153.1885823184737
 10
133.6476562165881
 20
-153.1930609426045
 10
133.797862379745
 20
-153.1930609426045
 10
133.797862379745
 20
-153.1930609426045
 10
134.0114582998304
 20
-153.1930609426045
 10
134.0114582998304
 20
-153.1930609426045
 10
134.0114582998304
 20
-153.1930609426045
 10
134.0114582998304
 20
-153.0848849443676
 10
134.0114582998304
 20
-153.0848849443676
 10
134.0114582998304
 20
-153.0848849443676
 10
133.8653862512559
 20
-153.0848849443676
 10
133.8653862512559
 20
-153.0848849443676
 10
133.6962320629301
 20
-153.0848849443676
 10
133.5270778746043
 20
-153.0893635684985
 10
133.3599907435697
 20
-153.0955647403719
 10
133.3599907435697
 20
-153.0955647403719
 10
133.3599907435697
 20
-152.924343494755
 10
133.3599907435697
 20
-152.924343494755
 10
133.5143310213089
 20
-152.9346787812108
 10
133.7003661775124
 20
-152.9346787812108
 10
133.8653862512559
 20
-152.9346787812108
 10
133.8653862512559
 20
-152.9346787812108
 10
134.0114582998304
 20
-152.9346787812108
 10
134.0114582998304
 20
-152.9346787812108
 10
134.0114582998304
 20
-152.9346787812108
 10
134.0114582998304
 20
-152.8161674965182
 10
134.0114582998304
 20
-152.8161674965182
 10
134.0114582998304
 20
-152.8161674965182
 10
133.8802001618424
 20
-152.8161674965182
 10
133.8802001618424
 20
-152.8161674965182
 10
133.8336913727915
 20
-152.8161674965182
 10
133.6307752487103
 20
-152.8247802352313
 10
133.5884005742418
 20
-152.8247802352313
 10
133.3854844501606
 20
-152.8289143498136
 10
133.309003330388
 20
-152.8309814071047
 10
133.2307996628729
 20
-152.8333929739444
 10
133.2307996628729
 20
-152.8333929739444
 10
133.2307996628729
 20
-152.6490803654835
 10
133.2307996628729
 20
-152.6490803654835
 10
133.3451768329831
 20
-152.6576931041967
 10
133.3896185647428
 20
-152.6576931041967
 10
133.7723686731541
 20
-152.6663058429098
 10
133.7089789162255
 20
-152.5708766979684
 10
133.6814181523435
 20
-152.5433159340864
 10
133.6455891592969
 20
-152.5074869410398
 10
133.6455891592969
 20
-152.5074869410398
 10
133.8209445194961
 20
-152.4248046493938
 10
133.8209445194961
 20
-152.4248046493938
 10
133.8612521366736
 20
-152.4609781519889
 10
133.9056938684333
 20
-152.5033528264575
 10
133.9797634213662
 20
-152.613251372437
 10
133.9797634213662
 20
-152.613251372437
 10
133.8653862512559
 20
-152.668372900201
 10
133.8653862512559
 20
-152.668372900201
 10
133.8653862512559
 20
-152.668372900201
 10
133.8760660472601
 20
-152.668372900201
 10
133.8760660472601
 20
-152.668372900201
 10
133.8760660472601
 20
-152.668372900201
 10
134.3986870323725
 20
-152.668372900201
 10
134.3986870323725
 20
-152.668372900201
 10
134.3986870323725
 20
-152.668372900201
 10
134.3036023969796
 20
-152.6239311684412
 10
134.3036023969796
 20
-152.6239311684412
 10
134.3308186513131
 20
-152.5856906085549
 10
134.3880072363683
 20
-152.5054198837486
 10
134.4028211469548
 20
-152.4313503308158
 10
134.4028211469548
 20
-152.4313503308158
 10
134.6164170670403
 20
-152.4947400877444
 10
134.6164170670403
 20
-152.4947400877444
 10
134.6250298057535
 20
-152.4968071450355
 10
134.6460448882135
 20
-152.5074869410398
 10
134.6460448882135
 20
-152.5285020234998
 10
134.6460448882135
 20
-152.5667425833861
 10
134.5805880739937
 20
-152.5667425833861
 10
134.5616400488248
 20
-152.5667425833861
 10
134.5509602528206
 20
-152.5856906085549
 10
134.5275336035209
 20
-152.6259982257324
 10
134.4979057823477
 20
-152.6663058429098
 10
134.8978813681853
 20
-152.6597601614878
 10
134.9275091893584
 20
-152.6576931041967
 10
135.0036457995824
 20
-152.6514919323232
 10
135.0036457995824
 20
-152.6514919323232
 10
135.0036457995824
 20
-152.8333929739444
 10
135.0036457995824
 20
-152.8333929739444
 10
134.9846977744135
 20
-152.8333929739444
 10
134.9592040678227
 20
-152.8309814071047
 10
134.7394069758637
 20
-152.8227131779401
 10
134.688419562682
 20
-152.820646120649
 10
134.4686224707231
 20
-152.8161674965182
 10
134.4241807389634
 20
-152.8161674965182
 10
134.4241807389634
 20
-152.8161674965182
 10
134.2081732520382
 20
-152.8161674965182
 10
134.2081732520382
 20
-152.8161674965182
 10
134.2081732520382
 20
-152.8161674965182
 10
134.2081732520382
 20
-152.9346787812108
 10
134.2081732520382
 20
-152.9346787812108
 10
134.2081732520382
 20
-152.9346787812108
 10
134.3818060644948
 20
-152.9346787812108
 10
134.3818060644948
 20
-152.9346787812108
 10
134.5447590809471
 20
-152.9346787812108
 10
134.7349283517329
 20
-152.9346787812108
 10
134.8916801963118
 20
-152.924343494755
 10
134.8916801963118
 20
-152.924343494755
 10
134.8916801963118
 20
-153.0955647403719
 10
134.8916801963118
 20
-153.0955647403719
 10
134.6822183908086
 20
-153.0869520016588
 10
134.4855034386008
 20
-153.0848849443676
 10
134.3818060644948
 20
-153.0848849443676
 10
134.3818060644948
 20
-153.0848849443676
 10
134.2081732520382
 20
-153.0848849443676
 10
134.2081732520382
 20
-153.0848849443676
 10
134.2081732520382
 20
-153.0848849443676
 10
134.2081732520382
 20
-153.1930609426045
 10
134.2081732520382
 20
-153.1930609426045
 10
134.2081732520382
 20
-153.1930609426045
 10
134.43899464955
 20
-153.1930609426045
 10
134.43899464955
 20
-153.1930609426045
 10
134.5719753352806
 20
-153.1930609426045
 10
134.8599853178475
 20
-153.1885823184737
 10
135.0691026138022
 20
-153.1823811466002
 10
135.0691026138022
 20
-153.1823811466002
 10
135.0691026138022
 20
-153.3601480736391
 10
135.0691026138022
 20
-153.3601480736391
 10
134.8768662857252
 20
-153.3536023922172
 10
134.563707106116
 20
-153.3494682776348
 10
134.43899464955
 20
-153.3494682776348
 97
        0
 97
        1
330
175
 75
     2
 76
     1
 98
        1
 10
0.0
 20
0.0
450
        0
451
        0
460
0.0
461
0.0
452
        0
462
0.0
453
        0
470

  0
SPLINE
  5
177
330
16A
100
AcDbEntity
  8
レイヤー 1
100
AcDbSpline
210
0.0
220
0.0
230
1.0
 70
     9
 71
     3
 72
    29
 73
    25
 74
     0
 42
0.0000000001
 43
0.0000000001
 40
0.0
 40
0.0
 40
0.0
 40
0.0
 40
1.0
 40
1.0
 40
1.0
 40
2.0
 40
2.0
 40
2.0
 40
3.0
 40
3.0
 40
3.0
 40
4.0
 40
4.0
 40
4.0
 40
5.0
 40
5.0
 40
5.0
 40
6.0
 40
6.0
 40
6.0
 40
7.0
 40
7.0
 40
7.0
 40
8.0
 40
8.0
 40
8.0
 40
8.0
 10
136.3141601221715
 20
-152.7972194713493
 30
0.0
 10
136.3141601221715
 20
-152.7972194713493
 30
0.0
 10
135.9610378349333
 20
-152.7972194713493
 30
0.0
 10
135.9610378349333
 20
-152.7972194713493
 30
0.0
 10
135.8487277221142
 20
-152.7972194713493
 30
0.0
 10
135.7092013549616
 20
-152.8037651527713
 30
0.0
 10
135.6013698662732
 20
-152.8161674965182
 30
0.0
 10
135.6013698662732
 20
-152.8161674965182
 30
0.0
 10
135.6013698662732
 20
-152.5815564939726
 30
0.0
 10
135.6013698662732
 20
-152.5815564939726
 30
0.0
 10
135.7195366414173
 20
-152.5963704045592
 30
0.0
 10
135.9038492498782
 20
-152.6005045191415
 30
0.0
 10
135.9610378349333
 20
-152.6005045191415
 30
0.0
 10
135.9610378349333
 20
-152.6005045191415
 30
0.0
 10
136.3141601221715
 20
-152.6005045191415
 30
0.0
 10
136.3141601221715
 20
-152.6005045191415
 30
0.0
 10
136.3331081473403
 20
-152.6005045191415
 30
0.0
 10
136.5363687809701
 20
-152.6005045191415
 30
0.0
 10
136.6779622054138
 20
-152.5815564939726
 30
0.0
 10
136.6779622054138
 20
-152.5815564939726
 30
0.0
 10
136.6779622054138
 20
-152.8161674965182
 30
0.0
 10
136.6779622054138
 20
-152.8161674965182
 30
0.0
 10
136.5215548703835
 20
-152.7972194713493
 30
0.0
 10
136.3310410900492
 20
-152.7972194713493
 30
0.0
 10
136.3141601221715
 20
-152.7972194713493
 30
0.0
  0
SPLINE
  5
178
330
16A
100
AcDbEntity
  8
レイヤー 1
100
AcDbSpline
210
0.0
220
0.0
230
1.0
 70
     9
 71
     3
 72
    47
 73
    43
 74
     0
 42
0.0000000001
 43
0.0000000001
 40
0.0
 40
0.0
 40
0.0
 40
0.0
 40
1.0
 40
1.0
 40
1.0
 40
2.0
 40
2.0
 40
2.0
 40
3.0
 40
3.0
 40
3.0
 40
4.0
 40
4.0
 40
4.0
 40
5.0
 40
5.0
 40
5.0
 40
6.0
 40
6.0
 40
6.0
 40
7.0
 40
7.0
 40
7.0
 40
8.0
 40
8.0
 40
8.0
 40
9.0
 40
9.0
 40
9.0
 40
10.0
 40
10.0
 40
10.0
 40
11.0
 40
11.0
 40
11.0
 40
12.0
 40
12.0
 40
12.0
 40
13.0
 40
13.0
 40
13.0
 40
14.0
 40
14.0
 40
14.0
 40
14.0
 10
136.4157904389863
 20
-153.3260416283351
 30
0.0
 10
136.4157904389863
 20
-153.3260416283351
 30
0.0
 10
136.3141601221715
 20
-153.3260416283351
 30
0.0
 10
136.3141601221715
 20
-153.3260416283351
 30
0.0
 10
136.3141601221715
 20
-153.4128580345635
 30
0.0
 10
136.2931450397114
 20
-153.8021538243967
 30
0.0
 10
136.0960855779551
 20
-154.0222954259041
 30
0.0
 10
135.9438123575071
 20
-154.1914496142299
 30
0.0
 10
135.7367621188436
 20
-154.2613850525805
 30
0.0
 10
135.6520127699064
 20
-154.2886013069139
 30
0.0
 10
135.6520127699064
 20
-154.2886013069139
 30
0.0
 10
135.4573648749898
 20
-154.1215141758793
 30
0.0
 10
135.4573648749898
 20
-154.1215141758793
 30
0.0
 10
135.5545165676739
 20
-154.1087673225839
 30
0.0
 10
135.7302164374216
 20
-154.0856851828327
 30
0.0
 10
135.9186631604647
 20
-153.8972384597895
 30
0.0
 10
135.9927327133976
 20
-153.8255804736964
 30
0.0
 10
136.0960855779551
 20
-153.6857095969952
 30
0.0
 10
136.0960855779551
 20
-153.3260416283351
 30
0.0
 10
136.0960855779551
 20
-153.3260416283351
 30
0.0
 10
135.8656086899919
 20
-153.3260416283351
 30
0.0
 10
135.8656086899919
 20
-153.3260416283351
 30
0.0
 10
135.6795735337884
 20
-153.3260416283351
 30
0.0
 10
135.4931938680364
 20
-153.330520252466
 30
0.0
 10
135.3071587118329
 20
-153.3453341630526
 30
0.0
 10
135.3071587118329
 20
-153.3453341630526
 30
0.0
 10
135.3071587118329
 20
-153.1251925615451
 30
0.0
 10
135.3071587118329
 20
-153.1251925615451
 30
0.0
 10
135.4956054348761
 20
-153.1400064721316
 30
0.0
 10
135.7812038506033
 20
-153.1441405867139
 30
0.0
 10
135.8656086899919
 20
-153.1441405867139
 30
0.0
 10
135.8656086899919
 20
-153.1441405867139
 30
0.0
 10
136.4157904389863
 20
-153.1441405867139
 30
0.0
 10
136.4157904389863
 20
-153.1441405867139
 30
0.0
 10
136.4347384641552
 20
-153.1441405867139
 30
0.0
 10
136.7520317583467
 20
-153.1441405867139
 30
0.0
 10
136.9804415890188
 20
-153.1251925615451
 30
0.0
 10
136.9804415890188
 20
-153.1251925615451
 30
0.0
 10
136.9804415890188
 20
-153.3453341630526
 30
0.0
 10
136.9804415890188
 20
-153.3453341630526
 30
0.0
 10
136.7923393755241
 20
-153.330520252466
 30
0.0
 10
136.6038926524809
 20
-153.3260416283351
 30
0.0
 10
136.4157904389863
 20
-153.3260416283351
 30
0.0
  0
HATCH
  5
179
330
16A
100
AcDbEntity
  8
レイヤー 1
 62
    18
420
        0
440
 33554687
100
AcDbHatch
 10
0.0
 20
0.0
 30
0.0
210
0.0
220
0.0
230
1.0
  2
SOLID
 70
     1
 71
     1
 91
        2
 92
        1
 93
        1
 72
     4
 94
        3
 73
     0
 74
     0
 95
       29
 96
       25
 40
0.0
 40
0.0
 40
0.0
 40
0.0
 40
1.0
 40
1.0
 40
1.0
 40
2.0
 40
2.0
 40
2.0
 40
3.0
 40
3.0
 40
3.0
 40
4.0
 40
4.0
 40
4.0
 40
5.0
 40
5.0
 40
5.0
 40
6.0
 40
6.0
 40
6.0
 40
7.0
 40
7.0
 40
7.0
 40
8.0
 40
8.0
 40
8.0
 40
8.0
 10
136.3141601221715
 20
-152.7972194713493
 10
136.3141601221715
 20
-152.7972194713493
 10
135.9610378349333
 20
-152.7972194713493
 10
135.9610378349333
 20
-152.7972194713493
 10
135.8487277221142
 20
-152.7972194713493
 10
135.7092013549616
 20
-152.8037651527713
 10
135.6013698662732
 20
-152.8161674965182
 10
135.6013698662732
 20
-152.8161674965182
 10
135.6013698662732
 20
-152.5815564939726
 10
135.6013698662732
 20
-152.5815564939726
 10
135.7195366414173
 20
-152.5963704045592
 10
135.9038492498782
 20
-152.6005045191415
 10
135.9610378349333
 20
-152.6005045191415
 10
135.9610378349333
 20
-152.6005045191415
 10
136.3141601221715
 20
-152.6005045191415
 10
136.3141601221715
 20
-152.6005045191415
 10
136.3331081473403
 20
-152.6005045191415
 10
136.5363687809701
 20
-152.6005045191415
 10
136.6779622054138
 20
-152.5815564939726
 10
136.6779622054138
 20
-152.5815564939726
 10
136.6779622054138
 20
-152.8161674965182
 10
136.6779622054138
 20
-152.8161674965182
 10
136.5215548703835
 20
-152.7972194713493
 10
136.3310410900492
 20
-152.7972194713493
 10
136.3141601221715
 20
-152.7972194713493
 97
        0
 97
        1
330
177
 92
        1
 93
        1
 72
     4
 94
        3
 73
     0
 74
     0
 95
       47
 96
       43
 40
0.0
 40
0.0
 40
0.0
 40
0.0
 40
1.0
 40
1.0
 40
1.0
 40
2.0
 40
2.0
 40
2.0
 40
3.0
 40
3.0
 40
3.0
 40
4.0
 40
4.0
 40
4.0
 40
5.0
 40
5.0
 40
5.0
 40
6.0
 40
6.0
 40
6.0
 40
7.0
 40
7.0
 40
7.0
 40
8.0
 40
8.0
 40
8.0
 40
9.0
 40
9.0
 40
9.0
 40
10.0
 40
10.0
 40
10.0
 40
11.0
 40
11.0
 40
11.0
 40
12.0
 40
12.0
 40
12.0
 40
13.0
 40
13.0
 40
13.0
 40
14.0
 40
14.0
 40
14.0
 40
14.0
 10
136.4157904389863
 20
-153.3260416283351
 10
136.4157904389863
 20
-153.3260416283351
 10
136.3141601221715
 20
-153.3260416283351
 10
136.3141601221715
 20
-153.3260416283351
 10
136.3141601221715
 20
-153.4128580345635
 10
136.2931450397114
 20
-153.8021538243967
 10
136.0960855779551
 20
-154.0222954259041
 10
135.9438123575071
 20
-154.1914496142299
 10
135.7367621188436
 20
-154.2613850525805
 10
135.6520127699064
 20
-154.2886013069139
 10
135.6520127699064
 20
-154.2886013069139
 10
135.4573648749898
 20
-154.1215141758793
 10
135.4573648749898
 20
-154.1215141758793
 10
135.5545165676739
 20
-154.1087673225839
 10
135.7302164374216
 20
-154.0856851828327
 10
135.9186631604647
 20
-153.8972384597895
 10
135.9927327133976
 20
-153.8255804736964
 10
136.0960855779551
 20
-153.6857095969952
 10
136.0960855779551
 20
-153.3260416283351
 10
136.0960855779551
 20
-153.3260416283351
 10
135.8656086899919
 20
-153.3260416283351
 10
135.8656086899919
 20
-153.3260416283351
 10
135.6795735337884
 20
-153.3260416283351
 10
135.4931938680364
 20
-153.330520252466
 10
135.3071587118329
 20
-153.3453341630526
 10
135.3071587118329
 20
-153.3453341630526
 10
135.3071587118329
 20
-153.1251925615451
 10
135.3071587118329
 20
-153.1251925615451
 10
135.4956054348761
 20
-153.1400064721316
 10
135.7812038506033
 20
-153.1441405867139
 10
135.8656086899919
 20
-153.1441405867139
 10
135.8656086899919
 20
-153.1441405867139
 10
136.4157904389863
 20
-153.1441405867139
 10
136.4157904389863
 20
-153.1441405867139
 10
136.4347384641552
 20
-153.1441405867139
 10
136.7520317583467
 20
-153.1441405867139
 10
136.9804415890188
 20
-153.1251925615451
 10
136.9804415890188
 20
-153.1251925615451
 10
136.9804415890188
 20
-153.3453341630526
 10
136.9804415890188
 20
-153.3453341630526
 10
136.7923393755241
 20
-153.330520252466
 10
136.6038926524809
 20
-153.3260416283351
 10
136.4157904389863
 20
-153.3260416283351
 97
        0
 97
        1
330
178
 75
     2
 76
     1
 98
        1
 10
0.0
 20
0.0
450
        0
451
        0
460
0.0
461
0.0
452
        0
462
0.0
453
        0
470

  0
SPLINE
  5
17A
330
16A
100
AcDbEntity
  8
レイヤー 1
100
AcDbSpline
210
0.0
220
0.0
230
1.0
 70
     9
 71
     3
 72
    29
 73
    25
 74
     0
 42
0.0000000001
 43
0.0000000001
 40
0.0
 40
0.0
 40
0.0
 40
0.0
 40
1.0
 40
1.0
 40
1.0
 40
2.0
 40
2.0
 40
2.0
 40
3.0
 40
3.0
 40
3.0
 40
4.0
 40
4.0
 40
4.0
 40
5.0
 40
5.0
 40
5.0
 40
6.0
 40
6.0
 40
6.0
 40
7.0
 40
7.0
 40
7.0
 40
8.0
 40
8.0
 40
8.0
 40
8.0
 10
138.2616725999832
 20
-153.4889946447875
 30
0.0
 10
138.2616725999832
 20
-153.4889946447875
 30
0.0
 10
137.777292174757
 20
-153.4889946447875
 30
0.0
 10
137.777292174757
 20
-153.4889946447875
 30
0.0
 10
137.7497314108751
 20
-153.4889946447875
 30
0.0
 10
137.4324381166835
 20
-153.4889946447875
 30
0.0
 10
137.2209092538892
 20
-153.5144883513783
 30
0.0
 10
137.2209092538892
 20
-153.5144883513783
 30
0.0
 10
137.2209092538892
 20
-153.2840114634151
 30
0.0
 10
137.2209092538892
 20
-153.2840114634151
 30
0.0
 10
137.3793836462107
 20
-153.3070936031663
 30
0.0
 10
137.569897426545
 20
-153.3091606604574
 30
0.0
 10
137.777292174757
 20
-153.3091606604574
 30
0.0
 10
137.777292174757
 20
-153.3091606604574
 30
0.0
 10
138.2616725999832
 20
-153.3091606604574
 30
0.0
 10
138.2616725999832
 20
-153.3091606604574
 30
0.0
 10
138.4477077561867
 20
-153.3091606604574
 30
0.0
 10
138.6340874219387
 20
-153.3070936031663
 30
0.0
 10
138.818055520851
 20
-153.2840114634151
 30
0.0
 10
138.818055520851
 20
-153.2840114634151
 30
0.0
 10
138.818055520851
 20
-153.5144883513783
 30
0.0
 10
138.818055520851
 20
-153.5144883513783
 30
0.0
 10
138.6340874219387
 20
-153.4910617020786
 30
0.0
 10
138.3863850565492
 20
-153.4889946447875
 30
0.0
 10
138.2616725999832
 20
-153.4889946447875
 30
0.0
  0
HATCH
  5
17B
330
16A
100
AcDbEntity
  8
レイヤー 1
 62
    18
420
        0
440
 33554687
100
AcDbHatch
 10
0.0
 20
0.0
 30
0.0
210
0.0
220
0.0
230
1.0
  2
SOLID
 70
     1
 71
     1
 91
        1
 92
        1
 93
        1
 72
     4
 94
        3
 73
     0
 74
     0
 95
       29
 96
       25
 40
0.0
 40
0.0
 40
0.0
 40
0.0
 40
1.0
 40
1.0
 40
1.0
 40
2.0
 40
2.0
 40
2.0
 40
3.0
 40
3.0
 40
3.0
 40
4.0
 40
4.0
 40
4.0
 40
5.0
 40
5.0
 40
5.0
 40
6.0
 40
6.0
 40
6.0
 40
7.0
 40
7.0
 40
7.0
 40
8.0
 40
8.0
 40
8.0
 40
8.0
 10
138.2616725999832
 20
-153.4889946447875
 10
138.2616725999832
 20
-153.4889946447875
 10
137.777292174757
 20
-153.4889946447875
 10
137.777292174757
 20
-153.4889946447875
 10
137.7497314108751
 20
-153.4889946447875
 10
137.4324381166835
 20
-153.4889946447875
 10
137.2209092538892
 20
-153.5144883513783
 10
137.2209092538892
 20
-153.5144883513783
 10
137.2209092538892
 20
-153.2840114634151
 10
137.2209092538892
 20
-153.2840114634151
 10
137.3793836462107
 20
-153.3070936031663
 10
137.569897426545
 20
-153.3091606604574
 10
137.777292174757
 20
-153.3091606604574
 10
137.777292174757
 20
-153.3091606604574
 10
138.2616725999832
 20
-153.3091606604574
 10
138.2616725999832
 20
-153.3091606604574
 10
138.4477077561867
 20
-153.3091606604574
 10
138.6340874219387
 20
-153.3070936031663
 10
138.818055520851
 20
-153.2840114634151
 10
138.818055520851
 20
-153.2840114634151
 10
138.818055520851
 20
-153.5144883513783
 10
138.818055520851
 20
-153.5144883513783
 10
138.6340874219387
 20
-153.4910617020786
 10
138.3863850565492
 20
-153.4889946447875
 10
138.2616725999832
 20
-153.4889946447875
 97
        0
 97
        1
330
17A
 75
     2
 76
     1
 98
        1
 10
0.0
 20
0.0
450
        0
451
        0
460
0.0
461
0.0
452
        0
462
0.0
453
        0
470

  0
SPLINE
  5
17C
330
16A
100
AcDbEntity
  8
レイヤー 1
100
AcDbSpline
210
0.0
220
0.0
230
1.0
 70
     9
 71
     3
 72
    47
 73
    43
 74
     0
 42
0.0000000001
 43
0.0000000001
 40
0.0
 40
0.0
 40
0.0
 40
0.0
 40
1.0
 40
1.0
 40
1.0
 40
2.0
 40
2.0
 40
2.0
 40
3.0
 40
3.0
 40
3.0
 40
4.0
 40
4.0
 40
4.0
 40
5.0
 40
5.0
 40
5.0
 40
6.0
 40
6.0
 40
6.0
 40
7.0
 40
7.0
 40
7.0
 40
8.0
 40
8.0
 40
8.0
 40
9.0
 40
9.0
 40
9.0
 40
10.0
 40
10.0
 40
10.0
 40
11.0
 40
11.0
 40
11.0
 40
12.0
 40
12.0
 40
12.0
 40
13.0
 40
13.0
 40
13.0
 40
14.0
 40
14.0
 40
14.0
 40
14.0
 10
140.4816921306782
 20
-152.8947156735819
 30
0.0
 10
140.4117566923276
 20
-153.1737684078871
 30
0.0
 10
140.3356200821036
 20
-153.4786593583317
 30
0.0
 10
140.0224609024944
 20
-153.8107665631098
 30
0.0
 10
139.7857828426577
 20
-154.0601914762419
 30
0.0
 10
139.5401475345594
 20
-154.1597547357656
 30
0.0
 10
139.4343831031622
 20
-154.2021294102342
 30
0.0
 10
139.4343831031622
 20
-154.2021294102342
 30
0.0
 10
139.2397352082456
 20
-154.020228368613
 30
0.0
 10
139.2397352082456
 20
-154.020228368613
 30
0.0
 10
139.4261148739976
 20
-153.9733750700136
 30
0.0
 10
139.7878498999489
 20
-153.8803574919118
 30
0.0
 10
140.0837836021318
 20
-153.3852972706814
 30
0.0
 10
140.244669561293
 20
-153.1189913896716
 30
0.0
 10
140.2574164145884
 20
-152.945358577215
 30
0.0
 10
140.2660291533015
 20
-152.8544080564044
 30
0.0
 10
140.2660291533015
 20
-152.8544080564044
 30
0.0
 10
139.7602891360669
 20
-152.8544080564044
 30
0.0
 10
139.7602891360669
 20
-152.8544080564044
 30
0.0
 10
139.6417778513743
 20
-152.8544080564044
 30
0.0
 10
139.2207871830767
 20
-152.8733560815733
 30
0.0
 10
139.0685139626287
 20
-152.8840358775776
 30
0.0
 10
139.0685139626287
 20
-152.8840358775776
 30
0.0
 10
139.0685139626287
 20
-152.6745740720744
 30
0.0
 10
139.0685139626287
 20
-152.6745740720744
 30
0.0
 10
139.2101073870724
 20
-152.6873209253698
 30
0.0
 10
139.4874375736351
 20
-152.6914550399521
 30
0.0
 10
139.6038818010365
 20
-152.6914550399521
 30
0.0
 10
139.6038818010365
 20
-152.6914550399521
 30
0.0
 10
139.9590711455658
 20
-152.6914550399521
 30
0.0
 10
139.9590711455658
 20
-152.6914550399521
 30
0.0
 10
139.9866319094478
 20
-152.6914550399521
 30
0.0
 10
140.1475178686089
 20
-152.689387982661
 30
0.0
 10
140.2574164145884
 20
-152.6745740720744
 30
0.0
 10
140.3146049996435
 20
-152.668372900201
 30
0.0
 10
140.3314859675213
 20
-152.6490803654835
 30
0.0
 10
140.3545681072725
 20
-152.6259982257324
 30
0.0
 10
140.3545681072725
 20
-152.6259982257324
 30
0.0
 10
140.5430148303156
 20
-152.7762043888893
 30
0.0
 10
140.5430148303156
 20
-152.7762043888893
 30
0.0
 10
140.5282009197291
 20
-152.8058322100624
 30
0.0
 10
140.5175211237248
 20
-152.8247802352313
 30
0.0
 10
140.4816921306782
 20
-152.8947156735819
 30
0.0
  0
HATCH
  5
17D
330
16A
100
AcDbEntity
  8
レイヤー 1
 62
    18
420
        0
440
 33554687
100
AcDbHatch
 10
0.0
 20
0.0
 30
0.0
210
0.0
220
0.0
230
1.0
  2
SOLID
 70
     1
 71
     1
 91
        1
 92
        1
 93
        1
 72
     4
 94
        3
 73
     0
 74
     0
 95
       47
 96
       43
 40
0.0
 40
0.0
 40
0.0
 40
0.0
 40
1.0
 40
1.0
 40
1.0
 40
2.0
 40
2.0
 40
2.0
 40
3.0
 40
3.0
 40
3.0
 40
4.0
 40
4.0
 40
4.0
 40
5.0
 40
5.0
 40
5.0
 40
6.0
 40
6.0
 40
6.0
 40
7.0
 40
7.0
 40
7.0
 40
8.0
 40
8.0
 40
8.0
 40
9.0
 40
9.0
 40
9.0
 40
10.0
 40
10.0
 40
10.0
 40
11.0
 40
11.0
 40
11.0
 40
12.0
 40
12.0
 40
12.0
 40
13.0
 40
13.0
 40
13.0
 40
14.0
 40
14.0
 40
14.0
 40
14.0
 10
140.4816921306782
 20
-152.8947156735819
 10
140.4117566923276
 20
-153.1737684078871
 10
140.3356200821036
 20
-153.4786593583317
 10
140.0224609024944
 20
-153.8107665631098
 10
139.7857828426577
 20
-154.0601914762419
 10
139.5401475345594
 20
-154.1597547357656
 10
139.4343831031622
 20
-154.2021294102342
 10
139.4343831031622
 20
-154.2021294102342
 10
139.2397352082456
 20
-154.020228368613
 10
139.2397352082456
 20
-154.020228368613
 10
139.4261148739976
 20
-153.9733750700136
 10
139.7878498999489
 20
-153.8803574919118
 10
140.0837836021318
 20
-153.3852972706814
 10
140.244669561293
 20
-153.1189913896716
 10
140.2574164145884
 20
-152.945358577215
 10
140.2660291533015
 20
-152.8544080564044
 10
140.2660291533015
 20
-152.8544080564044
 10
139.7602891360669
 20
-152.8544080564044
 10
139.7602891360669
 20
-152.8544080564044
 10
139.6417778513743
 20
-152.8544080564044
 10
139.2207871830767
 20
-152.8733560815733
 10
139.0685139626287
 20
-152.8840358775776
 10
139.0685139626287
 20
-152.8840358775776
 10
139.0685139626287
 20
-152.6745740720744
 10
139.0685139626287
 20
-152.6745740720744
 10
139.2101073870724
 20
-152.6873209253698
 10
139.4874375736351
 20
-152.6914550399521
 10
139.6038818010365
 20
-152.6914550399521
 10
139.6038818010365
 20
-152.6914550399521
 10
139.9590711455658
 20
-152.6914550399521
 10
139.9590711455658
 20
-152.6914550399521
 10
139.9866319094478
 20
-152.6914550399521
 10
140.1475178686089
 20
-152.689387982661
 10
140.2574164145884
 20
-152.6745740720744
 10
140.3146049996435
 20
-152.668372900201
 10
140.3314859675213
 20
-152.6490803654835
 10
140.3545681072725
 20
-152.6259982257324
 10
140.3545681072725
 20
-152.6259982257324
 10
140.5430148303156
 20
-152.7762043888893
 10
140.5430148303156
 20
-152.7762043888893
 10
140.5282009197291
 20
-152.8058322100624
 10
140.5175211237248
 20
-152.8247802352313
 10
140.4816921306782
 20
-152.8947156735819
 97
        0
 97
        1
330
17C
 75
     2
 76
     1
 98
        1
 10
0.0
 20
0.0
450
        0
451
        0
460
0.0
461
0.0
452
        0
462
0.0
453
        0
470

  0
SPLINE
  5
17E
330
16A
100
AcDbEntity
  8
レイヤー 1
100
AcDbSpline
210
0.0
220
0.0
230
1.0
 70
    11
 71
     3
 72
    17
 73
    13
 74
     0
 42
0.0000000001
 43
0.0000000001
 40
0.0
 40
0.0
 40
0.0
 40
0.0
 40
1.0
 40
1.0
 40
1.0
 40
2.0
 40
2.0
 40
2.0
 40
3.0
 40
3.0
 40
3.0
 40
4.0
 40
4.0
 40
4.0
 40
4.0
 10
140.872021449157
 20
-152.6766411293656
 30
0.0
 10
140.872021449157
 20
-152.7358967717119
 30
0.0
 10
140.9185302382078
 20
-152.7824055607627
 30
0.0
 10
140.9777858805541
 20
-152.7824055607627
 30
0.0
 10
141.0370415229004
 20
-152.7824055607627
 30
0.0
 10
141.0856173692425
 20
-152.7358967717119
 30
0.0
 10
141.0856173692425
 20
-152.6766411293656
 30
0.0
 10
141.0856173692425
 20
-152.6173854870193
 30
0.0
 10
141.0370415229004
 20
-152.5688096406772
 30
0.0
 10
140.9777858805541
 20
-152.5688096406772
 30
0.0
 10
140.9185302382078
 20
-152.5688096406772
 30
0.0
 10
140.872021449157
 20
-152.6173854870193
 30
0.0
 10
140.872021449157
 20
-152.6766411293656
 30
0.0
  0
SPLINE
  5
17F
330
16A
100
AcDbEntity
  8
レイヤー 1
100
AcDbSpline
210
0.0
220
0.0
230
1.0
 70
     9
 71
     3
 72
    17
 73
    13
 74
     0
 42
0.0000000001
 43
0.0000000001
 40
0.0
 40
0.0
 40
0.0
 40
0.0
 40
1.0
 40
1.0
 40
1.0
 40
2.0
 40
2.0
 40
2.0
 40
3.0
 40
3.0
 40
3.0
 40
4.0
 40
4.0
 40
4.0
 40
4.0
 10
141.1872476860573
 20
-152.6766411293656
 30
0.0
 10
141.1872476860573
 20
-152.7910182994759
 30
0.0
 10
141.0942301079556
 20
-152.8861029348687
 30
0.0
 10
140.9777858805541
 20
-152.8861029348687
 30
0.0
 10
140.8637532199924
 20
-152.8861029348687
 30
0.0
 10
140.7683240750509
 20
-152.7910182994759
 30
0.0
 10
140.7683240750509
 20
-152.6766411293656
 30
0.0
 10
140.7683240750509
 20
-152.5601969019641
 30
0.0
 10
140.8637532199924
 20
-152.4671793238623
 30
0.0
 10
140.9777858805541
 20
-152.4671793238623
 30
0.0
 10
141.0921630506644
 20
-152.4671793238623
 30
0.0
 10
141.1872476860573
 20
-152.5601969019641
 30
0.0
 10
141.1872476860573
 20
-152.6766411293656
 30
0.0
  0
HATCH
  5
180
330
16A
100
AcDbEntity
  8
レイヤー 1
 62
    18
420
        0
440
 33554687
100
AcDbHatch
 10
0.0
 20
0.0
 30
0.0
210
0.0
220
0.0
230
1.0
  2
SOLID
 70
     1
 71
     1
 91
        2
 92
        1
 93
        1
 72
     4
 94
        3
 73
     0
 74
     0
 95
       17
 96
       13
 40
0.0
 40
0.0
 40
0.0
 40
0.0
 40
1.0
 40
1.0
 40
1.0
 40
2.0
 40
2.0
 40
2.0
 40
3.0
 40
3.0
 40
3.0
 40
4.0
 40
4.0
 40
4.0
 40
4.0
 10
140.872021449157
 20
-152.6766411293656
 10
140.872021449157
 20
-152.7358967717119
 10
140.9185302382078
 20
-152.7824055607627
 10
140.9777858805541
 20
-152.7824055607627
 10
141.0370415229004
 20
-152.7824055607627
 10
141.0856173692425
 20
-152.7358967717119
 10
141.0856173692425
 20
-152.6766411293656
 10
141.0856173692425
 20
-152.6173854870193
 10
141.0370415229004
 20
-152.5688096406772
 10
140.9777858805541
 20
-152.5688096406772
 10
140.9185302382078
 20
-152.5688096406772
 10
140.872021449157
 20
-152.6173854870193
 10
140.872021449157
 20
-152.6766411293656
 97
        0
 97
        1
330
17E
 92
        1
 93
        1
 72
     4
 94
        3
 73
     0
 74
     0
 95
       17
 96
       13
 40
0.0
 40
0.0
 40
0.0
 40
0.0
 40
1.0
 40
1.0
 40
1.0
 40
2.0
 40
2.0
 40
2.0
 40
3.0
 40
3.0
 40
3.0
 40
4.0
 40
4.0
 40
4.0
 40
4.0
 10
141.1872476860573
 20
-152.6766411293656
 10
141.1872476860573
 20
-152.7910182994759
 10
141.0942301079556
 20
-152.8861029348687
 10
140.9777858805541
 20
-152.8861029348687
 10
140.8637532199924
 20
-152.8861029348687
 10
140.7683240750509
 20
-152.7910182994759
 10
140.7683240750509
 20
-152.6766411293656
 10
140.7683240750509
 20
-152.5601969019641
 10
140.8637532199924
 20
-152.4671793238623
 10
140.9777858805541
 20
-152.4671793238623
 10
141.0921630506644
 20
-152.4671793238623
 10
141.1872476860573
 20
-152.5601969019641
 10
141.1872476860573
 20
-152.6766411293656
 97
        0
 97
        1
330
17F
 75
     2
 76
     1
 98
        1
 10
0.0
 20
0.0
450
        0
451
        0
460
0.0
461
0.0
452
        0
462
0.0
453
        0
470

  0
ENDBLK
  5
16D
330
16A
100
AcDbEntity
  8
0
100
AcDbBlockEnd
  0
ENDSEC
  0
SECTION
  2
ENTITIES
  0
LINE
  5
79
330
70
100
AcDbEntity
  8
レイヤー 1
  6
AI-Linetype-0
 62
   154
420
    23468
370
    25
100
AcDbLine
 10
74.94035502281628
 20
-148.1583786935502
 30
0.0
 11
89.94028651054509
 21
-148.1583786935502
 31
0.0
  0
LINE
  5
7B
330
70
100
AcDbEntity
  8
レイヤー 1
  6
AI-Linetype-1
 62
   154
420
    23468
370
    25
100
AcDbLine
 10
121.9435095829637
 20
-148.1583786935502
 30
0.0
 11
136.9434439225057
 21
-148.1583786935502
 31
0.0
  0
INSERT
  5
7E
330
70
100
AcDbEntity
  8
レイヤー 1
100
AcDbBlockReference
  2
Block_0
 10
0.0
 20
0.0
 30
0.0
  0
LINE
  5
84
330
70
100
AcDbEntity
  8
レイヤー 1
 62
    18
420
        0
370
    25
100
AcDbLine
 10
116.9422497105565
 20
-153.1582275811895
 30
0.0
 11
94.94189916072111
 21
-153.1582275811895
 31
0.0
  0
LINE
  5
85
330
70
100
AcDbEntity
  8
レイヤー 1
 62
    18
420
        0
370
    25
100
AcDbLine
 10
74.94035502281628
 20
-146.6580148050365
 30
0.0
 11
74.94035502281628
 21
-147.1582536938002
 31
0.0
  0
LINE
  5
86
330
70
100
AcDbEntity
  8
レイヤー 1
 62
    18
420
        0
370
    25
100
AcDbLine
 10
95.8775716368501
 20
-147.1582536938002
 30
0.0
 11
74.94035502281628
 21
-147.1582536938002
 31
0.0
  0
LINE
  5
87
330
70
100
AcDbEntity
  8
レイヤー 1
 62
    18
420
        0
370
    25
100
AcDbLine
 10
74.94035502281628
 20
-146.6580148050365
 30
0.0
 11
75.45435224491012
 21
-147.0400731382742
 31
0.0
  0
LINE
  5
88
330
70
100
AcDbEntity
  8
レイヤー 1
 62
    18
420
        0
370
    25
100
AcDbLine
 10
75.45435224491012
 20
-147.0400731382742
 30
0.0
 11
75.9394216892333
 21
-146.6225606383785
 31
0.0
  0
LINE
  5
89
330
70
100
AcDbEntity
  8
レイヤー 1
 62
    18
420
        0
370
    25
100
AcDbLine
 10
76.45345129906736
 20
-147.0046189716165
 30
0.0
 11
76.9391939112052
 21
-146.5867184161652
 31
0.0
  0
LINE
  5
8A
330
70
100
AcDbEntity
  8
レイヤー 1
 62
    18
420
        0
370
    25
100
AcDbLine
 10
75.9394216892333
 20
-146.6225606383785
 30
0.0
 11
76.45345129906736
 21
-147.0046189716165
 31
0.0
  0
LINE
  5
8B
330
70
100
AcDbEntity
  8
レイヤー 1
 62
    18
420
        0
370
    25
100
AcDbLine
 10
76.9391939112052
 20
-146.5867184161652
 30
0.0
 11
77.45319113329935
 21
-146.9687767494033
 31
0.0
  0
LINE
  5
8C
330
70
100
AcDbEntity
  8
レイヤー 1
 62
    18
420
        0
370
    25
100
AcDbLine
 10
77.45319113329935
 20
-146.9687767494033
 30
0.0
 11
77.93826057762254
 21
-146.5512289717298
 31
0.0
  0
LINE
  5
8D
330
70
100
AcDbEntity
  8
レイヤー 1
 62
    18
420
        0
370
    25
100
AcDbLine
 10
77.93826057762254
 20
-146.5512289717298
 30
0.0
 11
78.45229013696163
 21
-146.93293452719
 31
0.0
  0
LINE
  5
8E
330
70
100
AcDbEntity
  8
レイヤー 1
 62
    18
420
        0
370
    25
100
AcDbLine
 10
78.45229013696163
 20
-146.93293452719
 30
0.0
 11
78.93803279959475
 21
-146.5153867495165
 31
0.0
  0
LINE
  5
8F
330
70
100
AcDbEntity
  8
レイヤー 1
 62
    18
420
        0
370
    25
100
AcDbLine
 10
78.93803279959475
 20
-146.5153867495165
 30
0.0
 11
79.45206233367755
 21
-146.8971275827546
 31
0.0
  0
LINE
  5
90
330
70
100
AcDbEntity
  8
レイヤー 1
 62
    18
420
        0
370
    25
100
AcDbLine
 10
79.45206233367755
 20
-146.8971275827546
 30
0.0
 11
79.93713176574683
 21
-146.4795798050811
 31
0.0
  0
LINE
  5
91
330
70
100
AcDbEntity
  8
レイヤー 1
 62
    18
420
        0
370
    25
100
AcDbLine
 10
79.93713176574683
 20
-146.4795798050811
 30
0.0
 11
80.45112897485589
 21
-146.8616381383188
 31
0.0
  0
LINE
  5
92
330
70
100
AcDbEntity
  8
レイヤー 1
 62
    18
420
        0
370
    25
100
AcDbLine
 10
80.45112897485589
 20
-146.8616381383188
 30
0.0
 11
80.936871687984
 21
-146.4440903606456
 31
0.0
  0
LINE
  5
93
330
70
100
AcDbEntity
  8
レイヤー 1
 62
    18
420
        0
370
    25
100
AcDbLine
 10
80.936871687984
 20
-146.4440903606456
 30
0.0
 11
81.45019561603424
 21
-146.8261486938833
 31
0.0
  0
LINE
  5
94
330
70
100
AcDbEntity
  8
レイヤー 1
 62
    18
420
        0
370
    25
100
AcDbLine
 10
81.45019561603424
 20
-146.8261486938833
 30
0.0
 11
81.9359706036414
 21
-146.4082481384324
 31
0.0
  0
LINE
  5
95
330
70
100
AcDbEntity
  8
レイヤー 1
 62
    18
420
        0
370
    25
100
AcDbLine
 10
82.44996781275016
 20
-146.7903064716701
 30
0.0
 11
82.93503724481944
 21
-146.3727586939966
 31
0.0
  0
LINE
  5
96
330
70
100
AcDbEntity
  8
レイヤー 1
 62
    18
420
        0
370
    25
100
AcDbLine
 10
81.9359706036414
 20
-146.4082481384324
 30
0.0
 11
82.44996781275016
 21
-146.7903064716701
 31
0.0
  0
LINE
  5
97
330
70
100
AcDbEntity
  8
レイヤー 1
 62
    18
420
        0
370
    25
100
AcDbLine
 10
82.93503724481944
 20
-146.3727586939966
 30
0.0
 11
83.4490344539285
 21
-146.7544995272347
 31
0.0
  0
LINE
  5
98
330
70
100
AcDbEntity
  8
レイヤー 1
 62
    18
420
        0
370
    25
100
AcDbLine
 10
83.4490344539285
 20
-146.7544995272347
 30
0.0
 11
83.93480944153536
 21
-146.3369517495615
 31
0.0
  0
LINE
  5
99
330
70
100
AcDbEntity
  8
レイヤー 1
 62
    18
420
        0
370
    25
100
AcDbLine
 10
84.44880665064442
 20
-146.7186573050214
 30
0.0
 11
84.93387608271371
 21
-146.3011095273482
 31
0.0
  0
LINE
  5
9A
330
70
100
AcDbEntity
  8
レイヤー 1
 62
    18
420
        0
370
    25
100
AcDbLine
 10
83.93480944153536
 20
-146.3369517495615
 30
0.0
 11
84.44880665064442
 21
-146.7186573050214
 31
0.0
  0
LINE
  5
9B
330
70
100
AcDbEntity
  8
レイヤー 1
 62
    18
420
        0
370
    25
100
AcDbLine
 10
85.44790856959997
 20
-146.6831678605856
 30
0.0
 11
85.93364827942961
 21
-146.2656200829124
 31
0.0
  0
LINE
  5
9C
330
70
100
AcDbEntity
  8
レイヤー 1
 62
    18
420
        0
370
    25
100
AcDbLine
 10
84.93387608271371
 20
-146.3011095273482
 30
0.0
 11
85.44790856959997
 21
-146.6831678605856
 31
0.0
  0
LINE
  5
9D
330
70
100
AcDbEntity
  8
レイヤー 1
 62
    18
420
        0
370
    25
100
AcDbLine
 10
85.93364827942961
 20
-146.2656200829124
 30
0.0
 11
86.44764548853869
 21
-146.6476784161501
 31
0.0
  0
LINE
  5
9E
330
70
100
AcDbEntity
  8
レイヤー 1
 62
    18
420
        0
370
    25
100
AcDbLine
 10
86.44764548853869
 20
-146.6476784161501
 30
0.0
 11
86.93271492060796
 21
-146.2298131384767
 31
0.0
  0
LINE
  5
9F
330
70
100
AcDbEntity
  8
レイヤー 1
 62
    18
420
        0
370
    25
100
AcDbLine
 10
86.93271492060796
 20
-146.2298131384767
 30
0.0
 11
87.44674740749392
 21
-146.6118714717147
 31
0.0
  0
LINE
  5
A0
330
70
100
AcDbEntity
  8
レイヤー 1
 62
    18
420
        0
370
    25
100
AcDbLine
 10
87.44674740749392
 20
-146.6118714717147
 30
0.0
 11
87.93181683956319
 21
-146.1943236940412
 31
0.0
  0
LINE
  5
A1
330
70
100
AcDbEntity
  8
レイヤー 1
 62
    18
420
        0
370
    25
100
AcDbLine
 10
87.93181683956319
 20
-146.1943236940412
 30
0.0
 11
88.44581404867225
 21
-146.5760292495015
 31
0.0
  0
LINE
  5
A2
330
70
100
AcDbEntity
  8
レイヤー 1
 62
    18
420
        0
370
    25
100
AcDbLine
 10
88.44581404867225
 20
-146.5760292495015
 30
0.0
 11
88.93158903627911
 21
-146.158481471828
 31
0.0
  0
LINE
  5
A3
330
70
100
AcDbEntity
  8
レイヤー 1
 62
    18
420
        0
370
    25
100
AcDbLine
 10
88.93158903627911
 20
-146.158481471828
 30
0.0
 11
89.44558624538817
 21
-146.540222305066
 31
0.0
  0
LINE
  5
A4
330
70
100
AcDbEntity
  8
レイヤー 1
 62
    18
420
        0
370
    25
100
AcDbLine
 10
89.44558624538817
 20
-146.540222305066
 30
0.0
 11
89.93065567745746
 21
-146.1226745273926
 31
0.0
  0
LINE
  5
A5
330
70
100
AcDbEntity
  8
レイヤー 1
 62
    18
420
        0
370
    25
100
AcDbLine
 10
89.93065567745746
 20
-146.1226745273926
 30
0.0
 11
90.44465288656653
 21
-146.5047328606303
 31
0.0
  0
LINE
  5
A6
330
70
100
AcDbEntity
  8
レイヤー 1
 62
    18
420
        0
370
    25
100
AcDbLine
 10
90.44465288656653
 20
-146.5047328606303
 30
0.0
 11
90.93042787417337
 21
-146.0871850829571
 31
0.0
  0
LINE
  5
A7
330
70
100
AcDbEntity
  8
レイヤー 1
 62
    18
420
        0
370
    25
100
AcDbLine
 10
90.93042787417337
 20
-146.0871850829571
 30
0.0
 11
91.44442508328245
 21
-146.4692434161951
 31
0.0
  0
LINE
  5
A8
330
70
100
AcDbEntity
  8
レイヤー 1
 62
    18
420
        0
370
    25
100
AcDbLine
 10
91.44442508328245
 20
-146.4692434161951
 30
0.0
 11
91.92949451535204
 21
-146.0513428607438
 31
0.0
  0
LINE
  5
A9
330
70
100
AcDbEntity
  8
レイヤー 1
 62
    18
420
        0
370
    25
100
AcDbLine
 10
91.92949451535204
 20
-146.0513428607438
 30
0.0
 11
92.44349172446078
 21
-146.4334011939818
 31
0.0
  0
LINE
  5
AA
330
70
100
AcDbEntity
  8
レイヤー 1
 62
    18
420
        0
370
    25
100
AcDbLine
 10
92.44349172446078
 20
-146.4334011939818
 30
0.0
 11
92.92926671206762
 21
-146.015853416308
 31
0.0
  0
LINE
  5
AB
330
70
100
AcDbEntity
  8
レイヤー 1
 62
    18
420
        0
370
    25
100
AcDbLine
 10
92.92926671206762
 20
-146.015853416308
 30
0.0
 11
93.4432639211767
 21
-146.3975942495461
 31
0.0
  0
LINE
  5
AC
330
70
100
AcDbEntity
  8
レイヤー 1
 62
    18
420
        0
370
    25
100
AcDbLine
 10
93.4432639211767
 20
-146.3975942495461
 30
0.0
 11
93.92833335324599
 21
-145.9800464718729
 31
0.0
  0
LINE
  5
AD
330
70
100
AcDbEntity
  8
レイヤー 1
 62
    18
420
        0
370
    25
100
AcDbLine
 10
93.92833335324599
 20
-145.9800464718729
 30
0.0
 11
94.44236584013193
 21
-146.3617520273329
 31
0.0
  0
LINE
  5
AE
330
70
100
AcDbEntity
  8
レイヤー 1
 62
    18
420
        0
370
    25
100
AcDbLine
 10
94.44236584013193
 20
-146.3617520273329
 30
0.0
 11
94.92810554996189
 21
-145.9442042496593
 31
0.0
  0
LINE
  5
AF
330
70
100
AcDbEntity
  8
レイヤー 1
 62
    18
420
        0
370
    25
100
AcDbLine
 10
95.00210275917991
 20
-145.8959795274495
 30
0.0
 11
95.94167135743701
 21
-145.8959795274495
 31
0.0
  0
LINE
  5
B0
330
70
100
AcDbEntity
  8
レイヤー 1
 62
    18
420
        0
370
    25
100
AcDbLine
 10
95.94167135743701
 20
-145.8959795274495
 30
0.0
 11
95.94167135743701
 21
-152.1581378592167
 31
0.0
  0
LINE
  5
B1
330
70
100
AcDbEntity
  8
レイヤー 1
 62
    18
420
        0
370
    25
100
AcDbLine
 10
94.94189916072111
 20
-147.1582536938002
 30
0.0
 11
94.94189916072111
 21
-153.1582275811895
 31
0.0
  0
LINE
  5
B2
330
70
100
AcDbEntity
  8
レイヤー 1
 62
    18
420
        0
370
    25
100
AcDbLine
 10
115.9425127916174
 20
-152.1581378592167
 30
0.0
 11
95.94167135743701
 21
-152.1581378592167
 31
0.0
  0
LINE
  5
B3
330
70
100
AcDbEntity
  8
レイヤー 1
 62
    18
420
        0
370
    25
100
AcDbLine
 10
126.9495672330263
 20
-146.3011095273482
 30
0.0
 11
126.4362755794548
 21
-146.6831678605856
 31
0.0
  0
LINE
  5
B4
330
70
100
AcDbEntity
  8
レイヤー 1
 62
    18
420
        0
370
    25
100
AcDbLine
 10
131.9470523833076
 20
-146.4795798050811
 30
0.0
 11
131.4330198964217
 21
-146.8616381383188
 31
0.0
  0
LINE
  5
B5
330
70
100
AcDbEntity
  8
レイヤー 1
 62
    18
420
        0
370
    25
100
AcDbLine
 10
127.4353422206332
 20
-146.7186573050214
 30
0.0
 11
126.9495672330263
 21
-146.3011095273482
 31
0.0
  0
LINE
  5
B6
330
70
100
AcDbEntity
  8
レイヤー 1
 62
    18
420
        0
370
    25
100
AcDbLine
 10
128.4344088618115
 20
-146.7544995272347
 30
0.0
 11
127.9493394297422
 21
-146.3369517495615
 31
0.0
  0
LINE
  5
B7
330
70
100
AcDbEntity
  8
レイヤー 1
 62
    18
420
        0
370
    25
100
AcDbLine
 10
126.4362755794548
 20
-146.6831678605856
 30
0.0
 11
125.950500591848
 21
-146.2656200829124
 31
0.0
  0
LINE
  5
B8
330
70
100
AcDbEntity
  8
レイヤー 1
 62
    18
420
        0
370
    25
100
AcDbLine
 10
127.9493394297422
 20
-146.3369517495615
 30
0.0
 11
127.4353422206332
 21
-146.7186573050214
 31
0.0
  0
LINE
  5
B9
330
70
100
AcDbEntity
  8
レイヤー 1
 62
    18
420
        0
370
    25
100
AcDbLine
 10
135.9440245035586
 20
-146.6225606383785
 30
0.0
 11
135.4300272944495
 21
-147.0046189716165
 31
0.0
  0
LINE
  5
BA
330
70
100
AcDbEntity
  8
レイヤー 1
 62
    18
420
        0
370
    25
100
AcDbLine
 10
128.9484413486975
 20
-146.3727586939966
 30
0.0
 11
128.4344088618115
 21
-146.7544995272347
 31
0.0
  0
LINE
  5
BB
330
70
100
AcDbEntity
  8
レイヤー 1
 62
    18
420
        0
370
    25
100
AcDbLine
 10
129.9481782676365
 20
-146.4082481384324
 30
0.0
 11
129.4341810585274
 21
-146.7903064716701
 31
0.0
  0
LINE
  5
BC
330
70
100
AcDbEntity
  8
レイヤー 1
 62
    18
420
        0
370
    25
100
AcDbLine
 10
115.9425127916174
 20
-145.8959795274495
 30
0.0
 11
115.9425127916174
 21
-152.1581378592167
 31
0.0
  0
LINE
  5
BD
330
70
100
AcDbEntity
  8
レイヤー 1
 62
    18
420
        0
370
    25
100
AcDbLine
 10
129.4341810585274
 20
-146.7903064716701
 30
0.0
 11
128.9484413486975
 21
-146.3727586939966
 31
0.0
  0
LINE
  5
BE
330
70
100
AcDbEntity
  8
レイヤー 1
 62
    18
420
        0
370
    25
100
AcDbLine
 10
130.4332476997058
 20
-146.8261486938833
 30
0.0
 11
129.9481782676365
 21
-146.4082481384324
 31
0.0
  0
LINE
  5
BF
330
70
100
AcDbEntity
  8
レイヤー 1
 62
    18
420
        0
370
    25
100
AcDbLine
 10
135.4300272944495
 20
-147.0046189716165
 30
0.0
 11
134.9449578623802
 21
-146.5867184161652
 31
0.0
  0
LINE
  5
C0
330
70
100
AcDbEntity
  8
レイヤー 1
 62
    18
420
        0
370
    25
100
AcDbLine
 10
130.9472801865917
 20
-146.4440903606456
 30
0.0
 11
130.4332476997058
 21
-146.8261486938833
 31
0.0
  0
LINE
  5
C1
330
70
100
AcDbEntity
  8
レイヤー 1
 62
    18
420
        0
370
    25
100
AcDbLine
 10
131.4330198964217
 20
-146.8616381383188
 30
0.0
 11
130.9472801865917
 21
-146.4440903606456
 31
0.0
  0
LINE
  5
C2
330
70
100
AcDbEntity
  8
レイヤー 1
 62
    18
420
        0
370
    25
100
AcDbLine
 10
136.4297994911655
 20
-147.0400731382742
 30
0.0
 11
135.9440245035586
 21
-146.6225606383785
 31
0.0
  0
LINE
  5
C3
330
70
100
AcDbEntity
  8
レイヤー 1
 62
    18
420
        0
370
    25
100
AcDbLine
 10
132.946119024486
 20
-146.5153867495165
 30
0.0
 11
132.4321218153769
 21
-146.8971275827546
 31
0.0
  0
LINE
  5
C4
330
70
100
AcDbEntity
  8
レイヤー 1
 62
    18
420
        0
370
    25
100
AcDbLine
 10
133.9451856656643
 20
-146.5512289717298
 30
0.0
 11
133.4311884565553
 21
-146.93293452719
 31
0.0
  0
LINE
  5
C5
330
70
100
AcDbEntity
  8
レイヤー 1
 62
    18
420
        0
370
    25
100
AcDbLine
 10
133.4311884565553
 20
-146.93293452719
 30
0.0
 11
132.946119024486
 21
-146.5153867495165
 31
0.0
  0
LINE
  5
C6
330
70
100
AcDbEntity
  8
レイヤー 1
 62
    18
420
        0
370
    25
100
AcDbLine
 10
136.9437967002745
 20
-146.6580148050365
 30
0.0
 11
136.4297994911655
 21
-147.0400731382742
 31
0.0
  0
LINE
  5
C7
330
70
100
AcDbEntity
  8
レイヤー 1
 62
    18
420
        0
370
    25
100
AcDbLine
 10
132.4321218153769
 20
-146.8971275827546
 30
0.0
 11
131.9470523833076
 21
-146.4795798050811
 31
0.0
  0
LINE
  5
C8
330
70
100
AcDbEntity
  8
レイヤー 1
 62
    18
420
        0
370
    25
100
AcDbLine
 10
134.9449578623802
 20
-146.5867184161652
 30
0.0
 11
134.4309606532712
 21
-146.9687767494033
 31
0.0
  0
LINE
  5
C9
330
70
100
AcDbEntity
  8
レイヤー 1
 62
    18
420
        0
370
    25
100
AcDbLine
 10
134.4309606532712
 20
-146.9687767494033
 30
0.0
 11
133.9451856656643
 21
-146.5512289717298
 31
0.0
  0
LINE
  5
CA
330
70
100
AcDbEntity
  8
レイヤー 1
 62
    18
420
        0
370
    25
100
AcDbLine
 10
136.9437967002745
 20
-146.6580148050365
 30
0.0
 11
136.9437967002745
 21
-147.1582536938002
 31
0.0
  0
LINE
  5
CB
330
70
100
AcDbEntity
  8
レイヤー 1
 62
    18
420
        0
370
    25
100
AcDbLine
 10
116.0527558443605
 20
-147.1582536938002
 30
0.0
 11
136.9437967002745
 21
-147.1582536938002
 31
0.0
  0
LINE
  5
CC
330
70
100
AcDbEntity
  8
レイヤー 1
 62
    18
420
        0
370
    25
100
AcDbLine
 10
125.950500591848
 20
-146.2656200829124
 30
0.0
 11
125.4365033827389
 21
-146.6476784161501
 31
0.0
  0
LINE
  5
CD
330
70
100
AcDbEntity
  8
レイヤー 1
 62
    18
420
        0
370
    25
100
AcDbLine
 10
125.4365033827389
 20
-146.6476784161501
 30
0.0
 11
124.9514339506696
 21
-146.2298131384767
 31
0.0
  0
LINE
  5
CE
330
70
100
AcDbEntity
  8
レイヤー 1
 62
    18
420
        0
370
    25
100
AcDbLine
 10
124.9514339506696
 20
-146.2298131384767
 30
0.0
 11
124.4374014637837
 21
-146.6118714717147
 31
0.0
  0
LINE
  5
CF
330
70
100
AcDbEntity
  8
レイヤー 1
 62
    18
420
        0
370
    25
100
AcDbLine
 10
124.4374014637837
 20
-146.6118714717147
 30
0.0
 11
123.9516617539537
 21
-146.1943236940412
 31
0.0
  0
LINE
  5
D0
330
70
100
AcDbEntity
  8
レイヤー 1
 62
    18
420
        0
370
    25
100
AcDbLine
 10
123.9516617539537
 20
-146.1943236940412
 30
0.0
 11
123.4376645448447
 21
-146.5760292495015
 31
0.0
  0
LINE
  5
D1
330
70
100
AcDbEntity
  8
レイヤー 1
 62
    18
420
        0
370
    25
100
AcDbLine
 10
123.4376645448447
 20
-146.5760292495015
 30
0.0
 11
122.9525951127754
 21
-146.158481471828
 31
0.0
  0
LINE
  5
D2
330
70
100
AcDbEntity
  8
レイヤー 1
 62
    18
420
        0
370
    25
100
AcDbLine
 10
122.9525951127754
 20
-146.158481471828
 30
0.0
 11
122.4385626258894
 21
-146.540222305066
 31
0.0
  0
LINE
  5
D3
330
70
100
AcDbEntity
  8
レイヤー 1
 62
    18
420
        0
370
    25
100
AcDbLine
 10
122.4385626258894
 20
-146.540222305066
 30
0.0
 11
121.9528229160594
 21
-146.1226745273926
 31
0.0
  0
LINE
  5
D4
330
70
100
AcDbEntity
  8
レイヤー 1
 62
    18
420
        0
370
    25
100
AcDbLine
 10
121.9528229160594
 20
-146.1226745273926
 30
0.0
 11
121.4387904291735
 21
-146.5047328606303
 31
0.0
  0
LINE
  5
D5
330
70
100
AcDbEntity
  8
レイヤー 1
 62
    18
420
        0
370
    25
100
AcDbLine
 10
121.4387904291735
 20
-146.5047328606303
 30
0.0
 11
120.9537209971042
 21
-146.0871850829571
 31
0.0
  0
LINE
  5
D6
330
70
100
AcDbEntity
  8
レイヤー 1
 62
    18
420
        0
370
    25
100
AcDbLine
 10
120.9537209971042
 20
-146.0871850829571
 30
0.0
 11
120.4397237879952
 21
-146.4692434161951
 31
0.0
  0
LINE
  5
D7
330
70
100
AcDbEntity
  8
レイヤー 1
 62
    18
420
        0
370
    25
100
AcDbLine
 10
120.4397237879952
 20
-146.4692434161951
 30
0.0
 11
119.9546543559259
 21
-146.0513428607438
 31
0.0
  0
LINE
  5
D8
330
70
100
AcDbEntity
  8
レイヤー 1
 62
    18
420
        0
370
    25
100
AcDbLine
 10
119.9546543559259
 20
-146.0513428607438
 30
0.0
 11
119.4406571468168
 21
-146.4334011939818
 31
0.0
  0
LINE
  5
D9
330
70
100
AcDbEntity
  8
レイヤー 1
 62
    18
420
        0
370
    25
100
AcDbLine
 10
119.4406571468168
 20
-146.4334011939818
 30
0.0
 11
118.9548821592099
 21
-146.015853416308
 31
0.0
  0
LINE
  5
DA
330
70
100
AcDbEntity
  8
レイヤー 1
 62
    18
420
        0
370
    25
100
AcDbLine
 10
118.9548821592099
 20
-146.015853416308
 30
0.0
 11
118.4408849501009
 21
-146.3975942495461
 31
0.0
  0
LINE
  5
DB
330
70
100
AcDbEntity
  8
レイヤー 1
 62
    18
420
        0
370
    25
100
AcDbLine
 10
118.4408849501009
 20
-146.3975942495461
 30
0.0
 11
117.9558155180316
 21
-145.9800464718729
 31
0.0
  0
LINE
  5
DC
330
70
100
AcDbEntity
  8
レイヤー 1
 62
    18
420
        0
370
    25
100
AcDbLine
 10
117.9558155180316
 20
-145.9800464718729
 30
0.0
 11
117.4418183089225
 21
-146.3617520273329
 31
0.0
  0
LINE
  5
DD
330
70
100
AcDbEntity
  8
レイヤー 1
 62
    18
420
        0
370
    25
100
AcDbLine
 10
117.4418183089225
 20
-146.3617520273329
 30
0.0
 11
116.9560433213157
 21
-145.9442042496593
 31
0.0
  0
LINE
  5
DE
330
70
100
AcDbEntity
  8
レイヤー 1
 62
    18
420
        0
370
    25
100
AcDbLine
 10
116.8820461120977
 20
-145.8959795274495
 30
0.0
 11
115.9425127916174
 21
-145.8959795274495
 31
0.0
  0
LINE
  5
DF
330
70
100
AcDbEntity
  8
レイヤー 1
 62
    18
420
        0
370
    25
100
AcDbLine
 10
116.9422497105565
 20
-147.1582536938002
 30
0.0
 11
116.9422497105565
 21
-153.1582275811895
 31
0.0
  0
SPLINE
  5
E0
330
70
100
AcDbEntity
  8
レイヤー 1
 62
    18
420
        0
370
     9
100
AcDbSpline
210
0.0
220
0.0
230
1.0
 70
     9
 71
     3
 72
    17
 73
    13
 74
     0
 42
0.0000000001
 43
0.0000000001
 40
0.0
 40
0.0
 40
0.0
 40
0.0
 40
1.0
 40
1.0
 40
1.0
 40
2.0
 40
2.0
 40
2.0
 40
3.0
 40
3.0
 40
3.0
 40
4.0
 40
4.0
 40
4.0
 40
4.0
 10
75.04025883512091
 20
-141.8962203617826
 30
0.0
 10
75.04025883512091
 20
-141.8407636951296
 30
0.0
 10
74.99549133626334
 20
-141.7959609173632
 30
0.0
 10
74.94035502281628
 20
-141.7959609173632
 30
0.0
 10
74.88524828352002
 20
-141.7959609173632
 30
0.0
 10
74.84044550688524
 20
-141.8407636951296
 30
0.0
 10
74.84044550688524
 20
-141.8962203617826
 30
0.0
 10
74.84044550688524
 20
-141.9513242506575
 30
0.0
 10
74.88524828352002
 20
-141.9961270284242
 30
0.0
 10
74.94035502281628
 20
-141.9961270284242
 30
0.0
 10
74.99549133626334
 20
-141.9961270284242
 30
0.0
 10
75.04025883512091
 20
-141.9513242506575
 30
0.0
 10
75.04025883512091
 20
-141.8962203617826
 30
0.0
  0
SPLINE
  5
E1
330
70
100
AcDbEntity
  8
レイヤー 1
 62
    18
420
        0
370
     9
100
AcDbSpline
210
0.0
220
0.0
230
1.0
 70
     9
 71
     3
 72
    17
 73
    13
 74
     0
 42
0.0000000001
 43
0.0000000001
 40
0.0
 40
0.0
 40
0.0
 40
0.0
 40
1.0
 40
1.0
 40
1.0
 40
2.0
 40
2.0
 40
2.0
 40
3.0
 40
3.0
 40
3.0
 40
4.0
 40
4.0
 40
4.0
 40
4.0
 10
71.03982949273592
 20
-146.6580148050365
 30
0.0
 10
71.03982949273592
 20
-146.6029109161612
 30
0.0
 10
70.99502671610117
 20
-146.5581081383948
 30
0.0
 10
70.93992282861809
 20
-146.5581081383948
 30
0.0
 10
70.88478366335813
 20
-146.5581081383948
 30
0.0
 10
70.8400189127304
 20
-146.6029109161612
 30
0.0
 10
70.8400189127304
 20
-146.6580148050365
 30
0.0
 10
70.8400189127304
 20
-146.7131539716892
 30
0.0
 10
70.88478366335813
 20
-146.7579214716781
 30
0.0
 10
70.93992282861809
 20
-146.7579214716781
 30
0.0
 10
70.99502671610117
 20
-146.7579214716781
 30
0.0
 10
71.03982949273592
 20
-146.7131539716892
 30
0.0
 10
71.03982949273592
 20
-146.6580148050365
 30
0.0
  0
SPLINE
  5
E2
330
70
100
AcDbEntity
  8
レイヤー 1
 62
    18
420
        0
370
     9
100
AcDbSpline
210
0.0
220
0.0
230
1.0
 70
     9
 71
     3
 72
    17
 73
    13
 74
     0
 42
0.0000000001
 43
0.0000000001
 40
0.0
 40
0.0
 40
0.0
 40
0.0
 40
1.0
 40
1.0
 40
1.0
 40
2.0
 40
2.0
 40
2.0
 40
3.0
 40
3.0
 40
3.0
 40
4.0
 40
4.0
 40
4.0
 40
4.0
 10
71.03982949273592
 20
-147.1582536938002
 30
0.0
 10
71.03982949273592
 20
-147.1031498049253
 30
0.0
 10
70.99502671610117
 20
-147.0583470271585
 30
0.0
 10
70.93992282861809
 20
-147.0583470271585
 30
0.0
 10
70.88478366335813
 20
-147.0583470271585
 30
0.0
 10
70.8400189127304
 20
-147.1031498049253
 30
0.0
 10
70.8400189127304
 20
-147.1582536938002
 30
0.0
 10
70.8400189127304
 20
-147.2133928604533
 30
0.0
 10
70.88478366335813
 20
-147.2581603604418
 30
0.0
 10
70.93992282861809
 20
-147.2581603604418
 30
0.0
 10
70.99502671610117
 20
-147.2581603604418
 30
0.0
 10
71.03982949273592
 20
-147.2133928604533
 30
0.0
 10
71.03982949273592
 20
-147.1582536938002
 30
0.0
  0
SPLINE
  5
E3
330
70
100
AcDbEntity
  8
レイヤー 1
 62
    18
420
        0
370
     9
100
AcDbSpline
210
0.0
220
0.0
230
1.0
 70
     9
 71
     3
 72
    17
 73
    13
 74
     0
 42
0.0000000001
 43
0.0000000001
 40
0.0
 40
0.0
 40
0.0
 40
0.0
 40
1.0
 40
1.0
 40
1.0
 40
2.0
 40
2.0
 40
2.0
 40
3.0
 40
3.0
 40
3.0
 40
4.0
 40
4.0
 40
4.0
 40
4.0
 10
71.03982949273592
 20
-153.1582275811895
 30
0.0
 10
71.03982949273592
 20
-153.103123692314
 30
0.0
 10
70.99502671610117
 20
-153.0583209145472
 30
0.0
 10
70.93992282861809
 20
-153.0583209145472
 30
0.0
 10
70.88478366335813
 20
-153.0583209145472
 30
0.0
 10
70.8400189127304
 20
-153.103123692314
 30
0.0
 10
70.8400189127304
 20
-153.1582275811895
 30
0.0
 10
70.8400189127304
 20
-153.213366747842
 30
0.0
 10
70.88478366335813
 20
-153.2581342478305
 30
0.0
 10
70.93992282861809
 20
-153.2581342478305
 30
0.0
 10
70.99502671610117
 20
-153.2581342478305
 30
0.0
 10
71.03982949273592
 20
-153.213366747842
 30
0.0
 10
71.03982949273592
 20
-153.1582275811895
 30
0.0
  0
SPLINE
  5
E4
330
70
100
AcDbEntity
  8
レイヤー 1
 62
    18
420
        0
370
     9
100
AcDbSpline
210
0.0
220
0.0
230
1.0
 70
     9
 71
     3
 72
    17
 73
    13
 74
     0
 42
0.0000000001
 43
0.0000000001
 40
0.0
 40
0.0
 40
0.0
 40
0.0
 40
1.0
 40
1.0
 40
1.0
 40
2.0
 40
2.0
 40
2.0
 40
3.0
 40
3.0
 40
3.0
 40
4.0
 40
4.0
 40
4.0
 40
4.0
 10
96.04157802155484
 20
-141.8962203617826
 30
0.0
 10
96.04157802155484
 20
-141.8407636951296
 30
0.0
 10
95.99677524492008
 20
-141.7959609173632
 30
0.0
 10
95.94167135743701
 20
-141.7959609173632
 30
0.0
 10
95.88653557313529
 20
-141.7959609173632
 30
0.0
 10
95.84173279536889
 20
-141.8407636951296
 30
0.0
 10
95.84173279536889
 20
-141.8962203617826
 30
0.0
 10
95.84173279536889
 20
-141.9513242506575
 30
0.0
 10
95.88653557313529
 20
-141.9961270284242
 30
0.0
 10
95.94167135743701
 20
-141.9961270284242
 30
0.0
 10
95.99677524492008
 20
-141.9961270284242
 30
0.0
 10
96.04157802155484
 20
-141.9513242506575
 30
0.0
 10
96.04157802155484
 20
-141.8962203617826
 30
0.0
  0
SPLINE
  5
E5
330
70
100
AcDbEntity
  8
レイヤー 1
 62
    18
420
        0
370
     9
100
AcDbSpline
210
0.0
220
0.0
230
1.0
 70
     9
 71
     3
 72
    17
 73
    13
 74
     0
 42
0.0000000001
 43
0.0000000001
 40
0.0
 40
0.0
 40
0.0
 40
0.0
 40
1.0
 40
1.0
 40
1.0
 40
2.0
 40
2.0
 40
2.0
 40
3.0
 40
3.0
 40
3.0
 40
4.0
 40
4.0
 40
4.0
 40
4.0
 10
137.1436100285102
 20
-141.8962203617826
 30
0.0
 10
137.1436100285102
 20
-141.8407636951296
 30
0.0
 10
137.0988425296523
 20
-141.7959609173632
 30
0.0
 10
137.0437077850679
 20
-141.7959609173632
 30
0.0
 10
136.9878939213717
 20
-141.7959609173632
 30
0.0
 10
136.9431264225138
 20
-141.8407636951296
 30
0.0
 10
136.9431264225138
 20
-141.8962203617826
 30
0.0
 10
136.9431264225138
 20
-141.9513242506575
 30
0.0
 10
136.9878939213717
 20
-141.9961270284242
 30
0.0
 10
137.0437077850679
 20
-141.9961270284242
 30
0.0
 10
137.0988425296523
 20
-141.9961270284242
 30
0.0
 10
137.1436100285102
 20
-141.9513242506575
 30
0.0
 10
137.1436100285102
 20
-141.8962203617826
 30
0.0
  0
SPLINE
  5
E6
330
70
100
AcDbEntity
  8
レイヤー 1
 62
    18
420
        0
370
     9
100
AcDbSpline
210
0.0
220
0.0
230
1.0
 70
     9
 71
     3
 72
    17
 73
    13
 74
     0
 42
0.0000000001
 43
0.0000000001
 40
0.0
 40
0.0
 40
0.0
 40
0.0
 40
1.0
 40
1.0
 40
1.0
 40
2.0
 40
2.0
 40
2.0
 40
3.0
 40
3.0
 40
3.0
 40
4.0
 40
4.0
 40
4.0
 40
4.0
 10
116.1423300125157
 20
-141.8962203617826
 30
0.0
 10
116.1423300125157
 20
-141.8407636951296
 30
0.0
 10
116.0975272347489
 20
-141.7959609173632
 30
0.0
 10
116.0424194557353
 20
-141.7959609173632
 30
0.0
 10
115.9872802904754
 20
-141.7959609173632
 30
0.0
 10
115.9425127916174
 20
-141.8407636951296
 30
0.0
 10
115.9425127916174
 20
-141.8962203617826
 30
0.0
 10
115.9425127916174
 20
-141.9513242506575
 30
0.0
 10
115.9872802904754
 20
-141.9961270284242
 30
0.0
 10
116.0424194557353
 20
-141.9961270284242
 30
0.0
 10
116.0975272347489
 20
-141.9961270284242
 30
0.0
 10
116.1423300125157
 20
-141.9513242506575
 30
0.0
 10
116.1423300125157
 20
-141.8962203617826
 30
0.0
  0
LINE
  5
E7
330
70
100
AcDbEntity
  8
レイヤー 1
 62
    18
420
        0
370
     9
100
AcDbLine
 10
70.93992282861809
 20
-146.6580148050365
 30
0.0
 11
70.93992282861809
 21
-141.4001089730176
 31
0.0
  0
LINE
  5
E8
330
70
100
AcDbEntity
  8
レイヤー 1
 62
    18
420
        0
370
     9
100
AcDbLine
 10
70.93992282861809
 20
-146.6580148050365
 30
0.0
 11
70.93992282861809
 21
-147.1582536938002
 31
0.0
  0
LINE
  5
E9
330
70
100
AcDbEntity
  8
レイヤー 1
 62
    18
420
        0
370
     9
100
AcDbLine
 10
72.39992890248133
 20
-146.6580148050365
 30
0.0
 11
69.94015063190218
 21
-146.6580148050365
 31
0.0
  0
LINE
  5
EA
330
70
100
AcDbEntity
  8
レイヤー 1
 62
    18
420
        0
370
     9
100
AcDbLine
 10
72.39992890248133
 20
-147.1582536938002
 30
0.0
 11
69.94015063190218
 21
-147.1582536938002
 31
0.0
  0
INSERT
  5
EC
330
70
100
AcDbEntity
  8
レイヤー 1
100
AcDbBlockReference
  2
Block_1
 10
0.0
 20
0.0
 30
0.0
  0
LINE
  5
FA
330
70
100
AcDbEntity
  8
レイヤー 1
 62
    18
420
        0
370
     9
100
AcDbLine
 10
74.94035502281628
 20
-141.8962203617826
 30
0.0
 11
95.94167135743701
 21
-141.8962203617826
 31
0.0
  0
LINE
  5
FB
330
70
100
AcDbEntity
  8
レイヤー 1
 62
    18
420
        0
370
     9
100
AcDbLine
 10
74.94035502281628
 20
-144.1182970278939
 30
0.0
 11
74.94035502281628
 21
-140.8960953620326
 31
0.0
  0
INSERT
  5
FD
330
70
100
AcDbEntity
  8
レイヤー 1
100
AcDbBlockReference
  2
Block_3
 10
0.0
 20
0.0
 30
0.0
  0
LINE
  5
108
330
70
100
AcDbEntity
  8
レイヤー 1
 62
    18
420
        0
370
     9
100
AcDbLine
 10
70.93992282861809
 20
-147.1582536938002
 30
0.0
 11
70.93992282861809
 21
-153.1582275811895
 31
0.0
  0
LINE
  5
109
330
70
100
AcDbEntity
  8
レイヤー 1
 62
    18
420
        0
370
     9
100
AcDbLine
 10
92.40214946289546
 20
-153.1582275811895
 30
0.0
 11
69.94015063190218
 21
-153.1582275811895
 31
0.0
  0
INSERT
  5
10B
330
70
100
AcDbEntity
  8
レイヤー 1
100
AcDbBlockReference
  2
Block_5
 10
0.0
 20
0.0
 30
0.0
  0
LINE
  5
111
330
70
100
AcDbEntity
  8
レイヤー 1
 62
    18
420
        0
370
     9
100
AcDbLine
 10
137.0437077850679
 20
-141.8962203617826
 30
0.0
 11
116.0424194557353
 21
-141.8962203617826
 31
0.0
  0
LINE
  5
112
330
70
100
AcDbEntity
  8
レイヤー 1
 62
    18
420
        0
370
     9
100
AcDbLine
 10
137.0437077850679
 20
-144.1182970278939
 30
0.0
 11
137.0437077850679
 21
-140.8960953620326
 31
0.0
  0
INSERT
  5
114
330
70
100
AcDbEntity
  8
レイヤー 1
100
AcDbBlockReference
  2
Block_6
 10
0.0
 20
0.0
 30
0.0
  0
LINE
  5
11F
330
70
100
AcDbEntity
  8
レイヤー 1
 62
    18
420
        0
370
     9
100
AcDbLine
 10
95.94167135743701
 20
-141.8962203617826
 30
0.0
 11
115.9425127916174
 21
-141.8962203617826
 31
0.0
  0
LINE
  5
120
330
70
100
AcDbEntity
  8
レイヤー 1
 62
    18
420
        0
370
     9
100
AcDbLine
 10
95.94167135743701
 20
-143.3562617503066
 30
0.0
 11
95.94167135743701
 21
-140.8960953620326
 31
0.0
  0
LINE
  5
121
330
70
100
AcDbEntity
  8
レイヤー 1
 62
    18
420
        0
370
     9
100
AcDbLine
 10
116.0424194557353
 20
-143.3562617503066
 30
0.0
 11
116.0424194557353
 21
-140.8960953620326
 31
0.0
  0
INSERT
  5
123
330
70
100
AcDbEntity
  8
レイヤー 1
100
AcDbBlockReference
  2
Block_8
 10
0.0
 20
0.0
 30
0.0
  0
SPLINE
  5
12F
330
70
100
AcDbEntity
  8
レイヤー 1
 62
    18
420
        0
370
     9
100
AcDbSpline
210
0.0
220
0.0
230
1.0
 70
     9
 71
     3
 72
    17
 73
    13
 74
     0
 42
0.0000000001
 43
0.0000000001
 40
0.0
 40
0.0
 40
0.0
 40
0.0
 40
1.0
 40
1.0
 40
1.0
 40
2.0
 40
2.0
 40
2.0
 40
3.0
 40
3.0
 40
3.0
 40
4.0
 40
4.0
 40
4.0
 40
4.0
 10
95.22578279552284
 20
-157.271687024605
 30
0.0
 10
95.22578279552284
 20
-157.2165478579526
 30
0.0
 10
95.16996998823586
 20
-157.171780357964
 30
0.0
 10
95.10174276775426
 20
-157.171780357964
 30
0.0
 10
95.03284526951198
 20
-157.171780357964
 30
0.0
 10
94.97770610425204
 20
-157.2165478579526
 30
0.0
 10
94.97770610425204
 20
-157.271687024605
 30
0.0
 10
94.97770610425204
 20
-157.3267909134806
 30
0.0
 10
95.03284526951198
 20
-157.3715936912473
 30
0.0
 10
95.10174276775426
 20
-157.3715936912473
 30
0.0
 10
95.16996998823586
 20
-157.3715936912473
 30
0.0
 10
95.22578279552284
 20
-157.3267909134806
 30
0.0
 10
95.22578279552284
 20
-157.271687024605
 30
0.0
  0
SPLINE
  5
130
330
70
100
AcDbEntity
  8
レイヤー 1
 62
    18
420
        0
370
     9
100
AcDbSpline
210
0.0
220
0.0
230
1.0
 70
     9
 71
     3
 72
    17
 73
    13
 74
     0
 42
0.0000000001
 43
0.0000000001
 40
0.0
 40
0.0
 40
0.0
 40
0.0
 40
1.0
 40
1.0
 40
1.0
 40
2.0
 40
2.0
 40
2.0
 40
3.0
 40
3.0
 40
3.0
 40
4.0
 40
4.0
 40
4.0
 40
4.0
 10
117.2268355366294
 20
-157.271687024605
 30
0.0
 10
117.2268355366294
 20
-157.2165478579526
 30
0.0
 10
117.1710300122589
 20
-157.171780357964
 30
0.0
 10
117.1021285953665
 20
-157.171780357964
 30
0.0
 10
117.0332310971242
 20
-157.171780357964
 30
0.0
 10
116.9780919318643
 20
-157.2165478579526
 30
0.0
 10
116.9780919318643
 20
-157.271687024605
 30
0.0
 10
116.9780919318643
 20
-157.3267909134806
 30
0.0
 10
117.0332310971242
 20
-157.3715936912473
 30
0.0
 10
117.1021285953665
 20
-157.3715936912473
 30
0.0
 10
117.1710300122589
 20
-157.3715936912473
 30
0.0
 10
117.2268355366294
 20
-157.3267909134806
 30
0.0
 10
117.2268355366294
 20
-157.271687024605
 30
0.0
  0
LINE
  5
131
330
70
100
AcDbEntity
  8
レイヤー 1
 62
    18
420
        0
370
     9
100
AcDbLine
 10
117.1021285953665
 20
-157.271687024605
 30
0.0
 11
95.10174276775426
 21
-157.271687024605
 31
0.0
  0
LINE
  5
132
330
70
100
AcDbEntity
  8
レイヤー 1
 62
    18
420
        0
370
     9
100
AcDbLine
 10
117.1021285953665
 20
-155.8116456360813
 30
0.0
 11
117.1021285953665
 21
-158.2717767465778
 31
0.0
  0
LINE
  5
133
330
70
100
AcDbEntity
  8
レイヤー 1
 62
    18
420
        0
370
     9
100
AcDbLine
 10
95.10174276775426
 20
-155.8116456360813
 30
0.0
 11
95.10174276775426
 21
-158.2717767465778
 31
0.0
  0
INSERT
  5
135
330
70
100
AcDbEntity
  8
レイヤー 1
100
AcDbBlockReference
  2
Block_10
 10
0.0
 20
0.0
 30
0.0
  0
LINE
  5
140
330
70
100
AcDbEntity
  8
レイヤー 1
 62
    18
420
        0
370
     9
100
AcDbLine
 10
114.9137775400849
 20
-150.3036203596803
 30
0.0
 11
121.9142290281552
 21
-150.3036203596803
 31
0.0
  0
INSERT
  5
142
330
70
100
AcDbEntity
  8
レイヤー 1
100
AcDbBlockReference
  2
Block_12
 10
0.0
 20
0.0
 30
0.0
  0
INSERT
  5
148
330
70
100
AcDbEntity
  8
レイヤー 1
100
AcDbBlockReference
  2
Block_13
 10
0.0
 20
0.0
 30
0.0
  0
INSERT
  5
14F
330
70
100
AcDbEntity
  8
レイヤー 1
100
AcDbBlockReference
  2
Block_14
 10
0.0
 20
0.0
 30
0.0
  0
INSERT
  5
167
330
70
100
AcDbEntity
  8
レイヤー 1
100
AcDbBlockReference
  2
Block_16
 10
0.0
 20
0.0
 30
0.0
  0
ENDSEC
  0
SECTION
  2
OBJECTS
  0
DICTIONARY
  5
C
330
0
100
AcDbDictionary
281
     1
  3
ACAD_COLOR
350
63
  3
ACAD_DETAILVIEWSTYLE
350
6A
  3
ACAD_GROUP
350
D
  3
ACAD_LAYOUT
350
62
  3
ACAD_MATERIAL
350
10
  3
ACAD_MLEADERSTYLE
350
66
  3
ACAD_MLINESTYLE
350
5F
  3
ACAD_PLOTSETTINGS
350
61
  3
ACAD_PLOTSTYLENAME
350
E
  3
ACAD_SCALELIST
350
42
  3
ACAD_SECTIONVIEWSTYLE
350
68
  3
ACAD_TABLESTYLE
350
64
  3
ACAD_VISUALSTYLE
350
29
  3
ACDB_RECOMPOSE_DATA
350
189
  3
AcDbVariableDictionary
350
181
  0
DICTIONARY
  5
63
102
{ACAD_REACTORS
330
C
102
}
330
C
100
AcDbDictionary
281
     1
  0
DICTIONARY
  5
6A
102
{ACAD_REACTORS
330
C
102
}
330
C
100
AcDbDictionary
281
     1
  3
Imperial24
350
6B
  0
DICTIONARY
  5
D
102
{ACAD_REACTORS
330
C
102
}
330
C
100
AcDbDictionary
281
     1
  0
DICTIONARY
  5
62
102
{ACAD_REACTORS
330
C
102
}
330
C
100
AcDbDictionary
281
     1
  3
Layout1
350
6F
  3
Layout2
350
77
  3
Model
350
73
  0
DICTIONARY
  5
10
102
{ACAD_REACTORS
330
C
102
}
330
C
100
AcDbDictionary
281
     1
  3
ByBlock
350
19
  3
ByLayer
350
11
  3
Global
350
21
  0
DICTIONARY
  5
66
102
{ACAD_REACTORS
330
C
102
}
330
C
100
AcDbDictionary
281
     1
  3
Standard
350
67
  0
DICTIONARY
  5
5F
102
{ACAD_REACTORS
330
C
102
}
330
C
100
AcDbDictionary
281
     1
  3
Standard
350
60
  0
DICTIONARY
  5
61
102
{ACAD_REACTORS
330
C
102
}
330
C
100
AcDbDictionary
281
     1
  0
ACDBDICTIONARYWDFLT
  5
E
102
{ACAD_REACTORS
330
C
102
}
330
C
100
AcDbDictionary
281
     1
  3
Normal
350
F
100
AcDbDictionaryWithDefault
340
F
  0
DICTIONARY
  5
42
102
{ACAD_REACTORS
330
C
102
}
330
C
100
AcDbDictionary
281
     1
  3
A0
350
43
  3
A1
350
44
  3
A2
350
45
  3
A3
350
46
  3
A4
350
47
  3
A5
350
48
  3
A6
350
49
  3
A7
350
4A
  3
A8
350
4B
  3
A9
350
4C
  3
B0
350
4D
  3
B1
350
4E
  3
B2
350
4F
  3
B3
350
50
  3
B4
350
51
  3
B5
350
52
  3
B6
350
53
  0
DICTIONARY
  5
68
102
{ACAD_REACTORS
330
C
102
}
330
C
100
AcDbDictionary
281
     1
  3
Imperial24
350
69
  0
DICTIONARY
  5
64
102
{ACAD_REACTORS
330
C
102
}
330
C
100
AcDbDictionary
281
     1
  3
Standard
350
65
  0
DICTIONARY
  5
29
102
{ACAD_REACTORS
330
C
102
}
330
C
100
AcDbDictionary
281
     1
  3
2dWireframe
350
2F
  3
Basic
350
2E
  3
Brighten
350
35
  3
ColorChange
350
39
  3
Conceptual
350
32
  3
Dim
350
34
  3
EdgeColorOff
350
41
  3
Facepattern
350
38
  3
Flat
350
2A
  3
FlatWithEdges
350
2B
  3
Gouraud
350
2C
  3
GouraudWithEdges
350
2D
  3
Hidden
350
31
  3
JitterOff
350
3F
  3
Linepattern
350
37
  3
OverhangOff
350
40
  3
Realistic
350
33
  3
Shaded
350
3E
  3
Shaded with edges
350
3D
  3
Shades of Gray
350
3A
  3
Sketchy
350
3B
  3
Thicken
350
36
  3
Wireframe
350
30
  3
X-Ray
350
3C
  0
XRECORD
  5
189
102
{ACAD_REACTORS
330
C
102
}
330
C
100
AcDbXrecord
280
     1
 90
        1
330
65
  0
DICTIONARY
  5
181
102
{ACAD_REACTORS
330
C
102
}
330
C
100
AcDbDictionary
281
     1
  3
CANNOSCALE
350
186
  3
CMLEADERSTYLE
350
183
  3
CTABLESTYLE
350
182
  3
CVIEWDETAILSTYLE
350
184
  3
CVIEWSECTIONSTYLE
350
185
  0
ACDBDETAILVIEWSTYLE
  5
6B
102
{ACAD_XDICTIONARY
360
1BE
102
}
102
{ACAD_REACTORS
330
6A
102
}
330
6A
100
AcDbModelDocViewStyle
 70
     0
  3
Imperial24
290
     0
100
AcDbDetailViewStyle
 70
     0
 71
     0
 90
        3
 71
     1
340
55
 62
   256
 40
0.24
340
0
 62
   256
 40
0.24
300

 40
0.36
280
     3
 71
     2
340
5D
 90
       25
 62
   256
 71
     3
340
55
 62
   256
 40
0.24
 90
        1
 40
0.75
 90
        1
300
%<\AcVar ViewType \f "%tc1">% %<\AcVar ViewDetailId>%\PSCALE %<\AcVar ViewScale \f "%sn">%
 71
     4
340
5D
 90
       25
 62
   256
340
5D
 90
       25
 62
   256
280
     0
  0
LAYOUT
  5
6F
102
{ACAD_REACTORS
330
62
102
}
330
62
100
AcDbPlotSettings
  1

  2

  4

  6

 40
0.0
 41
0.0
 42
0.0
 43
0.0
 44
0.0
 45
0.0
 46
0.0
 47
0.0
 48
0.0
 49
0.0
140
0.0
141
0.0
142
1.0
143
1.0
 70
   688
 72
     0
 73
     0
 74
     5
  7

 75
    16
147
1.0
 76
     0
 77
     2
 78
   300
148
0.0
149
0.0
100
AcDbLayout
  1
Layout1
 70
     1
 71
     1
 10
0.0
 20
0.0
 11
12.0
 21
9.0
 12
0.0
 22
0.0
 32
0.0
 14
0.0
 24
0.0
 34
0.0
 15
0.0
 25
0.0
 35
0.0
146
0.0
 13
0.0
 23
0.0
 33
0.0
 16
1.0
 26
0.0
 36
0.0
 17
0.0
 27
1.0
 37
0.0
 76
     0
330
6C
  0
LAYOUT
  5
77
102
{ACAD_REACTORS
330
62
102
}
330
62
100
AcDbPlotSettings
  1

  2

  4

  6

 40
0.0
 41
0.0
 42
0.0
 43
0.0
 44
0.0
 45
0.0
 46
0.0
 47
0.0
 48
0.0
 49
0.0
140
0.0
141
0.0
142
1.0
143
1.0
 70
   688
 72
     0
 73
     0
 74
     5
  7

 75
    16
147
1.0
 76
     0
 77
     2
 78
   300
148
0.0
149
0.0
100
AcDbLayout
  1
Layout2
 70
     1
 71
     2
 10
0.0
 20
0.0
 11
12.0
 21
9.0
 12
0.0
 22
0.0
 32
0.0
 14
0.0
 24
0.0
 34
0.0
 15
0.0
 25
0.0
 35
0.0
146
0.0
 13
0.0
 23
0.0
 33
0.0
 16
1.0
 26
0.0
 36
0.0
 17
0.0
 27
1.0
 37
0.0
 76
     0
330
74
  0
LAYOUT
  5
73
102
{ACAD_REACTORS
330
62
102
}
330
62
100
AcDbPlotSettings
  1

  2

  4

  6

 40
0.0
 41
0.0
 42
0.0
 43
0.0
 44
0.0
 45
0.0
 46
0.0
 47
0.0
 48
0.0
 49
0.0
140
0.0
141
0.0
142
1.0
143
1.0
 70
  1712
 72
     0
 73
     0
 74
     0
  7

 75
     0
147
1.0
 76
     0
 77
     2
 78
   300
148
0.0
149
0.0
100
AcDbLayout
  1
Model
 70
     1
 71
     0
 10
0.0
 20
0.0
 11
12.0
 21
9.0
 12
0.0
 22
0.0
 32
0.0
 14
0.0
 24
0.0
 34
0.0
 15
0.0
 25
0.0
 35
0.0
146
0.0
 13
0.0
 23
0.0
 33
0.0
 16
1.0
 26
0.0
 36
0.0
 17
0.0
 27
1.0
 37
0.0
 76
     0
330
70
  0
MATERIAL
  5
19
102
{ACAD_XDICTIONARY
360
1A
102
}
102
{ACAD_REACTORS
330
10
102
}
330
10
100
AcDbMaterial
  1
ByBlock
 72
     0
 43
0.0208333333333333
 43
0.0
 43
0.0
 43
0.0
 43
0.0
 43
0.0208333333333333
 43
0.0
 43
0.0
 43
0.0
 43
0.0
 43
1.0
 43
0.0
 43
0.0
 43
0.0
 43
0.0
 43
1.0
 77
     0
 47
0.0208333333333333
 47
0.0
 47
0.0
 47
0.0
 47
0.0
 47
0.0208333333333333
 47
0.0
 47
0.0
 47
0.0
 47
0.0
 47
1.0
 47
0.0
 47
0.0
 47
0.0
 47
0.0
 47
1.0
171
     0
 49
0.0208333333333333
 49
0.0
 49
0.0
 49
0.0
 49
0.0
 49
0.0208333333333333
 49
0.0
 49
0.0
 49
0.0
 49
0.0
 49
1.0
 49
0.0
 49
0.0
 49
0.0
 49
0.0
 49
1.0
175
     0
142
0.0208333333333333
142
0.0
142
0.0
142
0.0
142
0.0
142
0.0208333333333333
142
0.0
142
0.0
142
0.0
142
0.0
142
1.0
142
0.0
142
0.0
142
0.0
142
0.0
142
1.0
179
     0
144
0.0208333333333333
144
0.0
144
0.0
144
0.0
144
0.0
144
0.0208333333333333
144
0.0
144
0.0
144
0.0
144
0.0
144
1.0
144
0.0
144
0.0
144
0.0
144
0.0
144
1.0
147
0.0208333333333333
147
0.0
147
0.0
147
0.0
147
0.0
147
0.0208333333333333
147
0.0
147
0.0
147
0.0
147
0.0
147
1.0
147
0.0
147
0.0
147
0.0
147
0.0
147
1.0
  0
MATERIAL
  5
11
102
{ACAD_XDICTIONARY
360
12
102
}
102
{ACAD_REACTORS
330
10
102
}
330
10
100
AcDbMaterial
  1
ByLayer
 72
     0
 43
0.0208333333333333
 43
0.0
 43
0.0
 43
0.0
 43
0.0
 43
0.0208333333333333
 43
0.0
 43
0.0
 43
0.0
 43
0.0
 43
1.0
 43
0.0
 43
0.0
 43
0.0
 43
0.0
 43
1.0
 77
     0
 47
0.0208333333333333
 47
0.0
 47
0.0
 47
0.0
 47
0.0
 47
0.0208333333333333
 47
0.0
 47
0.0
 47
0.0
 47
0.0
 47
1.0
 47
0.0
 47
0.0
 47
0.0
 47
0.0
 47
1.0
171
     0
 49
0.0208333333333333
 49
0.0
 49
0.0
 49
0.0
 49
0.0
 49
0.0208333333333333
 49
0.0
 49
0.0
 49
0.0
 49
0.0
 49
1.0
 49
0.0
 49
0.0
 49
0.0
 49
0.0
 49
1.0
175
     0
142
0.0208333333333333
142
0.0
142
0.0
142
0.0
142
0.0
142
0.0208333333333333
142
0.0
142
0.0
142
0.0
142
0.0
142
1.0
142
0.0
142
0.0
142
0.0
142
0.0
142
1.0
179
     0
144
0.0208333333333333
144
0.0
144
0.0
144
0.0
144
0.0
144
0.0208333333333333
144
0.0
144
0.0
144
0.0
144
0.0
144
1.0
144
0.0
144
0.0
144
0.0
144
0.0
144
1.0
147
0.0208333333333333
147
0.0
147
0.0
147
0.0
147
0.0
147
0.0208333333333333
147
0.0
147
0.0
147
0.0
147
0.0
147
1.0
147
0.0
147
0.0
147
0.0
147
0.0
147
1.0
  0
MATERIAL
  5
21
102
{ACAD_XDICTIONARY
360
22
102
}
102
{ACAD_REACTORS
330
10
102
}
330
10
100
AcDbMaterial
  1
Global
 72
     0
 43
0.0208333333333333
 43
0.0
 43
0.0
 43
0.0
 43
0.0
 43
0.0208333333333333
 43
0.0
 43
0.0
 43
0.0
 43
0.0
 43
1.0
 43
0.0
 43
0.0
 43
0.0
 43
0.0
 43
1.0
 77
     0
 47
0.0208333333333333
 47
0.0
 47
0.0
 47
0.0
 47
0.0
 47
0.0208333333333333
 47
0.0
 47
0.0
 47
0.0
 47
0.0
 47
1.0
 47
0.0
 47
0.0
 47
0.0
 47
0.0
 47
1.0
171
     0
 49
0.0208333333333333
 49
0.0
 49
0.0
 49
0.0
 49
0.0
 49
0.0208333333333333
 49
0.0
 49
0.0
 49
0.0
 49
0.0
 49
1.0
 49
0.0
 49
0.0
 49
0.0
 49
0.0
 49
1.0
175
     0
142
0.0208333333333333
142
0.0
142
0.0
142
0.0
142
0.0
142
0.0208333333333333
142
0.0
142
0.0
142
0.0
142
0.0
142
1.0
142
0.0
142
0.0
142
0.0
142
0.0
142
1.0
179
     0
144
0.0208333333333333
144
0.0
144
0.0
144
0.0
144
0.0
144
0.0208333333333333
144
0.0
144
0.0
144
0.0
144
0.0
144
1.0
144
0.0
144
0.0
144
0.0
144
0.0
144
1.0
147
0.0208333333333333
147
0.0
147
0.0
147
0.0
147
0.0
147
0.0208333333333333
147
0.0
147
0.0
147
0.0
147
0.0
147
1.0
147
0.0
147
0.0
147
0.0
147
0.0
147
1.0
  0
MLEADERSTYLE
  5
67
102
{ACAD_XDICTIONARY
360
1BA
102
}
102
{ACAD_REACTORS
330
66
102
}
330
66
100
AcDbMLeaderStyle
179
     2
170
     2
171
     1
172
     0
 90
        2
 40
0.0
 41
0.0
173
     1
 91
-1056964608
340
5B
 92
       -2
290
     1
 42
0.09
291
     1
 43
0.36
  3
Standard
 44
0.18
300

342
55
174
     1
178
     6
175
     1
176
     0
 93
-1056964608
 45
0.18
292
     0
297
     0
 46
0.18
 94
-1056964608
 47
1.0
 49
1.0
140
1.0
293
     1
141
0.0
294
     1
177
     0
142
1.0
295
     0
296
     0
143
0.125
271
     0
272
     9
273
     9
  0
MLINESTYLE
  5
60
102
{ACAD_REACTORS
330
5F
102
}
330
5F
100
AcDbMlineStyle
  2
STANDARD
 70
     0
  3

 62
   256
 51
90.0
 52
90.0
 71
     2
 49
0.5
 62
   256
  6
BYLAYER
 49
-0.5
 62
   256
  6
BYLAYER
  0
ACDBPLACEHOLDER
  5
F
102
{ACAD_REACTORS
330
E
102
}
330
E
  0
SCALE
  5
43
102
{ACAD_REACTORS
330
42
102
}
330
42
100
AcDbScale
 70
     0
300
1:1
140
1.0
141
1.0
290
     1
  0
SCALE
  5
44
102
{ACAD_REACTORS
330
42
102
}
330
42
100
AcDbScale
 70
     0
300
1/128" = 1'-0"
140
0.0078125
141
12.0
290
     0
  0
SCALE
  5
45
102
{ACAD_REACTORS
330
42
102
}
330
42
100
AcDbScale
 70
     0
300
1/64" = 1'-0"
140
0.015625
141
12.0
290
     0
  0
SCALE
  5
46
102
{ACAD_REACTORS
330
42
102
}
330
42
100
AcDbScale
 70
     0
300
1/32" = 1'-0"
140
0.03125
141
12.0
290
     0
  0
SCALE
  5
47
102
{ACAD_REACTORS
330
42
102
}
330
42
100
AcDbScale
 70
     0
300
1/16" = 1'-0"
140
0.0625
141
12.0
290
     0
  0
SCALE
  5
48
102
{ACAD_REACTORS
330
42
102
}
330
42
100
AcDbScale
 70
     0
300
3/32" = 1'-0"
140
0.09375
141
12.0
290
     0
  0
SCALE
  5
49
102
{ACAD_REACTORS
330
42
102
}
330
42
100
AcDbScale
 70
     0
300
1/8" = 1'-0"
140
0.125
141
12.0
290
     0
  0
SCALE
  5
4A
102
{ACAD_REACTORS
330
42
102
}
330
42
100
AcDbScale
 70
     0
300
3/16" = 1'-0"
140
0.1875
141
12.0
290
     0
  0
SCALE
  5
4B
102
{ACAD_REACTORS
330
42
102
}
330
42
100
AcDbScale
 70
     0
300
1/4" = 1'-0"
140
0.25
141
12.0
290
     0
  0
SCALE
  5
4C
102
{ACAD_REACTORS
330
42
102
}
330
42
100
AcDbScale
 70
     0
300
3/8" = 1'-0"
140
0.375
141
12.0
290
     0
  0
SCALE
  5
4D
102
{ACAD_REACTORS
330
42
102
}
330
42
100
AcDbScale
 70
     0
300
1/2" = 1'-0"
140
0.5
141
12.0
290
     0
  0
SCALE
  5
4E
102
{ACAD_REACTORS
330
42
102
}
330
42
100
AcDbScale
 70
     0
300
3/4" = 1'-0"
140
0.75
141
12.0
290
     0
  0
SCALE
  5
4F
102
{ACAD_REACTORS
330
42
102
}
330
42
100
AcDbScale
 70
     0
300
1" = 1'-0"
140
1.0
141
12.0
290
     0
  0
SCALE
  5
50
102
{ACAD_REACTORS
330
42
102
}
330
42
100
AcDbScale
 70
     0
300
1-1/2" = 1'-0"
140
1.5
141
12.0
290
     0
  0
SCALE
  5
51
102
{ACAD_REACTORS
330
42
102
}
330
42
100
AcDbScale
 70
     0
300
3" = 1'-0"
140
3.0
141
12.0
290
     0
  0
SCALE
  5
52
102
{ACAD_REACTORS
330
42
102
}
330
42
100
AcDbScale
 70
     0
300
6" = 1'-0"
140
6.0
141
12.0
290
     0
  0
SCALE
  5
53
102
{ACAD_REACTORS
330
42
102
}
330
42
100
AcDbScale
 70
     0
300
1'-0" = 1'-0"
140
12.0
141
12.0
290
     0
  0
ACDBSECTIONVIEWSTYLE
  5
69
102
{ACAD_XDICTIONARY
360
1BC
102
}
102
{ACAD_REACTORS
330
68
102
}
330
68
100
AcDbModelDocViewStyle
 70
     0
  3
Imperial24
290
     0
100
AcDbSectionViewStyle
 70
     0
 71
     0
 90
       78
 71
     1
340
55
 62
   256
 40
0.24
340
0
340
0
 62
   256
 40
0.24
300
I, O, Q, S, X, Z
 40
0.48
 90
        3
 40
0.18
 90
        1
 71
     2
340
5D
 90
       25
 62
   256
340
5D
 90
       50
 62
   256
 40
0.24
 40
0.0
 40
0.24
 71
     3
340
55
 62
   256
 40
0.24
 90
        1
 40
0.75
 90
        1
300
%<\AcVar ViewType \f "%tc1">% %<\AcVar ViewSectionStartId>%-%<\AcVar ViewSectionEndId>%\PSCALE %<\AcVar ViewScale \f "%sn">%
 71
     4
 62
   256
 62
   257
300
ANSI31
 40
1.0
 90
        0
290
     0
290
     0
 90
        6
 40
0.0
 40
1.570796326794896
 40
0.2617993877991494
 40
1.308996938995747
 40
-0.2617993877991494
 40
1.832595714594046
  0
TABLESTYLE
  5
65
102
{ACAD_XDICTIONARY
360
187
102
}
102
{ACAD_REACTORS
330
64
102
}
330
64
100
AcDbTableStyle
280
     0
  3
Standard
 70
     0
 71
     0
 40
0.06
 41
0.06
280
     0
281
     0
  7
Standard
140
0.18
170
     2
 62
     0
 63
     7
283
     0
 90
      512
 91
        0
  1

274
    -2
284
     1
 64
     0
275
    -2
285
     1
 65
     0
276
    -2
286
     1
 66
     0
277
    -2
287
     1
 67
     0
278
    -2
288
     1
 68
     0
279
    -2
289
     1
 69
     0
  7
Standard
140
0.25
170
     5
 62
     0
 63
     7
283
     0
 90
      512
 91
        0
  1

274
    -2
284
     1
 64
     0
275
    -2
285
     1
 65
     0
276
    -2
286
     1
 66
     0
277
    -2
287
     1
 67
     0
278
    -2
288
     1
 68
     0
279
    -2
289
     1
 69
     0
  7
Standard
140
0.18
170
     5
 62
     0
 63
     7
283
     0
 90
      512
 91
        0
  1

274
    -2
284
     1
 64
     0
275
    -2
285
     1
 65
     0
276
    -2
286
     1
 66
     0
277
    -2
287
     1
 67
     0
278
    -2
288
     1
 68
     0
279
    -2
289
     1
 69
     0
  0
VISUALSTYLE
  5
2F
102
{ACAD_XDICTIONARY
360
194
102
}
102
{ACAD_REACTORS
330
29
102
}
330
29
100
AcDbVisualStyle
  2
2dWireframe
 70
     4
177
     2
291
     0
 71
     0
176
     1
 72
     2
176
     1
 73
     0
176
     1
 90
        0
176
     1
 40
0.6
176
     1
 41
30.0
176
     1
 63
     7
421
 16777215
176
     1
 74
     1
176
     1
 91
        4
176
     1
 64
     7
176
     1
 65
   257
176
     1
 75
     1
176
     1
175
     1
176
     1
 42
1.0
176
     1
 92
        0
176
     1
 66
   257
176
     1
 43
1.0
176
     1
 76
     1
176
     1
 77
     6
176
     1
 78
     2
176
     1
 67
     7
176
     1
 79
     5
176
     1
170
     0
176
     1
171
     0
176
     1
290
     0
176
     1
 93
        1
176
     1
 44
0.0
176
     1
173
     0
176
     1
1001
ACAD
1000
AcDbSavedByObjectVersion
1070
     0
  0
VISUALSTYLE
  5
2E
102
{ACAD_XDICTIONARY
360
192
102
}
102
{ACAD_REACTORS
330
29
102
}
330
29
100
AcDbVisualStyle
  2
Basic
 70
     7
177
     2
291
     1
 71
     1
176
     1
 72
     0
176
     1
 73
     1
176
     1
 90
        0
176
     1
 40
0.6
176
     1
 41
30.0
176
     1
 63
     7
421
 16777215
176
     1
 74
     0
176
     1
 91
        4
176
     1
 64
     7
176
     1
 65
   257
176
     1
 75
     1
176
     1
175
     1
176
     1
 42
1.0
176
     1
 92
        8
176
     1
 66
     7
176
     1
 43
1.0
176
     1
 76
     1
176
     1
 77
     6
176
     1
 78
     2
176
     1
 67
     7
176
     1
 79
     5
176
     1
170
     0
176
     1
171
     0
176
     1
290
     0
176
     1
 93
        1
176
     1
 44
0.0
176
     1
173
     0
176
     1
1001
ACAD
1000
AcDbSavedByObjectVersion
1070
     0
  0
VISUALSTYLE
  5
35
102
{ACAD_XDICTIONARY
360
1A0
102
}
102
{ACAD_REACTORS
330
29
102
}
330
29
100
AcDbVisualStyle
  2
Brighten
 70
    12
177
     2
291
     1
 71
     2
176
     1
 72
     2
176
     1
 73
     0
176
     1
 90
        0
176
     1
 40
0.6
176
     1
 41
30.0
176
     1
 63
     7
421
 16777215
176
     1
 74
     1
176
     1
 91
        4
176
     1
 64
     7
176
     1
 65
   257
176
     1
 75
     1
176
     1
175
     1
176
     1
 42
1.0
176
     1
 92
        8
176
     1
 66
     7
176
     1
 43
1.0
176
     1
 76
     1
176
     1
 77
     6
176
     1
 78
     2
176
     1
 67
     7
176
     1
 79
     5
176
     1
170
     0
176
     1
171
     0
176
     1
290
     0
176
     1
 93
        1
176
     1
 44
50.0
176
     1
173
     0
176
     1
1001
ACAD
1000
AcDbSavedByObjectVersion
1070
     0
  0
VISUALSTYLE
  5
39
102
{ACAD_XDICTIONARY
360
1A8
102
}
102
{ACAD_REACTORS
330
29
102
}
330
29
100
AcDbVisualStyle
  2
ColorChange
 70
    16
177
     2
291
     1
 71
     2
176
     1
 72
     2
176
     1
 73
     3
176
     1
 90
        0
176
     1
 40
0.6
176
     1
 41
30.0
176
     1
 63
     8
421
  8421504
176
     1
 74
     1
176
     1
 91
        4
176
     1
 64
     7
176
     1
 65
   257
176
     1
 75
     1
176
     1
175
     1
176
     1
 42
1.0
176
     1
 92
        8
176
     1
 66
     8
424
  8421504
176
     1
 43
1.0
176
     1
 76
     1
176
     1
 77
     6
176
     1
 78
     2
176
     1
 67
     7
176
     1
 79
     5
176
     1
170
     0
176
     1
171
     0
176
     1
290
     0
176
     1
 93
        1
176
     1
 44
0.0
176
     1
173
     0
176
     1
1001
ACAD
1000
AcDbSavedByObjectVersion
1070
     0
  0
VISUALSTYLE
  5
32
102
{ACAD_XDICTIONARY
360
19A
102
}
102
{ACAD_REACTORS
330
29
102
}
330
29
100
AcDbVisualStyle
  2
Conceptual
 70
     9
177
     2
291
     0
 71
     3
176
     1
 72
     2
176
     1
 73
     0
176
     1
 90
        0
176
     1
 40
0.6
176
     1
 41
30.0
176
     1
 63
     7
421
 16777215
176
     1
 74
     2
176
     1
 91
        2
176
     1
 64
     7
176
     1
 65
   257
176
     1
 75
     1
176
     1
175
     1
176
     1
 42
179.0
176
     1
 92
        8
176
     1
 66
     7
176
     1
 43
1.0
176
     1
 76
     1
176
     1
 77
     6
176
     1
 78
     2
176
     1
 67
     7
176
     1
 79
     3
176
     1
170
     0
176
     1
171
     0
176
     1
290
     0
176
     1
 93
        1
176
     1
 44
0.0
176
     1
173
     0
176
     1
1001
ACAD
1000
AcDbSavedByObjectVersion
1070
     0
  0
VISUALSTYLE
  5
34
102
{ACAD_XDICTIONARY
360
19E
102
}
102
{ACAD_REACTORS
330
29
102
}
330
29
100
AcDbVisualStyle
  2
Dim
 70
    11
177
     2
291
     1
 71
     2
176
     1
 72
     2
176
     1
 73
     0
176
     1
 90
        0
176
     1
 40
0.6
176
     1
 41
30.0
176
     1
 63
     7
421
 16777215
176
     1
 74
     1
176
     1
 91
        4
176
     1
 64
     7
176
     1
 65
   257
176
     1
 75
     1
176
     1
175
     1
176
     1
 42
1.0
176
     1
 92
        8
176
     1
 66
     7
176
     1
 43
1.0
176
     1
 76
     1
176
     1
 77
     6
176
     1
 78
     2
176
     1
 67
     7
176
     1
 79
     5
176
     1
170
     0
176
     1
171
     0
176
     1
290
     0
176
     1
 93
        1
176
     1
 44
-50.0
176
     1
173
     0
176
     1
1001
ACAD
1000
AcDbSavedByObjectVersion
1070
     0
  0
VISUALSTYLE
  5
41
102
{ACAD_XDICTIONARY
360
1B8
102
}
102
{ACAD_REACTORS
330
29
102
}
330
29
100
AcDbVisualStyle
  2
EdgeColorOff
 70
    22
177
     2
291
     1
 71
     2
176
     0
 72
     2
176
     0
 73
     0
176
     0
 90
        0
176
     0
 40
0.6
176
     0
 41
30.0
176
     0
 63
     7
421
 16777215
176
     0
 74
     1
176
     0
 91
        4
176
     0
 64
     7
176
     0
 65
   257
176
     0
 75
     1
176
     0
175
     1
176
     0
 42
1.0
176
     0
 92
        8
176
     2
 66
     7
176
     0
 43
1.0
176
     0
 76
     1
176
     0
 77
     6
176
     0
 78
     2
176
     0
 67
     7
176
     0
 79
     5
176
     0
170
     0
176
     0
171
     0
176
     0
290
     0
176
     0
 93
        1
176
     0
 44
0.0
176
     0
173
     0
176
     0
1001
ACAD
1000
AcDbSavedByObjectVersion
1070
     0
  0
VISUALSTYLE
  5
38
102
{ACAD_XDICTIONARY
360
1A6
102
}
102
{ACAD_REACTORS
330
29
102
}
330
29
100
AcDbVisualStyle
  2
Facepattern
 70
    15
177
     2
291
     1
 71
     2
176
     1
 72
     2
176
     1
 73
     0
176
     1
 90
        0
176
     1
 40
0.6
176
     1
 41
30.0
176
     1
 63
     7
421
 16777215
176
     1
 74
     1
176
     1
 91
        4
176
     1
 64
     7
176
     1
 65
   257
176
     1
 75
     1
176
     1
175
     1
176
     1
 42
1.0
176
     1
 92
        8
176
     1
 66
     7
176
     1
 43
1.0
176
     1
 76
     1
176
     1
 77
     6
176
     1
 78
     2
176
     1
 67
     7
176
     1
 79
     5
176
     1
170
     0
176
     1
171
     0
176
     1
290
     0
176
     1
 93
        1
176
     1
 44
0.0
176
     1
173
     0
176
     1
1001
ACAD
1000
AcDbSavedByObjectVersion
1070
     0
  0
VISUALSTYLE
  5
2A
102
{ACAD_XDICTIONARY
360
18A
102
}
102
{ACAD_REACTORS
330
29
102
}
330
29
100
AcDbVisualStyle
  2
Flat
 70
     0
177
     2
291
     1
 71
     2
176
     1
 72
     1
176
     1
 73
     1
176
     1
 90
        2
176
     1
 40
0.6
176
     1
 41
30.0
176
     1
 63
     7
421
 16777215
176
     1
 74
     0
176
     1
 91
        0
176
     1
 64
     7
176
     1
 65
   257
176
     1
 75
     1
176
     1
175
     1
176
     1
 42
1.0
176
     1
 92
        8
176
     1
 66
     7
176
     1
 43
1.0
176
     1
 76
     1
176
     1
 77
     6
176
     1
 78
     2
176
     1
 67
     7
176
     1
 79
     5
176
     1
170
     0
176
     1
171
     0
176
     1
290
     0
176
     1
 93
       13
176
     1
 44
0.0
176
     1
173
     0
176
     1
1001
ACAD
1000
AcDbSavedByObjectVersion
1070
     0
  0
VISUALSTYLE
  5
2B
102
{ACAD_XDICTIONARY
360
18C
102
}
102
{ACAD_REACTORS
330
29
102
}
330
29
100
AcDbVisualStyle
  2
FlatWithEdges
 70
     1
177
     2
291
     1
 71
     2
176
     1
 72
     1
176
     1
 73
     1
176
     1
 90
        2
176
     1
 40
0.6
176
     1
 41
30.0
176
     1
 63
     7
421
 16777215
176
     1
 74
     1
176
     1
 91
        0
176
     1
 64
     7
176
     1
 65
   257
176
     1
 75
     1
176
     1
175
     1
176
     1
 42
1.0
176
     1
 92
        0
176
     1
 66
   257
176
     1
 43
1.0
176
     1
 76
     1
176
     1
 77
     6
176
     1
 78
     2
176
     1
 67
     7
176
     1
 79
     5
176
     1
170
     0
176
     1
171
     0
176
     1
290
     0
176
     1
 93
       13
176
     1
 44
0.0
176
     1
173
     0
176
     1
1001
ACAD
1000
AcDbSavedByObjectVersion
1070
     0
  0
VISUALSTYLE
  5
2C
102
{ACAD_XDICTIONARY
360
18E
102
}
102
{ACAD_REACTORS
330
29
102
}
330
29
100
AcDbVisualStyle
  2
Gouraud
 70
     2
177
     2
291
     1
 71
     2
176
     1
 72
     2
176
     1
 73
     1
176
     1
 90
        2
176
     1
 40
0.6
176
     1
 41
30.0
176
     1
 63
     7
421
 16777215
176
     1
 74
     0
176
     1
 91
        0
176
     1
 64
     7
176
     1
 65
   257
176
     1
 75
     1
176
     1
175
     1
176
     1
 42
1.0
176
     1
 92
        0
176
     1
 66
     7
176
     1
 43
1.0
176
     1
 76
     1
176
     1
 77
     6
176
     1
 78
     2
176
     1
 67
     7
176
     1
 79
     5
176
     1
170
     0
176
     1
171
     0
176
     1
290
     0
176
     1
 93
       13
176
     1
 44
0.0
176
     1
173
     0
176
     1
1001
ACAD
1000
AcDbSavedByObjectVersion
1070
     0
  0
VISUALSTYLE
  5
2D
102
{ACAD_XDICTIONARY
360
190
102
}
102
{ACAD_REACTORS
330
29
102
}
330
29
100
AcDbVisualStyle
  2
GouraudWithEdges
 70
     3
177
     2
291
     1
 71
     2
176
     1
 72
     2
176
     1
 73
     1
176
     1
 90
        2
176
     1
 40
0.6
176
     1
 41
30.0
176
     1
 63
     7
421
 16777215
176
     1
 74
     1
176
     1
 91
        0
176
     1
 64
     7
176
     1
 65
   257
176
     1
 75
     1
176
     1
175
     1
176
     1
 42
1.0
176
     1
 92
        0
176
     1
 66
   257
176
     1
 43
1.0
176
     1
 76
     1
176
     1
 77
     6
176
     1
 78
     2
176
     1
 67
     7
176
     1
 79
     5
176
     1
170
     0
176
     1
171
     0
176
     1
290
     0
176
     1
 93
       13
176
     1
 44
0.0
176
     1
173
     0
176
     1
1001
ACAD
1000
AcDbSavedByObjectVersion
1070
     0
  0
VISUALSTYLE
  5
31
102
{ACAD_XDICTIONARY
360
198
102
}
102
{ACAD_REACTORS
330
29
102
}
330
29
100
AcDbVisualStyle
  2
Hidden
 70
     6
177
     2
291
     0
 71
     1
176
     1
 72
     2
176
     1
 73
     2
176
     1
 90
        0
176
     1
 40
0.6
176
     1
 41
30.0
176
     1
 63
     7
421
 16777215
176
     1
 74
     2
176
     1
 91
        2
176
     1
 64
     7
176
     1
 65
   257
176
     1
 75
     2
176
     1
175
     1
176
     1
 42
40.0
176
     1
 92
        0
176
     1
 66
   257
176
     1
 43
1.0
176
     1
 76
     1
176
     1
 77
     6
176
     1
 78
     2
176
     1
 67
     7
176
     1
 79
     3
176
     1
170
     0
176
     1
171
     0
176
     1
290
     0
176
     1
 93
        1
176
     1
 44
0.0
176
     1
173
     0
176
     1
1001
ACAD
1000
AcDbSavedByObjectVersion
1070
     0
  0
VISUALSTYLE
  5
3F
102
{ACAD_XDICTIONARY
360
1B4
102
}
102
{ACAD_REACTORS
330
29
102
}
330
29
100
AcDbVisualStyle
  2
JitterOff
 70
    20
177
     2
291
     1
 71
     2
176
     0
 72
     2
176
     0
 73
     0
176
     0
 90
        0
176
     0
 40
0.6
176
     0
 41
30.0
176
     0
 63
     7
421
 16777215
176
     0
 74
     1
176
     0
 91
        4
176
     0
 64
     7
176
     0
 65
   257
176
     0
 75
     1
176
     0
175
     1
176
     0
 42
1.0
176
     0
 92
       10
176
     2
 66
     7
176
     0
 43
1.0
176
     0
 76
     1
176
     0
 77
     6
176
     0
 78
     2
176
     0
 67
     7
176
     0
 79
     5
176
     0
170
     0
176
     0
171
     0
176
     0
290
     0
176
     0
 93
        1
176
     0
 44
0.0
176
     0
173
     0
176
     0
1001
ACAD
1000
AcDbSavedByObjectVersion
1070
     0
  0
VISUALSTYLE
  5
37
102
{ACAD_XDICTIONARY
360
1A4
102
}
102
{ACAD_REACTORS
330
29
102
}
330
29
100
AcDbVisualStyle
  2
Linepattern
 70
    14
177
     2
291
     1
 71
     2
176
     1
 72
     2
176
     1
 73
     0
176
     1
 90
        0
176
     1
 40
0.6
176
     1
 41
30.0
176
     1
 63
     7
421
 16777215
176
     1
 74
     1
176
     1
 91
        4
176
     1
 64
     7
176
     1
 65
   257
176
     1
 75
     7
176
     1
175
     7
176
     1
 42
1.0
176
     1
 92
        8
176
     1
 66
     7
176
     1
 43
1.0
176
     1
 76
     1
176
     1
 77
     6
176
     1
 78
     2
176
     1
 67
     7
176
     1
 79
     5
176
     1
170
     0
176
     1
171
     0
176
     1
290
     0
176
     1
 93
        1
176
     1
 44
0.0
176
     1
173
     0
176
     1
1001
ACAD
1000
AcDbSavedByObjectVersion
1070
     0
  0
VISUALSTYLE
  5
40
102
{ACAD_XDICTIONARY
360
1B6
102
}
102
{ACAD_REACTORS
330
29
102
}
330
29
100
AcDbVisualStyle
  2
OverhangOff
 70
    21
177
     2
291
     1
 71
     2
176
     0
 72
     2
176
     0
 73
     0
176
     0
 90
        0
176
     0
 40
0.6
176
     0
 41
30.0
176
     0
 63
     7
421
 16777215
176
     0
 74
     1
176
     0
 91
        4
176
     0
 64
     7
176
     0
 65
   257
176
     0
 75
     1
176
     0
175
     1
176
     0
 42
1.0
176
     0
 92
        9
176
     2
 66
     7
176
     0
 43
1.0
176
     0
 76
     1
176
     0
 77
     6
176
     0
 78
     2
176
     0
 67
     7
176
     0
 79
     5
176
     0
170
     0
176
     0
171
     0
176
     0
290
     0
176
     0
 93
        1
176
     0
 44
0.0
176
     0
173
     0
176
     0
1001
ACAD
1000
AcDbSavedByObjectVersion
1070
     0
  0
VISUALSTYLE
  5
33
102
{ACAD_XDICTIONARY
360
19C
102
}
102
{ACAD_REACTORS
330
29
102
}
330
29
100
AcDbVisualStyle
  2
Realistic
 70
     8
177
     2
291
     0
 71
     2
176
     1
 72
     3
176
     1
 73
     0
176
     1
 90
        2
176
     1
 40
0.6
176
     1
 41
30.0
176
     1
 63
     7
421
 16777215
176
     1
 74
     0
176
     1
 91
        0
176
     1
 64
     7
176
     1
 65
   257
176
     1
 75
     1
176
     1
175
     1
176
     1
 42
1.0
176
     1
 92
        8
176
     1
 66
   257
176
     1
 43
1.0
176
     1
 76
     1
176
     1
 77
     6
176
     1
 78
     2
176
     1
 67
     7
176
     1
 79
     3
176
     1
170
     0
176
     1
171
     0
176
     1
290
     0
176
     1
 93
       13
176
     1
 44
0.0
176
     1
173
     0
176
     1
1001
ACAD
1000
AcDbSavedByObjectVersion
1070
     0
  0
VISUALSTYLE
  5
3E
102
{ACAD_XDICTIONARY
360
1B2
102
}
102
{ACAD_REACTORS
330
29
102
}
330
29
100
AcDbVisualStyle
  2
Shaded
 70
    27
177
     2
291
     0
 71
     2
176
     1
 72
     2
176
     1
 73
     1
176
     1
 90
        2
176
     1
 40
0.6
176
     1
 41
30.0
176
     1
 63
     7
421
 16777215
176
     1
 74
     0
176
     1
 91
        4
176
     1
 64
     7
176
     1
 65
   257
176
     1
 75
     1
176
     1
175
     1
176
     1
 42
1.0
176
     1
 92
        8
176
     1
 66
   257
176
     1
 43
1.0
176
     1
 76
     1
176
     1
 77
     6
176
     1
 78
     2
176
     1
 67
     8
425
  7895160
176
     1
 79
     3
176
     1
170
     0
176
     1
171
     0
176
     1
290
     0
176
     1
 93
        5
176
     1
 44
0.0
176
     1
173
     0
176
     1
1001
ACAD
1000
AcDbSavedByObjectVersion
1070
     0
  0
VISUALSTYLE
  5
3D
102
{ACAD_XDICTIONARY
360
1B0
102
}
102
{ACAD_REACTORS
330
29
102
}
330
29
100
AcDbVisualStyle
  2
Shaded with edges
 70
    26
177
     2
291
     0
 71
     2
176
     1
 72
     2
176
     1
 73
     1
176
     1
 90
        2
176
     1
 40
0.6
176
     1
 41
30.0
176
     1
 63
     7
421
 16777215
176
     1
 74
     1
176
     1
 91
        2
176
     1
 64
     7
176
     1
 65
   257
176
     1
 75
     2
176
     1
175
     1
176
     1
 42
1.0
176
     1
 92
        8
176
     1
 66
   257
176
     1
 43
1.0
176
     1
 76
     1
176
     1
 77
     6
176
     1
 78
     2
176
     1
 67
     7
176
     1
 79
     3
176
     1
170
     0
176
     1
171
     0
176
     1
290
     0
176
     1
 93
        5
176
     1
 44
0.0
176
     1
173
     0
176
     1
1001
ACAD
1000
AcDbSavedByObjectVersion
1070
     0
  0
VISUALSTYLE
  5
3A
102
{ACAD_XDICTIONARY
360
1AA
102
}
102
{ACAD_REACTORS
330
29
102
}
330
29
100
AcDbVisualStyle
  2
Shades of Gray
 70
    23
177
     2
291
     0
 71
     2
176
     1
 72
     2
176
     1
 73
     3
176
     1
 90
        0
176
     1
 40
0.6
176
     1
 41
30.0
176
     1
 63
     7
421
 16777215
176
     1
 74
     2
176
     1
 91
        2
176
     1
 64
     7
176
     1
 65
     7
176
     1
 75
     1
176
     1
175
     1
176
     1
 42
40.0
176
     1
 92
        8
176
     1
 66
     7
176
     1
 43
1.0
176
     1
 76
     1
176
     1
 77
     6
176
     1
 78
     2
176
     1
 67
     7
176
     1
 79
     3
176
     1
170
     0
176
     1
171
     0
176
     1
290
     0
176
     1
 93
        1
176
     1
 44
0.0
176
     1
173
     0
176
     1
1001
ACAD
1000
AcDbSavedByObjectVersion
1070
     0
  0
VISUALSTYLE
  5
3B
102
{ACAD_XDICTIONARY
360
1AC
102
}
102
{ACAD_REACTORS
330
29
102
}
330
29
100
AcDbVisualStyle
  2
Sketchy
 70
    24
177
     2
291
     0
 71
     1
176
     1
 72
     2
176
     1
 73
     2
176
     1
 90
        0
176
     1
 40
0.6
176
     1
 41
30.0
176
     1
 63
     7
421
 16777215
176
     1
 74
     2
176
     1
 91
        2
176
     1
 64
     7
176
     1
 65
     7
176
     1
 75
     1
176
     1
175
     1
176
     1
 42
40.0
176
     1
 92
       11
176
     1
 66
     7
176
     1
 43
1.0
176
     1
 76
     1
176
     1
 77
     6
176
     1
 78
     2
176
     1
 67
     7
176
     1
 79
     6
176
     1
170
     0
176
     1
171
     0
176
     1
290
     0
176
     1
 93
        1
176
     1
 44
0.0
176
     1
173
     0
176
     1
1001
ACAD
1000
AcDbSavedByObjectVersion
1070
     0
  0
VISUALSTYLE
  5
36
102
{ACAD_XDICTIONARY
360
1A2
102
}
102
{ACAD_REACTORS
330
29
102
}
330
29
100
AcDbVisualStyle
  2
Thicken
 70
    13
177
     2
291
     1
 71
     2
176
     1
 72
     2
176
     1
 73
     0
176
     1
 90
        0
176
     1
 40
0.6
176
     1
 41
30.0
176
     1
 63
     7
421
 16777215
176
     1
 74
     1
176
     1
 91
        4
176
     1
 64
     7
176
     1
 65
   257
176
     1
 75
     1
176
     1
175
     1
176
     1
 42
1.0
176
     1
 92
       12
176
     1
 66
     7
176
     1
 43
1.0
176
     1
 76
     1
176
     1
 77
     6
176
     1
 78
     2
176
     1
 67
     7
176
     1
 79
     5
176
     1
170
     0
176
     1
171
     0
176
     1
290
     0
176
     1
 93
        1
176
     1
 44
0.0
176
     1
173
     0
176
     1
1001
ACAD
1000
AcDbSavedByObjectVersion
1070
     0
  0
VISUALSTYLE
  5
30
102
{ACAD_XDICTIONARY
360
196
102
}
102
{ACAD_REACTORS
330
29
102
}
330
29
100
AcDbVisualStyle
  2
Wireframe
 70
     5
177
     2
291
     0
 71
     0
176
     1
 72
     2
176
     1
 73
     0
176
     1
 90
        0
176
     1
 40
0.6
176
     1
 41
30.0
176
     1
 63
     7
421
 16777215
176
     1
 74
     1
176
     1
 91
        4
176
     1
 64
     7
176
     1
 65
   257
176
     1
 75
     1
176
     1
175
     1
176
     1
 42
1.0
176
     1
 92
        0
176
     1
 66
   257
176
     1
 43
1.0
176
     1
 76
     1
176
     1
 77
     6
176
     1
 78
     2
176
     1
 67
     7
176
     1
 79
     3
176
     1
170
     0
176
     1
171
     0
176
     1
290
     0
176
     1
 93
        1
176
     1
 44
0.0
176
     1
173
     0
176
     1
1001
ACAD
1000
AcDbSavedByObjectVersion
1070
     0
  0
VISUALSTYLE
  5
3C
102
{ACAD_XDICTIONARY
360
1AE
102
}
102
{ACAD_REACTORS
330
29
102
}
330
29
100
AcDbVisualStyle
  2
X-Ray
 70
    25
177
     2
291
     0
 71
     2
176
     1
 72
     2
176
     1
 73
     1
176
     1
 90
        1
176
     1
 40
0.5
176
     1
 41
30.0
176
     1
 63
     7
421
 16777215
176
     1
 74
     1
176
     1
 91
        0
176
     1
 64
     7
176
     1
 65
   257
176
     1
 75
     1
176
     1
175
     1
176
     1
 42
1.0
176
     1
 92
        8
176
     1
 66
     7
176
     1
 43
1.0
176
     1
 76
     1
176
     1
 77
     6
176
     1
 78
     2
176
     1
 67
     7
176
     1
 79
     3
176
     1
170
     0
176
     1
171
     0
176
     1
290
     0
176
     1
 93
       13
176
     1
 44
0.0
176
     1
173
     0
176
     1
1001
ACAD
1000
AcDbSavedByObjectVersion
1070
     0
  0
DICTIONARYVAR
  5
186
102
{ACAD_REACTORS
330
181
102
}
330
181
100
DictionaryVariables
280
     0
  1
1:1
  0
DICTIONARYVAR
  5
183
102
{ACAD_REACTORS
330
181
102
}
330
181
100
DictionaryVariables
280
     0
  1
STANDARD
  0
DICTIONARYVAR
  5
182
102
{ACAD_REACTORS
330
181
102
}
330
181
100
DictionaryVariables
280
     0
  1
STANDARD
  0
DICTIONARYVAR
  5
184
102
{ACAD_REACTORS
330
181
102
}
330
181
100
DictionaryVariables
280
     0
  1
Imperial24
  0
DICTIONARYVAR
  5
185
102
{ACAD_REACTORS
330
181
102
}
330
181
100
DictionaryVariables
280
     0
  1
Imperial24
  0
DICTIONARY
  5
1BE
330
6B
100
AcDbDictionary
280
     1
281
     1
  3
ACAD_XREC_ROUNDTRIP
360
1BF
  0
DICTIONARY
  5
1A
330
19
100
AcDbDictionary
280
     1
281
     1
  3
BUMPTILE
360
1C
  3
DIFFUSETILE
360
1B
  3
OPACITYTILE
360
1F
  3
REFLECTIONTILE
360
1E
  3
REFRACTIONTILE
360
20
  3
SPECULARTILE
360
1D
  0
DICTIONARY
  5
12
330
11
100
AcDbDictionary
280
     1
281
     1
  3
BUMPTILE
360
14
  3
DIFFUSETILE
360
13
  3
OPACITYTILE
360
17
  3
REFLECTIONTILE
360
16
  3
REFRACTIONTILE
360
18
  3
SPECULARTILE
360
15
  0
DICTIONARY
  5
22
330
21
100
AcDbDictionary
280
     1
281
     1
  3
BUMPTILE
360
24
  3
DIFFUSETILE
360
23
  3
OPACITYTILE
360
27
  3
REFLECTIONTILE
360
26
  3
REFRACTIONTILE
360
28
  3
SPECULARTILE
360
25
  0
DICTIONARY
  5
1BA
330
67
100
AcDbDictionary
280
     1
281
     1
  3
ACAD_XREC_ROUNDTRIP
360
1BB
  0
DICTIONARY
  5
1BC
330
69
100
AcDbDictionary
280
     1
281
     1
  3
ACAD_XREC_ROUNDTRIP
360
1BD
  0
DICTIONARY
  5
187
330
65
100
AcDbDictionary
280
     1
281
     1
  3
ACAD_ROUNDTRIP_2008_TABLESTYLE_CELLSTYLEMAP
360
188
  0
DICTIONARY
  5
194
330
2F
100
AcDbDictionary
280
     1
281
     1
  3
ACAD_XREC_ROUNDTRIP
360
195
  0
DICTIONARY
  5
192
330
2E
100
AcDbDictionary
280
     1
281
     1
  3
ACAD_XREC_ROUNDTRIP
360
193
  0
DICTIONARY
  5
1A0
330
35
100
AcDbDictionary
280
     1
281
     1
  3
ACAD_XREC_ROUNDTRIP
360
1A1
  0
DICTIONARY
  5
1A8
330
39
100
AcDbDictionary
280
     1
281
     1
  3
ACAD_XREC_ROUNDTRIP
360
1A9
  0
DICTIONARY
  5
19A
330
32
100
AcDbDictionary
280
     1
281
     1
  3
ACAD_XREC_ROUNDTRIP
360
19B
  0
DICTIONARY
  5
19E
330
34
100
AcDbDictionary
280
     1
281
     1
  3
ACAD_XREC_ROUNDTRIP
360
19F
  0
DICTIONARY
  5
1B8
330
41
100
AcDbDictionary
280
     1
281
     1
  3
ACAD_XREC_ROUNDTRIP
360
1B9
  0
DICTIONARY
  5
1A6
330
38
100
AcDbDictionary
280
     1
281
     1
  3
ACAD_XREC_ROUNDTRIP
360
1A7
  0
DICTIONARY
  5
18A
330
2A
100
AcDbDictionary
280
     1
281
     1
  3
ACAD_XREC_ROUNDTRIP
360
18B
  0
DICTIONARY
  5
18C
330
2B
100
AcDbDictionary
280
     1
281
     1
  3
ACAD_XREC_ROUNDTRIP
360
18D
  0
DICTIONARY
  5
18E
330
2C
100
AcDbDictionary
280
     1
281
     1
  3
ACAD_XREC_ROUNDTRIP
360
18F
  0
DICTIONARY
  5
190
330
2D
100
AcDbDictionary
280
     1
281
     1
  3
ACAD_XREC_ROUNDTRIP
360
191
  0
DICTIONARY
  5
198
330
31
100
AcDbDictionary
280
     1
281
     1
  3
ACAD_XREC_ROUNDTRIP
360
199
  0
DICTIONARY
  5
1B4
330
3F
100
AcDbDictionary
280
     1
281
     1
  3
ACAD_XREC_ROUNDTRIP
360
1B5
  0
DICTIONARY
  5
1A4
330
37
100
AcDbDictionary
280
     1
281
     1
  3
ACAD_XREC_ROUNDTRIP
360
1A5
  0
DICTIONARY
  5
1B6
330
40
100
AcDbDictionary
280
     1
281
     1
  3
ACAD_XREC_ROUNDTRIP
360
1B7
  0
DICTIONARY
  5
19C
330
33
100
AcDbDictionary
280
     1
281
     1
  3
ACAD_XREC_ROUNDTRIP
360
19D
  0
DICTIONARY
  5
1B2
330
3E
100
AcDbDictionary
280
     1
281
     1
  3
ACAD_XREC_ROUNDTRIP
360
1B3
  0
DICTIONARY
  5
1B0
330
3D
100
AcDbDictionary
280
     1
281
     1
  3
ACAD_XREC_ROUNDTRIP
360
1B1
  0
DICTIONARY
  5
1AA
330
3A
100
AcDbDictionary
280
     1
281
     1
  3
ACAD_XREC_ROUNDTRIP
360
1AB
  0
DICTIONARY
  5
1AC
330
3B
100
AcDbDictionary
280
     1
281
     1
  3
ACAD_XREC_ROUNDTRIP
360
1AD
  0
DICTIONARY
  5
1A2
330
36
100
AcDbDictionary
280
     1
281
     1
  3
ACAD_XREC_ROUNDTRIP
360
1A3
  0
DICTIONARY
  5
196
330
30
100
AcDbDictionary
280
     1
281
     1
  3
ACAD_XREC_ROUNDTRIP
360
197
  0
DICTIONARY
  5
1AE
330
3C
100
AcDbDictionary
280
     1
281
     1
  3
ACAD_XREC_ROUNDTRIP
360
1AF
  0
XRECORD
  5
1BF
102
{ACAD_REACTORS
330
1BE
102
}
330
1BE
100
AcDbXrecord
280
     1
102
DISPLAYNAME
  1
Imperial24
102
FLAGS
 90
        0
  0
XRECORD
  5
1C
102
{ACAD_REACTORS
330
1A
102
}
330
1A
100
AcDbXrecord
280
     1
270
     1
271
     1
  0
XRECORD
  5
1B
102
{ACAD_REACTORS
330
1A
102
}
330
1A
100
AcDbXrecord
280
     1
270
     1
271
     1
  0
XRECORD
  5
1F
102
{ACAD_REACTORS
330
1A
102
}
330
1A
100
AcDbXrecord
280
     1
270
     1
271
     1
  0
XRECORD
  5
1E
102
{ACAD_REACTORS
330
1A
102
}
330
1A
100
AcDbXrecord
280
     1
270
     1
271
     1
  0
XRECORD
  5
20
102
{ACAD_REACTORS
330
1A
102
}
330
1A
100
AcDbXrecord
280
     1
270
     1
271
     1
  0
XRECORD
  5
1D
102
{ACAD_REACTORS
330
1A
102
}
330
1A
100
AcDbXrecord
280
     1
270
     1
271
     1
  0
XRECORD
  5
14
102
{ACAD_REACTORS
330
12
102
}
330
12
100
AcDbXrecord
280
     1
270
     1
271
     1
  0
XRECORD
  5
13
102
{ACAD_REACTORS
330
12
102
}
330
12
100
AcDbXrecord
280
     1
270
     1
271
     1
  0
XRECORD
  5
17
102
{ACAD_REACTORS
330
12
102
}
330
12
100
AcDbXrecord
280
     1
270
     1
271
     1
  0
XRECORD
  5
16
102
{ACAD_REACTORS
330
12
102
}
330
12
100
AcDbXrecord
280
     1
270
     1
271
     1
  0
XRECORD
  5
18
102
{ACAD_REACTORS
330
12
102
}
330
12
100
AcDbXrecord
280
     1
270
     1
271
     1
  0
XRECORD
  5
15
102
{ACAD_REACTORS
330
12
102
}
330
12
100
AcDbXrecord
280
     1
270
     1
271
     1
  0
XRECORD
  5
24
102
{ACAD_REACTORS
330
22
102
}
330
22
100
AcDbXrecord
280
     1
270
     1
271
     1
  0
XRECORD
  5
23
102
{ACAD_REACTORS
330
22
102
}
330
22
100
AcDbXrecord
280
     1
270
     1
271
     1
  0
XRECORD
  5
27
102
{ACAD_REACTORS
330
22
102
}
330
22
100
AcDbXrecord
280
     1
270
     1
271
     1
  0
XRECORD
  5
26
102
{ACAD_REACTORS
330
22
102
}
330
22
100
AcDbXrecord
280
     1
270
     1
271
     1
  0
XRECORD
  5
28
102
{ACAD_REACTORS
330
22
102
}
330
22
100
AcDbXrecord
280
     1
270
     1
271
     1
  0
XRECORD
  5
25
102
{ACAD_REACTORS
330
22
102
}
330
22
100
AcDbXrecord
280
     1
270
     1
271
     1
  0
XRECORD
  5
1BB
102
{ACAD_REACTORS
330
1BA
102
}
330
1BA
100
AcDbXrecord
280
     1
102
ACAD_ROUNDTRIP_2012_MLEADER_STYLE
298
     1
  0
XRECORD
  5
1BD
102
{ACAD_REACTORS
330
1BC
102
}
330
1BC
100
AcDbXrecord
280
     1
102
DISPLAYNAME
  1
Imperial24
102
FLAGS
 90
        0
  0
CELLSTYLEMAP
  5
188
102
{ACAD_REACTORS
330
187
102
}
330
187
100
AcDbCellStyleMap
 90
        3
300
CELLSTYLE
  1
TABLEFORMAT_BEGIN
 90
        5
170
     1
 91
        0
 92
    32768
 62
   257
 93
        1
300
CONTENTFORMAT
  1
CONTENTFORMAT_BEGIN
 90
        0
 91
        0
 92
      512
 93
        0
300

 40
0.0
140
1.0
 94
        5
 62
     0
340
55
144
0.25
309
CONTENTFORMAT_END
171
     0
 94
        0
309
TABLEFORMAT_END
  1
CELLSTYLE_BEGIN
 90
        1
 91
        1
300
_TITLE
309
CELLSTYLE_END
300
CELLSTYLE
  1
TABLEFORMAT_BEGIN
 90
        5
170
     1
 91
        0
 92
        0
 62
   257
 93
        1
300
CONTENTFORMAT
  1
CONTENTFORMAT_BEGIN
 90
        0
 91
        0
 92
      512
 93
        0
300

 40
0.0
140
1.0
 94
        5
 62
     0
340
55
144
0.18
309
CONTENTFORMAT_END
171
     0
 94
        0
309
TABLEFORMAT_END
  1
CELLSTYLE_BEGIN
 90
        2
 91
        1
300
_HEADER
309
CELLSTYLE_END
300
CELLSTYLE
  1
TABLEFORMAT_BEGIN
 90
        5
170
     1
 91
        0
 92
        0
 62
   257
 93
        1
300
CONTENTFORMAT
  1
CONTENTFORMAT_BEGIN
 90
        0
 91
        0
 92
      512
 93
        0
300

 40
0.0
140
1.0
 94
        2
 62
     0
340
55
144
0.18
309
CONTENTFORMAT_END
171
     0
 94
        0
309
TABLEFORMAT_END
  1
CELLSTYLE_BEGIN
 90
        3
 91
        2
300
_DATA
309
CELLSTYLE_END
  0
XRECORD
  5
195
102
{ACAD_REACTORS
330
194
102
}
330
194
100
AcDbXrecord
280
     1
102
RTVSPost2010Prop28
280
     1
102
RTVSPost2010PropOp28
 70
     1
102
RTVSPost2010Prop29
280
     1
102
RTVSPost2010PropOp29
 70
     1
102
RTVSPost2010Prop30
280
     0
102
RTVSPost2010PropOp30
 70
     1
102
RTVSPost2010Prop31
280
     0
102
RTVSPost2010PropOp31
 70
     1
102
RTVSPost2010Prop32
280
     0
102
RTVSPost2010PropOp32
 70
     1
102
RTVSPost2010Prop33
280
     0
102
RTVSPost2010PropOp33
 70
     1
102
RTVSPost2010Prop34
280
     0
102
RTVSPost2010PropOp34
 70
     1
102
RTVSPost2010Prop35
280
     0
102
RTVSPost2010PropOp35
 70
     1
102
RTVSPost2010Prop36
280
     0
102
RTVSPost2010PropOp36
 70
     1
102
RTVSPost2010Prop37
 90
       50
102
RTVSPost2010PropOp37
 70
     1
102
RTVSPost2010Prop38
140
0.0
102
RTVSPost2010PropOp38
 70
     1
102
RTVSPost2010Prop39
140
1.0
102
RTVSPost2010PropOp39
 70
     1
102
RTVSPost2010Prop40
 90
        0
102
RTVSPost2010PropOp40
 70
     1
102
RTVSPost2010Prop41ColorIndex
 90
       18
102
RTVSPost2010Prop41ColorRGB
 90
        0
102
RTVSPost2010PropOp41
 70
     1
102
RTVSPost2010Prop42
 90
       50
102
RTVSPost2010PropOp42
 70
     1
102
RTVSPost2010Prop43
 90
        3
102
RTVSPost2010PropOp43
 70
     1
102
RTVSPost2010Prop44ColorIndex
 90
        5
102
RTVSPost2010Prop44ColorRGB
 90
      255
102
RTVSPost2010PropOp44
 70
     1
102
RTVSPost2010Prop45
280
     0
102
RTVSPost2010PropOp45
 70
     1
102
RTVSPost2010Prop46
 90
       50
102
RTVSPost2010PropOp46
 70
     1
102
RTVSPost2010Prop47
 90
       50
102
RTVSPost2010PropOp47
 70
     1
102
RTVSPost2010Prop48
 90
       50
102
RTVSPost2010PropOp48
 70
     1
102
RTVSPost2010Prop49
280
     0
102
RTVSPost2010PropOp49
 70
     1
102
RTVSPost2010Prop50
 90
       50
102
RTVSPost2010PropOp50
 70
     1
102
RTVSPost2010Prop51ColorIndex
 90
      256
102
RTVSPost2010Prop51ColorRGB
 90
-16777216
102
RTVSPost2010PropOp51
 70
     0
102
RTVSPost2010Prop52
140
1.0
102
RTVSPost2010PropOp52
 70
     0
102
RTVSPost2010Prop53
 90
        2
102
RTVSPost2010PropOp53
 70
     1
102
RTVSPost2010Prop54
  1
strokes_ogs.tif
102
RTVSPost2010PropOp54
 70
     1
102
RTVSPost2010Prop55
280
     0
102
RTVSPost2010PropOp55
 70
     1
102
RTVSPost2010Prop56
140
1.0
102
RTVSPost2010PropOp56
 70
     1
102
RTVSPost2010Prop57
140
1.0
102
RTVSPost2010PropOp57
 70
     1
  0
XRECORD
  5
193
102
{ACAD_REACTORS
330
192
102
}
330
192
100
AcDbXrecord
280
     1
102
RTVSPost2010Prop28
280
     0
102
RTVSPost2010PropOp28
 70
     1
102
RTVSPost2010Prop29
280
     1
102
RTVSPost2010PropOp29
 70
     1
102
RTVSPost2010Prop30
280
     1
102
RTVSPost2010PropOp30
 70
     1
102
RTVSPost2010Prop31
280
     0
102
RTVSPost2010PropOp31
 70
     1
102
RTVSPost2010Prop32
280
     0
102
RTVSPost2010PropOp32
 70
     1
102
RTVSPost2010Prop33
280
     0
102
RTVSPost2010PropOp33
 70
     1
102
RTVSPost2010Prop34
280
     0
102
RTVSPost2010PropOp34
 70
     1
102
RTVSPost2010Prop35
280
     0
102
RTVSPost2010PropOp35
 70
     1
102
RTVSPost2010Prop36
280
     0
102
RTVSPost2010PropOp36
 70
     1
102
RTVSPost2010Prop37
 90
       50
102
RTVSPost2010PropOp37
 70
     1
102
RTVSPost2010Prop38
140
0.0
102
RTVSPost2010PropOp38
 70
     1
102
RTVSPost2010Prop39
140
1.0
102
RTVSPost2010PropOp39
 70
     1
102
RTVSPost2010Prop40
 90
        0
102
RTVSPost2010PropOp40
 70
     1
102
RTVSPost2010Prop41ColorIndex
 90
       18
102
RTVSPost2010Prop41ColorRGB
 90
        0
102
RTVSPost2010PropOp41
 70
     1
102
RTVSPost2010Prop42
 90
       50
102
RTVSPost2010PropOp42
 70
     1
102
RTVSPost2010Prop43
 90
        3
102
RTVSPost2010PropOp43
 70
     1
102
RTVSPost2010Prop44ColorIndex
 90
        5
102
RTVSPost2010Prop44ColorRGB
 90
      255
102
RTVSPost2010PropOp44
 70
     1
102
RTVSPost2010Prop45
280
     0
102
RTVSPost2010PropOp45
 70
     1
102
RTVSPost2010Prop46
 90
       50
102
RTVSPost2010PropOp46
 70
     1
102
RTVSPost2010Prop47
 90
       50
102
RTVSPost2010PropOp47
 70
     1
102
RTVSPost2010Prop48
 90
       50
102
RTVSPost2010PropOp48
 70
     1
102
RTVSPost2010Prop49
280
     0
102
RTVSPost2010PropOp49
 70
     1
102
RTVSPost2010Prop50
 90
       50
102
RTVSPost2010PropOp50
 70
     1
102
RTVSPost2010Prop51ColorIndex
 90
      256
102
RTVSPost2010Prop51ColorRGB
 90
-16777216
102
RTVSPost2010PropOp51
 70
     0
102
RTVSPost2010Prop52
140
1.0
102
RTVSPost2010PropOp52
 70
     0
102
RTVSPost2010Prop53
 90
        2
102
RTVSPost2010PropOp53
 70
     1
102
RTVSPost2010Prop54
  1
strokes_ogs.tif
102
RTVSPost2010PropOp54
 70
     1
102
RTVSPost2010Prop55
280
     0
102
RTVSPost2010PropOp55
 70
     1
102
RTVSPost2010Prop56
140
1.0
102
RTVSPost2010PropOp56
 70
     1
102
RTVSPost2010Prop57
140
1.0
102
RTVSPost2010PropOp57
 70
     1
  0
XRECORD
  5
1A1
102
{ACAD_REACTORS
330
1A0
102
}
330
1A0
100
AcDbXrecord
280
     1
102
RTVSPost2010Prop28
280
     0
102
RTVSPost2010PropOp28
 70
     1
102
RTVSPost2010Prop29
280
     1
102
RTVSPost2010PropOp29
 70
     1
102
RTVSPost2010Prop30
280
     1
102
RTVSPost2010PropOp30
 70
     1
102
RTVSPost2010Prop31
280
     0
102
RTVSPost2010PropOp31
 70
     1
102
RTVSPost2010Prop32
280
     0
102
RTVSPost2010PropOp32
 70
     1
102
RTVSPost2010Prop33
280
     0
102
RTVSPost2010PropOp33
 70
     1
102
RTVSPost2010Prop34
280
     0
102
RTVSPost2010PropOp34
 70
     1
102
RTVSPost2010Prop35
280
     0
102
RTVSPost2010PropOp35
 70
     1
102
RTVSPost2010Prop36
280
     0
102
RTVSPost2010PropOp36
 70
     1
102
RTVSPost2010Prop37
 90
       50
102
RTVSPost2010PropOp37
 70
     1
102
RTVSPost2010Prop38
140
0.0
102
RTVSPost2010PropOp38
 70
     1
102
RTVSPost2010Prop39
140
1.0
102
RTVSPost2010PropOp39
 70
     1
102
RTVSPost2010Prop40
 90
        0
102
RTVSPost2010PropOp40
 70
     1
102
RTVSPost2010Prop41ColorIndex
 90
       18
102
RTVSPost2010Prop41ColorRGB
 90
        0
102
RTVSPost2010PropOp41
 70
     1
102
RTVSPost2010Prop42
 90
       50
102
RTVSPost2010PropOp42
 70
     1
102
RTVSPost2010Prop43
 90
        3
102
RTVSPost2010PropOp43
 70
     1
102
RTVSPost2010Prop44ColorIndex
 90
        5
102
RTVSPost2010Prop44ColorRGB
 90
      255
102
RTVSPost2010PropOp44
 70
     1
102
RTVSPost2010Prop45
280
     0
102
RTVSPost2010PropOp45
 70
     1
102
RTVSPost2010Prop46
 90
       50
102
RTVSPost2010PropOp46
 70
     1
102
RTVSPost2010Prop47
 90
       50
102
RTVSPost2010PropOp47
 70
     1
102
RTVSPost2010Prop48
 90
       50
102
RTVSPost2010PropOp48
 70
     1
102
RTVSPost2010Prop49
280
     0
102
RTVSPost2010PropOp49
 70
     1
102
RTVSPost2010Prop50
 90
       50
102
RTVSPost2010PropOp50
 70
     1
102
RTVSPost2010Prop51ColorIndex
 90
      256
102
RTVSPost2010Prop51ColorRGB
 90
-16777216
102
RTVSPost2010PropOp51
 70
     0
102
RTVSPost2010Prop52
140
1.0
102
RTVSPost2010PropOp52
 70
     0
102
RTVSPost2010Prop53
 90
        2
102
RTVSPost2010PropOp53
 70
     1
102
RTVSPost2010Prop54
  1
strokes_ogs.tif
102
RTVSPost2010PropOp54
 70
     1
102
RTVSPost2010Prop55
280
     0
102
RTVSPost2010PropOp55
 70
     1
102
RTVSPost2010Prop56
140
1.0
102
RTVSPost2010PropOp56
 70
     1
102
RTVSPost2010Prop57
140
1.0
102
RTVSPost2010PropOp57
 70
     1
  0
XRECORD
  5
1A9
102
{ACAD_REACTORS
330
1A8
102
}
330
1A8
100
AcDbXrecord
280
     1
102
RTVSPost2010Prop28
280
     0
102
RTVSPost2010PropOp28
 70
     1
102
RTVSPost2010Prop29
280
     1
102
RTVSPost2010PropOp29
 70
     1
102
RTVSPost2010Prop30
280
     1
102
RTVSPost2010PropOp30
 70
     1
102
RTVSPost2010Prop31
280
     0
102
RTVSPost2010PropOp31
 70
     1
102
RTVSPost2010Prop32
280
     0
102
RTVSPost2010PropOp32
 70
     1
102
RTVSPost2010Prop33
280
     0
102
RTVSPost2010PropOp33
 70
     1
102
RTVSPost2010Prop34
280
     0
102
RTVSPost2010PropOp34
 70
     1
102
RTVSPost2010Prop35
280
     0
102
RTVSPost2010PropOp35
 70
     1
102
RTVSPost2010Prop36
280
     0
102
RTVSPost2010PropOp36
 70
     1
102
RTVSPost2010Prop37
 90
       50
102
RTVSPost2010PropOp37
 70
     1
102
RTVSPost2010Prop38
140
0.0
102
RTVSPost2010PropOp38
 70
     1
102
RTVSPost2010Prop39
140
1.0
102
RTVSPost2010PropOp39
 70
     1
102
RTVSPost2010Prop40
 90
        0
102
RTVSPost2010PropOp40
 70
     1
102
RTVSPost2010Prop41ColorIndex
 90
       18
102
RTVSPost2010Prop41ColorRGB
 90
        0
102
RTVSPost2010PropOp41
 70
     1
102
RTVSPost2010Prop42
 90
       50
102
RTVSPost2010PropOp42
 70
     1
102
RTVSPost2010Prop43
 90
        3
102
RTVSPost2010PropOp43
 70
     1
102
RTVSPost2010Prop44ColorIndex
 90
        5
102
RTVSPost2010Prop44ColorRGB
 90
      255
102
RTVSPost2010PropOp44
 70
     1
102
RTVSPost2010Prop45
280
     0
102
RTVSPost2010PropOp45
 70
     1
102
RTVSPost2010Prop46
 90
       50
102
RTVSPost2010PropOp46
 70
     1
102
RTVSPost2010Prop47
 90
       50
102
RTVSPost2010PropOp47
 70
     1
102
RTVSPost2010Prop48
 90
       50
102
RTVSPost2010PropOp48
 70
     1
102
RTVSPost2010Prop49
280
     0
102
RTVSPost2010PropOp49
 70
     1
102
RTVSPost2010Prop50
 90
       50
102
RTVSPost2010PropOp50
 70
     1
102
RTVSPost2010Prop51ColorIndex
 90
      256
102
RTVSPost2010Prop51ColorRGB
 90
-16777216
102
RTVSPost2010PropOp51
 70
     0
102
RTVSPost2010Prop52
140
1.0
102
RTVSPost2010PropOp52
 70
     0
102
RTVSPost2010Prop53
 90
        2
102
RTVSPost2010PropOp53
 70
     1
102
RTVSPost2010Prop54
  1
strokes_ogs.tif
102
RTVSPost2010PropOp54
 70
     1
102
RTVSPost2010Prop55
280
     0
102
RTVSPost2010PropOp55
 70
     1
102
RTVSPost2010Prop56
140
1.0
102
RTVSPost2010PropOp56
 70
     1
102
RTVSPost2010Prop57
140
1.0
102
RTVSPost2010PropOp57
 70
     1
  0
XRECORD
  5
19B
102
{ACAD_REACTORS
330
19A
102
}
330
19A
100
AcDbXrecord
280
     1
102
RTVSPost2010Prop28
280
     0
102
RTVSPost2010PropOp28
 70
     1
102
RTVSPost2010Prop29
280
     1
102
RTVSPost2010PropOp29
 70
     1
102
RTVSPost2010Prop30
280
     1
102
RTVSPost2010PropOp30
 70
     1
102
RTVSPost2010Prop31
280
     0
102
RTVSPost2010PropOp31
 70
     1
102
RTVSPost2010Prop32
280
     0
102
RTVSPost2010PropOp32
 70
     1
102
RTVSPost2010Prop33
280
     0
102
RTVSPost2010PropOp33
 70
     1
102
RTVSPost2010Prop34
280
     0
102
RTVSPost2010PropOp34
 70
     1
102
RTVSPost2010Prop35
280
     0
102
RTVSPost2010PropOp35
 70
     1
102
RTVSPost2010Prop36
280
     0
102
RTVSPost2010PropOp36
 70
     1
102
RTVSPost2010Prop37
 90
       50
102
RTVSPost2010PropOp37
 70
     1
102
RTVSPost2010Prop38
140
0.0
102
RTVSPost2010PropOp38
 70
     1
102
RTVSPost2010Prop39
140
1.0
102
RTVSPost2010PropOp39
 70
     1
102
RTVSPost2010Prop40
 90
        0
102
RTVSPost2010PropOp40
 70
     1
102
RTVSPost2010Prop41ColorIndex
 90
       18
102
RTVSPost2010Prop41ColorRGB
 90
        0
102
RTVSPost2010PropOp41
 70
     1
102
RTVSPost2010Prop42
 90
       50
102
RTVSPost2010PropOp42
 70
     1
102
RTVSPost2010Prop43
 90
        3
102
RTVSPost2010PropOp43
 70
     1
102
RTVSPost2010Prop44ColorIndex
 90
        5
102
RTVSPost2010Prop44ColorRGB
 90
      255
102
RTVSPost2010PropOp44
 70
     1
102
RTVSPost2010Prop45
280
     0
102
RTVSPost2010PropOp45
 70
     1
102
RTVSPost2010Prop46
 90
       50
102
RTVSPost2010PropOp46
 70
     1
102
RTVSPost2010Prop47
 90
       50
102
RTVSPost2010PropOp47
 70
     1
102
RTVSPost2010Prop48
 90
       50
102
RTVSPost2010PropOp48
 70
     1
102
RTVSPost2010Prop49
280
     0
102
RTVSPost2010PropOp49
 70
     1
102
RTVSPost2010Prop50
 90
       50
102
RTVSPost2010PropOp50
 70
     1
102
RTVSPost2010Prop51ColorIndex
 90
      256
102
RTVSPost2010Prop51ColorRGB
 90
-16777216
102
RTVSPost2010PropOp51
 70
     0
102
RTVSPost2010Prop52
140
1.0
102
RTVSPost2010PropOp52
 70
     0
102
RTVSPost2010Prop53
 90
        2
102
RTVSPost2010PropOp53
 70
     1
102
RTVSPost2010Prop54
  1
strokes_ogs.tif
102
RTVSPost2010PropOp54
 70
     1
102
RTVSPost2010Prop55
280
     0
102
RTVSPost2010PropOp55
 70
     1
102
RTVSPost2010Prop56
140
1.0
102
RTVSPost2010PropOp56
 70
     1
102
RTVSPost2010Prop57
140
1.0
102
RTVSPost2010PropOp57
 70
     1
  0
XRECORD
  5
19F
102
{ACAD_REACTORS
330
19E
102
}
330
19E
100
AcDbXrecord
280
     1
102
RTVSPost2010Prop28
280
     0
102
RTVSPost2010PropOp28
 70
     1
102
RTVSPost2010Prop29
280
     1
102
RTVSPost2010PropOp29
 70
     1
102
RTVSPost2010Prop30
280
     1
102
RTVSPost2010PropOp30
 70
     1
102
RTVSPost2010Prop31
280
     0
102
RTVSPost2010PropOp31
 70
     1
102
RTVSPost2010Prop32
280
     0
102
RTVSPost2010PropOp32
 70
     1
102
RTVSPost2010Prop33
280
     0
102
RTVSPost2010PropOp33
 70
     1
102
RTVSPost2010Prop34
280
     0
102
RTVSPost2010PropOp34
 70
     1
102
RTVSPost2010Prop35
280
     0
102
RTVSPost2010PropOp35
 70
     1
102
RTVSPost2010Prop36
280
     0
102
RTVSPost2010PropOp36
 70
     1
102
RTVSPost2010Prop37
 90
       50
102
RTVSPost2010PropOp37
 70
     1
102
RTVSPost2010Prop38
140
0.0
102
RTVSPost2010PropOp38
 70
     1
102
RTVSPost2010Prop39
140
1.0
102
RTVSPost2010PropOp39
 70
     1
102
RTVSPost2010Prop40
 90
        0
102
RTVSPost2010PropOp40
 70
     1
102
RTVSPost2010Prop41ColorIndex
 90
       18
102
RTVSPost2010Prop41ColorRGB
 90
        0
102
RTVSPost2010PropOp41
 70
     1
102
RTVSPost2010Prop42
 90
       50
102
RTVSPost2010PropOp42
 70
     1
102
RTVSPost2010Prop43
 90
        3
102
RTVSPost2010PropOp43
 70
     1
102
RTVSPost2010Prop44ColorIndex
 90
        5
102
RTVSPost2010Prop44ColorRGB
 90
      255
102
RTVSPost2010PropOp44
 70
     1
102
RTVSPost2010Prop45
280
     0
102
RTVSPost2010PropOp45
 70
     1
102
RTVSPost2010Prop46
 90
       50
102
RTVSPost2010PropOp46
 70
     1
102
RTVSPost2010Prop47
 90
       50
102
RTVSPost2010PropOp47
 70
     1
102
RTVSPost2010Prop48
 90
       50
102
RTVSPost2010PropOp48
 70
     1
102
RTVSPost2010Prop49
280
     0
102
RTVSPost2010PropOp49
 70
     1
102
RTVSPost2010Prop50
 90
       50
102
RTVSPost2010PropOp50
 70
     1
102
RTVSPost2010Prop51ColorIndex
 90
      256
102
RTVSPost2010Prop51ColorRGB
 90
-16777216
102
RTVSPost2010PropOp51
 70
     0
102
RTVSPost2010Prop52
140
1.0
102
RTVSPost2010PropOp52
 70
     0
102
RTVSPost2010Prop53
 90
        2
102
RTVSPost2010PropOp53
 70
     1
102
RTVSPost2010Prop54
  1
strokes_ogs.tif
102
RTVSPost2010PropOp54
 70
     1
102
RTVSPost2010Prop55
280
     0
102
RTVSPost2010PropOp55
 70
     1
102
RTVSPost2010Prop56
140
1.0
102
RTVSPost2010PropOp56
 70
     1
102
RTVSPost2010Prop57
140
1.0
102
RTVSPost2010PropOp57
 70
     1
  0
XRECORD
  5
1B9
102
{ACAD_REACTORS
330
1B8
102
}
330
1B8
100
AcDbXrecord
280
     1
102
RTVSPost2010Prop28
280
     0
102
RTVSPost2010PropOp28
 70
     0
102
RTVSPost2010Prop29
280
     1
102
RTVSPost2010PropOp29
 70
     0
102
RTVSPost2010Prop30
280
     1
102
RTVSPost2010PropOp30
 70
     0
102
RTVSPost2010Prop31
280
     0
102
RTVSPost2010PropOp31
 70
     0
102
RTVSPost2010Prop32
280
     0
102
RTVSPost2010PropOp32
 70
     0
102
RTVSPost2010Prop33
280
     0
102
RTVSPost2010PropOp33
 70
     0
102
RTVSPost2010Prop34
280
     0
102
RTVSPost2010PropOp34
 70
     0
102
RTVSPost2010Prop35
280
     0
102
RTVSPost2010PropOp35
 70
     0
102
RTVSPost2010Prop36
280
     0
102
RTVSPost2010PropOp36
 70
     0
102
RTVSPost2010Prop37
 90
       50
102
RTVSPost2010PropOp37
 70
     0
102
RTVSPost2010Prop38
140
0.0
102
RTVSPost2010PropOp38
 70
     0
102
RTVSPost2010Prop39
140
1.0
102
RTVSPost2010PropOp39
 70
     0
102
RTVSPost2010Prop40
 90
        0
102
RTVSPost2010PropOp40
 70
     0
102
RTVSPost2010Prop41ColorIndex
 90
       18
102
RTVSPost2010Prop41ColorRGB
 90
        0
102
RTVSPost2010PropOp41
 70
     0
102
RTVSPost2010Prop42
 90
       50
102
RTVSPost2010PropOp42
 70
     0
102
RTVSPost2010Prop43
 90
        3
102
RTVSPost2010PropOp43
 70
     0
102
RTVSPost2010Prop44ColorIndex
 90
        5
102
RTVSPost2010Prop44ColorRGB
 90
      255
102
RTVSPost2010PropOp44
 70
     0
102
RTVSPost2010Prop45
280
     0
102
RTVSPost2010PropOp45
 70
     0
102
RTVSPost2010Prop46
 90
       50
102
RTVSPost2010PropOp46
 70
     0
102
RTVSPost2010Prop47
 90
       50
102
RTVSPost2010PropOp47
 70
     0
102
RTVSPost2010Prop48
 90
       50
102
RTVSPost2010PropOp48
 70
     0
102
RTVSPost2010Prop49
280
     0
102
RTVSPost2010PropOp49
 70
     0
102
RTVSPost2010Prop50
 90
       50
102
RTVSPost2010PropOp50
 70
     0
102
RTVSPost2010Prop51ColorIndex
 90
      256
102
RTVSPost2010Prop51ColorRGB
 90
-16777216
102
RTVSPost2010PropOp51
 70
     0
102
RTVSPost2010Prop52
140
1.0
102
RTVSPost2010PropOp52
 70
     0
102
RTVSPost2010Prop53
 90
        2
102
RTVSPost2010PropOp53
 70
     0
102
RTVSPost2010Prop54
  1
strokes_ogs.tif
102
RTVSPost2010PropOp54
 70
     0
102
RTVSPost2010Prop55
280
     0
102
RTVSPost2010PropOp55
 70
     0
102
RTVSPost2010Prop56
140
1.0
102
RTVSPost2010PropOp56
 70
     0
102
RTVSPost2010Prop57
140
1.0
102
RTVSPost2010PropOp57
 70
     0
  0
XRECORD
  5
1A7
102
{ACAD_REACTORS
330
1A6
102
}
330
1A6
100
AcDbXrecord
280
     1
102
RTVSPost2010Prop28
280
     0
102
RTVSPost2010PropOp28
 70
     1
102
RTVSPost2010Prop29
280
     1
102
RTVSPost2010PropOp29
 70
     1
102
RTVSPost2010Prop30
280
     1
102
RTVSPost2010PropOp30
 70
     1
102
RTVSPost2010Prop31
280
     0
102
RTVSPost2010PropOp31
 70
     1
102
RTVSPost2010Prop32
280
     0
102
RTVSPost2010PropOp32
 70
     1
102
RTVSPost2010Prop33
280
     0
102
RTVSPost2010PropOp33
 70
     1
102
RTVSPost2010Prop34
280
     0
102
RTVSPost2010PropOp34
 70
     1
102
RTVSPost2010Prop35
280
     0
102
RTVSPost2010PropOp35
 70
     1
102
RTVSPost2010Prop36
280
     0
102
RTVSPost2010PropOp36
 70
     1
102
RTVSPost2010Prop37
 90
       50
102
RTVSPost2010PropOp37
 70
     1
102
RTVSPost2010Prop38
140
0.0
102
RTVSPost2010PropOp38
 70
     1
102
RTVSPost2010Prop39
140
1.0
102
RTVSPost2010PropOp39
 70
     1
102
RTVSPost2010Prop40
 90
        0
102
RTVSPost2010PropOp40
 70
     1
102
RTVSPost2010Prop41ColorIndex
 90
       18
102
RTVSPost2010Prop41ColorRGB
 90
        0
102
RTVSPost2010PropOp41
 70
     1
102
RTVSPost2010Prop42
 90
       50
102
RTVSPost2010PropOp42
 70
     1
102
RTVSPost2010Prop43
 90
        3
102
RTVSPost2010PropOp43
 70
     1
102
RTVSPost2010Prop44ColorIndex
 90
        5
102
RTVSPost2010Prop44ColorRGB
 90
      255
102
RTVSPost2010PropOp44
 70
     1
102
RTVSPost2010Prop45
280
     0
102
RTVSPost2010PropOp45
 70
     1
102
RTVSPost2010Prop46
 90
       50
102
RTVSPost2010PropOp46
 70
     1
102
RTVSPost2010Prop47
 90
       50
102
RTVSPost2010PropOp47
 70
     1
102
RTVSPost2010Prop48
 90
       50
102
RTVSPost2010PropOp48
 70
     1
102
RTVSPost2010Prop49
280
     0
102
RTVSPost2010PropOp49
 70
     1
102
RTVSPost2010Prop50
 90
       50
102
RTVSPost2010PropOp50
 70
     1
102
RTVSPost2010Prop51ColorIndex
 90
      256
102
RTVSPost2010Prop51ColorRGB
 90
-16777216
102
RTVSPost2010PropOp51
 70
     0
102
RTVSPost2010Prop52
140
1.0
102
RTVSPost2010PropOp52
 70
     0
102
RTVSPost2010Prop53
 90
        2
102
RTVSPost2010PropOp53
 70
     1
102
RTVSPost2010Prop54
  1
strokes_ogs.tif
102
RTVSPost2010PropOp54
 70
     1
102
RTVSPost2010Prop55
280
     0
102
RTVSPost2010PropOp55
 70
     1
102
RTVSPost2010Prop56
140
1.0
102
RTVSPost2010PropOp56
 70
     1
102
RTVSPost2010Prop57
140
1.0
102
RTVSPost2010PropOp57
 70
     1
  0
XRECORD
  5
18B
102
{ACAD_REACTORS
330
18A
102
}
330
18A
100
AcDbXrecord
280
     1
102
RTVSPost2010Prop28
280
     0
102
RTVSPost2010PropOp28
 70
     1
102
RTVSPost2010Prop29
280
     1
102
RTVSPost2010PropOp29
 70
     1
102
RTVSPost2010Prop30
280
     1
102
RTVSPost2010PropOp30
 70
     1
102
RTVSPost2010Prop31
280
     0
102
RTVSPost2010PropOp31
 70
     1
102
RTVSPost2010Prop32
280
     0
102
RTVSPost2010PropOp32
 70
     1
102
RTVSPost2010Prop33
280
     0
102
RTVSPost2010PropOp33
 70
     1
102
RTVSPost2010Prop34
280
     0
102
RTVSPost2010PropOp34
 70
     1
102
RTVSPost2010Prop35
280
     0
102
RTVSPost2010PropOp35
 70
     1
102
RTVSPost2010Prop36
280
     0
102
RTVSPost2010PropOp36
 70
     1
102
RTVSPost2010Prop37
 90
       50
102
RTVSPost2010PropOp37
 70
     1
102
RTVSPost2010Prop38
140
0.0
102
RTVSPost2010PropOp38
 70
     1
102
RTVSPost2010Prop39
140
1.0
102
RTVSPost2010PropOp39
 70
     1
102
RTVSPost2010Prop40
 90
        0
102
RTVSPost2010PropOp40
 70
     1
102
RTVSPost2010Prop41ColorIndex
 90
       18
102
RTVSPost2010Prop41ColorRGB
 90
        0
102
RTVSPost2010PropOp41
 70
     1
102
RTVSPost2010Prop42
 90
       50
102
RTVSPost2010PropOp42
 70
     1
102
RTVSPost2010Prop43
 90
        3
102
RTVSPost2010PropOp43
 70
     1
102
RTVSPost2010Prop44ColorIndex
 90
        5
102
RTVSPost2010Prop44ColorRGB
 90
      255
102
RTVSPost2010PropOp44
 70
     1
102
RTVSPost2010Prop45
280
     0
102
RTVSPost2010PropOp45
 70
     1
102
RTVSPost2010Prop46
 90
       50
102
RTVSPost2010PropOp46
 70
     1
102
RTVSPost2010Prop47
 90
       50
102
RTVSPost2010PropOp47
 70
     1
102
RTVSPost2010Prop48
 90
       50
102
RTVSPost2010PropOp48
 70
     1
102
RTVSPost2010Prop49
280
     0
102
RTVSPost2010PropOp49
 70
     1
102
RTVSPost2010Prop50
 90
       50
102
RTVSPost2010PropOp50
 70
     1
102
RTVSPost2010Prop51ColorIndex
 90
      256
102
RTVSPost2010Prop51ColorRGB
 90
-16777216
102
RTVSPost2010PropOp51
 70
     0
102
RTVSPost2010Prop52
140
1.0
102
RTVSPost2010PropOp52
 70
     0
102
RTVSPost2010Prop53
 90
        2
102
RTVSPost2010PropOp53
 70
     1
102
RTVSPost2010Prop54
  1
strokes_ogs.tif
102
RTVSPost2010PropOp54
 70
     1
102
RTVSPost2010Prop55
280
     0
102
RTVSPost2010PropOp55
 70
     1
102
RTVSPost2010Prop56
140
1.0
102
RTVSPost2010PropOp56
 70
     1
102
RTVSPost2010Prop57
140
1.0
102
RTVSPost2010PropOp57
 70
     1
  0
XRECORD
  5
18D
102
{ACAD_REACTORS
330
18C
102
}
330
18C
100
AcDbXrecord
280
     1
102
RTVSPost2010Prop28
280
     0
102
RTVSPost2010PropOp28
 70
     1
102
RTVSPost2010Prop29
280
     1
102
RTVSPost2010PropOp29
 70
     1
102
RTVSPost2010Prop30
280
     1
102
RTVSPost2010PropOp30
 70
     1
102
RTVSPost2010Prop31
280
     0
102
RTVSPost2010PropOp31
 70
     1
102
RTVSPost2010Prop32
280
     0
102
RTVSPost2010PropOp32
 70
     1
102
RTVSPost2010Prop33
280
     0
102
RTVSPost2010PropOp33
 70
     1
102
RTVSPost2010Prop34
280
     0
102
RTVSPost2010PropOp34
 70
     1
102
RTVSPost2010Prop35
280
     0
102
RTVSPost2010PropOp35
 70
     1
102
RTVSPost2010Prop36
280
     0
102
RTVSPost2010PropOp36
 70
     1
102
RTVSPost2010Prop37
 90
       50
102
RTVSPost2010PropOp37
 70
     1
102
RTVSPost2010Prop38
140
0.0
102
RTVSPost2010PropOp38
 70
     1
102
RTVSPost2010Prop39
140
1.0
102
RTVSPost2010PropOp39
 70
     1
102
RTVSPost2010Prop40
 90
        0
102
RTVSPost2010PropOp40
 70
     1
102
RTVSPost2010Prop41ColorIndex
 90
       18
102
RTVSPost2010Prop41ColorRGB
 90
        0
102
RTVSPost2010PropOp41
 70
     1
102
RTVSPost2010Prop42
 90
       50
102
RTVSPost2010PropOp42
 70
     1
102
RTVSPost2010Prop43
 90
        3
102
RTVSPost2010PropOp43
 70
     1
102
RTVSPost2010Prop44ColorIndex
 90
        5
102
RTVSPost2010Prop44ColorRGB
 90
      255
102
RTVSPost2010PropOp44
 70
     1
102
RTVSPost2010Prop45
280
     0
102
RTVSPost2010PropOp45
 70
     1
102
RTVSPost2010Prop46
 90
       50
102
RTVSPost2010PropOp46
 70
     1
102
RTVSPost2010Prop47
 90
       50
102
RTVSPost2010PropOp47
 70
     1
102
RTVSPost2010Prop48
 90
       50
102
RTVSPost2010PropOp48
 70
     1
102
RTVSPost2010Prop49
280
     0
102
RTVSPost2010PropOp49
 70
     1
102
RTVSPost2010Prop50
 90
       50
102
RTVSPost2010PropOp50
 70
     1
102
RTVSPost2010Prop51ColorIndex
 90
      256
102
RTVSPost2010Prop51ColorRGB
 90
-16777216
102
RTVSPost2010PropOp51
 70
     0
102
RTVSPost2010Prop52
140
1.0
102
RTVSPost2010PropOp52
 70
     0
102
RTVSPost2010Prop53
 90
        2
102
RTVSPost2010PropOp53
 70
     1
102
RTVSPost2010Prop54
  1
strokes_ogs.tif
102
RTVSPost2010PropOp54
 70
     1
102
RTVSPost2010Prop55
280
     0
102
RTVSPost2010PropOp55
 70
     1
102
RTVSPost2010Prop56
140
1.0
102
RTVSPost2010PropOp56
 70
     1
102
RTVSPost2010Prop57
140
1.0
102
RTVSPost2010PropOp57
 70
     1
  0
XRECORD
  5
18F
102
{ACAD_REACTORS
330
18E
102
}
330
18E
100
AcDbXrecord
280
     1
102
RTVSPost2010Prop28
280
     0
102
RTVSPost2010PropOp28
 70
     1
102
RTVSPost2010Prop29
280
     1
102
RTVSPost2010PropOp29
 70
     1
102
RTVSPost2010Prop30
280
     1
102
RTVSPost2010PropOp30
 70
     1
102
RTVSPost2010Prop31
280
     0
102
RTVSPost2010PropOp31
 70
     1
102
RTVSPost2010Prop32
280
     0
102
RTVSPost2010PropOp32
 70
     1
102
RTVSPost2010Prop33
280
     0
102
RTVSPost2010PropOp33
 70
     1
102
RTVSPost2010Prop34
280
     0
102
RTVSPost2010PropOp34
 70
     1
102
RTVSPost2010Prop35
280
     0
102
RTVSPost2010PropOp35
 70
     1
102
RTVSPost2010Prop36
280
     0
102
RTVSPost2010PropOp36
 70
     1
102
RTVSPost2010Prop37
 90
       50
102
RTVSPost2010PropOp37
 70
     1
102
RTVSPost2010Prop38
140
0.0
102
RTVSPost2010PropOp38
 70
     1
102
RTVSPost2010Prop39
140
1.0
102
RTVSPost2010PropOp39
 70
     1
102
RTVSPost2010Prop40
 90
        0
102
RTVSPost2010PropOp40
 70
     1
102
RTVSPost2010Prop41ColorIndex
 90
       18
102
RTVSPost2010Prop41ColorRGB
 90
        0
102
RTVSPost2010PropOp41
 70
     1
102
RTVSPost2010Prop42
 90
       50
102
RTVSPost2010PropOp42
 70
     1
102
RTVSPost2010Prop43
 90
        3
102
RTVSPost2010PropOp43
 70
     1
102
RTVSPost2010Prop44ColorIndex
 90
        5
102
RTVSPost2010Prop44ColorRGB
 90
      255
102
RTVSPost2010PropOp44
 70
     1
102
RTVSPost2010Prop45
280
     0
102
RTVSPost2010PropOp45
 70
     1
102
RTVSPost2010Prop46
 90
       50
102
RTVSPost2010PropOp46
 70
     1
102
RTVSPost2010Prop47
 90
       50
102
RTVSPost2010PropOp47
 70
     1
102
RTVSPost2010Prop48
 90
       50
102
RTVSPost2010PropOp48
 70
     1
102
RTVSPost2010Prop49
280
     0
102
RTVSPost2010PropOp49
 70
     1
102
RTVSPost2010Prop50
 90
       50
102
RTVSPost2010PropOp50
 70
     1
102
RTVSPost2010Prop51ColorIndex
 90
      256
102
RTVSPost2010Prop51ColorRGB
 90
-16777216
102
RTVSPost2010PropOp51
 70
     0
102
RTVSPost2010Prop52
140
1.0
102
RTVSPost2010PropOp52
 70
     0
102
RTVSPost2010Prop53
 90
        2
102
RTVSPost2010PropOp53
 70
     1
102
RTVSPost2010Prop54
  1
strokes_ogs.tif
102
RTVSPost2010PropOp54
 70
     1
102
RTVSPost2010Prop55
280
     0
102
RTVSPost2010PropOp55
 70
     1
102
RTVSPost2010Prop56
140
1.0
102
RTVSPost2010PropOp56
 70
     1
102
RTVSPost2010Prop57
140
1.0
102
RTVSPost2010PropOp57
 70
     1
  0
XRECORD
  5
191
102
{ACAD_REACTORS
330
190
102
}
330
190
100
AcDbXrecord
280
     1
102
RTVSPost2010Prop28
280
     0
102
RTVSPost2010PropOp28
 70
     1
102
RTVSPost2010Prop29
280
     1
102
RTVSPost2010PropOp29
 70
     1
102
RTVSPost2010Prop30
280
     1
102
RTVSPost2010PropOp30
 70
     1
102
RTVSPost2010Prop31
280
     0
102
RTVSPost2010PropOp31
 70
     1
102
RTVSPost2010Prop32
280
     0
102
RTVSPost2010PropOp32
 70
     1
102
RTVSPost2010Prop33
280
     0
102
RTVSPost2010PropOp33
 70
     1
102
RTVSPost2010Prop34
280
     0
102
RTVSPost2010PropOp34
 70
     1
102
RTVSPost2010Prop35
280
     0
102
RTVSPost2010PropOp35
 70
     1
102
RTVSPost2010Prop36
280
     0
102
RTVSPost2010PropOp36
 70
     1
102
RTVSPost2010Prop37
 90
       50
102
RTVSPost2010PropOp37
 70
     1
102
RTVSPost2010Prop38
140
0.0
102
RTVSPost2010PropOp38
 70
     1
102
RTVSPost2010Prop39
140
1.0
102
RTVSPost2010PropOp39
 70
     1
102
RTVSPost2010Prop40
 90
        0
102
RTVSPost2010PropOp40
 70
     1
102
RTVSPost2010Prop41ColorIndex
 90
       18
102
RTVSPost2010Prop41ColorRGB
 90
        0
102
RTVSPost2010PropOp41
 70
     1
102
RTVSPost2010Prop42
 90
       50
102
RTVSPost2010PropOp42
 70
     1
102
RTVSPost2010Prop43
 90
        3
102
RTVSPost2010PropOp43
 70
     1
102
RTVSPost2010Prop44ColorIndex
 90
        5
102
RTVSPost2010Prop44ColorRGB
 90
      255
102
RTVSPost2010PropOp44
 70
     1
102
RTVSPost2010Prop45
280
     0
102
RTVSPost2010PropOp45
 70
     1
102
RTVSPost2010Prop46
 90
       50
102
RTVSPost2010PropOp46
 70
     1
102
RTVSPost2010Prop47
 90
       50
102
RTVSPost2010PropOp47
 70
     1
102
RTVSPost2010Prop48
 90
       50
102
RTVSPost2010PropOp48
 70
     1
102
RTVSPost2010Prop49
280
     0
102
RTVSPost2010PropOp49
 70
     1
102
RTVSPost2010Prop50
 90
       50
102
RTVSPost2010PropOp50
 70
     1
102
RTVSPost2010Prop51ColorIndex
 90
      256
102
RTVSPost2010Prop51ColorRGB
 90
-16777216
102
RTVSPost2010PropOp51
 70
     0
102
RTVSPost2010Prop52
140
1.0
102
RTVSPost2010PropOp52
 70
     0
102
RTVSPost2010Prop53
 90
        2
102
RTVSPost2010PropOp53
 70
     1
102
RTVSPost2010Prop54
  1
strokes_ogs.tif
102
RTVSPost2010PropOp54
 70
     1
102
RTVSPost2010Prop55
280
     0
102
RTVSPost2010PropOp55
 70
     1
102
RTVSPost2010Prop56
140
1.0
102
RTVSPost2010PropOp56
 70
     1
102
RTVSPost2010Prop57
140
1.0
102
RTVSPost2010PropOp57
 70
     1
  0
XRECORD
  5
199
102
{ACAD_REACTORS
330
198
102
}
330
198
100
AcDbXrecord
280
     1
102
RTVSPost2010Prop28
280
     0
102
RTVSPost2010PropOp28
 70
     1
102
RTVSPost2010Prop29
280
     1
102
RTVSPost2010PropOp29
 70
     1
102
RTVSPost2010Prop30
280
     1
102
RTVSPost2010PropOp30
 70
     1
102
RTVSPost2010Prop31
280
     0
102
RTVSPost2010PropOp31
 70
     1
102
RTVSPost2010Prop32
280
     0
102
RTVSPost2010PropOp32
 70
     1
102
RTVSPost2010Prop33
280
     0
102
RTVSPost2010PropOp33
 70
     1
102
RTVSPost2010Prop34
280
     0
102
RTVSPost2010PropOp34
 70
     1
102
RTVSPost2010Prop35
280
     0
102
RTVSPost2010PropOp35
 70
     1
102
RTVSPost2010Prop36
280
     0
102
RTVSPost2010PropOp36
 70
     1
102
RTVSPost2010Prop37
 90
       50
102
RTVSPost2010PropOp37
 70
     1
102
RTVSPost2010Prop38
140
0.0
102
RTVSPost2010PropOp38
 70
     1
102
RTVSPost2010Prop39
140
1.0
102
RTVSPost2010PropOp39
 70
     1
102
RTVSPost2010Prop40
 90
        0
102
RTVSPost2010PropOp40
 70
     1
102
RTVSPost2010Prop41ColorIndex
 90
       18
102
RTVSPost2010Prop41ColorRGB
 90
        0
102
RTVSPost2010PropOp41
 70
     1
102
RTVSPost2010Prop42
 90
       50
102
RTVSPost2010PropOp42
 70
     1
102
RTVSPost2010Prop43
 90
        3
102
RTVSPost2010PropOp43
 70
     1
102
RTVSPost2010Prop44ColorIndex
 90
        5
102
RTVSPost2010Prop44ColorRGB
 90
      255
102
RTVSPost2010PropOp44
 70
     1
102
RTVSPost2010Prop45
280
     0
102
RTVSPost2010PropOp45
 70
     1
102
RTVSPost2010Prop46
 90
       50
102
RTVSPost2010PropOp46
 70
     1
102
RTVSPost2010Prop47
 90
       50
102
RTVSPost2010PropOp47
 70
     1
102
RTVSPost2010Prop48
 90
       50
102
RTVSPost2010PropOp48
 70
     1
102
RTVSPost2010Prop49
280
     0
102
RTVSPost2010PropOp49
 70
     1
102
RTVSPost2010Prop50
 90
       50
102
RTVSPost2010PropOp50
 70
     1
102
RTVSPost2010Prop51ColorIndex
 90
      256
102
RTVSPost2010Prop51ColorRGB
 90
-16777216
102
RTVSPost2010PropOp51
 70
     0
102
RTVSPost2010Prop52
140
1.0
102
RTVSPost2010PropOp52
 70
     0
102
RTVSPost2010Prop53
 90
        2
102
RTVSPost2010PropOp53
 70
     1
102
RTVSPost2010Prop54
  1
strokes_ogs.tif
102
RTVSPost2010PropOp54
 70
     1
102
RTVSPost2010Prop55
280
     0
102
RTVSPost2010PropOp55
 70
     1
102
RTVSPost2010Prop56
140
1.0
102
RTVSPost2010PropOp56
 70
     1
102
RTVSPost2010Prop57
140
1.0
102
RTVSPost2010PropOp57
 70
     1
  0
XRECORD
  5
1B5
102
{ACAD_REACTORS
330
1B4
102
}
330
1B4
100
AcDbXrecord
280
     1
102
RTVSPost2010Prop28
280
     0
102
RTVSPost2010PropOp28
 70
     0
102
RTVSPost2010Prop29
280
     1
102
RTVSPost2010PropOp29
 70
     0
102
RTVSPost2010Prop30
280
     1
102
RTVSPost2010PropOp30
 70
     0
102
RTVSPost2010Prop31
280
     0
102
RTVSPost2010PropOp31
 70
     0
102
RTVSPost2010Prop32
280
     0
102
RTVSPost2010PropOp32
 70
     0
102
RTVSPost2010Prop33
280
     0
102
RTVSPost2010PropOp33
 70
     0
102
RTVSPost2010Prop34
280
     0
102
RTVSPost2010PropOp34
 70
     0
102
RTVSPost2010Prop35
280
     0
102
RTVSPost2010PropOp35
 70
     0
102
RTVSPost2010Prop36
280
     0
102
RTVSPost2010PropOp36
 70
     0
102
RTVSPost2010Prop37
 90
       50
102
RTVSPost2010PropOp37
 70
     0
102
RTVSPost2010Prop38
140
0.0
102
RTVSPost2010PropOp38
 70
     0
102
RTVSPost2010Prop39
140
1.0
102
RTVSPost2010PropOp39
 70
     0
102
RTVSPost2010Prop40
 90
        0
102
RTVSPost2010PropOp40
 70
     0
102
RTVSPost2010Prop41ColorIndex
 90
       18
102
RTVSPost2010Prop41ColorRGB
 90
        0
102
RTVSPost2010PropOp41
 70
     0
102
RTVSPost2010Prop42
 90
       50
102
RTVSPost2010PropOp42
 70
     0
102
RTVSPost2010Prop43
 90
        3
102
RTVSPost2010PropOp43
 70
     0
102
RTVSPost2010Prop44ColorIndex
 90
        5
102
RTVSPost2010Prop44ColorRGB
 90
      255
102
RTVSPost2010PropOp44
 70
     0
102
RTVSPost2010Prop45
280
     0
102
RTVSPost2010PropOp45
 70
     0
102
RTVSPost2010Prop46
 90
       50
102
RTVSPost2010PropOp46
 70
     0
102
RTVSPost2010Prop47
 90
       50
102
RTVSPost2010PropOp47
 70
     0
102
RTVSPost2010Prop48
 90
       50
102
RTVSPost2010PropOp48
 70
     0
102
RTVSPost2010Prop49
280
     0
102
RTVSPost2010PropOp49
 70
     0
102
RTVSPost2010Prop50
 90
       50
102
RTVSPost2010PropOp50
 70
     0
102
RTVSPost2010Prop51ColorIndex
 90
      256
102
RTVSPost2010Prop51ColorRGB
 90
-16777216
102
RTVSPost2010PropOp51
 70
     0
102
RTVSPost2010Prop52
140
1.0
102
RTVSPost2010PropOp52
 70
     0
102
RTVSPost2010Prop53
 90
        2
102
RTVSPost2010PropOp53
 70
     0
102
RTVSPost2010Prop54
  1
strokes_ogs.tif
102
RTVSPost2010PropOp54
 70
     0
102
RTVSPost2010Prop55
280
     0
102
RTVSPost2010PropOp55
 70
     0
102
RTVSPost2010Prop56
140
1.0
102
RTVSPost2010PropOp56
 70
     0
102
RTVSPost2010Prop57
140
1.0
102
RTVSPost2010PropOp57
 70
     0
  0
XRECORD
  5
1A5
102
{ACAD_REACTORS
330
1A4
102
}
330
1A4
100
AcDbXrecord
280
     1
102
RTVSPost2010Prop28
280
     0
102
RTVSPost2010PropOp28
 70
     1
102
RTVSPost2010Prop29
280
     1
102
RTVSPost2010PropOp29
 70
     1
102
RTVSPost2010Prop30
280
     1
102
RTVSPost2010PropOp30
 70
     1
102
RTVSPost2010Prop31
280
     0
102
RTVSPost2010PropOp31
 70
     1
102
RTVSPost2010Prop32
280
     0
102
RTVSPost2010PropOp32
 70
     1
102
RTVSPost2010Prop33
280
     0
102
RTVSPost2010PropOp33
 70
     1
102
RTVSPost2010Prop34
280
     0
102
RTVSPost2010PropOp34
 70
     1
102
RTVSPost2010Prop35
280
     0
102
RTVSPost2010PropOp35
 70
     1
102
RTVSPost2010Prop36
280
     0
102
RTVSPost2010PropOp36
 70
     1
102
RTVSPost2010Prop37
 90
       50
102
RTVSPost2010PropOp37
 70
     1
102
RTVSPost2010Prop38
140
0.0
102
RTVSPost2010PropOp38
 70
     1
102
RTVSPost2010Prop39
140
1.0
102
RTVSPost2010PropOp39
 70
     1
102
RTVSPost2010Prop40
 90
        0
102
RTVSPost2010PropOp40
 70
     1
102
RTVSPost2010Prop41ColorIndex
 90
       18
102
RTVSPost2010Prop41ColorRGB
 90
        0
102
RTVSPost2010PropOp41
 70
     1
102
RTVSPost2010Prop42
 90
       50
102
RTVSPost2010PropOp42
 70
     1
102
RTVSPost2010Prop43
 90
        3
102
RTVSPost2010PropOp43
 70
     1
102
RTVSPost2010Prop44ColorIndex
 90
        5
102
RTVSPost2010Prop44ColorRGB
 90
      255
102
RTVSPost2010PropOp44
 70
     1
102
RTVSPost2010Prop45
280
     0
102
RTVSPost2010PropOp45
 70
     1
102
RTVSPost2010Prop46
 90
       50
102
RTVSPost2010PropOp46
 70
     1
102
RTVSPost2010Prop47
 90
       50
102
RTVSPost2010PropOp47
 70
     1
102
RTVSPost2010Prop48
 90
       50
102
RTVSPost2010PropOp48
 70
     1
102
RTVSPost2010Prop49
280
     0
102
RTVSPost2010PropOp49
 70
     1
102
RTVSPost2010Prop50
 90
       50
102
RTVSPost2010PropOp50
 70
     1
102
RTVSPost2010Prop51ColorIndex
 90
      256
102
RTVSPost2010Prop51ColorRGB
 90
-16777216
102
RTVSPost2010PropOp51
 70
     0
102
RTVSPost2010Prop52
140
1.0
102
RTVSPost2010PropOp52
 70
     0
102
RTVSPost2010Prop53
 90
        2
102
RTVSPost2010PropOp53
 70
     1
102
RTVSPost2010Prop54
  1
strokes_ogs.tif
102
RTVSPost2010PropOp54
 70
     1
102
RTVSPost2010Prop55
280
     0
102
RTVSPost2010PropOp55
 70
     1
102
RTVSPost2010Prop56
140
1.0
102
RTVSPost2010PropOp56
 70
     1
102
RTVSPost2010Prop57
140
1.0
102
RTVSPost2010PropOp57
 70
     1
  0
XRECORD
  5
1B7
102
{ACAD_REACTORS
330
1B6
102
}
330
1B6
100
AcDbXrecord
280
     1
102
RTVSPost2010Prop28
280
     0
102
RTVSPost2010PropOp28
 70
     0
102
RTVSPost2010Prop29
280
     1
102
RTVSPost2010PropOp29
 70
     0
102
RTVSPost2010Prop30
280
     1
102
RTVSPost2010PropOp30
 70
     0
102
RTVSPost2010Prop31
280
     0
102
RTVSPost2010PropOp31
 70
     0
102
RTVSPost2010Prop32
280
     0
102
RTVSPost2010PropOp32
 70
     0
102
RTVSPost2010Prop33
280
     0
102
RTVSPost2010PropOp33
 70
     0
102
RTVSPost2010Prop34
280
     0
102
RTVSPost2010PropOp34
 70
     0
102
RTVSPost2010Prop35
280
     0
102
RTVSPost2010PropOp35
 70
     0
102
RTVSPost2010Prop36
280
     0
102
RTVSPost2010PropOp36
 70
     0
102
RTVSPost2010Prop37
 90
       50
102
RTVSPost2010PropOp37
 70
     0
102
RTVSPost2010Prop38
140
0.0
102
RTVSPost2010PropOp38
 70
     0
102
RTVSPost2010Prop39
140
1.0
102
RTVSPost2010PropOp39
 70
     0
102
RTVSPost2010Prop40
 90
        0
102
RTVSPost2010PropOp40
 70
     0
102
RTVSPost2010Prop41ColorIndex
 90
       18
102
RTVSPost2010Prop41ColorRGB
 90
        0
102
RTVSPost2010PropOp41
 70
     0
102
RTVSPost2010Prop42
 90
       50
102
RTVSPost2010PropOp42
 70
     0
102
RTVSPost2010Prop43
 90
        3
102
RTVSPost2010PropOp43
 70
     0
102
RTVSPost2010Prop44ColorIndex
 90
        5
102
RTVSPost2010Prop44ColorRGB
 90
      255
102
RTVSPost2010PropOp44
 70
     0
102
RTVSPost2010Prop45
280
     0
102
RTVSPost2010PropOp45
 70
     0
102
RTVSPost2010Prop46
 90
       50
102
RTVSPost2010PropOp46
 70
     0
102
RTVSPost2010Prop47
 90
       50
102
RTVSPost2010PropOp47
 70
     0
102
RTVSPost2010Prop48
 90
       50
102
RTVSPost2010PropOp48
 70
     0
102
RTVSPost2010Prop49
280
     0
102
RTVSPost2010PropOp49
 70
     0
102
RTVSPost2010Prop50
 90
       50
102
RTVSPost2010PropOp50
 70
     0
102
RTVSPost2010Prop51ColorIndex
 90
      256
102
RTVSPost2010Prop51ColorRGB
 90
-16777216
102
RTVSPost2010PropOp51
 70
     0
102
RTVSPost2010Prop52
140
1.0
102
RTVSPost2010PropOp52
 70
     0
102
RTVSPost2010Prop53
 90
        2
102
RTVSPost2010PropOp53
 70
     0
102
RTVSPost2010Prop54
  1
strokes_ogs.tif
102
RTVSPost2010PropOp54
 70
     0
102
RTVSPost2010Prop55
280
     0
102
RTVSPost2010PropOp55
 70
     0
102
RTVSPost2010Prop56
140
1.0
102
RTVSPost2010PropOp56
 70
     0
102
RTVSPost2010Prop57
140
1.0
102
RTVSPost2010PropOp57
 70
     0
  0
XRECORD
  5
19D
102
{ACAD_REACTORS
330
19C
102
}
330
19C
100
AcDbXrecord
280
     1
102
RTVSPost2010Prop28
280
     0
102
RTVSPost2010PropOp28
 70
     1
102
RTVSPost2010Prop29
280
     1
102
RTVSPost2010PropOp29
 70
     1
102
RTVSPost2010Prop30
280
     1
102
RTVSPost2010PropOp30
 70
     1
102
RTVSPost2010Prop31
280
     0
102
RTVSPost2010PropOp31
 70
     1
102
RTVSPost2010Prop32
280
     0
102
RTVSPost2010PropOp32
 70
     1
102
RTVSPost2010Prop33
280
     0
102
RTVSPost2010PropOp33
 70
     1
102
RTVSPost2010Prop34
280
     0
102
RTVSPost2010PropOp34
 70
     1
102
RTVSPost2010Prop35
280
     0
102
RTVSPost2010PropOp35
 70
     1
102
RTVSPost2010Prop36
280
     0
102
RTVSPost2010PropOp36
 70
     1
102
RTVSPost2010Prop37
 90
       50
102
RTVSPost2010PropOp37
 70
     1
102
RTVSPost2010Prop38
140
0.0
102
RTVSPost2010PropOp38
 70
     1
102
RTVSPost2010Prop39
140
1.0
102
RTVSPost2010PropOp39
 70
     1
102
RTVSPost2010Prop40
 90
        0
102
RTVSPost2010PropOp40
 70
     1
102
RTVSPost2010Prop41ColorIndex
 90
       18
102
RTVSPost2010Prop41ColorRGB
 90
        0
102
RTVSPost2010PropOp41
 70
     1
102
RTVSPost2010Prop42
 90
       50
102
RTVSPost2010PropOp42
 70
     1
102
RTVSPost2010Prop43
 90
        3
102
RTVSPost2010PropOp43
 70
     1
102
RTVSPost2010Prop44ColorIndex
 90
        5
102
RTVSPost2010Prop44ColorRGB
 90
      255
102
RTVSPost2010PropOp44
 70
     1
102
RTVSPost2010Prop45
280
     0
102
RTVSPost2010PropOp45
 70
     1
102
RTVSPost2010Prop46
 90
       50
102
RTVSPost2010PropOp46
 70
     1
102
RTVSPost2010Prop47
 90
       50
102
RTVSPost2010PropOp47
 70
     1
102
RTVSPost2010Prop48
 90
       50
102
RTVSPost2010PropOp48
 70
     1
102
RTVSPost2010Prop49
280
     0
102
RTVSPost2010PropOp49
 70
     1
102
RTVSPost2010Prop50
 90
       50
102
RTVSPost2010PropOp50
 70
     1
102
RTVSPost2010Prop51ColorIndex
 90
      256
102
RTVSPost2010Prop51ColorRGB
 90
-16777216
102
RTVSPost2010PropOp51
 70
     0
102
RTVSPost2010Prop52
140
1.0
102
RTVSPost2010PropOp52
 70
     0
102
RTVSPost2010Prop53
 90
        2
102
RTVSPost2010PropOp53
 70
     1
102
RTVSPost2010Prop54
  1
strokes_ogs.tif
102
RTVSPost2010PropOp54
 70
     1
102
RTVSPost2010Prop55
280
     0
102
RTVSPost2010PropOp55
 70
     1
102
RTVSPost2010Prop56
140
1.0
102
RTVSPost2010PropOp56
 70
     1
102
RTVSPost2010Prop57
140
1.0
102
RTVSPost2010PropOp57
 70
     1
  0
XRECORD
  5
1B3
102
{ACAD_REACTORS
330
1B2
102
}
330
1B2
100
AcDbXrecord
280
     1
102
RTVSPost2010Prop28
280
     0
102
RTVSPost2010PropOp28
 70
     1
102
RTVSPost2010Prop29
280
     1
102
RTVSPost2010PropOp29
 70
     1
102
RTVSPost2010Prop30
280
     1
102
RTVSPost2010PropOp30
 70
     1
102
RTVSPost2010Prop31
280
     0
102
RTVSPost2010PropOp31
 70
     1
102
RTVSPost2010Prop32
280
     0
102
RTVSPost2010PropOp32
 70
     1
102
RTVSPost2010Prop33
280
     0
102
RTVSPost2010PropOp33
 70
     1
102
RTVSPost2010Prop34
280
     0
102
RTVSPost2010PropOp34
 70
     1
102
RTVSPost2010Prop35
280
     0
102
RTVSPost2010PropOp35
 70
     1
102
RTVSPost2010Prop36
280
     0
102
RTVSPost2010PropOp36
 70
     1
102
RTVSPost2010Prop37
 90
       50
102
RTVSPost2010PropOp37
 70
     1
102
RTVSPost2010Prop38
140
0.0
102
RTVSPost2010PropOp38
 70
     1
102
RTVSPost2010Prop39
140
1.0
102
RTVSPost2010PropOp39
 70
     1
102
RTVSPost2010Prop40
 90
        0
102
RTVSPost2010PropOp40
 70
     1
102
RTVSPost2010Prop41ColorIndex
 90
       18
102
RTVSPost2010Prop41ColorRGB
 90
        0
102
RTVSPost2010PropOp41
 70
     1
102
RTVSPost2010Prop42
 90
       50
102
RTVSPost2010PropOp42
 70
     1
102
RTVSPost2010Prop43
 90
        3
102
RTVSPost2010PropOp43
 70
     1
102
RTVSPost2010Prop44ColorIndex
 90
        5
102
RTVSPost2010Prop44ColorRGB
 90
      255
102
RTVSPost2010PropOp44
 70
     1
102
RTVSPost2010Prop45
280
     0
102
RTVSPost2010PropOp45
 70
     1
102
RTVSPost2010Prop46
 90
       50
102
RTVSPost2010PropOp46
 70
     1
102
RTVSPost2010Prop47
 90
       50
102
RTVSPost2010PropOp47
 70
     1
102
RTVSPost2010Prop48
 90
       50
102
RTVSPost2010PropOp48
 70
     1
102
RTVSPost2010Prop49
280
     0
102
RTVSPost2010PropOp49
 70
     1
102
RTVSPost2010Prop50
 90
       50
102
RTVSPost2010PropOp50
 70
     1
102
RTVSPost2010Prop51ColorIndex
 90
      256
102
RTVSPost2010Prop51ColorRGB
 90
-16777216
102
RTVSPost2010PropOp51
 70
     0
102
RTVSPost2010Prop52
140
1.0
102
RTVSPost2010PropOp52
 70
     0
102
RTVSPost2010Prop53
 90
        2
102
RTVSPost2010PropOp53
 70
     1
102
RTVSPost2010Prop54
  1
strokes_ogs.tif
102
RTVSPost2010PropOp54
 70
     1
102
RTVSPost2010Prop55
280
     0
102
RTVSPost2010PropOp55
 70
     1
102
RTVSPost2010Prop56
140
1.0
102
RTVSPost2010PropOp56
 70
     1
102
RTVSPost2010Prop57
140
1.0
102
RTVSPost2010PropOp57
 70
     1
  0
XRECORD
  5
1B1
102
{ACAD_REACTORS
330
1B0
102
}
330
1B0
100
AcDbXrecord
280
     1
102
RTVSPost2010Prop28
280
     0
102
RTVSPost2010PropOp28
 70
     1
102
RTVSPost2010Prop29
280
     1
102
RTVSPost2010PropOp29
 70
     1
102
RTVSPost2010Prop30
280
     1
102
RTVSPost2010PropOp30
 70
     1
102
RTVSPost2010Prop31
280
     0
102
RTVSPost2010PropOp31
 70
     1
102
RTVSPost2010Prop32
280
     0
102
RTVSPost2010PropOp32
 70
     1
102
RTVSPost2010Prop33
280
     0
102
RTVSPost2010PropOp33
 70
     1
102
RTVSPost2010Prop34
280
     0
102
RTVSPost2010PropOp34
 70
     1
102
RTVSPost2010Prop35
280
     0
102
RTVSPost2010PropOp35
 70
     1
102
RTVSPost2010Prop36
280
     0
102
RTVSPost2010PropOp36
 70
     1
102
RTVSPost2010Prop37
 90
       50
102
RTVSPost2010PropOp37
 70
     1
102
RTVSPost2010Prop38
140
0.0
102
RTVSPost2010PropOp38
 70
     1
102
RTVSPost2010Prop39
140
1.0
102
RTVSPost2010PropOp39
 70
     1
102
RTVSPost2010Prop40
 90
        0
102
RTVSPost2010PropOp40
 70
     1
102
RTVSPost2010Prop41ColorIndex
 90
       18
102
RTVSPost2010Prop41ColorRGB
 90
        0
102
RTVSPost2010PropOp41
 70
     1
102
RTVSPost2010Prop42
 90
       50
102
RTVSPost2010PropOp42
 70
     1
102
RTVSPost2010Prop43
 90
        3
102
RTVSPost2010PropOp43
 70
     1
102
RTVSPost2010Prop44ColorIndex
 90
        5
102
RTVSPost2010Prop44ColorRGB
 90
      255
102
RTVSPost2010PropOp44
 70
     1
102
RTVSPost2010Prop45
280
     0
102
RTVSPost2010PropOp45
 70
     1
102
RTVSPost2010Prop46
 90
       50
102
RTVSPost2010PropOp46
 70
     1
102
RTVSPost2010Prop47
 90
       50
102
RTVSPost2010PropOp47
 70
     1
102
RTVSPost2010Prop48
 90
       50
102
RTVSPost2010PropOp48
 70
     1
102
RTVSPost2010Prop49
280
     0
102
RTVSPost2010PropOp49
 70
     1
102
RTVSPost2010Prop50
 90
       50
102
RTVSPost2010PropOp50
 70
     1
102
RTVSPost2010Prop51ColorIndex
 90
      256
102
RTVSPost2010Prop51ColorRGB
 90
-16777216
102
RTVSPost2010PropOp51
 70
     0
102
RTVSPost2010Prop52
140
1.0
102
RTVSPost2010PropOp52
 70
     0
102
RTVSPost2010Prop53
 90
        2
102
RTVSPost2010PropOp53
 70
     1
102
RTVSPost2010Prop54
  1
strokes_ogs.tif
102
RTVSPost2010PropOp54
 70
     1
102
RTVSPost2010Prop55
280
     0
102
RTVSPost2010PropOp55
 70
     1
102
RTVSPost2010Prop56
140
1.0
102
RTVSPost2010PropOp56
 70
     1
102
RTVSPost2010Prop57
140
1.0
102
RTVSPost2010PropOp57
 70
     1
  0
XRECORD
  5
1AB
102
{ACAD_REACTORS
330
1AA
102
}
330
1AA
100
AcDbXrecord
280
     1
102
RTVSPost2010Prop28
280
     0
102
RTVSPost2010PropOp28
 70
     1
102
RTVSPost2010Prop29
280
     1
102
RTVSPost2010PropOp29
 70
     1
102
RTVSPost2010Prop30
280
     1
102
RTVSPost2010PropOp30
 70
     1
102
RTVSPost2010Prop31
280
     0
102
RTVSPost2010PropOp31
 70
     1
102
RTVSPost2010Prop32
280
     0
102
RTVSPost2010PropOp32
 70
     1
102
RTVSPost2010Prop33
280
     0
102
RTVSPost2010PropOp33
 70
     1
102
RTVSPost2010Prop34
280
     0
102
RTVSPost2010PropOp34
 70
     1
102
RTVSPost2010Prop35
280
     0
102
RTVSPost2010PropOp35
 70
     1
102
RTVSPost2010Prop36
280
     0
102
RTVSPost2010PropOp36
 70
     1
102
RTVSPost2010Prop37
 90
       50
102
RTVSPost2010PropOp37
 70
     1
102
RTVSPost2010Prop38
140
0.0
102
RTVSPost2010PropOp38
 70
     1
102
RTVSPost2010Prop39
140
1.0
102
RTVSPost2010PropOp39
 70
     1
102
RTVSPost2010Prop40
 90
        0
102
RTVSPost2010PropOp40
 70
     1
102
RTVSPost2010Prop41ColorIndex
 90
       18
102
RTVSPost2010Prop41ColorRGB
 90
        0
102
RTVSPost2010PropOp41
 70
     1
102
RTVSPost2010Prop42
 90
       50
102
RTVSPost2010PropOp42
 70
     1
102
RTVSPost2010Prop43
 90
        3
102
RTVSPost2010PropOp43
 70
     1
102
RTVSPost2010Prop44ColorIndex
 90
        5
102
RTVSPost2010Prop44ColorRGB
 90
      255
102
RTVSPost2010PropOp44
 70
     1
102
RTVSPost2010Prop45
280
     0
102
RTVSPost2010PropOp45
 70
     1
102
RTVSPost2010Prop46
 90
       50
102
RTVSPost2010PropOp46
 70
     1
102
RTVSPost2010Prop47
 90
       50
102
RTVSPost2010PropOp47
 70
     1
102
RTVSPost2010Prop48
 90
       50
102
RTVSPost2010PropOp48
 70
     1
102
RTVSPost2010Prop49
280
     0
102
RTVSPost2010PropOp49
 70
     1
102
RTVSPost2010Prop50
 90
       50
102
RTVSPost2010PropOp50
 70
     1
102
RTVSPost2010Prop51ColorIndex
 90
      256
102
RTVSPost2010Prop51ColorRGB
 90
-16777216
102
RTVSPost2010PropOp51
 70
     0
102
RTVSPost2010Prop52
140
1.0
102
RTVSPost2010PropOp52
 70
     0
102
RTVSPost2010Prop53
 90
        2
102
RTVSPost2010PropOp53
 70
     1
102
RTVSPost2010Prop54
  1
strokes_ogs.tif
102
RTVSPost2010PropOp54
 70
     1
102
RTVSPost2010Prop55
280
     0
102
RTVSPost2010PropOp55
 70
     1
102
RTVSPost2010Prop56
140
1.0
102
RTVSPost2010PropOp56
 70
     1
102
RTVSPost2010Prop57
140
1.0
102
RTVSPost2010PropOp57
 70
     1
  0
XRECORD
  5
1AD
102
{ACAD_REACTORS
330
1AC
102
}
330
1AC
100
AcDbXrecord
280
     1
102
RTVSPost2010Prop28
280
     0
102
RTVSPost2010PropOp28
 70
     1
102
RTVSPost2010Prop29
280
     1
102
RTVSPost2010PropOp29
 70
     1
102
RTVSPost2010Prop30
280
     1
102
RTVSPost2010PropOp30
 70
     1
102
RTVSPost2010Prop31
280
     0
102
RTVSPost2010PropOp31
 70
     1
102
RTVSPost2010Prop32
280
     0
102
RTVSPost2010PropOp32
 70
     1
102
RTVSPost2010Prop33
280
     0
102
RTVSPost2010PropOp33
 70
     1
102
RTVSPost2010Prop34
280
     0
102
RTVSPost2010PropOp34
 70
     1
102
RTVSPost2010Prop35
280
     0
102
RTVSPost2010PropOp35
 70
     1
102
RTVSPost2010Prop36
280
     0
102
RTVSPost2010PropOp36
 70
     1
102
RTVSPost2010Prop37
 90
       50
102
RTVSPost2010PropOp37
 70
     1
102
RTVSPost2010Prop38
140
0.0
102
RTVSPost2010PropOp38
 70
     1
102
RTVSPost2010Prop39
140
1.0
102
RTVSPost2010PropOp39
 70
     1
102
RTVSPost2010Prop40
 90
        0
102
RTVSPost2010PropOp40
 70
     1
102
RTVSPost2010Prop41ColorIndex
 90
       18
102
RTVSPost2010Prop41ColorRGB
 90
        0
102
RTVSPost2010PropOp41
 70
     1
102
RTVSPost2010Prop42
 90
       50
102
RTVSPost2010PropOp42
 70
     1
102
RTVSPost2010Prop43
 90
        3
102
RTVSPost2010PropOp43
 70
     1
102
RTVSPost2010Prop44ColorIndex
 90
        5
102
RTVSPost2010Prop44ColorRGB
 90
      255
102
RTVSPost2010PropOp44
 70
     1
102
RTVSPost2010Prop45
280
     0
102
RTVSPost2010PropOp45
 70
     1
102
RTVSPost2010Prop46
 90
       50
102
RTVSPost2010PropOp46
 70
     1
102
RTVSPost2010Prop47
 90
       50
102
RTVSPost2010PropOp47
 70
     1
102
RTVSPost2010Prop48
 90
       50
102
RTVSPost2010PropOp48
 70
     1
102
RTVSPost2010Prop49
280
     0
102
RTVSPost2010PropOp49
 70
     1
102
RTVSPost2010Prop50
 90
       50
102
RTVSPost2010PropOp50
 70
     1
102
RTVSPost2010Prop51ColorIndex
 90
      256
102
RTVSPost2010Prop51ColorRGB
 90
-16777216
102
RTVSPost2010PropOp51
 70
     0
102
RTVSPost2010Prop52
140
1.0
102
RTVSPost2010PropOp52
 70
     0
102
RTVSPost2010Prop53
 90
        2
102
RTVSPost2010PropOp53
 70
     1
102
RTVSPost2010Prop54
  1
strokes_ogs.tif
102
RTVSPost2010PropOp54
 70
     1
102
RTVSPost2010Prop55
280
     0
102
RTVSPost2010PropOp55
 70
     1
102
RTVSPost2010Prop56
140
1.0
102
RTVSPost2010PropOp56
 70
     1
102
RTVSPost2010Prop57
140
1.0
102
RTVSPost2010PropOp57
 70
     1
  0
XRECORD
  5
1A3
102
{ACAD_REACTORS
330
1A2
102
}
330
1A2
100
AcDbXrecord
280
     1
102
RTVSPost2010Prop28
280
     0
102
RTVSPost2010PropOp28
 70
     1
102
RTVSPost2010Prop29
280
     1
102
RTVSPost2010PropOp29
 70
     1
102
RTVSPost2010Prop30
280
     1
102
RTVSPost2010PropOp30
 70
     1
102
RTVSPost2010Prop31
280
     0
102
RTVSPost2010PropOp31
 70
     1
102
RTVSPost2010Prop32
280
     0
102
RTVSPost2010PropOp32
 70
     1
102
RTVSPost2010Prop33
280
     0
102
RTVSPost2010PropOp33
 70
     1
102
RTVSPost2010Prop34
280
     0
102
RTVSPost2010PropOp34
 70
     1
102
RTVSPost2010Prop35
280
     0
102
RTVSPost2010PropOp35
 70
     1
102
RTVSPost2010Prop36
280
     0
102
RTVSPost2010PropOp36
 70
     1
102
RTVSPost2010Prop37
 90
       50
102
RTVSPost2010PropOp37
 70
     1
102
RTVSPost2010Prop38
140
0.0
102
RTVSPost2010PropOp38
 70
     1
102
RTVSPost2010Prop39
140
1.0
102
RTVSPost2010PropOp39
 70
     1
102
RTVSPost2010Prop40
 90
        0
102
RTVSPost2010PropOp40
 70
     1
102
RTVSPost2010Prop41ColorIndex
 90
       18
102
RTVSPost2010Prop41ColorRGB
 90
        0
102
RTVSPost2010PropOp41
 70
     1
102
RTVSPost2010Prop42
 90
       50
102
RTVSPost2010PropOp42
 70
     1
102
RTVSPost2010Prop43
 90
        3
102
RTVSPost2010PropOp43
 70
     1
102
RTVSPost2010Prop44ColorIndex
 90
        5
102
RTVSPost2010Prop44ColorRGB
 90
      255
102
RTVSPost2010PropOp44
 70
     1
102
RTVSPost2010Prop45
280
     0
102
RTVSPost2010PropOp45
 70
     1
102
RTVSPost2010Prop46
 90
       50
102
RTVSPost2010PropOp46
 70
     1
102
RTVSPost2010Prop47
 90
       50
102
RTVSPost2010PropOp47
 70
     1
102
RTVSPost2010Prop48
 90
       50
102
RTVSPost2010PropOp48
 70
     1
102
RTVSPost2010Prop49
280
     0
102
RTVSPost2010PropOp49
 70
     1
102
RTVSPost2010Prop50
 90
       50
102
RTVSPost2010PropOp50
 70
     1
102
RTVSPost2010Prop51ColorIndex
 90
      256
102
RTVSPost2010Prop51ColorRGB
 90
-16777216
102
RTVSPost2010PropOp51
 70
     0
102
RTVSPost2010Prop52
140
1.0
102
RTVSPost2010PropOp52
 70
     0
102
RTVSPost2010Prop53
 90
        2
102
RTVSPost2010PropOp53
 70
     1
102
RTVSPost2010Prop54
  1
strokes_ogs.tif
102
RTVSPost2010PropOp54
 70
     1
102
RTVSPost2010Prop55
280
     0
102
RTVSPost2010PropOp55
 70
     1
102
RTVSPost2010Prop56
140
1.0
102
RTVSPost2010PropOp56
 70
     1
102
RTVSPost2010Prop57
140
1.0
102
RTVSPost2010PropOp57
 70
     1
  0
XRECORD
  5
197
102
{ACAD_REACTORS
330
196
102
}
330
196
100
AcDbXrecord
280
     1
102
RTVSPost2010Prop28
280
     0
102
RTVSPost2010PropOp28
 70
     1
102
RTVSPost2010Prop29
280
     1
102
RTVSPost2010PropOp29
 70
     1
102
RTVSPost2010Prop30
280
     1
102
RTVSPost2010PropOp30
 70
     1
102
RTVSPost2010Prop31
280
     0
102
RTVSPost2010PropOp31
 70
     1
102
RTVSPost2010Prop32
280
     0
102
RTVSPost2010PropOp32
 70
     1
102
RTVSPost2010Prop33
280
     0
102
RTVSPost2010PropOp33
 70
     1
102
RTVSPost2010Prop34
280
     0
102
RTVSPost2010PropOp34
 70
     1
102
RTVSPost2010Prop35
280
     0
102
RTVSPost2010PropOp35
 70
     1
102
RTVSPost2010Prop36
280
     0
102
RTVSPost2010PropOp36
 70
     1
102
RTVSPost2010Prop37
 90
       50
102
RTVSPost2010PropOp37
 70
     1
102
RTVSPost2010Prop38
140
0.0
102
RTVSPost2010PropOp38
 70
     1
102
RTVSPost2010Prop39
140
1.0
102
RTVSPost2010PropOp39
 70
     1
102
RTVSPost2010Prop40
 90
        0
102
RTVSPost2010PropOp40
 70
     1
102
RTVSPost2010Prop41ColorIndex
 90
       18
102
RTVSPost2010Prop41ColorRGB
 90
        0
102
RTVSPost2010PropOp41
 70
     1
102
RTVSPost2010Prop42
 90
       50
102
RTVSPost2010PropOp42
 70
     1
102
RTVSPost2010Prop43
 90
        3
102
RTVSPost2010PropOp43
 70
     1
102
RTVSPost2010Prop44ColorIndex
 90
        5
102
RTVSPost2010Prop44ColorRGB
 90
      255
102
RTVSPost2010PropOp44
 70
     1
102
RTVSPost2010Prop45
280
     0
102
RTVSPost2010PropOp45
 70
     1
102
RTVSPost2010Prop46
 90
       50
102
RTVSPost2010PropOp46
 70
     1
102
RTVSPost2010Prop47
 90
       50
102
RTVSPost2010PropOp47
 70
     1
102
RTVSPost2010Prop48
 90
       50
102
RTVSPost2010PropOp48
 70
     1
102
RTVSPost2010Prop49
280
     0
102
RTVSPost2010PropOp49
 70
     1
102
RTVSPost2010Prop50
 90
       50
102
RTVSPost2010PropOp50
 70
     1
102
RTVSPost2010Prop51ColorIndex
 90
      256
102
RTVSPost2010Prop51ColorRGB
 90
-16777216
102
RTVSPost2010PropOp51
 70
     0
102
RTVSPost2010Prop52
140
1.0
102
RTVSPost2010PropOp52
 70
     0
102
RTVSPost2010Prop53
 90
        2
102
RTVSPost2010PropOp53
 70
     1
102
RTVSPost2010Prop54
  1
strokes_ogs.tif
102
RTVSPost2010PropOp54
 70
     1
102
RTVSPost2010Prop55
280
     0
102
RTVSPost2010PropOp55
 70
     1
102
RTVSPost2010Prop56
140
1.0
102
RTVSPost2010PropOp56
 70
     1
102
RTVSPost2010Prop57
140
1.0
102
RTVSPost2010PropOp57
 70
     1
  0
XRECORD
  5
1AF
102
{ACAD_REACTORS
330
1AE
102
}
330
1AE
100
AcDbXrecord
280
     1
102
RTVSPost2010Prop28
280
     0
102
RTVSPost2010PropOp28
 70
     1
102
RTVSPost2010Prop29
280
     1
102
RTVSPost2010PropOp29
 70
     1
102
RTVSPost2010Prop30
280
     1
102
RTVSPost2010PropOp30
 70
     1
102
RTVSPost2010Prop31
280
     0
102
RTVSPost2010PropOp31
 70
     1
102
RTVSPost2010Prop32
280
     0
102
RTVSPost2010PropOp32
 70
     1
102
RTVSPost2010Prop33
280
     0
102
RTVSPost2010PropOp33
 70
     1
102
RTVSPost2010Prop34
280
     0
102
RTVSPost2010PropOp34
 70
     1
102
RTVSPost2010Prop35
280
     0
102
RTVSPost2010PropOp35
 70
     1
102
RTVSPost2010Prop36
280
     0
102
RTVSPost2010PropOp36
 70
     1
102
RTVSPost2010Prop37
 90
       50
102
RTVSPost2010PropOp37
 70
     1
102
RTVSPost2010Prop38
140
0.0
102
RTVSPost2010PropOp38
 70
     1
102
RTVSPost2010Prop39
140
1.0
102
RTVSPost2010PropOp39
 70
     1
102
RTVSPost2010Prop40
 90
        0
102
RTVSPost2010PropOp40
 70
     1
102
RTVSPost2010Prop41ColorIndex
 90
       18
102
RTVSPost2010Prop41ColorRGB
 90
        0
102
RTVSPost2010PropOp41
 70
     1
102
RTVSPost2010Prop42
 90
       50
102
RTVSPost2010PropOp42
 70
     1
102
RTVSPost2010Prop43
 90
        3
102
RTVSPost2010PropOp43
 70
     1
102
RTVSPost2010Prop44ColorIndex
 90
        5
102
RTVSPost2010Prop44ColorRGB
 90
      255
102
RTVSPost2010PropOp44
 70
     1
102
RTVSPost2010Prop45
280
     0
102
RTVSPost2010PropOp45
 70
     1
102
RTVSPost2010Prop46
 90
       50
102
RTVSPost2010PropOp46
 70
     1
102
RTVSPost2010Prop47
 90
       50
102
RTVSPost2010PropOp47
 70
     1
102
RTVSPost2010Prop48
 90
       50
102
RTVSPost2010PropOp48
 70
     1
102
RTVSPost2010Prop49
280
     0
102
RTVSPost2010PropOp49
 70
     1
102
RTVSPost2010Prop50
 90
       50
102
RTVSPost2010PropOp50
 70
     1
102
RTVSPost2010Prop51ColorIndex
 90
      256
102
RTVSPost2010Prop51ColorRGB
 90
-16777216
102
RTVSPost2010PropOp51
 70
     0
102
RTVSPost2010Prop52
140
1.0
102
RTVSPost2010PropOp52
 70
     0
102
RTVSPost2010Prop53
 90
        2
102
RTVSPost2010PropOp53
 70
     1
102
RTVSPost2010Prop54
  1
strokes_ogs.tif
102
RTVSPost2010PropOp54
 70
     1
102
RTVSPost2010Prop55
280
     0
102
RTVSPost2010PropOp55
 70
     1
102
RTVSPost2010Prop56
140
1.0
102
RTVSPost2010PropOp56
 70
     1
102
RTVSPost2010Prop57
140
1.0
102
RTVSPost2010PropOp57
 70
     1
  0
ENDSEC
  0
EOF
