  0
SECTION
  2
HEADER
  9
$ACADVER
  1
AC1024
  9
$ACADMAINTVER
 70
   226
  9
$DWGCODEPAGE
  3
ANSI_932
  9
$INSBASE
 10
0.0
 20
0.0
 30
0.0
  9
$EXTMIN
 10
1.000000000000000E+20
 20
1.000000000000000E+20
 30
1.000000000000000E+20
  9
$EXTMAX
 10
-1.000000000000000E+20
 20
-1.000000000000000E+20
 30
-1.000000000000000E+20
  9
$LIMMIN
 10
0.0
 20
0.0
  9
$LIMMAX
 10
12.0
 20
9.0
  9
$ORTHOMODE
 70
     0
  9
$REGENMODE
 70
     1
  9
$FILLMODE
 70
     1
  9
$QTEXTMODE
 70
     0
  9
$MIRRTEXT
 70
     0
  9
$LTSCALE
 40
1.0
  9
$ATTMODE
 70
     1
  9
$TEXTSIZE
 40
0.2
  9
$TRACEWID
 40
0.05
  9
$TEXTSTYLE
  7
Standard
  9
$CLAYER
  8
0
  9
$CELTYPE
  6
ByLayer
  9
$CECOLOR
 62
   256
  9
$CELTSCALE
 40
1.0
  9
$DISPSILH
 70
     0
  9
$DIMSCALE
 40
1.0
  9
$DIMASZ
 40
0.18
  9
$DIMEXO
 40
0.0625
  9
$DIMDLI
 40
0.38
  9
$DIMRND
 40
0.0
  9
$DIMDLE
 40
0.0
  9
$DIMEXE
 40
0.18
  9
$DIMTP
 40
0.0
  9
$DIMTM
 40
0.0
  9
$DIMTXT
 40
0.18
  9
$DIMCEN
 40
0.09
  9
$DIMTSZ
 40
0.0
  9
$DIMTOL
 70
     0
  9
$DIMLIM
 70
     0
  9
$DIMTIH
 70
     1
  9
$DIMTOH
 70
     1
  9
$DIMSE1
 70
     0
  9
$DIMSE2
 70
     0
  9
$DIMTAD
 70
     0
  9
$DIMZIN
 70
     0
  9
$DIMBLK
  1

  9
$DIMASO
 70
     1
  9
$DIMSHO
 70
     1
  9
$DIMPOST
  1

  9
$DIMAPOST
  1

  9
$DIMALT
 70
     0
  9
$DIMALTD
 70
     2
  9
$DIMALTF
 40
25.4
  9
$DIMLFAC
 40
1.0
  9
$DIMTOFL
 70
     0
  9
$DIMTVP
 40
0.0
  9
$DIMTIX
 70
     0
  9
$DIMSOXD
 70
     0
  9
$DIMSAH
 70
     0
  9
$DIMBLK1
  1

  9
$DIMBLK2
  1

  9
$DIMSTYLE
  2
Standard
  9
$DIMCLRD
 70
     0
  9
$DIMCLRE
 70
     0
  9
$DIMCLRT
 70
     0
  9
$DIMTFAC
 40
1.0
  9
$DIMGAP
 40
0.09
  9
$DIMJUST
 70
     0
  9
$DIMSD1
 70
     0
  9
$DIMSD2
 70
     0
  9
$DIMTOLJ
 70
     1
  9
$DIMTZIN
 70
     0
  9
$DIMALTZ
 70
     0
  9
$DIMALTTZ
 70
     0
  9
$DIMUPT
 70
     0
  9
$DIMDEC
 70
     4
  9
$DIMTDEC
 70
     4
  9
$DIMALTU
 70
     2
  9
$DIMALTTD
 70
     2
  9
$DIMTXSTY
  7
Standard
  9
$DIMAUNIT
 70
     0
  9
$DIMADEC
 70
     0
  9
$DIMALTRND
 40
0.0
  9
$DIMAZIN
 70
     0
  9
$DIMDSEP
 70
    46
  9
$DIMATFIT
 70
     3
  9
$DIMFRAC
 70
     0
  9
$DIMLDRBLK
  1

  9
$DIMLUNIT
 70
     2
  9
$DIMLWD
 70
    -2
  9
$DIMLWE
 70
    -2
  9
$DIMTMOVE
 70
     0
  9
$DIMFXL
 40
1.0
  9
$DIMFXLON
 70
     0
  9
$DIMJOGANG
 40
0.7853981633974483
  9
$DIMTFILL
 70
     0
  9
$DIMTFILLCLR
 70
     0
  9
$DIMARCSYM
 70
     0
  9
$DIMLTYPE
  6

  9
$DIMLTEX1
  6

  9
$DIMLTEX2
  6

  9
$DIMTXTDIRECTION
 70
     0
  9
$LUNITS
 70
     2
  9
$LUPREC
 70
     4
  9
$SKETCHINC
 40
0.1
  9
$FILLETRAD
 40
0.0
  9
$AUNITS
 70
     0
  9
$AUPREC
 70
     0
  9
$MENU
  1
.
  9
$ELEVATION
 40
0.0
  9
$PELEVATION
 40
0.0
  9
$THICKNESS
 40
0.0
  9
$LIMCHECK
 70
     0
  9
$CHAMFERA
 40
0.0
  9
$CHAMFERB
 40
0.0
  9
$CHAMFERC
 40
0.0
  9
$CHAMFERD
 40
0.0
  9
$SKPOLY
 70
     0
  9
$TDCREATE
 40
2459569.503981481
  9
$TDUCREATE
 40
2459569.128981482
  9
$TDUPDATE
 40
2459569.503981481
  9
$TDUUPDATE
 40
2459569.128981482
  9
$TDINDWG
 40
0.0000000000
  9
$TDUSRTIMER
 40
0.0000000000
  9
$USRTIMER
 70
     1
  9
$ANGBASE
 50
0.0
  9
$ANGDIR
 70
     0
  9
$PDMODE
 70
     0
  9
$PDSIZE
 40
0.0
  9
$PLINEWID
 40
0.0
  9
$SPLFRAME
 70
     0
  9
$SPLINETYPE
 70
     6
  9
$SPLINESEGS
 70
     8
  9
$HANDSEED
  5
1C4
  9
$SURFTAB1
 70
     6
  9
$SURFTAB2
 70
     6
  9
$SURFTYPE
 70
     6
  9
$SURFU
 70
     6
  9
$SURFV
 70
     6
  9
$UCSBASE
  2

  9
$UCSNAME
  2

  9
$UCSORG
 10
0.0
 20
0.0
 30
0.0
  9
$UCSXDIR
 10
1.0
 20
0.0
 30
0.0
  9
$UCSYDIR
 10
0.0
 20
1.0
 30
0.0
  9
$UCSORTHOREF
  2

  9
$UCSORTHOVIEW
 70
     0
  9
$UCSORGTOP
 10
0.0
 20
0.0
 30
0.0
  9
$UCSORGBOTTOM
 10
0.0
 20
0.0
 30
0.0
  9
$UCSORGLEFT
 10
0.0
 20
0.0
 30
0.0
  9
$UCSORGRIGHT
 10
0.0
 20
0.0
 30
0.0
  9
$UCSORGFRONT
 10
0.0
 20
0.0
 30
0.0
  9
$UCSORGBACK
 10
0.0
 20
0.0
 30
0.0
  9
$PUCSBASE
  2

  9
$PUCSNAME
  2

  9
$PUCSORG
 10
0.0
 20
0.0
 30
0.0
  9
$PUCSXDIR
 10
1.0
 20
0.0
 30
0.0
  9
$PUCSYDIR
 10
0.0
 20
1.0
 30
0.0
  9
$PUCSORTHOREF
  2

  9
$PUCSORTHOVIEW
 70
     0
  9
$PUCSORGTOP
 10
0.0
 20
0.0
 30
0.0
  9
$PUCSORGBOTTOM
 10
0.0
 20
0.0
 30
0.0
  9
$PUCSORGLEFT
 10
0.0
 20
0.0
 30
0.0
  9
$PUCSORGRIGHT
 10
0.0
 20
0.0
 30
0.0
  9
$PUCSORGFRONT
 10
0.0
 20
0.0
 30
0.0
  9
$PUCSORGBACK
 10
0.0
 20
0.0
 30
0.0
  9
$USERI1
 70
     0
  9
$USERI2
 70
     0
  9
$USERI3
 70
     0
  9
$USERI4
 70
     0
  9
$USERI5
 70
     0
  9
$USERR1
 40
0.0
  9
$USERR2
 40
0.0
  9
$USERR3
 40
0.0
  9
$USERR4
 40
0.0
  9
$USERR5
 40
0.0
  9
$WORLDVIEW
 70
     1
  9
$SHADEDGE
 70
     3
  9
$SHADEDIF
 70
    70
  9
$TILEMODE
 70
     1
  9
$MAXACTVP
 70
    64
  9
$PINSBASE
 10
0.0
 20
0.0
 30
0.0
  9
$PLIMCHECK
 70
     0
  9
$PEXTMIN
 10
1.000000000000000E+20
 20
1.000000000000000E+20
 30
1.000000000000000E+20
  9
$PEXTMAX
 10
-1.000000000000000E+20
 20
-1.000000000000000E+20
 30
-1.000000000000000E+20
  9
$PLIMMIN
 10
0.0
 20
0.0
  9
$PLIMMAX
 10
12.0
 20
9.0
  9
$UNITMODE
 70
     0
  9
$VISRETAIN
 70
     1
  9
$PLINEGEN
 70
     0
  9
$PSLTSCALE
 70
     1
  9
$TREEDEPTH
 70
  3020
  9
$CMLSTYLE
  2
Standard
  9
$CMLJUST
 70
     0
  9
$CMLSCALE
 40
1.0
  9
$PROXYGRAPHICS
 70
     1
  9
$MEASUREMENT
 70
     0
  9
$CELWEIGHT
370
    -1
  9
$ENDCAPS
280
     0
  9
$JOINSTYLE
280
     0
  9
$LWDISPLAY
290
     1
  9
$INSUNITS
 70
     4
  9
$HYPERLINKBASE
  1

  9
$STYLESHEET
  1

  9
$XEDIT
290
     1
  9
$CEPSNTYPE
380
     0
  9
$PSTYLEMODE
290
     1
  9
$FINGERPRINTGUID
  2
{1D243824-F570-264E-8350-F6E349CD4C97}
  9
$VERSIONGUID
  2
{E7B12D01-1024-7C46-8F1D-E4B031CD377B}
  9
$EXTNAMES
290
     1
  9
$PSVPSCALE
 40
0.0
  9
$OLESTARTUP
290
     0
  9
$SORTENTS
280
   127
  9
$INDEXCTL
280
     0
  9
$HIDETEXT
280
     1
  9
$XCLIPFRAME
280
     2
  9
$HALOGAP
280
     0
  9
$OBSCOLOR
 70
   257
  9
$OBSLTYPE
280
     0
  9
$INTERSECTIONDISPLAY
280
     0
  9
$INTERSECTIONCOLOR
 70
   257
  9
$DIMASSOC
280
     2
  9
$PROJECTNAME
  1

  9
$CAMERADISPLAY
290
     0
  9
$LENSLENGTH
 40
50.0
  9
$CAMERAHEIGHT
 40
0.0
  9
$STEPSPERSEC
 40
2.0
  9
$STEPSIZE
 40
6.0
  9
$3DDWFPREC
 40
2.0
  9
$PSOLWIDTH
 40
0.25
  9
$PSOLHEIGHT
 40
4.0
  9
$LOFTANG1
 40
1.570796326794896
  9
$LOFTANG2
 40
1.570796326794896
  9
$LOFTMAG1
 40
0.0
  9
$LOFTMAG2
 40
0.0
  9
$LOFTPARAM
 70
     7
  9
$LOFTNORMALS
280
     1
  9
$LATITUDE
 40
37.795
  9
$LONGITUDE
 40
-122.394
  9
$NORTHDIRECTION
 40
0.0
  9
$TIMEZONE
 70
 -8000
  9
$LIGHTGLYPHDISPLAY
280
     1
  9
$TILEMODELIGHTSYNCH
280
     1
  9
$CMATERIAL
347
11
  9
$SOLIDHIST
280
     0
  9
$SHOWHIST
280
     1
  9
$DWFFRAME
280
     2
  9
$DGNFRAME
280
     0
  9
$REALWORLDSCALE
290
     1
  9
$INTERFERECOLOR
 62
     1
  9
$INTERFEREOBJVS
345
33
  9
$INTERFEREVPVS
346
30
  9
$CSHADOW
280
     0
  9
$SHADOWPLANELOCATION
 40
0.0
  0
ENDSEC
  0
SECTION
  2
CLASSES
  0
CLASS
  1
ACDBDICTIONARYWDFLT
  2
AcDbDictionaryWithDefault
  3
ObjectDBX Classes
 90
        0
 91
        1
280
     0
281
     0
  0
CLASS
  1
MATERIAL
  2
AcDbMaterial
  3
ObjectDBX Classes
 90
     1153
 91
        3
280
     0
281
     0
  0
CLASS
  1
VISUALSTYLE
  2
AcDbVisualStyle
  3
ObjectDBX Classes
 90
     4095
 91
       24
280
     0
281
     0
  0
CLASS
  1
SCALE
  2
AcDbScale
  3
ObjectDBX Classes
 90
     1153
 91
       17
280
     0
281
     0
  0
CLASS
  1
TABLESTYLE
  2
AcDbTableStyle
  3
ObjectDBX Classes
 90
     4095
 91
        1
280
     0
281
     0
  0
CLASS
  1
MLEADERSTYLE
  2
AcDbMLeaderStyle
  3
ACDB_MLEADERSTYLE_CLASS
 90
     4095
 91
        1
280
     0
281
     0
  0
CLASS
  1
ACDBSECTIONVIEWSTYLE
  2
AcDbSectionViewStyle
  3
ObjectDBX Classes
 90
     1025
 91
        1
280
     0
281
     0
  0
CLASS
  1
ACDBDETAILVIEWSTYLE
  2
AcDbDetailViewStyle
  3
ObjectDBX Classes
 90
     1025
 91
        1
280
     0
281
     0
  0
CLASS
  1
DICTIONARYVAR
  2
AcDbDictionaryVar
  3
ObjectDBX Classes
 90
        0
 91
        5
280
     0
281
     0
  0
CLASS
  1
CELLSTYLEMAP
  2
AcDbCellStyleMap
  3
ObjectDBX Classes
 90
     1152
 91
        1
280
     0
281
     0
  0
ENDSEC
  0
SECTION
  2
TABLES
  0
TABLE
  2
VPORT
  5
8
330
0
100
AcDbSymbolTable
 70
     1
  0
VPORT
  5
57
330
8
100
AcDbSymbolTableRecord
100
AcDbViewportTableRecord
  2
*Active
 70
     0
 10
0.0
 20
0.0
 11
1.0
 21
1.0
 12
0.0
 22
0.0
 13
0.0
 23
0.0
 14
1.0
 24
1.0
 15
0.0
 25
0.0
 16
0.0
 26
0.0
 36
1.0
 17
104.9999999737534
 27
-148.4999999628701
 37
0.0
 40
302.939999924255
 41
0.7070707070707534
 42
50.0
 43
0.0
 44
0.0
 50
0.0
 51
0.0
 71
     0
 72
   100
 73
     1
 74
     0
 75
     1
 76
     0
 77
     0
 78
     0
281
     0
 65
     1
110
0.0
120
0.0
130
0.0
111
1.0
121
0.0
131
0.0
112
0.0
122
1.0
132
0.0
 79
     0
146
0.0
 60
     3
 61
     5
292
     1
282
     1
141
0.0
142
0.0
 63
   250
421
  3355443
  0
ENDTAB
  0
TABLE
  2
LTYPE
  5
5
330
0
100
AcDbSymbolTable
 70
     2
  0
LTYPE
  5
5B
330
5
100
AcDbSymbolTableRecord
100
AcDbLinetypeTableRecord
  2
ByBlock
 70
     0
  3

 72
    65
 73
     0
 40
0.0
  0
LTYPE
  5
5C
330
5
100
AcDbSymbolTableRecord
100
AcDbLinetypeTableRecord
  2
ByLayer
 70
     0
  3

 72
    65
 73
     0
 40
0.0
  0
LTYPE
  5
5D
330
5
100
AcDbSymbolTableRecord
100
AcDbLinetypeTableRecord
  2
Continuous
 70
     0
  3
Solid line
 72
    65
 73
     0
 40
0.0
  0
LTYPE
  5
184
330
5
100
AcDbSymbolTableRecord
100
AcDbLinetypeTableRecord
  2
AI-Linetype-0
 70
     0
  3
Adobe Illustrator Linetype No. 0
 72
    65
 73
     2
 40
1.411111110758333
 49
0.7055555553791667
 74
     0
 49
-0.7055555553791667
 74
     0
  0
ENDTAB
  0
TABLE
  2
LAYER
  5
2
330
0
100
AcDbSymbolTable
 70
     2
  0
LAYER
  5
54
330
2
100
AcDbSymbolTableRecord
100
AcDbLayerTableRecord
  2
0
 70
     0
 62
     7
  6
Continuous
370
    -3
390
F
347
21
  0
LAYER
  5
78
330
2
100
AcDbSymbolTableRecord
100
AcDbLayerTableRecord
  2
レイヤー 1
 70
     0
 62
     7
  6
Continuous
370
     0
390
F
347
21
  0
ENDTAB
  0
TABLE
  2
STYLE
  5
3
330
0
100
AcDbSymbolTable
 70
     2
  0
STYLE
  5
55
330
3
100
AcDbSymbolTableRecord
100
AcDbTextStyleTableRecord
  2
Standard
 70
     0
 40
0.0
 41
1.0
 50
0.0
 71
     0
 42
0.2
  3
txt
  4

  0
STYLE
  5
5A
330
3
100
AcDbSymbolTableRecord
100
AcDbTextStyleTableRecord
  2
Annotative
 70
     0
 40
0.0
 41
1.0
 50
0.0
 71
     0
 42
0.2
  3
txt
  4

1001
AcadAnnotative
1000
AnnotativeData
1002
{
1070
     1
1070
     1
1002
}
  0
ENDTAB
  0
TABLE
  2
VIEW
  5
6
330
0
100
AcDbSymbolTable
 70
     0
  0
ENDTAB
  0
TABLE
  2
UCS
  5
7
330
0
100
AcDbSymbolTable
 70
     0
  0
ENDTAB
  0
TABLE
  2
APPID
  5
9
330
0
100
AcDbSymbolTable
 70
     2
  0
APPID
  5
56
330
9
100
AcDbSymbolTableRecord
100
AcDbRegAppTableRecord
  2
ACAD
 70
     0
  0
APPID
  5
5E
330
9
100
AcDbSymbolTableRecord
100
AcDbRegAppTableRecord
  2
AcadAnnotative
 70
     0
  0
ENDTAB
  0
TABLE
  2
DIMSTYLE
  5
A
330
0
100
AcDbSymbolTable
 70
     2
100
AcDbDimStyleTable
 71
     0
  0
DIMSTYLE
105
58
330
A
100
AcDbSymbolTableRecord
100
AcDbDimStyleTableRecord
  2
Standard
 70
     0
340
55
  0
DIMSTYLE
105
59
330
A
100
AcDbSymbolTableRecord
100
AcDbDimStyleTableRecord
  2
Annotative
 70
     0
340
55
1001
AcadAnnotative
1000
AnnotativeData
1002
{
1070
     1
1070
     1
1002
}
  0
ENDTAB
  0
TABLE
  2
BLOCK_RECORD
  5
1
330
0
100
AcDbSymbolTable
 70
    18
  0
BLOCK_RECORD
  5
70
330
1
100
AcDbSymbolTableRecord
100
AcDbBlockTableRecord
  2
*Model_Space
340
73
 70
     0
280
     1
281
     0
  0
BLOCK_RECORD
  5
6C
330
1
100
AcDbSymbolTableRecord
100
AcDbBlockTableRecord
  2
*Paper_Space
340
6F
 70
     0
280
     1
281
     0
  0
BLOCK_RECORD
  5
74
330
1
100
AcDbSymbolTableRecord
100
AcDbBlockTableRecord
  2
*Paper_Space0
340
77
 70
     0
280
     1
281
     0
  0
BLOCK_RECORD
  5
E0
330
1
100
AcDbSymbolTableRecord
100
AcDbBlockTableRecord
  2
Block_0
340
0
102
{BLKREFS
331
E1
102
}
 70
     0
280
     1
281
     0
  0
BLOCK_RECORD
  5
E4
330
1
100
AcDbSymbolTableRecord
100
AcDbBlockTableRecord
  2
Block_1
340
0
102
{BLKREFS
331
E5
102
}
 70
     0
280
     1
281
     0
  0
BLOCK_RECORD
  5
F1
330
1
100
AcDbSymbolTableRecord
100
AcDbBlockTableRecord
  2
Block_2
340
0
102
{BLKREFS
331
F2
102
}
 70
     0
280
     1
281
     0
  0
BLOCK_RECORD
  5
F5
330
1
100
AcDbSymbolTableRecord
100
AcDbBlockTableRecord
  2
Block_3
340
0
102
{BLKREFS
331
F6
102
}
 70
     0
280
     1
281
     0
  0
BLOCK_RECORD
  5
FF
330
1
100
AcDbSymbolTableRecord
100
AcDbBlockTableRecord
  2
Block_4
340
0
102
{BLKREFS
331
100
102
}
 70
     0
280
     1
281
     0
  0
BLOCK_RECORD
  5
108
330
1
100
AcDbSymbolTableRecord
100
AcDbBlockTableRecord
  2
Block_5
340
0
102
{BLKREFS
331
109
102
}
 70
     0
280
     1
281
     0
  0
BLOCK_RECORD
  5
10C
330
1
100
AcDbSymbolTableRecord
100
AcDbBlockTableRecord
  2
Block_6
340
0
102
{BLKREFS
331
10D
102
}
 70
     0
280
     1
281
     0
  0
BLOCK_RECORD
  5
117
330
1
100
AcDbSymbolTableRecord
100
AcDbBlockTableRecord
  2
Block_7
340
0
102
{BLKREFS
331
118
102
}
 70
     0
280
     1
281
     0
  0
BLOCK_RECORD
  5
11B
330
1
100
AcDbSymbolTableRecord
100
AcDbBlockTableRecord
  2
Block_8
340
0
102
{BLKREFS
331
11C
102
}
 70
     0
280
     1
281
     0
  0
BLOCK_RECORD
  5
129
330
1
100
AcDbSymbolTableRecord
100
AcDbBlockTableRecord
  2
Block_9
340
0
102
{BLKREFS
331
12A
102
}
 70
     0
280
     1
281
     0
  0
BLOCK_RECORD
  5
12D
330
1
100
AcDbSymbolTableRecord
100
AcDbBlockTableRecord
  2
Block_10
340
0
102
{BLKREFS
331
12E
102
}
 70
     0
280
     1
281
     0
  0
BLOCK_RECORD
  5
136
330
1
100
AcDbSymbolTableRecord
100
AcDbBlockTableRecord
  2
Block_11
340
0
102
{BLKREFS
331
137
102
}
 70
     0
280
     1
281
     0
  0
BLOCK_RECORD
  5
13C
330
1
100
AcDbSymbolTableRecord
100
AcDbBlockTableRecord
  2
Block_12
340
0
102
{BLKREFS
331
13D
102
}
 70
     0
280
     1
281
     0
  0
BLOCK_RECORD
  5
143
330
1
100
AcDbSymbolTableRecord
100
AcDbBlockTableRecord
  2
Block_13
340
0
102
{BLKREFS
331
144
102
}
 70
     0
280
     1
281
     0
  0
BLOCK_RECORD
  5
147
330
1
100
AcDbSymbolTableRecord
100
AcDbBlockTableRecord
  2
Block_14
340
0
102
{BLKREFS
331
148
102
}
 70
     0
280
     1
281
     0
  0
BLOCK_RECORD
  5
15C
330
1
100
AcDbSymbolTableRecord
100
AcDbBlockTableRecord
  2
Block_15
340
0
102
{BLKREFS
331
15D
102
}
 70
     0
280
     1
281
     0
  0
BLOCK_RECORD
  5
160
330
1
100
AcDbSymbolTableRecord
100
AcDbBlockTableRecord
  2
Block_16
340
0
102
{BLKREFS
331
161
102
}
 70
     0
280
     1
281
     0
  0
ENDTAB
  0
ENDSEC
  0
SECTION
  2
BLOCKS
  0
BLOCK
  5
71
330
70
100
AcDbEntity
  8
0
100
AcDbBlockBegin
  2
*Model_Space
 70
     0
 10
0.0
 20
0.0
 30
0.0
  3
*Model_Space
  1

  0
ENDBLK
  5
72
330
70
100
AcDbEntity
  8
0
100
AcDbBlockEnd
  0
BLOCK
  5
6D
330
6C
100
AcDbEntity
 67
     1
  8
0
100
AcDbBlockBegin
  2
*Paper_Space
 70
     0
 10
0.0
 20
0.0
 30
0.0
  3
*Paper_Space
  1

  0
ENDBLK
  5
6E
330
6C
100
AcDbEntity
 67
     1
  8
0
100
AcDbBlockEnd
  0
BLOCK
  5
75
330
74
100
AcDbEntity
 67
     1
  8
0
100
AcDbBlockBegin
  2
*Paper_Space0
 70
     0
 10
0.0
 20
0.0
 30
0.0
  3
*Paper_Space0
  1

  0
ENDBLK
  5
76
330
74
100
AcDbEntity
 67
     1
  8
0
100
AcDbBlockEnd
  0
BLOCK
  5
E2
330
E0
100
AcDbEntity
  8
0
100
AcDbBlockBegin
  2
Block_0
 70
     0
 10
0.0
 20
0.0
 30
0.0
  3
Block_0
  1

  0
INSERT
  5
E5
330
E0
100
AcDbEntity
  8
レイヤー 1
100
AcDbBlockReference
  2
Block_1
 10
0.0
 20
0.0
 30
0.0
  0
ENDBLK
  5
E3
330
E0
100
AcDbEntity
  8
0
100
AcDbBlockEnd
  0
BLOCK
  5
E6
330
E4
100
AcDbEntity
  8
0
100
AcDbBlockBegin
  2
Block_1
 70
     0
 10
0.0
 20
0.0
 30
0.0
  3
Block_1
  1

  0
SPLINE
  5
E8
330
E4
100
AcDbEntity
  8
レイヤー 1
100
AcDbSpline
210
0.0
220
0.0
230
1.0
 70
     9
 71
     3
 72
    17
 73
    13
 74
     0
 42
0.0000000001
 43
0.0000000001
 40
0.0
 40
0.0
 40
0.0
 40
0.0
 40
1.0
 40
1.0
 40
1.0
 40
2.0
 40
2.0
 40
2.0
 40
3.0
 40
3.0
 40
3.0
 40
4.0
 40
4.0
 40
4.0
 40
4.0
 10
75.74421384825145
 20
-147.812338558967
 30
0.0
 10
75.74421384825145
 20
-148.0621079816476
 30
0.0
 10
76.02757295191324
 20
-148.1086167706985
 30
0.0
 10
76.37242700998675
 20
-148.1086167706985
 30
0.0
 10
76.69195961624367
 20
-148.1086167706985
 30
0.0
 10
77.00081242649632
 20
-148.0724432681034
 30
0.0
 10
77.00081242649632
 20
-147.812338558967
 30
0.0
 10
77.00081242649632
 20
-147.5646361935776
 30
0.0
 10
76.71934812535141
 20
-147.5160603472355
 30
0.0
 10
76.37242700998675
 20
-147.5160603472355
 30
0.0
 10
76.0530666585041
 20
-147.5160603472355
 30
0.0
 10
75.74421384825145
 20
-147.5543009071218
 30
0.0
 10
75.74421384825145
 20
-147.812338558967
 30
0.0
  0
SPLINE
  5
E9
330
E4
100
AcDbEntity
  8
レイヤー 1
100
AcDbSpline
210
0.0
220
0.0
230
1.0
 70
     9
 71
     3
 72
    29
 73
    25
 74
     0
 42
0.0000000001
 43
0.0000000001
 40
0.0
 40
0.0
 40
0.0
 40
0.0
 40
1.0
 40
1.0
 40
1.0
 40
2.0
 40
2.0
 40
2.0
 40
3.0
 40
3.0
 40
3.0
 40
4.0
 40
4.0
 40
4.0
 40
5.0
 40
5.0
 40
5.0
 40
6.0
 40
6.0
 40
6.0
 40
7.0
 40
7.0
 40
7.0
 40
8.0
 40
8.0
 40
8.0
 40
8.0
 10
76.96687823596661
 20
-147.4144300304207
 30
0.0
 10
77.17634004146981
 20
-147.5226060286575
 30
0.0
 10
77.19546032141294
 20
-147.6958943315656
 30
0.0
 10
77.19546032141294
 20
-147.812338558967
 30
0.0
 10
77.19546032141294
 20
-147.9732245181282
 30
0.0
 10
77.14895153236208
 20
-148.114817942572
 30
0.0
 10
76.96687823596661
 20
-148.2099025779649
 30
0.0
 10
76.77240259582426
 20
-148.3135999520709
 30
0.0
 10
76.53538002643907
 20
-148.3328924867883
 30
0.0
 10
76.37242700998675
 20
-148.3328924867883
 30
0.0
 10
76.22859427347759
 20
-148.3328924867883
 30
0.0
 10
75.97693004828008
 20
-148.315667009362
 30
0.0
 10
75.7779757840069
 20
-148.2099025779649
 30
0.0
 10
75.57488740515141
 20
-148.1020710892765
 30
0.0
 10
75.55163301062598
 20
-147.9411851301154
 30
0.0
 10
75.55163301062598
 20
-147.812338558967
 30
0.0
 10
75.55163301062598
 20
-147.653519657097
 30
0.0
 10
75.59607474238571
 20
-147.5098591753621
 30
0.0
 10
75.7779757840069
 20
-147.4144300304207
 30
0.0
 10
75.97055662163237
 20
-147.3152112804455
 30
0.0
 10
76.19896645230443
 20
-147.2917846311458
 30
0.0
 10
76.37242700998675
 20
-147.2917846311458
 30
0.0
 10
76.54382051037794
 20
-147.2917846311458
 30
0.0
 10
76.77446965311542
 20
-147.3131442231543
 30
0.0
 10
76.96687823596661
 20
-147.4144300304207
 30
0.0
  0
HATCH
  5
EA
330
E4
100
AcDbEntity
  8
レイヤー 1
 62
    18
420
        0
440
 33554687
100
AcDbHatch
 10
0.0
 20
0.0
 30
0.0
210
0.0
220
0.0
230
1.0
  2
SOLID
 70
     1
 71
     1
 91
        2
 92
        1
 93
        1
 72
     4
 94
        3
 73
     0
 74
     0
 95
       17
 96
       13
 40
0.0
 40
0.0
 40
0.0
 40
0.0
 40
1.0
 40
1.0
 40
1.0
 40
2.0
 40
2.0
 40
2.0
 40
3.0
 40
3.0
 40
3.0
 40
4.0
 40
4.0
 40
4.0
 40
4.0
 10
75.74421384825145
 20
-147.812338558967
 10
75.74421384825145
 20
-148.0621079816476
 10
76.02757295191324
 20
-148.1086167706985
 10
76.37242700998675
 20
-148.1086167706985
 10
76.69195961624367
 20
-148.1086167706985
 10
77.00081242649632
 20
-148.0724432681034
 10
77.00081242649632
 20
-147.812338558967
 10
77.00081242649632
 20
-147.5646361935776
 10
76.71934812535141
 20
-147.5160603472355
 10
76.37242700998675
 20
-147.5160603472355
 10
76.0530666585041
 20
-147.5160603472355
 10
75.74421384825145
 20
-147.5543009071218
 10
75.74421384825145
 20
-147.812338558967
 97
        0
 97
        1
330
E8
 92
        1
 93
        1
 72
     4
 94
        3
 73
     0
 74
     0
 95
       29
 96
       25
 40
0.0
 40
0.0
 40
0.0
 40
0.0
 40
1.0
 40
1.0
 40
1.0
 40
2.0
 40
2.0
 40
2.0
 40
3.0
 40
3.0
 40
3.0
 40
4.0
 40
4.0
 40
4.0
 40
5.0
 40
5.0
 40
5.0
 40
6.0
 40
6.0
 40
6.0
 40
7.0
 40
7.0
 40
7.0
 40
8.0
 40
8.0
 40
8.0
 40
8.0
 10
76.96687823596661
 20
-147.4144300304207
 10
77.17634004146981
 20
-147.5226060286575
 10
77.19546032141294
 20
-147.6958943315656
 10
77.19546032141294
 20
-147.812338558967
 10
77.19546032141294
 20
-147.9732245181282
 10
77.14895153236208
 20
-148.114817942572
 10
76.96687823596661
 20
-148.2099025779649
 10
76.77240259582426
 20
-148.3135999520709
 10
76.53538002643907
 20
-148.3328924867883
 10
76.37242700998675
 20
-148.3328924867883
 10
76.22859427347759
 20
-148.3328924867883
 10
75.97693004828008
 20
-148.315667009362
 10
75.7779757840069
 20
-148.2099025779649
 10
75.57488740515141
 20
-148.1020710892765
 10
75.55163301062598
 20
-147.9411851301154
 10
75.55163301062598
 20
-147.812338558967
 10
75.55163301062598
 20
-147.653519657097
 10
75.59607474238571
 20
-147.5098591753621
 10
75.7779757840069
 20
-147.4144300304207
 10
75.97055662163237
 20
-147.3152112804455
 10
76.19896645230443
 20
-147.2917846311458
 10
76.37242700998675
 20
-147.2917846311458
 10
76.54382051037794
 20
-147.2917846311458
 10
76.77446965311542
 20
-147.3131442231543
 10
76.96687823596661
 20
-147.4144300304207
 97
        0
 97
        1
330
E9
 75
     2
 76
     1
 98
        1
 10
0.0
 20
0.0
450
        0
451
        0
460
0.0
461
0.0
452
        0
462
0.0
453
        0
470

  0
SPLINE
  5
EB
330
E4
100
AcDbEntity
  8
レイヤー 1
100
AcDbSpline
210
0.0
220
0.0
230
1.0
 70
    11
 71
     3
 72
    17
 73
    13
 74
     0
 42
0.0000000001
 43
0.0000000001
 40
0.0
 40
0.0
 40
0.0
 40
0.0
 40
1.0
 40
1.0
 40
1.0
 40
2.0
 40
2.0
 40
2.0
 40
3.0
 40
3.0
 40
3.0
 40
4.0
 40
4.0
 40
4.0
 40
4.0
 10
77.14464516300551
 20
-147.0754326346721
 30
0.0
 10
77.14464516300551
 20
-147.0754326346721
 30
0.0
 10
76.892980937808
 20
-147.0754326346721
 30
0.0
 10
76.892980937808
 20
-147.0754326346721
 30
0.0
 10
76.892980937808
 20
-147.0754326346721
 30
0.0
 10
76.892980937808
 20
-146.8235961547003
 30
0.0
 10
76.892980937808
 20
-146.8235961547003
 30
0.0
 10
76.892980937808
 20
-146.8235961547003
 30
0.0
 10
77.14464516300551
 20
-146.8235961547003
 30
0.0
 10
77.14464516300551
 20
-146.8235961547003
 30
0.0
 10
77.14464516300551
 20
-146.8235961547003
 30
0.0
 10
77.14464516300551
 20
-147.0754326346721
 30
0.0
 10
77.14464516300551
 20
-147.0754326346721
 30
0.0
  0
HATCH
  5
EC
330
E4
100
AcDbEntity
  8
レイヤー 1
 62
    18
420
        0
440
 33554687
100
AcDbHatch
 10
0.0
 20
0.0
 30
0.0
210
0.0
220
0.0
230
1.0
  2
SOLID
 70
     1
 71
     1
 91
        1
 92
        1
 93
        1
 72
     4
 94
        3
 73
     0
 74
     0
 95
       17
 96
       13
 40
0.0
 40
0.0
 40
0.0
 40
0.0
 40
1.0
 40
1.0
 40
1.0
 40
2.0
 40
2.0
 40
2.0
 40
3.0
 40
3.0
 40
3.0
 40
4.0
 40
4.0
 40
4.0
 40
4.0
 10
77.14464516300551
 20
-147.0754326346721
 10
77.14464516300551
 20
-147.0754326346721
 10
76.892980937808
 20
-147.0754326346721
 10
76.892980937808
 20
-147.0754326346721
 10
76.892980937808
 20
-147.0754326346721
 10
76.892980937808
 20
-146.8235961547003
 10
76.892980937808
 20
-146.8235961547003
 10
76.892980937808
 20
-146.8235961547003
 10
77.14464516300551
 20
-146.8235961547003
 10
77.14464516300551
 20
-146.8235961547003
 10
77.14464516300551
 20
-146.8235961547003
 10
77.14464516300551
 20
-147.0754326346721
 10
77.14464516300551
 20
-147.0754326346721
 97
        0
 97
        1
330
EB
 75
     2
 76
     1
 98
        1
 10
0.0
 20
0.0
450
        0
451
        0
460
0.0
461
0.0
452
        0
462
0.0
453
        0
470

  0
SPLINE
  5
ED
330
E4
100
AcDbEntity
  8
レイヤー 1
100
AcDbSpline
210
0.0
220
0.0
230
1.0
 70
     9
 71
     3
 72
    53
 73
    49
 74
     0
 42
0.0000000001
 43
0.0000000001
 40
0.0
 40
0.0
 40
0.0
 40
0.0
 40
1.0
 40
1.0
 40
1.0
 40
2.0
 40
2.0
 40
2.0
 40
3.0
 40
3.0
 40
3.0
 40
4.0
 40
4.0
 40
4.0
 40
5.0
 40
5.0
 40
5.0
 40
6.0
 40
6.0
 40
6.0
 40
7.0
 40
7.0
 40
7.0
 40
8.0
 40
8.0
 40
8.0
 40
9.0
 40
9.0
 40
9.0
 40
10.0
 40
10.0
 40
10.0
 40
11.0
 40
11.0
 40
11.0
 40
12.0
 40
12.0
 40
12.0
 40
13.0
 40
13.0
 40
13.0
 40
14.0
 40
14.0
 40
14.0
 40
15.0
 40
15.0
 40
15.0
 40
16.0
 40
16.0
 40
16.0
 40
16.0
 10
77.19546032141294
 20
-146.1063272746713
 30
0.0
 10
77.19546032141294
 20
-146.1845309421865
 30
0.0
 10
77.17857935353521
 20
-146.2861612590014
 30
0.0
 10
77.11501734183236
 20
-146.3877915758162
 30
0.0
 10
77.00494654107862
 20
-146.5610798787243
 30
0.0
 10
76.87386065786487
 20
-146.5824394707329
 30
0.0
 10
76.76602916917655
 20
-146.6013874959017
 30
0.0
 10
76.76602916917655
 20
-146.6013874959017
 30
0.0
 10
76.76602916917655
 20
-146.3791788371031
 30
0.0
 10
76.76602916917655
 20
-146.3791788371031
 30
0.0
 10
76.96481117867546
 20
-146.3244018188876
 30
0.0
 10
76.99443899984861
 20
-146.1972777954819
 30
0.0
 10
76.99443899984861
 20
-146.1042602173802
 30
0.0
 10
76.99443899984861
 20
-145.9647338502275
 30
0.0
 10
76.89504799509916
 20
-145.8124606297795
 30
0.0
 10
76.66233179507052
 20
-145.8124606297795
 30
0.0
 10
76.40636120051647
 20
-145.8124606297795
 30
0.0
 10
76.33659801694015
 20
-145.9922946141095
 30
0.0
 10
76.33659801694015
 20
-146.1128729560933
 30
0.0
 10
76.33659801694015
 20
-146.1445678345576
 30
0.0
 10
76.33659801694015
 20
-146.2861612590014
 30
0.0
 10
76.46561684286277
 20
-146.3750447225208
 30
0.0
 10
76.46561684286277
 20
-146.3750447225208
 30
0.0
 10
76.44649656291964
 20
-146.5507445922685
 30
0.0
 10
76.44649656291964
 20
-146.5507445922685
 30
0.0
 10
76.44649656291964
 20
-146.5507445922685
 30
0.0
 10
75.60038111174226
 20
-146.4301662502848
 30
0.0
 10
75.60038111174226
 20
-146.4301662502848
 30
0.0
 10
75.60038111174226
 20
-146.4301662502848
 30
0.0
 10
75.60038111174226
 20
-145.6515746706184
 30
0.0
 10
75.60038111174226
 20
-145.6515746706184
 30
0.0
 10
75.60038111174226
 20
-145.6515746706184
 30
0.0
 10
75.79502900665888
 20
-145.6515746706184
 30
0.0
 10
75.79502900665888
 20
-145.6515746706184
 30
0.0
 10
75.79502900665888
 20
-145.6515746706184
 30
0.0
 10
75.79502900665888
 20
-146.2672132338325
 30
0.0
 10
75.79502900665888
 20
-146.2672132338325
 30
0.0
 10
75.79502900665888
 20
-146.2672132338325
 30
0.0
 10
76.21808673224757
 20
-146.3326700480522
 30
0.0
 10
76.21808673224757
 20
-146.3326700480522
 30
0.0
 10
76.18415254171785
 20
-146.2713473484148
 30
0.0
 10
76.14401717931468
 20
-146.1890095663173
 30
0.0
 10
76.14401717931468
 20
-146.0704982816247
 30
0.0
 10
76.14401717931468
 20
-145.8165947443618
 30
0.0
 10
76.33022459029245
 20
-145.5795721749766
 30
0.0
 10
76.64321151512739
 20
-145.5795721749766
 30
0.0
 10
76.96067706409316
 20
-145.5795721749766
 30
0.0
 10
77.19546032141294
 20
-145.8038478910664
 30
0.0
 10
77.19546032141294
 20
-146.1063272746713
 30
0.0
  0
HATCH
  5
EE
330
E4
100
AcDbEntity
  8
レイヤー 1
 62
    18
420
        0
440
 33554687
100
AcDbHatch
 10
0.0
 20
0.0
 30
0.0
210
0.0
220
0.0
230
1.0
  2
SOLID
 70
     1
 71
     1
 91
        1
 92
        1
 93
        1
 72
     4
 94
        3
 73
     0
 74
     0
 95
       53
 96
       49
 40
0.0
 40
0.0
 40
0.0
 40
0.0
 40
1.0
 40
1.0
 40
1.0
 40
2.0
 40
2.0
 40
2.0
 40
3.0
 40
3.0
 40
3.0
 40
4.0
 40
4.0
 40
4.0
 40
5.0
 40
5.0
 40
5.0
 40
6.0
 40
6.0
 40
6.0
 40
7.0
 40
7.0
 40
7.0
 40
8.0
 40
8.0
 40
8.0
 40
9.0
 40
9.0
 40
9.0
 40
10.0
 40
10.0
 40
10.0
 40
11.0
 40
11.0
 40
11.0
 40
12.0
 40
12.0
 40
12.0
 40
13.0
 40
13.0
 40
13.0
 40
14.0
 40
14.0
 40
14.0
 40
15.0
 40
15.0
 40
15.0
 40
16.0
 40
16.0
 40
16.0
 40
16.0
 10
77.19546032141294
 20
-146.1063272746713
 10
77.19546032141294
 20
-146.1845309421865
 10
77.17857935353521
 20
-146.2861612590014
 10
77.11501734183236
 20
-146.3877915758162
 10
77.00494654107862
 20
-146.5610798787243
 10
76.87386065786487
 20
-146.5824394707329
 10
76.76602916917655
 20
-146.6013874959017
 10
76.76602916917655
 20
-146.6013874959017
 10
76.76602916917655
 20
-146.3791788371031
 10
76.76602916917655
 20
-146.3791788371031
 10
76.96481117867546
 20
-146.3244018188876
 10
76.99443899984861
 20
-146.1972777954819
 10
76.99443899984861
 20
-146.1042602173802
 10
76.99443899984861
 20
-145.9647338502275
 10
76.89504799509916
 20
-145.8124606297795
 10
76.66233179507052
 20
-145.8124606297795
 10
76.40636120051647
 20
-145.8124606297795
 10
76.33659801694015
 20
-145.9922946141095
 10
76.33659801694015
 20
-146.1128729560933
 10
76.33659801694015
 20
-146.1445678345576
 10
76.33659801694015
 20
-146.2861612590014
 10
76.46561684286277
 20
-146.3750447225208
 10
76.46561684286277
 20
-146.3750447225208
 10
76.44649656291964
 20
-146.5507445922685
 10
76.44649656291964
 20
-146.5507445922685
 10
76.44649656291964
 20
-146.5507445922685
 10
75.60038111174226
 20
-146.4301662502848
 10
75.60038111174226
 20
-146.4301662502848
 10
75.60038111174226
 20
-146.4301662502848
 10
75.60038111174226
 20
-145.6515746706184
 10
75.60038111174226
 20
-145.6515746706184
 10
75.60038111174226
 20
-145.6515746706184
 10
75.79502900665888
 20
-145.6515746706184
 10
75.79502900665888
 20
-145.6515746706184
 10
75.79502900665888
 20
-145.6515746706184
 10
75.79502900665888
 20
-146.2672132338325
 10
75.79502900665888
 20
-146.2672132338325
 10
75.79502900665888
 20
-146.2672132338325
 10
76.21808673224757
 20
-146.3326700480522
 10
76.21808673224757
 20
-146.3326700480522
 10
76.18415254171785
 20
-146.2713473484148
 10
76.14401717931468
 20
-146.1890095663173
 10
76.14401717931468
 20
-146.0704982816247
 10
76.14401717931468
 20
-145.8165947443618
 10
76.33022459029245
 20
-145.5795721749766
 10
76.64321151512739
 20
-145.5795721749766
 10
76.96067706409316
 20
-145.5795721749766
 10
77.19546032141294
 20
-145.8038478910664
 10
77.19546032141294
 20
-146.1063272746713
 97
        0
 97
        1
330
ED
 75
     2
 76
     1
 98
        1
 10
0.0
 20
0.0
450
        0
451
        0
460
0.0
461
0.0
452
        0
462
0.0
453
        0
470

  0
ENDBLK
  5
E7
330
E4
100
AcDbEntity
  8
0
100
AcDbBlockEnd
  0
BLOCK
  5
F3
330
F1
100
AcDbEntity
  8
0
100
AcDbBlockBegin
  2
Block_2
 70
     0
 10
0.0
 20
0.0
 30
0.0
  3
Block_2
  1

  0
INSERT
  5
F6
330
F1
100
AcDbEntity
  8
レイヤー 1
100
AcDbBlockReference
  2
Block_3
 10
0.0
 20
0.0
 30
0.0
  0
ENDBLK
  5
F4
330
F1
100
AcDbEntity
  8
0
100
AcDbBlockEnd
  0
BLOCK
  5
F7
330
F5
100
AcDbEntity
  8
0
100
AcDbBlockBegin
  2
Block_3
 70
     0
 10
0.0
 20
0.0
 30
0.0
  3
Block_3
  1

  0
SPLINE
  5
F9
330
F5
100
AcDbEntity
  8
レイヤー 1
100
AcDbSpline
210
0.0
220
0.0
230
1.0
 70
     9
 71
     3
 72
    44
 73
    40
 74
     0
 42
0.0000000001
 43
0.0000000001
 40
0.0
 40
0.0
 40
0.0
 40
0.0
 40
1.0
 40
1.0
 40
1.0
 40
2.0
 40
2.0
 40
2.0
 40
3.0
 40
3.0
 40
3.0
 40
4.0
 40
4.0
 40
4.0
 40
5.0
 40
5.0
 40
5.0
 40
6.0
 40
6.0
 40
6.0
 40
7.0
 40
7.0
 40
7.0
 40
8.0
 40
8.0
 40
8.0
 40
9.0
 40
9.0
 40
9.0
 40
10.0
 40
10.0
 40
10.0
 40
11.0
 40
11.0
 40
11.0
 40
12.0
 40
12.0
 40
12.0
 40
13.0
 40
13.0
 40
13.0
 40
13.0
 10
92.51786700161012
 20
-140.6000311605965
 30
0.0
 10
92.29996471216805
 20
-140.7586778076923
 30
0.0
 10
92.20677487929206
 20
-140.8327473606251
 30
0.0
 10
92.15819903295004
 20
-140.9765800971343
 30
0.0
 10
92.15819903295004
 20
-140.9765800971343
 30
0.0
 10
92.93661835784224
 20
-140.9765800971343
 30
0.0
 10
92.93661835784224
 20
-140.9765800971343
 30
0.0
 10
92.93661835784224
 20
-140.9765800971343
 30
0.0
 10
92.93661835784224
 20
-141.1817355332809
 30
0.0
 10
92.93661835784224
 20
-141.1817355332809
 30
0.0
 10
92.93661835784224
 20
-141.1817355332809
 30
0.0
 10
91.90860186504369
 20
-141.1817355332809
 30
0.0
 10
91.90860186504369
 20
-141.1817355332809
 30
0.0
 10
91.94029674350799
 20
-140.824134621912
 30
0.0
 10
92.00575355772773
 20
-140.7459309543968
 30
0.0
 10
92.39091523297867
 20
-140.4475856853742
 30
0.0
 10
92.64688582753272
 20
-140.2488036758753
 30
0.0
 10
92.71234264175246
 20
-140.1811075495901
 30
0.0
 10
92.71234264175246
 20
-140.0436482397287
 30
0.0
 10
92.71234264175246
 20
-139.9251369550361
 30
0.0
 10
92.64051240088502
 20
-139.793878817048
 30
0.0
 10
92.44379744867725
 20
-139.793878817048
 30
0.0
 10
92.18352048476662
 20
-139.793878817048
 30
0.0
 10
92.17508000082776
 20
-140.0245279597855
 30
0.0
 10
92.17077363147121
 20
-140.1409721871869
 30
0.0
 10
92.17077363147121
 20
-140.1409721871869
 30
0.0
 10
91.9466701701557
 20
-140.1409721871869
 30
0.0
 10
91.9466701701557
 20
-140.1409721871869
 30
0.0
 10
91.95511065409455
 20
-140.0140204185555
 30
0.0
 10
91.96561819532456
 20
-139.9018825605106
 30
0.0
 10
92.04606117490516
 20
-139.783371275818
 30
0.0
 10
92.15595972088463
 20
-139.6226575714311
 30
0.0
 10
92.34216713186238
 20
-139.5887233809014
 30
0.0
 10
92.45861135926382
 20
-139.5887233809014
 30
0.0
 10
92.73576929105217
 20
-139.5887233809014
 30
0.0
 10
92.94299178448994
 20
-139.772863734588
 30
0.0
 10
92.94299178448994
 20
-140.0457152970198
 30
0.0
 10
92.94299178448994
 20
-140.2741251276919
 30
0.0
 10
92.82671981186277
 20
-140.3736883872156
 30
0.0
 10
92.51786700161012
 20
-140.6000311605965
 30
0.0
  0
HATCH
  5
FA
330
F5
100
AcDbEntity
  8
レイヤー 1
 62
    18
420
        0
440
 33554687
100
AcDbHatch
 10
0.0
 20
0.0
 30
0.0
210
0.0
220
0.0
230
1.0
  2
SOLID
 70
     1
 71
     1
 91
        1
 92
        1
 93
        1
 72
     4
 94
        3
 73
     0
 74
     0
 95
       44
 96
       40
 40
0.0
 40
0.0
 40
0.0
 40
0.0
 40
1.0
 40
1.0
 40
1.0
 40
2.0
 40
2.0
 40
2.0
 40
3.0
 40
3.0
 40
3.0
 40
4.0
 40
4.0
 40
4.0
 40
5.0
 40
5.0
 40
5.0
 40
6.0
 40
6.0
 40
6.0
 40
7.0
 40
7.0
 40
7.0
 40
8.0
 40
8.0
 40
8.0
 40
9.0
 40
9.0
 40
9.0
 40
10.0
 40
10.0
 40
10.0
 40
11.0
 40
11.0
 40
11.0
 40
12.0
 40
12.0
 40
12.0
 40
13.0
 40
13.0
 40
13.0
 40
13.0
 10
92.51786700161012
 20
-140.6000311605965
 10
92.29996471216805
 20
-140.7586778076923
 10
92.20677487929206
 20
-140.8327473606251
 10
92.15819903295004
 20
-140.9765800971343
 10
92.15819903295004
 20
-140.9765800971343
 10
92.93661835784224
 20
-140.9765800971343
 10
92.93661835784224
 20
-140.9765800971343
 10
92.93661835784224
 20
-140.9765800971343
 10
92.93661835784224
 20
-141.1817355332809
 10
92.93661835784224
 20
-141.1817355332809
 10
92.93661835784224
 20
-141.1817355332809
 10
91.90860186504369
 20
-141.1817355332809
 10
91.90860186504369
 20
-141.1817355332809
 10
91.94029674350799
 20
-140.824134621912
 10
92.00575355772773
 20
-140.7459309543968
 10
92.39091523297867
 20
-140.4475856853742
 10
92.64688582753272
 20
-140.2488036758753
 10
92.71234264175246
 20
-140.1811075495901
 10
92.71234264175246
 20
-140.0436482397287
 10
92.71234264175246
 20
-139.9251369550361
 10
92.64051240088502
 20
-139.793878817048
 10
92.44379744867725
 20
-139.793878817048
 10
92.18352048476662
 20
-139.793878817048
 10
92.17508000082776
 20
-140.0245279597855
 10
92.17077363147121
 20
-140.1409721871869
 10
92.17077363147121
 20
-140.1409721871869
 10
91.9466701701557
 20
-140.1409721871869
 10
91.9466701701557
 20
-140.1409721871869
 10
91.95511065409455
 20
-140.0140204185555
 10
91.96561819532456
 20
-139.9018825605106
 10
92.04606117490516
 20
-139.783371275818
 10
92.15595972088463
 20
-139.6226575714311
 10
92.34216713186238
 20
-139.5887233809014
 10
92.45861135926382
 20
-139.5887233809014
 10
92.73576929105217
 20
-139.5887233809014
 10
92.94299178448994
 20
-139.772863734588
 10
92.94299178448994
 20
-140.0457152970198
 10
92.94299178448994
 20
-140.2741251276919
 10
92.82671981186277
 20
-140.3736883872156
 10
92.51786700161012
 20
-140.6000311605965
 97
        0
 97
        1
330
F9
 75
     2
 76
     1
 98
        1
 10
0.0
 20
0.0
450
        0
451
        0
460
0.0
461
0.0
452
        0
462
0.0
453
        0
470

  0
SPLINE
  5
FB
330
F5
100
AcDbEntity
  8
レイヤー 1
100
AcDbSpline
210
0.0
220
0.0
230
1.0
 70
    11
 71
     3
 72
    26
 73
    22
 74
     0
 42
0.0000000001
 43
0.0000000001
 40
0.0
 40
0.0
 40
0.0
 40
0.0
 40
1.0
 40
1.0
 40
1.0
 40
2.0
 40
2.0
 40
2.0
 40
3.0
 40
3.0
 40
3.0
 40
4.0
 40
4.0
 40
4.0
 40
5.0
 40
5.0
 40
5.0
 40
6.0
 40
6.0
 40
6.0
 40
7.0
 40
7.0
 40
7.0
 40
7.0
 10
93.55294594015344
 20
-141.1817355332809
 30
0.0
 10
93.55294594015344
 20
-141.1817355332809
 30
0.0
 10
93.55294594015344
 20
-140.0774101754841
 30
0.0
 10
93.55294594015344
 20
-140.0774101754841
 30
0.0
 10
93.55294594015344
 20
-140.0774101754841
 30
0.0
 10
93.22290579266649
 20
-140.0774101754841
 30
0.0
 10
93.22290579266649
 20
-140.0774101754841
 30
0.0
 10
93.22290579266649
 20
-140.0774101754841
 30
0.0
 10
93.22290579266649
 20
-139.9292710696184
 30
0.0
 10
93.22290579266649
 20
-139.9292710696184
 30
0.0
 10
93.55501299744458
 20
-139.9146294138061
 30
0.0
 10
93.60152178649546
 20
-139.7516763973537
 30
0.0
 10
93.63114960766861
 20
-139.6374714820177
 30
0.0
 10
93.63114960766861
 20
-139.6374714820177
 30
0.0
 10
93.77722165624319
 20
-139.6374714820177
 30
0.0
 10
93.77722165624319
 20
-139.6374714820177
 30
0.0
 10
93.77722165624319
 20
-139.6374714820177
 30
0.0
 10
93.77722165624319
 20
-141.1817355332809
 30
0.0
 10
93.77722165624319
 20
-141.1817355332809
 30
0.0
 10
93.77722165624319
 20
-141.1817355332809
 30
0.0
 10
93.55294594015344
 20
-141.1817355332809
 30
0.0
 10
93.55294594015344
 20
-141.1817355332809
 30
0.0
  0
HATCH
  5
FC
330
F5
100
AcDbEntity
  8
レイヤー 1
 62
    18
420
        0
440
 33554687
100
AcDbHatch
 10
0.0
 20
0.0
 30
0.0
210
0.0
220
0.0
230
1.0
  2
SOLID
 70
     1
 71
     1
 91
        1
 92
        1
 93
        1
 72
     4
 94
        3
 73
     0
 74
     0
 95
       26
 96
       22
 40
0.0
 40
0.0
 40
0.0
 40
0.0
 40
1.0
 40
1.0
 40
1.0
 40
2.0
 40
2.0
 40
2.0
 40
3.0
 40
3.0
 40
3.0
 40
4.0
 40
4.0
 40
4.0
 40
5.0
 40
5.0
 40
5.0
 40
6.0
 40
6.0
 40
6.0
 40
7.0
 40
7.0
 40
7.0
 40
7.0
 10
93.55294594015344
 20
-141.1817355332809
 10
93.55294594015344
 20
-141.1817355332809
 10
93.55294594015344
 20
-140.0774101754841
 10
93.55294594015344
 20
-140.0774101754841
 10
93.55294594015344
 20
-140.0774101754841
 10
93.22290579266649
 20
-140.0774101754841
 10
93.22290579266649
 20
-140.0774101754841
 10
93.22290579266649
 20
-140.0774101754841
 10
93.22290579266649
 20
-139.9292710696184
 10
93.22290579266649
 20
-139.9292710696184
 10
93.55501299744458
 20
-139.9146294138061
 10
93.60152178649546
 20
-139.7516763973537
 10
93.63114960766861
 20
-139.6374714820177
 10
93.63114960766861
 20
-139.6374714820177
 10
93.77722165624319
 20
-139.6374714820177
 10
93.77722165624319
 20
-139.6374714820177
 10
93.77722165624319
 20
-139.6374714820177
 10
93.77722165624319
 20
-141.1817355332809
 10
93.77722165624319
 20
-141.1817355332809
 10
93.77722165624319
 20
-141.1817355332809
 10
93.55294594015344
 20
-141.1817355332809
 10
93.55294594015344
 20
-141.1817355332809
 97
        0
 97
        1
330
FB
 75
     2
 76
     1
 98
        1
 10
0.0
 20
0.0
450
        0
451
        0
460
0.0
461
0.0
452
        0
462
0.0
453
        0
470

  0
ENDBLK
  5
F8
330
F5
100
AcDbEntity
  8
0
100
AcDbBlockEnd
  0
BLOCK
  5
101
330
FF
100
AcDbEntity
  8
0
100
AcDbBlockBegin
  2
Block_4
 70
     0
 10
0.0
 20
0.0
 30
0.0
  3
Block_4
  1

  0
SPLINE
  5
103
330
FF
100
AcDbEntity
  8
レイヤー 1
100
AcDbSpline
210
0.0
220
0.0
230
1.0
 70
     9
 71
     3
 72
    17
 73
    13
 74
     0
 42
0.0000000001
 43
0.0000000001
 40
0.0
 40
0.0
 40
0.0
 40
0.0
 40
1.0
 40
1.0
 40
1.0
 40
2.0
 40
2.0
 40
2.0
 40
3.0
 40
3.0
 40
3.0
 40
4.0
 40
4.0
 40
4.0
 40
4.0
 10
77.06695825981312
 20
-150.1338161517026
 30
0.0
 10
77.06695825981312
 20
-150.3959879181302
 30
0.0
 10
77.27848712260746
 20
-150.4338839684679
 30
0.0
 10
77.39475909523465
 20
-150.4338839684679
 30
0.0
 10
77.57045896498239
 20
-150.4338839684679
 30
0.0
 10
77.73323972666045
 20
-150.338799333075
 30
0.0
 10
77.73323972666045
 20
-150.1548312341627
 30
0.0
 10
77.73323972666045
 20
-150.0342528921789
 30
0.0
 10
77.67398408431414
 20
-149.8585530224312
 30
0.0
 10
77.38838566858693
 20
-149.8585530224312
 30
0.0
 10
77.16428220727142
 20
-149.8585530224312
 30
0.0
 10
77.06695825981312
 20
-149.9980793895838
 30
0.0
 10
77.06695825981312
 20
-150.1338161517026
 30
0.0
  0
SPLINE
  5
104
330
FF
100
AcDbEntity
  8
レイヤー 1
100
AcDbSpline
210
0.0
220
0.0
230
1.0
 70
     9
 71
     3
 72
    32
 73
    28
 74
     0
 42
0.0000000001
 43
0.0000000001
 40
0.0
 40
0.0
 40
0.0
 40
0.0
 40
1.0
 40
1.0
 40
1.0
 40
2.0
 40
2.0
 40
2.0
 40
3.0
 40
3.0
 40
3.0
 40
4.0
 40
4.0
 40
4.0
 40
5.0
 40
5.0
 40
5.0
 40
6.0
 40
6.0
 40
6.0
 40
7.0
 40
7.0
 40
7.0
 40
8.0
 40
8.0
 40
8.0
 40
9.0
 40
9.0
 40
9.0
 40
9.0
 10
77.92582056428591
 20
-150.1506971195804
 30
0.0
 10
77.92582056428591
 20
-150.6667724232708
 30
0.0
 10
77.37150470070921
 20
-150.6753851619839
 30
0.0
 10
77.15790878062371
 20
-150.6753851619839
 30
0.0
 10
76.92725963788624
 20
-150.6753851619839
 30
0.0
 10
76.2799261962078
 20
-150.6560926272665
 30
0.0
 10
76.2799261962078
 20
-150.1124565596941
 30
0.0
 10
76.2799261962078
 20
-149.939168256786
 30
0.0
 10
76.34968937978411
 20
-149.6935329486877
 30
0.0
 10
76.68179658456219
 20
-149.65563689835
 30
0.0
 10
76.68179658456219
 20
-149.65563689835
 30
0.0
 10
76.68179658456219
 20
-149.8692328184354
 30
0.0
 10
76.68179658456219
 20
-149.8692328184354
 30
0.0
 10
76.6247802542813
 20
-149.8799126144397
 30
0.0
 10
76.47664114841557
 20
-149.911607492904
 30
0.0
 10
76.47664114841557
 20
-150.1145236169852
 30
0.0
 10
76.47664114841557
 20
-150.4066677141344
 30
0.0
 10
76.80461423861135
 20
-150.4466308217633
 30
0.0
 10
77.00976967475797
 20
-150.4593776750587
 30
0.0
 10
76.93156600724281
 20
-150.366360096957
 30
0.0
 10
76.87231036489651
 20
-150.2984917158976
 30
0.0
 10
76.87231036489651
 20
-150.1165906742764
 30
0.0
 10
76.87231036489651
 20
-149.9367566899463
 30
0.0
 10
76.98014185358482
 20
-149.6342773063414
 30
0.0
 10
77.38631861129579
 20
-149.6342773063414
 30
0.0
 10
77.70585121755271
 20
-149.6342773063414
 30
0.0
 10
77.92582056428591
 20
-149.8334038253888
 30
0.0
 10
77.92582056428591
 20
-150.1506971195804
 30
0.0
  0
HATCH
  5
105
330
FF
100
AcDbEntity
  8
レイヤー 1
 62
    18
420
        0
440
 33554687
100
AcDbHatch
 10
0.0
 20
0.0
 30
0.0
210
0.0
220
0.0
230
1.0
  2
SOLID
 70
     1
 71
     1
 91
        2
 92
        1
 93
        1
 72
     4
 94
        3
 73
     0
 74
     0
 95
       17
 96
       13
 40
0.0
 40
0.0
 40
0.0
 40
0.0
 40
1.0
 40
1.0
 40
1.0
 40
2.0
 40
2.0
 40
2.0
 40
3.0
 40
3.0
 40
3.0
 40
4.0
 40
4.0
 40
4.0
 40
4.0
 10
77.06695825981312
 20
-150.1338161517026
 10
77.06695825981312
 20
-150.3959879181302
 10
77.27848712260746
 20
-150.4338839684679
 10
77.39475909523465
 20
-150.4338839684679
 10
77.57045896498239
 20
-150.4338839684679
 10
77.73323972666045
 20
-150.338799333075
 10
77.73323972666045
 20
-150.1548312341627
 10
77.73323972666045
 20
-150.0342528921789
 10
77.67398408431414
 20
-149.8585530224312
 10
77.38838566858693
 20
-149.8585530224312
 10
77.16428220727142
 20
-149.8585530224312
 10
77.06695825981312
 20
-149.9980793895838
 10
77.06695825981312
 20
-150.1338161517026
 97
        0
 97
        1
330
103
 92
        1
 93
        1
 72
     4
 94
        3
 73
     0
 74
     0
 95
       32
 96
       28
 40
0.0
 40
0.0
 40
0.0
 40
0.0
 40
1.0
 40
1.0
 40
1.0
 40
2.0
 40
2.0
 40
2.0
 40
3.0
 40
3.0
 40
3.0
 40
4.0
 40
4.0
 40
4.0
 40
5.0
 40
5.0
 40
5.0
 40
6.0
 40
6.0
 40
6.0
 40
7.0
 40
7.0
 40
7.0
 40
8.0
 40
8.0
 40
8.0
 40
9.0
 40
9.0
 40
9.0
 40
9.0
 10
77.92582056428591
 20
-150.1506971195804
 10
77.92582056428591
 20
-150.6667724232708
 10
77.37150470070921
 20
-150.6753851619839
 10
77.15790878062371
 20
-150.6753851619839
 10
76.92725963788624
 20
-150.6753851619839
 10
76.2799261962078
 20
-150.6560926272665
 10
76.2799261962078
 20
-150.1124565596941
 10
76.2799261962078
 20
-149.939168256786
 10
76.34968937978411
 20
-149.6935329486877
 10
76.68179658456219
 20
-149.65563689835
 10
76.68179658456219
 20
-149.65563689835
 10
76.68179658456219
 20
-149.8692328184354
 10
76.68179658456219
 20
-149.8692328184354
 10
76.6247802542813
 20
-149.8799126144397
 10
76.47664114841557
 20
-149.911607492904
 10
76.47664114841557
 20
-150.1145236169852
 10
76.47664114841557
 20
-150.4066677141344
 10
76.80461423861135
 20
-150.4466308217633
 10
77.00976967475797
 20
-150.4593776750587
 10
76.93156600724281
 20
-150.366360096957
 10
76.87231036489651
 20
-150.2984917158976
 10
76.87231036489651
 20
-150.1165906742764
 10
76.87231036489651
 20
-149.9367566899463
 10
76.98014185358482
 20
-149.6342773063414
 10
77.38631861129579
 20
-149.6342773063414
 10
77.70585121755271
 20
-149.6342773063414
 10
77.92582056428591
 20
-149.8334038253888
 10
77.92582056428591
 20
-150.1506971195804
 97
        0
 97
        1
330
104
 75
     2
 76
     1
 98
        1
 10
0.0
 20
0.0
450
        0
451
        0
460
0.0
461
0.0
452
        0
462
0.0
453
        0
470

  0
ENDBLK
  5
102
330
FF
100
AcDbEntity
  8
0
100
AcDbBlockEnd
  0
BLOCK
  5
10A
330
108
100
AcDbEntity
  8
0
100
AcDbBlockBegin
  2
Block_5
 70
     0
 10
0.0
 20
0.0
 30
0.0
  3
Block_5
  1

  0
INSERT
  5
10D
330
108
100
AcDbEntity
  8
レイヤー 1
100
AcDbBlockReference
  2
Block_6
 10
0.0
 20
0.0
 30
0.0
  0
ENDBLK
  5
10B
330
108
100
AcDbEntity
  8
0
100
AcDbBlockEnd
  0
BLOCK
  5
10E
330
10C
100
AcDbEntity
  8
0
100
AcDbBlockBegin
  2
Block_6
 70
     0
 10
0.0
 20
0.0
 30
0.0
  3
Block_6
  1

  0
SPLINE
  5
110
330
10C
100
AcDbEntity
  8
レイヤー 1
100
AcDbSpline
210
0.0
220
0.0
230
1.0
 70
     9
 71
     3
 72
    44
 73
    40
 74
     0
 42
0.0000000001
 43
0.0000000001
 40
0.0
 40
0.0
 40
0.0
 40
0.0
 40
1.0
 40
1.0
 40
1.0
 40
2.0
 40
2.0
 40
2.0
 40
3.0
 40
3.0
 40
3.0
 40
4.0
 40
4.0
 40
4.0
 40
5.0
 40
5.0
 40
5.0
 40
6.0
 40
6.0
 40
6.0
 40
7.0
 40
7.0
 40
7.0
 40
8.0
 40
8.0
 40
8.0
 40
9.0
 40
9.0
 40
9.0
 40
10.0
 40
10.0
 40
10.0
 40
11.0
 40
11.0
 40
11.0
 40
12.0
 40
12.0
 40
12.0
 40
13.0
 40
13.0
 40
13.0
 40
13.0
 10
123.6193277685743
 20
-140.6000311605965
 30
0.0
 10
123.4015977339065
 20
-140.7586778076923
 30
0.0
 10
123.3085801558048
 20
-140.8327473606251
 30
0.0
 10
123.2596597999142
 20
-140.9765800971343
 30
0.0
 10
123.2596597999142
 20
-140.9765800971343
 30
0.0
 10
124.0382513795807
 20
-140.9765800971343
 30
0.0
 10
124.0382513795807
 20
-140.9765800971343
 30
0.0
 10
124.0382513795807
 20
-140.9765800971343
 30
0.0
 10
124.0382513795807
 20
-141.1817355332809
 30
0.0
 10
124.0382513795807
 20
-141.1817355332809
 30
0.0
 10
124.0382513795807
 20
-141.1817355332809
 30
0.0
 10
123.0102348867821
 20
-141.1817355332809
 30
0.0
 10
123.0102348867821
 20
-141.1817355332809
 30
0.0
 10
123.0419297652464
 20
-140.824134621912
 30
0.0
 10
123.1073865794662
 20
-140.7459309543968
 30
0.0
 10
123.4925482547171
 20
-140.4475856853742
 30
0.0
 10
123.7485188492712
 20
-140.2488036758753
 30
0.0
 10
123.8139756634909
 20
-140.1811075495901
 30
0.0
 10
123.8139756634909
 20
-140.0436482397287
 30
0.0
 10
123.8139756634909
 20
-139.9251369550361
 30
0.0
 10
123.7419731678492
 20
-139.793878817048
 30
0.0
 10
123.5452582156414
 20
-139.793878817048
 30
0.0
 10
123.2851535065051
 20
-139.793878817048
 30
0.0
 10
123.2768852773405
 20
-140.0245279597855
 30
0.0
 10
123.2724066532097
 20
-140.1409721871869
 30
0.0
 10
123.2724066532097
 20
-140.1409721871869
 30
0.0
 10
123.0481309371199
 20
-140.1409721871869
 30
0.0
 10
123.0481309371199
 20
-140.1409721871869
 30
0.0
 10
123.056743675833
 20
-140.0140204185555
 30
0.0
 10
123.0674234718373
 20
-139.9018825605106
 30
0.0
 10
123.1476941966436
 20
-139.783371275818
 30
0.0
 10
123.2575927426231
 20
-139.6226575714311
 30
0.0
 10
123.4439724083751
 20
-139.5887233809014
 30
0.0
 10
123.560072126228
 20
-139.5887233809014
 30
0.0
 10
123.8374023127906
 20
-139.5887233809014
 30
0.0
 10
124.0447970610027
 20
-139.772863734588
 30
0.0
 10
124.0447970610027
 20
-140.0457152970198
 30
0.0
 10
124.0447970610027
 20
-140.2741251276919
 30
0.0
 10
123.9283528336012
 20
-140.3736883872156
 30
0.0
 10
123.6193277685743
 20
-140.6000311605965
 30
0.0
  0
HATCH
  5
111
330
10C
100
AcDbEntity
  8
レイヤー 1
 62
    18
420
        0
440
 33554687
100
AcDbHatch
 10
0.0
 20
0.0
 30
0.0
210
0.0
220
0.0
230
1.0
  2
SOLID
 70
     1
 71
     1
 91
        1
 92
        1
 93
        1
 72
     4
 94
        3
 73
     0
 74
     0
 95
       44
 96
       40
 40
0.0
 40
0.0
 40
0.0
 40
0.0
 40
1.0
 40
1.0
 40
1.0
 40
2.0
 40
2.0
 40
2.0
 40
3.0
 40
3.0
 40
3.0
 40
4.0
 40
4.0
 40
4.0
 40
5.0
 40
5.0
 40
5.0
 40
6.0
 40
6.0
 40
6.0
 40
7.0
 40
7.0
 40
7.0
 40
8.0
 40
8.0
 40
8.0
 40
9.0
 40
9.0
 40
9.0
 40
10.0
 40
10.0
 40
10.0
 40
11.0
 40
11.0
 40
11.0
 40
12.0
 40
12.0
 40
12.0
 40
13.0
 40
13.0
 40
13.0
 40
13.0
 10
123.6193277685743
 20
-140.6000311605965
 10
123.4015977339065
 20
-140.7586778076923
 10
123.3085801558048
 20
-140.8327473606251
 10
123.2596597999142
 20
-140.9765800971343
 10
123.2596597999142
 20
-140.9765800971343
 10
124.0382513795807
 20
-140.9765800971343
 10
124.0382513795807
 20
-140.9765800971343
 10
124.0382513795807
 20
-140.9765800971343
 10
124.0382513795807
 20
-141.1817355332809
 10
124.0382513795807
 20
-141.1817355332809
 10
124.0382513795807
 20
-141.1817355332809
 10
123.0102348867821
 20
-141.1817355332809
 10
123.0102348867821
 20
-141.1817355332809
 10
123.0419297652464
 20
-140.824134621912
 10
123.1073865794662
 20
-140.7459309543968
 10
123.4925482547171
 20
-140.4475856853742
 10
123.7485188492712
 20
-140.2488036758753
 10
123.8139756634909
 20
-140.1811075495901
 10
123.8139756634909
 20
-140.0436482397287
 10
123.8139756634909
 20
-139.9251369550361
 10
123.7419731678492
 20
-139.793878817048
 10
123.5452582156414
 20
-139.793878817048
 10
123.2851535065051
 20
-139.793878817048
 10
123.2768852773405
 20
-140.0245279597855
 10
123.2724066532097
 20
-140.1409721871869
 10
123.2724066532097
 20
-140.1409721871869
 10
123.0481309371199
 20
-140.1409721871869
 10
123.0481309371199
 20
-140.1409721871869
 10
123.056743675833
 20
-140.0140204185555
 10
123.0674234718373
 20
-139.9018825605106
 10
123.1476941966436
 20
-139.783371275818
 10
123.2575927426231
 20
-139.6226575714311
 10
123.4439724083751
 20
-139.5887233809014
 10
123.560072126228
 20
-139.5887233809014
 10
123.8374023127906
 20
-139.5887233809014
 10
124.0447970610027
 20
-139.772863734588
 10
124.0447970610027
 20
-140.0457152970198
 10
124.0447970610027
 20
-140.2741251276919
 10
123.9283528336012
 20
-140.3736883872156
 10
123.6193277685743
 20
-140.6000311605965
 97
        0
 97
        1
330
110
 75
     2
 76
     1
 98
        1
 10
0.0
 20
0.0
450
        0
451
        0
460
0.0
461
0.0
452
        0
462
0.0
453
        0
470

  0
SPLINE
  5
112
330
10C
100
AcDbEntity
  8
レイヤー 1
100
AcDbSpline
210
0.0
220
0.0
230
1.0
 70
    11
 71
     3
 72
    26
 73
    22
 74
     0
 42
0.0000000001
 43
0.0000000001
 40
0.0
 40
0.0
 40
0.0
 40
0.0
 40
1.0
 40
1.0
 40
1.0
 40
2.0
 40
2.0
 40
2.0
 40
3.0
 40
3.0
 40
3.0
 40
4.0
 40
4.0
 40
4.0
 40
5.0
 40
5.0
 40
5.0
 40
6.0
 40
6.0
 40
6.0
 40
7.0
 40
7.0
 40
7.0
 40
7.0
 10
124.6545789618919
 20
-141.1817355332809
 30
0.0
 10
124.6545789618919
 20
-141.1817355332809
 30
0.0
 10
124.6545789618919
 20
-140.0774101754841
 30
0.0
 10
124.6545789618919
 20
-140.0774101754841
 30
0.0
 10
124.6545789618919
 20
-140.0774101754841
 30
0.0
 10
124.324538814405
 20
-140.0774101754841
 30
0.0
 10
124.324538814405
 20
-140.0774101754841
 30
0.0
 10
124.324538814405
 20
-140.0774101754841
 30
0.0
 10
124.324538814405
 20
-139.9292710696184
 30
0.0
 10
124.324538814405
 20
-139.9292710696184
 30
0.0
 10
124.656646019183
 20
-139.9146294138061
 30
0.0
 10
124.7031548082339
 20
-139.7516763973537
 30
0.0
 10
124.7327826294071
 20
-139.6374714820177
 30
0.0
 10
124.7327826294071
 20
-139.6374714820177
 30
0.0
 10
124.8788546779816
 20
-139.6374714820177
 30
0.0
 10
124.8788546779816
 20
-139.6374714820177
 30
0.0
 10
124.8788546779816
 20
-139.6374714820177
 30
0.0
 10
124.8788546779816
 20
-141.1817355332809
 30
0.0
 10
124.8788546779816
 20
-141.1817355332809
 30
0.0
 10
124.8788546779816
 20
-141.1817355332809
 30
0.0
 10
124.6545789618919
 20
-141.1817355332809
 30
0.0
 10
124.6545789618919
 20
-141.1817355332809
 30
0.0
  0
HATCH
  5
113
330
10C
100
AcDbEntity
  8
レイヤー 1
 62
    18
420
        0
440
 33554687
100
AcDbHatch
 10
0.0
 20
0.0
 30
0.0
210
0.0
220
0.0
230
1.0
  2
SOLID
 70
     1
 71
     1
 91
        1
 92
        1
 93
        1
 72
     4
 94
        3
 73
     0
 74
     0
 95
       26
 96
       22
 40
0.0
 40
0.0
 40
0.0
 40
0.0
 40
1.0
 40
1.0
 40
1.0
 40
2.0
 40
2.0
 40
2.0
 40
3.0
 40
3.0
 40
3.0
 40
4.0
 40
4.0
 40
4.0
 40
5.0
 40
5.0
 40
5.0
 40
6.0
 40
6.0
 40
6.0
 40
7.0
 40
7.0
 40
7.0
 40
7.0
 10
124.6545789618919
 20
-141.1817355332809
 10
124.6545789618919
 20
-141.1817355332809
 10
124.6545789618919
 20
-140.0774101754841
 10
124.6545789618919
 20
-140.0774101754841
 10
124.6545789618919
 20
-140.0774101754841
 10
124.324538814405
 20
-140.0774101754841
 10
124.324538814405
 20
-140.0774101754841
 10
124.324538814405
 20
-140.0774101754841
 10
124.324538814405
 20
-139.9292710696184
 10
124.324538814405
 20
-139.9292710696184
 10
124.656646019183
 20
-139.9146294138061
 10
124.7031548082339
 20
-139.7516763973537
 10
124.7327826294071
 20
-139.6374714820177
 10
124.7327826294071
 20
-139.6374714820177
 10
124.8788546779816
 20
-139.6374714820177
 10
124.8788546779816
 20
-139.6374714820177
 10
124.8788546779816
 20
-139.6374714820177
 10
124.8788546779816
 20
-141.1817355332809
 10
124.8788546779816
 20
-141.1817355332809
 10
124.8788546779816
 20
-141.1817355332809
 10
124.6545789618919
 20
-141.1817355332809
 10
124.6545789618919
 20
-141.1817355332809
 97
        0
 97
        1
330
112
 75
     2
 76
     1
 98
        1
 10
0.0
 20
0.0
450
        0
451
        0
460
0.0
461
0.0
452
        0
462
0.0
453
        0
470

  0
ENDBLK
  5
10F
330
10C
100
AcDbEntity
  8
0
100
AcDbBlockEnd
  0
BLOCK
  5
119
330
117
100
AcDbEntity
  8
0
100
AcDbBlockBegin
  2
Block_7
 70
     0
 10
0.0
 20
0.0
 30
0.0
  3
Block_7
  1

  0
INSERT
  5
11C
330
117
100
AcDbEntity
  8
レイヤー 1
100
AcDbBlockReference
  2
Block_8
 10
0.0
 20
0.0
 30
0.0
  0
ENDBLK
  5
11A
330
117
100
AcDbEntity
  8
0
100
AcDbBlockEnd
  0
BLOCK
  5
11D
330
11B
100
AcDbEntity
  8
0
100
AcDbBlockBegin
  2
Block_8
 70
     0
 10
0.0
 20
0.0
 30
0.0
  3
Block_8
  1

  0
SPLINE
  5
11F
330
11B
100
AcDbEntity
  8
レイヤー 1
100
AcDbSpline
210
0.0
220
0.0
230
1.0
 70
    11
 71
     3
 72
    26
 73
    22
 74
     0
 42
0.0000000001
 43
0.0000000001
 40
0.0
 40
0.0
 40
0.0
 40
0.0
 40
1.0
 40
1.0
 40
1.0
 40
2.0
 40
2.0
 40
2.0
 40
3.0
 40
3.0
 40
3.0
 40
4.0
 40
4.0
 40
4.0
 40
5.0
 40
5.0
 40
5.0
 40
6.0
 40
6.0
 40
6.0
 40
7.0
 40
7.0
 40
7.0
 40
7.0
 10
108.0013318957427
 20
-141.1813910237324
 30
0.0
 10
108.0013318957427
 20
-141.1813910237324
 30
0.0
 10
108.0013318957427
 20
-140.0770656659356
 30
0.0
 10
108.0013318957427
 20
-140.0770656659356
 30
0.0
 10
108.0013318957427
 20
-140.0770656659356
 30
0.0
 10
107.6712917482558
 20
-140.0770656659356
 30
0.0
 10
107.6712917482558
 20
-140.0770656659356
 30
0.0
 10
107.6712917482558
 20
-140.0770656659356
 30
0.0
 10
107.6712917482558
 20
-139.9290988148441
 30
0.0
 10
107.6712917482558
 20
-139.9290988148441
 30
0.0
 10
108.0033989530339
 20
-139.9142849042575
 30
0.0
 10
108.0499077420847
 20
-139.7513318878052
 30
0.0
 10
108.0795355632579
 20
-139.6371269724692
 30
0.0
 10
108.0795355632579
 20
-139.6371269724692
 30
0.0
 10
108.2256076118325
 20
-139.6371269724692
 30
0.0
 10
108.2256076118325
 20
-139.6371269724692
 30
0.0
 10
108.2256076118325
 20
-139.6371269724692
 30
0.0
 10
108.2256076118325
 20
-141.1813910237324
 30
0.0
 10
108.2256076118325
 20
-141.1813910237324
 30
0.0
 10
108.2256076118325
 20
-141.1813910237324
 30
0.0
 10
108.0013318957427
 20
-141.1813910237324
 30
0.0
 10
108.0013318957427
 20
-141.1813910237324
 30
0.0
  0
HATCH
  5
120
330
11B
100
AcDbEntity
  8
レイヤー 1
 62
    18
420
        0
440
 33554687
100
AcDbHatch
 10
0.0
 20
0.0
 30
0.0
210
0.0
220
0.0
230
1.0
  2
SOLID
 70
     1
 71
     1
 91
        1
 92
        1
 93
        1
 72
     4
 94
        3
 73
     0
 74
     0
 95
       26
 96
       22
 40
0.0
 40
0.0
 40
0.0
 40
0.0
 40
1.0
 40
1.0
 40
1.0
 40
2.0
 40
2.0
 40
2.0
 40
3.0
 40
3.0
 40
3.0
 40
4.0
 40
4.0
 40
4.0
 40
5.0
 40
5.0
 40
5.0
 40
6.0
 40
6.0
 40
6.0
 40
7.0
 40
7.0
 40
7.0
 40
7.0
 10
108.0013318957427
 20
-141.1813910237324
 10
108.0013318957427
 20
-141.1813910237324
 10
108.0013318957427
 20
-140.0770656659356
 10
108.0013318957427
 20
-140.0770656659356
 10
108.0013318957427
 20
-140.0770656659356
 10
107.6712917482558
 20
-140.0770656659356
 10
107.6712917482558
 20
-140.0770656659356
 10
107.6712917482558
 20
-140.0770656659356
 10
107.6712917482558
 20
-139.9290988148441
 10
107.6712917482558
 20
-139.9290988148441
 10
108.0033989530339
 20
-139.9142849042575
 10
108.0499077420847
 20
-139.7513318878052
 10
108.0795355632579
 20
-139.6371269724692
 10
108.0795355632579
 20
-139.6371269724692
 10
108.2256076118325
 20
-139.6371269724692
 10
108.2256076118325
 20
-139.6371269724692
 10
108.2256076118325
 20
-139.6371269724692
 10
108.2256076118325
 20
-141.1813910237324
 10
108.2256076118325
 20
-141.1813910237324
 10
108.2256076118325
 20
-141.1813910237324
 10
108.0013318957427
 20
-141.1813910237324
 10
108.0013318957427
 20
-141.1813910237324
 97
        0
 97
        1
330
11F
 75
     2
 76
     1
 98
        1
 10
0.0
 20
0.0
450
        0
451
        0
460
0.0
461
0.0
452
        0
462
0.0
453
        0
470

  0
SPLINE
  5
121
330
11B
100
AcDbEntity
  8
レイヤー 1
100
AcDbSpline
210
0.0
220
0.0
230
1.0
 70
     9
 71
     3
 72
    17
 73
    13
 74
     0
 42
0.0000000001
 43
0.0000000001
 40
0.0
 40
0.0
 40
0.0
 40
0.0
 40
1.0
 40
1.0
 40
1.0
 40
2.0
 40
2.0
 40
2.0
 40
3.0
 40
3.0
 40
3.0
 40
4.0
 40
4.0
 40
4.0
 40
4.0
 10
109.2267523598461
 20
-139.7809597089783
 30
0.0
 10
108.977327446714
 20
-139.7809597089783
 30
0.0
 10
108.9304741481146
 20
-140.0644910674144
 30
0.0
 10
108.9304741481146
 20
-140.4091728707137
 30
0.0
 10
108.9304741481146
 20
-140.7287054769706
 30
0.0
 10
108.9666476507097
 20
-141.0375582872232
 30
0.0
 10
109.2267523598461
 20
-141.0375582872232
 30
0.0
 10
109.4744547252355
 20
-141.0375582872232
 30
0.0
 10
109.5230305715775
 20
-140.7560939860783
 30
0.0
 10
109.5230305715775
 20
-140.4091728707137
 30
0.0
 10
109.5230305715775
 20
-140.089812519231
 30
0.0
 10
109.4847900116913
 20
-139.7809597089783
 30
0.0
 10
109.2267523598461
 20
-139.7809597089783
 30
0.0
  0
SPLINE
  5
122
330
11B
100
AcDbEntity
  8
レイヤー 1
100
AcDbSpline
210
0.0
220
0.0
230
1.0
 70
     9
 71
     3
 72
    29
 73
    25
 74
     0
 42
0.0000000001
 43
0.0000000001
 40
0.0
 40
0.0
 40
0.0
 40
0.0
 40
1.0
 40
1.0
 40
1.0
 40
2.0
 40
2.0
 40
2.0
 40
3.0
 40
3.0
 40
3.0
 40
4.0
 40
4.0
 40
4.0
 40
5.0
 40
5.0
 40
5.0
 40
6.0
 40
6.0
 40
6.0
 40
7.0
 40
7.0
 40
7.0
 40
8.0
 40
8.0
 40
8.0
 40
8.0
 10
109.6246608883924
 20
-141.0036240966935
 30
0.0
 10
109.5164848901556
 20
-141.2130859021967
 30
0.0
 10
109.3431965872475
 20
-141.2322061821399
 30
0.0
 10
109.2267523598461
 20
-141.2322061821399
 30
0.0
 10
109.0658664006849
 20
-141.2322061821399
 30
0.0
 10
108.9242729762411
 20
-141.185697393089
 30
0.0
 10
108.8291883408482
 20
-141.0036240966935
 30
0.0
 10
108.7254909667422
 20
-140.8089762017769
 30
0.0
 10
108.7065429415734
 20
-140.572125887166
 30
0.0
 10
108.7065429415734
 20
-140.4091728707137
 30
0.0
 10
108.7065429415734
 20
-140.2653401342045
 30
0.0
 10
108.7234239094511
 20
-140.013675909007
 30
0.0
 10
108.8291883408482
 20
-139.8147216447338
 30
0.0
 10
108.9370198295366
 20
-139.6116332658783
 30
0.0
 10
109.0979057886977
 20
-139.5883788713529
 30
0.0
 10
109.2267523598461
 20
-139.5883788713529
 30
0.0
 10
109.3855712617161
 20
-139.5883788713529
 30
0.0
 10
109.529231743451
 20
-139.6328206031126
 30
0.0
 10
109.6246608883924
 20
-139.8147216447338
 30
0.0
 10
109.7238796383676
 20
-140.0073024823593
 30
0.0
 10
109.7473062876673
 20
-140.2357123130313
 30
0.0
 10
109.7473062876673
 20
-140.4091728707137
 30
0.0
 10
109.7473062876673
 20
-140.5805663711048
 30
0.0
 10
109.7259466956588
 20
-140.8112155138423
 30
0.0
 10
109.6246608883924
 20
-141.0036240966935
 30
0.0
  0
HATCH
  5
123
330
11B
100
AcDbEntity
  8
レイヤー 1
 62
    18
420
        0
440
 33554687
100
AcDbHatch
 10
0.0
 20
0.0
 30
0.0
210
0.0
220
0.0
230
1.0
  2
SOLID
 70
     1
 71
     1
 91
        2
 92
        1
 93
        1
 72
     4
 94
        3
 73
     0
 74
     0
 95
       17
 96
       13
 40
0.0
 40
0.0
 40
0.0
 40
0.0
 40
1.0
 40
1.0
 40
1.0
 40
2.0
 40
2.0
 40
2.0
 40
3.0
 40
3.0
 40
3.0
 40
4.0
 40
4.0
 40
4.0
 40
4.0
 10
109.2267523598461
 20
-139.7809597089783
 10
108.977327446714
 20
-139.7809597089783
 10
108.9304741481146
 20
-140.0644910674144
 10
108.9304741481146
 20
-140.4091728707137
 10
108.9304741481146
 20
-140.7287054769706
 10
108.9666476507097
 20
-141.0375582872232
 10
109.2267523598461
 20
-141.0375582872232
 10
109.4744547252355
 20
-141.0375582872232
 10
109.5230305715775
 20
-140.7560939860783
 10
109.5230305715775
 20
-140.4091728707137
 10
109.5230305715775
 20
-140.089812519231
 10
109.4847900116913
 20
-139.7809597089783
 10
109.2267523598461
 20
-139.7809597089783
 97
        0
 97
        1
330
121
 92
        1
 93
        1
 72
     4
 94
        3
 73
     0
 74
     0
 95
       29
 96
       25
 40
0.0
 40
0.0
 40
0.0
 40
0.0
 40
1.0
 40
1.0
 40
1.0
 40
2.0
 40
2.0
 40
2.0
 40
3.0
 40
3.0
 40
3.0
 40
4.0
 40
4.0
 40
4.0
 40
5.0
 40
5.0
 40
5.0
 40
6.0
 40
6.0
 40
6.0
 40
7.0
 40
7.0
 40
7.0
 40
8.0
 40
8.0
 40
8.0
 40
8.0
 10
109.6246608883924
 20
-141.0036240966935
 10
109.5164848901556
 20
-141.2130859021967
 10
109.3431965872475
 20
-141.2322061821399
 10
109.2267523598461
 20
-141.2322061821399
 10
109.0658664006849
 20
-141.2322061821399
 10
108.9242729762411
 20
-141.185697393089
 10
108.8291883408482
 20
-141.0036240966935
 10
108.7254909667422
 20
-140.8089762017769
 10
108.7065429415734
 20
-140.572125887166
 10
108.7065429415734
 20
-140.4091728707137
 10
108.7065429415734
 20
-140.2653401342045
 10
108.7234239094511
 20
-140.013675909007
 10
108.8291883408482
 20
-139.8147216447338
 10
108.9370198295366
 20
-139.6116332658783
 10
109.0979057886977
 20
-139.5883788713529
 10
109.2267523598461
 20
-139.5883788713529
 10
109.3855712617161
 20
-139.5883788713529
 10
109.529231743451
 20
-139.6328206031126
 10
109.6246608883924
 20
-139.8147216447338
 10
109.7238796383676
 20
-140.0073024823593
 10
109.7473062876673
 20
-140.2357123130313
 10
109.7473062876673
 20
-140.4091728707137
 10
109.7473062876673
 20
-140.5805663711048
 10
109.7259466956588
 20
-140.8112155138423
 10
109.6246608883924
 20
-141.0036240966935
 97
        0
 97
        1
330
122
 75
     2
 76
     1
 98
        1
 10
0.0
 20
0.0
450
        0
451
        0
460
0.0
461
0.0
452
        0
462
0.0
453
        0
470

  0
ENDBLK
  5
11E
330
11B
100
AcDbEntity
  8
0
100
AcDbBlockEnd
  0
BLOCK
  5
12B
330
129
100
AcDbEntity
  8
0
100
AcDbBlockBegin
  2
Block_9
 70
     0
 10
0.0
 20
0.0
 30
0.0
  3
Block_9
  1

  0
INSERT
  5
12E
330
129
100
AcDbEntity
  8
レイヤー 1
100
AcDbBlockReference
  2
Block_10
 10
0.0
 20
0.0
 30
0.0
  0
ENDBLK
  5
12C
330
129
100
AcDbEntity
  8
0
100
AcDbBlockEnd
  0
BLOCK
  5
12F
330
12D
100
AcDbEntity
  8
0
100
AcDbBlockBegin
  2
Block_10
 70
     0
 10
0.0
 20
0.0
 30
0.0
  3
Block_10
  1

  0
SPLINE
  5
131
330
12D
100
AcDbEntity
  8
レイヤー 1
100
AcDbSpline
210
0.0
220
0.0
230
1.0
 70
    11
 71
     3
 72
    26
 73
    22
 74
     0
 42
0.0000000001
 43
0.0000000001
 40
0.0
 40
0.0
 40
0.0
 40
0.0
 40
1.0
 40
1.0
 40
1.0
 40
2.0
 40
2.0
 40
2.0
 40
3.0
 40
3.0
 40
3.0
 40
4.0
 40
4.0
 40
4.0
 40
5.0
 40
5.0
 40
5.0
 40
6.0
 40
6.0
 40
6.0
 40
7.0
 40
7.0
 40
7.0
 40
7.0
 10
108.1012396648149
 20
-156.5575411934995
 30
0.0
 10
108.1012396648149
 20
-156.5575411934995
 30
0.0
 10
108.1012396648149
 20
-155.4533880904769
 30
0.0
 10
108.1012396648149
 20
-155.4533880904769
 30
0.0
 10
108.1012396648149
 20
-155.4533880904769
 30
0.0
 10
107.771199517328
 20
-155.4533880904769
 30
0.0
 10
107.771199517328
 20
-155.4533880904769
 30
0.0
 10
107.771199517328
 20
-155.4533880904769
 30
0.0
 10
107.771199517328
 20
-155.3052489846112
 30
0.0
 10
107.771199517328
 20
-155.3052489846112
 30
0.0
 10
108.1033067221061
 20
-155.2904350740246
 30
0.0
 10
108.149815511157
 20
-155.1274820575723
 30
0.0
 10
108.1794433323301
 20
-155.013104887462
 30
0.0
 10
108.1794433323301
 20
-155.013104887462
 30
0.0
 10
108.3255153809047
 20
-155.013104887462
 30
0.0
 10
108.3255153809047
 20
-155.013104887462
 30
0.0
 10
108.3255153809047
 20
-155.013104887462
 30
0.0
 10
108.3255153809047
 20
-156.5575411934995
 30
0.0
 10
108.3255153809047
 20
-156.5575411934995
 30
0.0
 10
108.3255153809047
 20
-156.5575411934995
 30
0.0
 10
108.1012396648149
 20
-156.5575411934995
 30
0.0
 10
108.1012396648149
 20
-156.5575411934995
 30
0.0
  0
HATCH
  5
132
330
12D
100
AcDbEntity
  8
レイヤー 1
 62
    18
420
        0
440
 33554687
100
AcDbHatch
 10
0.0
 20
0.0
 30
0.0
210
0.0
220
0.0
230
1.0
  2
SOLID
 70
     1
 71
     1
 91
        1
 92
        1
 93
        1
 72
     4
 94
        3
 73
     0
 74
     0
 95
       26
 96
       22
 40
0.0
 40
0.0
 40
0.0
 40
0.0
 40
1.0
 40
1.0
 40
1.0
 40
2.0
 40
2.0
 40
2.0
 40
3.0
 40
3.0
 40
3.0
 40
4.0
 40
4.0
 40
4.0
 40
5.0
 40
5.0
 40
5.0
 40
6.0
 40
6.0
 40
6.0
 40
7.0
 40
7.0
 40
7.0
 40
7.0
 10
108.1012396648149
 20
-156.5575411934995
 10
108.1012396648149
 20
-156.5575411934995
 10
108.1012396648149
 20
-155.4533880904769
 10
108.1012396648149
 20
-155.4533880904769
 10
108.1012396648149
 20
-155.4533880904769
 10
107.771199517328
 20
-155.4533880904769
 10
107.771199517328
 20
-155.4533880904769
 10
107.771199517328
 20
-155.4533880904769
 10
107.771199517328
 20
-155.3052489846112
 10
107.771199517328
 20
-155.3052489846112
 10
108.1033067221061
 20
-155.2904350740246
 10
108.149815511157
 20
-155.1274820575723
 10
108.1794433323301
 20
-155.013104887462
 10
108.1794433323301
 20
-155.013104887462
 10
108.3255153809047
 20
-155.013104887462
 10
108.3255153809047
 20
-155.013104887462
 10
108.3255153809047
 20
-155.013104887462
 10
108.3255153809047
 20
-156.5575411934995
 10
108.3255153809047
 20
-156.5575411934995
 10
108.3255153809047
 20
-156.5575411934995
 10
108.1012396648149
 20
-156.5575411934995
 10
108.1012396648149
 20
-156.5575411934995
 97
        0
 97
        1
330
131
 75
     2
 76
     1
 98
        1
 10
0.0
 20
0.0
450
        0
451
        0
460
0.0
461
0.0
452
        0
462
0.0
453
        0
470

  0
SPLINE
  5
133
330
12D
100
AcDbEntity
  8
レイヤー 1
100
AcDbSpline
210
0.0
220
0.0
230
1.0
 70
     9
 71
     3
 72
    44
 73
    40
 74
     0
 42
0.0000000001
 43
0.0000000001
 40
0.0
 40
0.0
 40
0.0
 40
0.0
 40
1.0
 40
1.0
 40
1.0
 40
2.0
 40
2.0
 40
2.0
 40
3.0
 40
3.0
 40
3.0
 40
4.0
 40
4.0
 40
4.0
 40
5.0
 40
5.0
 40
5.0
 40
6.0
 40
6.0
 40
6.0
 40
7.0
 40
7.0
 40
7.0
 40
8.0
 40
8.0
 40
8.0
 40
9.0
 40
9.0
 40
9.0
 40
10.0
 40
10.0
 40
10.0
 40
11.0
 40
11.0
 40
11.0
 40
12.0
 40
12.0
 40
12.0
 40
13.0
 40
13.0
 40
13.0
 40
13.0
 10
109.4196777070201
 20
-155.9756645660408
 30
0.0
 10
109.2019476723523
 20
-156.1344834679108
 30
0.0
 10
109.1089300942505
 20
-156.2085530208437
 30
0.0
 10
109.06000973836
 20
-156.3522135025786
 30
0.0
 10
109.06000973836
 20
-156.3522135025786
 30
0.0
 10
109.8386013180264
 20
-156.3522135025786
 30
0.0
 10
109.8386013180264
 20
-156.3522135025786
 30
0.0
 10
109.8386013180264
 20
-156.3522135025786
 30
0.0
 10
109.8386013180264
 20
-156.5575411934995
 30
0.0
 10
109.8386013180264
 20
-156.5575411934995
 30
0.0
 10
109.8386013180264
 20
-156.5575411934995
 30
0.0
 10
108.8105848252279
 20
-156.5575411934995
 30
0.0
 10
108.8105848252279
 20
-156.5575411934995
 30
0.0
 10
108.8422797036922
 20
-156.1999402821306
 30
0.0
 10
108.9077365179119
 20
-156.1217366146154
 30
0.0
 10
109.2928981931629
 20
-155.8233913455928
 30
0.0
 10
109.5488687877169
 20
-155.6246093360939
 30
0.0
 10
109.6143256019367
 20
-155.5567409550344
 30
0.0
 10
109.6143256019367
 20
-155.4192816451729
 30
0.0
 10
109.6143256019367
 20
-155.3007703604803
 30
0.0
 10
109.542323106295
 20
-155.1698567320408
 30
0.0
 10
109.3456081540872
 20
-155.1698567320408
 30
0.0
 10
109.0855034449508
 20
-155.1698567320408
 30
0.0
 10
109.0768907062377
 20
-155.4003336200041
 30
0.0
 10
109.0727565916554
 20
-155.5167778474055
 30
0.0
 10
109.0727565916554
 20
-155.5167778474055
 30
0.0
 10
108.8484808755656
 20
-155.5167778474055
 30
0.0
 10
108.8484808755656
 20
-155.5167778474055
 30
0.0
 10
108.8570936142787
 20
-155.3896538239998
 30
0.0
 10
108.867773410283
 20
-155.2776882207292
 30
0.0
 10
108.9480441350894
 20
-155.1591769360366
 30
0.0
 10
109.0579426810688
 20
-154.9982909768754
 30
0.0
 10
109.2443223468208
 20
-154.96452904112
 30
0.0
 10
109.3604220646738
 20
-154.96452904112
 30
0.0
 10
109.6377522512364
 20
-154.96452904112
 30
0.0
 10
109.8451469994484
 20
-155.1484971400323
 30
0.0
 10
109.8451469994484
 20
-155.4213487024641
 30
0.0
 10
109.8451469994484
 20
-155.6501030426847
 30
0.0
 10
109.728702772047
 20
-155.7493217926599
 30
0.0
 10
109.4196777070201
 20
-155.9756645660408
 30
0.0
  0
HATCH
  5
134
330
12D
100
AcDbEntity
  8
レイヤー 1
 62
    18
420
        0
440
 33554687
100
AcDbHatch
 10
0.0
 20
0.0
 30
0.0
210
0.0
220
0.0
230
1.0
  2
SOLID
 70
     1
 71
     1
 91
        1
 92
        1
 93
        1
 72
     4
 94
        3
 73
     0
 74
     0
 95
       44
 96
       40
 40
0.0
 40
0.0
 40
0.0
 40
0.0
 40
1.0
 40
1.0
 40
1.0
 40
2.0
 40
2.0
 40
2.0
 40
3.0
 40
3.0
 40
3.0
 40
4.0
 40
4.0
 40
4.0
 40
5.0
 40
5.0
 40
5.0
 40
6.0
 40
6.0
 40
6.0
 40
7.0
 40
7.0
 40
7.0
 40
8.0
 40
8.0
 40
8.0
 40
9.0
 40
9.0
 40
9.0
 40
10.0
 40
10.0
 40
10.0
 40
11.0
 40
11.0
 40
11.0
 40
12.0
 40
12.0
 40
12.0
 40
13.0
 40
13.0
 40
13.0
 40
13.0
 10
109.4196777070201
 20
-155.9756645660408
 10
109.2019476723523
 20
-156.1344834679108
 10
109.1089300942505
 20
-156.2085530208437
 10
109.06000973836
 20
-156.3522135025786
 10
109.06000973836
 20
-156.3522135025786
 10
109.8386013180264
 20
-156.3522135025786
 10
109.8386013180264
 20
-156.3522135025786
 10
109.8386013180264
 20
-156.3522135025786
 10
109.8386013180264
 20
-156.5575411934995
 10
109.8386013180264
 20
-156.5575411934995
 10
109.8386013180264
 20
-156.5575411934995
 10
108.8105848252279
 20
-156.5575411934995
 10
108.8105848252279
 20
-156.5575411934995
 10
108.8422797036922
 20
-156.1999402821306
 10
108.9077365179119
 20
-156.1217366146154
 10
109.2928981931629
 20
-155.8233913455928
 10
109.5488687877169
 20
-155.6246093360939
 10
109.6143256019367
 20
-155.5567409550344
 10
109.6143256019367
 20
-155.4192816451729
 10
109.6143256019367
 20
-155.3007703604803
 10
109.542323106295
 20
-155.1698567320408
 10
109.3456081540872
 20
-155.1698567320408
 10
109.0855034449508
 20
-155.1698567320408
 10
109.0768907062377
 20
-155.4003336200041
 10
109.0727565916554
 20
-155.5167778474055
 10
109.0727565916554
 20
-155.5167778474055
 10
108.8484808755656
 20
-155.5167778474055
 10
108.8484808755656
 20
-155.5167778474055
 10
108.8570936142787
 20
-155.3896538239998
 10
108.867773410283
 20
-155.2776882207292
 10
108.9480441350894
 20
-155.1591769360366
 10
109.0579426810688
 20
-154.9982909768754
 10
109.2443223468208
 20
-154.96452904112
 10
109.3604220646738
 20
-154.96452904112
 10
109.6377522512364
 20
-154.96452904112
 10
109.8451469994484
 20
-155.1484971400323
 10
109.8451469994484
 20
-155.4213487024641
 10
109.8451469994484
 20
-155.6501030426847
 10
109.728702772047
 20
-155.7493217926599
 10
109.4196777070201
 20
-155.9756645660408
 97
        0
 97
        1
330
133
 75
     2
 76
     1
 98
        1
 10
0.0
 20
0.0
450
        0
451
        0
460
0.0
461
0.0
452
        0
462
0.0
453
        0
470

  0
ENDBLK
  5
130
330
12D
100
AcDbEntity
  8
0
100
AcDbBlockEnd
  0
BLOCK
  5
138
330
136
100
AcDbEntity
  8
0
100
AcDbBlockBegin
  2
Block_11
 70
     0
 10
0.0
 20
0.0
 30
0.0
  3
Block_11
  1

  0
SPLINE
  5
13A
330
136
100
AcDbEntity
  8
レイヤー 1
100
AcDbSpline
210
0.0
220
0.0
230
1.0
 70
    11
 71
     3
 72
    26
 73
    22
 74
     0
 42
0.0000000001
 43
0.0000000001
 40
0.0
 40
0.0
 40
0.0
 40
0.0
 40
1.0
 40
1.0
 40
1.0
 40
2.0
 40
2.0
 40
2.0
 40
3.0
 40
3.0
 40
3.0
 40
4.0
 40
4.0
 40
4.0
 40
5.0
 40
5.0
 40
5.0
 40
6.0
 40
6.0
 40
6.0
 40
7.0
 40
7.0
 40
7.0
 40
7.0
 10
116.5217420498626
 20
-149.5347140468177
 30
0.0
 10
116.5217420498626
 20
-149.5347140468177
 30
0.0
 10
116.5217420498626
 20
-148.4305609437951
 30
0.0
 10
116.5217420498626
 20
-148.4305609437951
 30
0.0
 10
116.5217420498626
 20
-148.4305609437951
 30
0.0
 10
116.1917019023757
 20
-148.4305609437951
 30
0.0
 10
116.1917019023757
 20
-148.4305609437951
 30
0.0
 10
116.1917019023757
 20
-148.4305609437951
 30
0.0
 10
116.1917019023757
 20
-148.2824218379294
 30
0.0
 10
116.1917019023757
 20
-148.2824218379294
 30
0.0
 10
116.5238091071538
 20
-148.2677801821171
 30
0.0
 10
116.5703178962046
 20
-148.1048271656647
 30
0.0
 10
116.5999457173778
 20
-147.9906222503287
 30
0.0
 10
116.5999457173778
 20
-147.9906222503287
 30
0.0
 10
116.7460177659524
 20
-147.9906222503287
 30
0.0
 10
116.7460177659524
 20
-147.9906222503287
 30
0.0
 10
116.7460177659524
 20
-147.9906222503287
 30
0.0
 10
116.7460177659524
 20
-149.5347140468177
 30
0.0
 10
116.7460177659524
 20
-149.5347140468177
 30
0.0
 10
116.7460177659524
 20
-149.5347140468177
 30
0.0
 10
116.5217420498626
 20
-149.5347140468177
 30
0.0
 10
116.5217420498626
 20
-149.5347140468177
 30
0.0
  0
HATCH
  5
13B
330
136
100
AcDbEntity
  8
レイヤー 1
 62
    18
420
        0
440
 33554687
100
AcDbHatch
 10
0.0
 20
0.0
 30
0.0
210
0.0
220
0.0
230
1.0
  2
SOLID
 70
     1
 71
     1
 91
        1
 92
        1
 93
        1
 72
     4
 94
        3
 73
     0
 74
     0
 95
       26
 96
       22
 40
0.0
 40
0.0
 40
0.0
 40
0.0
 40
1.0
 40
1.0
 40
1.0
 40
2.0
 40
2.0
 40
2.0
 40
3.0
 40
3.0
 40
3.0
 40
4.0
 40
4.0
 40
4.0
 40
5.0
 40
5.0
 40
5.0
 40
6.0
 40
6.0
 40
6.0
 40
7.0
 40
7.0
 40
7.0
 40
7.0
 10
116.5217420498626
 20
-149.5347140468177
 10
116.5217420498626
 20
-149.5347140468177
 10
116.5217420498626
 20
-148.4305609437951
 10
116.5217420498626
 20
-148.4305609437951
 10
116.5217420498626
 20
-148.4305609437951
 10
116.1917019023757
 20
-148.4305609437951
 10
116.1917019023757
 20
-148.4305609437951
 10
116.1917019023757
 20
-148.4305609437951
 10
116.1917019023757
 20
-148.2824218379294
 10
116.1917019023757
 20
-148.2824218379294
 10
116.5238091071538
 20
-148.2677801821171
 10
116.5703178962046
 20
-148.1048271656647
 10
116.5999457173778
 20
-147.9906222503287
 10
116.5999457173778
 20
-147.9906222503287
 10
116.7460177659524
 20
-147.9906222503287
 10
116.7460177659524
 20
-147.9906222503287
 10
116.7460177659524
 20
-147.9906222503287
 10
116.7460177659524
 20
-149.5347140468177
 10
116.7460177659524
 20
-149.5347140468177
 10
116.7460177659524
 20
-149.5347140468177
 10
116.5217420498626
 20
-149.5347140468177
 10
116.5217420498626
 20
-149.5347140468177
 97
        0
 97
        1
330
13A
 75
     2
 76
     1
 98
        1
 10
0.0
 20
0.0
450
        0
451
        0
460
0.0
461
0.0
452
        0
462
0.0
453
        0
470

  0
ENDBLK
  5
139
330
136
100
AcDbEntity
  8
0
100
AcDbBlockEnd
  0
BLOCK
  5
13E
330
13C
100
AcDbEntity
  8
0
100
AcDbBlockBegin
  2
Block_12
 70
     0
 10
0.0
 20
0.0
 30
0.0
  3
Block_12
  1

  0
LWPOLYLINE
  5
140
330
13C
100
AcDbEntity
  8
レイヤー 1
 62
   250
420
  2299925
370
     9
100
AcDbPolyline
 90
        4
 70
     1
 43
0.0
 10
115.0459114734241
 20
-152.8883217132014
 10
115.6078159035331
 20
-152.8814072687589
 10
114.7172637040308
 20
-152.5658475466148
 10
115.0214639740478
 20
-153.4801769908313
  0
HATCH
  5
141
330
13C
100
AcDbEntity
  8
レイヤー 1
 62
   250
420
  2299925
440
 33554687
100
AcDbHatch
 10
0.0
 20
0.0
 30
0.0
210
0.0
220
0.0
230
1.0
  2
SOLID
 70
     1
 71
     1
 91
        1
 92
        1
 93
        4
 72
     1
 10
115.0459114734241
 20
-152.8883217132014
 11
115.6078159035331
 21
-152.8814072687589
 72
     1
 10
115.6078159035331
 20
-152.8814072687589
 11
114.7172637040308
 21
-152.5658475466148
 72
     1
 10
114.7172637040308
 20
-152.5658475466148
 11
115.0214639740478
 21
-153.4801769908313
 72
     1
 10
115.0214639740478
 20
-153.4801769908313
 11
115.0459114734241
 21
-152.8883217132014
 97
        1
330
140
 75
     2
 76
     1
 98
        1
 10
0.0
 20
0.0
450
        0
451
        0
460
0.0
461
0.0
452
        0
462
0.0
453
        0
470

  0
LINE
  5
142
330
13C
100
AcDbEntity
  8
レイヤー 1
 62
   250
420
  2299925
370
     9
100
AcDbLine
 10
115.0459114734241
 20
-152.8883217132014
 30
0.0
 11
117.4502330787514
 21
-155.2774739348263
 31
0.0
  0
ENDBLK
  5
13F
330
13C
100
AcDbEntity
  8
0
100
AcDbBlockEnd
  0
BLOCK
  5
145
330
143
100
AcDbEntity
  8
0
100
AcDbBlockBegin
  2
Block_13
 70
     0
 10
0.0
 20
0.0
 30
0.0
  3
Block_13
  1

  0
INSERT
  5
148
330
143
100
AcDbEntity
  8
レイヤー 1
100
AcDbBlockReference
  2
Block_14
 10
0.0
 20
0.0
 30
0.0
  0
ENDBLK
  5
146
330
143
100
AcDbEntity
  8
0
100
AcDbBlockEnd
  0
BLOCK
  5
149
330
147
100
AcDbEntity
  8
0
100
AcDbBlockBegin
  2
Block_14
 70
     0
 10
0.0
 20
0.0
 30
0.0
  3
Block_14
  1

  0
SPLINE
  5
14B
330
147
100
AcDbEntity
  8
レイヤー 1
100
AcDbSpline
210
0.0
220
0.0
230
1.0
 70
     9
 71
     3
 72
    38
 73
    34
 74
     0
 42
0.0000000001
 43
0.0000000001
 40
0.0
 40
0.0
 40
0.0
 40
0.0
 40
1.0
 40
1.0
 40
1.0
 40
2.0
 40
2.0
 40
2.0
 40
3.0
 40
3.0
 40
3.0
 40
4.0
 40
4.0
 40
4.0
 40
5.0
 40
5.0
 40
5.0
 40
6.0
 40
6.0
 40
6.0
 40
7.0
 40
7.0
 40
7.0
 40
8.0
 40
8.0
 40
8.0
 40
9.0
 40
9.0
 40
9.0
 40
10.0
 40
10.0
 40
10.0
 40
11.0
 40
11.0
 40
11.0
 40
11.0
 10
117.98211802606
 20
-156.3580701649035
 30
0.0
 10
118.0751356041618
 20
-156.2354247656286
 30
0.0
 10
118.2001925702763
 20
-156.0555907812986
 30
0.0
 10
118.2952772056692
 20
-155.607039349119
 30
0.0
 10
118.2952772056692
 20
-155.607039349119
 30
0.0
 10
118.4623643367038
 20
-155.6263318838365
 30
0.0
 10
118.4623643367038
 20
-155.6263318838365
 30
0.0
 10
118.436870630113
 20
-155.7469102258202
 30
0.0
 10
118.4137884903618
 20
-155.8378607466308
 30
0.0
 10
118.3755479304755
 20
-155.9456922353191
 30
0.0
 10
118.3755479304755
 20
-155.9456922353191
 30
0.0
 10
119.0039333469851
 20
-155.9456922353191
 30
0.0
 10
119.0039333469851
 20
-155.9456922353191
 30
0.0
 10
119.0039333469851
 20
-155.9456922353191
 30
0.0
 10
119.0039333469851
 20
-156.0979654557672
 30
0.0
 10
119.0039333469851
 20
-156.0979654557672
 30
0.0
 10
118.9701714112297
 20
-156.2399033897594
 30
0.0
 10
118.8747422662882
 20
-156.4979410416047
 30
0.0
 10
118.8006727133554
 20
-156.6164523262973
 30
0.0
 10
118.8006727133554
 20
-156.6164523262973
 30
0.0
 10
118.6483994929073
 20
-156.5379041492336
 30
0.0
 10
118.6483994929073
 20
-156.5379041492336
 30
0.0
 10
118.7438286378487
 20
-156.4025118966632
 30
0.0
 10
118.8092854520685
 20
-156.2144096831686
 30
0.0
 10
118.8368462159505
 20
-156.1041666276406
 30
0.0
 10
118.8368462159505
 20
-156.1041666276406
 30
0.0
 10
118.3183593454204
 20
-156.1041666276406
 30
0.0
 10
118.3183593454204
 20
-156.1041666276406
 30
0.0
 10
118.2191405954452
 20
-156.3456678211566
 30
0.0
 10
118.1450710425123
 20
-156.4342067751275
 30
0.0
 10
118.1068304826261
 20
-156.4786485068873
 30
0.0
 10
118.1068304826261
 20
-156.4786485068873
 30
0.0
 10
117.98211802606
 20
-156.3580701649035
 30
0.0
 10
117.98211802606
 20
-156.3580701649035
 30
0.0
  0
SPLINE
  5
14C
330
147
100
AcDbEntity
  8
レイヤー 1
100
AcDbSpline
210
0.0
220
0.0
230
1.0
 70
     9
 71
     3
 72
    38
 73
    34
 74
     0
 42
0.0000000001
 43
0.0000000001
 40
0.0
 40
0.0
 40
0.0
 40
0.0
 40
1.0
 40
1.0
 40
1.0
 40
2.0
 40
2.0
 40
2.0
 40
3.0
 40
3.0
 40
3.0
 40
4.0
 40
4.0
 40
4.0
 40
5.0
 40
5.0
 40
5.0
 40
6.0
 40
6.0
 40
6.0
 40
7.0
 40
7.0
 40
7.0
 40
8.0
 40
8.0
 40
8.0
 40
9.0
 40
9.0
 40
9.0
 40
10.0
 40
10.0
 40
10.0
 40
11.0
 40
11.0
 40
11.0
 40
11.0
 10
117.8677408559497
 20
-157.4308728990103
 30
0.0
 10
117.9504231475957
 20
-157.3778184285375
 30
0.0
 10
118.1154432213392
 20
-157.2699869398492
 30
0.0
 10
118.2212076527363
 20
-157.0625921916371
 30
0.0
 10
118.3693467586021
 20
-156.7707926040364
 30
0.0
 10
118.3693467586021
 20
-156.5444498306555
 30
0.0
 10
118.3693467586021
 20
-156.4597004817184
 30
0.0
 10
118.3693467586021
 20
-156.4597004817184
 30
0.0
 10
118.3693467586021
 20
-156.2250894791729
 30
0.0
 10
118.3693467586021
 20
-156.2250894791729
 30
0.0
 10
118.3693467586021
 20
-156.2250894791729
 30
0.0
 10
118.5343668323456
 20
-156.2250894791729
 30
0.0
 10
118.5343668323456
 20
-156.2250894791729
 30
0.0
 10
118.5343668323456
 20
-156.2250894791729
 30
0.0
 10
118.5343668323456
 20
-156.4514322525538
 30
0.0
 10
118.5343668323456
 20
-156.4514322525538
 30
0.0
 10
118.5343668323456
 20
-156.6502142620527
 30
0.0
 10
118.5998236465653
 20
-156.8872368314379
 30
0.0
 10
118.7014539633802
 20
-157.060525134346
 30
0.0
 10
118.8178981907816
 20
-157.2593071438449
 30
0.0
 10
118.94674476193
 20
-157.3588704033686
 30
0.0
 10
119.0314941108671
 20
-157.420193103006
 30
0.0
 10
119.0314941108671
 20
-157.420193103006
 30
0.0
 10
118.9236626221788
 20
-157.5703992661629
 30
0.0
 10
118.9236626221788
 20
-157.5703992661629
 30
0.0
 10
118.7458956951399
 20
-157.441208185466
 30
0.0
 10
118.547113685641
 20
-157.2021185587897
 30
0.0
 10
118.4685655085773
 20
-156.8489962715516
 30
0.0
 10
118.4031086943575
 20
-157.0880858982279
 30
0.0
 10
118.3014783775427
 20
-157.3568033460774
 30
0.0
 10
117.9927978220643
 20
-157.5662651515806
 30
0.0
 10
117.9927978220643
 20
-157.5662651515806
 30
0.0
 10
117.8677408559497
 20
-157.4308728990103
 30
0.0
 10
117.8677408559497
 20
-157.4308728990103
 30
0.0
  0
SPLINE
  5
14D
330
147
100
AcDbEntity
  8
レイヤー 1
100
AcDbSpline
210
0.0
220
0.0
230
1.0
 70
    11
 71
     3
 72
    17
 73
    13
 74
     0
 42
0.0000000001
 43
0.0000000001
 40
0.0
 40
0.0
 40
0.0
 40
0.0
 40
1.0
 40
1.0
 40
1.0
 40
2.0
 40
2.0
 40
2.0
 40
3.0
 40
3.0
 40
3.0
 40
4.0
 40
4.0
 40
4.0
 40
4.0
 10
117.8257106910297
 20
-156.5423827733644
 30
0.0
 10
117.8257106910297
 20
-156.5423827733644
 30
0.0
 10
117.6141818282353
 20
-156.5423827733644
 30
0.0
 10
117.6141818282353
 20
-156.5423827733644
 30
0.0
 10
117.6141818282353
 20
-156.5423827733644
 30
0.0
 10
117.6141818282353
 20
-156.7494330120279
 30
0.0
 10
117.6141818282353
 20
-156.7494330120279
 30
0.0
 10
117.6141818282353
 20
-156.7494330120279
 30
0.0
 10
117.8257106910297
 20
-156.7494330120279
 30
0.0
 10
117.8257106910297
 20
-156.7494330120279
 30
0.0
 10
117.8257106910297
 20
-156.7494330120279
 30
0.0
 10
117.8257106910297
 20
-156.5423827733644
 30
0.0
 10
117.8257106910297
 20
-156.5423827733644
 30
0.0
  0
SPLINE
  5
14E
330
147
100
AcDbEntity
  8
レイヤー 1
100
AcDbSpline
210
0.0
220
0.0
230
1.0
 70
    11
 71
     3
 72
    17
 73
    13
 74
     0
 42
0.0000000001
 43
0.0000000001
 40
0.0
 40
0.0
 40
0.0
 40
0.0
 40
1.0
 40
1.0
 40
1.0
 40
2.0
 40
2.0
 40
2.0
 40
3.0
 40
3.0
 40
3.0
 40
4.0
 40
4.0
 40
4.0
 40
4.0
 10
117.8257106910297
 20
-156.2164767404597
 30
0.0
 10
117.8257106910297
 20
-156.2164767404597
 30
0.0
 10
117.6141818282353
 20
-156.2164767404597
 30
0.0
 10
117.6141818282353
 20
-156.2164767404597
 30
0.0
 10
117.6141818282353
 20
-156.2164767404597
 30
0.0
 10
117.6141818282353
 20
-156.419392864541
 30
0.0
 10
117.6141818282353
 20
-156.419392864541
 30
0.0
 10
117.6141818282353
 20
-156.419392864541
 30
0.0
 10
117.8257106910297
 20
-156.419392864541
 30
0.0
 10
117.8257106910297
 20
-156.419392864541
 30
0.0
 10
117.8257106910297
 20
-156.419392864541
 30
0.0
 10
117.8257106910297
 20
-156.2164767404597
 30
0.0
 10
117.8257106910297
 20
-156.2164767404597
 30
0.0
  0
SPLINE
  5
14F
330
147
100
AcDbEntity
  8
レイヤー 1
100
AcDbSpline
210
0.0
220
0.0
230
1.0
 70
    11
 71
     3
 72
    17
 73
    13
 74
     0
 42
0.0000000001
 43
0.0000000001
 40
0.0
 40
0.0
 40
0.0
 40
0.0
 40
1.0
 40
1.0
 40
1.0
 40
2.0
 40
2.0
 40
2.0
 40
3.0
 40
3.0
 40
3.0
 40
4.0
 40
4.0
 40
4.0
 40
4.0
 10
117.4594970409476
 20
-156.5423827733644
 30
0.0
 10
117.4594970409476
 20
-156.5423827733644
 30
0.0
 10
117.2524468022841
 20
-156.5423827733644
 30
0.0
 10
117.2524468022841
 20
-156.5423827733644
 30
0.0
 10
117.2524468022841
 20
-156.5423827733644
 30
0.0
 10
117.2524468022841
 20
-156.7494330120279
 30
0.0
 10
117.2524468022841
 20
-156.7494330120279
 30
0.0
 10
117.2524468022841
 20
-156.7494330120279
 30
0.0
 10
117.4594970409476
 20
-156.7494330120279
 30
0.0
 10
117.4594970409476
 20
-156.7494330120279
 30
0.0
 10
117.4594970409476
 20
-156.7494330120279
 30
0.0
 10
117.4594970409476
 20
-156.5423827733644
 30
0.0
 10
117.4594970409476
 20
-156.5423827733644
 30
0.0
  0
SPLINE
  5
150
330
147
100
AcDbEntity
  8
レイヤー 1
100
AcDbSpline
210
0.0
220
0.0
230
1.0
 70
    11
 71
     3
 72
    17
 73
    13
 74
     0
 42
0.0000000001
 43
0.0000000001
 40
0.0
 40
0.0
 40
0.0
 40
0.0
 40
1.0
 40
1.0
 40
1.0
 40
2.0
 40
2.0
 40
2.0
 40
3.0
 40
3.0
 40
3.0
 40
4.0
 40
4.0
 40
4.0
 40
4.0
 10
117.4594970409476
 20
-156.2164767404597
 30
0.0
 10
117.4594970409476
 20
-156.2164767404597
 30
0.0
 10
117.2524468022841
 20
-156.2164767404597
 30
0.0
 10
117.2524468022841
 20
-156.2164767404597
 30
0.0
 10
117.2524468022841
 20
-156.2164767404597
 30
0.0
 10
117.2524468022841
 20
-156.419392864541
 30
0.0
 10
117.2524468022841
 20
-156.419392864541
 30
0.0
 10
117.2524468022841
 20
-156.419392864541
 30
0.0
 10
117.4594970409476
 20
-156.419392864541
 30
0.0
 10
117.4594970409476
 20
-156.419392864541
 30
0.0
 10
117.4594970409476
 20
-156.419392864541
 30
0.0
 10
117.4594970409476
 20
-156.2164767404597
 30
0.0
 10
117.4594970409476
 20
-156.2164767404597
 30
0.0
  0
SPLINE
  5
151
330
147
100
AcDbEntity
  8
レイヤー 1
100
AcDbSpline
210
0.0
220
0.0
230
1.0
 70
    11
 71
     3
 72
    89
 73
    85
 74
     0
 42
0.0000000001
 43
0.0000000001
 40
0.0
 40
0.0
 40
0.0
 40
0.0
 40
1.0
 40
1.0
 40
1.0
 40
2.0
 40
2.0
 40
2.0
 40
3.0
 40
3.0
 40
3.0
 40
4.0
 40
4.0
 40
4.0
 40
5.0
 40
5.0
 40
5.0
 40
6.0
 40
6.0
 40
6.0
 40
7.0
 40
7.0
 40
7.0
 40
8.0
 40
8.0
 40
8.0
 40
9.0
 40
9.0
 40
9.0
 40
10.0
 40
10.0
 40
10.0
 40
11.0
 40
11.0
 40
11.0
 40
12.0
 40
12.0
 40
12.0
 40
13.0
 40
13.0
 40
13.0
 40
14.0
 40
14.0
 40
14.0
 40
15.0
 40
15.0
 40
15.0
 40
16.0
 40
16.0
 40
16.0
 40
17.0
 40
17.0
 40
17.0
 40
18.0
 40
18.0
 40
18.0
 40
19.0
 40
19.0
 40
19.0
 40
20.0
 40
20.0
 40
20.0
 40
21.0
 40
21.0
 40
21.0
 40
22.0
 40
22.0
 40
22.0
 40
23.0
 40
23.0
 40
23.0
 40
24.0
 40
24.0
 40
24.0
 40
25.0
 40
25.0
 40
25.0
 40
26.0
 40
26.0
 40
26.0
 40
27.0
 40
27.0
 40
27.0
 40
28.0
 40
28.0
 40
28.0
 40
28.0
 10
117.4594970409476
 20
-155.7679253082802
 30
0.0
 10
117.4594970409476
 20
-155.7679253082802
 30
0.0
 10
117.4594970409476
 20
-155.607039349119
 30
0.0
 10
117.4594970409476
 20
-155.607039349119
 30
0.0
 10
117.4594970409476
 20
-155.607039349119
 30
0.0
 10
117.6141818282353
 20
-155.607039349119
 30
0.0
 10
117.6141818282353
 20
-155.607039349119
 30
0.0
 10
117.6141818282353
 20
-155.607039349119
 30
0.0
 10
117.6141818282353
 20
-155.7679253082802
 30
0.0
 10
117.6141818282353
 20
-155.7679253082802
 30
0.0
 10
117.6141818282353
 20
-155.7679253082802
 30
0.0
 10
118.0076117326509
 20
-155.7679253082802
 30
0.0
 10
118.0076117326509
 20
-155.7679253082802
 30
0.0
 10
118.0076117326509
 20
-155.7679253082802
 30
0.0
 10
118.0076117326509
 20
-155.9222655860194
 30
0.0
 10
118.0076117326509
 20
-155.9222655860194
 30
0.0
 10
118.0076117326509
 20
-155.9222655860194
 30
0.0
 10
117.6141818282353
 20
-155.9222655860194
 30
0.0
 10
117.6141818282353
 20
-155.9222655860194
 30
0.0
 10
117.6141818282353
 20
-155.9222655860194
 30
0.0
 10
117.6141818282353
 20
-156.0769503733071
 30
0.0
 10
117.6141818282353
 20
-156.0769503733071
 30
0.0
 10
117.6141818282353
 20
-156.0769503733071
 30
0.0
 10
117.9693711727646
 20
-156.0769503733071
 30
0.0
 10
117.9693711727646
 20
-156.0769503733071
 30
0.0
 10
117.9693711727646
 20
-156.0769503733071
 30
0.0
 10
117.9693711727646
 20
-156.889303888729
 30
0.0
 10
117.9693711727646
 20
-156.889303888729
 30
0.0
 10
117.9693711727646
 20
-156.889303888729
 30
0.0
 10
117.6141818282353
 20
-156.889303888729
 30
0.0
 10
117.6141818282353
 20
-156.889303888729
 30
0.0
 10
117.6141818282353
 20
-156.889303888729
 30
0.0
 10
117.6141818282353
 20
-157.0584580770548
 30
0.0
 10
117.6141818282353
 20
-157.0584580770548
 30
0.0
 10
117.6141818282353
 20
-157.0584580770548
 30
0.0
 10
118.0224256432374
 20
-157.0584580770548
 30
0.0
 10
118.0224256432374
 20
-157.0584580770548
 30
0.0
 10
118.0224256432374
 20
-157.0584580770548
 30
0.0
 10
118.0224256432374
 20
-157.212798354794
 30
0.0
 10
118.0224256432374
 20
-157.212798354794
 30
0.0
 10
118.0224256432374
 20
-157.212798354794
 30
0.0
 10
117.6141818282353
 20
-157.212798354794
 30
0.0
 10
117.6141818282353
 20
-157.212798354794
 30
0.0
 10
117.6141818282353
 20
-157.212798354794
 30
0.0
 10
117.6141818282353
 20
-157.5662651515806
 30
0.0
 10
117.6141818282353
 20
-157.5662651515806
 30
0.0
 10
117.6141818282353
 20
-157.5662651515806
 30
0.0
 10
117.4594970409476
 20
-157.5662651515806
 30
0.0
 10
117.4594970409476
 20
-157.5662651515806
 30
0.0
 10
117.4594970409476
 20
-157.5662651515806
 30
0.0
 10
117.4594970409476
 20
-157.212798354794
 30
0.0
 10
117.4594970409476
 20
-157.212798354794
 30
0.0
 10
117.4594970409476
 20
-157.212798354794
 30
0.0
 10
117.0491861686544
 20
-157.212798354794
 30
0.0
 10
117.0491861686544
 20
-157.212798354794
 30
0.0
 10
117.0491861686544
 20
-157.212798354794
 30
0.0
 10
117.0491861686544
 20
-157.0584580770548
 30
0.0
 10
117.0491861686544
 20
-157.0584580770548
 30
0.0
 10
117.0491861686544
 20
-157.0584580770548
 30
0.0
 10
117.4594970409476
 20
-157.0584580770548
 30
0.0
 10
117.4594970409476
 20
-157.0584580770548
 30
0.0
 10
117.4594970409476
 20
-157.0584580770548
 30
0.0
 10
117.4594970409476
 20
-156.889303888729
 30
0.0
 10
117.4594970409476
 20
-156.889303888729
 30
0.0
 10
117.4594970409476
 20
-156.889303888729
 30
0.0
 10
117.1105088682918
 20
-156.889303888729
 30
0.0
 10
117.1105088682918
 20
-156.889303888729
 30
0.0
 10
117.1105088682918
 20
-156.889303888729
 30
0.0
 10
117.1105088682918
 20
-156.0769503733071
 30
0.0
 10
117.1105088682918
 20
-156.0769503733071
 30
0.0
 10
117.1105088682918
 20
-156.0769503733071
 30
0.0
 10
117.4594970409476
 20
-156.0769503733071
 30
0.0
 10
117.4594970409476
 20
-156.0769503733071
 30
0.0
 10
117.4594970409476
 20
-156.0769503733071
 30
0.0
 10
117.4594970409476
 20
-155.9222655860194
 30
0.0
 10
117.4594970409476
 20
-155.9222655860194
 30
0.0
 10
117.4594970409476
 20
-155.9222655860194
 30
0.0
 10
117.0702012511144
 20
-155.9222655860194
 30
0.0
 10
117.0702012511144
 20
-155.9222655860194
 30
0.0
 10
117.0702012511144
 20
-155.9222655860194
 30
0.0
 10
117.0702012511144
 20
-155.7679253082802
 30
0.0
 10
117.0702012511144
 20
-155.7679253082802
 30
0.0
 10
117.0702012511144
 20
-155.7679253082802
 30
0.0
 10
117.4594970409476
 20
-155.7679253082802
 30
0.0
 10
117.4594970409476
 20
-155.7679253082802
 30
0.0
  0
HATCH
  5
152
330
147
100
AcDbEntity
  8
レイヤー 1
 62
    12
420
 15007762
440
 33554687
100
AcDbHatch
 10
0.0
 20
0.0
 30
0.0
210
0.0
220
0.0
230
1.0
  2
SOLID
 70
     1
 71
     1
 91
        7
 92
        1
 93
        1
 72
     4
 94
        3
 73
     0
 74
     0
 95
       38
 96
       34
 40
0.0
 40
0.0
 40
0.0
 40
0.0
 40
1.0
 40
1.0
 40
1.0
 40
2.0
 40
2.0
 40
2.0
 40
3.0
 40
3.0
 40
3.0
 40
4.0
 40
4.0
 40
4.0
 40
5.0
 40
5.0
 40
5.0
 40
6.0
 40
6.0
 40
6.0
 40
7.0
 40
7.0
 40
7.0
 40
8.0
 40
8.0
 40
8.0
 40
9.0
 40
9.0
 40
9.0
 40
10.0
 40
10.0
 40
10.0
 40
11.0
 40
11.0
 40
11.0
 40
11.0
 10
117.98211802606
 20
-156.3580701649035
 10
118.0751356041618
 20
-156.2354247656286
 10
118.2001925702763
 20
-156.0555907812986
 10
118.2952772056692
 20
-155.607039349119
 10
118.2952772056692
 20
-155.607039349119
 10
118.4623643367038
 20
-155.6263318838365
 10
118.4623643367038
 20
-155.6263318838365
 10
118.436870630113
 20
-155.7469102258202
 10
118.4137884903618
 20
-155.8378607466308
 10
118.3755479304755
 20
-155.9456922353191
 10
118.3755479304755
 20
-155.9456922353191
 10
119.0039333469851
 20
-155.9456922353191
 10
119.0039333469851
 20
-155.9456922353191
 10
119.0039333469851
 20
-155.9456922353191
 10
119.0039333469851
 20
-156.0979654557672
 10
119.0039333469851
 20
-156.0979654557672
 10
118.9701714112297
 20
-156.2399033897594
 10
118.8747422662882
 20
-156.4979410416047
 10
118.8006727133554
 20
-156.6164523262973
 10
118.8006727133554
 20
-156.6164523262973
 10
118.6483994929073
 20
-156.5379041492336
 10
118.6483994929073
 20
-156.5379041492336
 10
118.7438286378487
 20
-156.4025118966632
 10
118.8092854520685
 20
-156.2144096831686
 10
118.8368462159505
 20
-156.1041666276406
 10
118.8368462159505
 20
-156.1041666276406
 10
118.3183593454204
 20
-156.1041666276406
 10
118.3183593454204
 20
-156.1041666276406
 10
118.2191405954452
 20
-156.3456678211566
 10
118.1450710425123
 20
-156.4342067751275
 10
118.1068304826261
 20
-156.4786485068873
 10
118.1068304826261
 20
-156.4786485068873
 10
117.98211802606
 20
-156.3580701649035
 10
117.98211802606
 20
-156.3580701649035
 97
        0
 97
        1
330
14B
 92
        1
 93
        1
 72
     4
 94
        3
 73
     0
 74
     0
 95
       38
 96
       34
 40
0.0
 40
0.0
 40
0.0
 40
0.0
 40
1.0
 40
1.0
 40
1.0
 40
2.0
 40
2.0
 40
2.0
 40
3.0
 40
3.0
 40
3.0
 40
4.0
 40
4.0
 40
4.0
 40
5.0
 40
5.0
 40
5.0
 40
6.0
 40
6.0
 40
6.0
 40
7.0
 40
7.0
 40
7.0
 40
8.0
 40
8.0
 40
8.0
 40
9.0
 40
9.0
 40
9.0
 40
10.0
 40
10.0
 40
10.0
 40
11.0
 40
11.0
 40
11.0
 40
11.0
 10
117.8677408559497
 20
-157.4308728990103
 10
117.9504231475957
 20
-157.3778184285375
 10
118.1154432213392
 20
-157.2699869398492
 10
118.2212076527363
 20
-157.0625921916371
 10
118.3693467586021
 20
-156.7707926040364
 10
118.3693467586021
 20
-156.5444498306555
 10
118.3693467586021
 20
-156.4597004817184
 10
118.3693467586021
 20
-156.4597004817184
 10
118.3693467586021
 20
-156.2250894791729
 10
118.3693467586021
 20
-156.2250894791729
 10
118.3693467586021
 20
-156.2250894791729
 10
118.5343668323456
 20
-156.2250894791729
 10
118.5343668323456
 20
-156.2250894791729
 10
118.5343668323456
 20
-156.2250894791729
 10
118.5343668323456
 20
-156.4514322525538
 10
118.5343668323456
 20
-156.4514322525538
 10
118.5343668323456
 20
-156.6502142620527
 10
118.5998236465653
 20
-156.8872368314379
 10
118.7014539633802
 20
-157.060525134346
 10
118.8178981907816
 20
-157.2593071438449
 10
118.94674476193
 20
-157.3588704033686
 10
119.0314941108671
 20
-157.420193103006
 10
119.0314941108671
 20
-157.420193103006
 10
118.9236626221788
 20
-157.5703992661629
 10
118.9236626221788
 20
-157.5703992661629
 10
118.7458956951399
 20
-157.441208185466
 10
118.547113685641
 20
-157.2021185587897
 10
118.4685655085773
 20
-156.8489962715516
 10
118.4031086943575
 20
-157.0880858982279
 10
118.3014783775427
 20
-157.3568033460774
 10
117.9927978220643
 20
-157.5662651515806
 10
117.9927978220643
 20
-157.5662651515806
 10
117.8677408559497
 20
-157.4308728990103
 10
117.8677408559497
 20
-157.4308728990103
 97
        0
 97
        1
330
14C
 92
        1
 93
        1
 72
     4
 94
        3
 73
     0
 74
     0
 95
       17
 96
       13
 40
0.0
 40
0.0
 40
0.0
 40
0.0
 40
1.0
 40
1.0
 40
1.0
 40
2.0
 40
2.0
 40
2.0
 40
3.0
 40
3.0
 40
3.0
 40
4.0
 40
4.0
 40
4.0
 40
4.0
 10
117.8257106910297
 20
-156.5423827733644
 10
117.8257106910297
 20
-156.5423827733644
 10
117.6141818282353
 20
-156.5423827733644
 10
117.6141818282353
 20
-156.5423827733644
 10
117.6141818282353
 20
-156.5423827733644
 10
117.6141818282353
 20
-156.7494330120279
 10
117.6141818282353
 20
-156.7494330120279
 10
117.6141818282353
 20
-156.7494330120279
 10
117.8257106910297
 20
-156.7494330120279
 10
117.8257106910297
 20
-156.7494330120279
 10
117.8257106910297
 20
-156.7494330120279
 10
117.8257106910297
 20
-156.5423827733644
 10
117.8257106910297
 20
-156.5423827733644
 97
        0
 97
        1
330
14D
 92
        1
 93
        1
 72
     4
 94
        3
 73
     0
 74
     0
 95
       17
 96
       13
 40
0.0
 40
0.0
 40
0.0
 40
0.0
 40
1.0
 40
1.0
 40
1.0
 40
2.0
 40
2.0
 40
2.0
 40
3.0
 40
3.0
 40
3.0
 40
4.0
 40
4.0
 40
4.0
 40
4.0
 10
117.8257106910297
 20
-156.2164767404597
 10
117.8257106910297
 20
-156.2164767404597
 10
117.6141818282353
 20
-156.2164767404597
 10
117.6141818282353
 20
-156.2164767404597
 10
117.6141818282353
 20
-156.2164767404597
 10
117.6141818282353
 20
-156.419392864541
 10
117.6141818282353
 20
-156.419392864541
 10
117.6141818282353
 20
-156.419392864541
 10
117.8257106910297
 20
-156.419392864541
 10
117.8257106910297
 20
-156.419392864541
 10
117.8257106910297
 20
-156.419392864541
 10
117.8257106910297
 20
-156.2164767404597
 10
117.8257106910297
 20
-156.2164767404597
 97
        0
 97
        1
330
14E
 92
        1
 93
        1
 72
     4
 94
        3
 73
     0
 74
     0
 95
       17
 96
       13
 40
0.0
 40
0.0
 40
0.0
 40
0.0
 40
1.0
 40
1.0
 40
1.0
 40
2.0
 40
2.0
 40
2.0
 40
3.0
 40
3.0
 40
3.0
 40
4.0
 40
4.0
 40
4.0
 40
4.0
 10
117.4594970409476
 20
-156.5423827733644
 10
117.4594970409476
 20
-156.5423827733644
 10
117.2524468022841
 20
-156.5423827733644
 10
117.2524468022841
 20
-156.5423827733644
 10
117.2524468022841
 20
-156.5423827733644
 10
117.2524468022841
 20
-156.7494330120279
 10
117.2524468022841
 20
-156.7494330120279
 10
117.2524468022841
 20
-156.7494330120279
 10
117.4594970409476
 20
-156.7494330120279
 10
117.4594970409476
 20
-156.7494330120279
 10
117.4594970409476
 20
-156.7494330120279
 10
117.4594970409476
 20
-156.5423827733644
 10
117.4594970409476
 20
-156.5423827733644
 97
        0
 97
        1
330
14F
 92
        1
 93
        1
 72
     4
 94
        3
 73
     0
 74
     0
 95
       17
 96
       13
 40
0.0
 40
0.0
 40
0.0
 40
0.0
 40
1.0
 40
1.0
 40
1.0
 40
2.0
 40
2.0
 40
2.0
 40
3.0
 40
3.0
 40
3.0
 40
4.0
 40
4.0
 40
4.0
 40
4.0
 10
117.4594970409476
 20
-156.2164767404597
 10
117.4594970409476
 20
-156.2164767404597
 10
117.2524468022841
 20
-156.2164767404597
 10
117.2524468022841
 20
-156.2164767404597
 10
117.2524468022841
 20
-156.2164767404597
 10
117.2524468022841
 20
-156.419392864541
 10
117.2524468022841
 20
-156.419392864541
 10
117.2524468022841
 20
-156.419392864541
 10
117.4594970409476
 20
-156.419392864541
 10
117.4594970409476
 20
-156.419392864541
 10
117.4594970409476
 20
-156.419392864541
 10
117.4594970409476
 20
-156.2164767404597
 10
117.4594970409476
 20
-156.2164767404597
 97
        0
 97
        1
330
150
 92
        1
 93
        1
 72
     4
 94
        3
 73
     0
 74
     0
 95
       89
 96
       85
 40
0.0
 40
0.0
 40
0.0
 40
0.0
 40
1.0
 40
1.0
 40
1.0
 40
2.0
 40
2.0
 40
2.0
 40
3.0
 40
3.0
 40
3.0
 40
4.0
 40
4.0
 40
4.0
 40
5.0
 40
5.0
 40
5.0
 40
6.0
 40
6.0
 40
6.0
 40
7.0
 40
7.0
 40
7.0
 40
8.0
 40
8.0
 40
8.0
 40
9.0
 40
9.0
 40
9.0
 40
10.0
 40
10.0
 40
10.0
 40
11.0
 40
11.0
 40
11.0
 40
12.0
 40
12.0
 40
12.0
 40
13.0
 40
13.0
 40
13.0
 40
14.0
 40
14.0
 40
14.0
 40
15.0
 40
15.0
 40
15.0
 40
16.0
 40
16.0
 40
16.0
 40
17.0
 40
17.0
 40
17.0
 40
18.0
 40
18.0
 40
18.0
 40
19.0
 40
19.0
 40
19.0
 40
20.0
 40
20.0
 40
20.0
 40
21.0
 40
21.0
 40
21.0
 40
22.0
 40
22.0
 40
22.0
 40
23.0
 40
23.0
 40
23.0
 40
24.0
 40
24.0
 40
24.0
 40
25.0
 40
25.0
 40
25.0
 40
26.0
 40
26.0
 40
26.0
 40
27.0
 40
27.0
 40
27.0
 40
28.0
 40
28.0
 40
28.0
 40
28.0
 10
117.4594970409476
 20
-155.7679253082802
 10
117.4594970409476
 20
-155.7679253082802
 10
117.4594970409476
 20
-155.607039349119
 10
117.4594970409476
 20
-155.607039349119
 10
117.4594970409476
 20
-155.607039349119
 10
117.6141818282353
 20
-155.607039349119
 10
117.6141818282353
 20
-155.607039349119
 10
117.6141818282353
 20
-155.607039349119
 10
117.6141818282353
 20
-155.7679253082802
 10
117.6141818282353
 20
-155.7679253082802
 10
117.6141818282353
 20
-155.7679253082802
 10
118.0076117326509
 20
-155.7679253082802
 10
118.0076117326509
 20
-155.7679253082802
 10
118.0076117326509
 20
-155.7679253082802
 10
118.0076117326509
 20
-155.9222655860194
 10
118.0076117326509
 20
-155.9222655860194
 10
118.0076117326509
 20
-155.9222655860194
 10
117.6141818282353
 20
-155.9222655860194
 10
117.6141818282353
 20
-155.9222655860194
 10
117.6141818282353
 20
-155.9222655860194
 10
117.6141818282353
 20
-156.0769503733071
 10
117.6141818282353
 20
-156.0769503733071
 10
117.6141818282353
 20
-156.0769503733071
 10
117.9693711727646
 20
-156.0769503733071
 10
117.9693711727646
 20
-156.0769503733071
 10
117.9693711727646
 20
-156.0769503733071
 10
117.9693711727646
 20
-156.889303888729
 10
117.9693711727646
 20
-156.889303888729
 10
117.9693711727646
 20
-156.889303888729
 10
117.6141818282353
 20
-156.889303888729
 10
117.6141818282353
 20
-156.889303888729
 10
117.6141818282353
 20
-156.889303888729
 10
117.6141818282353
 20
-157.0584580770548
 10
117.6141818282353
 20
-157.0584580770548
 10
117.6141818282353
 20
-157.0584580770548
 10
118.0224256432374
 20
-157.0584580770548
 10
118.0224256432374
 20
-157.0584580770548
 10
118.0224256432374
 20
-157.0584580770548
 10
118.0224256432374
 20
-157.212798354794
 10
118.0224256432374
 20
-157.212798354794
 10
118.0224256432374
 20
-157.212798354794
 10
117.6141818282353
 20
-157.212798354794
 10
117.6141818282353
 20
-157.212798354794
 10
117.6141818282353
 20
-157.212798354794
 10
117.6141818282353
 20
-157.5662651515806
 10
117.6141818282353
 20
-157.5662651515806
 10
117.6141818282353
 20
-157.5662651515806
 10
117.4594970409476
 20
-157.5662651515806
 10
117.4594970409476
 20
-157.5662651515806
 10
117.4594970409476
 20
-157.5662651515806
 10
117.4594970409476
 20
-157.212798354794
 10
117.4594970409476
 20
-157.212798354794
 10
117.4594970409476
 20
-157.212798354794
 10
117.0491861686544
 20
-157.212798354794
 10
117.0491861686544
 20
-157.212798354794
 10
117.0491861686544
 20
-157.212798354794
 10
117.0491861686544
 20
-157.0584580770548
 10
117.0491861686544
 20
-157.0584580770548
 10
117.0491861686544
 20
-157.0584580770548
 10
117.4594970409476
 20
-157.0584580770548
 10
117.4594970409476
 20
-157.0584580770548
 10
117.4594970409476
 20
-157.0584580770548
 10
117.4594970409476
 20
-156.889303888729
 10
117.4594970409476
 20
-156.889303888729
 10
117.4594970409476
 20
-156.889303888729
 10
117.1105088682918
 20
-156.889303888729
 10
117.1105088682918
 20
-156.889303888729
 10
117.1105088682918
 20
-156.889303888729
 10
117.1105088682918
 20
-156.0769503733071
 10
117.1105088682918
 20
-156.0769503733071
 10
117.1105088682918
 20
-156.0769503733071
 10
117.4594970409476
 20
-156.0769503733071
 10
117.4594970409476
 20
-156.0769503733071
 10
117.4594970409476
 20
-156.0769503733071
 10
117.4594970409476
 20
-155.9222655860194
 10
117.4594970409476
 20
-155.9222655860194
 10
117.4594970409476
 20
-155.9222655860194
 10
117.0702012511144
 20
-155.9222655860194
 10
117.0702012511144
 20
-155.9222655860194
 10
117.0702012511144
 20
-155.9222655860194
 10
117.0702012511144
 20
-155.7679253082802
 10
117.0702012511144
 20
-155.7679253082802
 10
117.0702012511144
 20
-155.7679253082802
 10
117.4594970409476
 20
-155.7679253082802
 10
117.4594970409476
 20
-155.7679253082802
 97
        0
 97
        1
330
151
 75
     2
 76
     1
 98
        1
 10
0.0
 20
0.0
450
        0
451
        0
460
0.0
461
0.0
452
        0
462
0.0
453
        0
470

  0
SPLINE
  5
153
330
147
100
AcDbEntity
  8
レイヤー 1
100
AcDbSpline
210
0.0
220
0.0
230
1.0
 70
     9
 71
     3
 72
    17
 73
    13
 74
     0
 42
0.0000000001
 43
0.0000000001
 40
0.0
 40
0.0
 40
0.0
 40
0.0
 40
1.0
 40
1.0
 40
1.0
 40
2.0
 40
2.0
 40
2.0
 40
3.0
 40
3.0
 40
3.0
 40
4.0
 40
4.0
 40
4.0
 40
4.0
 10
120.4966932207439
 20
-157.2572400865538
 30
0.0
 10
120.7164903127028
 20
-157.3695501993729
 30
0.0
 10
120.9831407032611
 20
-157.4074462497106
 30
0.0
 10
121.1119872744095
 20
-157.4181260457149
 30
0.0
 10
121.1119872744095
 20
-157.4181260457149
 30
0.0
 10
121.0423963456074
 20
-157.5724663234541
 30
0.0
 10
121.0423963456074
 20
-157.5724663234541
 30
0.0
 10
120.9218180036237
 20
-157.5576524128675
 30
0.0
 10
120.6593017276477
 20
-157.5173447956901
 30
0.0
 10
120.395062903929
 20
-157.371617256664
 30
0.0
 10
120.395062903929
 20
-157.371617256664
 30
0.0
 10
120.4966932207439
 20
-157.2572400865538
 30
0.0
 10
120.4966932207439
 20
-157.2572400865538
 30
0.0
  0
SPLINE
  5
154
330
147
100
AcDbEntity
  8
レイヤー 1
100
AcDbSpline
210
0.0
220
0.0
230
1.0
 70
    11
 71
     3
 72
    50
 73
    46
 74
     0
 42
0.0000000001
 43
0.0000000001
 40
0.0
 40
0.0
 40
0.0
 40
0.0
 40
1.0
 40
1.0
 40
1.0
 40
2.0
 40
2.0
 40
2.0
 40
3.0
 40
3.0
 40
3.0
 40
4.0
 40
4.0
 40
4.0
 40
5.0
 40
5.0
 40
5.0
 40
6.0
 40
6.0
 40
6.0
 40
7.0
 40
7.0
 40
7.0
 40
8.0
 40
8.0
 40
8.0
 40
9.0
 40
9.0
 40
9.0
 40
10.0
 40
10.0
 40
10.0
 40
11.0
 40
11.0
 40
11.0
 40
12.0
 40
12.0
 40
12.0
 40
13.0
 40
13.0
 40
13.0
 40
14.0
 40
14.0
 40
14.0
 40
15.0
 40
15.0
 40
15.0
 40
15.0
 10
120.3843831079247
 20
-155.9053846181417
 30
0.0
 10
120.3843831079247
 20
-155.9053846181417
 30
0.0
 10
121.1206000131226
 20
-155.9053846181417
 30
0.0
 10
121.1206000131226
 20
-155.9053846181417
 30
0.0
 10
121.1206000131226
 20
-155.9053846181417
 30
0.0
 10
121.1206000131226
 20
-156.0304415842563
 30
0.0
 10
121.1206000131226
 20
-156.0304415842563
 30
0.0
 10
121.1206000131226
 20
-156.0304415842563
 30
0.0
 10
120.7905598656357
 20
-156.0304415842563
 30
0.0
 10
120.7905598656357
 20
-156.0304415842563
 30
0.0
 10
120.7905598656357
 20
-156.0304415842563
 30
0.0
 10
120.7905598656357
 20
-156.3053602039792
 30
0.0
 10
120.7905598656357
 20
-156.3053602039792
 30
0.0
 10
120.7905598656357
 20
-156.3053602039792
 30
0.0
 10
120.6341525306053
 20
-156.3053602039792
 30
0.0
 10
120.6341525306053
 20
-156.3053602039792
 30
0.0
 10
120.6341525306053
 20
-156.3053602039792
 30
0.0
 10
120.6341525306053
 20
-156.0304415842563
 30
0.0
 10
120.6341525306053
 20
-156.0304415842563
 30
0.0
 10
120.6341525306053
 20
-156.0304415842563
 30
0.0
 10
120.3695691973381
 20
-156.0304415842563
 30
0.0
 10
120.3695691973381
 20
-156.0304415842563
 30
0.0
 10
120.3440754907473
 20
-156.1592881554046
 30
0.0
 10
120.2934325871141
 20
-156.2502386762152
 30
0.0
 10
120.1962808944301
 20
-156.3329209678612
 30
0.0
 10
120.1962808944301
 20
-156.3329209678612
 30
0.0
 10
120.0732909856067
 20
-156.2250894791729
 30
0.0
 10
120.0732909856067
 20
-156.2250894791729
 30
0.0
 10
120.208683238177
 20
-156.1148464236449
 30
0.0
 10
120.2321098874767
 20
-155.9773871137834
 30
0.0
 10
120.2321098874767
 20
-155.9033175608505
 30
0.0
 10
120.2321098874767
 20
-155.9033175608505
 30
0.0
 10
120.2321098874767
 20
-155.6600938195919
 30
0.0
 10
120.2321098874767
 20
-155.6600938195919
 30
0.0
 10
120.7016764021162
 20
-155.6600938195919
 30
0.0
 10
120.8687635331509
 20
-155.6197862024145
 30
0.0
 10
121.0127685244343
 20
-155.5774115279459
 30
0.0
 10
121.0127685244343
 20
-155.5774115279459
 30
0.0
 10
121.0720241667806
 20
-155.7152153473559
 30
0.0
 10
121.0720241667806
 20
-155.7152153473559
 30
0.0
 10
120.80123966164
 20
-155.784806276158
 30
0.0
 10
120.4860134247396
 20
-155.7892849002888
 30
0.0
 10
120.3843831079247
 20
-155.7892849002888
 30
0.0
 10
120.3843831079247
 20
-155.7892849002888
 30
0.0
 10
120.3843831079247
 20
-155.9053846181417
 30
0.0
 10
120.3843831079247
 20
-155.9053846181417
 30
0.0
  0
SPLINE
  5
155
330
147
100
AcDbEntity
  8
レイヤー 1
100
AcDbSpline
210
0.0
220
0.0
230
1.0
 70
    11
 71
     3
 72
    17
 73
    13
 74
     0
 42
0.0000000001
 43
0.0000000001
 40
0.0
 40
0.0
 40
0.0
 40
0.0
 40
1.0
 40
1.0
 40
1.0
 40
2.0
 40
2.0
 40
2.0
 40
3.0
 40
3.0
 40
3.0
 40
4.0
 40
4.0
 40
4.0
 40
4.0
 10
120.7206244272851
 20
-156.9757757854088
 30
0.0
 10
120.7206244272851
 20
-156.9757757854088
 30
0.0
 10
119.5613497964985
 20
-156.9757757854088
 30
0.0
 10
119.5613497964985
 20
-156.9757757854088
 30
0.0
 10
119.5613497964985
 20
-156.9757757854088
 30
0.0
 10
119.5613497964985
 20
-157.11564666211
 30
0.0
 10
119.5613497964985
 20
-157.11564666211
 30
0.0
 10
119.5613497964985
 20
-157.11564666211
 30
0.0
 10
120.7206244272851
 20
-157.11564666211
 30
0.0
 10
120.7206244272851
 20
-157.11564666211
 30
0.0
 10
120.7206244272851
 20
-157.11564666211
 30
0.0
 10
120.7206244272851
 20
-156.9757757854088
 30
0.0
 10
120.7206244272851
 20
-156.9757757854088
 30
0.0
  0
SPLINE
  5
156
330
147
100
AcDbEntity
  8
レイヤー 1
100
AcDbSpline
210
0.0
220
0.0
230
1.0
 70
    11
 71
     3
 72
    17
 73
    13
 74
     0
 42
0.0000000001
 43
0.0000000001
 40
0.0
 40
0.0
 40
0.0
 40
0.0
 40
1.0
 40
1.0
 40
1.0
 40
2.0
 40
2.0
 40
2.0
 40
3.0
 40
3.0
 40
3.0
 40
4.0
 40
4.0
 40
4.0
 40
4.0
 10
120.7206244272851
 20
-156.7242838149856
 30
0.0
 10
120.7206244272851
 20
-156.7242838149856
 30
0.0
 10
119.5613497964985
 20
-156.7242838149856
 30
0.0
 10
119.5613497964985
 20
-156.7242838149856
 30
0.0
 10
119.5613497964985
 20
-156.7242838149856
 30
0.0
 10
119.5613497964985
 20
-156.8658772394293
 30
0.0
 10
119.5613497964985
 20
-156.8658772394293
 30
0.0
 10
119.5613497964985
 20
-156.8658772394293
 30
0.0
 10
120.7206244272851
 20
-156.8658772394293
 30
0.0
 10
120.7206244272851
 20
-156.8658772394293
 30
0.0
 10
120.7206244272851
 20
-156.8658772394293
 30
0.0
 10
120.7206244272851
 20
-156.7242838149856
 30
0.0
 10
120.7206244272851
 20
-156.7242838149856
 30
0.0
  0
SPLINE
  5
157
330
147
100
AcDbEntity
  8
レイヤー 1
100
AcDbSpline
210
0.0
220
0.0
230
1.0
 70
    11
 71
     3
 72
    17
 73
    13
 74
     0
 42
0.0000000001
 43
0.0000000001
 40
0.0
 40
0.0
 40
0.0
 40
0.0
 40
1.0
 40
1.0
 40
1.0
 40
2.0
 40
2.0
 40
2.0
 40
3.0
 40
3.0
 40
3.0
 40
4.0
 40
4.0
 40
4.0
 40
4.0
 10
120.7206244272851
 20
-156.4851941883092
 30
0.0
 10
120.7206244272851
 20
-156.4851941883092
 30
0.0
 10
119.5613497964985
 20
-156.4851941883092
 30
0.0
 10
119.5613497964985
 20
-156.4851941883092
 30
0.0
 10
119.5613497964985
 20
-156.4851941883092
 30
0.0
 10
119.5613497964985
 20
-156.6140407594576
 30
0.0
 10
119.5613497964985
 20
-156.6140407594576
 30
0.0
 10
119.5613497964985
 20
-156.6140407594576
 30
0.0
 10
120.7206244272851
 20
-156.6140407594576
 30
0.0
 10
120.7206244272851
 20
-156.6140407594576
 30
0.0
 10
120.7206244272851
 20
-156.6140407594576
 30
0.0
 10
120.7206244272851
 20
-156.4851941883092
 30
0.0
 10
120.7206244272851
 20
-156.4851941883092
 30
0.0
  0
SPLINE
  5
158
330
147
100
AcDbEntity
  8
レイヤー 1
100
AcDbSpline
210
0.0
220
0.0
230
1.0
 70
    11
 71
     3
 72
    32
 73
    28
 74
     0
 42
0.0000000001
 43
0.0000000001
 40
0.0
 40
0.0
 40
0.0
 40
0.0
 40
1.0
 40
1.0
 40
1.0
 40
2.0
 40
2.0
 40
2.0
 40
3.0
 40
3.0
 40
3.0
 40
4.0
 40
4.0
 40
4.0
 40
5.0
 40
5.0
 40
5.0
 40
6.0
 40
6.0
 40
6.0
 40
7.0
 40
7.0
 40
7.0
 40
8.0
 40
8.0
 40
8.0
 40
9.0
 40
9.0
 40
9.0
 40
9.0
 10
119.3921956081728
 20
-157.2510389146803
 30
0.0
 10
119.3921956081728
 20
-157.2510389146803
 30
0.0
 10
119.3921956081728
 20
-156.3518689930301
 30
0.0
 10
119.3921956081728
 20
-156.3518689930301
 30
0.0
 10
119.3921956081728
 20
-156.3518689930301
 30
0.0
 10
120.8901231251594
 20
-156.3518689930301
 30
0.0
 10
120.8901231251594
 20
-156.3518689930301
 30
0.0
 10
120.8901231251594
 20
-156.3518689930301
 30
0.0
 10
120.8901231251594
 20
-157.2510389146803
 30
0.0
 10
120.8901231251594
 20
-157.2510389146803
 30
0.0
 10
120.8901231251594
 20
-157.2510389146803
 30
0.0
 10
119.7456624049594
 20
-157.2510389146803
 30
0.0
 10
119.7456624049594
 20
-157.2510389146803
 30
0.0
 10
119.7456624049594
 20
-157.2510389146803
 30
0.0
 10
119.8514268363566
 20
-157.3609374606597
 30
0.0
 10
119.8514268363566
 20
-157.3609374606597
 30
0.0
 10
119.6864067626131
 20
-157.4560220960526
 30
0.0
 10
119.5213866888696
 20
-157.5173447956901
 30
0.0
 10
119.2251084771382
 20
-157.5683322088718
 30
0.0
 10
119.2251084771382
 20
-157.5683322088718
 30
0.0
 10
119.1596516629184
 20
-157.4160589884237
 30
0.0
 10
119.1596516629184
 20
-157.4160589884237
 30
0.0
 10
119.5382676567473
 20
-157.3630045179509
 30
0.0
 10
119.6609130560223
 20
-157.29548064644
 30
0.0
 10
119.7411837808286
 20
-157.2510389146803
 30
0.0
 10
119.7411837808286
 20
-157.2510389146803
 30
0.0
 10
119.3921956081728
 20
-157.2510389146803
 30
0.0
 10
119.3921956081728
 20
-157.2510389146803
 30
0.0
  0
SPLINE
  5
159
330
147
100
AcDbEntity
  8
レイヤー 1
100
AcDbSpline
210
0.0
220
0.0
230
1.0
 70
    11
 71
     3
 72
    50
 73
    46
 74
     0
 42
0.0000000001
 43
0.0000000001
 40
0.0
 40
0.0
 40
0.0
 40
0.0
 40
1.0
 40
1.0
 40
1.0
 40
2.0
 40
2.0
 40
2.0
 40
3.0
 40
3.0
 40
3.0
 40
4.0
 40
4.0
 40
4.0
 40
5.0
 40
5.0
 40
5.0
 40
6.0
 40
6.0
 40
6.0
 40
7.0
 40
7.0
 40
7.0
 40
8.0
 40
8.0
 40
8.0
 40
9.0
 40
9.0
 40
9.0
 40
10.0
 40
10.0
 40
10.0
 40
11.0
 40
11.0
 40
11.0
 40
12.0
 40
12.0
 40
12.0
 40
13.0
 40
13.0
 40
13.0
 40
14.0
 40
14.0
 40
14.0
 40
15.0
 40
15.0
 40
15.0
 40
15.0
 10
119.4769449571099
 20
-155.9053846181417
 30
0.0
 10
119.4769449571099
 20
-155.9053846181417
 30
0.0
 10
120.1284125133706
 20
-155.9053846181417
 30
0.0
 10
120.1284125133706
 20
-155.9053846181417
 30
0.0
 10
120.1284125133706
 20
-155.9053846181417
 30
0.0
 10
120.1284125133706
 20
-156.0304415842563
 30
0.0
 10
120.1284125133706
 20
-156.0304415842563
 30
0.0
 10
120.1284125133706
 20
-156.0304415842563
 30
0.0
 10
119.8514268363566
 20
-156.0304415842563
 30
0.0
 10
119.8514268363566
 20
-156.0304415842563
 30
0.0
 10
119.8514268363566
 20
-156.0304415842563
 30
0.0
 10
119.8514268363566
 20
-156.3053602039792
 30
0.0
 10
119.8514268363566
 20
-156.3053602039792
 30
0.0
 10
119.8514268363566
 20
-156.3053602039792
 30
0.0
 10
119.6905408771954
 20
-156.3053602039792
 30
0.0
 10
119.6905408771954
 20
-156.3053602039792
 30
0.0
 10
119.6905408771954
 20
-156.3053602039792
 30
0.0
 10
119.6905408771954
 20
-156.0304415842563
 30
0.0
 10
119.6905408771954
 20
-156.0304415842563
 30
0.0
 10
119.6905408771954
 20
-156.0304415842563
 30
0.0
 10
119.4703992756879
 20
-156.0304415842563
 30
0.0
 10
119.4703992756879
 20
-156.0304415842563
 30
0.0
 10
119.4600639892322
 20
-156.1000325130583
 30
0.0
 10
119.4345702826413
 20
-156.2946804079749
 30
0.0
 10
119.2802300049021
 20
-156.4448865711318
 30
0.0
 10
119.2802300049021
 20
-156.4448865711318
 30
0.0
 10
119.1575846056273
 20
-156.3349880251523
 30
0.0
 10
119.1575846056273
 20
-156.3349880251523
 30
0.0
 10
119.278162947611
 20
-156.2354247656286
 30
0.0
 10
119.3201931125311
 20
-156.0304415842563
 30
0.0
 10
119.3201931125311
 20
-155.9477592926103
 30
0.0
 10
119.3201931125311
 20
-155.9477592926103
 30
0.0
 10
119.3201931125311
 20
-155.662160876883
 30
0.0
 10
119.3201931125311
 20
-155.662160876883
 30
0.0
 10
119.8049180473057
 20
-155.662160876883
 30
0.0
 10
119.9592583250449
 20
-155.6156520878322
 30
0.0
 10
120.0543429604378
 20
-155.5880913239502
 30
0.0
 10
120.0543429604378
 20
-155.5880913239502
 30
0.0
 10
120.1073974309106
 20
-155.7276176911028
 30
0.0
 10
120.1073974309106
 20
-155.7276176911028
 30
0.0
 10
119.8979356254074
 20
-155.7765380469934
 30
0.0
 10
119.7349826089551
 20
-155.7868733334491
 30
0.0
 10
119.4769449571099
 20
-155.7913519575799
 30
0.0
 10
119.4769449571099
 20
-155.7913519575799
 30
0.0
 10
119.4769449571099
 20
-155.9053846181417
 30
0.0
 10
119.4769449571099
 20
-155.9053846181417
 30
0.0
  0
HATCH
  5
15A
330
147
100
AcDbEntity
  8
レイヤー 1
 62
    12
420
 15007762
440
 33554687
100
AcDbHatch
 10
0.0
 20
0.0
 30
0.0
210
0.0
220
0.0
230
1.0
  2
SOLID
 70
     1
 71
     1
 91
        7
 92
        1
 93
        1
 72
     4
 94
        3
 73
     0
 74
     0
 95
       17
 96
       13
 40
0.0
 40
0.0
 40
0.0
 40
0.0
 40
1.0
 40
1.0
 40
1.0
 40
2.0
 40
2.0
 40
2.0
 40
3.0
 40
3.0
 40
3.0
 40
4.0
 40
4.0
 40
4.0
 40
4.0
 10
120.4966932207439
 20
-157.2572400865538
 10
120.7164903127028
 20
-157.3695501993729
 10
120.9831407032611
 20
-157.4074462497106
 10
121.1119872744095
 20
-157.4181260457149
 10
121.1119872744095
 20
-157.4181260457149
 10
121.0423963456074
 20
-157.5724663234541
 10
121.0423963456074
 20
-157.5724663234541
 10
120.9218180036237
 20
-157.5576524128675
 10
120.6593017276477
 20
-157.5173447956901
 10
120.395062903929
 20
-157.371617256664
 10
120.395062903929
 20
-157.371617256664
 10
120.4966932207439
 20
-157.2572400865538
 10
120.4966932207439
 20
-157.2572400865538
 97
        0
 97
        1
330
153
 92
        1
 93
        1
 72
     4
 94
        3
 73
     0
 74
     0
 95
       50
 96
       46
 40
0.0
 40
0.0
 40
0.0
 40
0.0
 40
1.0
 40
1.0
 40
1.0
 40
2.0
 40
2.0
 40
2.0
 40
3.0
 40
3.0
 40
3.0
 40
4.0
 40
4.0
 40
4.0
 40
5.0
 40
5.0
 40
5.0
 40
6.0
 40
6.0
 40
6.0
 40
7.0
 40
7.0
 40
7.0
 40
8.0
 40
8.0
 40
8.0
 40
9.0
 40
9.0
 40
9.0
 40
10.0
 40
10.0
 40
10.0
 40
11.0
 40
11.0
 40
11.0
 40
12.0
 40
12.0
 40
12.0
 40
13.0
 40
13.0
 40
13.0
 40
14.0
 40
14.0
 40
14.0
 40
15.0
 40
15.0
 40
15.0
 40
15.0
 10
120.3843831079247
 20
-155.9053846181417
 10
120.3843831079247
 20
-155.9053846181417
 10
121.1206000131226
 20
-155.9053846181417
 10
121.1206000131226
 20
-155.9053846181417
 10
121.1206000131226
 20
-155.9053846181417
 10
121.1206000131226
 20
-156.0304415842563
 10
121.1206000131226
 20
-156.0304415842563
 10
121.1206000131226
 20
-156.0304415842563
 10
120.7905598656357
 20
-156.0304415842563
 10
120.7905598656357
 20
-156.0304415842563
 10
120.7905598656357
 20
-156.0304415842563
 10
120.7905598656357
 20
-156.3053602039792
 10
120.7905598656357
 20
-156.3053602039792
 10
120.7905598656357
 20
-156.3053602039792
 10
120.6341525306053
 20
-156.3053602039792
 10
120.6341525306053
 20
-156.3053602039792
 10
120.6341525306053
 20
-156.3053602039792
 10
120.6341525306053
 20
-156.0304415842563
 10
120.6341525306053
 20
-156.0304415842563
 10
120.6341525306053
 20
-156.0304415842563
 10
120.3695691973381
 20
-156.0304415842563
 10
120.3695691973381
 20
-156.0304415842563
 10
120.3440754907473
 20
-156.1592881554046
 10
120.2934325871141
 20
-156.2502386762152
 10
120.1962808944301
 20
-156.3329209678612
 10
120.1962808944301
 20
-156.3329209678612
 10
120.0732909856067
 20
-156.2250894791729
 10
120.0732909856067
 20
-156.2250894791729
 10
120.208683238177
 20
-156.1148464236449
 10
120.2321098874767
 20
-155.9773871137834
 10
120.2321098874767
 20
-155.9033175608505
 10
120.2321098874767
 20
-155.9033175608505
 10
120.2321098874767
 20
-155.6600938195919
 10
120.2321098874767
 20
-155.6600938195919
 10
120.7016764021162
 20
-155.6600938195919
 10
120.8687635331509
 20
-155.6197862024145
 10
121.0127685244343
 20
-155.5774115279459
 10
121.0127685244343
 20
-155.5774115279459
 10
121.0720241667806
 20
-155.7152153473559
 10
121.0720241667806
 20
-155.7152153473559
 10
120.80123966164
 20
-155.784806276158
 10
120.4860134247396
 20
-155.7892849002888
 10
120.3843831079247
 20
-155.7892849002888
 10
120.3843831079247
 20
-155.7892849002888
 10
120.3843831079247
 20
-155.9053846181417
 10
120.3843831079247
 20
-155.9053846181417
 97
        0
 97
        1
330
154
 92
        1
 93
        1
 72
     4
 94
        3
 73
     0
 74
     0
 95
       17
 96
       13
 40
0.0
 40
0.0
 40
0.0
 40
0.0
 40
1.0
 40
1.0
 40
1.0
 40
2.0
 40
2.0
 40
2.0
 40
3.0
 40
3.0
 40
3.0
 40
4.0
 40
4.0
 40
4.0
 40
4.0
 10
120.7206244272851
 20
-156.9757757854088
 10
120.7206244272851
 20
-156.9757757854088
 10
119.5613497964985
 20
-156.9757757854088
 10
119.5613497964985
 20
-156.9757757854088
 10
119.5613497964985
 20
-156.9757757854088
 10
119.5613497964985
 20
-157.11564666211
 10
119.5613497964985
 20
-157.11564666211
 10
119.5613497964985
 20
-157.11564666211
 10
120.7206244272851
 20
-157.11564666211
 10
120.7206244272851
 20
-157.11564666211
 10
120.7206244272851
 20
-157.11564666211
 10
120.7206244272851
 20
-156.9757757854088
 10
120.7206244272851
 20
-156.9757757854088
 97
        0
 97
        1
330
155
 92
        1
 93
        1
 72
     4
 94
        3
 73
     0
 74
     0
 95
       17
 96
       13
 40
0.0
 40
0.0
 40
0.0
 40
0.0
 40
1.0
 40
1.0
 40
1.0
 40
2.0
 40
2.0
 40
2.0
 40
3.0
 40
3.0
 40
3.0
 40
4.0
 40
4.0
 40
4.0
 40
4.0
 10
120.7206244272851
 20
-156.7242838149856
 10
120.7206244272851
 20
-156.7242838149856
 10
119.5613497964985
 20
-156.7242838149856
 10
119.5613497964985
 20
-156.7242838149856
 10
119.5613497964985
 20
-156.7242838149856
 10
119.5613497964985
 20
-156.8658772394293
 10
119.5613497964985
 20
-156.8658772394293
 10
119.5613497964985
 20
-156.8658772394293
 10
120.7206244272851
 20
-156.8658772394293
 10
120.7206244272851
 20
-156.8658772394293
 10
120.7206244272851
 20
-156.8658772394293
 10
120.7206244272851
 20
-156.7242838149856
 10
120.7206244272851
 20
-156.7242838149856
 97
        0
 97
        1
330
156
 92
        1
 93
        1
 72
     4
 94
        3
 73
     0
 74
     0
 95
       17
 96
       13
 40
0.0
 40
0.0
 40
0.0
 40
0.0
 40
1.0
 40
1.0
 40
1.0
 40
2.0
 40
2.0
 40
2.0
 40
3.0
 40
3.0
 40
3.0
 40
4.0
 40
4.0
 40
4.0
 40
4.0
 10
120.7206244272851
 20
-156.4851941883092
 10
120.7206244272851
 20
-156.4851941883092
 10
119.5613497964985
 20
-156.4851941883092
 10
119.5613497964985
 20
-156.4851941883092
 10
119.5613497964985
 20
-156.4851941883092
 10
119.5613497964985
 20
-156.6140407594576
 10
119.5613497964985
 20
-156.6140407594576
 10
119.5613497964985
 20
-156.6140407594576
 10
120.7206244272851
 20
-156.6140407594576
 10
120.7206244272851
 20
-156.6140407594576
 10
120.7206244272851
 20
-156.6140407594576
 10
120.7206244272851
 20
-156.4851941883092
 10
120.7206244272851
 20
-156.4851941883092
 97
        0
 97
        1
330
157
 92
        1
 93
        1
 72
     4
 94
        3
 73
     0
 74
     0
 95
       32
 96
       28
 40
0.0
 40
0.0
 40
0.0
 40
0.0
 40
1.0
 40
1.0
 40
1.0
 40
2.0
 40
2.0
 40
2.0
 40
3.0
 40
3.0
 40
3.0
 40
4.0
 40
4.0
 40
4.0
 40
5.0
 40
5.0
 40
5.0
 40
6.0
 40
6.0
 40
6.0
 40
7.0
 40
7.0
 40
7.0
 40
8.0
 40
8.0
 40
8.0
 40
9.0
 40
9.0
 40
9.0
 40
9.0
 10
119.3921956081728
 20
-157.2510389146803
 10
119.3921956081728
 20
-157.2510389146803
 10
119.3921956081728
 20
-156.3518689930301
 10
119.3921956081728
 20
-156.3518689930301
 10
119.3921956081728
 20
-156.3518689930301
 10
120.8901231251594
 20
-156.3518689930301
 10
120.8901231251594
 20
-156.3518689930301
 10
120.8901231251594
 20
-156.3518689930301
 10
120.8901231251594
 20
-157.2510389146803
 10
120.8901231251594
 20
-157.2510389146803
 10
120.8901231251594
 20
-157.2510389146803
 10
119.7456624049594
 20
-157.2510389146803
 10
119.7456624049594
 20
-157.2510389146803
 10
119.7456624049594
 20
-157.2510389146803
 10
119.8514268363566
 20
-157.3609374606597
 10
119.8514268363566
 20
-157.3609374606597
 10
119.6864067626131
 20
-157.4560220960526
 10
119.5213866888696
 20
-157.5173447956901
 10
119.2251084771382
 20
-157.5683322088718
 10
119.2251084771382
 20
-157.5683322088718
 10
119.1596516629184
 20
-157.4160589884237
 10
119.1596516629184
 20
-157.4160589884237
 10
119.5382676567473
 20
-157.3630045179509
 10
119.6609130560223
 20
-157.29548064644
 10
119.7411837808286
 20
-157.2510389146803
 10
119.7411837808286
 20
-157.2510389146803
 10
119.3921956081728
 20
-157.2510389146803
 10
119.3921956081728
 20
-157.2510389146803
 97
        0
 97
        1
330
158
 92
        1
 93
        1
 72
     4
 94
        3
 73
     0
 74
     0
 95
       50
 96
       46
 40
0.0
 40
0.0
 40
0.0
 40
0.0
 40
1.0
 40
1.0
 40
1.0
 40
2.0
 40
2.0
 40
2.0
 40
3.0
 40
3.0
 40
3.0
 40
4.0
 40
4.0
 40
4.0
 40
5.0
 40
5.0
 40
5.0
 40
6.0
 40
6.0
 40
6.0
 40
7.0
 40
7.0
 40
7.0
 40
8.0
 40
8.0
 40
8.0
 40
9.0
 40
9.0
 40
9.0
 40
10.0
 40
10.0
 40
10.0
 40
11.0
 40
11.0
 40
11.0
 40
12.0
 40
12.0
 40
12.0
 40
13.0
 40
13.0
 40
13.0
 40
14.0
 40
14.0
 40
14.0
 40
15.0
 40
15.0
 40
15.0
 40
15.0
 10
119.4769449571099
 20
-155.9053846181417
 10
119.4769449571099
 20
-155.9053846181417
 10
120.1284125133706
 20
-155.9053846181417
 10
120.1284125133706
 20
-155.9053846181417
 10
120.1284125133706
 20
-155.9053846181417
 10
120.1284125133706
 20
-156.0304415842563
 10
120.1284125133706
 20
-156.0304415842563
 10
120.1284125133706
 20
-156.0304415842563
 10
119.8514268363566
 20
-156.0304415842563
 10
119.8514268363566
 20
-156.0304415842563
 10
119.8514268363566
 20
-156.0304415842563
 10
119.8514268363566
 20
-156.3053602039792
 10
119.8514268363566
 20
-156.3053602039792
 10
119.8514268363566
 20
-156.3053602039792
 10
119.6905408771954
 20
-156.3053602039792
 10
119.6905408771954
 20
-156.3053602039792
 10
119.6905408771954
 20
-156.3053602039792
 10
119.6905408771954
 20
-156.0304415842563
 10
119.6905408771954
 20
-156.0304415842563
 10
119.6905408771954
 20
-156.0304415842563
 10
119.4703992756879
 20
-156.0304415842563
 10
119.4703992756879
 20
-156.0304415842563
 10
119.4600639892322
 20
-156.1000325130583
 10
119.4345702826413
 20
-156.2946804079749
 10
119.2802300049021
 20
-156.4448865711318
 10
119.2802300049021
 20
-156.4448865711318
 10
119.1575846056273
 20
-156.3349880251523
 10
119.1575846056273
 20
-156.3349880251523
 10
119.278162947611
 20
-156.2354247656286
 10
119.3201931125311
 20
-156.0304415842563
 10
119.3201931125311
 20
-155.9477592926103
 10
119.3201931125311
 20
-155.9477592926103
 10
119.3201931125311
 20
-155.662160876883
 10
119.3201931125311
 20
-155.662160876883
 10
119.8049180473057
 20
-155.662160876883
 10
119.9592583250449
 20
-155.6156520878322
 10
120.0543429604378
 20
-155.5880913239502
 10
120.0543429604378
 20
-155.5880913239502
 10
120.1073974309106
 20
-155.7276176911028
 10
120.1073974309106
 20
-155.7276176911028
 10
119.8979356254074
 20
-155.7765380469934
 10
119.7349826089551
 20
-155.7868733334491
 10
119.4769449571099
 20
-155.7913519575799
 10
119.4769449571099
 20
-155.7913519575799
 10
119.4769449571099
 20
-155.9053846181417
 10
119.4769449571099
 20
-155.9053846181417
 97
        0
 97
        1
330
159
 75
     2
 76
     1
 98
        1
 10
0.0
 20
0.0
450
        0
451
        0
460
0.0
461
0.0
452
        0
462
0.0
453
        0
470

  0
ENDBLK
  5
14A
330
147
100
AcDbEntity
  8
0
100
AcDbBlockEnd
  0
BLOCK
  5
15E
330
15C
100
AcDbEntity
  8
0
100
AcDbBlockBegin
  2
Block_15
 70
     0
 10
0.0
 20
0.0
 30
0.0
  3
Block_15
  1

  0
INSERT
  5
161
330
15C
100
AcDbEntity
  8
レイヤー 1
100
AcDbBlockReference
  2
Block_16
 10
0.0
 20
0.0
 30
0.0
  0
ENDBLK
  5
15F
330
15C
100
AcDbEntity
  8
0
100
AcDbBlockEnd
  0
BLOCK
  5
162
330
160
100
AcDbEntity
  8
0
100
AcDbBlockBegin
  2
Block_16
 70
     0
 10
0.0
 20
0.0
 30
0.0
  3
Block_16
  1

  0
SPLINE
  5
164
330
160
100
AcDbEntity
  8
レイヤー 1
100
AcDbSpline
210
0.0
220
0.0
230
1.0
 70
     9
 71
     3
 72
    59
 73
    55
 74
     0
 42
0.0000000001
 43
0.0000000001
 40
0.0
 40
0.0
 40
0.0
 40
0.0
 40
1.0
 40
1.0
 40
1.0
 40
2.0
 40
2.0
 40
2.0
 40
3.0
 40
3.0
 40
3.0
 40
4.0
 40
4.0
 40
4.0
 40
5.0
 40
5.0
 40
5.0
 40
6.0
 40
6.0
 40
6.0
 40
7.0
 40
7.0
 40
7.0
 40
8.0
 40
8.0
 40
8.0
 40
9.0
 40
9.0
 40
9.0
 40
10.0
 40
10.0
 40
10.0
 40
11.0
 40
11.0
 40
11.0
 40
12.0
 40
12.0
 40
12.0
 40
13.0
 40
13.0
 40
13.0
 40
14.0
 40
14.0
 40
14.0
 40
15.0
 40
15.0
 40
15.0
 40
16.0
 40
16.0
 40
16.0
 40
17.0
 40
17.0
 40
17.0
 40
18.0
 40
18.0
 40
18.0
 40
18.0
 10
125.1830566093292
 20
-149.1898599887442
 30
0.0
 10
125.0369845607546
 20
-149.6763074712615
 30
0.0
 10
124.8185655069898
 20
-150.1989284563739
 30
0.0
 10
124.2942219741347
 20
-150.5162217505654
 30
0.0
 10
124.2942219741347
 20
-150.5162217505654
 30
0.0
 10
124.1295464099398
 20
-150.3639485301173
 30
0.0
 10
124.1295464099398
 20
-150.3639485301173
 30
0.0
 10
124.2704508152865
 20
-150.2940130917667
 30
0.0
 10
124.4850802640176
 20
-150.1841145457873
 30
0.0
 10
124.7055663750736
 20
-149.8540743983004
 30
0.0
 10
124.9129611232856
 20
-149.5409152186911
 30
0.0
 10
124.9629150078217
 20
-149.2849446241371
 30
0.0
 10
124.9870306762185
 20
-149.1581651102799
 30
0.0
 10
124.9870306762185
 20
-149.1581651102799
 30
0.0
 10
124.4203124688949
 20
-149.1581651102799
 30
0.0
 10
124.4203124688949
 20
-149.1581651102799
 30
0.0
 10
124.3297064576328
 20
-149.3187065598925
 30
0.0
 10
124.2239420262357
 20
-149.4857936909272
 30
0.0
 10
124.0554768570069
 20
-149.6573594460926
 30
0.0
 10
124.0554768570069
 20
-149.6573594460926
 30
0.0
 10
123.9035481461074
 20
-149.5347140468177
 30
0.0
 10
123.9035481461074
 20
-149.5347140468177
 30
0.0
 10
123.9555690879347
 20
-149.4882052577668
 30
0.0
 10
124.0851046781801
 20
-149.3758951449477
 30
0.0
 10
124.229454179012
 20
-149.1264702318156
 30
0.0
 10
124.2962890314259
 20
-149.007958947123
 30
0.0
 10
124.386895042688
 20
-148.838632504023
 30
0.0
 10
124.4092881633421
 20
-148.7159871047481
 30
0.0
 10
124.4092881633421
 20
-148.7159871047481
 30
0.0
 10
124.6111707587777
 20
-148.8174451667887
 30
0.0
 10
124.6111707587777
 20
-148.8174451667887
 30
0.0
 10
124.6239176120732
 20
-148.8238185934364
 30
0.0
 10
124.6370089749171
 20
-148.8322590773753
 30
0.0
 10
124.6370089749171
 20
-148.8470729879618
 30
0.0
 10
124.6370089749171
 20
-148.8682603251961
 30
0.0
 10
124.614615854263
 20
-148.8808349237173
 30
0.0
 10
124.607381153744
 20
-148.8829019810084
 30
0.0
 10
124.5832654853472
 20
-148.8915147197216
 30
0.0
 10
124.5760307848282
 20
-148.8894476624304
 30
0.0
 10
124.5536376641741
 20
-148.9145968594727
 30
0.0
 10
124.53124454352
 20
-148.9400905660636
 30
0.0
 10
124.5333116008111
 20
-148.9487033047767
 30
0.0
 10
124.5054063273806
 20
-149.001413265701
 30
0.0
 10
124.5054063273806
 20
-149.001413265701
 30
0.0
 10
124.7978949340783
 20
-149.001413265701
 30
0.0
 10
124.7978949340783
 20
-149.001413265701
 30
0.0
 10
125.022170650168
 20
-149.001413265701
 30
0.0
 10
125.0500759235986
 20
-148.9886664124056
 30
0.0
 10
125.1000298081347
 20
-148.9590385912324
 30
0.0
 10
125.1000298081347
 20
-148.9590385912324
 30
0.0
 10
125.2368000988991
 20
-149.1240586649759
 30
0.0
 10
125.2368000988991
 20
-149.1240586649759
 30
0.0
 10
125.207172277726
 20
-149.160232167571
 30
0.0
 10
125.2054497299833
 20
-149.1622992248622
 30
0.0
 10
125.1830566093292
 20
-149.1898599887442
 30
0.0
  0
HATCH
  5
165
330
160
100
AcDbEntity
  8
レイヤー 1
 62
   250
420
  2299925
440
 33554687
100
AcDbHatch
 10
0.0
 20
0.0
 30
0.0
210
0.0
220
0.0
230
1.0
  2
SOLID
 70
     1
 71
     1
 91
        1
 92
        1
 93
        1
 72
     4
 94
        3
 73
     0
 74
     0
 95
       59
 96
       55
 40
0.0
 40
0.0
 40
0.0
 40
0.0
 40
1.0
 40
1.0
 40
1.0
 40
2.0
 40
2.0
 40
2.0
 40
3.0
 40
3.0
 40
3.0
 40
4.0
 40
4.0
 40
4.0
 40
5.0
 40
5.0
 40
5.0
 40
6.0
 40
6.0
 40
6.0
 40
7.0
 40
7.0
 40
7.0
 40
8.0
 40
8.0
 40
8.0
 40
9.0
 40
9.0
 40
9.0
 40
10.0
 40
10.0
 40
10.0
 40
11.0
 40
11.0
 40
11.0
 40
12.0
 40
12.0
 40
12.0
 40
13.0
 40
13.0
 40
13.0
 40
14.0
 40
14.0
 40
14.0
 40
15.0
 40
15.0
 40
15.0
 40
16.0
 40
16.0
 40
16.0
 40
17.0
 40
17.0
 40
17.0
 40
18.0
 40
18.0
 40
18.0
 40
18.0
 10
125.1830566093292
 20
-149.1898599887442
 10
125.0369845607546
 20
-149.6763074712615
 10
124.8185655069898
 20
-150.1989284563739
 10
124.2942219741347
 20
-150.5162217505654
 10
124.2942219741347
 20
-150.5162217505654
 10
124.1295464099398
 20
-150.3639485301173
 10
124.1295464099398
 20
-150.3639485301173
 10
124.2704508152865
 20
-150.2940130917667
 10
124.4850802640176
 20
-150.1841145457873
 10
124.7055663750736
 20
-149.8540743983004
 10
124.9129611232856
 20
-149.5409152186911
 10
124.9629150078217
 20
-149.2849446241371
 10
124.9870306762185
 20
-149.1581651102799
 10
124.9870306762185
 20
-149.1581651102799
 10
124.4203124688949
 20
-149.1581651102799
 10
124.4203124688949
 20
-149.1581651102799
 10
124.3297064576328
 20
-149.3187065598925
 10
124.2239420262357
 20
-149.4857936909272
 10
124.0554768570069
 20
-149.6573594460926
 10
124.0554768570069
 20
-149.6573594460926
 10
123.9035481461074
 20
-149.5347140468177
 10
123.9035481461074
 20
-149.5347140468177
 10
123.9555690879347
 20
-149.4882052577668
 10
124.0851046781801
 20
-149.3758951449477
 10
124.229454179012
 20
-149.1264702318156
 10
124.2962890314259
 20
-149.007958947123
 10
124.386895042688
 20
-148.838632504023
 10
124.4092881633421
 20
-148.7159871047481
 10
124.4092881633421
 20
-148.7159871047481
 10
124.6111707587777
 20
-148.8174451667887
 10
124.6111707587777
 20
-148.8174451667887
 10
124.6239176120732
 20
-148.8238185934364
 10
124.6370089749171
 20
-148.8322590773753
 10
124.6370089749171
 20
-148.8470729879618
 10
124.6370089749171
 20
-148.8682603251961
 10
124.614615854263
 20
-148.8808349237173
 10
124.607381153744
 20
-148.8829019810084
 10
124.5832654853472
 20
-148.8915147197216
 10
124.5760307848282
 20
-148.8894476624304
 10
124.5536376641741
 20
-148.9145968594727
 10
124.53124454352
 20
-148.9400905660636
 10
124.5333116008111
 20
-148.9487033047767
 10
124.5054063273806
 20
-149.001413265701
 10
124.5054063273806
 20
-149.001413265701
 10
124.7978949340783
 20
-149.001413265701
 10
124.7978949340783
 20
-149.001413265701
 10
125.022170650168
 20
-149.001413265701
 10
125.0500759235986
 20
-148.9886664124056
 10
125.1000298081347
 20
-148.9590385912324
 10
125.1000298081347
 20
-148.9590385912324
 10
125.2368000988991
 20
-149.1240586649759
 10
125.2368000988991
 20
-149.1240586649759
 10
125.207172277726
 20
-149.160232167571
 10
125.2054497299833
 20
-149.1622992248622
 10
125.1830566093292
 20
-149.1898599887442
 97
        0
 97
        1
330
164
 75
     2
 76
     1
 98
        1
 10
0.0
 20
0.0
450
        0
451
        0
460
0.0
461
0.0
452
        0
462
0.0
453
        0
470

  0
SPLINE
  5
166
330
160
100
AcDbEntity
  8
レイヤー 1
100
AcDbSpline
210
0.0
220
0.0
230
1.0
 70
    11
 71
     3
 72
    17
 73
    13
 74
     0
 42
0.0000000001
 43
0.0000000001
 40
0.0
 40
0.0
 40
0.0
 40
0.0
 40
1.0
 40
1.0
 40
1.0
 40
2.0
 40
2.0
 40
2.0
 40
3.0
 40
3.0
 40
3.0
 40
4.0
 40
4.0
 40
4.0
 40
4.0
 10
126.6220729935181
 20
-149.0989094679336
 30
0.0
 10
126.6220729935181
 20
-149.0989094679336
 30
0.0
 10
125.7108452376695
 20
-149.0989094679336
 30
0.0
 10
125.7108452376695
 20
-149.0989094679336
 30
0.0
 10
125.7108452376695
 20
-149.0989094679336
 30
0.0
 10
125.7108452376695
 20
-149.9873995935795
 30
0.0
 10
125.7108452376695
 20
-149.9873995935795
 30
0.0
 10
125.7108452376695
 20
-149.9873995935795
 30
0.0
 10
126.6220729935181
 20
-149.9873995935795
 30
0.0
 10
126.6220729935181
 20
-149.9873995935795
 30
0.0
 10
126.6220729935181
 20
-149.9873995935795
 30
0.0
 10
126.6220729935181
 20
-149.0989094679336
 30
0.0
 10
126.6220729935181
 20
-149.0989094679336
 30
0.0
  0
SPLINE
  5
167
330
160
100
AcDbEntity
  8
レイヤー 1
100
AcDbSpline
210
0.0
220
0.0
230
1.0
 70
     9
 71
     3
 72
    53
 73
    49
 74
     0
 42
0.0000000001
 43
0.0000000001
 40
0.0
 40
0.0
 40
0.0
 40
0.0
 40
1.0
 40
1.0
 40
1.0
 40
2.0
 40
2.0
 40
2.0
 40
3.0
 40
3.0
 40
3.0
 40
4.0
 40
4.0
 40
4.0
 40
5.0
 40
5.0
 40
5.0
 40
6.0
 40
6.0
 40
6.0
 40
7.0
 40
7.0
 40
7.0
 40
8.0
 40
8.0
 40
8.0
 40
9.0
 40
9.0
 40
9.0
 40
10.0
 40
10.0
 40
10.0
 40
11.0
 40
11.0
 40
11.0
 40
12.0
 40
12.0
 40
12.0
 40
13.0
 40
13.0
 40
13.0
 40
14.0
 40
14.0
 40
14.0
 40
15.0
 40
15.0
 40
15.0
 40
16.0
 40
16.0
 40
16.0
 40
16.0
 10
126.6017469301551
 20
-150.3026258304799
 30
0.0
 10
126.6089816306741
 20
-150.2581840987202
 30
0.0
 10
126.6089816306741
 20
-150.249571360007
 30
0.0
 10
126.6144937834505
 20
-150.1755018070742
 30
0.0
 10
126.6144937834505
 20
-150.1755018070742
 30
0.0
 10
125.7129122949606
 20
-150.1755018070742
 30
0.0
 10
125.7129122949606
 20
-150.1755018070742
 30
0.0
 10
125.7129122949606
 20
-150.2071966855385
 30
0.0
 10
125.7129122949606
 20
-150.2623182133025
 30
0.0
 10
125.7163573904459
 20
-150.2981472063491
 30
0.0
 10
125.7163573904459
 20
-150.2981472063491
 30
0.0
 10
125.5055175467486
 20
-150.2981472063491
 30
0.0
 10
125.5055175467486
 20
-150.2981472063491
 30
0.0
 10
125.511029699525
 20
-150.2433701881336
 30
0.0
 10
125.5203314573352
 20
-150.152419667323
 30
0.0
 10
125.5203314573352
 20
-150.0232285866261
 30
0.0
 10
125.5220540050778
 20
-149.8182454052537
 30
0.0
 10
125.5220540050778
 20
-149.7948187559541
 30
0.0
 10
125.5220540050778
 20
-149.7713921066544
 30
0.0
 10
125.5220540050778
 20
-149.7713921066544
 30
0.0
 10
125.5220540050778
 20
-149.3314534131879
 30
0.0
 10
125.5220540050778
 20
-149.3314534131879
 30
0.0
 10
125.5220540050778
 20
-149.2659965989682
 30
0.0
 10
125.5165418523014
 20
-148.9421576233547
 30
0.0
 10
125.5127522472676
 20
-148.8873806051392
 30
0.0
 10
125.62196177415
 20
-148.8997829488862
 30
0.0
 10
125.8534721907588
 20
-148.904261573017
 30
0.0
 10
125.9685383799662
 20
-148.904261573017
 30
0.0
 10
125.9685383799662
 20
-148.904261573017
 30
0.0
 10
126.3664469085125
 20
-148.904261573017
 30
0.0
 10
126.3664469085125
 20
-148.904261573017
 30
0.0
 10
126.4980495560491
 20
-148.904261573017
 30
0.0
 10
126.6940754891598
 20
-148.9021945157258
 30
0.0
 10
126.8218885316626
 20
-148.8935817770127
 30
0.0
 10
126.8146538311435
 20
-149.0034803229922
 30
0.0
 10
126.8108642261098
 20
-149.2532497456728
 30
0.0
 10
126.8108642261098
 20
-149.3717610303654
 30
0.0
 10
126.8108642261098
 20
-149.3717610303654
 30
0.0
 10
126.8108642261098
 20
-149.7906846413718
 30
0.0
 10
126.8108642261098
 20
-149.7906846413718
 30
0.0
 10
126.8108642261098
 20
-149.8330593158403
 30
0.0
 10
126.8163763788862
 20
-150.0149603574615
 30
0.0
 10
126.8163763788862
 20
-150.0528564077993
 30
0.0
 10
126.8184434361773
 20
-150.2030625709562
 30
0.0
 10
126.8256781366963
 20
-150.2537054745893
 30
0.0
 10
126.8332573467639
 20
-150.3026258304799
 30
0.0
 10
126.8332573467639
 20
-150.3026258304799
 30
0.0
 10
126.6017469301551
 20
-150.3026258304799
 30
0.0
 10
126.6017469301551
 20
-150.3026258304799
 30
0.0
  0
HATCH
  5
168
330
160
100
AcDbEntity
  8
レイヤー 1
 62
   250
420
  2299925
440
 33554687
100
AcDbHatch
 10
0.0
 20
0.0
 30
0.0
210
0.0
220
0.0
230
1.0
  2
SOLID
 70
     1
 71
     1
 91
        2
 92
        1
 93
        1
 72
     4
 94
        3
 73
     0
 74
     0
 95
       17
 96
       13
 40
0.0
 40
0.0
 40
0.0
 40
0.0
 40
1.0
 40
1.0
 40
1.0
 40
2.0
 40
2.0
 40
2.0
 40
3.0
 40
3.0
 40
3.0
 40
4.0
 40
4.0
 40
4.0
 40
4.0
 10
126.6220729935181
 20
-149.0989094679336
 10
126.6220729935181
 20
-149.0989094679336
 10
125.7108452376695
 20
-149.0989094679336
 10
125.7108452376695
 20
-149.0989094679336
 10
125.7108452376695
 20
-149.0989094679336
 10
125.7108452376695
 20
-149.9873995935795
 10
125.7108452376695
 20
-149.9873995935795
 10
125.7108452376695
 20
-149.9873995935795
 10
126.6220729935181
 20
-149.9873995935795
 10
126.6220729935181
 20
-149.9873995935795
 10
126.6220729935181
 20
-149.9873995935795
 10
126.6220729935181
 20
-149.0989094679336
 10
126.6220729935181
 20
-149.0989094679336
 97
        0
 97
        1
330
166
 92
        1
 93
        1
 72
     4
 94
        3
 73
     0
 74
     0
 95
       53
 96
       49
 40
0.0
 40
0.0
 40
0.0
 40
0.0
 40
1.0
 40
1.0
 40
1.0
 40
2.0
 40
2.0
 40
2.0
 40
3.0
 40
3.0
 40
3.0
 40
4.0
 40
4.0
 40
4.0
 40
5.0
 40
5.0
 40
5.0
 40
6.0
 40
6.0
 40
6.0
 40
7.0
 40
7.0
 40
7.0
 40
8.0
 40
8.0
 40
8.0
 40
9.0
 40
9.0
 40
9.0
 40
10.0
 40
10.0
 40
10.0
 40
11.0
 40
11.0
 40
11.0
 40
12.0
 40
12.0
 40
12.0
 40
13.0
 40
13.0
 40
13.0
 40
14.0
 40
14.0
 40
14.0
 40
15.0
 40
15.0
 40
15.0
 40
16.0
 40
16.0
 40
16.0
 40
16.0
 10
126.6017469301551
 20
-150.3026258304799
 10
126.6089816306741
 20
-150.2581840987202
 10
126.6089816306741
 20
-150.249571360007
 10
126.6144937834505
 20
-150.1755018070742
 10
126.6144937834505
 20
-150.1755018070742
 10
125.7129122949606
 20
-150.1755018070742
 10
125.7129122949606
 20
-150.1755018070742
 10
125.7129122949606
 20
-150.2071966855385
 10
125.7129122949606
 20
-150.2623182133025
 10
125.7163573904459
 20
-150.2981472063491
 10
125.7163573904459
 20
-150.2981472063491
 10
125.5055175467486
 20
-150.2981472063491
 10
125.5055175467486
 20
-150.2981472063491
 10
125.511029699525
 20
-150.2433701881336
 10
125.5203314573352
 20
-150.152419667323
 10
125.5203314573352
 20
-150.0232285866261
 10
125.5220540050778
 20
-149.8182454052537
 10
125.5220540050778
 20
-149.7948187559541
 10
125.5220540050778
 20
-149.7713921066544
 10
125.5220540050778
 20
-149.7713921066544
 10
125.5220540050778
 20
-149.3314534131879
 10
125.5220540050778
 20
-149.3314534131879
 10
125.5220540050778
 20
-149.2659965989682
 10
125.5165418523014
 20
-148.9421576233547
 10
125.5127522472676
 20
-148.8873806051392
 10
125.62196177415
 20
-148.8997829488862
 10
125.8534721907588
 20
-148.904261573017
 10
125.9685383799662
 20
-148.904261573017
 10
125.9685383799662
 20
-148.904261573017
 10
126.3664469085125
 20
-148.904261573017
 10
126.3664469085125
 20
-148.904261573017
 10
126.4980495560491
 20
-148.904261573017
 10
126.6940754891598
 20
-148.9021945157258
 10
126.8218885316626
 20
-148.8935817770127
 10
126.8146538311435
 20
-149.0034803229922
 10
126.8108642261098
 20
-149.2532497456728
 10
126.8108642261098
 20
-149.3717610303654
 10
126.8108642261098
 20
-149.3717610303654
 10
126.8108642261098
 20
-149.7906846413718
 10
126.8108642261098
 20
-149.7906846413718
 10
126.8108642261098
 20
-149.8330593158403
 10
126.8163763788862
 20
-150.0149603574615
 10
126.8163763788862
 20
-150.0528564077993
 10
126.8184434361773
 20
-150.2030625709562
 10
126.8256781366963
 20
-150.2537054745893
 10
126.8332573467639
 20
-150.3026258304799
 10
126.8332573467639
 20
-150.3026258304799
 10
126.6017469301551
 20
-150.3026258304799
 10
126.6017469301551
 20
-150.3026258304799
 97
        0
 97
        1
330
167
 75
     2
 76
     1
 98
        1
 10
0.0
 20
0.0
450
        0
451
        0
460
0.0
461
0.0
452
        0
462
0.0
453
        0
470

  0
SPLINE
  5
169
330
160
100
AcDbEntity
  8
レイヤー 1
100
AcDbSpline
210
0.0
220
0.0
230
1.0
 70
     9
 71
     3
 72
    56
 73
    52
 74
     0
 42
0.0000000001
 43
0.0000000001
 40
0.0
 40
0.0
 40
0.0
 40
0.0
 40
1.0
 40
1.0
 40
1.0
 40
2.0
 40
2.0
 40
2.0
 40
3.0
 40
3.0
 40
3.0
 40
4.0
 40
4.0
 40
4.0
 40
5.0
 40
5.0
 40
5.0
 40
6.0
 40
6.0
 40
6.0
 40
7.0
 40
7.0
 40
7.0
 40
8.0
 40
8.0
 40
8.0
 40
9.0
 40
9.0
 40
9.0
 40
10.0
 40
10.0
 40
10.0
 40
11.0
 40
11.0
 40
11.0
 40
12.0
 40
12.0
 40
12.0
 40
13.0
 40
13.0
 40
13.0
 40
14.0
 40
14.0
 40
14.0
 40
15.0
 40
15.0
 40
15.0
 40
16.0
 40
16.0
 40
16.0
 40
17.0
 40
17.0
 40
17.0
 40
17.0
 10
128.3628797422148
 20
-150.3680826446996
 30
0.0
 10
128.1944145729861
 20
-150.0594020892212
 30
0.0
 10
127.9687608187022
 20
-149.8540743983004
 30
0.0
 10
127.8888346034444
 20
-149.7886175840806
 30
0.0
 10
127.6314859706963
 20
-150.1269259607321
 30
0.0
 10
127.3779269429819
 20
-150.2791991811802
 30
0.0
 10
127.2039496209768
 20
-150.3722167592819
 30
0.0
 10
127.2039496209768
 20
-150.3722167592819
 30
0.0
 10
127.0647677633727
 20
-150.1841145457873
 30
0.0
 10
127.0647677633727
 20
-150.1841145457873
 30
0.0
 10
127.1557182841833
 20
-150.1479410431922
 30
0.0
 10
127.3427869690323
 20
-150.0718044329682
 30
0.0
 10
127.5463921122106
 20
-149.8857692767647
 30
0.0
 10
127.7779025288194
 20
-149.6742404139703
 30
0.0
 10
127.9408555452717
 20
-149.386574940952
 30
0.0
 10
128.0483425244115
 20
-149.0734157613427
 30
0.0
 10
128.0483425244115
 20
-149.0734157613427
 30
0.0
 10
127.7186468864731
 20
-149.0734157613427
 30
0.0
 10
127.7186468864731
 20
-149.0734157613427
 30
0.0
 10
127.5853216911939
 20
-149.0734157613427
 30
0.0
 10
127.4020426113786
 20
-149.077549875925
 30
0.0
 10
127.2704399638421
 20
-149.0968424106424
 30
0.0
 10
127.2704399638421
 20
-149.0968424106424
 30
0.0
 10
127.2704399638421
 20
-148.8853135478481
 30
0.0
 10
127.2704399638421
 20
-148.8853135478481
 30
0.0
 10
127.3296956061884
 20
-148.8915147197216
 30
0.0
 10
127.5574164177634
 20
-148.9021945157258
 30
0.0
 10
127.6335530279874
 20
-148.9021945157258
 30
0.0
 10
127.6335530279874
 20
-148.9021945157258
 30
0.0
 10
127.9057155713222
 20
-148.9021945157258
 30
0.0
 10
127.9057155713222
 20
-148.9021945157258
 30
0.0
 10
128.0872721033949
 20
-148.9021945157258
 30
0.0
 10
128.1075981667578
 20
-148.8956488343038
 30
0.0
 10
128.1279242301208
 20
-148.8915147197216
 30
0.0
 10
128.1668538091041
 20
-148.8853135478481
 30
0.0
 10
128.1999267257625
 20
-148.8598198412572
 30
0.0
 10
128.2185302413829
 20
-148.8429388733795
 30
0.0
 10
128.2185302413829
 20
-148.8429388733795
 30
0.0
 10
128.3556450416958
 20
-149.0162271762876
 30
0.0
 10
128.3556450416958
 20
-149.0162271762876
 30
0.0
 10
128.3205050677462
 20
-149.0437879401696
 30
0.0
 10
128.3091362526449
 20
-149.0544677361739
 30
0.0
 10
128.2667615781763
 20
-149.0902967292205
 30
0.0
 10
128.1537624462601
 20
-149.3379990946099
 30
0.0
 10
128.0834824983611
 20
-149.4882052577668
 30
0.0
 10
127.9925319775505
 20
-149.6339327967929
 30
0.0
 10
128.2667615781763
 20
-149.8520073410092
 30
0.0
 10
128.4665771163208
 20
-150.1376057567364
 30
0.0
 10
128.5130859053717
 20
-150.2158094242516
 30
0.0
 10
128.5130859053717
 20
-150.2158094242516
 30
0.0
 10
128.3628797422148
 20
-150.3680826446996
 30
0.0
 10
128.3628797422148
 20
-150.3680826446996
 30
0.0
  0
HATCH
  5
16A
330
160
100
AcDbEntity
  8
レイヤー 1
 62
   250
420
  2299925
440
 33554687
100
AcDbHatch
 10
0.0
 20
0.0
 30
0.0
210
0.0
220
0.0
230
1.0
  2
SOLID
 70
     1
 71
     1
 91
        1
 92
        1
 93
        1
 72
     4
 94
        3
 73
     0
 74
     0
 95
       56
 96
       52
 40
0.0
 40
0.0
 40
0.0
 40
0.0
 40
1.0
 40
1.0
 40
1.0
 40
2.0
 40
2.0
 40
2.0
 40
3.0
 40
3.0
 40
3.0
 40
4.0
 40
4.0
 40
4.0
 40
5.0
 40
5.0
 40
5.0
 40
6.0
 40
6.0
 40
6.0
 40
7.0
 40
7.0
 40
7.0
 40
8.0
 40
8.0
 40
8.0
 40
9.0
 40
9.0
 40
9.0
 40
10.0
 40
10.0
 40
10.0
 40
11.0
 40
11.0
 40
11.0
 40
12.0
 40
12.0
 40
12.0
 40
13.0
 40
13.0
 40
13.0
 40
14.0
 40
14.0
 40
14.0
 40
15.0
 40
15.0
 40
15.0
 40
16.0
 40
16.0
 40
16.0
 40
17.0
 40
17.0
 40
17.0
 40
17.0
 10
128.3628797422148
 20
-150.3680826446996
 10
128.1944145729861
 20
-150.0594020892212
 10
127.9687608187022
 20
-149.8540743983004
 10
127.8888346034444
 20
-149.7886175840806
 10
127.6314859706963
 20
-150.1269259607321
 10
127.3779269429819
 20
-150.2791991811802
 10
127.2039496209768
 20
-150.3722167592819
 10
127.2039496209768
 20
-150.3722167592819
 10
127.0647677633727
 20
-150.1841145457873
 10
127.0647677633727
 20
-150.1841145457873
 10
127.1557182841833
 20
-150.1479410431922
 10
127.3427869690323
 20
-150.0718044329682
 10
127.5463921122106
 20
-149.8857692767647
 10
127.7779025288194
 20
-149.6742404139703
 10
127.9408555452717
 20
-149.386574940952
 10
128.0483425244115
 20
-149.0734157613427
 10
128.0483425244115
 20
-149.0734157613427
 10
127.7186468864731
 20
-149.0734157613427
 10
127.7186468864731
 20
-149.0734157613427
 10
127.5853216911939
 20
-149.0734157613427
 10
127.4020426113786
 20
-149.077549875925
 10
127.2704399638421
 20
-149.0968424106424
 10
127.2704399638421
 20
-149.0968424106424
 10
127.2704399638421
 20
-148.8853135478481
 10
127.2704399638421
 20
-148.8853135478481
 10
127.3296956061884
 20
-148.8915147197216
 10
127.5574164177634
 20
-148.9021945157258
 10
127.6335530279874
 20
-148.9021945157258
 10
127.6335530279874
 20
-148.9021945157258
 10
127.9057155713222
 20
-148.9021945157258
 10
127.9057155713222
 20
-148.9021945157258
 10
128.0872721033949
 20
-148.9021945157258
 10
128.1075981667578
 20
-148.8956488343038
 10
128.1279242301208
 20
-148.8915147197216
 10
128.1668538091041
 20
-148.8853135478481
 10
128.1999267257625
 20
-148.8598198412572
 10
128.2185302413829
 20
-148.8429388733795
 10
128.2185302413829
 20
-148.8429388733795
 10
128.3556450416958
 20
-149.0162271762876
 10
128.3556450416958
 20
-149.0162271762876
 10
128.3205050677462
 20
-149.0437879401696
 10
128.3091362526449
 20
-149.0544677361739
 10
128.2667615781763
 20
-149.0902967292205
 10
128.1537624462601
 20
-149.3379990946099
 10
128.0834824983611
 20
-149.4882052577668
 10
127.9925319775505
 20
-149.6339327967929
 10
128.2667615781763
 20
-149.8520073410092
 10
128.4665771163208
 20
-150.1376057567364
 10
128.5130859053717
 20
-150.2158094242516
 10
128.5130859053717
 20
-150.2158094242516
 10
128.3628797422148
 20
-150.3680826446996
 10
128.3628797422148
 20
-150.3680826446996
 97
        0
 97
        1
330
169
 75
     2
 76
     1
 98
        1
 10
0.0
 20
0.0
450
        0
451
        0
460
0.0
461
0.0
452
        0
462
0.0
453
        0
470

  0
SPLINE
  5
16B
330
160
100
AcDbEntity
  8
レイヤー 1
100
AcDbSpline
210
0.0
220
0.0
230
1.0
 70
    11
 71
     3
 72
    17
 73
    13
 74
     0
 42
0.0000000001
 43
0.0000000001
 40
0.0
 40
0.0
 40
0.0
 40
0.0
 40
1.0
 40
1.0
 40
1.0
 40
2.0
 40
2.0
 40
2.0
 40
3.0
 40
3.0
 40
3.0
 40
4.0
 40
4.0
 40
4.0
 40
4.0
 10
130.0113579319069
 20
-149.3907090555343
 30
0.0
 10
130.0113579319069
 20
-149.3907090555343
 30
0.0
 10
129.6096597983267
 20
-149.3907090555343
 30
0.0
 10
129.6096597983267
 20
-149.3907090555343
 30
0.0
 10
129.6096597983267
 20
-149.3907090555343
 30
0.0
 10
129.6096597983267
 20
-149.6997341205611
 30
0.0
 10
129.6096597983267
 20
-149.6997341205611
 30
0.0
 10
129.6096597983267
 20
-149.6997341205611
 30
0.0
 10
130.0113579319069
 20
-149.6997341205611
 30
0.0
 10
130.0113579319069
 20
-149.6997341205611
 30
0.0
 10
130.0113579319069
 20
-149.6997341205611
 30
0.0
 10
130.0113579319069
 20
-149.3907090555343
 30
0.0
 10
130.0113579319069
 20
-149.3907090555343
 30
0.0
  0
SPLINE
  5
16C
330
160
100
AcDbEntity
  8
レイヤー 1
100
AcDbSpline
210
0.0
220
0.0
230
1.0
 70
    11
 71
     3
 72
    17
 73
    13
 74
     0
 42
0.0000000001
 43
0.0000000001
 40
0.0
 40
0.0
 40
0.0
 40
0.0
 40
1.0
 40
1.0
 40
1.0
 40
2.0
 40
2.0
 40
2.0
 40
3.0
 40
3.0
 40
3.0
 40
4.0
 40
4.0
 40
4.0
 40
4.0
 10
130.0113579319069
 20
-148.9190754836035
 30
0.0
 10
130.0113579319069
 20
-148.9190754836035
 30
0.0
 10
129.6096597983267
 20
-148.9190754836035
 30
0.0
 10
129.6096597983267
 20
-148.9190754836035
 30
0.0
 10
129.6096597983267
 20
-148.9190754836035
 30
0.0
 10
129.6096597983267
 20
-149.2236219244996
 30
0.0
 10
129.6096597983267
 20
-149.2236219244996
 30
0.0
 10
129.6096597983267
 20
-149.2236219244996
 30
0.0
 10
130.0113579319069
 20
-149.2236219244996
 30
0.0
 10
130.0113579319069
 20
-149.2236219244996
 30
0.0
 10
130.0113579319069
 20
-149.2236219244996
 30
0.0
 10
130.0113579319069
 20
-148.9190754836035
 30
0.0
 10
130.0113579319069
 20
-148.9190754836035
 30
0.0
  0
SPLINE
  5
16D
330
160
100
AcDbEntity
  8
レイヤー 1
100
AcDbSpline
210
0.0
220
0.0
230
1.0
 70
    11
 71
     3
 72
    17
 73
    13
 74
     0
 42
0.0000000001
 43
0.0000000001
 40
0.0
 40
0.0
 40
0.0
 40
0.0
 40
1.0
 40
1.0
 40
1.0
 40
2.0
 40
2.0
 40
2.0
 40
3.0
 40
3.0
 40
3.0
 40
4.0
 40
4.0
 40
4.0
 40
4.0
 10
129.4429171768406
 20
-149.3907090555343
 30
0.0
 10
129.4429171768406
 20
-149.3907090555343
 30
0.0
 10
129.0594780493323
 20
-149.3907090555343
 30
0.0
 10
129.0594780493323
 20
-149.3907090555343
 30
0.0
 10
129.0594780493323
 20
-149.3907090555343
 30
0.0
 10
129.0594780493323
 20
-149.6997341205611
 30
0.0
 10
129.0594780493323
 20
-149.6997341205611
 30
0.0
 10
129.0594780493323
 20
-149.6997341205611
 30
0.0
 10
129.4429171768406
 20
-149.6997341205611
 30
0.0
 10
129.4429171768406
 20
-149.6997341205611
 30
0.0
 10
129.4429171768406
 20
-149.6997341205611
 30
0.0
 10
129.4429171768406
 20
-149.3907090555343
 30
0.0
 10
129.4429171768406
 20
-149.3907090555343
 30
0.0
  0
SPLINE
  5
16E
330
160
100
AcDbEntity
  8
レイヤー 1
100
AcDbSpline
210
0.0
220
0.0
230
1.0
 70
    11
 71
     3
 72
    17
 73
    13
 74
     0
 42
0.0000000001
 43
0.0000000001
 40
0.0
 40
0.0
 40
0.0
 40
0.0
 40
1.0
 40
1.0
 40
1.0
 40
2.0
 40
2.0
 40
2.0
 40
3.0
 40
3.0
 40
3.0
 40
4.0
 40
4.0
 40
4.0
 40
4.0
 10
129.4429171768406
 20
-148.9190754836035
 30
0.0
 10
129.4429171768406
 20
-148.9190754836035
 30
0.0
 10
129.0594780493323
 20
-148.9190754836035
 30
0.0
 10
129.0594780493323
 20
-148.9190754836035
 30
0.0
 10
129.0594780493323
 20
-148.9190754836035
 30
0.0
 10
129.0594780493323
 20
-149.2236219244996
 30
0.0
 10
129.0594780493323
 20
-149.2236219244996
 30
0.0
 10
129.0594780493323
 20
-149.2236219244996
 30
0.0
 10
129.4429171768406
 20
-149.2236219244996
 30
0.0
 10
129.4429171768406
 20
-149.2236219244996
 30
0.0
 10
129.4429171768406
 20
-149.2236219244996
 30
0.0
 10
129.4429171768406
 20
-148.9190754836035
 30
0.0
 10
129.4429171768406
 20
-148.9190754836035
 30
0.0
  0
SPLINE
  5
16F
330
160
100
AcDbEntity
  8
レイヤー 1
100
AcDbSpline
210
0.0
220
0.0
230
1.0
 70
     9
 71
     3
 72
    77
 73
    73
 74
     0
 42
0.0000000001
 43
0.0000000001
 40
0.0
 40
0.0
 40
0.0
 40
0.0
 40
1.0
 40
1.0
 40
1.0
 40
2.0
 40
2.0
 40
2.0
 40
3.0
 40
3.0
 40
3.0
 40
4.0
 40
4.0
 40
4.0
 40
5.0
 40
5.0
 40
5.0
 40
6.0
 40
6.0
 40
6.0
 40
7.0
 40
7.0
 40
7.0
 40
8.0
 40
8.0
 40
8.0
 40
9.0
 40
9.0
 40
9.0
 40
10.0
 40
10.0
 40
10.0
 40
11.0
 40
11.0
 40
11.0
 40
12.0
 40
12.0
 40
12.0
 40
13.0
 40
13.0
 40
13.0
 40
14.0
 40
14.0
 40
14.0
 40
15.0
 40
15.0
 40
15.0
 40
16.0
 40
16.0
 40
16.0
 40
17.0
 40
17.0
 40
17.0
 40
18.0
 40
18.0
 40
18.0
 40
19.0
 40
19.0
 40
19.0
 40
20.0
 40
20.0
 40
20.0
 40
21.0
 40
21.0
 40
21.0
 40
22.0
 40
22.0
 40
22.0
 40
23.0
 40
23.0
 40
23.0
 40
24.0
 40
24.0
 40
24.0
 40
24.0
 10
130.1298692165995
 20
-150.5055419545611
 30
0.0
 10
130.0892170898735
 20
-150.531035661152
 30
0.0
 10
129.9800075629911
 20
-150.5437825144474
 30
0.0
 10
129.9114501628346
 20
-150.5437825144474
 30
0.0
 10
129.9000813477333
 20
-150.5437825144474
 30
0.0
 10
129.8780327366277
 20
-150.5437825144474
 30
0.0
 10
129.8484049154545
 20
-150.5393038903165
 30
0.0
 10
129.8484049154545
 20
-150.5393038903165
 30
0.0
 10
129.7633110569689
 20
-150.3129611169356
 30
0.0
 10
129.7633110569689
 20
-150.3129611169356
 30
0.0
 10
129.7891492731082
 20
-150.3195067983576
 30
0.0
 10
129.8391031576444
 20
-150.3277750275222
 30
0.0
 10
129.9410779840078
 20
-150.3277750275222
 30
0.0
 10
130.0096353841642
 20
-150.3277750275222
 30
0.0
 10
130.0113579319069
 20
-150.2857448626022
 30
0.0
 10
130.0113579319069
 20
-150.228556277547
 30
0.0
 10
130.0113579319069
 20
-150.228556277547
 30
0.0
 10
130.0113579319069
 20
-149.8795681048912
 30
0.0
 10
130.0113579319069
 20
-149.8795681048912
 30
0.0
 10
130.0113579319069
 20
-149.8795681048912
 30
0.0
 10
129.6096597983267
 20
-149.8795681048912
 30
0.0
 10
129.6096597983267
 20
-149.8795681048912
 30
0.0
 10
129.6113823460693
 20
-150.0170274147527
 30
0.0
 10
129.613104893812
 20
-150.2158094242516
 30
0.0
 10
129.6189615561369
 20
-150.3491346195308
 30
0.0
 10
129.6206841038795
 20
-150.3766953834127
 30
0.0
 10
129.6206841038795
 20
-150.4211371151725
 30
0.0
 10
129.6317084094323
 20
-150.4824598148099
 30
0.0
 10
129.6317084094323
 20
-150.4824598148099
 30
0.0
 10
129.4205240561865
 20
-150.4824598148099
 30
0.0
 10
129.4205240561865
 20
-150.4824598148099
 30
0.0
 10
129.4429171768406
 20
-150.3574028486954
 30
0.0
 10
129.4429171768406
 20
-150.0170274147527
 30
0.0
 10
129.4429171768406
 20
-149.8795681048912
 30
0.0
 10
129.4429171768406
 20
-149.8795681048912
 30
0.0
 10
129.0560329538471
 20
-149.8795681048912
 30
0.0
 10
129.0560329538471
 20
-149.8795681048912
 30
0.0
 10
129.0353623809356
 20
-150.0866183435547
 30
0.0
 10
128.9781737958804
 20
-150.3553357914042
 30
0.0
 10
128.8059190216179
 20
-150.5393038903165
 30
0.0
 10
128.8059190216179
 20
-150.5393038903165
 30
0.0
 10
128.641243457423
 20
-150.4166584910417
 30
0.0
 10
128.641243457423
 20
-150.4166584910417
 30
0.0
 10
128.8631076066731
 20
-150.1968613990827
 30
0.0
 10
128.8910128801036
 20
-149.8647541943046
 30
0.0
 10
128.8910128801036
 20
-149.5326469895266
 30
0.0
 10
128.8910128801036
 20
-149.5326469895266
 30
0.0
 10
128.8910128801036
 20
-149.0968424106424
 30
0.0
 10
128.8910128801036
 20
-149.0968424106424
 30
0.0
 10
128.8910128801036
 20
-149.0606689080473
 30
0.0
 10
128.889290332361
 20
-148.8281249627929
 30
0.0
 10
128.8817111222934
 20
-148.7264946459781
 30
0.0
 10
129.0040120120198
 20
-148.7371744419824
 30
0.0
 10
129.2151963652656
 20
-148.7371744419824
 30
0.0
 10
129.3409423504772
 20
-148.7371744419824
 30
0.0
 10
129.3409423504772
 20
-148.7371744419824
 30
0.0
 10
129.7429849936059
 20
-148.7371744419824
 30
0.0
 10
129.7429849936059
 20
-148.7371744419824
 30
0.0
 10
129.7557318469013
 20
-148.7371744419824
 30
0.0
 10
130.061311816443
 20
-148.7371744419824
 30
0.0
 10
130.2001491644986
 20
-148.7264946459781
 30
0.0
 10
130.198426616756
 20
-148.7793768616767
 30
0.0
 10
130.1929144639795
 20
-148.9400905660636
 30
0.0
 10
130.1929144639795
 20
-148.9910779792453
 30
0.0
 10
130.1929144639795
 20
-148.9910779792453
 30
0.0
 10
130.1929144639795
 20
-149.5981038037463
 30
0.0
 10
130.1929144639795
 20
-149.5981038037463
 30
0.0
 10
130.1929144639795
 20
-149.6170518289152
 30
0.0
 10
130.2022162217897
 20
-150.1882486603696
 30
0.0
 10
130.2022162217897
 20
-150.3005587731887
 30
0.0
 10
130.2022162217897
 20
-150.3574028486954
 30
0.0
 10
130.2022162217897
 20
-150.4590331655102
 30
0.0
 10
130.1298692165995
 20
-150.5055419545611
 30
0.0
  0
HATCH
  5
170
330
160
100
AcDbEntity
  8
レイヤー 1
 62
   250
420
  2299925
440
 33554687
100
AcDbHatch
 10
0.0
 20
0.0
 30
0.0
210
0.0
220
0.0
230
1.0
  2
SOLID
 70
     1
 71
     1
 91
        5
 92
        1
 93
        1
 72
     4
 94
        3
 73
     0
 74
     0
 95
       17
 96
       13
 40
0.0
 40
0.0
 40
0.0
 40
0.0
 40
1.0
 40
1.0
 40
1.0
 40
2.0
 40
2.0
 40
2.0
 40
3.0
 40
3.0
 40
3.0
 40
4.0
 40
4.0
 40
4.0
 40
4.0
 10
130.0113579319069
 20
-149.3907090555343
 10
130.0113579319069
 20
-149.3907090555343
 10
129.6096597983267
 20
-149.3907090555343
 10
129.6096597983267
 20
-149.3907090555343
 10
129.6096597983267
 20
-149.3907090555343
 10
129.6096597983267
 20
-149.6997341205611
 10
129.6096597983267
 20
-149.6997341205611
 10
129.6096597983267
 20
-149.6997341205611
 10
130.0113579319069
 20
-149.6997341205611
 10
130.0113579319069
 20
-149.6997341205611
 10
130.0113579319069
 20
-149.6997341205611
 10
130.0113579319069
 20
-149.3907090555343
 10
130.0113579319069
 20
-149.3907090555343
 97
        0
 97
        1
330
16B
 92
        1
 93
        1
 72
     4
 94
        3
 73
     0
 74
     0
 95
       17
 96
       13
 40
0.0
 40
0.0
 40
0.0
 40
0.0
 40
1.0
 40
1.0
 40
1.0
 40
2.0
 40
2.0
 40
2.0
 40
3.0
 40
3.0
 40
3.0
 40
4.0
 40
4.0
 40
4.0
 40
4.0
 10
130.0113579319069
 20
-148.9190754836035
 10
130.0113579319069
 20
-148.9190754836035
 10
129.6096597983267
 20
-148.9190754836035
 10
129.6096597983267
 20
-148.9190754836035
 10
129.6096597983267
 20
-148.9190754836035
 10
129.6096597983267
 20
-149.2236219244996
 10
129.6096597983267
 20
-149.2236219244996
 10
129.6096597983267
 20
-149.2236219244996
 10
130.0113579319069
 20
-149.2236219244996
 10
130.0113579319069
 20
-149.2236219244996
 10
130.0113579319069
 20
-149.2236219244996
 10
130.0113579319069
 20
-148.9190754836035
 10
130.0113579319069
 20
-148.9190754836035
 97
        0
 97
        1
330
16C
 92
        1
 93
        1
 72
     4
 94
        3
 73
     0
 74
     0
 95
       17
 96
       13
 40
0.0
 40
0.0
 40
0.0
 40
0.0
 40
1.0
 40
1.0
 40
1.0
 40
2.0
 40
2.0
 40
2.0
 40
3.0
 40
3.0
 40
3.0
 40
4.0
 40
4.0
 40
4.0
 40
4.0
 10
129.4429171768406
 20
-149.3907090555343
 10
129.4429171768406
 20
-149.3907090555343
 10
129.0594780493323
 20
-149.3907090555343
 10
129.0594780493323
 20
-149.3907090555343
 10
129.0594780493323
 20
-149.3907090555343
 10
129.0594780493323
 20
-149.6997341205611
 10
129.0594780493323
 20
-149.6997341205611
 10
129.0594780493323
 20
-149.6997341205611
 10
129.4429171768406
 20
-149.6997341205611
 10
129.4429171768406
 20
-149.6997341205611
 10
129.4429171768406
 20
-149.6997341205611
 10
129.4429171768406
 20
-149.3907090555343
 10
129.4429171768406
 20
-149.3907090555343
 97
        0
 97
        1
330
16D
 92
        1
 93
        1
 72
     4
 94
        3
 73
     0
 74
     0
 95
       17
 96
       13
 40
0.0
 40
0.0
 40
0.0
 40
0.0
 40
1.0
 40
1.0
 40
1.0
 40
2.0
 40
2.0
 40
2.0
 40
3.0
 40
3.0
 40
3.0
 40
4.0
 40
4.0
 40
4.0
 40
4.0
 10
129.4429171768406
 20
-148.9190754836035
 10
129.4429171768406
 20
-148.9190754836035
 10
129.0594780493323
 20
-148.9190754836035
 10
129.0594780493323
 20
-148.9190754836035
 10
129.0594780493323
 20
-148.9190754836035
 10
129.0594780493323
 20
-149.2236219244996
 10
129.0594780493323
 20
-149.2236219244996
 10
129.0594780493323
 20
-149.2236219244996
 10
129.4429171768406
 20
-149.2236219244996
 10
129.4429171768406
 20
-149.2236219244996
 10
129.4429171768406
 20
-149.2236219244996
 10
129.4429171768406
 20
-148.9190754836035
 10
129.4429171768406
 20
-148.9190754836035
 97
        0
 97
        1
330
16E
 92
        1
 93
        1
 72
     4
 94
        3
 73
     0
 74
     0
 95
       77
 96
       73
 40
0.0
 40
0.0
 40
0.0
 40
0.0
 40
1.0
 40
1.0
 40
1.0
 40
2.0
 40
2.0
 40
2.0
 40
3.0
 40
3.0
 40
3.0
 40
4.0
 40
4.0
 40
4.0
 40
5.0
 40
5.0
 40
5.0
 40
6.0
 40
6.0
 40
6.0
 40
7.0
 40
7.0
 40
7.0
 40
8.0
 40
8.0
 40
8.0
 40
9.0
 40
9.0
 40
9.0
 40
10.0
 40
10.0
 40
10.0
 40
11.0
 40
11.0
 40
11.0
 40
12.0
 40
12.0
 40
12.0
 40
13.0
 40
13.0
 40
13.0
 40
14.0
 40
14.0
 40
14.0
 40
15.0
 40
15.0
 40
15.0
 40
16.0
 40
16.0
 40
16.0
 40
17.0
 40
17.0
 40
17.0
 40
18.0
 40
18.0
 40
18.0
 40
19.0
 40
19.0
 40
19.0
 40
20.0
 40
20.0
 40
20.0
 40
21.0
 40
21.0
 40
21.0
 40
22.0
 40
22.0
 40
22.0
 40
23.0
 40
23.0
 40
23.0
 40
24.0
 40
24.0
 40
24.0
 40
24.0
 10
130.1298692165995
 20
-150.5055419545611
 10
130.0892170898735
 20
-150.531035661152
 10
129.9800075629911
 20
-150.5437825144474
 10
129.9114501628346
 20
-150.5437825144474
 10
129.9000813477333
 20
-150.5437825144474
 10
129.8780327366277
 20
-150.5437825144474
 10
129.8484049154545
 20
-150.5393038903165
 10
129.8484049154545
 20
-150.5393038903165
 10
129.7633110569689
 20
-150.3129611169356
 10
129.7633110569689
 20
-150.3129611169356
 10
129.7891492731082
 20
-150.3195067983576
 10
129.8391031576444
 20
-150.3277750275222
 10
129.9410779840078
 20
-150.3277750275222
 10
130.0096353841642
 20
-150.3277750275222
 10
130.0113579319069
 20
-150.2857448626022
 10
130.0113579319069
 20
-150.228556277547
 10
130.0113579319069
 20
-150.228556277547
 10
130.0113579319069
 20
-149.8795681048912
 10
130.0113579319069
 20
-149.8795681048912
 10
130.0113579319069
 20
-149.8795681048912
 10
129.6096597983267
 20
-149.8795681048912
 10
129.6096597983267
 20
-149.8795681048912
 10
129.6113823460693
 20
-150.0170274147527
 10
129.613104893812
 20
-150.2158094242516
 10
129.6189615561369
 20
-150.3491346195308
 10
129.6206841038795
 20
-150.3766953834127
 10
129.6206841038795
 20
-150.4211371151725
 10
129.6317084094323
 20
-150.4824598148099
 10
129.6317084094323
 20
-150.4824598148099
 10
129.4205240561865
 20
-150.4824598148099
 10
129.4205240561865
 20
-150.4824598148099
 10
129.4429171768406
 20
-150.3574028486954
 10
129.4429171768406
 20
-150.0170274147527
 10
129.4429171768406
 20
-149.8795681048912
 10
129.4429171768406
 20
-149.8795681048912
 10
129.0560329538471
 20
-149.8795681048912
 10
129.0560329538471
 20
-149.8795681048912
 10
129.0353623809356
 20
-150.0866183435547
 10
128.9781737958804
 20
-150.3553357914042
 10
128.8059190216179
 20
-150.5393038903165
 10
128.8059190216179
 20
-150.5393038903165
 10
128.641243457423
 20
-150.4166584910417
 10
128.641243457423
 20
-150.4166584910417
 10
128.8631076066731
 20
-150.1968613990827
 10
128.8910128801036
 20
-149.8647541943046
 10
128.8910128801036
 20
-149.5326469895266
 10
128.8910128801036
 20
-149.5326469895266
 10
128.8910128801036
 20
-149.0968424106424
 10
128.8910128801036
 20
-149.0968424106424
 10
128.8910128801036
 20
-149.0606689080473
 10
128.889290332361
 20
-148.8281249627929
 10
128.8817111222934
 20
-148.7264946459781
 10
129.0040120120198
 20
-148.7371744419824
 10
129.2151963652656
 20
-148.7371744419824
 10
129.3409423504772
 20
-148.7371744419824
 10
129.3409423504772
 20
-148.7371744419824
 10
129.7429849936059
 20
-148.7371744419824
 10
129.7429849936059
 20
-148.7371744419824
 10
129.7557318469013
 20
-148.7371744419824
 10
130.061311816443
 20
-148.7371744419824
 10
130.2001491644986
 20
-148.7264946459781
 10
130.198426616756
 20
-148.7793768616767
 10
130.1929144639795
 20
-148.9400905660636
 10
130.1929144639795
 20
-148.9910779792453
 10
130.1929144639795
 20
-148.9910779792453
 10
130.1929144639795
 20
-149.5981038037463
 10
130.1929144639795
 20
-149.5981038037463
 10
130.1929144639795
 20
-149.6170518289152
 10
130.2022162217897
 20
-150.1882486603696
 10
130.2022162217897
 20
-150.3005587731887
 10
130.2022162217897
 20
-150.3574028486954
 10
130.2022162217897
 20
-150.4590331655102
 10
130.1298692165995
 20
-150.5055419545611
 97
        0
 97
        1
330
16F
 75
     2
 76
     1
 98
        1
 10
0.0
 20
0.0
450
        0
451
        0
460
0.0
461
0.0
452
        0
462
0.0
453
        0
470

  0
SPLINE
  5
171
330
160
100
AcDbEntity
  8
レイヤー 1
100
AcDbSpline
210
0.0
220
0.0
230
1.0
 70
     9
 71
     3
 72
    17
 73
    13
 74
     0
 42
0.0000000001
 43
0.0000000001
 40
0.0
 40
0.0
 40
0.0
 40
0.0
 40
1.0
 40
1.0
 40
1.0
 40
2.0
 40
2.0
 40
2.0
 40
3.0
 40
3.0
 40
3.0
 40
4.0
 40
4.0
 40
4.0
 40
4.0
 10
125.3518662881065
 20
-151.2665635472528
 30
0.0
 10
125.303634951313
 20
-151.2665635472528
 30
0.0
 10
125.2647053723296
 20
-151.3110052790125
 30
0.0
 10
125.2647053723296
 20
-151.3661268067765
 30
0.0
 10
125.2647053723296
 20
-151.4229708822831
 30
0.0
 10
125.303634951313
 20
-151.4718912381737
 30
0.0
 10
125.3556558931402
 20
-151.4718912381737
 30
0.0
 10
125.407332325419
 20
-151.4718912381737
 30
0.0
 10
125.4424722993685
 20
-151.420903824992
 30
0.0
 10
125.4424722993685
 20
-151.3681938640677
 30
0.0
 10
125.4424722993685
 20
-151.3110052790125
 30
0.0
 10
125.4018201726426
 20
-151.2665635472528
 30
0.0
 10
125.3518662881065
 20
-151.2665635472528
 30
0.0
  0
SPLINE
  5
172
330
160
100
AcDbEntity
  8
レイヤー 1
100
AcDbSpline
210
0.0
220
0.0
230
1.0
 70
     9
 71
     3
 72
    17
 73
    13
 74
     0
 42
0.0000000001
 43
0.0000000001
 40
0.0
 40
0.0
 40
0.0
 40
0.0
 40
1.0
 40
1.0
 40
1.0
 40
2.0
 40
2.0
 40
2.0
 40
3.0
 40
3.0
 40
3.0
 40
4.0
 40
4.0
 40
4.0
 40
4.0
 10
125.3535888358491
 20
-151.5966036947397
 30
0.0
 10
125.2426567612241
 20
-151.5966036947397
 30
0.0
 10
125.1537732977046
 20
-151.4949733779249
 30
0.0
 10
125.1537732977046
 20
-151.3681938640677
 30
0.0
 10
125.1537732977046
 20
-151.2410698406619
 30
0.0
 10
125.2426567612241
 20
-151.1373724665559
 30
0.0
 10
125.3535888358491
 20
-151.1373724665559
 30
0.0
 10
125.4648654200227
 20
-151.1373724665559
 30
0.0
 10
125.5554714312847
 20
-151.2410698406619
 30
0.0
 10
125.5554714312847
 20
-151.3681938640677
 30
0.0
 10
125.5554714312847
 20
-151.4949733779249
 30
0.0
 10
125.4648654200227
 20
-151.5966036947397
 30
0.0
 10
125.3535888358491
 20
-151.5966036947397
 30
0.0
  0
SPLINE
  5
173
330
160
100
AcDbEntity
  8
レイヤー 1
100
AcDbSpline
210
0.0
220
0.0
230
1.0
 70
     9
 71
     3
 72
    44
 73
    40
 74
     0
 42
0.0000000001
 43
0.0000000001
 40
0.0
 40
0.0
 40
0.0
 40
0.0
 40
1.0
 40
1.0
 40
1.0
 40
2.0
 40
2.0
 40
2.0
 40
3.0
 40
3.0
 40
3.0
 40
4.0
 40
4.0
 40
4.0
 40
5.0
 40
5.0
 40
5.0
 40
6.0
 40
6.0
 40
6.0
 40
7.0
 40
7.0
 40
7.0
 40
8.0
 40
8.0
 40
8.0
 40
9.0
 40
9.0
 40
9.0
 40
10.0
 40
10.0
 40
10.0
 40
11.0
 40
11.0
 40
11.0
 40
12.0
 40
12.0
 40
12.0
 40
13.0
 40
13.0
 40
13.0
 40
13.0
 10
125.1703097560338
 20
-151.7953857042386
 30
0.0
 10
125.0721245347042
 20
-152.1636664116118
 30
0.0
 10
125.0276828029444
 20
-152.3221408039333
 30
0.0
 10
124.855428028682
 20
-152.5719102266139
 30
0.0
 10
124.6945420695208
 20
-152.8023871145772
 30
0.0
 10
124.4871473213087
 20
-152.9884222707807
 30
0.0
 10
124.242545541856
 20
-153.0817843584309
 30
0.0
 10
124.242545541856
 20
-153.0817843584309
 30
0.0
 10
124.0740803726273
 20
-152.9019503741009
 30
0.0
 10
124.0740803726273
 20
-152.9019503741009
 30
0.0
 10
124.6352864271745
 20
-152.7496771536528
 30
0.0
 10
124.9239854288384
 20
-152.193294232785
 30
0.0
 10
124.9797959756995
 20
-151.7530110297701
 30
0.0
 10
124.9797959756995
 20
-151.7530110297701
 30
0.0
 10
124.3093803942699
 20
-151.7530110297701
 30
0.0
 10
124.3093803942699
 20
-151.7530110297701
 30
0.0
 10
124.2277316312694
 20
-151.7530110297701
 30
0.0
 10
124.0668456721083
 20
-151.7574896539009
 30
0.0
 10
123.9297308717953
 20
-151.7764376790698
 30
0.0
 10
123.9297308717953
 20
-151.7764376790698
 30
0.0
 10
123.9297308717953
 20
-151.5562960775623
 30
0.0
 10
123.9297308717953
 20
-151.5562960775623
 30
0.0
 10
124.0055229724708
 20
-151.5776556695709
 30
0.0
 10
124.2260090835268
 20
-151.5776556695709
 30
0.0
 10
124.3128254897551
 20
-151.5776556695709
 30
0.0
 10
124.3128254897551
 20
-151.5776556695709
 30
0.0
 10
124.690752464487
 20
-151.5776556695709
 30
0.0
 10
124.690752464487
 20
-151.5776556695709
 30
0.0
 10
124.7276149861792
 20
-151.5776556695709
 30
0.0
 10
124.9332871866486
 20
-151.5752441027312
 30
0.0
 10
124.9667046128555
 20
-151.5690429308577
 30
0.0
 10
125.0035671345477
 20
-151.5628417589843
 30
0.0
 10
125.0056341918388
 20
-151.5607747016931
 30
0.0
 10
125.0593776814088
 20
-151.5204670845157
 30
0.0
 10
125.0593776814088
 20
-151.5204670845157
 30
0.0
 10
125.2240532456037
 20
-151.6748073622549
 30
0.0
 10
125.2240532456037
 20
-151.6748073622549
 30
0.0
 10
125.1982150294643
 20
-151.7044351834281
 30
0.0
 10
125.1851236666204
 20
-151.7361300618923
 30
0.0
 10
125.1703097560338
 20
-151.7953857042386
 30
0.0
  0
HATCH
  5
174
330
160
100
AcDbEntity
  8
レイヤー 1
 62
   250
420
  2299925
440
 33554687
100
AcDbHatch
 10
0.0
 20
0.0
 30
0.0
210
0.0
220
0.0
230
1.0
  2
SOLID
 70
     1
 71
     1
 91
        3
 92
        1
 93
        1
 72
     4
 94
        3
 73
     0
 74
     0
 95
       17
 96
       13
 40
0.0
 40
0.0
 40
0.0
 40
0.0
 40
1.0
 40
1.0
 40
1.0
 40
2.0
 40
2.0
 40
2.0
 40
3.0
 40
3.0
 40
3.0
 40
4.0
 40
4.0
 40
4.0
 40
4.0
 10
125.3518662881065
 20
-151.2665635472528
 10
125.303634951313
 20
-151.2665635472528
 10
125.2647053723296
 20
-151.3110052790125
 10
125.2647053723296
 20
-151.3661268067765
 10
125.2647053723296
 20
-151.4229708822831
 10
125.303634951313
 20
-151.4718912381737
 10
125.3556558931402
 20
-151.4718912381737
 10
125.407332325419
 20
-151.4718912381737
 10
125.4424722993685
 20
-151.420903824992
 10
125.4424722993685
 20
-151.3681938640677
 10
125.4424722993685
 20
-151.3110052790125
 10
125.4018201726426
 20
-151.2665635472528
 10
125.3518662881065
 20
-151.2665635472528
 97
        0
 97
        1
330
171
 92
        1
 93
        1
 72
     4
 94
        3
 73
     0
 74
     0
 95
       17
 96
       13
 40
0.0
 40
0.0
 40
0.0
 40
0.0
 40
1.0
 40
1.0
 40
1.0
 40
2.0
 40
2.0
 40
2.0
 40
3.0
 40
3.0
 40
3.0
 40
4.0
 40
4.0
 40
4.0
 40
4.0
 10
125.3535888358491
 20
-151.5966036947397
 10
125.2426567612241
 20
-151.5966036947397
 10
125.1537732977046
 20
-151.4949733779249
 10
125.1537732977046
 20
-151.3681938640677
 10
125.1537732977046
 20
-151.2410698406619
 10
125.2426567612241
 20
-151.1373724665559
 10
125.3535888358491
 20
-151.1373724665559
 10
125.4648654200227
 20
-151.1373724665559
 10
125.5554714312847
 20
-151.2410698406619
 10
125.5554714312847
 20
-151.3681938640677
 10
125.5554714312847
 20
-151.4949733779249
 10
125.4648654200227
 20
-151.5966036947397
 10
125.3535888358491
 20
-151.5966036947397
 97
        0
 97
        1
330
172
 92
        1
 93
        1
 72
     4
 94
        3
 73
     0
 74
     0
 95
       44
 96
       40
 40
0.0
 40
0.0
 40
0.0
 40
0.0
 40
1.0
 40
1.0
 40
1.0
 40
2.0
 40
2.0
 40
2.0
 40
3.0
 40
3.0
 40
3.0
 40
4.0
 40
4.0
 40
4.0
 40
5.0
 40
5.0
 40
5.0
 40
6.0
 40
6.0
 40
6.0
 40
7.0
 40
7.0
 40
7.0
 40
8.0
 40
8.0
 40
8.0
 40
9.0
 40
9.0
 40
9.0
 40
10.0
 40
10.0
 40
10.0
 40
11.0
 40
11.0
 40
11.0
 40
12.0
 40
12.0
 40
12.0
 40
13.0
 40
13.0
 40
13.0
 40
13.0
 10
125.1703097560338
 20
-151.7953857042386
 10
125.0721245347042
 20
-152.1636664116118
 10
125.0276828029444
 20
-152.3221408039333
 10
124.855428028682
 20
-152.5719102266139
 10
124.6945420695208
 20
-152.8023871145772
 10
124.4871473213087
 20
-152.9884222707807
 10
124.242545541856
 20
-153.0817843584309
 10
124.242545541856
 20
-153.0817843584309
 10
124.0740803726273
 20
-152.9019503741009
 10
124.0740803726273
 20
-152.9019503741009
 10
124.6352864271745
 20
-152.7496771536528
 10
124.9239854288384
 20
-152.193294232785
 10
124.9797959756995
 20
-151.7530110297701
 10
124.9797959756995
 20
-151.7530110297701
 10
124.3093803942699
 20
-151.7530110297701
 10
124.3093803942699
 20
-151.7530110297701
 10
124.2277316312694
 20
-151.7530110297701
 10
124.0668456721083
 20
-151.7574896539009
 10
123.9297308717953
 20
-151.7764376790698
 10
123.9297308717953
 20
-151.7764376790698
 10
123.9297308717953
 20
-151.5562960775623
 10
123.9297308717953
 20
-151.5562960775623
 10
124.0055229724708
 20
-151.5776556695709
 10
124.2260090835268
 20
-151.5776556695709
 10
124.3128254897551
 20
-151.5776556695709
 10
124.3128254897551
 20
-151.5776556695709
 10
124.690752464487
 20
-151.5776556695709
 10
124.690752464487
 20
-151.5776556695709
 10
124.7276149861792
 20
-151.5776556695709
 10
124.9332871866486
 20
-151.5752441027312
 10
124.9667046128555
 20
-151.5690429308577
 10
125.0035671345477
 20
-151.5628417589843
 10
125.0056341918388
 20
-151.5607747016931
 10
125.0593776814088
 20
-151.5204670845157
 10
125.0593776814088
 20
-151.5204670845157
 10
125.2240532456037
 20
-151.6748073622549
 10
125.2240532456037
 20
-151.6748073622549
 10
125.1982150294643
 20
-151.7044351834281
 10
125.1851236666204
 20
-151.7361300618923
 10
125.1703097560338
 20
-151.7953857042386
 97
        0
 97
        1
330
173
 75
     2
 76
     1
 98
        1
 10
0.0
 20
0.0
450
        0
451
        0
460
0.0
461
0.0
452
        0
462
0.0
453
        0
470

  0
SPLINE
  5
175
330
160
100
AcDbEntity
  8
レイヤー 1
100
AcDbSpline
210
0.0
220
0.0
230
1.0
 70
     9
 71
     3
 72
    29
 73
    25
 74
     0
 42
0.0000000001
 43
0.0000000001
 40
0.0
 40
0.0
 40
0.0
 40
0.0
 40
1.0
 40
1.0
 40
1.0
 40
2.0
 40
2.0
 40
2.0
 40
3.0
 40
3.0
 40
3.0
 40
4.0
 40
4.0
 40
4.0
 40
5.0
 40
5.0
 40
5.0
 40
6.0
 40
6.0
 40
6.0
 40
7.0
 40
7.0
 40
7.0
 40
8.0
 40
8.0
 40
8.0
 40
8.0
 10
126.4946044605638
 20
-151.4780924100471
 30
0.0
 10
126.4946044605638
 20
-151.4780924100471
 30
0.0
 10
126.1966037010897
 20
-151.4780924100471
 30
0.0
 10
126.1966037010897
 20
-151.4780924100471
 30
0.0
 10
126.0966959320175
 20
-151.4780924100471
 30
0.0
 10
125.9947211056541
 20
-151.4822265246294
 30
0.0
 10
125.8948133365818
 20
-151.497040435216
 30
0.0
 10
125.8948133365818
 20
-151.497040435216
 30
0.0
 10
125.8948133365818
 20
-151.2875786297128
 30
0.0
 10
125.8948133365818
 20
-151.2875786297128
 30
0.0
 10
125.9985107106879
 20
-151.3023925402994
 30
0.0
 10
126.1504394215874
 20
-151.3068711644302
 30
0.0
 10
126.1966037010897
 20
-151.3068711644302
 30
0.0
 10
126.1966037010897
 20
-151.3068711644302
 30
0.0
 10
126.4946044605638
 20
-151.3068711644302
 30
0.0
 10
126.4946044605638
 20
-151.3068711644302
 30
0.0
 10
126.5965792869272
 20
-151.3068711644302
 30
0.0
 10
126.6982096037421
 20
-151.3023925402994
 30
0.0
 10
126.8001844301055
 20
-151.2875786297128
 30
0.0
 10
126.8001844301055
 20
-151.2875786297128
 30
0.0
 10
126.8001844301055
 20
-151.497040435216
 30
0.0
 10
126.8001844301055
 20
-151.497040435216
 30
0.0
 10
126.668581782569
 20
-151.4780924100471
 30
0.0
 10
126.5076958234078
 20
-151.4780924100471
 30
0.0
 10
126.4946044605638
 20
-151.4780924100471
 30
0.0
  0
SPLINE
  5
176
330
160
100
AcDbEntity
  8
レイヤー 1
100
AcDbSpline
210
0.0
220
0.0
230
1.0
 70
     9
 71
     3
 72
    50
 73
    46
 74
     0
 42
0.0000000001
 43
0.0000000001
 40
0.0
 40
0.0
 40
0.0
 40
0.0
 40
1.0
 40
1.0
 40
1.0
 40
2.0
 40
2.0
 40
2.0
 40
3.0
 40
3.0
 40
3.0
 40
4.0
 40
4.0
 40
4.0
 40
5.0
 40
5.0
 40
5.0
 40
6.0
 40
6.0
 40
6.0
 40
7.0
 40
7.0
 40
7.0
 40
8.0
 40
8.0
 40
8.0
 40
9.0
 40
9.0
 40
9.0
 40
10.0
 40
10.0
 40
10.0
 40
11.0
 40
11.0
 40
11.0
 40
12.0
 40
12.0
 40
12.0
 40
13.0
 40
13.0
 40
13.0
 40
14.0
 40
14.0
 40
14.0
 40
15.0
 40
15.0
 40
15.0
 40
15.0
 10
126.9262749248657
 20
-152.1044107692655
 30
0.0
 10
126.8577175247092
 20
-152.2818331867559
 30
0.0
 10
126.7392062400166
 20
-152.4892279349679
 30
0.0
 10
126.6186278980328
 20
-152.6290988116691
 30
0.0
 10
126.4704887921671
 20
-152.800320057286
 30
0.0
 10
126.3282063486263
 20
-152.8892035208055
 30
0.0
 10
126.048464595224
 20
-153.0307969452492
 30
0.0
 10
126.048464595224
 20
-153.0307969452492
 30
0.0
 10
125.9003254893582
 20
-152.8426947317546
 30
0.0
 10
125.9003254893582
 20
-152.8426947317546
 30
0.0
 10
126.0632785058106
 20
-152.8192680824549
 30
0.0
 10
126.2131401594189
 20
-152.7324516762266
 30
0.0
 10
126.3464653546981
 20
-152.6266872448294
 30
0.0
 10
126.5762532235642
 20
-152.4447862032082
 30
0.0
 10
126.7429958450503
 20
-152.131627023599
 30
0.0
 10
126.7853705195189
 20
-151.9497259819778
 30
0.0
 10
126.7853705195189
 20
-151.9497259819778
 30
0.0
 10
126.1983262488324
 20
-151.9497259819778
 30
0.0
 10
126.1983262488324
 20
-151.9497259819778
 30
0.0
 10
126.0594889007768
 20
-151.9497259819778
 30
0.0
 10
125.8038628157712
 20
-151.958338720691
 30
0.0
 10
125.6705376204921
 20
-151.9752196885687
 30
0.0
 10
125.6705376204921
 20
-151.9752196885687
 30
0.0
 10
125.6705376204921
 20
-151.7468098578966
 30
0.0
 10
125.6705376204921
 20
-151.7468098578966
 30
0.0
 10
125.7001654416652
 20
-151.7530110297701
 30
0.0
 10
125.7225585623193
 20
-151.759556711192
 30
0.0
 10
125.7687228418217
 20
-151.7636908257744
 30
0.0
 10
125.8576063053411
 20
-151.7698919976478
 30
0.0
 10
126.0298610796036
 20
-151.7723035644875
 30
0.0
 10
126.1039306325365
 20
-151.7723035644875
 30
0.0
 10
126.1039306325365
 20
-151.7723035644875
 30
0.0
 10
126.5466254023911
 20
-151.7723035644875
 30
0.0
 10
126.5466254023911
 20
-151.7723035644875
 30
0.0
 10
126.6058810447374
 20
-151.7723035644875
 30
0.0
 10
126.7336940872402
 20
-151.7678249403566
 30
0.0
 10
126.7870930672615
 20
-151.7616237684832
 30
0.0
 10
126.8501383146416
 20
-151.7530110297701
 30
0.0
 10
126.8742539830384
 20
-151.7381971191835
 30
0.0
 10
126.9038818042115
 20
-151.7151149794323
 30
0.0
 10
126.9038818042115
 20
-151.7151149794323
 30
0.0
 10
127.0482313050435
 20
-151.8822021104669
 30
0.0
 10
127.0482313050435
 20
-151.8822021104669
 30
0.0
 10
126.9872531149546
 20
-151.9497259819778
 30
0.0
 10
126.9466009882286
 20
-152.0534233560838
 30
0.0
 10
126.9262749248657
 20
-152.1044107692655
 30
0.0
  0
HATCH
  5
177
330
160
100
AcDbEntity
  8
レイヤー 1
 62
   250
420
  2299925
440
 33554687
100
AcDbHatch
 10
0.0
 20
0.0
 30
0.0
210
0.0
220
0.0
230
1.0
  2
SOLID
 70
     1
 71
     1
 91
        2
 92
        1
 93
        1
 72
     4
 94
        3
 73
     0
 74
     0
 95
       29
 96
       25
 40
0.0
 40
0.0
 40
0.0
 40
0.0
 40
1.0
 40
1.0
 40
1.0
 40
2.0
 40
2.0
 40
2.0
 40
3.0
 40
3.0
 40
3.0
 40
4.0
 40
4.0
 40
4.0
 40
5.0
 40
5.0
 40
5.0
 40
6.0
 40
6.0
 40
6.0
 40
7.0
 40
7.0
 40
7.0
 40
8.0
 40
8.0
 40
8.0
 40
8.0
 10
126.4946044605638
 20
-151.4780924100471
 10
126.4946044605638
 20
-151.4780924100471
 10
126.1966037010897
 20
-151.4780924100471
 10
126.1966037010897
 20
-151.4780924100471
 10
126.0966959320175
 20
-151.4780924100471
 10
125.9947211056541
 20
-151.4822265246294
 10
125.8948133365818
 20
-151.497040435216
 10
125.8948133365818
 20
-151.497040435216
 10
125.8948133365818
 20
-151.2875786297128
 10
125.8948133365818
 20
-151.2875786297128
 10
125.9985107106879
 20
-151.3023925402994
 10
126.1504394215874
 20
-151.3068711644302
 10
126.1966037010897
 20
-151.3068711644302
 10
126.1966037010897
 20
-151.3068711644302
 10
126.4946044605638
 20
-151.3068711644302
 10
126.4946044605638
 20
-151.3068711644302
 10
126.5965792869272
 20
-151.3068711644302
 10
126.6982096037421
 20
-151.3023925402994
 10
126.8001844301055
 20
-151.2875786297128
 10
126.8001844301055
 20
-151.2875786297128
 10
126.8001844301055
 20
-151.497040435216
 10
126.8001844301055
 20
-151.497040435216
 10
126.668581782569
 20
-151.4780924100471
 10
126.5076958234078
 20
-151.4780924100471
 10
126.4946044605638
 20
-151.4780924100471
 97
        0
 97
        1
330
175
 92
        1
 93
        1
 72
     4
 94
        3
 73
     0
 74
     0
 95
       50
 96
       46
 40
0.0
 40
0.0
 40
0.0
 40
0.0
 40
1.0
 40
1.0
 40
1.0
 40
2.0
 40
2.0
 40
2.0
 40
3.0
 40
3.0
 40
3.0
 40
4.0
 40
4.0
 40
4.0
 40
5.0
 40
5.0
 40
5.0
 40
6.0
 40
6.0
 40
6.0
 40
7.0
 40
7.0
 40
7.0
 40
8.0
 40
8.0
 40
8.0
 40
9.0
 40
9.0
 40
9.0
 40
10.0
 40
10.0
 40
10.0
 40
11.0
 40
11.0
 40
11.0
 40
12.0
 40
12.0
 40
12.0
 40
13.0
 40
13.0
 40
13.0
 40
14.0
 40
14.0
 40
14.0
 40
15.0
 40
15.0
 40
15.0
 40
15.0
 10
126.9262749248657
 20
-152.1044107692655
 10
126.8577175247092
 20
-152.2818331867559
 10
126.7392062400166
 20
-152.4892279349679
 10
126.6186278980328
 20
-152.6290988116691
 10
126.4704887921671
 20
-152.800320057286
 10
126.3282063486263
 20
-152.8892035208055
 10
126.048464595224
 20
-153.0307969452492
 10
126.048464595224
 20
-153.0307969452492
 10
125.9003254893582
 20
-152.8426947317546
 10
125.9003254893582
 20
-152.8426947317546
 10
126.0632785058106
 20
-152.8192680824549
 10
126.2131401594189
 20
-152.7324516762266
 10
126.3464653546981
 20
-152.6266872448294
 10
126.5762532235642
 20
-152.4447862032082
 10
126.7429958450503
 20
-152.131627023599
 10
126.7853705195189
 20
-151.9497259819778
 10
126.7853705195189
 20
-151.9497259819778
 10
126.1983262488324
 20
-151.9497259819778
 10
126.1983262488324
 20
-151.9497259819778
 10
126.0594889007768
 20
-151.9497259819778
 10
125.8038628157712
 20
-151.958338720691
 10
125.6705376204921
 20
-151.9752196885687
 10
125.6705376204921
 20
-151.9752196885687
 10
125.6705376204921
 20
-151.7468098578966
 10
125.6705376204921
 20
-151.7468098578966
 10
125.7001654416652
 20
-151.7530110297701
 10
125.7225585623193
 20
-151.759556711192
 10
125.7687228418217
 20
-151.7636908257744
 10
125.8576063053411
 20
-151.7698919976478
 10
126.0298610796036
 20
-151.7723035644875
 10
126.1039306325365
 20
-151.7723035644875
 10
126.1039306325365
 20
-151.7723035644875
 10
126.5466254023911
 20
-151.7723035644875
 10
126.5466254023911
 20
-151.7723035644875
 10
126.6058810447374
 20
-151.7723035644875
 10
126.7336940872402
 20
-151.7678249403566
 10
126.7870930672615
 20
-151.7616237684832
 10
126.8501383146416
 20
-151.7530110297701
 10
126.8742539830384
 20
-151.7381971191835
 10
126.9038818042115
 20
-151.7151149794323
 10
126.9038818042115
 20
-151.7151149794323
 10
127.0482313050435
 20
-151.8822021104669
 10
127.0482313050435
 20
-151.8822021104669
 10
126.9872531149546
 20
-151.9497259819778
 10
126.9466009882286
 20
-152.0534233560838
 10
126.9262749248657
 20
-152.1044107692655
 97
        0
 97
        1
330
176
 75
     2
 76
     1
 98
        1
 10
0.0
 20
0.0
450
        0
451
        0
460
0.0
461
0.0
452
        0
462
0.0
453
        0
470

  0
SPLINE
  5
178
330
160
100
AcDbEntity
  8
レイヤー 1
100
AcDbSpline
210
0.0
220
0.0
230
1.0
 70
     9
 71
     3
 72
    50
 73
    46
 74
     0
 42
0.0000000001
 43
0.0000000001
 40
0.0
 40
0.0
 40
0.0
 40
0.0
 40
1.0
 40
1.0
 40
1.0
 40
2.0
 40
2.0
 40
2.0
 40
3.0
 40
3.0
 40
3.0
 40
4.0
 40
4.0
 40
4.0
 40
5.0
 40
5.0
 40
5.0
 40
6.0
 40
6.0
 40
6.0
 40
7.0
 40
7.0
 40
7.0
 40
8.0
 40
8.0
 40
8.0
 40
9.0
 40
9.0
 40
9.0
 40
10.0
 40
10.0
 40
10.0
 40
11.0
 40
11.0
 40
11.0
 40
12.0
 40
12.0
 40
12.0
 40
13.0
 40
13.0
 40
13.0
 40
14.0
 40
14.0
 40
14.0
 40
15.0
 40
15.0
 40
15.0
 40
15.0
 10
128.4242024418523
 20
-151.4632784994606
 30
0.0
 10
128.240923362037
 20
-151.676874419546
 30
0.0
 10
128.1782226242054
 20
-151.7488769151878
 30
0.0
 10
128.0538546771879
 20
-151.8673881998804
 30
0.0
 10
128.0538546771879
 20
-151.8673881998804
 30
0.0
 10
128.0538546771879
 20
-152.4344509167525
 30
0.0
 10
128.0538546771879
 20
-152.4344509167525
 30
0.0
 10
128.0538546771879
 20
-152.5846570799094
 30
0.0
 10
128.0597113395128
 20
-152.6036051050782
 30
0.0
 10
128.0631564349981
 20
-152.7813720321171
 30
0.0
 10
128.0652234922892
 20
-152.9122856605566
 30
0.0
 10
128.0707356450657
 20
-152.9612060164472
 30
0.0
 10
128.076247797842
 20
-153.0204616587935
 30
0.0
 10
128.076247797842
 20
-153.0204616587935
 30
0.0
 10
127.8781548074402
 20
-153.0204616587935
 30
0.0
 10
127.8781548074402
 20
-153.0204616587935
 30
0.0
 10
127.881944412474
 20
-152.9760199270338
 30
0.0
 10
127.8853895079592
 20
-152.9291666284344
 30
0.0
 10
127.8853895079592
 20
-152.9208983992698
 30
0.0
 10
127.8853895079592
 20
-152.8406276744634
 30
0.0
 10
127.889179112993
 20
-152.4892279349679
 30
0.0
 10
127.889179112993
 20
-152.4172254393262
 30
0.0
 10
127.889179112993
 20
-152.4172254393262
 30
0.0
 10
127.889179112993
 20
-152.0110486816153
 30
0.0
 10
127.889179112993
 20
-152.0110486816153
 30
0.0
 10
127.7300157015744
 20
-152.1361056477298
 30
0.0
 10
127.5594834750545
 20
-152.2460041937093
 30
0.0
 10
127.3817165480157
 20
-152.3328205999376
 30
0.0
 10
127.3817165480157
 20
-152.3328205999376
 30
0.0
 10
127.2039496209768
 20
-152.1698675834853
 30
0.0
 10
127.2039496209768
 20
-152.1698675834853
 30
0.0
 10
127.3114366001166
 20
-152.1340385904387
 30
0.0
 10
127.5353678066578
 20
-152.0599690375058
 30
0.0
 10
127.8371581711657
 20
-151.8039984429518
 30
0.0
 10
128.0262939133059
 20
-151.6451795410818
 30
0.0
 10
128.1947590825346
 20
-151.4570773275871
 30
0.0
 10
128.3280842778138
 20
-151.2369357260796
 30
0.0
 10
128.3280842778138
 20
-151.2369357260796
 30
0.0
 10
128.4965494470425
 20
-151.3809407173631
 30
0.0
 10
128.4965494470425
 20
-151.3809407173631
 30
0.0
 10
128.5075737525953
 20
-151.3912760038188
 30
0.0
 10
128.5151529626629
 20
-151.4060899144054
 30
0.0
 10
128.5151529626629
 20
-151.4188367677008
 30
0.0
 10
128.5151529626629
 20
-151.4591443848783
 30
0.0
 10
128.4817355364559
 20
-151.4591443848783
 30
0.0
 10
128.4242024418523
 20
-151.4632784994606
 30
0.0
  0
HATCH
  5
179
330
160
100
AcDbEntity
  8
レイヤー 1
 62
   250
420
  2299925
440
 33554687
100
AcDbHatch
 10
0.0
 20
0.0
 30
0.0
210
0.0
220
0.0
230
1.0
  2
SOLID
 70
     1
 71
     1
 91
        1
 92
        1
 93
        1
 72
     4
 94
        3
 73
     0
 74
     0
 95
       50
 96
       46
 40
0.0
 40
0.0
 40
0.0
 40
0.0
 40
1.0
 40
1.0
 40
1.0
 40
2.0
 40
2.0
 40
2.0
 40
3.0
 40
3.0
 40
3.0
 40
4.0
 40
4.0
 40
4.0
 40
5.0
 40
5.0
 40
5.0
 40
6.0
 40
6.0
 40
6.0
 40
7.0
 40
7.0
 40
7.0
 40
8.0
 40
8.0
 40
8.0
 40
9.0
 40
9.0
 40
9.0
 40
10.0
 40
10.0
 40
10.0
 40
11.0
 40
11.0
 40
11.0
 40
12.0
 40
12.0
 40
12.0
 40
13.0
 40
13.0
 40
13.0
 40
14.0
 40
14.0
 40
14.0
 40
15.0
 40
15.0
 40
15.0
 40
15.0
 10
128.4242024418523
 20
-151.4632784994606
 10
128.240923362037
 20
-151.676874419546
 10
128.1782226242054
 20
-151.7488769151878
 10
128.0538546771879
 20
-151.8673881998804
 10
128.0538546771879
 20
-151.8673881998804
 10
128.0538546771879
 20
-152.4344509167525
 10
128.0538546771879
 20
-152.4344509167525
 10
128.0538546771879
 20
-152.5846570799094
 10
128.0597113395128
 20
-152.6036051050782
 10
128.0631564349981
 20
-152.7813720321171
 10
128.0652234922892
 20
-152.9122856605566
 10
128.0707356450657
 20
-152.9612060164472
 10
128.076247797842
 20
-153.0204616587935
 10
128.076247797842
 20
-153.0204616587935
 10
127.8781548074402
 20
-153.0204616587935
 10
127.8781548074402
 20
-153.0204616587935
 10
127.881944412474
 20
-152.9760199270338
 10
127.8853895079592
 20
-152.9291666284344
 10
127.8853895079592
 20
-152.9208983992698
 10
127.8853895079592
 20
-152.8406276744634
 10
127.889179112993
 20
-152.4892279349679
 10
127.889179112993
 20
-152.4172254393262
 10
127.889179112993
 20
-152.4172254393262
 10
127.889179112993
 20
-152.0110486816153
 10
127.889179112993
 20
-152.0110486816153
 10
127.7300157015744
 20
-152.1361056477298
 10
127.5594834750545
 20
-152.2460041937093
 10
127.3817165480157
 20
-152.3328205999376
 10
127.3817165480157
 20
-152.3328205999376
 10
127.2039496209768
 20
-152.1698675834853
 10
127.2039496209768
 20
-152.1698675834853
 10
127.3114366001166
 20
-152.1340385904387
 10
127.5353678066578
 20
-152.0599690375058
 10
127.8371581711657
 20
-151.8039984429518
 10
128.0262939133059
 20
-151.6451795410818
 10
128.1947590825346
 20
-151.4570773275871
 10
128.3280842778138
 20
-151.2369357260796
 10
128.3280842778138
 20
-151.2369357260796
 10
128.4965494470425
 20
-151.3809407173631
 10
128.4965494470425
 20
-151.3809407173631
 10
128.5075737525953
 20
-151.3912760038188
 10
128.5151529626629
 20
-151.4060899144054
 10
128.5151529626629
 20
-151.4188367677008
 10
128.5151529626629
 20
-151.4591443848783
 10
128.4817355364559
 20
-151.4591443848783
 10
128.4242024418523
 20
-151.4632784994606
 97
        0
 97
        1
330
178
 75
     2
 76
     1
 98
        1
 10
0.0
 20
0.0
450
        0
451
        0
460
0.0
461
0.0
452
        0
462
0.0
453
        0
470

  0
SPLINE
  5
17A
330
160
100
AcDbEntity
  8
レイヤー 1
100
AcDbSpline
210
0.0
220
0.0
230
1.0
 70
     9
 71
     3
 72
    50
 73
    46
 74
     0
 42
0.0000000001
 43
0.0000000001
 40
0.0
 40
0.0
 40
0.0
 40
0.0
 40
1.0
 40
1.0
 40
1.0
 40
2.0
 40
2.0
 40
2.0
 40
3.0
 40
3.0
 40
3.0
 40
4.0
 40
4.0
 40
4.0
 40
5.0
 40
5.0
 40
5.0
 40
6.0
 40
6.0
 40
6.0
 40
7.0
 40
7.0
 40
7.0
 40
8.0
 40
8.0
 40
8.0
 40
9.0
 40
9.0
 40
9.0
 40
10.0
 40
10.0
 40
10.0
 40
11.0
 40
11.0
 40
11.0
 40
12.0
 40
12.0
 40
12.0
 40
13.0
 40
13.0
 40
13.0
 40
14.0
 40
14.0
 40
14.0
 40
15.0
 40
15.0
 40
15.0
 40
15.0
 10
129.9204074110963
 20
-151.9900335991553
 30
0.0
 10
129.8670084310749
 20
-152.062036094797
 30
0.0
 10
129.6389431099514
 20
-152.3793293889885
 30
0.0
 10
129.5889892254152
 20
-152.4427191459171
 30
0.0
 10
129.6630587783481
 20
-152.5402153481496
 30
0.0
 10
129.7075005101078
 20
-152.6036051050782
 30
0.0
 10
129.7650336047115
 20
-152.6945556258889
 30
0.0
 10
129.7650336047115
 20
-152.6945556258889
 30
0.0
 10
129.6038031360018
 20
-152.8320149357503
 30
0.0
 10
129.6038031360018
 20
-152.8320149357503
 30
0.0
 10
129.4852918513092
 20
-152.620486072956
 30
0.0
 10
129.3354301977009
 20
-152.3962103568662
 30
0.0
 10
129.0780815649527
 20
-152.1974283473673
 30
0.0
 10
129.0780815649527
 20
-152.1974283473673
 30
0.0
 10
129.2076171551981
 20
-152.0430880696281
 30
0.0
 10
129.2076171551981
 20
-152.0430880696281
 30
0.0
 10
129.3040798287851
 20
-152.1233587944344
 30
0.0
 10
129.3946858400472
 20
-152.2122422579539
 30
0.0
 10
129.4797796985328
 20
-152.3073268933468
 30
0.0
 10
129.5390353408791
 20
-152.2311902831227
 30
0.0
 10
129.716802267918
 20
-151.9879665418641
 30
0.0
 10
129.833591004868
 20
-151.759556711192
 30
0.0
 10
129.833591004868
 20
-151.759556711192
 30
0.0
 10
129.2448241864388
 20
-151.759556711192
 30
0.0
 10
129.2448241864388
 20
-151.759556711192
 30
0.0
 10
129.1352701500078
 20
-151.759556711192
 30
0.0
 10
128.9151285485004
 20
-151.7678249403566
 30
0.0
 10
128.7318494686851
 20
-151.7785047363609
 30
0.0
 10
128.7318494686851
 20
-151.7785047363609
 30
0.0
 10
128.7318494686851
 20
-151.5583631348534
 30
0.0
 10
128.7318494686851
 20
-151.5583631348534
 30
0.0
 10
128.8927354278462
 20
-151.5776556695709
 30
0.0
 10
129.0725694121763
 20
-151.5817897841531
 30
0.0
 10
129.2372449763712
 20
-151.5817897841531
 30
0.0
 10
129.2372449763712
 20
-151.5817897841531
 30
0.0
 10
129.6778726889347
 20
-151.5817897841531
 30
0.0
 10
129.6778726889347
 20
-151.5817897841531
 30
0.0
 10
129.9741509006662
 20
-151.5817897841531
 30
0.0
 10
130.0130804796495
 20
-151.5669758735666
 30
0.0
 10
130.0854274848397
 20
-151.5266682563892
 30
0.0
 10
130.0854274848397
 20
-151.5266682563892
 30
0.0
 10
130.2314995334143
 20
-151.6854871582592
 30
0.0
 10
130.2314995334143
 20
-151.6854871582592
 30
0.0
 10
130.0981743381351
 20
-151.7574896539009
 30
0.0
 10
129.9724283529235
 20
-151.9200981608047
 30
0.0
 10
129.9204074110963
 20
-151.9900335991553
 30
0.0
  0
HATCH
  5
17B
330
160
100
AcDbEntity
  8
レイヤー 1
 62
   250
420
  2299925
440
 33554687
100
AcDbHatch
 10
0.0
 20
0.0
 30
0.0
210
0.0
220
0.0
230
1.0
  2
SOLID
 70
     1
 71
     1
 91
        1
 92
        1
 93
        1
 72
     4
 94
        3
 73
     0
 74
     0
 95
       50
 96
       46
 40
0.0
 40
0.0
 40
0.0
 40
0.0
 40
1.0
 40
1.0
 40
1.0
 40
2.0
 40
2.0
 40
2.0
 40
3.0
 40
3.0
 40
3.0
 40
4.0
 40
4.0
 40
4.0
 40
5.0
 40
5.0
 40
5.0
 40
6.0
 40
6.0
 40
6.0
 40
7.0
 40
7.0
 40
7.0
 40
8.0
 40
8.0
 40
8.0
 40
9.0
 40
9.0
 40
9.0
 40
10.0
 40
10.0
 40
10.0
 40
11.0
 40
11.0
 40
11.0
 40
12.0
 40
12.0
 40
12.0
 40
13.0
 40
13.0
 40
13.0
 40
14.0
 40
14.0
 40
14.0
 40
15.0
 40
15.0
 40
15.0
 40
15.0
 10
129.9204074110963
 20
-151.9900335991553
 10
129.8670084310749
 20
-152.062036094797
 10
129.6389431099514
 20
-152.3793293889885
 10
129.5889892254152
 20
-152.4427191459171
 10
129.6630587783481
 20
-152.5402153481496
 10
129.7075005101078
 20
-152.6036051050782
 10
129.7650336047115
 20
-152.6945556258889
 10
129.7650336047115
 20
-152.6945556258889
 10
129.6038031360018
 20
-152.8320149357503
 10
129.6038031360018
 20
-152.8320149357503
 10
129.4852918513092
 20
-152.620486072956
 10
129.3354301977009
 20
-152.3962103568662
 10
129.0780815649527
 20
-152.1974283473673
 10
129.0780815649527
 20
-152.1974283473673
 10
129.2076171551981
 20
-152.0430880696281
 10
129.2076171551981
 20
-152.0430880696281
 10
129.3040798287851
 20
-152.1233587944344
 10
129.3946858400472
 20
-152.2122422579539
 10
129.4797796985328
 20
-152.3073268933468
 10
129.5390353408791
 20
-152.2311902831227
 10
129.716802267918
 20
-151.9879665418641
 10
129.833591004868
 20
-151.759556711192
 10
129.833591004868
 20
-151.759556711192
 10
129.2448241864388
 20
-151.759556711192
 10
129.2448241864388
 20
-151.759556711192
 10
129.1352701500078
 20
-151.759556711192
 10
128.9151285485004
 20
-151.7678249403566
 10
128.7318494686851
 20
-151.7785047363609
 10
128.7318494686851
 20
-151.7785047363609
 10
128.7318494686851
 20
-151.5583631348534
 10
128.7318494686851
 20
-151.5583631348534
 10
128.8927354278462
 20
-151.5776556695709
 10
129.0725694121763
 20
-151.5817897841531
 10
129.2372449763712
 20
-151.5817897841531
 10
129.2372449763712
 20
-151.5817897841531
 10
129.6778726889347
 20
-151.5817897841531
 10
129.6778726889347
 20
-151.5817897841531
 10
129.9741509006662
 20
-151.5817897841531
 10
130.0130804796495
 20
-151.5669758735666
 10
130.0854274848397
 20
-151.5266682563892
 10
130.0854274848397
 20
-151.5266682563892
 10
130.2314995334143
 20
-151.6854871582592
 10
130.2314995334143
 20
-151.6854871582592
 10
130.0981743381351
 20
-151.7574896539009
 10
129.9724283529235
 20
-151.9200981608047
 10
129.9204074110963
 20
-151.9900335991553
 97
        0
 97
        1
330
17A
 75
     2
 76
     1
 98
        1
 10
0.0
 20
0.0
450
        0
451
        0
460
0.0
461
0.0
452
        0
462
0.0
453
        0
470

  0
SPLINE
  5
17C
330
160
100
AcDbEntity
  8
レイヤー 1
100
AcDbSpline
210
0.0
220
0.0
230
1.0
 70
     9
 71
     3
 72
    29
 73
    25
 74
     0
 42
0.0000000001
 43
0.0000000001
 40
0.0
 40
0.0
 40
0.0
 40
0.0
 40
1.0
 40
1.0
 40
1.0
 40
2.0
 40
2.0
 40
2.0
 40
3.0
 40
3.0
 40
3.0
 40
4.0
 40
4.0
 40
4.0
 40
5.0
 40
5.0
 40
5.0
 40
6.0
 40
6.0
 40
6.0
 40
7.0
 40
7.0
 40
7.0
 40
8.0
 40
8.0
 40
8.0
 40
8.0
 10
131.3428873369559
 20
-152.2332573404139
 30
0.0
 10
131.3428873369559
 20
-152.2332573404139
 30
0.0
 10
130.9187960827217
 20
-152.2332573404139
 30
0.0
 10
130.9187960827217
 20
-152.2332573404139
 30
0.0
 10
130.8946804143249
 20
-152.2332573404139
 30
0.0
 10
130.6166612086653
 20
-152.2332573404139
 30
0.0
 10
130.4316595811073
 20
-152.2587510470047
 30
0.0
 10
130.4316595811073
 20
-152.2587510470047
 30
0.0
 10
130.4316595811073
 20
-152.0282741590415
 30
0.0
 10
130.4316595811073
 20
-152.0282741590415
 30
0.0
 10
130.5704969291629
 20
-152.0513562987927
 30
0.0
 10
130.737239550649
 20
-152.0534233560838
 30
0.0
 10
130.9187960827217
 20
-152.0534233560838
 30
0.0
 10
130.9187960827217
 20
-152.0534233560838
 30
0.0
 10
131.3428873369559
 20
-152.0534233560838
 30
0.0
 10
131.3428873369559
 20
-152.0534233560838
 30
0.0
 10
131.5054958438597
 20
-152.0534233560838
 30
0.0
 10
131.6687933698606
 20
-152.0513562987927
 30
0.0
 10
131.8296793290217
 20
-152.0282741590415
 30
0.0
 10
131.8296793290217
 20
-152.0282741590415
 30
0.0
 10
131.8296793290217
 20
-152.2587510470047
 30
0.0
 10
131.8296793290217
 20
-152.2587510470047
 30
0.0
 10
131.6687933698606
 20
-152.235324397705
 30
0.0
 10
131.4520968638383
 20
-152.2332573404139
 30
0.0
 10
131.3428873369559
 20
-152.2332573404139
 30
0.0
  0
HATCH
  5
17D
330
160
100
AcDbEntity
  8
レイヤー 1
 62
   250
420
  2299925
440
 33554687
100
AcDbHatch
 10
0.0
 20
0.0
 30
0.0
210
0.0
220
0.0
230
1.0
  2
SOLID
 70
     1
 71
     1
 91
        1
 92
        1
 93
        1
 72
     4
 94
        3
 73
     0
 74
     0
 95
       29
 96
       25
 40
0.0
 40
0.0
 40
0.0
 40
0.0
 40
1.0
 40
1.0
 40
1.0
 40
2.0
 40
2.0
 40
2.0
 40
3.0
 40
3.0
 40
3.0
 40
4.0
 40
4.0
 40
4.0
 40
5.0
 40
5.0
 40
5.0
 40
6.0
 40
6.0
 40
6.0
 40
7.0
 40
7.0
 40
7.0
 40
8.0
 40
8.0
 40
8.0
 40
8.0
 10
131.3428873369559
 20
-152.2332573404139
 10
131.3428873369559
 20
-152.2332573404139
 10
130.9187960827217
 20
-152.2332573404139
 10
130.9187960827217
 20
-152.2332573404139
 10
130.8946804143249
 20
-152.2332573404139
 10
130.6166612086653
 20
-152.2332573404139
 10
130.4316595811073
 20
-152.2587510470047
 10
130.4316595811073
 20
-152.2587510470047
 10
130.4316595811073
 20
-152.0282741590415
 10
130.4316595811073
 20
-152.0282741590415
 10
130.5704969291629
 20
-152.0513562987927
 10
130.737239550649
 20
-152.0534233560838
 10
130.9187960827217
 20
-152.0534233560838
 10
130.9187960827217
 20
-152.0534233560838
 10
131.3428873369559
 20
-152.0534233560838
 10
131.3428873369559
 20
-152.0534233560838
 10
131.5054958438597
 20
-152.0534233560838
 10
131.6687933698606
 20
-152.0513562987927
 10
131.8296793290217
 20
-152.0282741590415
 10
131.8296793290217
 20
-152.0282741590415
 10
131.8296793290217
 20
-152.2587510470047
 10
131.8296793290217
 20
-152.2587510470047
 10
131.6687933698606
 20
-152.235324397705
 10
131.4520968638383
 20
-152.2332573404139
 10
131.3428873369559
 20
-152.2332573404139
 97
        0
 97
        1
330
17C
 75
     2
 76
     1
 98
        1
 10
0.0
 20
0.0
450
        0
451
        0
460
0.0
461
0.0
452
        0
462
0.0
453
        0
470

  0
SPLINE
  5
17E
330
160
100
AcDbEntity
  8
レイヤー 1
100
AcDbSpline
210
0.0
220
0.0
230
1.0
 70
     9
 71
     3
 72
    20
 73
    16
 74
     0
 42
0.0000000001
 43
0.0000000001
 40
0.0
 40
0.0
 40
0.0
 40
0.0
 40
1.0
 40
1.0
 40
1.0
 40
2.0
 40
2.0
 40
2.0
 40
3.0
 40
3.0
 40
3.0
 40
4.0
 40
4.0
 40
4.0
 40
5.0
 40
5.0
 40
5.0
 40
5.0
 10
132.9186740119092
 20
-152.5846570799094
 30
0.0
 10
132.8780218851832
 20
-152.4068901528705
 30
0.0
 10
132.7929280266976
 20
-152.2649522188782
 30
0.0
 10
132.6706271369712
 20
-152.1550536728987
 30
0.0
 10
132.6706271369712
 20
-152.1550536728987
 30
0.0
 10
132.8115315423179
 20
-152.0406765027884
 30
0.0
 10
132.8115315423179
 20
-152.0406765027884
 30
0.0
 10
132.8649305223393
 20
-152.083051177257
 30
0.0
 10
132.9004150058374
 20
-152.1168131130125
 30
0.0
 10
132.9669053487027
 20
-152.2249891112493
 30
0.0
 10
133.0371852966018
 20
-152.3410888291022
 30
0.0
 10
133.0557888122221
 20
-152.3941432995751
 30
0.0
 10
133.0781819328763
 20
-152.4596001137948
 30
0.0
 10
133.0781819328763
 20
-152.4596001137948
 30
0.0
 10
132.9186740119092
 20
-152.5846570799094
 30
0.0
 10
132.9186740119092
 20
-152.5846570799094
 30
0.0
  0
SPLINE
  5
17F
330
160
100
AcDbEntity
  8
レイヤー 1
100
AcDbSpline
210
0.0
220
0.0
230
1.0
 70
     9
 71
     3
 72
    77
 73
    73
 74
     0
 42
0.0000000001
 43
0.0000000001
 40
0.0
 40
0.0
 40
0.0
 40
0.0
 40
1.0
 40
1.0
 40
1.0
 40
2.0
 40
2.0
 40
2.0
 40
3.0
 40
3.0
 40
3.0
 40
4.0
 40
4.0
 40
4.0
 40
5.0
 40
5.0
 40
5.0
 40
6.0
 40
6.0
 40
6.0
 40
7.0
 40
7.0
 40
7.0
 40
8.0
 40
8.0
 40
8.0
 40
9.0
 40
9.0
 40
9.0
 40
10.0
 40
10.0
 40
10.0
 40
11.0
 40
11.0
 40
11.0
 40
12.0
 40
12.0
 40
12.0
 40
13.0
 40
13.0
 40
13.0
 40
14.0
 40
14.0
 40
14.0
 40
15.0
 40
15.0
 40
15.0
 40
16.0
 40
16.0
 40
16.0
 40
17.0
 40
17.0
 40
17.0
 40
18.0
 40
18.0
 40
18.0
 40
19.0
 40
19.0
 40
19.0
 40
20.0
 40
20.0
 40
20.0
 40
21.0
 40
21.0
 40
21.0
 40
22.0
 40
22.0
 40
22.0
 40
23.0
 40
23.0
 40
23.0
 40
24.0
 40
24.0
 40
24.0
 40
24.0
 10
133.5928791983726
 20
-151.8587754611672
 30
0.0
 10
133.5319010082837
 20
-151.8546413465849
 30
0.0
 10
133.4726453659374
 20
-151.8546413465849
 30
0.0
 10
133.4133897235911
 20
-151.8546413465849
 30
0.0
 10
133.4133897235911
 20
-151.8546413465849
 30
0.0
 10
133.4133897235911
 20
-152.6290988116691
 30
0.0
 10
133.4133897235911
 20
-152.6290988116691
 30
0.0
 10
133.4133897235911
 20
-152.8933376353878
 30
0.0
 10
133.4113226662999
 20
-152.9229654565609
 30
0.0
 10
133.4058105135235
 20
-152.9525932777341
 30
0.0
 10
133.3761826923504
 20
-153.0859184730132
 30
0.0
 10
133.2872992288309
 20
-153.0941867021778
 30
0.0
 10
133.1336479701888
 20
-153.0941867021778
 30
0.0
 10
133.0985079962393
 20
-153.0941867021778
 30
0.0
 10
133.0836940856527
 20
-153.0941867021778
 30
0.0
 10
133.0485541117031
 20
-153.0900525875955
 30
0.0
 10
133.0485541117031
 20
-153.0900525875955
 30
0.0
 10
132.9393445848207
 20
-152.848895903628
 30
0.0
 10
132.9393445848207
 20
-152.848895903628
 30
0.0
 10
133.0409749016356
 20
-152.8805907820923
 30
0.0
 10
133.1133219068258
 20
-152.8805907820923
 30
0.0
 10
133.1336479701888
 20
-152.8805907820923
 30
0.0
 10
133.1946261602777
 20
-152.8805907820923
 30
0.0
 10
133.2242539814509
 20
-152.8637098142146
 30
0.0
 10
133.2280435864846
 20
-152.8065212291595
 30
0.0
 10
133.2280435864846
 20
-152.793774375864
 30
0.0
 10
133.2297661342273
 20
-152.69662268318
 30
0.0
 10
133.2297661342273
 20
-152.6394340981248
 30
0.0
 10
133.2297661342273
 20
-152.6394340981248
 30
0.0
 10
133.2297661342273
 20
-151.8525742892938
 30
0.0
 10
133.2297661342273
 20
-151.8525742892938
 30
0.0
 10
133.2297661342273
 20
-151.8525742892938
 30
0.0
 10
132.9724175014791
 20
-151.8525742892938
 30
0.0
 10
132.9724175014791
 20
-151.8525742892938
 30
0.0
 10
132.8446044589763
 20
-151.8525742892938
 30
0.0
 10
132.7167914164736
 20
-151.8587754611672
 30
0.0
 10
132.5910454312619
 20
-151.8715223144627
 30
0.0
 10
132.5910454312619
 20
-151.8715223144627
 30
0.0
 10
132.5910454312619
 20
-151.6641275662506
 30
0.0
 10
132.5910454312619
 20
-151.6641275662506
 30
0.0
 10
132.7226480787985
 20
-151.676874419546
 30
0.0
 10
132.9131618591328
 20
-151.6813530436769
 30
0.0
 10
132.9724175014791
 20
-151.6813530436769
 30
0.0
 10
132.9724175014791
 20
-151.6813530436769
 30
0.0
 10
133.2297661342273
 20
-151.6813530436769
 30
0.0
 10
133.2297661342273
 20
-151.6813530436769
 30
0.0
 10
133.2280435864846
 20
-151.4126355958274
 30
0.0
 10
133.2280435864846
 20
-151.3364989856034
 30
0.0
 10
133.2204643764171
 20
-151.1883598797376
 30
0.0
 10
133.2204643764171
 20
-151.1883598797376
 30
0.0
 10
133.4464626402495
 20
-151.2262559300754
 30
0.0
 10
133.4464626402495
 20
-151.2262559300754
 30
0.0
 10
133.4595540030934
 20
-151.2283229873665
 30
0.0
 10
133.4726453659374
 20
-151.2348686687885
 30
0.0
 10
133.4726453659374
 20
-151.2558837512485
 30
0.0
 10
133.4726453659374
 20
-151.2751762859659
 30
0.0
 10
133.4667887036125
 20
-151.2772433432571
 30
0.0
 10
133.4168348190763
 20
-151.3110052790125
 30
0.0
 10
133.4133897235911
 20
-151.3892089465277
 30
0.0
 10
133.4133897235911
 20
-151.4040228571143
 30
0.0
 10
133.4133897235911
 20
-151.6813530436769
 30
0.0
 10
133.5687635299759
 20
-151.676874419546
 30
0.0
 10
133.5852999883051
 20
-151.676874419546
 30
0.0
 10
133.6149278094782
 20
-151.6727403049637
 30
0.0
 10
133.6593695412379
 20
-151.6686061903814
 30
0.0
 10
133.6631591462717
 20
-151.6665391330903
 30
0.0
 10
133.702088725255
 20
-151.6641275662506
 30
0.0
 10
133.702088725255
 20
-151.6641275662506
 30
0.0
 10
133.702088725255
 20
-151.8715223144627
 30
0.0
 10
133.702088725255
 20
-151.8715223144627
 30
0.0
 10
133.6762505091156
 20
-151.8694552571715
 30
0.0
 10
133.6280191723221
 20
-151.8608425184584
 30
0.0
 10
133.5928791983726
 20
-151.8587754611672
 30
0.0
  0
SPLINE
  5
180
330
160
100
AcDbEntity
  8
レイヤー 1
100
AcDbSpline
210
0.0
220
0.0
230
1.0
 70
     9
 71
     3
 72
    53
 73
    49
 74
     0
 42
0.0000000001
 43
0.0000000001
 40
0.0
 40
0.0
 40
0.0
 40
0.0
 40
1.0
 40
1.0
 40
1.0
 40
2.0
 40
2.0
 40
2.0
 40
3.0
 40
3.0
 40
3.0
 40
4.0
 40
4.0
 40
4.0
 40
5.0
 40
5.0
 40
5.0
 40
6.0
 40
6.0
 40
6.0
 40
7.0
 40
7.0
 40
7.0
 40
8.0
 40
8.0
 40
8.0
 40
9.0
 40
9.0
 40
9.0
 40
10.0
 40
10.0
 40
10.0
 40
11.0
 40
11.0
 40
11.0
 40
12.0
 40
12.0
 40
12.0
 40
13.0
 40
13.0
 40
13.0
 40
14.0
 40
14.0
 40
14.0
 40
15.0
 40
15.0
 40
15.0
 40
16.0
 40
16.0
 40
16.0
 40
16.0
 10
132.5855332784855
 20
-151.3595811253545
 30
0.0
 10
132.5262776361392
 20
-151.5118543458026
 30
0.0
 10
132.4890706048985
 20
-151.5900580133177
 30
0.0
 10
132.4559976882401
 20
-151.6579263943772
 30
0.0
 10
132.4928602099323
 20
-151.6789414768372
 30
0.0
 10
132.4966498149661
 20
-151.6813530436769
 30
0.0
 10
132.4966498149661
 20
-151.6961669542635
 30
0.0
 10
132.4966498149661
 20
-151.7085692980103
 30
0.0
 10
132.4670219937929
 20
-151.7426757433143
 30
0.0
 10
132.4577202359828
 20
-151.7509439724789
 30
0.0
 10
132.4559976882401
 20
-151.9476589246867
 30
0.0
 10
132.4559976882401
 20
-151.9690185166952
 30
0.0
 10
132.4559976882401
 20
-152.1023437119744
 30
0.0
 10
132.453930630949
 20
-152.1147460557213
 30
0.0
 10
132.453930630949
 20
-152.1295599663079
 30
0.0
 10
132.453930630949
 20
-152.1443738768944
 30
0.0
 10
132.453930630949
 20
-152.1443738768944
 30
0.0
 10
132.453930630949
 20
-152.6797417153023
 30
0.0
 10
132.453930630949
 20
-152.6797417153023
 30
0.0
 10
132.453930630949
 20
-152.751744210944
 30
0.0
 10
132.4577202359828
 20
-152.9863552134895
 30
0.0
 10
132.4652994460503
 20
-153.0965982690175
 30
0.0
 10
132.4652994460503
 20
-153.0965982690175
 30
0.0
 10
132.2520480355134
 20
-153.0965982690175
 30
0.0
 10
132.2520480355134
 20
-153.0965982690175
 30
0.0
 10
132.2723740988763
 20
-152.9377793671475
 30
0.0
 10
132.2782307612013
 20
-152.69662268318
 30
0.0
 10
132.2782307612013
 20
-152.67560760072
 30
0.0
 10
132.2782307612013
 20
-152.67560760072
 30
0.0
 10
132.2782307612013
 20
-151.958338720691
 30
0.0
 10
132.2782307612013
 20
-151.958338720691
 30
0.0
 10
132.198649055492
 20
-152.0727158908013
 30
0.0
 10
132.1449055659221
 20
-152.131627023599
 30
0.0
 10
132.1076985346814
 20
-152.1740016980676
 30
0.0
 10
132.1076985346814
 20
-152.1740016980676
 30
0.0
 10
131.9409559131953
 20
-152.0365423882061
 30
0.0
 10
131.9409559131953
 20
-152.0365423882061
 30
0.0
 10
132.1872802403907
 20
-151.8208794108295
 30
0.0
 10
132.3557454096194
 20
-151.5118543458026
 30
0.0
 10
132.453930630949
 20
-151.1756130264422
 30
0.0
 10
132.453930630949
 20
-151.1756130264422
 30
0.0
 10
132.6465114685745
 20
-151.2899901965525
 30
0.0
 10
132.6465114685745
 20
-151.2899901965525
 30
0.0
 10
132.6575357741273
 20
-151.2961913684259
 30
0.0
 10
132.6651149841948
 20
-151.3003254830082
 30
0.0
 10
132.6651149841948
 20
-151.3151393935948
 30
0.0
 10
132.6651149841948
 20
-151.3406331001857
 30
0.0
 10
132.6503010736082
 20
-151.344767214768
 30
0.0
 10
132.5855332784855
 20
-151.3595811253545
 30
0.0
  0
HATCH
  5
181
330
160
100
AcDbEntity
  8
レイヤー 1
 62
   250
420
  2299925
440
 33554687
100
AcDbHatch
 10
0.0
 20
0.0
 30
0.0
210
0.0
220
0.0
230
1.0
  2
SOLID
 70
     1
 71
     1
 91
        3
 92
        1
 93
        1
 72
     4
 94
        3
 73
     0
 74
     0
 95
       20
 96
       16
 40
0.0
 40
0.0
 40
0.0
 40
0.0
 40
1.0
 40
1.0
 40
1.0
 40
2.0
 40
2.0
 40
2.0
 40
3.0
 40
3.0
 40
3.0
 40
4.0
 40
4.0
 40
4.0
 40
5.0
 40
5.0
 40
5.0
 40
5.0
 10
132.9186740119092
 20
-152.5846570799094
 10
132.8780218851832
 20
-152.4068901528705
 10
132.7929280266976
 20
-152.2649522188782
 10
132.6706271369712
 20
-152.1550536728987
 10
132.6706271369712
 20
-152.1550536728987
 10
132.8115315423179
 20
-152.0406765027884
 10
132.8115315423179
 20
-152.0406765027884
 10
132.8649305223393
 20
-152.083051177257
 10
132.9004150058374
 20
-152.1168131130125
 10
132.9669053487027
 20
-152.2249891112493
 10
133.0371852966018
 20
-152.3410888291022
 10
133.0557888122221
 20
-152.3941432995751
 10
133.0781819328763
 20
-152.4596001137948
 10
133.0781819328763
 20
-152.4596001137948
 10
132.9186740119092
 20
-152.5846570799094
 10
132.9186740119092
 20
-152.5846570799094
 97
        0
 97
        1
330
17E
 92
        1
 93
        1
 72
     4
 94
        3
 73
     0
 74
     0
 95
       77
 96
       73
 40
0.0
 40
0.0
 40
0.0
 40
0.0
 40
1.0
 40
1.0
 40
1.0
 40
2.0
 40
2.0
 40
2.0
 40
3.0
 40
3.0
 40
3.0
 40
4.0
 40
4.0
 40
4.0
 40
5.0
 40
5.0
 40
5.0
 40
6.0
 40
6.0
 40
6.0
 40
7.0
 40
7.0
 40
7.0
 40
8.0
 40
8.0
 40
8.0
 40
9.0
 40
9.0
 40
9.0
 40
10.0
 40
10.0
 40
10.0
 40
11.0
 40
11.0
 40
11.0
 40
12.0
 40
12.0
 40
12.0
 40
13.0
 40
13.0
 40
13.0
 40
14.0
 40
14.0
 40
14.0
 40
15.0
 40
15.0
 40
15.0
 40
16.0
 40
16.0
 40
16.0
 40
17.0
 40
17.0
 40
17.0
 40
18.0
 40
18.0
 40
18.0
 40
19.0
 40
19.0
 40
19.0
 40
20.0
 40
20.0
 40
20.0
 40
21.0
 40
21.0
 40
21.0
 40
22.0
 40
22.0
 40
22.0
 40
23.0
 40
23.0
 40
23.0
 40
24.0
 40
24.0
 40
24.0
 40
24.0
 10
133.5928791983726
 20
-151.8587754611672
 10
133.5319010082837
 20
-151.8546413465849
 10
133.4726453659374
 20
-151.8546413465849
 10
133.4133897235911
 20
-151.8546413465849
 10
133.4133897235911
 20
-151.8546413465849
 10
133.4133897235911
 20
-152.6290988116691
 10
133.4133897235911
 20
-152.6290988116691
 10
133.4133897235911
 20
-152.8933376353878
 10
133.4113226662999
 20
-152.9229654565609
 10
133.4058105135235
 20
-152.9525932777341
 10
133.3761826923504
 20
-153.0859184730132
 10
133.2872992288309
 20
-153.0941867021778
 10
133.1336479701888
 20
-153.0941867021778
 10
133.0985079962393
 20
-153.0941867021778
 10
133.0836940856527
 20
-153.0941867021778
 10
133.0485541117031
 20
-153.0900525875955
 10
133.0485541117031
 20
-153.0900525875955
 10
132.9393445848207
 20
-152.848895903628
 10
132.9393445848207
 20
-152.848895903628
 10
133.0409749016356
 20
-152.8805907820923
 10
133.1133219068258
 20
-152.8805907820923
 10
133.1336479701888
 20
-152.8805907820923
 10
133.1946261602777
 20
-152.8805907820923
 10
133.2242539814509
 20
-152.8637098142146
 10
133.2280435864846
 20
-152.8065212291595
 10
133.2280435864846
 20
-152.793774375864
 10
133.2297661342273
 20
-152.69662268318
 10
133.2297661342273
 20
-152.6394340981248
 10
133.2297661342273
 20
-152.6394340981248
 10
133.2297661342273
 20
-151.8525742892938
 10
133.2297661342273
 20
-151.8525742892938
 10
133.2297661342273
 20
-151.8525742892938
 10
132.9724175014791
 20
-151.8525742892938
 10
132.9724175014791
 20
-151.8525742892938
 10
132.8446044589763
 20
-151.8525742892938
 10
132.7167914164736
 20
-151.8587754611672
 10
132.5910454312619
 20
-151.8715223144627
 10
132.5910454312619
 20
-151.8715223144627
 10
132.5910454312619
 20
-151.6641275662506
 10
132.5910454312619
 20
-151.6641275662506
 10
132.7226480787985
 20
-151.676874419546
 10
132.9131618591328
 20
-151.6813530436769
 10
132.9724175014791
 20
-151.6813530436769
 10
132.9724175014791
 20
-151.6813530436769
 10
133.2297661342273
 20
-151.6813530436769
 10
133.2297661342273
 20
-151.6813530436769
 10
133.2280435864846
 20
-151.4126355958274
 10
133.2280435864846
 20
-151.3364989856034
 10
133.2204643764171
 20
-151.1883598797376
 10
133.2204643764171
 20
-151.1883598797376
 10
133.4464626402495
 20
-151.2262559300754
 10
133.4464626402495
 20
-151.2262559300754
 10
133.4595540030934
 20
-151.2283229873665
 10
133.4726453659374
 20
-151.2348686687885
 10
133.4726453659374
 20
-151.2558837512485
 10
133.4726453659374
 20
-151.2751762859659
 10
133.4667887036125
 20
-151.2772433432571
 10
133.4168348190763
 20
-151.3110052790125
 10
133.4133897235911
 20
-151.3892089465277
 10
133.4133897235911
 20
-151.4040228571143
 10
133.4133897235911
 20
-151.6813530436769
 10
133.5687635299759
 20
-151.676874419546
 10
133.5852999883051
 20
-151.676874419546
 10
133.6149278094782
 20
-151.6727403049637
 10
133.6593695412379
 20
-151.6686061903814
 10
133.6631591462717
 20
-151.6665391330903
 10
133.702088725255
 20
-151.6641275662506
 10
133.702088725255
 20
-151.6641275662506
 10
133.702088725255
 20
-151.8715223144627
 10
133.702088725255
 20
-151.8715223144627
 10
133.6762505091156
 20
-151.8694552571715
 10
133.6280191723221
 20
-151.8608425184584
 10
133.5928791983726
 20
-151.8587754611672
 97
        0
 97
        1
330
17F
 92
        1
 93
        1
 72
     4
 94
        3
 73
     0
 74
     0
 95
       53
 96
       49
 40
0.0
 40
0.0
 40
0.0
 40
0.0
 40
1.0
 40
1.0
 40
1.0
 40
2.0
 40
2.0
 40
2.0
 40
3.0
 40
3.0
 40
3.0
 40
4.0
 40
4.0
 40
4.0
 40
5.0
 40
5.0
 40
5.0
 40
6.0
 40
6.0
 40
6.0
 40
7.0
 40
7.0
 40
7.0
 40
8.0
 40
8.0
 40
8.0
 40
9.0
 40
9.0
 40
9.0
 40
10.0
 40
10.0
 40
10.0
 40
11.0
 40
11.0
 40
11.0
 40
12.0
 40
12.0
 40
12.0
 40
13.0
 40
13.0
 40
13.0
 40
14.0
 40
14.0
 40
14.0
 40
15.0
 40
15.0
 40
15.0
 40
16.0
 40
16.0
 40
16.0
 40
16.0
 10
132.5855332784855
 20
-151.3595811253545
 10
132.5262776361392
 20
-151.5118543458026
 10
132.4890706048985
 20
-151.5900580133177
 10
132.4559976882401
 20
-151.6579263943772
 10
132.4928602099323
 20
-151.6789414768372
 10
132.4966498149661
 20
-151.6813530436769
 10
132.4966498149661
 20
-151.6961669542635
 10
132.4966498149661
 20
-151.7085692980103
 10
132.4670219937929
 20
-151.7426757433143
 10
132.4577202359828
 20
-151.7509439724789
 10
132.4559976882401
 20
-151.9476589246867
 10
132.4559976882401
 20
-151.9690185166952
 10
132.4559976882401
 20
-152.1023437119744
 10
132.453930630949
 20
-152.1147460557213
 10
132.453930630949
 20
-152.1295599663079
 10
132.453930630949
 20
-152.1443738768944
 10
132.453930630949
 20
-152.1443738768944
 10
132.453930630949
 20
-152.6797417153023
 10
132.453930630949
 20
-152.6797417153023
 10
132.453930630949
 20
-152.751744210944
 10
132.4577202359828
 20
-152.9863552134895
 10
132.4652994460503
 20
-153.0965982690175
 10
132.4652994460503
 20
-153.0965982690175
 10
132.2520480355134
 20
-153.0965982690175
 10
132.2520480355134
 20
-153.0965982690175
 10
132.2723740988763
 20
-152.9377793671475
 10
132.2782307612013
 20
-152.69662268318
 10
132.2782307612013
 20
-152.67560760072
 10
132.2782307612013
 20
-152.67560760072
 10
132.2782307612013
 20
-151.958338720691
 10
132.2782307612013
 20
-151.958338720691
 10
132.198649055492
 20
-152.0727158908013
 10
132.1449055659221
 20
-152.131627023599
 10
132.1076985346814
 20
-152.1740016980676
 10
132.1076985346814
 20
-152.1740016980676
 10
131.9409559131953
 20
-152.0365423882061
 10
131.9409559131953
 20
-152.0365423882061
 10
132.1872802403907
 20
-151.8208794108295
 10
132.3557454096194
 20
-151.5118543458026
 10
132.453930630949
 20
-151.1756130264422
 10
132.453930630949
 20
-151.1756130264422
 10
132.6465114685745
 20
-151.2899901965525
 10
132.6465114685745
 20
-151.2899901965525
 10
132.6575357741273
 20
-151.2961913684259
 10
132.6651149841948
 20
-151.3003254830082
 10
132.6651149841948
 20
-151.3151393935948
 10
132.6651149841948
 20
-151.3406331001857
 10
132.6503010736082
 20
-151.344767214768
 10
132.5855332784855
 20
-151.3595811253545
 97
        0
 97
        1
330
180
 75
     2
 76
     1
 98
        1
 10
0.0
 20
0.0
450
        0
451
        0
460
0.0
461
0.0
452
        0
462
0.0
453
        0
470

  0
ENDBLK
  5
163
330
160
100
AcDbEntity
  8
0
100
AcDbBlockEnd
  0
ENDSEC
  0
SECTION
  2
ENTITIES
  0
LINE
  5
79
330
70
100
AcDbEntity
  8
レイヤー 1
 62
    18
420
        0
370
    25
100
AcDbLine
 10
114.5911456516928
 20
-153.1584083798002
 30
0.0
 11
102.5905279022985
 21
-153.1584083798002
 31
0.0
  0
LINE
  5
7A
330
70
100
AcDbEntity
  8
レイヤー 1
 62
    18
420
        0
370
    25
100
AcDbLine
 10
82.5889837643937
 20
-146.6581956036478
 30
0.0
 11
82.5889837643937
 21
-147.1584344924115
 31
0.0
  0
LINE
  5
7B
330
70
100
AcDbEntity
  8
レイヤー 1
 62
    18
420
        0
370
    25
100
AcDbLine
 10
103.5262003784275
 20
-147.1584344924115
 30
0.0
 11
82.5889837643937
 21
-147.1584344924115
 31
0.0
  0
LINE
  5
7C
330
70
100
AcDbEntity
  8
レイヤー 1
 62
    18
420
        0
370
    25
100
AcDbLine
 10
82.5889837643937
 20
-146.6581956036478
 30
0.0
 11
83.10298098648756
 21
-147.0402539368855
 31
0.0
  0
LINE
  5
7D
330
70
100
AcDbEntity
  8
レイヤー 1
 62
    18
420
        0
370
    25
100
AcDbLine
 10
83.10298098648756
 20
-147.0402539368855
 30
0.0
 11
83.58840320858849
 21
-146.6227061592119
 31
0.0
  0
LINE
  5
7E
330
70
100
AcDbEntity
  8
レイヤー 1
 62
    18
420
        0
370
    25
100
AcDbLine
 10
84.10240043068233
 20
-147.00476449245
 30
0.0
 11
84.58817543056039
 21
-146.5868992147766
 31
0.0
  0
LINE
  5
7F
330
70
100
AcDbEntity
  8
レイヤー 1
 62
    18
420
        0
370
    25
100
AcDbLine
 10
83.58840320858849
 20
-146.6227061592119
 30
0.0
 11
84.10240043068233
 21
-147.00476449245
 31
0.0
  0
LINE
  5
80
330
70
100
AcDbEntity
  8
レイヤー 1
 62
    18
420
        0
370
    25
100
AcDbLine
 10
84.58817543056039
 20
-146.5868992147766
 30
0.0
 11
85.10217265265422
 21
-146.9689575480146
 31
0.0
  0
LINE
  5
81
330
70
100
AcDbEntity
  8
レイヤー 1
 62
    18
420
        0
370
    25
100
AcDbLine
 10
85.10217265265422
 20
-146.9689575480146
 30
0.0
 11
85.58724209697741
 21
-146.5514097703411
 31
0.0
  0
LINE
  5
82
330
70
100
AcDbEntity
  8
レイヤー 1
 62
    18
420
        0
370
    25
100
AcDbLine
 10
85.58724209697741
 20
-146.5514097703411
 30
0.0
 11
86.10127165630784
 21
-146.9331153258013
 31
0.0
  0
LINE
  5
83
330
70
100
AcDbEntity
  8
レイヤー 1
 62
    18
420
        0
370
    25
100
AcDbLine
 10
86.10127165630784
 20
-146.9331153258013
 30
0.0
 11
86.58701431894995
 21
-146.5155675481278
 31
0.0
  0
LINE
  5
84
330
70
100
AcDbEntity
  8
レイヤー 1
 62
    18
420
        0
370
    25
100
AcDbLine
 10
86.58701431894995
 20
-146.5155675481278
 30
0.0
 11
87.10101154104378
 21
-146.8972731035881
 31
0.0
  0
LINE
  5
85
330
70
100
AcDbEntity
  8
レイヤー 1
 62
    18
420
        0
370
    25
100
AcDbLine
 10
87.10101154104378
 20
-146.8972731035881
 30
0.0
 11
87.58608098536695
 21
-146.4797606036924
 31
0.0
  0
LINE
  5
86
330
70
100
AcDbEntity
  8
レイヤー 1
 62
    18
420
        0
370
    25
100
AcDbLine
 10
87.58608098536695
 20
-146.4797606036924
 30
0.0
 11
88.10011049420243
 21
-146.8618189369301
 31
0.0
  0
LINE
  5
87
330
70
100
AcDbEntity
  8
レイヤー 1
 62
    18
420
        0
370
    25
100
AcDbLine
 10
88.10011049420243
 20
-146.8618189369301
 30
0.0
 11
88.58585320733885
 21
-146.4442711592566
 31
0.0
  0
LINE
  5
88
330
70
100
AcDbEntity
  8
レイヤー 1
 62
    18
420
        0
370
    25
100
AcDbLine
 10
88.58585320733885
 20
-146.4442711592566
 30
0.0
 11
89.09917713538044
 21
-146.8263294924946
 31
0.0
  0
LINE
  5
89
330
70
100
AcDbEntity
  8
レイヤー 1
 62
    18
420
        0
370
    25
100
AcDbLine
 10
89.09917713538044
 20
-146.8263294924946
 30
0.0
 11
89.5849521229873
 21
-146.4084289370434
 31
0.0
  0
LINE
  5
8A
330
70
100
AcDbEntity
  8
レイヤー 1
 62
    18
420
        0
370
    25
100
AcDbLine
 10
90.09894933209634
 20
-146.7904872702814
 30
0.0
 11
90.58401876416565
 21
-146.3729394926079
 31
0.0
  0
LINE
  5
8B
330
70
100
AcDbEntity
  8
レイヤー 1
 62
    18
420
        0
370
    25
100
AcDbLine
 10
89.5849521229873
 20
-146.4084289370434
 30
0.0
 11
90.09894933209634
 21
-146.7904872702814
 31
0.0
  0
LINE
  5
8C
330
70
100
AcDbEntity
  8
レイヤー 1
 62
    18
420
        0
370
    25
100
AcDbLine
 10
90.58401876416565
 20
-146.3729394926079
 30
0.0
 11
91.09801597327471
 21
-146.7546803258456
 31
0.0
  0
LINE
  5
8D
330
70
100
AcDbEntity
  8
レイヤー 1
 62
    18
420
        0
370
    25
100
AcDbLine
 10
91.09801597327471
 20
-146.7546803258456
 30
0.0
 11
91.58379096088156
 21
-146.3371325481725
 31
0.0
  0
LINE
  5
8E
330
70
100
AcDbEntity
  8
レイヤー 1
 62
    18
420
        0
370
    25
100
AcDbLine
 10
92.09778816999062
 20
-146.7188381036324
 30
0.0
 11
92.58250482429113
 21
-146.3012903259592
 31
0.0
  0
LINE
  5
8F
330
70
100
AcDbEntity
  8
レイヤー 1
 62
    18
420
        0
370
    25
100
AcDbLine
 10
91.58379096088156
 20
-146.3371325481725
 30
0.0
 11
92.09778816999062
 21
-146.7188381036324
 31
0.0
  0
LINE
  5
90
330
70
100
AcDbEntity
  8
レイヤー 1
 62
    18
420
        0
370
    25
100
AcDbLine
 10
93.09653731117707
 20
-146.6833486591969
 30
0.0
 11
93.58227702100704
 21
-146.2658008815234
 31
0.0
  0
LINE
  5
91
330
70
100
AcDbEntity
  8
レイヤー 1
 62
    18
420
        0
370
    25
100
AcDbLine
 10
92.58250482429113
 20
-146.3012903259592
 30
0.0
 11
93.09653731117707
 21
-146.6833486591969
 31
0.0
  0
LINE
  5
92
330
70
100
AcDbEntity
  8
レイヤー 1
 62
    18
420
        0
370
    25
100
AcDbLine
 10
93.58227702100704
 20
-146.2658008815234
 30
0.0
 11
94.09627423011611
 21
-146.6478592147614
 31
0.0
  0
LINE
  5
93
330
70
100
AcDbEntity
  8
レイヤー 1
 62
    18
420
        0
370
    25
100
AcDbLine
 10
94.09627423011611
 20
-146.6478592147614
 30
0.0
 11
94.58134366218541
 21
-146.2299586593102
 31
0.0
  0
LINE
  5
94
330
70
100
AcDbEntity
  8
レイヤー 1
 62
    18
420
        0
370
    25
100
AcDbLine
 10
94.58134366218541
 20
-146.2299586593102
 30
0.0
 11
95.09537614907134
 21
-146.612052270326
 31
0.0
  0
LINE
  5
95
330
70
100
AcDbEntity
  8
レイヤー 1
 62
    18
420
        0
370
    25
100
AcDbLine
 10
95.09537614907134
 20
-146.612052270326
 30
0.0
 11
95.58044558114062
 21
-146.1945044926525
 31
0.0
  0
LINE
  5
96
330
70
100
AcDbEntity
  8
レイヤー 1
 62
    18
420
        0
370
    25
100
AcDbLine
 10
95.58044558114062
 20
-146.1945044926525
 30
0.0
 11
96.0944427902497
 21
-146.5762100481128
 31
0.0
  0
LINE
  5
97
330
70
100
AcDbEntity
  8
レイヤー 1
 62
    18
420
        0
370
    25
100
AcDbLine
 10
96.0944427902497
 20
-146.5762100481128
 30
0.0
 11
96.58021777785654
 21
-146.1586622704393
 31
0.0
  0
LINE
  5
98
330
70
100
AcDbEntity
  8
レイヤー 1
 62
    18
420
        0
370
    25
100
AcDbLine
 10
96.58021777785654
 20
-146.1586622704393
 30
0.0
 11
97.0942149869656
 21
-146.5403678258998
 31
0.0
  0
LINE
  5
99
330
70
100
AcDbEntity
  8
レイヤー 1
 62
    18
420
        0
370
    25
100
AcDbLine
 10
97.0942149869656
 20
-146.5403678258998
 30
0.0
 11
97.57928441903489
 21
-146.122820048226
 31
0.0
  0
LINE
  5
9A
330
70
100
AcDbEntity
  8
レイヤー 1
 62
    18
420
        0
370
    25
100
AcDbLine
 10
97.57928441903489
 20
-146.122820048226
 30
0.0
 11
98.09328162814395
 21
-146.5048783814637
 31
0.0
  0
LINE
  5
9B
330
70
100
AcDbEntity
  8
レイヤー 1
 62
    18
420
        0
370
    25
100
AcDbLine
 10
98.09328162814395
 20
-146.5048783814637
 30
0.0
 11
98.57905661575081
 21
-146.0873306037905
 31
0.0
  0
LINE
  5
9C
330
70
100
AcDbEntity
  8
レイヤー 1
 62
    18
420
        0
370
    25
100
AcDbLine
 10
98.57905661575081
 20
-146.0873306037905
 30
0.0
 11
99.09305382485987
 21
-146.4694242148061
 31
0.0
  0
LINE
  5
9D
330
70
100
AcDbEntity
  8
レイヤー 1
 62
    18
420
        0
370
    25
100
AcDbLine
 10
99.09305382485987
 20
-146.4694242148061
 30
0.0
 11
99.57812325692948
 21
-146.0515236593548
 31
0.0
  0
LINE
  5
9E
330
70
100
AcDbEntity
  8
レイヤー 1
 62
    18
420
        0
370
    25
100
AcDbLine
 10
99.57812325692948
 20
-146.0515236593548
 30
0.0
 11
100.0921204660382
 21
-146.4335819925928
 31
0.0
  0
LINE
  5
9F
330
70
100
AcDbEntity
  8
レイヤー 1
 62
    18
420
        0
370
    25
100
AcDbLine
 10
100.0921204660382
 20
-146.4335819925928
 30
0.0
 11
100.577895453645
 21
-146.0160342149193
 31
0.0
  0
LINE
  5
A0
330
70
100
AcDbEntity
  8
レイヤー 1
 62
    18
420
        0
370
    25
100
AcDbLine
 10
100.577895453645
 20
-146.0160342149193
 30
0.0
 11
101.0918926627541
 21
-146.3977397703796
 31
0.0
  0
LINE
  5
A1
330
70
100
AcDbEntity
  8
レイヤー 1
 62
    18
420
        0
370
    25
100
AcDbLine
 10
101.0918926627541
 20
-146.3977397703796
 30
0.0
 11
101.5769620948234
 21
-145.9801919927061
 31
0.0
  0
LINE
  5
A2
330
70
100
AcDbEntity
  8
レイヤー 1
 62
    18
420
        0
370
    25
100
AcDbLine
 10
101.5769620948234
 20
-145.9801919927061
 30
0.0
 11
102.0909945817093
 21
-146.3619328259438
 31
0.0
  0
LINE
  5
A3
330
70
100
AcDbEntity
  8
レイヤー 1
 62
    18
420
        0
370
    25
100
AcDbLine
 10
102.0909945817093
 20
-146.3619328259438
 30
0.0
 11
102.5767342915393
 21
-145.9443850482706
 31
0.0
  0
LINE
  5
A4
330
70
100
AcDbEntity
  8
レイヤー 1
 62
    18
420
        0
370
    25
100
AcDbLine
 10
102.6507315007573
 20
-145.8961603260605
 30
0.0
 11
103.5903000990144
 21
-145.8961603260605
 31
0.0
  0
LINE
  5
A5
330
70
100
AcDbEntity
  8
レイヤー 1
 62
    18
420
        0
370
    25
100
AcDbLine
 10
103.5903000990144
 20
-145.8961603260605
 30
0.0
 11
103.5903000990144
 21
-152.1582833800505
 31
0.0
  0
LINE
  5
A6
330
70
100
AcDbEntity
  8
レイヤー 1
 62
    18
420
        0
370
    25
100
AcDbLine
 10
102.5905279022985
 20
-147.1584344924115
 30
0.0
 11
102.5905279022985
 21
-153.1584083798002
 31
0.0
  0
LINE
  5
A7
330
70
100
AcDbEntity
  8
レイヤー 1
 62
    18
420
        0
370
    25
100
AcDbLine
 10
113.5914087327538
 20
-152.1582833800505
 30
0.0
 11
103.5903000990144
 21
-152.1582833800505
 31
0.0
  0
LINE
  5
A8
330
70
100
AcDbEntity
  8
レイヤー 1
 62
    18
420
        0
370
    25
100
AcDbLine
 10
124.5984670872248
 20
-146.3012903259592
 30
0.0
 11
124.0851754206864
 21
-146.6833486591969
 31
0.0
  0
LINE
  5
A9
330
70
100
AcDbEntity
  8
レイヤー 1
 62
    18
420
        0
370
    25
100
AcDbLine
 10
129.5959170859751
 20
-146.4797606036924
 30
0.0
 11
129.0819198638813
 21
-146.8618189369301
 31
0.0
  0
LINE
  5
AA
330
70
100
AcDbEntity
  8
レイヤー 1
 62
    18
420
        0
370
    25
100
AcDbLine
 10
125.0842420871035
 20
-146.7188381036324
 30
0.0
 11
124.5984670872248
 21
-146.3012903259592
 31
0.0
  0
LINE
  5
AB
330
70
100
AcDbEntity
  8
レイヤー 1
 62
    18
420
        0
370
    25
100
AcDbLine
 10
126.0833087535198
 20
-146.7546803258456
 30
0.0
 11
125.5982393091967
 21
-146.3371325481725
 31
0.0
  0
LINE
  5
AC
330
70
100
AcDbEntity
  8
レイヤー 1
 62
    18
420
        0
370
    25
100
AcDbLine
 10
124.0851754206864
 20
-146.6833486591969
 30
0.0
 11
123.5994004208077
 21
-146.2658008815234
 31
0.0
  0
LINE
  5
AD
330
70
100
AcDbEntity
  8
レイヤー 1
 62
    18
420
        0
370
    25
100
AcDbLine
 10
125.5982393091967
 20
-146.3371325481725
 30
0.0
 11
125.0842420871035
 21
-146.7188381036324
 31
0.0
  0
LINE
  5
AE
330
70
100
AcDbEntity
  8
レイヤー 1
 62
    18
420
        0
370
    25
100
AcDbLine
 10
133.5929204446949
 20
-146.6227061592119
 30
0.0
 11
133.0789232355858
 21
-147.00476449245
 31
0.0
  0
LINE
  5
AF
330
70
100
AcDbEntity
  8
レイヤー 1
 62
    18
420
        0
370
    25
100
AcDbLine
 10
126.5973059756137
 20
-146.3729394926079
 30
0.0
 11
126.0833087535198
 21
-146.7546803258456
 31
0.0
  0
LINE
  5
B0
330
70
100
AcDbEntity
  8
レイヤー 1
 62
    18
420
        0
370
    25
100
AcDbLine
 10
127.5970781975862
 20
-146.4084289370434
 30
0.0
 11
127.0830809754924
 21
-146.7904872702814
 31
0.0
  0
LINE
  5
B1
330
70
100
AcDbEntity
  8
レイヤー 1
 62
    18
420
        0
370
    25
100
AcDbLine
 10
113.5914087327538
 20
-145.8961603260605
 30
0.0
 11
113.5914087327538
 21
-152.1582833800505
 31
0.0
  0
LINE
  5
B2
330
70
100
AcDbEntity
  8
レイヤー 1
 62
    18
420
        0
370
    25
100
AcDbLine
 10
127.0830809754924
 20
-146.7904872702814
 30
0.0
 11
126.5973059756137
 21
-146.3729394926079
 31
0.0
  0
LINE
  5
B3
330
70
100
AcDbEntity
  8
レイヤー 1
 62
    18
420
        0
370
    25
100
AcDbLine
 10
128.0821476419094
 20
-146.8263294924946
 30
0.0
 11
127.5970781975862
 21
-146.4084289370434
 31
0.0
  0
LINE
  5
B4
330
70
100
AcDbEntity
  8
レイヤー 1
 62
    18
420
        0
370
    25
100
AcDbLine
 10
133.0789232355858
 20
-147.00476449245
 30
0.0
 11
132.5938538035166
 21
-146.5868992147766
 31
0.0
  0
LINE
  5
B5
330
70
100
AcDbEntity
  8
レイヤー 1
 62
    18
420
        0
370
    25
100
AcDbLine
 10
128.596176127728
 20
-146.4442711592566
 30
0.0
 11
128.0821476419094
 21
-146.8263294924946
 31
0.0
  0
LINE
  5
B6
330
70
100
AcDbEntity
  8
レイヤー 1
 62
    18
420
        0
370
    25
100
AcDbLine
 10
129.0819198638813
 20
-146.8618189369301
 30
0.0
 11
128.596176127728
 21
-146.4442711592566
 31
0.0
  0
LINE
  5
B7
330
70
100
AcDbEntity
  8
レイヤー 1
 62
    18
420
        0
370
    25
100
AcDbLine
 10
134.0786954323017
 20
-147.0402539368855
 30
0.0
 11
133.5929204446949
 21
-146.6227061592119
 31
0.0
  0
LINE
  5
B8
330
70
100
AcDbEntity
  8
レイヤー 1
 62
    18
420
        0
370
    25
100
AcDbLine
 10
130.5950149656223
 20
-146.5155675481278
 30
0.0
 11
130.0809865302983
 21
-146.8972731035881
 31
0.0
  0
LINE
  5
B9
330
70
100
AcDbEntity
  8
レイヤー 1
 62
    18
420
        0
370
    25
100
AcDbLine
 10
131.5940816068007
 20
-146.5514097703411
 30
0.0
 11
131.0800843976916
 21
-146.9331153258013
 31
0.0
  0
LINE
  5
BA
330
70
100
AcDbEntity
  8
レイヤー 1
 62
    18
420
        0
370
    25
100
AcDbLine
 10
131.0800843976916
 20
-146.9331153258013
 30
0.0
 11
130.5950149656223
 21
-146.5155675481278
 31
0.0
  0
LINE
  5
BB
330
70
100
AcDbEntity
  8
レイヤー 1
 62
    18
420
        0
370
    25
100
AcDbLine
 10
134.5926926414108
 20
-146.6581956036478
 30
0.0
 11
134.0786954323017
 21
-147.0402539368855
 31
0.0
  0
LINE
  5
BC
330
70
100
AcDbEntity
  8
レイヤー 1
 62
    18
420
        0
370
    25
100
AcDbLine
 10
130.0809865302983
 20
-146.8972731035881
 30
0.0
 11
129.5959170859751
 21
-146.4797606036924
 31
0.0
  0
LINE
  5
BD
330
70
100
AcDbEntity
  8
レイヤー 1
 62
    18
420
        0
370
    25
100
AcDbLine
 10
132.5938538035166
 20
-146.5868992147766
 30
0.0
 11
132.0798565944075
 21
-146.9689575480146
 31
0.0
  0
LINE
  5
BE
330
70
100
AcDbEntity
  8
レイヤー 1
 62
    18
420
        0
370
    25
100
AcDbLine
 10
132.0798565944075
 20
-146.9689575480146
 30
0.0
 11
131.5940816068007
 21
-146.5514097703411
 31
0.0
  0
LINE
  5
BF
330
70
100
AcDbEntity
  8
レイヤー 1
 62
    18
420
        0
370
    25
100
AcDbLine
 10
134.5926926414108
 20
-146.6581956036478
 30
0.0
 11
134.5926926414108
 21
-147.1584344924115
 31
0.0
  0
LINE
  5
C0
330
70
100
AcDbEntity
  8
レイヤー 1
 62
    18
420
        0
370
    25
100
AcDbLine
 10
113.7016517854968
 20
-147.1584344924115
 30
0.0
 11
134.5926926414108
 21
-147.1584344924115
 31
0.0
  0
LINE
  5
C1
330
70
100
AcDbEntity
  8
レイヤー 1
 62
    18
420
        0
370
    25
100
AcDbLine
 10
123.5994004208077
 20
-146.2658008815234
 30
0.0
 11
123.0854031987139
 21
-146.6478592147614
 31
0.0
  0
LINE
  5
C2
330
70
100
AcDbEntity
  8
レイヤー 1
 62
    18
420
        0
370
    25
100
AcDbLine
 10
123.0854031987139
 20
-146.6478592147614
 30
0.0
 11
122.6003337543907
 21
-146.2299586593102
 31
0.0
  0
LINE
  5
C3
330
70
100
AcDbEntity
  8
レイヤー 1
 62
    18
420
        0
370
    25
100
AcDbLine
 10
122.6003337543907
 20
-146.2299586593102
 30
0.0
 11
122.08629740492
 21
-146.612052270326
 31
0.0
  0
LINE
  5
C4
330
70
100
AcDbEntity
  8
レイヤー 1
 62
    18
420
        0
370
    25
100
AcDbLine
 10
122.08629740492
 20
-146.612052270326
 30
0.0
 11
121.6005615324188
 21
-146.1945044926525
 31
0.0
  0
LINE
  5
C5
330
70
100
AcDbEntity
  8
レイヤー 1
 62
    18
420
        0
370
    25
100
AcDbLine
 10
121.6005615324188
 20
-146.1945044926525
 30
0.0
 11
121.086564310325
 21
-146.5762100481128
 31
0.0
  0
LINE
  5
C6
330
70
100
AcDbEntity
  8
レイヤー 1
 62
    18
420
        0
370
    25
100
AcDbLine
 10
121.086564310325
 20
-146.5762100481128
 30
0.0
 11
120.6014948660018
 21
-146.1586622704393
 31
0.0
  0
LINE
  5
C7
330
70
100
AcDbEntity
  8
レイヤー 1
 62
    18
420
        0
370
    25
100
AcDbLine
 10
120.6014948660018
 20
-146.1586622704393
 30
0.0
 11
120.0874585670257
 21
-146.5403678258998
 31
0.0
  0
LINE
  5
C8
330
70
100
AcDbEntity
  8
レイヤー 1
 62
    18
420
        0
370
    25
100
AcDbLine
 10
120.0874585670257
 20
-146.5403678258998
 30
0.0
 11
119.6017226440293
 21
-146.122820048226
 31
0.0
  0
LINE
  5
C9
330
70
100
AcDbEntity
  8
レイヤー 1
 62
    18
420
        0
370
    25
100
AcDbLine
 10
119.6017226440293
 20
-146.122820048226
 30
0.0
 11
119.0876863703098
 21
-146.5048783814637
 31
0.0
  0
LINE
  5
CA
330
70
100
AcDbEntity
  8
レイヤー 1
 62
    18
420
        0
370
    25
100
AcDbLine
 10
119.0876863703098
 20
-146.5048783814637
 30
0.0
 11
118.6026169382405
 21
-146.0873306037905
 31
0.0
  0
LINE
  5
CB
330
70
100
AcDbEntity
  8
レイヤー 1
 62
    18
420
        0
370
    25
100
AcDbLine
 10
118.6026169382405
 20
-146.0873306037905
 30
0.0
 11
118.0886197291315
 21
-146.4694242148061
 31
0.0
  0
LINE
  5
CC
330
70
100
AcDbEntity
  8
レイヤー 1
 62
    18
420
        0
370
    25
100
AcDbLine
 10
118.0886197291315
 20
-146.4694242148061
 30
0.0
 11
117.6035502970622
 21
-146.0515236593548
 31
0.0
  0
LINE
  5
CD
330
70
100
AcDbEntity
  8
レイヤー 1
 62
    18
420
        0
370
    25
100
AcDbLine
 10
117.6035502970622
 20
-146.0515236593548
 30
0.0
 11
117.0895530879531
 21
-146.4335819925928
 31
0.0
  0
LINE
  5
CE
330
70
100
AcDbEntity
  8
レイヤー 1
 62
    18
420
        0
370
    25
100
AcDbLine
 10
117.0895530879531
 20
-146.4335819925928
 30
0.0
 11
116.6037781003463
 21
-146.0160342149193
 31
0.0
  0
LINE
  5
CF
330
70
100
AcDbEntity
  8
レイヤー 1
 62
    18
420
        0
370
    25
100
AcDbLine
 10
116.6037781003463
 20
-146.0160342149193
 30
0.0
 11
116.0897808912372
 21
-146.3977397703796
 31
0.0
  0
LINE
  5
D0
330
70
100
AcDbEntity
  8
レイヤー 1
 62
    18
420
        0
370
    25
100
AcDbLine
 10
116.0897808912372
 20
-146.3977397703796
 30
0.0
 11
115.6047114591679
 21
-145.9801919927061
 31
0.0
  0
LINE
  5
D1
330
70
100
AcDbEntity
  8
レイヤー 1
 62
    18
420
        0
370
    25
100
AcDbLine
 10
115.6047114591679
 20
-145.9801919927061
 30
0.0
 11
115.0907142500589
 21
-146.3619328259438
 31
0.0
  0
LINE
  5
D2
330
70
100
AcDbEntity
  8
レイヤー 1
 62
    18
420
        0
370
    25
100
AcDbLine
 10
115.0907142500589
 20
-146.3619328259438
 30
0.0
 11
114.604939262452
 21
-145.9443850482706
 31
0.0
  0
LINE
  5
D3
330
70
100
AcDbEntity
  8
レイヤー 1
 62
    18
420
        0
370
    25
100
AcDbLine
 10
114.530942053234
 20
-145.8961603260605
 30
0.0
 11
113.5914087327538
 21
-145.8961603260605
 31
0.0
  0
LINE
  5
D4
330
70
100
AcDbEntity
  8
レイヤー 1
 62
    18
420
        0
370
    25
100
AcDbLine
 10
114.5911456516928
 20
-147.1584344924115
 30
0.0
 11
114.5911456516928
 21
-153.1584083798002
 31
0.0
  0
SPLINE
  5
D5
330
70
100
AcDbEntity
  8
レイヤー 1
 62
    18
420
        0
370
     9
100
AcDbSpline
210
0.0
220
0.0
230
1.0
 70
     9
 71
     3
 72
    17
 73
    13
 74
     0
 42
0.0000000001
 43
0.0000000001
 40
0.0
 40
0.0
 40
0.0
 40
0.0
 40
1.0
 40
1.0
 40
1.0
 40
2.0
 40
2.0
 40
2.0
 40
3.0
 40
3.0
 40
3.0
 40
4.0
 40
4.0
 40
4.0
 40
4.0
 10
82.68888757669833
 20
-141.8964011603936
 30
0.0
 10
82.68888757669833
 20
-141.8409092159631
 30
0.0
 10
82.64412007784079
 20
-141.7961417159742
 30
0.0
 10
82.5889837643937
 20
-141.7961417159742
 30
0.0
 10
82.53387702509744
 20
-141.7961417159742
 30
0.0
 10
82.48907424846267
 20
-141.8409092159631
 30
0.0
 10
82.48907424846267
 20
-141.8964011603936
 30
0.0
 10
82.48907424846267
 20
-141.9515050492688
 30
0.0
 10
82.53387702509744
 20
-141.9963078270352
 30
0.0
 10
82.5889837643937
 20
-141.9963078270352
 30
0.0
 10
82.64412007784079
 20
-141.9963078270352
 30
0.0
 10
82.68888757669833
 20
-141.9515050492688
 30
0.0
 10
82.68888757669833
 20
-141.8964011603936
 30
0.0
  0
CIRCLE
  5
D6
330
70
100
AcDbEntity
  8
レイヤー 1
 62
    18
420
        0
370
     9
100
AcDbCircle
 10
78.58886907018741
 20
-146.6581956036478
 30
0.0
 40
0.0999066653797365
  0
CIRCLE
  5
D7
330
70
100
AcDbEntity
  8
レイヤー 1
 62
    18
420
        0
370
     9
100
AcDbCircle
 10
78.58886907018741
 20
-147.1584344924115
 30
0.0
 40
0.0999066653797365
  0
CIRCLE
  5
D8
330
70
100
AcDbEntity
  8
レイヤー 1
 62
    18
420
        0
370
     9
100
AcDbCircle
 10
78.58886907018741
 20
-153.1584083798005
 30
0.0
 40
0.0999066653795761
  0
SPLINE
  5
D9
330
70
100
AcDbEntity
  8
レイヤー 1
 62
    18
420
        0
370
     9
100
AcDbSpline
210
0.0
220
0.0
230
1.0
 70
     9
 71
     3
 72
    17
 73
    13
 74
     0
 42
0.0000000001
 43
0.0000000001
 40
0.0
 40
0.0
 40
0.0
 40
0.0
 40
1.0
 40
1.0
 40
1.0
 40
2.0
 40
2.0
 40
2.0
 40
3.0
 40
3.0
 40
3.0
 40
4.0
 40
4.0
 40
4.0
 40
4.0
 10
103.6902067631322
 20
-141.8964011603936
 30
0.0
 10
103.6902067631322
 20
-141.8409092159631
 30
0.0
 10
103.6454039864975
 20
-141.7961417159742
 30
0.0
 10
103.5903000990144
 20
-141.7961417159742
 30
0.0
 10
103.5351643147127
 20
-141.7961417159742
 30
0.0
 10
103.4903615369463
 20
-141.8409092159631
 30
0.0
 10
103.4903615369463
 20
-141.8964011603936
 30
0.0
 10
103.4903615369463
 20
-141.9515050492688
 30
0.0
 10
103.5351643147127
 20
-141.9963078270352
 30
0.0
 10
103.5903000990144
 20
-141.9963078270352
 30
0.0
 10
103.6454039864975
 20
-141.9963078270352
 30
0.0
 10
103.6902067631322
 20
-141.9515050492688
 30
0.0
 10
103.6902067631322
 20
-141.8964011603936
 30
0.0
  0
SPLINE
  5
DA
330
70
100
AcDbEntity
  8
レイヤー 1
 62
    18
420
        0
370
     9
100
AcDbSpline
210
0.0
220
0.0
230
1.0
 70
     9
 71
     3
 72
    17
 73
    13
 74
     0
 42
0.0000000001
 43
0.0000000001
 40
0.0
 40
0.0
 40
0.0
 40
0.0
 40
1.0
 40
1.0
 40
1.0
 40
2.0
 40
2.0
 40
2.0
 40
3.0
 40
3.0
 40
3.0
 40
4.0
 40
4.0
 40
4.0
 40
4.0
 10
134.7925059696465
 20
-141.8964011603936
 30
0.0
 10
134.7925059696465
 20
-141.8409092159631
 30
0.0
 10
134.7477384707886
 20
-141.7961417159742
 30
0.0
 10
134.6925993055287
 20
-141.7961417159742
 30
0.0
 10
134.636789862508
 20
-141.7961417159742
 30
0.0
 10
134.5920223636501
 20
-141.8409092159631
 30
0.0
 10
134.5920223636501
 20
-141.8964011603936
 30
0.0
 10
134.5920223636501
 20
-141.9515050492688
 30
0.0
 10
134.636789862508
 20
-141.9963078270352
 30
0.0
 10
134.6925993055287
 20
-141.9963078270352
 30
0.0
 10
134.7477384707886
 20
-141.9963078270352
 30
0.0
 10
134.7925059696465
 20
-141.9515050492688
 30
0.0
 10
134.7925059696465
 20
-141.8964011603936
 30
0.0
  0
SPLINE
  5
DB
330
70
100
AcDbEntity
  8
レイヤー 1
 62
    18
420
        0
370
     9
100
AcDbSpline
210
0.0
220
0.0
230
1.0
 70
     9
 71
     3
 72
    17
 73
    13
 74
     0
 42
0.0000000001
 43
0.0000000001
 40
0.0
 40
0.0
 40
0.0
 40
0.0
 40
1.0
 40
1.0
 40
1.0
 40
2.0
 40
2.0
 40
2.0
 40
3.0
 40
3.0
 40
3.0
 40
4.0
 40
4.0
 40
4.0
 40
4.0
 10
113.7912220609894
 20
-141.8964011603936
 30
0.0
 10
113.7912220609894
 20
-141.8409092159631
 30
0.0
 10
113.7464192843547
 20
-141.7961417159742
 30
0.0
 10
113.6913153968716
 20
-141.7961417159742
 30
0.0
 10
113.6361762316116
 20
-141.7961417159742
 30
0.0
 10
113.5914087327538
 20
-141.8409092159631
 30
0.0
 10
113.5914087327538
 20
-141.8964011603936
 30
0.0
 10
113.5914087327538
 20
-141.9515050492688
 30
0.0
 10
113.6361762316116
 20
-141.9963078270352
 30
0.0
 10
113.6913153968716
 20
-141.9963078270352
 30
0.0
 10
113.7464192843547
 20
-141.9963078270352
 30
0.0
 10
113.7912220609894
 20
-141.9515050492688
 30
0.0
 10
113.7912220609894
 20
-141.8964011603936
 30
0.0
  0
LINE
  5
DC
330
70
100
AcDbEntity
  8
レイヤー 1
 62
    18
420
        0
370
     9
100
AcDbLine
 10
78.58886907018741
 20
-146.6581956036478
 30
0.0
 11
78.58886907018741
 21
-141.4002897716289
 31
0.0
  0
LINE
  5
DD
330
70
100
AcDbEntity
  8
レイヤー 1
 62
    18
420
        0
370
     9
100
AcDbLine
 10
78.58886907018741
 20
-146.6581956036478
 30
0.0
 11
78.58886907018741
 21
-147.1584344924115
 31
0.0
  0
LINE
  5
DE
330
70
100
AcDbEntity
  8
レイヤー 1
 62
    18
420
        0
370
     9
100
AcDbLine
 10
80.04891042182753
 20
-146.6581956036478
 30
0.0
 11
77.58877937347961
 21
-146.6581956036478
 31
0.0
  0
LINE
  5
DF
330
70
100
AcDbEntity
  8
レイヤー 1
 62
    18
420
        0
370
     9
100
AcDbLine
 10
80.04891042182753
 20
-147.1584344924115
 30
0.0
 11
77.58877937347961
 21
-147.1584344924115
 31
0.0
  0
INSERT
  5
E1
330
70
100
AcDbEntity
  8
レイヤー 1
100
AcDbBlockReference
  2
Block_0
 10
0.0
 20
0.0
 30
0.0
  0
LINE
  5
EF
330
70
100
AcDbEntity
  8
レイヤー 1
 62
    18
420
        0
370
     9
100
AcDbLine
 10
82.5889837643937
 20
-141.8964011603936
 30
0.0
 11
103.5903000990144
 21
-141.8964011603936
 31
0.0
  0
LINE
  5
F0
330
70
100
AcDbEntity
  8
レイヤー 1
 62
    18
420
        0
370
     9
100
AcDbLine
 10
82.5889837643937
 20
-144.1184778265049
 30
0.0
 11
82.5889837643937
 21
-140.8962761606436
 31
0.0
  0
INSERT
  5
F2
330
70
100
AcDbEntity
  8
レイヤー 1
100
AcDbBlockReference
  2
Block_2
 10
0.0
 20
0.0
 30
0.0
  0
LINE
  5
FD
330
70
100
AcDbEntity
  8
レイヤー 1
 62
    18
420
        0
370
     9
100
AcDbLine
 10
78.58886907018741
 20
-147.1584344924115
 30
0.0
 11
78.58886907018741
 21
-153.1584083798002
 31
0.0
  0
LINE
  5
FE
330
70
100
AcDbEntity
  8
レイヤー 1
 62
    18
420
        0
370
     9
100
AcDbLine
 10
100.0507782044729
 20
-153.1584083798002
 30
0.0
 11
77.58877937347961
 21
-153.1584083798002
 31
0.0
  0
INSERT
  5
100
330
70
100
AcDbEntity
  8
レイヤー 1
100
AcDbBlockReference
  2
Block_4
 10
0.0
 20
0.0
 30
0.0
  0
LINE
  5
106
330
70
100
AcDbEntity
  8
レイヤー 1
 62
    18
420
        0
370
     9
100
AcDbLine
 10
134.6925993055287
 20
-141.8964011603936
 30
0.0
 11
113.6913153968716
 21
-141.8964011603936
 31
0.0
  0
LINE
  5
107
330
70
100
AcDbEntity
  8
レイヤー 1
 62
    18
420
        0
370
     9
100
AcDbLine
 10
134.6925993055287
 20
-144.1184778265049
 30
0.0
 11
134.6925993055287
 21
-140.8962761606436
 31
0.0
  0
INSERT
  5
109
330
70
100
AcDbEntity
  8
レイヤー 1
100
AcDbBlockReference
  2
Block_5
 10
0.0
 20
0.0
 30
0.0
  0
LINE
  5
114
330
70
100
AcDbEntity
  8
レイヤー 1
 62
    18
420
        0
370
     9
100
AcDbLine
 10
103.5903000990144
 20
-141.8964011603936
 30
0.0
 11
113.5914087327538
 21
-141.8964011603936
 31
0.0
  0
LINE
  5
115
330
70
100
AcDbEntity
  8
レイヤー 1
 62
    18
420
        0
370
     9
100
AcDbLine
 10
103.5903000990144
 20
-143.3564072711398
 30
0.0
 11
103.5903000990144
 21
-140.8962761606436
 31
0.0
  0
LINE
  5
116
330
70
100
AcDbEntity
  8
レイヤー 1
 62
    18
420
        0
370
     9
100
AcDbLine
 10
113.6913153968716
 20
-143.3564072711398
 30
0.0
 11
113.6913153968716
 21
-140.8962761606436
 31
0.0
  0
INSERT
  5
118
330
70
100
AcDbEntity
  8
レイヤー 1
100
AcDbBlockReference
  2
Block_7
 10
0.0
 20
0.0
 30
0.0
  0
SPLINE
  5
124
330
70
100
AcDbEntity
  8
レイヤー 1
 62
    18
420
        0
370
     9
100
AcDbSpline
210
0.0
220
0.0
230
1.0
 70
     9
 71
     3
 72
    17
 73
    13
 74
     0
 42
0.0000000001
 43
0.0000000001
 40
0.0
 40
0.0
 40
0.0
 40
0.0
 40
1.0
 40
1.0
 40
1.0
 40
2.0
 40
2.0
 40
2.0
 40
3.0
 40
3.0
 40
3.0
 40
4.0
 40
4.0
 40
4.0
 40
4.0
 10
102.8744115371002
 20
-157.2715150454392
 30
0.0
 10
102.8744115371002
 20
-157.2163758787855
 30
0.0
 10
102.8185987298133
 20
-157.1716083787976
 30
0.0
 10
102.7503715093317
 20
-157.1716083787976
 30
0.0
 10
102.6814740110894
 20
-157.1716083787976
 30
0.0
 10
102.6263348458294
 20
-157.2163758787855
 30
0.0
 10
102.6263348458294
 20
-157.2715150454392
 30
0.0
 10
102.6263348458294
 20
-157.3266189343135
 30
0.0
 10
102.6814740110894
 20
-157.3714217120802
 30
0.0
 10
102.7503715093317
 20
-157.3714217120802
 30
0.0
 10
102.8185987298133
 20
-157.3714217120802
 30
0.0
 10
102.8744115371002
 20
-157.3266189343135
 30
0.0
 10
102.8744115371002
 20
-157.2715150454392
 30
0.0
  0
SPLINE
  5
125
330
70
100
AcDbEntity
  8
レイヤー 1
 62
    18
420
        0
370
     9
100
AcDbSpline
210
0.0
220
0.0
230
1.0
 70
     9
 71
     3
 72
    17
 73
    13
 74
     0
 42
0.0000000001
 43
0.0000000001
 40
0.0
 40
0.0
 40
0.0
 40
0.0
 40
1.0
 40
1.0
 40
1.0
 40
2.0
 40
2.0
 40
2.0
 40
3.0
 40
3.0
 40
3.0
 40
4.0
 40
4.0
 40
4.0
 40
4.0
 10
114.8757314777657
 20
-157.2715150454392
 30
0.0
 10
114.8757314777657
 20
-157.2163758787855
 30
0.0
 10
114.8199220347451
 20
-157.1716083787976
 30
0.0
 10
114.7510282007975
 20
-157.1716083787976
 30
0.0
 10
114.6821270382605
 20
-157.1716083787976
 30
0.0
 10
114.6269878730006
 20
-157.2163758787855
 30
0.0
 10
114.6269878730006
 20
-157.2715150454392
 30
0.0
 10
114.6269878730006
 20
-157.3266189343135
 30
0.0
 10
114.6821270382605
 20
-157.3714217120802
 30
0.0
 10
114.7510282007975
 20
-157.3714217120802
 30
0.0
 10
114.8199220347451
 20
-157.3714217120802
 30
0.0
 10
114.8757314777657
 20
-157.3266189343135
 30
0.0
 10
114.8757314777657
 20
-157.2715150454392
 30
0.0
  0
LINE
  5
126
330
70
100
AcDbEntity
  8
レイヤー 1
 62
    18
420
        0
370
     9
100
AcDbLine
 10
114.7510282007975
 20
-157.2715150454392
 30
0.0
 11
102.7503715093317
 21
-157.2715150454392
 31
0.0
  0
LINE
  5
127
330
70
100
AcDbEntity
  8
レイヤー 1
 62
    18
420
        0
370
     9
100
AcDbLine
 10
114.7510282007975
 20
-155.8114736569149
 30
0.0
 11
114.7510282007975
 21
-158.2716047674107
 31
0.0
  0
LINE
  5
128
330
70
100
AcDbEntity
  8
レイヤー 1
 62
    18
420
        0
370
     9
100
AcDbLine
 10
102.7503715093317
 20
-155.8114736569149
 30
0.0
 11
102.7503715093317
 21
-158.2716047674107
 31
0.0
  0
INSERT
  5
12A
330
70
100
AcDbEntity
  8
レイヤー 1
100
AcDbBlockReference
  2
Block_9
 10
0.0
 20
0.0
 30
0.0
  0
LINE
  5
135
330
70
100
AcDbEntity
  8
レイヤー 1
 62
    18
420
        0
370
     9
100
AcDbLine
 10
112.5626734812212
 20
-150.3038011582922
 30
0.0
 11
119.5631249692915
 21
-150.3038011582922
 31
0.0
  0
INSERT
  5
137
330
70
100
AcDbEntity
  8
レイヤー 1
100
AcDbBlockReference
  2
Block_11
 10
0.0
 20
0.0
 30
0.0
  0
INSERT
  5
13D
330
70
100
AcDbEntity
  8
レイヤー 1
100
AcDbBlockReference
  2
Block_12
 10
0.0
 20
0.0
 30
0.0
  0
INSERT
  5
144
330
70
100
AcDbEntity
  8
レイヤー 1
100
AcDbBlockReference
  2
Block_13
 10
0.0
 20
0.0
 30
0.0
  0
LINE
  5
15B
330
70
100
AcDbEntity
  8
レイヤー 1
 62
    18
420
        0
370
    25
100
AcDbLine
 10
113.5914087327538
 20
-145.8961603260605
 30
0.0
 11
113.5914087327538
 21
-152.1582833800505
 31
0.0
  0
INSERT
  5
15D
330
70
100
AcDbEntity
  8
レイヤー 1
100
AcDbBlockReference
  2
Block_15
 10
0.0
 20
0.0
 30
0.0
  0
LWPOLYLINE
  5
182
330
70
100
AcDbEntity
  8
レイヤー 1
 62
   250
420
  2299925
370
     9
100
AcDbPolyline
 90
        3
 70
     0
 43
0.0
 10
117.6500464069871
 20
-145.4599858817255
 10
123.824010138365
 20
-153.5728517130301
 10
134.4666098668497
 20
-153.5728517130301
  0
LWPOLYLINE
  5
183
330
70
100
AcDbEntity
  8
レイヤー 1
  6
AI-Linetype-0
 62
   154
420
    23468
370
    25
100
AcDbPolyline
 90
        6
 70
     0
 43
0.0
 10
83.01305506842814
 20
-146.0477136593557
 10
104.2910225811375
 20
-145.2250358817838
 10
104.2910225811375
 20
-151.4334308802315
 10
112.8913565283914
 20
-151.4334308802315
 10
112.8913565283914
 20
-145.2835969928807
 10
134.1696415410926
 20
-145.9891525482599
  0
ENDSEC
  0
SECTION
  2
OBJECTS
  0
DICTIONARY
  5
C
330
0
100
AcDbDictionary
281
     1
  3
ACAD_COLOR
350
63
  3
ACAD_DETAILVIEWSTYLE
350
6A
  3
ACAD_GROUP
350
D
  3
ACAD_LAYOUT
350
62
  3
ACAD_MATERIAL
350
10
  3
ACAD_MLEADERSTYLE
350
66
  3
ACAD_MLINESTYLE
350
5F
  3
ACAD_PLOTSETTINGS
350
61
  3
ACAD_PLOTSTYLENAME
350
E
  3
ACAD_SCALELIST
350
42
  3
ACAD_SECTIONVIEWSTYLE
350
68
  3
ACAD_TABLESTYLE
350
64
  3
ACAD_VISUALSTYLE
350
29
  3
ACDB_RECOMPOSE_DATA
350
18D
  3
AcDbVariableDictionary
350
185
  0
DICTIONARY
  5
63
102
{ACAD_REACTORS
330
C
102
}
330
C
100
AcDbDictionary
281
     1
  0
DICTIONARY
  5
6A
102
{ACAD_REACTORS
330
C
102
}
330
C
100
AcDbDictionary
281
     1
  3
Imperial24
350
6B
  0
DICTIONARY
  5
D
102
{ACAD_REACTORS
330
C
102
}
330
C
100
AcDbDictionary
281
     1
  0
DICTIONARY
  5
62
102
{ACAD_REACTORS
330
C
102
}
330
C
100
AcDbDictionary
281
     1
  3
Layout1
350
6F
  3
Layout2
350
77
  3
Model
350
73
  0
DICTIONARY
  5
10
102
{ACAD_REACTORS
330
C
102
}
330
C
100
AcDbDictionary
281
     1
  3
ByBlock
350
19
  3
ByLayer
350
11
  3
Global
350
21
  0
DICTIONARY
  5
66
102
{ACAD_REACTORS
330
C
102
}
330
C
100
AcDbDictionary
281
     1
  3
Standard
350
67
  0
DICTIONARY
  5
5F
102
{ACAD_REACTORS
330
C
102
}
330
C
100
AcDbDictionary
281
     1
  3
Standard
350
60
  0
DICTIONARY
  5
61
102
{ACAD_REACTORS
330
C
102
}
330
C
100
AcDbDictionary
281
     1
  0
ACDBDICTIONARYWDFLT
  5
E
102
{ACAD_REACTORS
330
C
102
}
330
C
100
AcDbDictionary
281
     1
  3
Normal
350
F
100
AcDbDictionaryWithDefault
340
F
  0
DICTIONARY
  5
42
102
{ACAD_REACTORS
330
C
102
}
330
C
100
AcDbDictionary
281
     1
  3
A0
350
43
  3
A1
350
44
  3
A2
350
45
  3
A3
350
46
  3
A4
350
47
  3
A5
350
48
  3
A6
350
49
  3
A7
350
4A
  3
A8
350
4B
  3
A9
350
4C
  3
B0
350
4D
  3
B1
350
4E
  3
B2
350
4F
  3
B3
350
50
  3
B4
350
51
  3
B5
350
52
  3
B6
350
53
  0
DICTIONARY
  5
68
102
{ACAD_REACTORS
330
C
102
}
330
C
100
AcDbDictionary
281
     1
  3
Imperial24
350
69
  0
DICTIONARY
  5
64
102
{ACAD_REACTORS
330
C
102
}
330
C
100
AcDbDictionary
281
     1
  3
Standard
350
65
  0
DICTIONARY
  5
29
102
{ACAD_REACTORS
330
C
102
}
330
C
100
AcDbDictionary
281
     1
  3
2dWireframe
350
2F
  3
Basic
350
2E
  3
Brighten
350
35
  3
ColorChange
350
39
  3
Conceptual
350
32
  3
Dim
350
34
  3
EdgeColorOff
350
41
  3
Facepattern
350
38
  3
Flat
350
2A
  3
FlatWithEdges
350
2B
  3
Gouraud
350
2C
  3
GouraudWithEdges
350
2D
  3
Hidden
350
31
  3
JitterOff
350
3F
  3
Linepattern
350
37
  3
OverhangOff
350
40
  3
Realistic
350
33
  3
Shaded
350
3E
  3
Shaded with edges
350
3D
  3
Shades of Gray
350
3A
  3
Sketchy
350
3B
  3
Thicken
350
36
  3
Wireframe
350
30
  3
X-Ray
350
3C
  0
XRECORD
  5
18D
102
{ACAD_REACTORS
330
C
102
}
330
C
100
AcDbXrecord
280
     1
 90
        1
330
65
  0
DICTIONARY
  5
185
102
{ACAD_REACTORS
330
C
102
}
330
C
100
AcDbDictionary
281
     1
  3
CANNOSCALE
350
18A
  3
CMLEADERSTYLE
350
187
  3
CTABLESTYLE
350
186
  3
CVIEWDETAILSTYLE
350
188
  3
CVIEWSECTIONSTYLE
350
189
  0
ACDBDETAILVIEWSTYLE
  5
6B
102
{ACAD_XDICTIONARY
360
1C2
102
}
102
{ACAD_REACTORS
330
6A
102
}
330
6A
100
AcDbModelDocViewStyle
 70
     0
  3
Imperial24
290
     0
100
AcDbDetailViewStyle
 70
     0
 71
     0
 90
        3
 71
     1
340
55
 62
   256
 40
0.24
340
0
 62
   256
 40
0.24
300

 40
0.36
280
     3
 71
     2
340
5D
 90
       25
 62
   256
 71
     3
340
55
 62
   256
 40
0.24
 90
        1
 40
0.75
 90
        1
300
%<\AcVar ViewType \f "%tc1">% %<\AcVar ViewDetailId>%\PSCALE %<\AcVar ViewScale \f "%sn">%
 71
     4
340
5D
 90
       25
 62
   256
340
5D
 90
       25
 62
   256
280
     0
  0
LAYOUT
  5
6F
102
{ACAD_REACTORS
330
62
102
}
330
62
100
AcDbPlotSettings
  1

  2

  4

  6

 40
0.0
 41
0.0
 42
0.0
 43
0.0
 44
0.0
 45
0.0
 46
0.0
 47
0.0
 48
0.0
 49
0.0
140
0.0
141
0.0
142
1.0
143
1.0
 70
   688
 72
     0
 73
     0
 74
     5
  7

 75
    16
147
1.0
 76
     0
 77
     2
 78
   300
148
0.0
149
0.0
100
AcDbLayout
  1
Layout1
 70
     1
 71
     1
 10
0.0
 20
0.0
 11
12.0
 21
9.0
 12
0.0
 22
0.0
 32
0.0
 14
0.0
 24
0.0
 34
0.0
 15
0.0
 25
0.0
 35
0.0
146
0.0
 13
0.0
 23
0.0
 33
0.0
 16
1.0
 26
0.0
 36
0.0
 17
0.0
 27
1.0
 37
0.0
 76
     0
330
6C
  0
LAYOUT
  5
77
102
{ACAD_REACTORS
330
62
102
}
330
62
100
AcDbPlotSettings
  1

  2

  4

  6

 40
0.0
 41
0.0
 42
0.0
 43
0.0
 44
0.0
 45
0.0
 46
0.0
 47
0.0
 48
0.0
 49
0.0
140
0.0
141
0.0
142
1.0
143
1.0
 70
   688
 72
     0
 73
     0
 74
     5
  7

 75
    16
147
1.0
 76
     0
 77
     2
 78
   300
148
0.0
149
0.0
100
AcDbLayout
  1
Layout2
 70
     1
 71
     2
 10
0.0
 20
0.0
 11
12.0
 21
9.0
 12
0.0
 22
0.0
 32
0.0
 14
0.0
 24
0.0
 34
0.0
 15
0.0
 25
0.0
 35
0.0
146
0.0
 13
0.0
 23
0.0
 33
0.0
 16
1.0
 26
0.0
 36
0.0
 17
0.0
 27
1.0
 37
0.0
 76
     0
330
74
  0
LAYOUT
  5
73
102
{ACAD_REACTORS
330
62
102
}
330
62
100
AcDbPlotSettings
  1

  2

  4

  6

 40
0.0
 41
0.0
 42
0.0
 43
0.0
 44
0.0
 45
0.0
 46
0.0
 47
0.0
 48
0.0
 49
0.0
140
0.0
141
0.0
142
1.0
143
1.0
 70
  1712
 72
     0
 73
     0
 74
     0
  7

 75
     0
147
1.0
 76
     0
 77
     2
 78
   300
148
0.0
149
0.0
100
AcDbLayout
  1
Model
 70
     1
 71
     0
 10
0.0
 20
0.0
 11
12.0
 21
9.0
 12
0.0
 22
0.0
 32
0.0
 14
0.0
 24
0.0
 34
0.0
 15
0.0
 25
0.0
 35
0.0
146
0.0
 13
0.0
 23
0.0
 33
0.0
 16
1.0
 26
0.0
 36
0.0
 17
0.0
 27
1.0
 37
0.0
 76
     0
330
70
  0
MATERIAL
  5
19
102
{ACAD_XDICTIONARY
360
1A
102
}
102
{ACAD_REACTORS
330
10
102
}
330
10
100
AcDbMaterial
  1
ByBlock
 72
     0
 43
0.0208333333333333
 43
0.0
 43
0.0
 43
0.0
 43
0.0
 43
0.0208333333333333
 43
0.0
 43
0.0
 43
0.0
 43
0.0
 43
1.0
 43
0.0
 43
0.0
 43
0.0
 43
0.0
 43
1.0
 77
     0
 47
0.0208333333333333
 47
0.0
 47
0.0
 47
0.0
 47
0.0
 47
0.0208333333333333
 47
0.0
 47
0.0
 47
0.0
 47
0.0
 47
1.0
 47
0.0
 47
0.0
 47
0.0
 47
0.0
 47
1.0
171
     0
 49
0.0208333333333333
 49
0.0
 49
0.0
 49
0.0
 49
0.0
 49
0.0208333333333333
 49
0.0
 49
0.0
 49
0.0
 49
0.0
 49
1.0
 49
0.0
 49
0.0
 49
0.0
 49
0.0
 49
1.0
175
     0
142
0.0208333333333333
142
0.0
142
0.0
142
0.0
142
0.0
142
0.0208333333333333
142
0.0
142
0.0
142
0.0
142
0.0
142
1.0
142
0.0
142
0.0
142
0.0
142
0.0
142
1.0
179
     0
144
0.0208333333333333
144
0.0
144
0.0
144
0.0
144
0.0
144
0.0208333333333333
144
0.0
144
0.0
144
0.0
144
0.0
144
1.0
144
0.0
144
0.0
144
0.0
144
0.0
144
1.0
147
0.0208333333333333
147
0.0
147
0.0
147
0.0
147
0.0
147
0.0208333333333333
147
0.0
147
0.0
147
0.0
147
0.0
147
1.0
147
0.0
147
0.0
147
0.0
147
0.0
147
1.0
  0
MATERIAL
  5
11
102
{ACAD_XDICTIONARY
360
12
102
}
102
{ACAD_REACTORS
330
10
102
}
330
10
100
AcDbMaterial
  1
ByLayer
 72
     0
 43
0.0208333333333333
 43
0.0
 43
0.0
 43
0.0
 43
0.0
 43
0.0208333333333333
 43
0.0
 43
0.0
 43
0.0
 43
0.0
 43
1.0
 43
0.0
 43
0.0
 43
0.0
 43
0.0
 43
1.0
 77
     0
 47
0.0208333333333333
 47
0.0
 47
0.0
 47
0.0
 47
0.0
 47
0.0208333333333333
 47
0.0
 47
0.0
 47
0.0
 47
0.0
 47
1.0
 47
0.0
 47
0.0
 47
0.0
 47
0.0
 47
1.0
171
     0
 49
0.0208333333333333
 49
0.0
 49
0.0
 49
0.0
 49
0.0
 49
0.0208333333333333
 49
0.0
 49
0.0
 49
0.0
 49
0.0
 49
1.0
 49
0.0
 49
0.0
 49
0.0
 49
0.0
 49
1.0
175
     0
142
0.0208333333333333
142
0.0
142
0.0
142
0.0
142
0.0
142
0.0208333333333333
142
0.0
142
0.0
142
0.0
142
0.0
142
1.0
142
0.0
142
0.0
142
0.0
142
0.0
142
1.0
179
     0
144
0.0208333333333333
144
0.0
144
0.0
144
0.0
144
0.0
144
0.0208333333333333
144
0.0
144
0.0
144
0.0
144
0.0
144
1.0
144
0.0
144
0.0
144
0.0
144
0.0
144
1.0
147
0.0208333333333333
147
0.0
147
0.0
147
0.0
147
0.0
147
0.0208333333333333
147
0.0
147
0.0
147
0.0
147
0.0
147
1.0
147
0.0
147
0.0
147
0.0
147
0.0
147
1.0
  0
MATERIAL
  5
21
102
{ACAD_XDICTIONARY
360
22
102
}
102
{ACAD_REACTORS
330
10
102
}
330
10
100
AcDbMaterial
  1
Global
 72
     0
 43
0.0208333333333333
 43
0.0
 43
0.0
 43
0.0
 43
0.0
 43
0.0208333333333333
 43
0.0
 43
0.0
 43
0.0
 43
0.0
 43
1.0
 43
0.0
 43
0.0
 43
0.0
 43
0.0
 43
1.0
 77
     0
 47
0.0208333333333333
 47
0.0
 47
0.0
 47
0.0
 47
0.0
 47
0.0208333333333333
 47
0.0
 47
0.0
 47
0.0
 47
0.0
 47
1.0
 47
0.0
 47
0.0
 47
0.0
 47
0.0
 47
1.0
171
     0
 49
0.0208333333333333
 49
0.0
 49
0.0
 49
0.0
 49
0.0
 49
0.0208333333333333
 49
0.0
 49
0.0
 49
0.0
 49
0.0
 49
1.0
 49
0.0
 49
0.0
 49
0.0
 49
0.0
 49
1.0
175
     0
142
0.0208333333333333
142
0.0
142
0.0
142
0.0
142
0.0
142
0.0208333333333333
142
0.0
142
0.0
142
0.0
142
0.0
142
1.0
142
0.0
142
0.0
142
0.0
142
0.0
142
1.0
179
     0
144
0.0208333333333333
144
0.0
144
0.0
144
0.0
144
0.0
144
0.0208333333333333
144
0.0
144
0.0
144
0.0
144
0.0
144
1.0
144
0.0
144
0.0
144
0.0
144
0.0
144
1.0
147
0.0208333333333333
147
0.0
147
0.0
147
0.0
147
0.0
147
0.0208333333333333
147
0.0
147
0.0
147
0.0
147
0.0
147
1.0
147
0.0
147
0.0
147
0.0
147
0.0
147
1.0
  0
MLEADERSTYLE
  5
67
102
{ACAD_XDICTIONARY
360
1BE
102
}
102
{ACAD_REACTORS
330
66
102
}
330
66
100
AcDbMLeaderStyle
179
     2
170
     2
171
     1
172
     0
 90
        2
 40
0.0
 41
0.0
173
     1
 91
-1056964608
340
5B
 92
       -2
290
     1
 42
0.09
291
     1
 43
0.36
  3
Standard
 44
0.18
300

342
55
174
     1
178
     6
175
     1
176
     0
 93
-1056964608
 45
0.18
292
     0
297
     0
 46
0.18
 94
-1056964608
 47
1.0
 49
1.0
140
1.0
293
     1
141
0.0
294
     1
177
     0
142
1.0
295
     0
296
     0
143
0.125
271
     0
272
     9
273
     9
  0
MLINESTYLE
  5
60
102
{ACAD_REACTORS
330
5F
102
}
330
5F
100
AcDbMlineStyle
  2
STANDARD
 70
     0
  3

 62
   256
 51
90.0
 52
90.0
 71
     2
 49
0.5
 62
   256
  6
BYLAYER
 49
-0.5
 62
   256
  6
BYLAYER
  0
ACDBPLACEHOLDER
  5
F
102
{ACAD_REACTORS
330
E
102
}
330
E
  0
SCALE
  5
43
102
{ACAD_REACTORS
330
42
102
}
330
42
100
AcDbScale
 70
     0
300
1:1
140
1.0
141
1.0
290
     1
  0
SCALE
  5
44
102
{ACAD_REACTORS
330
42
102
}
330
42
100
AcDbScale
 70
     0
300
1/128" = 1'-0"
140
0.0078125
141
12.0
290
     0
  0
SCALE
  5
45
102
{ACAD_REACTORS
330
42
102
}
330
42
100
AcDbScale
 70
     0
300
1/64" = 1'-0"
140
0.015625
141
12.0
290
     0
  0
SCALE
  5
46
102
{ACAD_REACTORS
330
42
102
}
330
42
100
AcDbScale
 70
     0
300
1/32" = 1'-0"
140
0.03125
141
12.0
290
     0
  0
SCALE
  5
47
102
{ACAD_REACTORS
330
42
102
}
330
42
100
AcDbScale
 70
     0
300
1/16" = 1'-0"
140
0.0625
141
12.0
290
     0
  0
SCALE
  5
48
102
{ACAD_REACTORS
330
42
102
}
330
42
100
AcDbScale
 70
     0
300
3/32" = 1'-0"
140
0.09375
141
12.0
290
     0
  0
SCALE
  5
49
102
{ACAD_REACTORS
330
42
102
}
330
42
100
AcDbScale
 70
     0
300
1/8" = 1'-0"
140
0.125
141
12.0
290
     0
  0
SCALE
  5
4A
102
{ACAD_REACTORS
330
42
102
}
330
42
100
AcDbScale
 70
     0
300
3/16" = 1'-0"
140
0.1875
141
12.0
290
     0
  0
SCALE
  5
4B
102
{ACAD_REACTORS
330
42
102
}
330
42
100
AcDbScale
 70
     0
300
1/4" = 1'-0"
140
0.25
141
12.0
290
     0
  0
SCALE
  5
4C
102
{ACAD_REACTORS
330
42
102
}
330
42
100
AcDbScale
 70
     0
300
3/8" = 1'-0"
140
0.375
141
12.0
290
     0
  0
SCALE
  5
4D
102
{ACAD_REACTORS
330
42
102
}
330
42
100
AcDbScale
 70
     0
300
1/2" = 1'-0"
140
0.5
141
12.0
290
     0
  0
SCALE
  5
4E
102
{ACAD_REACTORS
330
42
102
}
330
42
100
AcDbScale
 70
     0
300
3/4" = 1'-0"
140
0.75
141
12.0
290
     0
  0
SCALE
  5
4F
102
{ACAD_REACTORS
330
42
102
}
330
42
100
AcDbScale
 70
     0
300
1" = 1'-0"
140
1.0
141
12.0
290
     0
  0
SCALE
  5
50
102
{ACAD_REACTORS
330
42
102
}
330
42
100
AcDbScale
 70
     0
300
1-1/2" = 1'-0"
140
1.5
141
12.0
290
     0
  0
SCALE
  5
51
102
{ACAD_REACTORS
330
42
102
}
330
42
100
AcDbScale
 70
     0
300
3" = 1'-0"
140
3.0
141
12.0
290
     0
  0
SCALE
  5
52
102
{ACAD_REACTORS
330
42
102
}
330
42
100
AcDbScale
 70
     0
300
6" = 1'-0"
140
6.0
141
12.0
290
     0
  0
SCALE
  5
53
102
{ACAD_REACTORS
330
42
102
}
330
42
100
AcDbScale
 70
     0
300
1'-0" = 1'-0"
140
12.0
141
12.0
290
     0
  0
ACDBSECTIONVIEWSTYLE
  5
69
102
{ACAD_XDICTIONARY
360
1C0
102
}
102
{ACAD_REACTORS
330
68
102
}
330
68
100
AcDbModelDocViewStyle
 70
     0
  3
Imperial24
290
     0
100
AcDbSectionViewStyle
 70
     0
 71
     0
 90
       78
 71
     1
340
55
 62
   256
 40
0.24
340
0
340
0
 62
   256
 40
0.24
300
I, O, Q, S, X, Z
 40
0.48
 90
        3
 40
0.18
 90
        1
 71
     2
340
5D
 90
       25
 62
   256
340
5D
 90
       50
 62
   256
 40
0.24
 40
0.0
 40
0.24
 71
     3
340
55
 62
   256
 40
0.24
 90
        1
 40
0.75
 90
        1
300
%<\AcVar ViewType \f "%tc1">% %<\AcVar ViewSectionStartId>%-%<\AcVar ViewSectionEndId>%\PSCALE %<\AcVar ViewScale \f "%sn">%
 71
     4
 62
   256
 62
   257
300
ANSI31
 40
1.0
 90
        0
290
     0
290
     0
 90
        6
 40
0.0
 40
1.570796326794896
 40
0.2617993877991494
 40
1.308996938995747
 40
-0.2617993877991494
 40
1.832595714594046
  0
TABLESTYLE
  5
65
102
{ACAD_XDICTIONARY
360
18B
102
}
102
{ACAD_REACTORS
330
64
102
}
330
64
100
AcDbTableStyle
280
     0
  3
Standard
 70
     0
 71
     0
 40
0.06
 41
0.06
280
     0
281
     0
  7
Standard
140
0.18
170
     2
 62
     0
 63
     7
283
     0
 90
      512
 91
        0
  1

274
    -2
284
     1
 64
     0
275
    -2
285
     1
 65
     0
276
    -2
286
     1
 66
     0
277
    -2
287
     1
 67
     0
278
    -2
288
     1
 68
     0
279
    -2
289
     1
 69
     0
  7
Standard
140
0.25
170
     5
 62
     0
 63
     7
283
     0
 90
      512
 91
        0
  1

274
    -2
284
     1
 64
     0
275
    -2
285
     1
 65
     0
276
    -2
286
     1
 66
     0
277
    -2
287
     1
 67
     0
278
    -2
288
     1
 68
     0
279
    -2
289
     1
 69
     0
  7
Standard
140
0.18
170
     5
 62
     0
 63
     7
283
     0
 90
      512
 91
        0
  1

274
    -2
284
     1
 64
     0
275
    -2
285
     1
 65
     0
276
    -2
286
     1
 66
     0
277
    -2
287
     1
 67
     0
278
    -2
288
     1
 68
     0
279
    -2
289
     1
 69
     0
  0
VISUALSTYLE
  5
2F
102
{ACAD_XDICTIONARY
360
198
102
}
102
{ACAD_REACTORS
330
29
102
}
330
29
100
AcDbVisualStyle
  2
2dWireframe
 70
     4
177
     2
291
     0
 71
     0
176
     1
 72
     2
176
     1
 73
     0
176
     1
 90
        0
176
     1
 40
0.6
176
     1
 41
30.0
176
     1
 63
     7
421
 16777215
176
     1
 74
     1
176
     1
 91
        4
176
     1
 64
     7
176
     1
 65
   257
176
     1
 75
     1
176
     1
175
     1
176
     1
 42
1.0
176
     1
 92
        0
176
     1
 66
   257
176
     1
 43
1.0
176
     1
 76
     1
176
     1
 77
     6
176
     1
 78
     2
176
     1
 67
     7
176
     1
 79
     5
176
     1
170
     0
176
     1
171
     0
176
     1
290
     0
176
     1
 93
        1
176
     1
 44
0.0
176
     1
173
     0
176
     1
1001
ACAD
1000
AcDbSavedByObjectVersion
1070
     0
  0
VISUALSTYLE
  5
2E
102
{ACAD_XDICTIONARY
360
196
102
}
102
{ACAD_REACTORS
330
29
102
}
330
29
100
AcDbVisualStyle
  2
Basic
 70
     7
177
     2
291
     1
 71
     1
176
     1
 72
     0
176
     1
 73
     1
176
     1
 90
        0
176
     1
 40
0.6
176
     1
 41
30.0
176
     1
 63
     7
421
 16777215
176
     1
 74
     0
176
     1
 91
        4
176
     1
 64
     7
176
     1
 65
   257
176
     1
 75
     1
176
     1
175
     1
176
     1
 42
1.0
176
     1
 92
        8
176
     1
 66
     7
176
     1
 43
1.0
176
     1
 76
     1
176
     1
 77
     6
176
     1
 78
     2
176
     1
 67
     7
176
     1
 79
     5
176
     1
170
     0
176
     1
171
     0
176
     1
290
     0
176
     1
 93
        1
176
     1
 44
0.0
176
     1
173
     0
176
     1
1001
ACAD
1000
AcDbSavedByObjectVersion
1070
     0
  0
VISUALSTYLE
  5
35
102
{ACAD_XDICTIONARY
360
1A4
102
}
102
{ACAD_REACTORS
330
29
102
}
330
29
100
AcDbVisualStyle
  2
Brighten
 70
    12
177
     2
291
     1
 71
     2
176
     1
 72
     2
176
     1
 73
     0
176
     1
 90
        0
176
     1
 40
0.6
176
     1
 41
30.0
176
     1
 63
     7
421
 16777215
176
     1
 74
     1
176
     1
 91
        4
176
     1
 64
     7
176
     1
 65
   257
176
     1
 75
     1
176
     1
175
     1
176
     1
 42
1.0
176
     1
 92
        8
176
     1
 66
     7
176
     1
 43
1.0
176
     1
 76
     1
176
     1
 77
     6
176
     1
 78
     2
176
     1
 67
     7
176
     1
 79
     5
176
     1
170
     0
176
     1
171
     0
176
     1
290
     0
176
     1
 93
        1
176
     1
 44
50.0
176
     1
173
     0
176
     1
1001
ACAD
1000
AcDbSavedByObjectVersion
1070
     0
  0
VISUALSTYLE
  5
39
102
{ACAD_XDICTIONARY
360
1AC
102
}
102
{ACAD_REACTORS
330
29
102
}
330
29
100
AcDbVisualStyle
  2
ColorChange
 70
    16
177
     2
291
     1
 71
     2
176
     1
 72
     2
176
     1
 73
     3
176
     1
 90
        0
176
     1
 40
0.6
176
     1
 41
30.0
176
     1
 63
     8
421
  8421504
176
     1
 74
     1
176
     1
 91
        4
176
     1
 64
     7
176
     1
 65
   257
176
     1
 75
     1
176
     1
175
     1
176
     1
 42
1.0
176
     1
 92
        8
176
     1
 66
     8
424
  8421504
176
     1
 43
1.0
176
     1
 76
     1
176
     1
 77
     6
176
     1
 78
     2
176
     1
 67
     7
176
     1
 79
     5
176
     1
170
     0
176
     1
171
     0
176
     1
290
     0
176
     1
 93
        1
176
     1
 44
0.0
176
     1
173
     0
176
     1
1001
ACAD
1000
AcDbSavedByObjectVersion
1070
     0
  0
VISUALSTYLE
  5
32
102
{ACAD_XDICTIONARY
360
19E
102
}
102
{ACAD_REACTORS
330
29
102
}
330
29
100
AcDbVisualStyle
  2
Conceptual
 70
     9
177
     2
291
     0
 71
     3
176
     1
 72
     2
176
     1
 73
     0
176
     1
 90
        0
176
     1
 40
0.6
176
     1
 41
30.0
176
     1
 63
     7
421
 16777215
176
     1
 74
     2
176
     1
 91
        2
176
     1
 64
     7
176
     1
 65
   257
176
     1
 75
     1
176
     1
175
     1
176
     1
 42
179.0
176
     1
 92
        8
176
     1
 66
     7
176
     1
 43
1.0
176
     1
 76
     1
176
     1
 77
     6
176
     1
 78
     2
176
     1
 67
     7
176
     1
 79
     3
176
     1
170
     0
176
     1
171
     0
176
     1
290
     0
176
     1
 93
        1
176
     1
 44
0.0
176
     1
173
     0
176
     1
1001
ACAD
1000
AcDbSavedByObjectVersion
1070
     0
  0
VISUALSTYLE
  5
34
102
{ACAD_XDICTIONARY
360
1A2
102
}
102
{ACAD_REACTORS
330
29
102
}
330
29
100
AcDbVisualStyle
  2
Dim
 70
    11
177
     2
291
     1
 71
     2
176
     1
 72
     2
176
     1
 73
     0
176
     1
 90
        0
176
     1
 40
0.6
176
     1
 41
30.0
176
     1
 63
     7
421
 16777215
176
     1
 74
     1
176
     1
 91
        4
176
     1
 64
     7
176
     1
 65
   257
176
     1
 75
     1
176
     1
175
     1
176
     1
 42
1.0
176
     1
 92
        8
176
     1
 66
     7
176
     1
 43
1.0
176
     1
 76
     1
176
     1
 77
     6
176
     1
 78
     2
176
     1
 67
     7
176
     1
 79
     5
176
     1
170
     0
176
     1
171
     0
176
     1
290
     0
176
     1
 93
        1
176
     1
 44
-50.0
176
     1
173
     0
176
     1
1001
ACAD
1000
AcDbSavedByObjectVersion
1070
     0
  0
VISUALSTYLE
  5
41
102
{ACAD_XDICTIONARY
360
1BC
102
}
102
{ACAD_REACTORS
330
29
102
}
330
29
100
AcDbVisualStyle
  2
EdgeColorOff
 70
    22
177
     2
291
     1
 71
     2
176
     0
 72
     2
176
     0
 73
     0
176
     0
 90
        0
176
     0
 40
0.6
176
     0
 41
30.0
176
     0
 63
     7
421
 16777215
176
     0
 74
     1
176
     0
 91
        4
176
     0
 64
     7
176
     0
 65
   257
176
     0
 75
     1
176
     0
175
     1
176
     0
 42
1.0
176
     0
 92
        8
176
     2
 66
     7
176
     0
 43
1.0
176
     0
 76
     1
176
     0
 77
     6
176
     0
 78
     2
176
     0
 67
     7
176
     0
 79
     5
176
     0
170
     0
176
     0
171
     0
176
     0
290
     0
176
     0
 93
        1
176
     0
 44
0.0
176
     0
173
     0
176
     0
1001
ACAD
1000
AcDbSavedByObjectVersion
1070
     0
  0
VISUALSTYLE
  5
38
102
{ACAD_XDICTIONARY
360
1AA
102
}
102
{ACAD_REACTORS
330
29
102
}
330
29
100
AcDbVisualStyle
  2
Facepattern
 70
    15
177
     2
291
     1
 71
     2
176
     1
 72
     2
176
     1
 73
     0
176
     1
 90
        0
176
     1
 40
0.6
176
     1
 41
30.0
176
     1
 63
     7
421
 16777215
176
     1
 74
     1
176
     1
 91
        4
176
     1
 64
     7
176
     1
 65
   257
176
     1
 75
     1
176
     1
175
     1
176
     1
 42
1.0
176
     1
 92
        8
176
     1
 66
     7
176
     1
 43
1.0
176
     1
 76
     1
176
     1
 77
     6
176
     1
 78
     2
176
     1
 67
     7
176
     1
 79
     5
176
     1
170
     0
176
     1
171
     0
176
     1
290
     0
176
     1
 93
        1
176
     1
 44
0.0
176
     1
173
     0
176
     1
1001
ACAD
1000
AcDbSavedByObjectVersion
1070
     0
  0
VISUALSTYLE
  5
2A
102
{ACAD_XDICTIONARY
360
18E
102
}
102
{ACAD_REACTORS
330
29
102
}
330
29
100
AcDbVisualStyle
  2
Flat
 70
     0
177
     2
291
     1
 71
     2
176
     1
 72
     1
176
     1
 73
     1
176
     1
 90
        2
176
     1
 40
0.6
176
     1
 41
30.0
176
     1
 63
     7
421
 16777215
176
     1
 74
     0
176
     1
 91
        0
176
     1
 64
     7
176
     1
 65
   257
176
     1
 75
     1
176
     1
175
     1
176
     1
 42
1.0
176
     1
 92
        8
176
     1
 66
     7
176
     1
 43
1.0
176
     1
 76
     1
176
     1
 77
     6
176
     1
 78
     2
176
     1
 67
     7
176
     1
 79
     5
176
     1
170
     0
176
     1
171
     0
176
     1
290
     0
176
     1
 93
       13
176
     1
 44
0.0
176
     1
173
     0
176
     1
1001
ACAD
1000
AcDbSavedByObjectVersion
1070
     0
  0
VISUALSTYLE
  5
2B
102
{ACAD_XDICTIONARY
360
190
102
}
102
{ACAD_REACTORS
330
29
102
}
330
29
100
AcDbVisualStyle
  2
FlatWithEdges
 70
     1
177
     2
291
     1
 71
     2
176
     1
 72
     1
176
     1
 73
     1
176
     1
 90
        2
176
     1
 40
0.6
176
     1
 41
30.0
176
     1
 63
     7
421
 16777215
176
     1
 74
     1
176
     1
 91
        0
176
     1
 64
     7
176
     1
 65
   257
176
     1
 75
     1
176
     1
175
     1
176
     1
 42
1.0
176
     1
 92
        0
176
     1
 66
   257
176
     1
 43
1.0
176
     1
 76
     1
176
     1
 77
     6
176
     1
 78
     2
176
     1
 67
     7
176
     1
 79
     5
176
     1
170
     0
176
     1
171
     0
176
     1
290
     0
176
     1
 93
       13
176
     1
 44
0.0
176
     1
173
     0
176
     1
1001
ACAD
1000
AcDbSavedByObjectVersion
1070
     0
  0
VISUALSTYLE
  5
2C
102
{ACAD_XDICTIONARY
360
192
102
}
102
{ACAD_REACTORS
330
29
102
}
330
29
100
AcDbVisualStyle
  2
Gouraud
 70
     2
177
     2
291
     1
 71
     2
176
     1
 72
     2
176
     1
 73
     1
176
     1
 90
        2
176
     1
 40
0.6
176
     1
 41
30.0
176
     1
 63
     7
421
 16777215
176
     1
 74
     0
176
     1
 91
        0
176
     1
 64
     7
176
     1
 65
   257
176
     1
 75
     1
176
     1
175
     1
176
     1
 42
1.0
176
     1
 92
        0
176
     1
 66
     7
176
     1
 43
1.0
176
     1
 76
     1
176
     1
 77
     6
176
     1
 78
     2
176
     1
 67
     7
176
     1
 79
     5
176
     1
170
     0
176
     1
171
     0
176
     1
290
     0
176
     1
 93
       13
176
     1
 44
0.0
176
     1
173
     0
176
     1
1001
ACAD
1000
AcDbSavedByObjectVersion
1070
     0
  0
VISUALSTYLE
  5
2D
102
{ACAD_XDICTIONARY
360
194
102
}
102
{ACAD_REACTORS
330
29
102
}
330
29
100
AcDbVisualStyle
  2
GouraudWithEdges
 70
     3
177
     2
291
     1
 71
     2
176
     1
 72
     2
176
     1
 73
     1
176
     1
 90
        2
176
     1
 40
0.6
176
     1
 41
30.0
176
     1
 63
     7
421
 16777215
176
     1
 74
     1
176
     1
 91
        0
176
     1
 64
     7
176
     1
 65
   257
176
     1
 75
     1
176
     1
175
     1
176
     1
 42
1.0
176
     1
 92
        0
176
     1
 66
   257
176
     1
 43
1.0
176
     1
 76
     1
176
     1
 77
     6
176
     1
 78
     2
176
     1
 67
     7
176
     1
 79
     5
176
     1
170
     0
176
     1
171
     0
176
     1
290
     0
176
     1
 93
       13
176
     1
 44
0.0
176
     1
173
     0
176
     1
1001
ACAD
1000
AcDbSavedByObjectVersion
1070
     0
  0
VISUALSTYLE
  5
31
102
{ACAD_XDICTIONARY
360
19C
102
}
102
{ACAD_REACTORS
330
29
102
}
330
29
100
AcDbVisualStyle
  2
Hidden
 70
     6
177
     2
291
     0
 71
     1
176
     1
 72
     2
176
     1
 73
     2
176
     1
 90
        0
176
     1
 40
0.6
176
     1
 41
30.0
176
     1
 63
     7
421
 16777215
176
     1
 74
     2
176
     1
 91
        2
176
     1
 64
     7
176
     1
 65
   257
176
     1
 75
     2
176
     1
175
     1
176
     1
 42
40.0
176
     1
 92
        0
176
     1
 66
   257
176
     1
 43
1.0
176
     1
 76
     1
176
     1
 77
     6
176
     1
 78
     2
176
     1
 67
     7
176
     1
 79
     3
176
     1
170
     0
176
     1
171
     0
176
     1
290
     0
176
     1
 93
        1
176
     1
 44
0.0
176
     1
173
     0
176
     1
1001
ACAD
1000
AcDbSavedByObjectVersion
1070
     0
  0
VISUALSTYLE
  5
3F
102
{ACAD_XDICTIONARY
360
1B8
102
}
102
{ACAD_REACTORS
330
29
102
}
330
29
100
AcDbVisualStyle
  2
JitterOff
 70
    20
177
     2
291
     1
 71
     2
176
     0
 72
     2
176
     0
 73
     0
176
     0
 90
        0
176
     0
 40
0.6
176
     0
 41
30.0
176
     0
 63
     7
421
 16777215
176
     0
 74
     1
176
     0
 91
        4
176
     0
 64
     7
176
     0
 65
   257
176
     0
 75
     1
176
     0
175
     1
176
     0
 42
1.0
176
     0
 92
       10
176
     2
 66
     7
176
     0
 43
1.0
176
     0
 76
     1
176
     0
 77
     6
176
     0
 78
     2
176
     0
 67
     7
176
     0
 79
     5
176
     0
170
     0
176
     0
171
     0
176
     0
290
     0
176
     0
 93
        1
176
     0
 44
0.0
176
     0
173
     0
176
     0
1001
ACAD
1000
AcDbSavedByObjectVersion
1070
     0
  0
VISUALSTYLE
  5
37
102
{ACAD_XDICTIONARY
360
1A8
102
}
102
{ACAD_REACTORS
330
29
102
}
330
29
100
AcDbVisualStyle
  2
Linepattern
 70
    14
177
     2
291
     1
 71
     2
176
     1
 72
     2
176
     1
 73
     0
176
     1
 90
        0
176
     1
 40
0.6
176
     1
 41
30.0
176
     1
 63
     7
421
 16777215
176
     1
 74
     1
176
     1
 91
        4
176
     1
 64
     7
176
     1
 65
   257
176
     1
 75
     7
176
     1
175
     7
176
     1
 42
1.0
176
     1
 92
        8
176
     1
 66
     7
176
     1
 43
1.0
176
     1
 76
     1
176
     1
 77
     6
176
     1
 78
     2
176
     1
 67
     7
176
     1
 79
     5
176
     1
170
     0
176
     1
171
     0
176
     1
290
     0
176
     1
 93
        1
176
     1
 44
0.0
176
     1
173
     0
176
     1
1001
ACAD
1000
AcDbSavedByObjectVersion
1070
     0
  0
VISUALSTYLE
  5
40
102
{ACAD_XDICTIONARY
360
1BA
102
}
102
{ACAD_REACTORS
330
29
102
}
330
29
100
AcDbVisualStyle
  2
OverhangOff
 70
    21
177
     2
291
     1
 71
     2
176
     0
 72
     2
176
     0
 73
     0
176
     0
 90
        0
176
     0
 40
0.6
176
     0
 41
30.0
176
     0
 63
     7
421
 16777215
176
     0
 74
     1
176
     0
 91
        4
176
     0
 64
     7
176
     0
 65
   257
176
     0
 75
     1
176
     0
175
     1
176
     0
 42
1.0
176
     0
 92
        9
176
     2
 66
     7
176
     0
 43
1.0
176
     0
 76
     1
176
     0
 77
     6
176
     0
 78
     2
176
     0
 67
     7
176
     0
 79
     5
176
     0
170
     0
176
     0
171
     0
176
     0
290
     0
176
     0
 93
        1
176
     0
 44
0.0
176
     0
173
     0
176
     0
1001
ACAD
1000
AcDbSavedByObjectVersion
1070
     0
  0
VISUALSTYLE
  5
33
102
{ACAD_XDICTIONARY
360
1A0
102
}
102
{ACAD_REACTORS
330
29
102
}
330
29
100
AcDbVisualStyle
  2
Realistic
 70
     8
177
     2
291
     0
 71
     2
176
     1
 72
     3
176
     1
 73
     0
176
     1
 90
        2
176
     1
 40
0.6
176
     1
 41
30.0
176
     1
 63
     7
421
 16777215
176
     1
 74
     0
176
     1
 91
        0
176
     1
 64
     7
176
     1
 65
   257
176
     1
 75
     1
176
     1
175
     1
176
     1
 42
1.0
176
     1
 92
        8
176
     1
 66
   257
176
     1
 43
1.0
176
     1
 76
     1
176
     1
 77
     6
176
     1
 78
     2
176
     1
 67
     7
176
     1
 79
     3
176
     1
170
     0
176
     1
171
     0
176
     1
290
     0
176
     1
 93
       13
176
     1
 44
0.0
176
     1
173
     0
176
     1
1001
ACAD
1000
AcDbSavedByObjectVersion
1070
     0
  0
VISUALSTYLE
  5
3E
102
{ACAD_XDICTIONARY
360
1B6
102
}
102
{ACAD_REACTORS
330
29
102
}
330
29
100
AcDbVisualStyle
  2
Shaded
 70
    27
177
     2
291
     0
 71
     2
176
     1
 72
     2
176
     1
 73
     1
176
     1
 90
        2
176
     1
 40
0.6
176
     1
 41
30.0
176
     1
 63
     7
421
 16777215
176
     1
 74
     0
176
     1
 91
        4
176
     1
 64
     7
176
     1
 65
   257
176
     1
 75
     1
176
     1
175
     1
176
     1
 42
1.0
176
     1
 92
        8
176
     1
 66
   257
176
     1
 43
1.0
176
     1
 76
     1
176
     1
 77
     6
176
     1
 78
     2
176
     1
 67
     8
425
  7895160
176
     1
 79
     3
176
     1
170
     0
176
     1
171
     0
176
     1
290
     0
176
     1
 93
        5
176
     1
 44
0.0
176
     1
173
     0
176
     1
1001
ACAD
1000
AcDbSavedByObjectVersion
1070
     0
  0
VISUALSTYLE
  5
3D
102
{ACAD_XDICTIONARY
360
1B4
102
}
102
{ACAD_REACTORS
330
29
102
}
330
29
100
AcDbVisualStyle
  2
Shaded with edges
 70
    26
177
     2
291
     0
 71
     2
176
     1
 72
     2
176
     1
 73
     1
176
     1
 90
        2
176
     1
 40
0.6
176
     1
 41
30.0
176
     1
 63
     7
421
 16777215
176
     1
 74
     1
176
     1
 91
        2
176
     1
 64
     7
176
     1
 65
   257
176
     1
 75
     2
176
     1
175
     1
176
     1
 42
1.0
176
     1
 92
        8
176
     1
 66
   257
176
     1
 43
1.0
176
     1
 76
     1
176
     1
 77
     6
176
     1
 78
     2
176
     1
 67
     7
176
     1
 79
     3
176
     1
170
     0
176
     1
171
     0
176
     1
290
     0
176
     1
 93
        5
176
     1
 44
0.0
176
     1
173
     0
176
     1
1001
ACAD
1000
AcDbSavedByObjectVersion
1070
     0
  0
VISUALSTYLE
  5
3A
102
{ACAD_XDICTIONARY
360
1AE
102
}
102
{ACAD_REACTORS
330
29
102
}
330
29
100
AcDbVisualStyle
  2
Shades of Gray
 70
    23
177
     2
291
     0
 71
     2
176
     1
 72
     2
176
     1
 73
     3
176
     1
 90
        0
176
     1
 40
0.6
176
     1
 41
30.0
176
     1
 63
     7
421
 16777215
176
     1
 74
     2
176
     1
 91
        2
176
     1
 64
     7
176
     1
 65
     7
176
     1
 75
     1
176
     1
175
     1
176
     1
 42
40.0
176
     1
 92
        8
176
     1
 66
     7
176
     1
 43
1.0
176
     1
 76
     1
176
     1
 77
     6
176
     1
 78
     2
176
     1
 67
     7
176
     1
 79
     3
176
     1
170
     0
176
     1
171
     0
176
     1
290
     0
176
     1
 93
        1
176
     1
 44
0.0
176
     1
173
     0
176
     1
1001
ACAD
1000
AcDbSavedByObjectVersion
1070
     0
  0
VISUALSTYLE
  5
3B
102
{ACAD_XDICTIONARY
360
1B0
102
}
102
{ACAD_REACTORS
330
29
102
}
330
29
100
AcDbVisualStyle
  2
Sketchy
 70
    24
177
     2
291
     0
 71
     1
176
     1
 72
     2
176
     1
 73
     2
176
     1
 90
        0
176
     1
 40
0.6
176
     1
 41
30.0
176
     1
 63
     7
421
 16777215
176
     1
 74
     2
176
     1
 91
        2
176
     1
 64
     7
176
     1
 65
     7
176
     1
 75
     1
176
     1
175
     1
176
     1
 42
40.0
176
     1
 92
       11
176
     1
 66
     7
176
     1
 43
1.0
176
     1
 76
     1
176
     1
 77
     6
176
     1
 78
     2
176
     1
 67
     7
176
     1
 79
     6
176
     1
170
     0
176
     1
171
     0
176
     1
290
     0
176
     1
 93
        1
176
     1
 44
0.0
176
     1
173
     0
176
     1
1001
ACAD
1000
AcDbSavedByObjectVersion
1070
     0
  0
VISUALSTYLE
  5
36
102
{ACAD_XDICTIONARY
360
1A6
102
}
102
{ACAD_REACTORS
330
29
102
}
330
29
100
AcDbVisualStyle
  2
Thicken
 70
    13
177
     2
291
     1
 71
     2
176
     1
 72
     2
176
     1
 73
     0
176
     1
 90
        0
176
     1
 40
0.6
176
     1
 41
30.0
176
     1
 63
     7
421
 16777215
176
     1
 74
     1
176
     1
 91
        4
176
     1
 64
     7
176
     1
 65
   257
176
     1
 75
     1
176
     1
175
     1
176
     1
 42
1.0
176
     1
 92
       12
176
     1
 66
     7
176
     1
 43
1.0
176
     1
 76
     1
176
     1
 77
     6
176
     1
 78
     2
176
     1
 67
     7
176
     1
 79
     5
176
     1
170
     0
176
     1
171
     0
176
     1
290
     0
176
     1
 93
        1
176
     1
 44
0.0
176
     1
173
     0
176
     1
1001
ACAD
1000
AcDbSavedByObjectVersion
1070
     0
  0
VISUALSTYLE
  5
30
102
{ACAD_XDICTIONARY
360
19A
102
}
102
{ACAD_REACTORS
330
29
102
}
330
29
100
AcDbVisualStyle
  2
Wireframe
 70
     5
177
     2
291
     0
 71
     0
176
     1
 72
     2
176
     1
 73
     0
176
     1
 90
        0
176
     1
 40
0.6
176
     1
 41
30.0
176
     1
 63
     7
421
 16777215
176
     1
 74
     1
176
     1
 91
        4
176
     1
 64
     7
176
     1
 65
   257
176
     1
 75
     1
176
     1
175
     1
176
     1
 42
1.0
176
     1
 92
        0
176
     1
 66
   257
176
     1
 43
1.0
176
     1
 76
     1
176
     1
 77
     6
176
     1
 78
     2
176
     1
 67
     7
176
     1
 79
     3
176
     1
170
     0
176
     1
171
     0
176
     1
290
     0
176
     1
 93
        1
176
     1
 44
0.0
176
     1
173
     0
176
     1
1001
ACAD
1000
AcDbSavedByObjectVersion
1070
     0
  0
VISUALSTYLE
  5
3C
102
{ACAD_XDICTIONARY
360
1B2
102
}
102
{ACAD_REACTORS
330
29
102
}
330
29
100
AcDbVisualStyle
  2
X-Ray
 70
    25
177
     2
291
     0
 71
     2
176
     1
 72
     2
176
     1
 73
     1
176
     1
 90
        1
176
     1
 40
0.5
176
     1
 41
30.0
176
     1
 63
     7
421
 16777215
176
     1
 74
     1
176
     1
 91
        0
176
     1
 64
     7
176
     1
 65
   257
176
     1
 75
     1
176
     1
175
     1
176
     1
 42
1.0
176
     1
 92
        8
176
     1
 66
     7
176
     1
 43
1.0
176
     1
 76
     1
176
     1
 77
     6
176
     1
 78
     2
176
     1
 67
     7
176
     1
 79
     3
176
     1
170
     0
176
     1
171
     0
176
     1
290
     0
176
     1
 93
       13
176
     1
 44
0.0
176
     1
173
     0
176
     1
1001
ACAD
1000
AcDbSavedByObjectVersion
1070
     0
  0
DICTIONARYVAR
  5
18A
102
{ACAD_REACTORS
330
185
102
}
330
185
100
DictionaryVariables
280
     0
  1
1:1
  0
DICTIONARYVAR
  5
187
102
{ACAD_REACTORS
330
185
102
}
330
185
100
DictionaryVariables
280
     0
  1
STANDARD
  0
DICTIONARYVAR
  5
186
102
{ACAD_REACTORS
330
185
102
}
330
185
100
DictionaryVariables
280
     0
  1
STANDARD
  0
DICTIONARYVAR
  5
188
102
{ACAD_REACTORS
330
185
102
}
330
185
100
DictionaryVariables
280
     0
  1
Imperial24
  0
DICTIONARYVAR
  5
189
102
{ACAD_REACTORS
330
185
102
}
330
185
100
DictionaryVariables
280
     0
  1
Imperial24
  0
DICTIONARY
  5
1C2
330
6B
100
AcDbDictionary
280
     1
281
     1
  3
ACAD_XREC_ROUNDTRIP
360
1C3
  0
DICTIONARY
  5
1A
330
19
100
AcDbDictionary
280
     1
281
     1
  3
BUMPTILE
360
1C
  3
DIFFUSETILE
360
1B
  3
OPACITYTILE
360
1F
  3
REFLECTIONTILE
360
1E
  3
REFRACTIONTILE
360
20
  3
SPECULARTILE
360
1D
  0
DICTIONARY
  5
12
330
11
100
AcDbDictionary
280
     1
281
     1
  3
BUMPTILE
360
14
  3
DIFFUSETILE
360
13
  3
OPACITYTILE
360
17
  3
REFLECTIONTILE
360
16
  3
REFRACTIONTILE
360
18
  3
SPECULARTILE
360
15
  0
DICTIONARY
  5
22
330
21
100
AcDbDictionary
280
     1
281
     1
  3
BUMPTILE
360
24
  3
DIFFUSETILE
360
23
  3
OPACITYTILE
360
27
  3
REFLECTIONTILE
360
26
  3
REFRACTIONTILE
360
28
  3
SPECULARTILE
360
25
  0
DICTIONARY
  5
1BE
330
67
100
AcDbDictionary
280
     1
281
     1
  3
ACAD_XREC_ROUNDTRIP
360
1BF
  0
DICTIONARY
  5
1C0
330
69
100
AcDbDictionary
280
     1
281
     1
  3
ACAD_XREC_ROUNDTRIP
360
1C1
  0
DICTIONARY
  5
18B
330
65
100
AcDbDictionary
280
     1
281
     1
  3
ACAD_ROUNDTRIP_2008_TABLESTYLE_CELLSTYLEMAP
360
18C
  0
DICTIONARY
  5
198
330
2F
100
AcDbDictionary
280
     1
281
     1
  3
ACAD_XREC_ROUNDTRIP
360
199
  0
DICTIONARY
  5
196
330
2E
100
AcDbDictionary
280
     1
281
     1
  3
ACAD_XREC_ROUNDTRIP
360
197
  0
DICTIONARY
  5
1A4
330
35
100
AcDbDictionary
280
     1
281
     1
  3
ACAD_XREC_ROUNDTRIP
360
1A5
  0
DICTIONARY
  5
1AC
330
39
100
AcDbDictionary
280
     1
281
     1
  3
ACAD_XREC_ROUNDTRIP
360
1AD
  0
DICTIONARY
  5
19E
330
32
100
AcDbDictionary
280
     1
281
     1
  3
ACAD_XREC_ROUNDTRIP
360
19F
  0
DICTIONARY
  5
1A2
330
34
100
AcDbDictionary
280
     1
281
     1
  3
ACAD_XREC_ROUNDTRIP
360
1A3
  0
DICTIONARY
  5
1BC
330
41
100
AcDbDictionary
280
     1
281
     1
  3
ACAD_XREC_ROUNDTRIP
360
1BD
  0
DICTIONARY
  5
1AA
330
38
100
AcDbDictionary
280
     1
281
     1
  3
ACAD_XREC_ROUNDTRIP
360
1AB
  0
DICTIONARY
  5
18E
330
2A
100
AcDbDictionary
280
     1
281
     1
  3
ACAD_XREC_ROUNDTRIP
360
18F
  0
DICTIONARY
  5
190
330
2B
100
AcDbDictionary
280
     1
281
     1
  3
ACAD_XREC_ROUNDTRIP
360
191
  0
DICTIONARY
  5
192
330
2C
100
AcDbDictionary
280
     1
281
     1
  3
ACAD_XREC_ROUNDTRIP
360
193
  0
DICTIONARY
  5
194
330
2D
100
AcDbDictionary
280
     1
281
     1
  3
ACAD_XREC_ROUNDTRIP
360
195
  0
DICTIONARY
  5
19C
330
31
100
AcDbDictionary
280
     1
281
     1
  3
ACAD_XREC_ROUNDTRIP
360
19D
  0
DICTIONARY
  5
1B8
330
3F
100
AcDbDictionary
280
     1
281
     1
  3
ACAD_XREC_ROUNDTRIP
360
1B9
  0
DICTIONARY
  5
1A8
330
37
100
AcDbDictionary
280
     1
281
     1
  3
ACAD_XREC_ROUNDTRIP
360
1A9
  0
DICTIONARY
  5
1BA
330
40
100
AcDbDictionary
280
     1
281
     1
  3
ACAD_XREC_ROUNDTRIP
360
1BB
  0
DICTIONARY
  5
1A0
330
33
100
AcDbDictionary
280
     1
281
     1
  3
ACAD_XREC_ROUNDTRIP
360
1A1
  0
DICTIONARY
  5
1B6
330
3E
100
AcDbDictionary
280
     1
281
     1
  3
ACAD_XREC_ROUNDTRIP
360
1B7
  0
DICTIONARY
  5
1B4
330
3D
100
AcDbDictionary
280
     1
281
     1
  3
ACAD_XREC_ROUNDTRIP
360
1B5
  0
DICTIONARY
  5
1AE
330
3A
100
AcDbDictionary
280
     1
281
     1
  3
ACAD_XREC_ROUNDTRIP
360
1AF
  0
DICTIONARY
  5
1B0
330
3B
100
AcDbDictionary
280
     1
281
     1
  3
ACAD_XREC_ROUNDTRIP
360
1B1
  0
DICTIONARY
  5
1A6
330
36
100
AcDbDictionary
280
     1
281
     1
  3
ACAD_XREC_ROUNDTRIP
360
1A7
  0
DICTIONARY
  5
19A
330
30
100
AcDbDictionary
280
     1
281
     1
  3
ACAD_XREC_ROUNDTRIP
360
19B
  0
DICTIONARY
  5
1B2
330
3C
100
AcDbDictionary
280
     1
281
     1
  3
ACAD_XREC_ROUNDTRIP
360
1B3
  0
XRECORD
  5
1C3
102
{ACAD_REACTORS
330
1C2
102
}
330
1C2
100
AcDbXrecord
280
     1
102
DISPLAYNAME
  1
Imperial24
102
FLAGS
 90
        0
  0
XRECORD
  5
1C
102
{ACAD_REACTORS
330
1A
102
}
330
1A
100
AcDbXrecord
280
     1
270
     1
271
     1
  0
XRECORD
  5
1B
102
{ACAD_REACTORS
330
1A
102
}
330
1A
100
AcDbXrecord
280
     1
270
     1
271
     1
  0
XRECORD
  5
1F
102
{ACAD_REACTORS
330
1A
102
}
330
1A
100
AcDbXrecord
280
     1
270
     1
271
     1
  0
XRECORD
  5
1E
102
{ACAD_REACTORS
330
1A
102
}
330
1A
100
AcDbXrecord
280
     1
270
     1
271
     1
  0
XRECORD
  5
20
102
{ACAD_REACTORS
330
1A
102
}
330
1A
100
AcDbXrecord
280
     1
270
     1
271
     1
  0
XRECORD
  5
1D
102
{ACAD_REACTORS
330
1A
102
}
330
1A
100
AcDbXrecord
280
     1
270
     1
271
     1
  0
XRECORD
  5
14
102
{ACAD_REACTORS
330
12
102
}
330
12
100
AcDbXrecord
280
     1
270
     1
271
     1
  0
XRECORD
  5
13
102
{ACAD_REACTORS
330
12
102
}
330
12
100
AcDbXrecord
280
     1
270
     1
271
     1
  0
XRECORD
  5
17
102
{ACAD_REACTORS
330
12
102
}
330
12
100
AcDbXrecord
280
     1
270
     1
271
     1
  0
XRECORD
  5
16
102
{ACAD_REACTORS
330
12
102
}
330
12
100
AcDbXrecord
280
     1
270
     1
271
     1
  0
XRECORD
  5
18
102
{ACAD_REACTORS
330
12
102
}
330
12
100
AcDbXrecord
280
     1
270
     1
271
     1
  0
XRECORD
  5
15
102
{ACAD_REACTORS
330
12
102
}
330
12
100
AcDbXrecord
280
     1
270
     1
271
     1
  0
XRECORD
  5
24
102
{ACAD_REACTORS
330
22
102
}
330
22
100
AcDbXrecord
280
     1
270
     1
271
     1
  0
XRECORD
  5
23
102
{ACAD_REACTORS
330
22
102
}
330
22
100
AcDbXrecord
280
     1
270
     1
271
     1
  0
XRECORD
  5
27
102
{ACAD_REACTORS
330
22
102
}
330
22
100
AcDbXrecord
280
     1
270
     1
271
     1
  0
XRECORD
  5
26
102
{ACAD_REACTORS
330
22
102
}
330
22
100
AcDbXrecord
280
     1
270
     1
271
     1
  0
XRECORD
  5
28
102
{ACAD_REACTORS
330
22
102
}
330
22
100
AcDbXrecord
280
     1
270
     1
271
     1
  0
XRECORD
  5
25
102
{ACAD_REACTORS
330
22
102
}
330
22
100
AcDbXrecord
280
     1
270
     1
271
     1
  0
XRECORD
  5
1BF
102
{ACAD_REACTORS
330
1BE
102
}
330
1BE
100
AcDbXrecord
280
     1
102
ACAD_ROUNDTRIP_2012_MLEADER_STYLE
298
     1
  0
XRECORD
  5
1C1
102
{ACAD_REACTORS
330
1C0
102
}
330
1C0
100
AcDbXrecord
280
     1
102
DISPLAYNAME
  1
Imperial24
102
FLAGS
 90
        0
  0
CELLSTYLEMAP
  5
18C
102
{ACAD_REACTORS
330
18B
102
}
330
18B
100
AcDbCellStyleMap
 90
        3
300
CELLSTYLE
  1
TABLEFORMAT_BEGIN
 90
        5
170
     1
 91
        0
 92
    32768
 62
   257
 93
        1
300
CONTENTFORMAT
  1
CONTENTFORMAT_BEGIN
 90
        0
 91
        0
 92
      512
 93
        0
300

 40
0.0
140
1.0
 94
        5
 62
     0
340
55
144
0.25
309
CONTENTFORMAT_END
171
     0
 94
        0
309
TABLEFORMAT_END
  1
CELLSTYLE_BEGIN
 90
        1
 91
        1
300
_TITLE
309
CELLSTYLE_END
300
CELLSTYLE
  1
TABLEFORMAT_BEGIN
 90
        5
170
     1
 91
        0
 92
        0
 62
   257
 93
        1
300
CONTENTFORMAT
  1
CONTENTFORMAT_BEGIN
 90
        0
 91
        0
 92
      512
 93
        0
300

 40
0.0
140
1.0
 94
        5
 62
     0
340
55
144
0.18
309
CONTENTFORMAT_END
171
     0
 94
        0
309
TABLEFORMAT_END
  1
CELLSTYLE_BEGIN
 90
        2
 91
        1
300
_HEADER
309
CELLSTYLE_END
300
CELLSTYLE
  1
TABLEFORMAT_BEGIN
 90
        5
170
     1
 91
        0
 92
        0
 62
   257
 93
        1
300
CONTENTFORMAT
  1
CONTENTFORMAT_BEGIN
 90
        0
 91
        0
 92
      512
 93
        0
300

 40
0.0
140
1.0
 94
        2
 62
     0
340
55
144
0.18
309
CONTENTFORMAT_END
171
     0
 94
        0
309
TABLEFORMAT_END
  1
CELLSTYLE_BEGIN
 90
        3
 91
        2
300
_DATA
309
CELLSTYLE_END
  0
XRECORD
  5
199
102
{ACAD_REACTORS
330
198
102
}
330
198
100
AcDbXrecord
280
     1
102
RTVSPost2010Prop28
280
     1
102
RTVSPost2010PropOp28
 70
     1
102
RTVSPost2010Prop29
280
     1
102
RTVSPost2010PropOp29
 70
     1
102
RTVSPost2010Prop30
280
     0
102
RTVSPost2010PropOp30
 70
     1
102
RTVSPost2010Prop31
280
     0
102
RTVSPost2010PropOp31
 70
     1
102
RTVSPost2010Prop32
280
     0
102
RTVSPost2010PropOp32
 70
     1
102
RTVSPost2010Prop33
280
     0
102
RTVSPost2010PropOp33
 70
     1
102
RTVSPost2010Prop34
280
     0
102
RTVSPost2010PropOp34
 70
     1
102
RTVSPost2010Prop35
280
     0
102
RTVSPost2010PropOp35
 70
     1
102
RTVSPost2010Prop36
280
     0
102
RTVSPost2010PropOp36
 70
     1
102
RTVSPost2010Prop37
 90
       50
102
RTVSPost2010PropOp37
 70
     1
102
RTVSPost2010Prop38
140
0.0
102
RTVSPost2010PropOp38
 70
     1
102
RTVSPost2010Prop39
140
1.0
102
RTVSPost2010PropOp39
 70
     1
102
RTVSPost2010Prop40
 90
        0
102
RTVSPost2010PropOp40
 70
     1
102
RTVSPost2010Prop41ColorIndex
 90
       18
102
RTVSPost2010Prop41ColorRGB
 90
        0
102
RTVSPost2010PropOp41
 70
     1
102
RTVSPost2010Prop42
 90
       50
102
RTVSPost2010PropOp42
 70
     1
102
RTVSPost2010Prop43
 90
        3
102
RTVSPost2010PropOp43
 70
     1
102
RTVSPost2010Prop44ColorIndex
 90
        5
102
RTVSPost2010Prop44ColorRGB
 90
      255
102
RTVSPost2010PropOp44
 70
     1
102
RTVSPost2010Prop45
280
     0
102
RTVSPost2010PropOp45
 70
     1
102
RTVSPost2010Prop46
 90
       50
102
RTVSPost2010PropOp46
 70
     1
102
RTVSPost2010Prop47
 90
       50
102
RTVSPost2010PropOp47
 70
     1
102
RTVSPost2010Prop48
 90
       50
102
RTVSPost2010PropOp48
 70
     1
102
RTVSPost2010Prop49
280
     0
102
RTVSPost2010PropOp49
 70
     1
102
RTVSPost2010Prop50
 90
       50
102
RTVSPost2010PropOp50
 70
     1
102
RTVSPost2010Prop51ColorIndex
 90
      256
102
RTVSPost2010Prop51ColorRGB
 90
-16777216
102
RTVSPost2010PropOp51
 70
     0
102
RTVSPost2010Prop52
140
1.0
102
RTVSPost2010PropOp52
 70
     0
102
RTVSPost2010Prop53
 90
        2
102
RTVSPost2010PropOp53
 70
     1
102
RTVSPost2010Prop54
  1
strokes_ogs.tif
102
RTVSPost2010PropOp54
 70
     1
102
RTVSPost2010Prop55
280
     0
102
RTVSPost2010PropOp55
 70
     1
102
RTVSPost2010Prop56
140
1.0
102
RTVSPost2010PropOp56
 70
     1
102
RTVSPost2010Prop57
140
1.0
102
RTVSPost2010PropOp57
 70
     1
  0
XRECORD
  5
197
102
{ACAD_REACTORS
330
196
102
}
330
196
100
AcDbXrecord
280
     1
102
RTVSPost2010Prop28
280
     0
102
RTVSPost2010PropOp28
 70
     1
102
RTVSPost2010Prop29
280
     1
102
RTVSPost2010PropOp29
 70
     1
102
RTVSPost2010Prop30
280
     1
102
RTVSPost2010PropOp30
 70
     1
102
RTVSPost2010Prop31
280
     0
102
RTVSPost2010PropOp31
 70
     1
102
RTVSPost2010Prop32
280
     0
102
RTVSPost2010PropOp32
 70
     1
102
RTVSPost2010Prop33
280
     0
102
RTVSPost2010PropOp33
 70
     1
102
RTVSPost2010Prop34
280
     0
102
RTVSPost2010PropOp34
 70
     1
102
RTVSPost2010Prop35
280
     0
102
RTVSPost2010PropOp35
 70
     1
102
RTVSPost2010Prop36
280
     0
102
RTVSPost2010PropOp36
 70
     1
102
RTVSPost2010Prop37
 90
       50
102
RTVSPost2010PropOp37
 70
     1
102
RTVSPost2010Prop38
140
0.0
102
RTVSPost2010PropOp38
 70
     1
102
RTVSPost2010Prop39
140
1.0
102
RTVSPost2010PropOp39
 70
     1
102
RTVSPost2010Prop40
 90
        0
102
RTVSPost2010PropOp40
 70
     1
102
RTVSPost2010Prop41ColorIndex
 90
       18
102
RTVSPost2010Prop41ColorRGB
 90
        0
102
RTVSPost2010PropOp41
 70
     1
102
RTVSPost2010Prop42
 90
       50
102
RTVSPost2010PropOp42
 70
     1
102
RTVSPost2010Prop43
 90
        3
102
RTVSPost2010PropOp43
 70
     1
102
RTVSPost2010Prop44ColorIndex
 90
        5
102
RTVSPost2010Prop44ColorRGB
 90
      255
102
RTVSPost2010PropOp44
 70
     1
102
RTVSPost2010Prop45
280
     0
102
RTVSPost2010PropOp45
 70
     1
102
RTVSPost2010Prop46
 90
       50
102
RTVSPost2010PropOp46
 70
     1
102
RTVSPost2010Prop47
 90
       50
102
RTVSPost2010PropOp47
 70
     1
102
RTVSPost2010Prop48
 90
       50
102
RTVSPost2010PropOp48
 70
     1
102
RTVSPost2010Prop49
280
     0
102
RTVSPost2010PropOp49
 70
     1
102
RTVSPost2010Prop50
 90
       50
102
RTVSPost2010PropOp50
 70
     1
102
RTVSPost2010Prop51ColorIndex
 90
      256
102
RTVSPost2010Prop51ColorRGB
 90
-16777216
102
RTVSPost2010PropOp51
 70
     0
102
RTVSPost2010Prop52
140
1.0
102
RTVSPost2010PropOp52
 70
     0
102
RTVSPost2010Prop53
 90
        2
102
RTVSPost2010PropOp53
 70
     1
102
RTVSPost2010Prop54
  1
strokes_ogs.tif
102
RTVSPost2010PropOp54
 70
     1
102
RTVSPost2010Prop55
280
     0
102
RTVSPost2010PropOp55
 70
     1
102
RTVSPost2010Prop56
140
1.0
102
RTVSPost2010PropOp56
 70
     1
102
RTVSPost2010Prop57
140
1.0
102
RTVSPost2010PropOp57
 70
     1
  0
XRECORD
  5
1A5
102
{ACAD_REACTORS
330
1A4
102
}
330
1A4
100
AcDbXrecord
280
     1
102
RTVSPost2010Prop28
280
     0
102
RTVSPost2010PropOp28
 70
     1
102
RTVSPost2010Prop29
280
     1
102
RTVSPost2010PropOp29
 70
     1
102
RTVSPost2010Prop30
280
     1
102
RTVSPost2010PropOp30
 70
     1
102
RTVSPost2010Prop31
280
     0
102
RTVSPost2010PropOp31
 70
     1
102
RTVSPost2010Prop32
280
     0
102
RTVSPost2010PropOp32
 70
     1
102
RTVSPost2010Prop33
280
     0
102
RTVSPost2010PropOp33
 70
     1
102
RTVSPost2010Prop34
280
     0
102
RTVSPost2010PropOp34
 70
     1
102
RTVSPost2010Prop35
280
     0
102
RTVSPost2010PropOp35
 70
     1
102
RTVSPost2010Prop36
280
     0
102
RTVSPost2010PropOp36
 70
     1
102
RTVSPost2010Prop37
 90
       50
102
RTVSPost2010PropOp37
 70
     1
102
RTVSPost2010Prop38
140
0.0
102
RTVSPost2010PropOp38
 70
     1
102
RTVSPost2010Prop39
140
1.0
102
RTVSPost2010PropOp39
 70
     1
102
RTVSPost2010Prop40
 90
        0
102
RTVSPost2010PropOp40
 70
     1
102
RTVSPost2010Prop41ColorIndex
 90
       18
102
RTVSPost2010Prop41ColorRGB
 90
        0
102
RTVSPost2010PropOp41
 70
     1
102
RTVSPost2010Prop42
 90
       50
102
RTVSPost2010PropOp42
 70
     1
102
RTVSPost2010Prop43
 90
        3
102
RTVSPost2010PropOp43
 70
     1
102
RTVSPost2010Prop44ColorIndex
 90
        5
102
RTVSPost2010Prop44ColorRGB
 90
      255
102
RTVSPost2010PropOp44
 70
     1
102
RTVSPost2010Prop45
280
     0
102
RTVSPost2010PropOp45
 70
     1
102
RTVSPost2010Prop46
 90
       50
102
RTVSPost2010PropOp46
 70
     1
102
RTVSPost2010Prop47
 90
       50
102
RTVSPost2010PropOp47
 70
     1
102
RTVSPost2010Prop48
 90
       50
102
RTVSPost2010PropOp48
 70
     1
102
RTVSPost2010Prop49
280
     0
102
RTVSPost2010PropOp49
 70
     1
102
RTVSPost2010Prop50
 90
       50
102
RTVSPost2010PropOp50
 70
     1
102
RTVSPost2010Prop51ColorIndex
 90
      256
102
RTVSPost2010Prop51ColorRGB
 90
-16777216
102
RTVSPost2010PropOp51
 70
     0
102
RTVSPost2010Prop52
140
1.0
102
RTVSPost2010PropOp52
 70
     0
102
RTVSPost2010Prop53
 90
        2
102
RTVSPost2010PropOp53
 70
     1
102
RTVSPost2010Prop54
  1
strokes_ogs.tif
102
RTVSPost2010PropOp54
 70
     1
102
RTVSPost2010Prop55
280
     0
102
RTVSPost2010PropOp55
 70
     1
102
RTVSPost2010Prop56
140
1.0
102
RTVSPost2010PropOp56
 70
     1
102
RTVSPost2010Prop57
140
1.0
102
RTVSPost2010PropOp57
 70
     1
  0
XRECORD
  5
1AD
102
{ACAD_REACTORS
330
1AC
102
}
330
1AC
100
AcDbXrecord
280
     1
102
RTVSPost2010Prop28
280
     0
102
RTVSPost2010PropOp28
 70
     1
102
RTVSPost2010Prop29
280
     1
102
RTVSPost2010PropOp29
 70
     1
102
RTVSPost2010Prop30
280
     1
102
RTVSPost2010PropOp30
 70
     1
102
RTVSPost2010Prop31
280
     0
102
RTVSPost2010PropOp31
 70
     1
102
RTVSPost2010Prop32
280
     0
102
RTVSPost2010PropOp32
 70
     1
102
RTVSPost2010Prop33
280
     0
102
RTVSPost2010PropOp33
 70
     1
102
RTVSPost2010Prop34
280
     0
102
RTVSPost2010PropOp34
 70
     1
102
RTVSPost2010Prop35
280
     0
102
RTVSPost2010PropOp35
 70
     1
102
RTVSPost2010Prop36
280
     0
102
RTVSPost2010PropOp36
 70
     1
102
RTVSPost2010Prop37
 90
       50
102
RTVSPost2010PropOp37
 70
     1
102
RTVSPost2010Prop38
140
0.0
102
RTVSPost2010PropOp38
 70
     1
102
RTVSPost2010Prop39
140
1.0
102
RTVSPost2010PropOp39
 70
     1
102
RTVSPost2010Prop40
 90
        0
102
RTVSPost2010PropOp40
 70
     1
102
RTVSPost2010Prop41ColorIndex
 90
       18
102
RTVSPost2010Prop41ColorRGB
 90
        0
102
RTVSPost2010PropOp41
 70
     1
102
RTVSPost2010Prop42
 90
       50
102
RTVSPost2010PropOp42
 70
     1
102
RTVSPost2010Prop43
 90
        3
102
RTVSPost2010PropOp43
 70
     1
102
RTVSPost2010Prop44ColorIndex
 90
        5
102
RTVSPost2010Prop44ColorRGB
 90
      255
102
RTVSPost2010PropOp44
 70
     1
102
RTVSPost2010Prop45
280
     0
102
RTVSPost2010PropOp45
 70
     1
102
RTVSPost2010Prop46
 90
       50
102
RTVSPost2010PropOp46
 70
     1
102
RTVSPost2010Prop47
 90
       50
102
RTVSPost2010PropOp47
 70
     1
102
RTVSPost2010Prop48
 90
       50
102
RTVSPost2010PropOp48
 70
     1
102
RTVSPost2010Prop49
280
     0
102
RTVSPost2010PropOp49
 70
     1
102
RTVSPost2010Prop50
 90
       50
102
RTVSPost2010PropOp50
 70
     1
102
RTVSPost2010Prop51ColorIndex
 90
      256
102
RTVSPost2010Prop51ColorRGB
 90
-16777216
102
RTVSPost2010PropOp51
 70
     0
102
RTVSPost2010Prop52
140
1.0
102
RTVSPost2010PropOp52
 70
     0
102
RTVSPost2010Prop53
 90
        2
102
RTVSPost2010PropOp53
 70
     1
102
RTVSPost2010Prop54
  1
strokes_ogs.tif
102
RTVSPost2010PropOp54
 70
     1
102
RTVSPost2010Prop55
280
     0
102
RTVSPost2010PropOp55
 70
     1
102
RTVSPost2010Prop56
140
1.0
102
RTVSPost2010PropOp56
 70
     1
102
RTVSPost2010Prop57
140
1.0
102
RTVSPost2010PropOp57
 70
     1
  0
XRECORD
  5
19F
102
{ACAD_REACTORS
330
19E
102
}
330
19E
100
AcDbXrecord
280
     1
102
RTVSPost2010Prop28
280
     0
102
RTVSPost2010PropOp28
 70
     1
102
RTVSPost2010Prop29
280
     1
102
RTVSPost2010PropOp29
 70
     1
102
RTVSPost2010Prop30
280
     1
102
RTVSPost2010PropOp30
 70
     1
102
RTVSPost2010Prop31
280
     0
102
RTVSPost2010PropOp31
 70
     1
102
RTVSPost2010Prop32
280
     0
102
RTVSPost2010PropOp32
 70
     1
102
RTVSPost2010Prop33
280
     0
102
RTVSPost2010PropOp33
 70
     1
102
RTVSPost2010Prop34
280
     0
102
RTVSPost2010PropOp34
 70
     1
102
RTVSPost2010Prop35
280
     0
102
RTVSPost2010PropOp35
 70
     1
102
RTVSPost2010Prop36
280
     0
102
RTVSPost2010PropOp36
 70
     1
102
RTVSPost2010Prop37
 90
       50
102
RTVSPost2010PropOp37
 70
     1
102
RTVSPost2010Prop38
140
0.0
102
RTVSPost2010PropOp38
 70
     1
102
RTVSPost2010Prop39
140
1.0
102
RTVSPost2010PropOp39
 70
     1
102
RTVSPost2010Prop40
 90
        0
102
RTVSPost2010PropOp40
 70
     1
102
RTVSPost2010Prop41ColorIndex
 90
       18
102
RTVSPost2010Prop41ColorRGB
 90
        0
102
RTVSPost2010PropOp41
 70
     1
102
RTVSPost2010Prop42
 90
       50
102
RTVSPost2010PropOp42
 70
     1
102
RTVSPost2010Prop43
 90
        3
102
RTVSPost2010PropOp43
 70
     1
102
RTVSPost2010Prop44ColorIndex
 90
        5
102
RTVSPost2010Prop44ColorRGB
 90
      255
102
RTVSPost2010PropOp44
 70
     1
102
RTVSPost2010Prop45
280
     0
102
RTVSPost2010PropOp45
 70
     1
102
RTVSPost2010Prop46
 90
       50
102
RTVSPost2010PropOp46
 70
     1
102
RTVSPost2010Prop47
 90
       50
102
RTVSPost2010PropOp47
 70
     1
102
RTVSPost2010Prop48
 90
       50
102
RTVSPost2010PropOp48
 70
     1
102
RTVSPost2010Prop49
280
     0
102
RTVSPost2010PropOp49
 70
     1
102
RTVSPost2010Prop50
 90
       50
102
RTVSPost2010PropOp50
 70
     1
102
RTVSPost2010Prop51ColorIndex
 90
      256
102
RTVSPost2010Prop51ColorRGB
 90
-16777216
102
RTVSPost2010PropOp51
 70
     0
102
RTVSPost2010Prop52
140
1.0
102
RTVSPost2010PropOp52
 70
     0
102
RTVSPost2010Prop53
 90
        2
102
RTVSPost2010PropOp53
 70
     1
102
RTVSPost2010Prop54
  1
strokes_ogs.tif
102
RTVSPost2010PropOp54
 70
     1
102
RTVSPost2010Prop55
280
     0
102
RTVSPost2010PropOp55
 70
     1
102
RTVSPost2010Prop56
140
1.0
102
RTVSPost2010PropOp56
 70
     1
102
RTVSPost2010Prop57
140
1.0
102
RTVSPost2010PropOp57
 70
     1
  0
XRECORD
  5
1A3
102
{ACAD_REACTORS
330
1A2
102
}
330
1A2
100
AcDbXrecord
280
     1
102
RTVSPost2010Prop28
280
     0
102
RTVSPost2010PropOp28
 70
     1
102
RTVSPost2010Prop29
280
     1
102
RTVSPost2010PropOp29
 70
     1
102
RTVSPost2010Prop30
280
     1
102
RTVSPost2010PropOp30
 70
     1
102
RTVSPost2010Prop31
280
     0
102
RTVSPost2010PropOp31
 70
     1
102
RTVSPost2010Prop32
280
     0
102
RTVSPost2010PropOp32
 70
     1
102
RTVSPost2010Prop33
280
     0
102
RTVSPost2010PropOp33
 70
     1
102
RTVSPost2010Prop34
280
     0
102
RTVSPost2010PropOp34
 70
     1
102
RTVSPost2010Prop35
280
     0
102
RTVSPost2010PropOp35
 70
     1
102
RTVSPost2010Prop36
280
     0
102
RTVSPost2010PropOp36
 70
     1
102
RTVSPost2010Prop37
 90
       50
102
RTVSPost2010PropOp37
 70
     1
102
RTVSPost2010Prop38
140
0.0
102
RTVSPost2010PropOp38
 70
     1
102
RTVSPost2010Prop39
140
1.0
102
RTVSPost2010PropOp39
 70
     1
102
RTVSPost2010Prop40
 90
        0
102
RTVSPost2010PropOp40
 70
     1
102
RTVSPost2010Prop41ColorIndex
 90
       18
102
RTVSPost2010Prop41ColorRGB
 90
        0
102
RTVSPost2010PropOp41
 70
     1
102
RTVSPost2010Prop42
 90
       50
102
RTVSPost2010PropOp42
 70
     1
102
RTVSPost2010Prop43
 90
        3
102
RTVSPost2010PropOp43
 70
     1
102
RTVSPost2010Prop44ColorIndex
 90
        5
102
RTVSPost2010Prop44ColorRGB
 90
      255
102
RTVSPost2010PropOp44
 70
     1
102
RTVSPost2010Prop45
280
     0
102
RTVSPost2010PropOp45
 70
     1
102
RTVSPost2010Prop46
 90
       50
102
RTVSPost2010PropOp46
 70
     1
102
RTVSPost2010Prop47
 90
       50
102
RTVSPost2010PropOp47
 70
     1
102
RTVSPost2010Prop48
 90
       50
102
RTVSPost2010PropOp48
 70
     1
102
RTVSPost2010Prop49
280
     0
102
RTVSPost2010PropOp49
 70
     1
102
RTVSPost2010Prop50
 90
       50
102
RTVSPost2010PropOp50
 70
     1
102
RTVSPost2010Prop51ColorIndex
 90
      256
102
RTVSPost2010Prop51ColorRGB
 90
-16777216
102
RTVSPost2010PropOp51
 70
     0
102
RTVSPost2010Prop52
140
1.0
102
RTVSPost2010PropOp52
 70
     0
102
RTVSPost2010Prop53
 90
        2
102
RTVSPost2010PropOp53
 70
     1
102
RTVSPost2010Prop54
  1
strokes_ogs.tif
102
RTVSPost2010PropOp54
 70
     1
102
RTVSPost2010Prop55
280
     0
102
RTVSPost2010PropOp55
 70
     1
102
RTVSPost2010Prop56
140
1.0
102
RTVSPost2010PropOp56
 70
     1
102
RTVSPost2010Prop57
140
1.0
102
RTVSPost2010PropOp57
 70
     1
  0
XRECORD
  5
1BD
102
{ACAD_REACTORS
330
1BC
102
}
330
1BC
100
AcDbXrecord
280
     1
102
RTVSPost2010Prop28
280
     0
102
RTVSPost2010PropOp28
 70
     0
102
RTVSPost2010Prop29
280
     1
102
RTVSPost2010PropOp29
 70
     0
102
RTVSPost2010Prop30
280
     1
102
RTVSPost2010PropOp30
 70
     0
102
RTVSPost2010Prop31
280
     0
102
RTVSPost2010PropOp31
 70
     0
102
RTVSPost2010Prop32
280
     0
102
RTVSPost2010PropOp32
 70
     0
102
RTVSPost2010Prop33
280
     0
102
RTVSPost2010PropOp33
 70
     0
102
RTVSPost2010Prop34
280
     0
102
RTVSPost2010PropOp34
 70
     0
102
RTVSPost2010Prop35
280
     0
102
RTVSPost2010PropOp35
 70
     0
102
RTVSPost2010Prop36
280
     0
102
RTVSPost2010PropOp36
 70
     0
102
RTVSPost2010Prop37
 90
       50
102
RTVSPost2010PropOp37
 70
     0
102
RTVSPost2010Prop38
140
0.0
102
RTVSPost2010PropOp38
 70
     0
102
RTVSPost2010Prop39
140
1.0
102
RTVSPost2010PropOp39
 70
     0
102
RTVSPost2010Prop40
 90
        0
102
RTVSPost2010PropOp40
 70
     0
102
RTVSPost2010Prop41ColorIndex
 90
       18
102
RTVSPost2010Prop41ColorRGB
 90
        0
102
RTVSPost2010PropOp41
 70
     0
102
RTVSPost2010Prop42
 90
       50
102
RTVSPost2010PropOp42
 70
     0
102
RTVSPost2010Prop43
 90
        3
102
RTVSPost2010PropOp43
 70
     0
102
RTVSPost2010Prop44ColorIndex
 90
        5
102
RTVSPost2010Prop44ColorRGB
 90
      255
102
RTVSPost2010PropOp44
 70
     0
102
RTVSPost2010Prop45
280
     0
102
RTVSPost2010PropOp45
 70
     0
102
RTVSPost2010Prop46
 90
       50
102
RTVSPost2010PropOp46
 70
     0
102
RTVSPost2010Prop47
 90
       50
102
RTVSPost2010PropOp47
 70
     0
102
RTVSPost2010Prop48
 90
       50
102
RTVSPost2010PropOp48
 70
     0
102
RTVSPost2010Prop49
280
     0
102
RTVSPost2010PropOp49
 70
     0
102
RTVSPost2010Prop50
 90
       50
102
RTVSPost2010PropOp50
 70
     0
102
RTVSPost2010Prop51ColorIndex
 90
      256
102
RTVSPost2010Prop51ColorRGB
 90
-16777216
102
RTVSPost2010PropOp51
 70
     0
102
RTVSPost2010Prop52
140
1.0
102
RTVSPost2010PropOp52
 70
     0
102
RTVSPost2010Prop53
 90
        2
102
RTVSPost2010PropOp53
 70
     0
102
RTVSPost2010Prop54
  1
strokes_ogs.tif
102
RTVSPost2010PropOp54
 70
     0
102
RTVSPost2010Prop55
280
     0
102
RTVSPost2010PropOp55
 70
     0
102
RTVSPost2010Prop56
140
1.0
102
RTVSPost2010PropOp56
 70
     0
102
RTVSPost2010Prop57
140
1.0
102
RTVSPost2010PropOp57
 70
     0
  0
XRECORD
  5
1AB
102
{ACAD_REACTORS
330
1AA
102
}
330
1AA
100
AcDbXrecord
280
     1
102
RTVSPost2010Prop28
280
     0
102
RTVSPost2010PropOp28
 70
     1
102
RTVSPost2010Prop29
280
     1
102
RTVSPost2010PropOp29
 70
     1
102
RTVSPost2010Prop30
280
     1
102
RTVSPost2010PropOp30
 70
     1
102
RTVSPost2010Prop31
280
     0
102
RTVSPost2010PropOp31
 70
     1
102
RTVSPost2010Prop32
280
     0
102
RTVSPost2010PropOp32
 70
     1
102
RTVSPost2010Prop33
280
     0
102
RTVSPost2010PropOp33
 70
     1
102
RTVSPost2010Prop34
280
     0
102
RTVSPost2010PropOp34
 70
     1
102
RTVSPost2010Prop35
280
     0
102
RTVSPost2010PropOp35
 70
     1
102
RTVSPost2010Prop36
280
     0
102
RTVSPost2010PropOp36
 70
     1
102
RTVSPost2010Prop37
 90
       50
102
RTVSPost2010PropOp37
 70
     1
102
RTVSPost2010Prop38
140
0.0
102
RTVSPost2010PropOp38
 70
     1
102
RTVSPost2010Prop39
140
1.0
102
RTVSPost2010PropOp39
 70
     1
102
RTVSPost2010Prop40
 90
        0
102
RTVSPost2010PropOp40
 70
     1
102
RTVSPost2010Prop41ColorIndex
 90
       18
102
RTVSPost2010Prop41ColorRGB
 90
        0
102
RTVSPost2010PropOp41
 70
     1
102
RTVSPost2010Prop42
 90
       50
102
RTVSPost2010PropOp42
 70
     1
102
RTVSPost2010Prop43
 90
        3
102
RTVSPost2010PropOp43
 70
     1
102
RTVSPost2010Prop44ColorIndex
 90
        5
102
RTVSPost2010Prop44ColorRGB
 90
      255
102
RTVSPost2010PropOp44
 70
     1
102
RTVSPost2010Prop45
280
     0
102
RTVSPost2010PropOp45
 70
     1
102
RTVSPost2010Prop46
 90
       50
102
RTVSPost2010PropOp46
 70
     1
102
RTVSPost2010Prop47
 90
       50
102
RTVSPost2010PropOp47
 70
     1
102
RTVSPost2010Prop48
 90
       50
102
RTVSPost2010PropOp48
 70
     1
102
RTVSPost2010Prop49
280
     0
102
RTVSPost2010PropOp49
 70
     1
102
RTVSPost2010Prop50
 90
       50
102
RTVSPost2010PropOp50
 70
     1
102
RTVSPost2010Prop51ColorIndex
 90
      256
102
RTVSPost2010Prop51ColorRGB
 90
-16777216
102
RTVSPost2010PropOp51
 70
     0
102
RTVSPost2010Prop52
140
1.0
102
RTVSPost2010PropOp52
 70
     0
102
RTVSPost2010Prop53
 90
        2
102
RTVSPost2010PropOp53
 70
     1
102
RTVSPost2010Prop54
  1
strokes_ogs.tif
102
RTVSPost2010PropOp54
 70
     1
102
RTVSPost2010Prop55
280
     0
102
RTVSPost2010PropOp55
 70
     1
102
RTVSPost2010Prop56
140
1.0
102
RTVSPost2010PropOp56
 70
     1
102
RTVSPost2010Prop57
140
1.0
102
RTVSPost2010PropOp57
 70
     1
  0
XRECORD
  5
18F
102
{ACAD_REACTORS
330
18E
102
}
330
18E
100
AcDbXrecord
280
     1
102
RTVSPost2010Prop28
280
     0
102
RTVSPost2010PropOp28
 70
     1
102
RTVSPost2010Prop29
280
     1
102
RTVSPost2010PropOp29
 70
     1
102
RTVSPost2010Prop30
280
     1
102
RTVSPost2010PropOp30
 70
     1
102
RTVSPost2010Prop31
280
     0
102
RTVSPost2010PropOp31
 70
     1
102
RTVSPost2010Prop32
280
     0
102
RTVSPost2010PropOp32
 70
     1
102
RTVSPost2010Prop33
280
     0
102
RTVSPost2010PropOp33
 70
     1
102
RTVSPost2010Prop34
280
     0
102
RTVSPost2010PropOp34
 70
     1
102
RTVSPost2010Prop35
280
     0
102
RTVSPost2010PropOp35
 70
     1
102
RTVSPost2010Prop36
280
     0
102
RTVSPost2010PropOp36
 70
     1
102
RTVSPost2010Prop37
 90
       50
102
RTVSPost2010PropOp37
 70
     1
102
RTVSPost2010Prop38
140
0.0
102
RTVSPost2010PropOp38
 70
     1
102
RTVSPost2010Prop39
140
1.0
102
RTVSPost2010PropOp39
 70
     1
102
RTVSPost2010Prop40
 90
        0
102
RTVSPost2010PropOp40
 70
     1
102
RTVSPost2010Prop41ColorIndex
 90
       18
102
RTVSPost2010Prop41ColorRGB
 90
        0
102
RTVSPost2010PropOp41
 70
     1
102
RTVSPost2010Prop42
 90
       50
102
RTVSPost2010PropOp42
 70
     1
102
RTVSPost2010Prop43
 90
        3
102
RTVSPost2010PropOp43
 70
     1
102
RTVSPost2010Prop44ColorIndex
 90
        5
102
RTVSPost2010Prop44ColorRGB
 90
      255
102
RTVSPost2010PropOp44
 70
     1
102
RTVSPost2010Prop45
280
     0
102
RTVSPost2010PropOp45
 70
     1
102
RTVSPost2010Prop46
 90
       50
102
RTVSPost2010PropOp46
 70
     1
102
RTVSPost2010Prop47
 90
       50
102
RTVSPost2010PropOp47
 70
     1
102
RTVSPost2010Prop48
 90
       50
102
RTVSPost2010PropOp48
 70
     1
102
RTVSPost2010Prop49
280
     0
102
RTVSPost2010PropOp49
 70
     1
102
RTVSPost2010Prop50
 90
       50
102
RTVSPost2010PropOp50
 70
     1
102
RTVSPost2010Prop51ColorIndex
 90
      256
102
RTVSPost2010Prop51ColorRGB
 90
-16777216
102
RTVSPost2010PropOp51
 70
     0
102
RTVSPost2010Prop52
140
1.0
102
RTVSPost2010PropOp52
 70
     0
102
RTVSPost2010Prop53
 90
        2
102
RTVSPost2010PropOp53
 70
     1
102
RTVSPost2010Prop54
  1
strokes_ogs.tif
102
RTVSPost2010PropOp54
 70
     1
102
RTVSPost2010Prop55
280
     0
102
RTVSPost2010PropOp55
 70
     1
102
RTVSPost2010Prop56
140
1.0
102
RTVSPost2010PropOp56
 70
     1
102
RTVSPost2010Prop57
140
1.0
102
RTVSPost2010PropOp57
 70
     1
  0
XRECORD
  5
191
102
{ACAD_REACTORS
330
190
102
}
330
190
100
AcDbXrecord
280
     1
102
RTVSPost2010Prop28
280
     0
102
RTVSPost2010PropOp28
 70
     1
102
RTVSPost2010Prop29
280
     1
102
RTVSPost2010PropOp29
 70
     1
102
RTVSPost2010Prop30
280
     1
102
RTVSPost2010PropOp30
 70
     1
102
RTVSPost2010Prop31
280
     0
102
RTVSPost2010PropOp31
 70
     1
102
RTVSPost2010Prop32
280
     0
102
RTVSPost2010PropOp32
 70
     1
102
RTVSPost2010Prop33
280
     0
102
RTVSPost2010PropOp33
 70
     1
102
RTVSPost2010Prop34
280
     0
102
RTVSPost2010PropOp34
 70
     1
102
RTVSPost2010Prop35
280
     0
102
RTVSPost2010PropOp35
 70
     1
102
RTVSPost2010Prop36
280
     0
102
RTVSPost2010PropOp36
 70
     1
102
RTVSPost2010Prop37
 90
       50
102
RTVSPost2010PropOp37
 70
     1
102
RTVSPost2010Prop38
140
0.0
102
RTVSPost2010PropOp38
 70
     1
102
RTVSPost2010Prop39
140
1.0
102
RTVSPost2010PropOp39
 70
     1
102
RTVSPost2010Prop40
 90
        0
102
RTVSPost2010PropOp40
 70
     1
102
RTVSPost2010Prop41ColorIndex
 90
       18
102
RTVSPost2010Prop41ColorRGB
 90
        0
102
RTVSPost2010PropOp41
 70
     1
102
RTVSPost2010Prop42
 90
       50
102
RTVSPost2010PropOp42
 70
     1
102
RTVSPost2010Prop43
 90
        3
102
RTVSPost2010PropOp43
 70
     1
102
RTVSPost2010Prop44ColorIndex
 90
        5
102
RTVSPost2010Prop44ColorRGB
 90
      255
102
RTVSPost2010PropOp44
 70
     1
102
RTVSPost2010Prop45
280
     0
102
RTVSPost2010PropOp45
 70
     1
102
RTVSPost2010Prop46
 90
       50
102
RTVSPost2010PropOp46
 70
     1
102
RTVSPost2010Prop47
 90
       50
102
RTVSPost2010PropOp47
 70
     1
102
RTVSPost2010Prop48
 90
       50
102
RTVSPost2010PropOp48
 70
     1
102
RTVSPost2010Prop49
280
     0
102
RTVSPost2010PropOp49
 70
     1
102
RTVSPost2010Prop50
 90
       50
102
RTVSPost2010PropOp50
 70
     1
102
RTVSPost2010Prop51ColorIndex
 90
      256
102
RTVSPost2010Prop51ColorRGB
 90
-16777216
102
RTVSPost2010PropOp51
 70
     0
102
RTVSPost2010Prop52
140
1.0
102
RTVSPost2010PropOp52
 70
     0
102
RTVSPost2010Prop53
 90
        2
102
RTVSPost2010PropOp53
 70
     1
102
RTVSPost2010Prop54
  1
strokes_ogs.tif
102
RTVSPost2010PropOp54
 70
     1
102
RTVSPost2010Prop55
280
     0
102
RTVSPost2010PropOp55
 70
     1
102
RTVSPost2010Prop56
140
1.0
102
RTVSPost2010PropOp56
 70
     1
102
RTVSPost2010Prop57
140
1.0
102
RTVSPost2010PropOp57
 70
     1
  0
XRECORD
  5
193
102
{ACAD_REACTORS
330
192
102
}
330
192
100
AcDbXrecord
280
     1
102
RTVSPost2010Prop28
280
     0
102
RTVSPost2010PropOp28
 70
     1
102
RTVSPost2010Prop29
280
     1
102
RTVSPost2010PropOp29
 70
     1
102
RTVSPost2010Prop30
280
     1
102
RTVSPost2010PropOp30
 70
     1
102
RTVSPost2010Prop31
280
     0
102
RTVSPost2010PropOp31
 70
     1
102
RTVSPost2010Prop32
280
     0
102
RTVSPost2010PropOp32
 70
     1
102
RTVSPost2010Prop33
280
     0
102
RTVSPost2010PropOp33
 70
     1
102
RTVSPost2010Prop34
280
     0
102
RTVSPost2010PropOp34
 70
     1
102
RTVSPost2010Prop35
280
     0
102
RTVSPost2010PropOp35
 70
     1
102
RTVSPost2010Prop36
280
     0
102
RTVSPost2010PropOp36
 70
     1
102
RTVSPost2010Prop37
 90
       50
102
RTVSPost2010PropOp37
 70
     1
102
RTVSPost2010Prop38
140
0.0
102
RTVSPost2010PropOp38
 70
     1
102
RTVSPost2010Prop39
140
1.0
102
RTVSPost2010PropOp39
 70
     1
102
RTVSPost2010Prop40
 90
        0
102
RTVSPost2010PropOp40
 70
     1
102
RTVSPost2010Prop41ColorIndex
 90
       18
102
RTVSPost2010Prop41ColorRGB
 90
        0
102
RTVSPost2010PropOp41
 70
     1
102
RTVSPost2010Prop42
 90
       50
102
RTVSPost2010PropOp42
 70
     1
102
RTVSPost2010Prop43
 90
        3
102
RTVSPost2010PropOp43
 70
     1
102
RTVSPost2010Prop44ColorIndex
 90
        5
102
RTVSPost2010Prop44ColorRGB
 90
      255
102
RTVSPost2010PropOp44
 70
     1
102
RTVSPost2010Prop45
280
     0
102
RTVSPost2010PropOp45
 70
     1
102
RTVSPost2010Prop46
 90
       50
102
RTVSPost2010PropOp46
 70
     1
102
RTVSPost2010Prop47
 90
       50
102
RTVSPost2010PropOp47
 70
     1
102
RTVSPost2010Prop48
 90
       50
102
RTVSPost2010PropOp48
 70
     1
102
RTVSPost2010Prop49
280
     0
102
RTVSPost2010PropOp49
 70
     1
102
RTVSPost2010Prop50
 90
       50
102
RTVSPost2010PropOp50
 70
     1
102
RTVSPost2010Prop51ColorIndex
 90
      256
102
RTVSPost2010Prop51ColorRGB
 90
-16777216
102
RTVSPost2010PropOp51
 70
     0
102
RTVSPost2010Prop52
140
1.0
102
RTVSPost2010PropOp52
 70
     0
102
RTVSPost2010Prop53
 90
        2
102
RTVSPost2010PropOp53
 70
     1
102
RTVSPost2010Prop54
  1
strokes_ogs.tif
102
RTVSPost2010PropOp54
 70
     1
102
RTVSPost2010Prop55
280
     0
102
RTVSPost2010PropOp55
 70
     1
102
RTVSPost2010Prop56
140
1.0
102
RTVSPost2010PropOp56
 70
     1
102
RTVSPost2010Prop57
140
1.0
102
RTVSPost2010PropOp57
 70
     1
  0
XRECORD
  5
195
102
{ACAD_REACTORS
330
194
102
}
330
194
100
AcDbXrecord
280
     1
102
RTVSPost2010Prop28
280
     0
102
RTVSPost2010PropOp28
 70
     1
102
RTVSPost2010Prop29
280
     1
102
RTVSPost2010PropOp29
 70
     1
102
RTVSPost2010Prop30
280
     1
102
RTVSPost2010PropOp30
 70
     1
102
RTVSPost2010Prop31
280
     0
102
RTVSPost2010PropOp31
 70
     1
102
RTVSPost2010Prop32
280
     0
102
RTVSPost2010PropOp32
 70
     1
102
RTVSPost2010Prop33
280
     0
102
RTVSPost2010PropOp33
 70
     1
102
RTVSPost2010Prop34
280
     0
102
RTVSPost2010PropOp34
 70
     1
102
RTVSPost2010Prop35
280
     0
102
RTVSPost2010PropOp35
 70
     1
102
RTVSPost2010Prop36
280
     0
102
RTVSPost2010PropOp36
 70
     1
102
RTVSPost2010Prop37
 90
       50
102
RTVSPost2010PropOp37
 70
     1
102
RTVSPost2010Prop38
140
0.0
102
RTVSPost2010PropOp38
 70
     1
102
RTVSPost2010Prop39
140
1.0
102
RTVSPost2010PropOp39
 70
     1
102
RTVSPost2010Prop40
 90
        0
102
RTVSPost2010PropOp40
 70
     1
102
RTVSPost2010Prop41ColorIndex
 90
       18
102
RTVSPost2010Prop41ColorRGB
 90
        0
102
RTVSPost2010PropOp41
 70
     1
102
RTVSPost2010Prop42
 90
       50
102
RTVSPost2010PropOp42
 70
     1
102
RTVSPost2010Prop43
 90
        3
102
RTVSPost2010PropOp43
 70
     1
102
RTVSPost2010Prop44ColorIndex
 90
        5
102
RTVSPost2010Prop44ColorRGB
 90
      255
102
RTVSPost2010PropOp44
 70
     1
102
RTVSPost2010Prop45
280
     0
102
RTVSPost2010PropOp45
 70
     1
102
RTVSPost2010Prop46
 90
       50
102
RTVSPost2010PropOp46
 70
     1
102
RTVSPost2010Prop47
 90
       50
102
RTVSPost2010PropOp47
 70
     1
102
RTVSPost2010Prop48
 90
       50
102
RTVSPost2010PropOp48
 70
     1
102
RTVSPost2010Prop49
280
     0
102
RTVSPost2010PropOp49
 70
     1
102
RTVSPost2010Prop50
 90
       50
102
RTVSPost2010PropOp50
 70
     1
102
RTVSPost2010Prop51ColorIndex
 90
      256
102
RTVSPost2010Prop51ColorRGB
 90
-16777216
102
RTVSPost2010PropOp51
 70
     0
102
RTVSPost2010Prop52
140
1.0
102
RTVSPost2010PropOp52
 70
     0
102
RTVSPost2010Prop53
 90
        2
102
RTVSPost2010PropOp53
 70
     1
102
RTVSPost2010Prop54
  1
strokes_ogs.tif
102
RTVSPost2010PropOp54
 70
     1
102
RTVSPost2010Prop55
280
     0
102
RTVSPost2010PropOp55
 70
     1
102
RTVSPost2010Prop56
140
1.0
102
RTVSPost2010PropOp56
 70
     1
102
RTVSPost2010Prop57
140
1.0
102
RTVSPost2010PropOp57
 70
     1
  0
XRECORD
  5
19D
102
{ACAD_REACTORS
330
19C
102
}
330
19C
100
AcDbXrecord
280
     1
102
RTVSPost2010Prop28
280
     0
102
RTVSPost2010PropOp28
 70
     1
102
RTVSPost2010Prop29
280
     1
102
RTVSPost2010PropOp29
 70
     1
102
RTVSPost2010Prop30
280
     1
102
RTVSPost2010PropOp30
 70
     1
102
RTVSPost2010Prop31
280
     0
102
RTVSPost2010PropOp31
 70
     1
102
RTVSPost2010Prop32
280
     0
102
RTVSPost2010PropOp32
 70
     1
102
RTVSPost2010Prop33
280
     0
102
RTVSPost2010PropOp33
 70
     1
102
RTVSPost2010Prop34
280
     0
102
RTVSPost2010PropOp34
 70
     1
102
RTVSPost2010Prop35
280
     0
102
RTVSPost2010PropOp35
 70
     1
102
RTVSPost2010Prop36
280
     0
102
RTVSPost2010PropOp36
 70
     1
102
RTVSPost2010Prop37
 90
       50
102
RTVSPost2010PropOp37
 70
     1
102
RTVSPost2010Prop38
140
0.0
102
RTVSPost2010PropOp38
 70
     1
102
RTVSPost2010Prop39
140
1.0
102
RTVSPost2010PropOp39
 70
     1
102
RTVSPost2010Prop40
 90
        0
102
RTVSPost2010PropOp40
 70
     1
102
RTVSPost2010Prop41ColorIndex
 90
       18
102
RTVSPost2010Prop41ColorRGB
 90
        0
102
RTVSPost2010PropOp41
 70
     1
102
RTVSPost2010Prop42
 90
       50
102
RTVSPost2010PropOp42
 70
     1
102
RTVSPost2010Prop43
 90
        3
102
RTVSPost2010PropOp43
 70
     1
102
RTVSPost2010Prop44ColorIndex
 90
        5
102
RTVSPost2010Prop44ColorRGB
 90
      255
102
RTVSPost2010PropOp44
 70
     1
102
RTVSPost2010Prop45
280
     0
102
RTVSPost2010PropOp45
 70
     1
102
RTVSPost2010Prop46
 90
       50
102
RTVSPost2010PropOp46
 70
     1
102
RTVSPost2010Prop47
 90
       50
102
RTVSPost2010PropOp47
 70
     1
102
RTVSPost2010Prop48
 90
       50
102
RTVSPost2010PropOp48
 70
     1
102
RTVSPost2010Prop49
280
     0
102
RTVSPost2010PropOp49
 70
     1
102
RTVSPost2010Prop50
 90
       50
102
RTVSPost2010PropOp50
 70
     1
102
RTVSPost2010Prop51ColorIndex
 90
      256
102
RTVSPost2010Prop51ColorRGB
 90
-16777216
102
RTVSPost2010PropOp51
 70
     0
102
RTVSPost2010Prop52
140
1.0
102
RTVSPost2010PropOp52
 70
     0
102
RTVSPost2010Prop53
 90
        2
102
RTVSPost2010PropOp53
 70
     1
102
RTVSPost2010Prop54
  1
strokes_ogs.tif
102
RTVSPost2010PropOp54
 70
     1
102
RTVSPost2010Prop55
280
     0
102
RTVSPost2010PropOp55
 70
     1
102
RTVSPost2010Prop56
140
1.0
102
RTVSPost2010PropOp56
 70
     1
102
RTVSPost2010Prop57
140
1.0
102
RTVSPost2010PropOp57
 70
     1
  0
XRECORD
  5
1B9
102
{ACAD_REACTORS
330
1B8
102
}
330
1B8
100
AcDbXrecord
280
     1
102
RTVSPost2010Prop28
280
     0
102
RTVSPost2010PropOp28
 70
     0
102
RTVSPost2010Prop29
280
     1
102
RTVSPost2010PropOp29
 70
     0
102
RTVSPost2010Prop30
280
     1
102
RTVSPost2010PropOp30
 70
     0
102
RTVSPost2010Prop31
280
     0
102
RTVSPost2010PropOp31
 70
     0
102
RTVSPost2010Prop32
280
     0
102
RTVSPost2010PropOp32
 70
     0
102
RTVSPost2010Prop33
280
     0
102
RTVSPost2010PropOp33
 70
     0
102
RTVSPost2010Prop34
280
     0
102
RTVSPost2010PropOp34
 70
     0
102
RTVSPost2010Prop35
280
     0
102
RTVSPost2010PropOp35
 70
     0
102
RTVSPost2010Prop36
280
     0
102
RTVSPost2010PropOp36
 70
     0
102
RTVSPost2010Prop37
 90
       50
102
RTVSPost2010PropOp37
 70
     0
102
RTVSPost2010Prop38
140
0.0
102
RTVSPost2010PropOp38
 70
     0
102
RTVSPost2010Prop39
140
1.0
102
RTVSPost2010PropOp39
 70
     0
102
RTVSPost2010Prop40
 90
        0
102
RTVSPost2010PropOp40
 70
     0
102
RTVSPost2010Prop41ColorIndex
 90
       18
102
RTVSPost2010Prop41ColorRGB
 90
        0
102
RTVSPost2010PropOp41
 70
     0
102
RTVSPost2010Prop42
 90
       50
102
RTVSPost2010PropOp42
 70
     0
102
RTVSPost2010Prop43
 90
        3
102
RTVSPost2010PropOp43
 70
     0
102
RTVSPost2010Prop44ColorIndex
 90
        5
102
RTVSPost2010Prop44ColorRGB
 90
      255
102
RTVSPost2010PropOp44
 70
     0
102
RTVSPost2010Prop45
280
     0
102
RTVSPost2010PropOp45
 70
     0
102
RTVSPost2010Prop46
 90
       50
102
RTVSPost2010PropOp46
 70
     0
102
RTVSPost2010Prop47
 90
       50
102
RTVSPost2010PropOp47
 70
     0
102
RTVSPost2010Prop48
 90
       50
102
RTVSPost2010PropOp48
 70
     0
102
RTVSPost2010Prop49
280
     0
102
RTVSPost2010PropOp49
 70
     0
102
RTVSPost2010Prop50
 90
       50
102
RTVSPost2010PropOp50
 70
     0
102
RTVSPost2010Prop51ColorIndex
 90
      256
102
RTVSPost2010Prop51ColorRGB
 90
-16777216
102
RTVSPost2010PropOp51
 70
     0
102
RTVSPost2010Prop52
140
1.0
102
RTVSPost2010PropOp52
 70
     0
102
RTVSPost2010Prop53
 90
        2
102
RTVSPost2010PropOp53
 70
     0
102
RTVSPost2010Prop54
  1
strokes_ogs.tif
102
RTVSPost2010PropOp54
 70
     0
102
RTVSPost2010Prop55
280
     0
102
RTVSPost2010PropOp55
 70
     0
102
RTVSPost2010Prop56
140
1.0
102
RTVSPost2010PropOp56
 70
     0
102
RTVSPost2010Prop57
140
1.0
102
RTVSPost2010PropOp57
 70
     0
  0
XRECORD
  5
1A9
102
{ACAD_REACTORS
330
1A8
102
}
330
1A8
100
AcDbXrecord
280
     1
102
RTVSPost2010Prop28
280
     0
102
RTVSPost2010PropOp28
 70
     1
102
RTVSPost2010Prop29
280
     1
102
RTVSPost2010PropOp29
 70
     1
102
RTVSPost2010Prop30
280
     1
102
RTVSPost2010PropOp30
 70
     1
102
RTVSPost2010Prop31
280
     0
102
RTVSPost2010PropOp31
 70
     1
102
RTVSPost2010Prop32
280
     0
102
RTVSPost2010PropOp32
 70
     1
102
RTVSPost2010Prop33
280
     0
102
RTVSPost2010PropOp33
 70
     1
102
RTVSPost2010Prop34
280
     0
102
RTVSPost2010PropOp34
 70
     1
102
RTVSPost2010Prop35
280
     0
102
RTVSPost2010PropOp35
 70
     1
102
RTVSPost2010Prop36
280
     0
102
RTVSPost2010PropOp36
 70
     1
102
RTVSPost2010Prop37
 90
       50
102
RTVSPost2010PropOp37
 70
     1
102
RTVSPost2010Prop38
140
0.0
102
RTVSPost2010PropOp38
 70
     1
102
RTVSPost2010Prop39
140
1.0
102
RTVSPost2010PropOp39
 70
     1
102
RTVSPost2010Prop40
 90
        0
102
RTVSPost2010PropOp40
 70
     1
102
RTVSPost2010Prop41ColorIndex
 90
       18
102
RTVSPost2010Prop41ColorRGB
 90
        0
102
RTVSPost2010PropOp41
 70
     1
102
RTVSPost2010Prop42
 90
       50
102
RTVSPost2010PropOp42
 70
     1
102
RTVSPost2010Prop43
 90
        3
102
RTVSPost2010PropOp43
 70
     1
102
RTVSPost2010Prop44ColorIndex
 90
        5
102
RTVSPost2010Prop44ColorRGB
 90
      255
102
RTVSPost2010PropOp44
 70
     1
102
RTVSPost2010Prop45
280
     0
102
RTVSPost2010PropOp45
 70
     1
102
RTVSPost2010Prop46
 90
       50
102
RTVSPost2010PropOp46
 70
     1
102
RTVSPost2010Prop47
 90
       50
102
RTVSPost2010PropOp47
 70
     1
102
RTVSPost2010Prop48
 90
       50
102
RTVSPost2010PropOp48
 70
     1
102
RTVSPost2010Prop49
280
     0
102
RTVSPost2010PropOp49
 70
     1
102
RTVSPost2010Prop50
 90
       50
102
RTVSPost2010PropOp50
 70
     1
102
RTVSPost2010Prop51ColorIndex
 90
      256
102
RTVSPost2010Prop51ColorRGB
 90
-16777216
102
RTVSPost2010PropOp51
 70
     0
102
RTVSPost2010Prop52
140
1.0
102
RTVSPost2010PropOp52
 70
     0
102
RTVSPost2010Prop53
 90
        2
102
RTVSPost2010PropOp53
 70
     1
102
RTVSPost2010Prop54
  1
strokes_ogs.tif
102
RTVSPost2010PropOp54
 70
     1
102
RTVSPost2010Prop55
280
     0
102
RTVSPost2010PropOp55
 70
     1
102
RTVSPost2010Prop56
140
1.0
102
RTVSPost2010PropOp56
 70
     1
102
RTVSPost2010Prop57
140
1.0
102
RTVSPost2010PropOp57
 70
     1
  0
XRECORD
  5
1BB
102
{ACAD_REACTORS
330
1BA
102
}
330
1BA
100
AcDbXrecord
280
     1
102
RTVSPost2010Prop28
280
     0
102
RTVSPost2010PropOp28
 70
     0
102
RTVSPost2010Prop29
280
     1
102
RTVSPost2010PropOp29
 70
     0
102
RTVSPost2010Prop30
280
     1
102
RTVSPost2010PropOp30
 70
     0
102
RTVSPost2010Prop31
280
     0
102
RTVSPost2010PropOp31
 70
     0
102
RTVSPost2010Prop32
280
     0
102
RTVSPost2010PropOp32
 70
     0
102
RTVSPost2010Prop33
280
     0
102
RTVSPost2010PropOp33
 70
     0
102
RTVSPost2010Prop34
280
     0
102
RTVSPost2010PropOp34
 70
     0
102
RTVSPost2010Prop35
280
     0
102
RTVSPost2010PropOp35
 70
     0
102
RTVSPost2010Prop36
280
     0
102
RTVSPost2010PropOp36
 70
     0
102
RTVSPost2010Prop37
 90
       50
102
RTVSPost2010PropOp37
 70
     0
102
RTVSPost2010Prop38
140
0.0
102
RTVSPost2010PropOp38
 70
     0
102
RTVSPost2010Prop39
140
1.0
102
RTVSPost2010PropOp39
 70
     0
102
RTVSPost2010Prop40
 90
        0
102
RTVSPost2010PropOp40
 70
     0
102
RTVSPost2010Prop41ColorIndex
 90
       18
102
RTVSPost2010Prop41ColorRGB
 90
        0
102
RTVSPost2010PropOp41
 70
     0
102
RTVSPost2010Prop42
 90
       50
102
RTVSPost2010PropOp42
 70
     0
102
RTVSPost2010Prop43
 90
        3
102
RTVSPost2010PropOp43
 70
     0
102
RTVSPost2010Prop44ColorIndex
 90
        5
102
RTVSPost2010Prop44ColorRGB
 90
      255
102
RTVSPost2010PropOp44
 70
     0
102
RTVSPost2010Prop45
280
     0
102
RTVSPost2010PropOp45
 70
     0
102
RTVSPost2010Prop46
 90
       50
102
RTVSPost2010PropOp46
 70
     0
102
RTVSPost2010Prop47
 90
       50
102
RTVSPost2010PropOp47
 70
     0
102
RTVSPost2010Prop48
 90
       50
102
RTVSPost2010PropOp48
 70
     0
102
RTVSPost2010Prop49
280
     0
102
RTVSPost2010PropOp49
 70
     0
102
RTVSPost2010Prop50
 90
       50
102
RTVSPost2010PropOp50
 70
     0
102
RTVSPost2010Prop51ColorIndex
 90
      256
102
RTVSPost2010Prop51ColorRGB
 90
-16777216
102
RTVSPost2010PropOp51
 70
     0
102
RTVSPost2010Prop52
140
1.0
102
RTVSPost2010PropOp52
 70
     0
102
RTVSPost2010Prop53
 90
        2
102
RTVSPost2010PropOp53
 70
     0
102
RTVSPost2010Prop54
  1
strokes_ogs.tif
102
RTVSPost2010PropOp54
 70
     0
102
RTVSPost2010Prop55
280
     0
102
RTVSPost2010PropOp55
 70
     0
102
RTVSPost2010Prop56
140
1.0
102
RTVSPost2010PropOp56
 70
     0
102
RTVSPost2010Prop57
140
1.0
102
RTVSPost2010PropOp57
 70
     0
  0
XRECORD
  5
1A1
102
{ACAD_REACTORS
330
1A0
102
}
330
1A0
100
AcDbXrecord
280
     1
102
RTVSPost2010Prop28
280
     0
102
RTVSPost2010PropOp28
 70
     1
102
RTVSPost2010Prop29
280
     1
102
RTVSPost2010PropOp29
 70
     1
102
RTVSPost2010Prop30
280
     1
102
RTVSPost2010PropOp30
 70
     1
102
RTVSPost2010Prop31
280
     0
102
RTVSPost2010PropOp31
 70
     1
102
RTVSPost2010Prop32
280
     0
102
RTVSPost2010PropOp32
 70
     1
102
RTVSPost2010Prop33
280
     0
102
RTVSPost2010PropOp33
 70
     1
102
RTVSPost2010Prop34
280
     0
102
RTVSPost2010PropOp34
 70
     1
102
RTVSPost2010Prop35
280
     0
102
RTVSPost2010PropOp35
 70
     1
102
RTVSPost2010Prop36
280
     0
102
RTVSPost2010PropOp36
 70
     1
102
RTVSPost2010Prop37
 90
       50
102
RTVSPost2010PropOp37
 70
     1
102
RTVSPost2010Prop38
140
0.0
102
RTVSPost2010PropOp38
 70
     1
102
RTVSPost2010Prop39
140
1.0
102
RTVSPost2010PropOp39
 70
     1
102
RTVSPost2010Prop40
 90
        0
102
RTVSPost2010PropOp40
 70
     1
102
RTVSPost2010Prop41ColorIndex
 90
       18
102
RTVSPost2010Prop41ColorRGB
 90
        0
102
RTVSPost2010PropOp41
 70
     1
102
RTVSPost2010Prop42
 90
       50
102
RTVSPost2010PropOp42
 70
     1
102
RTVSPost2010Prop43
 90
        3
102
RTVSPost2010PropOp43
 70
     1
102
RTVSPost2010Prop44ColorIndex
 90
        5
102
RTVSPost2010Prop44ColorRGB
 90
      255
102
RTVSPost2010PropOp44
 70
     1
102
RTVSPost2010Prop45
280
     0
102
RTVSPost2010PropOp45
 70
     1
102
RTVSPost2010Prop46
 90
       50
102
RTVSPost2010PropOp46
 70
     1
102
RTVSPost2010Prop47
 90
       50
102
RTVSPost2010PropOp47
 70
     1
102
RTVSPost2010Prop48
 90
       50
102
RTVSPost2010PropOp48
 70
     1
102
RTVSPost2010Prop49
280
     0
102
RTVSPost2010PropOp49
 70
     1
102
RTVSPost2010Prop50
 90
       50
102
RTVSPost2010PropOp50
 70
     1
102
RTVSPost2010Prop51ColorIndex
 90
      256
102
RTVSPost2010Prop51ColorRGB
 90
-16777216
102
RTVSPost2010PropOp51
 70
     0
102
RTVSPost2010Prop52
140
1.0
102
RTVSPost2010PropOp52
 70
     0
102
RTVSPost2010Prop53
 90
        2
102
RTVSPost2010PropOp53
 70
     1
102
RTVSPost2010Prop54
  1
strokes_ogs.tif
102
RTVSPost2010PropOp54
 70
     1
102
RTVSPost2010Prop55
280
     0
102
RTVSPost2010PropOp55
 70
     1
102
RTVSPost2010Prop56
140
1.0
102
RTVSPost2010PropOp56
 70
     1
102
RTVSPost2010Prop57
140
1.0
102
RTVSPost2010PropOp57
 70
     1
  0
XRECORD
  5
1B7
102
{ACAD_REACTORS
330
1B6
102
}
330
1B6
100
AcDbXrecord
280
     1
102
RTVSPost2010Prop28
280
     0
102
RTVSPost2010PropOp28
 70
     1
102
RTVSPost2010Prop29
280
     1
102
RTVSPost2010PropOp29
 70
     1
102
RTVSPost2010Prop30
280
     1
102
RTVSPost2010PropOp30
 70
     1
102
RTVSPost2010Prop31
280
     0
102
RTVSPost2010PropOp31
 70
     1
102
RTVSPost2010Prop32
280
     0
102
RTVSPost2010PropOp32
 70
     1
102
RTVSPost2010Prop33
280
     0
102
RTVSPost2010PropOp33
 70
     1
102
RTVSPost2010Prop34
280
     0
102
RTVSPost2010PropOp34
 70
     1
102
RTVSPost2010Prop35
280
     0
102
RTVSPost2010PropOp35
 70
     1
102
RTVSPost2010Prop36
280
     0
102
RTVSPost2010PropOp36
 70
     1
102
RTVSPost2010Prop37
 90
       50
102
RTVSPost2010PropOp37
 70
     1
102
RTVSPost2010Prop38
140
0.0
102
RTVSPost2010PropOp38
 70
     1
102
RTVSPost2010Prop39
140
1.0
102
RTVSPost2010PropOp39
 70
     1
102
RTVSPost2010Prop40
 90
        0
102
RTVSPost2010PropOp40
 70
     1
102
RTVSPost2010Prop41ColorIndex
 90
       18
102
RTVSPost2010Prop41ColorRGB
 90
        0
102
RTVSPost2010PropOp41
 70
     1
102
RTVSPost2010Prop42
 90
       50
102
RTVSPost2010PropOp42
 70
     1
102
RTVSPost2010Prop43
 90
        3
102
RTVSPost2010PropOp43
 70
     1
102
RTVSPost2010Prop44ColorIndex
 90
        5
102
RTVSPost2010Prop44ColorRGB
 90
      255
102
RTVSPost2010PropOp44
 70
     1
102
RTVSPost2010Prop45
280
     0
102
RTVSPost2010PropOp45
 70
     1
102
RTVSPost2010Prop46
 90
       50
102
RTVSPost2010PropOp46
 70
     1
102
RTVSPost2010Prop47
 90
       50
102
RTVSPost2010PropOp47
 70
     1
102
RTVSPost2010Prop48
 90
       50
102
RTVSPost2010PropOp48
 70
     1
102
RTVSPost2010Prop49
280
     0
102
RTVSPost2010PropOp49
 70
     1
102
RTVSPost2010Prop50
 90
       50
102
RTVSPost2010PropOp50
 70
     1
102
RTVSPost2010Prop51ColorIndex
 90
      256
102
RTVSPost2010Prop51ColorRGB
 90
-16777216
102
RTVSPost2010PropOp51
 70
     0
102
RTVSPost2010Prop52
140
1.0
102
RTVSPost2010PropOp52
 70
     0
102
RTVSPost2010Prop53
 90
        2
102
RTVSPost2010PropOp53
 70
     1
102
RTVSPost2010Prop54
  1
strokes_ogs.tif
102
RTVSPost2010PropOp54
 70
     1
102
RTVSPost2010Prop55
280
     0
102
RTVSPost2010PropOp55
 70
     1
102
RTVSPost2010Prop56
140
1.0
102
RTVSPost2010PropOp56
 70
     1
102
RTVSPost2010Prop57
140
1.0
102
RTVSPost2010PropOp57
 70
     1
  0
XRECORD
  5
1B5
102
{ACAD_REACTORS
330
1B4
102
}
330
1B4
100
AcDbXrecord
280
     1
102
RTVSPost2010Prop28
280
     0
102
RTVSPost2010PropOp28
 70
     1
102
RTVSPost2010Prop29
280
     1
102
RTVSPost2010PropOp29
 70
     1
102
RTVSPost2010Prop30
280
     1
102
RTVSPost2010PropOp30
 70
     1
102
RTVSPost2010Prop31
280
     0
102
RTVSPost2010PropOp31
 70
     1
102
RTVSPost2010Prop32
280
     0
102
RTVSPost2010PropOp32
 70
     1
102
RTVSPost2010Prop33
280
     0
102
RTVSPost2010PropOp33
 70
     1
102
RTVSPost2010Prop34
280
     0
102
RTVSPost2010PropOp34
 70
     1
102
RTVSPost2010Prop35
280
     0
102
RTVSPost2010PropOp35
 70
     1
102
RTVSPost2010Prop36
280
     0
102
RTVSPost2010PropOp36
 70
     1
102
RTVSPost2010Prop37
 90
       50
102
RTVSPost2010PropOp37
 70
     1
102
RTVSPost2010Prop38
140
0.0
102
RTVSPost2010PropOp38
 70
     1
102
RTVSPost2010Prop39
140
1.0
102
RTVSPost2010PropOp39
 70
     1
102
RTVSPost2010Prop40
 90
        0
102
RTVSPost2010PropOp40
 70
     1
102
RTVSPost2010Prop41ColorIndex
 90
       18
102
RTVSPost2010Prop41ColorRGB
 90
        0
102
RTVSPost2010PropOp41
 70
     1
102
RTVSPost2010Prop42
 90
       50
102
RTVSPost2010PropOp42
 70
     1
102
RTVSPost2010Prop43
 90
        3
102
RTVSPost2010PropOp43
 70
     1
102
RTVSPost2010Prop44ColorIndex
 90
        5
102
RTVSPost2010Prop44ColorRGB
 90
      255
102
RTVSPost2010PropOp44
 70
     1
102
RTVSPost2010Prop45
280
     0
102
RTVSPost2010PropOp45
 70
     1
102
RTVSPost2010Prop46
 90
       50
102
RTVSPost2010PropOp46
 70
     1
102
RTVSPost2010Prop47
 90
       50
102
RTVSPost2010PropOp47
 70
     1
102
RTVSPost2010Prop48
 90
       50
102
RTVSPost2010PropOp48
 70
     1
102
RTVSPost2010Prop49
280
     0
102
RTVSPost2010PropOp49
 70
     1
102
RTVSPost2010Prop50
 90
       50
102
RTVSPost2010PropOp50
 70
     1
102
RTVSPost2010Prop51ColorIndex
 90
      256
102
RTVSPost2010Prop51ColorRGB
 90
-16777216
102
RTVSPost2010PropOp51
 70
     0
102
RTVSPost2010Prop52
140
1.0
102
RTVSPost2010PropOp52
 70
     0
102
RTVSPost2010Prop53
 90
        2
102
RTVSPost2010PropOp53
 70
     1
102
RTVSPost2010Prop54
  1
strokes_ogs.tif
102
RTVSPost2010PropOp54
 70
     1
102
RTVSPost2010Prop55
280
     0
102
RTVSPost2010PropOp55
 70
     1
102
RTVSPost2010Prop56
140
1.0
102
RTVSPost2010PropOp56
 70
     1
102
RTVSPost2010Prop57
140
1.0
102
RTVSPost2010PropOp57
 70
     1
  0
XRECORD
  5
1AF
102
{ACAD_REACTORS
330
1AE
102
}
330
1AE
100
AcDbXrecord
280
     1
102
RTVSPost2010Prop28
280
     0
102
RTVSPost2010PropOp28
 70
     1
102
RTVSPost2010Prop29
280
     1
102
RTVSPost2010PropOp29
 70
     1
102
RTVSPost2010Prop30
280
     1
102
RTVSPost2010PropOp30
 70
     1
102
RTVSPost2010Prop31
280
     0
102
RTVSPost2010PropOp31
 70
     1
102
RTVSPost2010Prop32
280
     0
102
RTVSPost2010PropOp32
 70
     1
102
RTVSPost2010Prop33
280
     0
102
RTVSPost2010PropOp33
 70
     1
102
RTVSPost2010Prop34
280
     0
102
RTVSPost2010PropOp34
 70
     1
102
RTVSPost2010Prop35
280
     0
102
RTVSPost2010PropOp35
 70
     1
102
RTVSPost2010Prop36
280
     0
102
RTVSPost2010PropOp36
 70
     1
102
RTVSPost2010Prop37
 90
       50
102
RTVSPost2010PropOp37
 70
     1
102
RTVSPost2010Prop38
140
0.0
102
RTVSPost2010PropOp38
 70
     1
102
RTVSPost2010Prop39
140
1.0
102
RTVSPost2010PropOp39
 70
     1
102
RTVSPost2010Prop40
 90
        0
102
RTVSPost2010PropOp40
 70
     1
102
RTVSPost2010Prop41ColorIndex
 90
       18
102
RTVSPost2010Prop41ColorRGB
 90
        0
102
RTVSPost2010PropOp41
 70
     1
102
RTVSPost2010Prop42
 90
       50
102
RTVSPost2010PropOp42
 70
     1
102
RTVSPost2010Prop43
 90
        3
102
RTVSPost2010PropOp43
 70
     1
102
RTVSPost2010Prop44ColorIndex
 90
        5
102
RTVSPost2010Prop44ColorRGB
 90
      255
102
RTVSPost2010PropOp44
 70
     1
102
RTVSPost2010Prop45
280
     0
102
RTVSPost2010PropOp45
 70
     1
102
RTVSPost2010Prop46
 90
       50
102
RTVSPost2010PropOp46
 70
     1
102
RTVSPost2010Prop47
 90
       50
102
RTVSPost2010PropOp47
 70
     1
102
RTVSPost2010Prop48
 90
       50
102
RTVSPost2010PropOp48
 70
     1
102
RTVSPost2010Prop49
280
     0
102
RTVSPost2010PropOp49
 70
     1
102
RTVSPost2010Prop50
 90
       50
102
RTVSPost2010PropOp50
 70
     1
102
RTVSPost2010Prop51ColorIndex
 90
      256
102
RTVSPost2010Prop51ColorRGB
 90
-16777216
102
RTVSPost2010PropOp51
 70
     0
102
RTVSPost2010Prop52
140
1.0
102
RTVSPost2010PropOp52
 70
     0
102
RTVSPost2010Prop53
 90
        2
102
RTVSPost2010PropOp53
 70
     1
102
RTVSPost2010Prop54
  1
strokes_ogs.tif
102
RTVSPost2010PropOp54
 70
     1
102
RTVSPost2010Prop55
280
     0
102
RTVSPost2010PropOp55
 70
     1
102
RTVSPost2010Prop56
140
1.0
102
RTVSPost2010PropOp56
 70
     1
102
RTVSPost2010Prop57
140
1.0
102
RTVSPost2010PropOp57
 70
     1
  0
XRECORD
  5
1B1
102
{ACAD_REACTORS
330
1B0
102
}
330
1B0
100
AcDbXrecord
280
     1
102
RTVSPost2010Prop28
280
     0
102
RTVSPost2010PropOp28
 70
     1
102
RTVSPost2010Prop29
280
     1
102
RTVSPost2010PropOp29
 70
     1
102
RTVSPost2010Prop30
280
     1
102
RTVSPost2010PropOp30
 70
     1
102
RTVSPost2010Prop31
280
     0
102
RTVSPost2010PropOp31
 70
     1
102
RTVSPost2010Prop32
280
     0
102
RTVSPost2010PropOp32
 70
     1
102
RTVSPost2010Prop33
280
     0
102
RTVSPost2010PropOp33
 70
     1
102
RTVSPost2010Prop34
280
     0
102
RTVSPost2010PropOp34
 70
     1
102
RTVSPost2010Prop35
280
     0
102
RTVSPost2010PropOp35
 70
     1
102
RTVSPost2010Prop36
280
     0
102
RTVSPost2010PropOp36
 70
     1
102
RTVSPost2010Prop37
 90
       50
102
RTVSPost2010PropOp37
 70
     1
102
RTVSPost2010Prop38
140
0.0
102
RTVSPost2010PropOp38
 70
     1
102
RTVSPost2010Prop39
140
1.0
102
RTVSPost2010PropOp39
 70
     1
102
RTVSPost2010Prop40
 90
        0
102
RTVSPost2010PropOp40
 70
     1
102
RTVSPost2010Prop41ColorIndex
 90
       18
102
RTVSPost2010Prop41ColorRGB
 90
        0
102
RTVSPost2010PropOp41
 70
     1
102
RTVSPost2010Prop42
 90
       50
102
RTVSPost2010PropOp42
 70
     1
102
RTVSPost2010Prop43
 90
        3
102
RTVSPost2010PropOp43
 70
     1
102
RTVSPost2010Prop44ColorIndex
 90
        5
102
RTVSPost2010Prop44ColorRGB
 90
      255
102
RTVSPost2010PropOp44
 70
     1
102
RTVSPost2010Prop45
280
     0
102
RTVSPost2010PropOp45
 70
     1
102
RTVSPost2010Prop46
 90
       50
102
RTVSPost2010PropOp46
 70
     1
102
RTVSPost2010Prop47
 90
       50
102
RTVSPost2010PropOp47
 70
     1
102
RTVSPost2010Prop48
 90
       50
102
RTVSPost2010PropOp48
 70
     1
102
RTVSPost2010Prop49
280
     0
102
RTVSPost2010PropOp49
 70
     1
102
RTVSPost2010Prop50
 90
       50
102
RTVSPost2010PropOp50
 70
     1
102
RTVSPost2010Prop51ColorIndex
 90
      256
102
RTVSPost2010Prop51ColorRGB
 90
-16777216
102
RTVSPost2010PropOp51
 70
     0
102
RTVSPost2010Prop52
140
1.0
102
RTVSPost2010PropOp52
 70
     0
102
RTVSPost2010Prop53
 90
        2
102
RTVSPost2010PropOp53
 70
     1
102
RTVSPost2010Prop54
  1
strokes_ogs.tif
102
RTVSPost2010PropOp54
 70
     1
102
RTVSPost2010Prop55
280
     0
102
RTVSPost2010PropOp55
 70
     1
102
RTVSPost2010Prop56
140
1.0
102
RTVSPost2010PropOp56
 70
     1
102
RTVSPost2010Prop57
140
1.0
102
RTVSPost2010PropOp57
 70
     1
  0
XRECORD
  5
1A7
102
{ACAD_REACTORS
330
1A6
102
}
330
1A6
100
AcDbXrecord
280
     1
102
RTVSPost2010Prop28
280
     0
102
RTVSPost2010PropOp28
 70
     1
102
RTVSPost2010Prop29
280
     1
102
RTVSPost2010PropOp29
 70
     1
102
RTVSPost2010Prop30
280
     1
102
RTVSPost2010PropOp30
 70
     1
102
RTVSPost2010Prop31
280
     0
102
RTVSPost2010PropOp31
 70
     1
102
RTVSPost2010Prop32
280
     0
102
RTVSPost2010PropOp32
 70
     1
102
RTVSPost2010Prop33
280
     0
102
RTVSPost2010PropOp33
 70
     1
102
RTVSPost2010Prop34
280
     0
102
RTVSPost2010PropOp34
 70
     1
102
RTVSPost2010Prop35
280
     0
102
RTVSPost2010PropOp35
 70
     1
102
RTVSPost2010Prop36
280
     0
102
RTVSPost2010PropOp36
 70
     1
102
RTVSPost2010Prop37
 90
       50
102
RTVSPost2010PropOp37
 70
     1
102
RTVSPost2010Prop38
140
0.0
102
RTVSPost2010PropOp38
 70
     1
102
RTVSPost2010Prop39
140
1.0
102
RTVSPost2010PropOp39
 70
     1
102
RTVSPost2010Prop40
 90
        0
102
RTVSPost2010PropOp40
 70
     1
102
RTVSPost2010Prop41ColorIndex
 90
       18
102
RTVSPost2010Prop41ColorRGB
 90
        0
102
RTVSPost2010PropOp41
 70
     1
102
RTVSPost2010Prop42
 90
       50
102
RTVSPost2010PropOp42
 70
     1
102
RTVSPost2010Prop43
 90
        3
102
RTVSPost2010PropOp43
 70
     1
102
RTVSPost2010Prop44ColorIndex
 90
        5
102
RTVSPost2010Prop44ColorRGB
 90
      255
102
RTVSPost2010PropOp44
 70
     1
102
RTVSPost2010Prop45
280
     0
102
RTVSPost2010PropOp45
 70
     1
102
RTVSPost2010Prop46
 90
       50
102
RTVSPost2010PropOp46
 70
     1
102
RTVSPost2010Prop47
 90
       50
102
RTVSPost2010PropOp47
 70
     1
102
RTVSPost2010Prop48
 90
       50
102
RTVSPost2010PropOp48
 70
     1
102
RTVSPost2010Prop49
280
     0
102
RTVSPost2010PropOp49
 70
     1
102
RTVSPost2010Prop50
 90
       50
102
RTVSPost2010PropOp50
 70
     1
102
RTVSPost2010Prop51ColorIndex
 90
      256
102
RTVSPost2010Prop51ColorRGB
 90
-16777216
102
RTVSPost2010PropOp51
 70
     0
102
RTVSPost2010Prop52
140
1.0
102
RTVSPost2010PropOp52
 70
     0
102
RTVSPost2010Prop53
 90
        2
102
RTVSPost2010PropOp53
 70
     1
102
RTVSPost2010Prop54
  1
strokes_ogs.tif
102
RTVSPost2010PropOp54
 70
     1
102
RTVSPost2010Prop55
280
     0
102
RTVSPost2010PropOp55
 70
     1
102
RTVSPost2010Prop56
140
1.0
102
RTVSPost2010PropOp56
 70
     1
102
RTVSPost2010Prop57
140
1.0
102
RTVSPost2010PropOp57
 70
     1
  0
XRECORD
  5
19B
102
{ACAD_REACTORS
330
19A
102
}
330
19A
100
AcDbXrecord
280
     1
102
RTVSPost2010Prop28
280
     0
102
RTVSPost2010PropOp28
 70
     1
102
RTVSPost2010Prop29
280
     1
102
RTVSPost2010PropOp29
 70
     1
102
RTVSPost2010Prop30
280
     1
102
RTVSPost2010PropOp30
 70
     1
102
RTVSPost2010Prop31
280
     0
102
RTVSPost2010PropOp31
 70
     1
102
RTVSPost2010Prop32
280
     0
102
RTVSPost2010PropOp32
 70
     1
102
RTVSPost2010Prop33
280
     0
102
RTVSPost2010PropOp33
 70
     1
102
RTVSPost2010Prop34
280
     0
102
RTVSPost2010PropOp34
 70
     1
102
RTVSPost2010Prop35
280
     0
102
RTVSPost2010PropOp35
 70
     1
102
RTVSPost2010Prop36
280
     0
102
RTVSPost2010PropOp36
 70
     1
102
RTVSPost2010Prop37
 90
       50
102
RTVSPost2010PropOp37
 70
     1
102
RTVSPost2010Prop38
140
0.0
102
RTVSPost2010PropOp38
 70
     1
102
RTVSPost2010Prop39
140
1.0
102
RTVSPost2010PropOp39
 70
     1
102
RTVSPost2010Prop40
 90
        0
102
RTVSPost2010PropOp40
 70
     1
102
RTVSPost2010Prop41ColorIndex
 90
       18
102
RTVSPost2010Prop41ColorRGB
 90
        0
102
RTVSPost2010PropOp41
 70
     1
102
RTVSPost2010Prop42
 90
       50
102
RTVSPost2010PropOp42
 70
     1
102
RTVSPost2010Prop43
 90
        3
102
RTVSPost2010PropOp43
 70
     1
102
RTVSPost2010Prop44ColorIndex
 90
        5
102
RTVSPost2010Prop44ColorRGB
 90
      255
102
RTVSPost2010PropOp44
 70
     1
102
RTVSPost2010Prop45
280
     0
102
RTVSPost2010PropOp45
 70
     1
102
RTVSPost2010Prop46
 90
       50
102
RTVSPost2010PropOp46
 70
     1
102
RTVSPost2010Prop47
 90
       50
102
RTVSPost2010PropOp47
 70
     1
102
RTVSPost2010Prop48
 90
       50
102
RTVSPost2010PropOp48
 70
     1
102
RTVSPost2010Prop49
280
     0
102
RTVSPost2010PropOp49
 70
     1
102
RTVSPost2010Prop50
 90
       50
102
RTVSPost2010PropOp50
 70
     1
102
RTVSPost2010Prop51ColorIndex
 90
      256
102
RTVSPost2010Prop51ColorRGB
 90
-16777216
102
RTVSPost2010PropOp51
 70
     0
102
RTVSPost2010Prop52
140
1.0
102
RTVSPost2010PropOp52
 70
     0
102
RTVSPost2010Prop53
 90
        2
102
RTVSPost2010PropOp53
 70
     1
102
RTVSPost2010Prop54
  1
strokes_ogs.tif
102
RTVSPost2010PropOp54
 70
     1
102
RTVSPost2010Prop55
280
     0
102
RTVSPost2010PropOp55
 70
     1
102
RTVSPost2010Prop56
140
1.0
102
RTVSPost2010PropOp56
 70
     1
102
RTVSPost2010Prop57
140
1.0
102
RTVSPost2010PropOp57
 70
     1
  0
XRECORD
  5
1B3
102
{ACAD_REACTORS
330
1B2
102
}
330
1B2
100
AcDbXrecord
280
     1
102
RTVSPost2010Prop28
280
     0
102
RTVSPost2010PropOp28
 70
     1
102
RTVSPost2010Prop29
280
     1
102
RTVSPost2010PropOp29
 70
     1
102
RTVSPost2010Prop30
280
     1
102
RTVSPost2010PropOp30
 70
     1
102
RTVSPost2010Prop31
280
     0
102
RTVSPost2010PropOp31
 70
     1
102
RTVSPost2010Prop32
280
     0
102
RTVSPost2010PropOp32
 70
     1
102
RTVSPost2010Prop33
280
     0
102
RTVSPost2010PropOp33
 70
     1
102
RTVSPost2010Prop34
280
     0
102
RTVSPost2010PropOp34
 70
     1
102
RTVSPost2010Prop35
280
     0
102
RTVSPost2010PropOp35
 70
     1
102
RTVSPost2010Prop36
280
     0
102
RTVSPost2010PropOp36
 70
     1
102
RTVSPost2010Prop37
 90
       50
102
RTVSPost2010PropOp37
 70
     1
102
RTVSPost2010Prop38
140
0.0
102
RTVSPost2010PropOp38
 70
     1
102
RTVSPost2010Prop39
140
1.0
102
RTVSPost2010PropOp39
 70
     1
102
RTVSPost2010Prop40
 90
        0
102
RTVSPost2010PropOp40
 70
     1
102
RTVSPost2010Prop41ColorIndex
 90
       18
102
RTVSPost2010Prop41ColorRGB
 90
        0
102
RTVSPost2010PropOp41
 70
     1
102
RTVSPost2010Prop42
 90
       50
102
RTVSPost2010PropOp42
 70
     1
102
RTVSPost2010Prop43
 90
        3
102
RTVSPost2010PropOp43
 70
     1
102
RTVSPost2010Prop44ColorIndex
 90
        5
102
RTVSPost2010Prop44ColorRGB
 90
      255
102
RTVSPost2010PropOp44
 70
     1
102
RTVSPost2010Prop45
280
     0
102
RTVSPost2010PropOp45
 70
     1
102
RTVSPost2010Prop46
 90
       50
102
RTVSPost2010PropOp46
 70
     1
102
RTVSPost2010Prop47
 90
       50
102
RTVSPost2010PropOp47
 70
     1
102
RTVSPost2010Prop48
 90
       50
102
RTVSPost2010PropOp48
 70
     1
102
RTVSPost2010Prop49
280
     0
102
RTVSPost2010PropOp49
 70
     1
102
RTVSPost2010Prop50
 90
       50
102
RTVSPost2010PropOp50
 70
     1
102
RTVSPost2010Prop51ColorIndex
 90
      256
102
RTVSPost2010Prop51ColorRGB
 90
-16777216
102
RTVSPost2010PropOp51
 70
     0
102
RTVSPost2010Prop52
140
1.0
102
RTVSPost2010PropOp52
 70
     0
102
RTVSPost2010Prop53
 90
        2
102
RTVSPost2010PropOp53
 70
     1
102
RTVSPost2010Prop54
  1
strokes_ogs.tif
102
RTVSPost2010PropOp54
 70
     1
102
RTVSPost2010Prop55
280
     0
102
RTVSPost2010PropOp55
 70
     1
102
RTVSPost2010Prop56
140
1.0
102
RTVSPost2010PropOp56
 70
     1
102
RTVSPost2010Prop57
140
1.0
102
RTVSPost2010PropOp57
 70
     1
  0
ENDSEC
  0
EOF
