  0
SECTION
  2
HEADER
  9
$ACADVER
  1
AC1024
  9
$ACADMAINTVER
 70
   226
  9
$DWGCODEPAGE
  3
ANSI_932
  9
$INSBASE
 10
0.0
 20
0.0
 30
0.0
  9
$EXTMIN
 10
1.000000000000000E+20
 20
1.000000000000000E+20
 30
1.000000000000000E+20
  9
$EXTMAX
 10
-1.000000000000000E+20
 20
-1.000000000000000E+20
 30
-1.000000000000000E+20
  9
$LIMMIN
 10
0.0
 20
0.0
  9
$LIMMAX
 10
12.0
 20
9.0
  9
$ORTHOMODE
 70
     0
  9
$REGENMODE
 70
     1
  9
$FILLMODE
 70
     1
  9
$QTEXTMODE
 70
     0
  9
$MIRRTEXT
 70
     0
  9
$LTSCALE
 40
1.0
  9
$ATTMODE
 70
     1
  9
$TEXTSIZE
 40
0.2
  9
$TRACEWID
 40
0.05
  9
$TEXTSTYLE
  7
Standard
  9
$CLAYER
  8
0
  9
$CELTYPE
  6
ByLayer
  9
$CECOLOR
 62
   256
  9
$CELTSCALE
 40
1.0
  9
$DISPSILH
 70
     0
  9
$DIMSCALE
 40
1.0
  9
$DIMASZ
 40
0.18
  9
$DIMEXO
 40
0.0625
  9
$DIMDLI
 40
0.38
  9
$DIMRND
 40
0.0
  9
$DIMDLE
 40
0.0
  9
$DIMEXE
 40
0.18
  9
$DIMTP
 40
0.0
  9
$DIMTM
 40
0.0
  9
$DIMTXT
 40
0.18
  9
$DIMCEN
 40
0.09
  9
$DIMTSZ
 40
0.0
  9
$DIMTOL
 70
     0
  9
$DIMLIM
 70
     0
  9
$DIMTIH
 70
     1
  9
$DIMTOH
 70
     1
  9
$DIMSE1
 70
     0
  9
$DIMSE2
 70
     0
  9
$DIMTAD
 70
     0
  9
$DIMZIN
 70
     0
  9
$DIMBLK
  1

  9
$DIMASO
 70
     1
  9
$DIMSHO
 70
     1
  9
$DIMPOST
  1

  9
$DIMAPOST
  1

  9
$DIMALT
 70
     0
  9
$DIMALTD
 70
     2
  9
$DIMALTF
 40
25.4
  9
$DIMLFAC
 40
1.0
  9
$DIMTOFL
 70
     0
  9
$DIMTVP
 40
0.0
  9
$DIMTIX
 70
     0
  9
$DIMSOXD
 70
     0
  9
$DIMSAH
 70
     0
  9
$DIMBLK1
  1

  9
$DIMBLK2
  1

  9
$DIMSTYLE
  2
Standard
  9
$DIMCLRD
 70
     0
  9
$DIMCLRE
 70
     0
  9
$DIMCLRT
 70
     0
  9
$DIMTFAC
 40
1.0
  9
$DIMGAP
 40
0.09
  9
$DIMJUST
 70
     0
  9
$DIMSD1
 70
     0
  9
$DIMSD2
 70
     0
  9
$DIMTOLJ
 70
     1
  9
$DIMTZIN
 70
     0
  9
$DIMALTZ
 70
     0
  9
$DIMALTTZ
 70
     0
  9
$DIMUPT
 70
     0
  9
$DIMDEC
 70
     4
  9
$DIMTDEC
 70
     4
  9
$DIMALTU
 70
     2
  9
$DIMALTTD
 70
     2
  9
$DIMTXSTY
  7
Standard
  9
$DIMAUNIT
 70
     0
  9
$DIMADEC
 70
     0
  9
$DIMALTRND
 40
0.0
  9
$DIMAZIN
 70
     0
  9
$DIMDSEP
 70
    46
  9
$DIMATFIT
 70
     3
  9
$DIMFRAC
 70
     0
  9
$DIMLDRBLK
  1

  9
$DIMLUNIT
 70
     2
  9
$DIMLWD
 70
    -2
  9
$DIMLWE
 70
    -2
  9
$DIMTMOVE
 70
     0
  9
$DIMFXL
 40
1.0
  9
$DIMFXLON
 70
     0
  9
$DIMJOGANG
 40
0.7853981633974483
  9
$DIMTFILL
 70
     0
  9
$DIMTFILLCLR
 70
     0
  9
$DIMARCSYM
 70
     0
  9
$DIMLTYPE
  6

  9
$DIMLTEX1
  6

  9
$DIMLTEX2
  6

  9
$DIMTXTDIRECTION
 70
     0
  9
$LUNITS
 70
     2
  9
$LUPREC
 70
     4
  9
$SKETCHINC
 40
0.1
  9
$FILLETRAD
 40
0.0
  9
$AUNITS
 70
     0
  9
$AUPREC
 70
     0
  9
$MENU
  1
.
  9
$ELEVATION
 40
0.0
  9
$PELEVATION
 40
0.0
  9
$THICKNESS
 40
0.0
  9
$LIMCHECK
 70
     0
  9
$CHAMFERA
 40
0.0
  9
$CHAMFERB
 40
0.0
  9
$CHAMFERC
 40
0.0
  9
$CHAMFERD
 40
0.0
  9
$SKPOLY
 70
     0
  9
$TDCREATE
 40
2459569.503946759
  9
$TDUCREATE
 40
2459569.128946760
  9
$TDUPDATE
 40
2459569.503946759
  9
$TDUUPDATE
 40
2459569.128946760
  9
$TDINDWG
 40
0.0000000000
  9
$TDUSRTIMER
 40
0.0000000000
  9
$USRTIMER
 70
     1
  9
$ANGBASE
 50
0.0
  9
$ANGDIR
 70
     0
  9
$PDMODE
 70
     0
  9
$PDSIZE
 40
0.0
  9
$PLINEWID
 40
0.0
  9
$SPLFRAME
 70
     0
  9
$SPLINETYPE
 70
     6
  9
$SPLINESEGS
 70
     8
  9
$HANDSEED
  5
1C0
  9
$SURFTAB1
 70
     6
  9
$SURFTAB2
 70
     6
  9
$SURFTYPE
 70
     6
  9
$SURFU
 70
     6
  9
$SURFV
 70
     6
  9
$UCSBASE
  2

  9
$UCSNAME
  2

  9
$UCSORG
 10
0.0
 20
0.0
 30
0.0
  9
$UCSXDIR
 10
1.0
 20
0.0
 30
0.0
  9
$UCSYDIR
 10
0.0
 20
1.0
 30
0.0
  9
$UCSORTHOREF
  2

  9
$UCSORTHOVIEW
 70
     0
  9
$UCSORGTOP
 10
0.0
 20
0.0
 30
0.0
  9
$UCSORGBOTTOM
 10
0.0
 20
0.0
 30
0.0
  9
$UCSORGLEFT
 10
0.0
 20
0.0
 30
0.0
  9
$UCSORGRIGHT
 10
0.0
 20
0.0
 30
0.0
  9
$UCSORGFRONT
 10
0.0
 20
0.0
 30
0.0
  9
$UCSORGBACK
 10
0.0
 20
0.0
 30
0.0
  9
$PUCSBASE
  2

  9
$PUCSNAME
  2

  9
$PUCSORG
 10
0.0
 20
0.0
 30
0.0
  9
$PUCSXDIR
 10
1.0
 20
0.0
 30
0.0
  9
$PUCSYDIR
 10
0.0
 20
1.0
 30
0.0
  9
$PUCSORTHOREF
  2

  9
$PUCSORTHOVIEW
 70
     0
  9
$PUCSORGTOP
 10
0.0
 20
0.0
 30
0.0
  9
$PUCSORGBOTTOM
 10
0.0
 20
0.0
 30
0.0
  9
$PUCSORGLEFT
 10
0.0
 20
0.0
 30
0.0
  9
$PUCSORGRIGHT
 10
0.0
 20
0.0
 30
0.0
  9
$PUCSORGFRONT
 10
0.0
 20
0.0
 30
0.0
  9
$PUCSORGBACK
 10
0.0
 20
0.0
 30
0.0
  9
$USERI1
 70
     0
  9
$USERI2
 70
     0
  9
$USERI3
 70
     0
  9
$USERI4
 70
     0
  9
$USERI5
 70
     0
  9
$USERR1
 40
0.0
  9
$USERR2
 40
0.0
  9
$USERR3
 40
0.0
  9
$USERR4
 40
0.0
  9
$USERR5
 40
0.0
  9
$WORLDVIEW
 70
     1
  9
$SHADEDGE
 70
     3
  9
$SHADEDIF
 70
    70
  9
$TILEMODE
 70
     1
  9
$MAXACTVP
 70
    64
  9
$PINSBASE
 10
0.0
 20
0.0
 30
0.0
  9
$PLIMCHECK
 70
     0
  9
$PEXTMIN
 10
1.000000000000000E+20
 20
1.000000000000000E+20
 30
1.000000000000000E+20
  9
$PEXTMAX
 10
-1.000000000000000E+20
 20
-1.000000000000000E+20
 30
-1.000000000000000E+20
  9
$PLIMMIN
 10
0.0
 20
0.0
  9
$PLIMMAX
 10
12.0
 20
9.0
  9
$UNITMODE
 70
     0
  9
$VISRETAIN
 70
     1
  9
$PLINEGEN
 70
     0
  9
$PSLTSCALE
 70
     1
  9
$TREEDEPTH
 70
  3020
  9
$CMLSTYLE
  2
Standard
  9
$CMLJUST
 70
     0
  9
$CMLSCALE
 40
1.0
  9
$PROXYGRAPHICS
 70
     1
  9
$MEASUREMENT
 70
     0
  9
$CELWEIGHT
370
    -1
  9
$ENDCAPS
280
     0
  9
$JOINSTYLE
280
     0
  9
$LWDISPLAY
290
     1
  9
$INSUNITS
 70
     4
  9
$HYPERLINKBASE
  1

  9
$STYLESHEET
  1

  9
$XEDIT
290
     1
  9
$CEPSNTYPE
380
     0
  9
$PSTYLEMODE
290
     1
  9
$FINGERPRINTGUID
  2
{EC5357B4-FDAB-B24B-9C3D-CCDC48286524}
  9
$VERSIONGUID
  2
{AF3216DB-A00A-B544-9F86-2BC0A168EBC2}
  9
$EXTNAMES
290
     1
  9
$PSVPSCALE
 40
0.0
  9
$OLESTARTUP
290
     0
  9
$SORTENTS
280
   127
  9
$INDEXCTL
280
     0
  9
$HIDETEXT
280
     1
  9
$XCLIPFRAME
280
     2
  9
$HALOGAP
280
     0
  9
$OBSCOLOR
 70
   257
  9
$OBSLTYPE
280
     0
  9
$INTERSECTIONDISPLAY
280
     0
  9
$INTERSECTIONCOLOR
 70
   257
  9
$DIMASSOC
280
     2
  9
$PROJECTNAME
  1

  9
$CAMERADISPLAY
290
     0
  9
$LENSLENGTH
 40
50.0
  9
$CAMERAHEIGHT
 40
0.0
  9
$STEPSPERSEC
 40
2.0
  9
$STEPSIZE
 40
6.0
  9
$3DDWFPREC
 40
2.0
  9
$PSOLWIDTH
 40
0.25
  9
$PSOLHEIGHT
 40
4.0
  9
$LOFTANG1
 40
1.570796326794896
  9
$LOFTANG2
 40
1.570796326794896
  9
$LOFTMAG1
 40
0.0
  9
$LOFTMAG2
 40
0.0
  9
$LOFTPARAM
 70
     7
  9
$LOFTNORMALS
280
     1
  9
$LATITUDE
 40
37.795
  9
$LONGITUDE
 40
-122.394
  9
$NORTHDIRECTION
 40
0.0
  9
$TIMEZONE
 70
 -8000
  9
$LIGHTGLYPHDISPLAY
280
     1
  9
$TILEMODELIGHTSYNCH
280
     1
  9
$CMATERIAL
347
11
  9
$SOLIDHIST
280
     0
  9
$SHOWHIST
280
     1
  9
$DWFFRAME
280
     2
  9
$DGNFRAME
280
     0
  9
$REALWORLDSCALE
290
     1
  9
$INTERFERECOLOR
 62
     1
  9
$INTERFEREOBJVS
345
33
  9
$INTERFEREVPVS
346
30
  9
$CSHADOW
280
     0
  9
$SHADOWPLANELOCATION
 40
0.0
  0
ENDSEC
  0
SECTION
  2
CLASSES
  0
CLASS
  1
ACDBDICTIONARYWDFLT
  2
AcDbDictionaryWithDefault
  3
ObjectDBX Classes
 90
        0
 91
        1
280
     0
281
     0
  0
CLASS
  1
MATERIAL
  2
AcDbMaterial
  3
ObjectDBX Classes
 90
     1153
 91
        3
280
     0
281
     0
  0
CLASS
  1
VISUALSTYLE
  2
AcDbVisualStyle
  3
ObjectDBX Classes
 90
     4095
 91
       24
280
     0
281
     0
  0
CLASS
  1
SCALE
  2
AcDbScale
  3
ObjectDBX Classes
 90
     1153
 91
       17
280
     0
281
     0
  0
CLASS
  1
TABLESTYLE
  2
AcDbTableStyle
  3
ObjectDBX Classes
 90
     4095
 91
        1
280
     0
281
     0
  0
CLASS
  1
MLEADERSTYLE
  2
AcDbMLeaderStyle
  3
ACDB_MLEADERSTYLE_CLASS
 90
     4095
 91
        1
280
     0
281
     0
  0
CLASS
  1
ACDBSECTIONVIEWSTYLE
  2
AcDbSectionViewStyle
  3
ObjectDBX Classes
 90
     1025
 91
        1
280
     0
281
     0
  0
CLASS
  1
ACDBDETAILVIEWSTYLE
  2
AcDbDetailViewStyle
  3
ObjectDBX Classes
 90
     1025
 91
        1
280
     0
281
     0
  0
CLASS
  1
DICTIONARYVAR
  2
AcDbDictionaryVar
  3
ObjectDBX Classes
 90
        0
 91
        5
280
     0
281
     0
  0
CLASS
  1
CELLSTYLEMAP
  2
AcDbCellStyleMap
  3
ObjectDBX Classes
 90
     1152
 91
        1
280
     0
281
     0
  0
ENDSEC
  0
SECTION
  2
TABLES
  0
TABLE
  2
VPORT
  5
8
330
0
100
AcDbSymbolTable
 70
     1
  0
VPORT
  5
57
330
8
100
AcDbSymbolTableRecord
100
AcDbViewportTableRecord
  2
*Active
 70
     0
 10
0.0
 20
0.0
 11
1.0
 21
1.0
 12
0.0
 22
0.0
 13
0.0
 23
0.0
 14
1.0
 24
1.0
 15
0.0
 25
0.0
 16
0.0
 26
0.0
 36
1.0
 17
104.9999999737534
 27
-148.4999999628701
 37
0.0
 40
302.939999924255
 41
0.7070707070707534
 42
50.0
 43
0.0
 44
0.0
 50
0.0
 51
0.0
 71
     0
 72
   100
 73
     1
 74
     0
 75
     1
 76
     0
 77
     0
 78
     0
281
     0
 65
     1
110
0.0
120
0.0
130
0.0
111
1.0
121
0.0
131
0.0
112
0.0
122
1.0
132
0.0
 79
     0
146
0.0
 60
     3
 61
     5
292
     1
282
     1
141
0.0
142
0.0
 63
   250
421
  3355443
  0
ENDTAB
  0
TABLE
  2
LTYPE
  5
5
330
0
100
AcDbSymbolTable
 70
     2
  0
LTYPE
  5
5B
330
5
100
AcDbSymbolTableRecord
100
AcDbLinetypeTableRecord
  2
ByBlock
 70
     0
  3

 72
    65
 73
     0
 40
0.0
  0
LTYPE
  5
5C
330
5
100
AcDbSymbolTableRecord
100
AcDbLinetypeTableRecord
  2
ByLayer
 70
     0
  3

 72
    65
 73
     0
 40
0.0
  0
LTYPE
  5
5D
330
5
100
AcDbSymbolTableRecord
100
AcDbLinetypeTableRecord
  2
Continuous
 70
     0
  3
Solid line
 72
    65
 73
     0
 40
0.0
  0
LTYPE
  5
180
330
5
100
AcDbSymbolTableRecord
100
AcDbLinetypeTableRecord
  2
AI-Linetype-0
 70
     0
  3
Adobe Illustrator Linetype No. 0
 72
    65
 73
     2
 40
1.411111110758333
 49
0.7055555553791667
 74
     0
 49
-0.7055555553791667
 74
     0
  0
ENDTAB
  0
TABLE
  2
LAYER
  5
2
330
0
100
AcDbSymbolTable
 70
     2
  0
LAYER
  5
54
330
2
100
AcDbSymbolTableRecord
100
AcDbLayerTableRecord
  2
0
 70
     0
 62
     7
  6
Continuous
370
    -3
390
F
347
21
  0
LAYER
  5
78
330
2
100
AcDbSymbolTableRecord
100
AcDbLayerTableRecord
  2
レイヤー 1
 70
     0
 62
     7
  6
Continuous
370
     0
390
F
347
21
  0
ENDTAB
  0
TABLE
  2
STYLE
  5
3
330
0
100
AcDbSymbolTable
 70
     2
  0
STYLE
  5
55
330
3
100
AcDbSymbolTableRecord
100
AcDbTextStyleTableRecord
  2
Standard
 70
     0
 40
0.0
 41
1.0
 50
0.0
 71
     0
 42
0.2
  3
txt
  4

  0
STYLE
  5
5A
330
3
100
AcDbSymbolTableRecord
100
AcDbTextStyleTableRecord
  2
Annotative
 70
     0
 40
0.0
 41
1.0
 50
0.0
 71
     0
 42
0.2
  3
txt
  4

1001
AcadAnnotative
1000
AnnotativeData
1002
{
1070
     1
1070
     1
1002
}
  0
ENDTAB
  0
TABLE
  2
VIEW
  5
6
330
0
100
AcDbSymbolTable
 70
     0
  0
ENDTAB
  0
TABLE
  2
UCS
  5
7
330
0
100
AcDbSymbolTable
 70
     0
  0
ENDTAB
  0
TABLE
  2
APPID
  5
9
330
0
100
AcDbSymbolTable
 70
     2
  0
APPID
  5
56
330
9
100
AcDbSymbolTableRecord
100
AcDbRegAppTableRecord
  2
ACAD
 70
     0
  0
APPID
  5
5E
330
9
100
AcDbSymbolTableRecord
100
AcDbRegAppTableRecord
  2
AcadAnnotative
 70
     0
  0
ENDTAB
  0
TABLE
  2
DIMSTYLE
  5
A
330
0
100
AcDbSymbolTable
 70
     2
100
AcDbDimStyleTable
 71
     0
  0
DIMSTYLE
105
58
330
A
100
AcDbSymbolTableRecord
100
AcDbDimStyleTableRecord
  2
Standard
 70
     0
340
55
  0
DIMSTYLE
105
59
330
A
100
AcDbSymbolTableRecord
100
AcDbDimStyleTableRecord
  2
Annotative
 70
     0
340
55
1001
AcadAnnotative
1000
AnnotativeData
1002
{
1070
     1
1070
     1
1002
}
  0
ENDTAB
  0
TABLE
  2
BLOCK_RECORD
  5
1
330
0
100
AcDbSymbolTable
 70
    17
  0
BLOCK_RECORD
  5
70
330
1
100
AcDbSymbolTableRecord
100
AcDbBlockTableRecord
  2
*Model_Space
340
73
 70
     0
280
     1
281
     0
  0
BLOCK_RECORD
  5
6C
330
1
100
AcDbSymbolTableRecord
100
AcDbBlockTableRecord
  2
*Paper_Space
340
6F
 70
     0
280
     1
281
     0
  0
BLOCK_RECORD
  5
74
330
1
100
AcDbSymbolTableRecord
100
AcDbBlockTableRecord
  2
*Paper_Space0
340
77
 70
     0
280
     1
281
     0
  0
BLOCK_RECORD
  5
E0
330
1
100
AcDbSymbolTableRecord
100
AcDbBlockTableRecord
  2
Block_0
340
0
102
{BLKREFS
331
E1
102
}
 70
     0
280
     1
281
     0
  0
BLOCK_RECORD
  5
E4
330
1
100
AcDbSymbolTableRecord
100
AcDbBlockTableRecord
  2
Block_1
340
0
102
{BLKREFS
331
E5
102
}
 70
     0
280
     1
281
     0
  0
BLOCK_RECORD
  5
F1
330
1
100
AcDbSymbolTableRecord
100
AcDbBlockTableRecord
  2
Block_2
340
0
102
{BLKREFS
331
F2
102
}
 70
     0
280
     1
281
     0
  0
BLOCK_RECORD
  5
F5
330
1
100
AcDbSymbolTableRecord
100
AcDbBlockTableRecord
  2
Block_3
340
0
102
{BLKREFS
331
F6
102
}
 70
     0
280
     1
281
     0
  0
BLOCK_RECORD
  5
FF
330
1
100
AcDbSymbolTableRecord
100
AcDbBlockTableRecord
  2
Block_4
340
0
102
{BLKREFS
331
100
102
}
 70
     0
280
     1
281
     0
  0
BLOCK_RECORD
  5
108
330
1
100
AcDbSymbolTableRecord
100
AcDbBlockTableRecord
  2
Block_5
340
0
102
{BLKREFS
331
109
102
}
 70
     0
280
     1
281
     0
  0
BLOCK_RECORD
  5
10C
330
1
100
AcDbSymbolTableRecord
100
AcDbBlockTableRecord
  2
Block_6
340
0
102
{BLKREFS
331
10D
102
}
 70
     0
280
     1
281
     0
  0
BLOCK_RECORD
  5
117
330
1
100
AcDbSymbolTableRecord
100
AcDbBlockTableRecord
  2
Block_7
340
0
102
{BLKREFS
331
118
102
}
 70
     0
280
     1
281
     0
  0
BLOCK_RECORD
  5
124
330
1
100
AcDbSymbolTableRecord
100
AcDbBlockTableRecord
  2
Block_8
340
0
102
{BLKREFS
331
125
102
}
 70
     0
280
     1
281
     0
  0
BLOCK_RECORD
  5
128
330
1
100
AcDbSymbolTableRecord
100
AcDbBlockTableRecord
  2
Block_9
340
0
102
{BLKREFS
331
129
102
}
 70
     0
280
     1
281
     0
  0
BLOCK_RECORD
  5
132
330
1
100
AcDbSymbolTableRecord
100
AcDbBlockTableRecord
  2
Block_10
340
0
102
{BLKREFS
331
133
102
}
 70
     0
280
     1
281
     0
  0
BLOCK_RECORD
  5
138
330
1
100
AcDbSymbolTableRecord
100
AcDbBlockTableRecord
  2
Block_11
340
0
102
{BLKREFS
331
139
102
}
 70
     0
280
     1
281
     0
  0
BLOCK_RECORD
  5
13F
330
1
100
AcDbSymbolTableRecord
100
AcDbBlockTableRecord
  2
Block_12
340
0
102
{BLKREFS
331
140
102
}
 70
     0
280
     1
281
     0
  0
BLOCK_RECORD
  5
143
330
1
100
AcDbSymbolTableRecord
100
AcDbBlockTableRecord
  2
Block_13
340
0
102
{BLKREFS
331
144
102
}
 70
     0
280
     1
281
     0
  0
BLOCK_RECORD
  5
158
330
1
100
AcDbSymbolTableRecord
100
AcDbBlockTableRecord
  2
Block_14
340
0
102
{BLKREFS
331
159
102
}
 70
     0
280
     1
281
     0
  0
BLOCK_RECORD
  5
15C
330
1
100
AcDbSymbolTableRecord
100
AcDbBlockTableRecord
  2
Block_15
340
0
102
{BLKREFS
331
15D
102
}
 70
     0
280
     1
281
     0
  0
ENDTAB
  0
ENDSEC
  0
SECTION
  2
BLOCKS
  0
BLOCK
  5
71
330
70
100
AcDbEntity
  8
0
100
AcDbBlockBegin
  2
*Model_Space
 70
     0
 10
0.0
 20
0.0
 30
0.0
  3
*Model_Space
  1

  0
ENDBLK
  5
72
330
70
100
AcDbEntity
  8
0
100
AcDbBlockEnd
  0
BLOCK
  5
6D
330
6C
100
AcDbEntity
 67
     1
  8
0
100
AcDbBlockBegin
  2
*Paper_Space
 70
     0
 10
0.0
 20
0.0
 30
0.0
  3
*Paper_Space
  1

  0
ENDBLK
  5
6E
330
6C
100
AcDbEntity
 67
     1
  8
0
100
AcDbBlockEnd
  0
BLOCK
  5
75
330
74
100
AcDbEntity
 67
     1
  8
0
100
AcDbBlockBegin
  2
*Paper_Space0
 70
     0
 10
0.0
 20
0.0
 30
0.0
  3
*Paper_Space0
  1

  0
ENDBLK
  5
76
330
74
100
AcDbEntity
 67
     1
  8
0
100
AcDbBlockEnd
  0
BLOCK
  5
E2
330
E0
100
AcDbEntity
  8
0
100
AcDbBlockBegin
  2
Block_0
 70
     0
 10
0.0
 20
0.0
 30
0.0
  3
Block_0
  1

  0
INSERT
  5
E5
330
E0
100
AcDbEntity
  8
レイヤー 1
100
AcDbBlockReference
  2
Block_1
 10
0.0
 20
0.0
 30
0.0
  0
ENDBLK
  5
E3
330
E0
100
AcDbEntity
  8
0
100
AcDbBlockEnd
  0
BLOCK
  5
E6
330
E4
100
AcDbEntity
  8
0
100
AcDbBlockBegin
  2
Block_1
 70
     0
 10
0.0
 20
0.0
 30
0.0
  3
Block_1
  1

  0
SPLINE
  5
E8
330
E4
100
AcDbEntity
  8
レイヤー 1
100
AcDbSpline
210
0.0
220
0.0
230
1.0
 70
     9
 71
     3
 72
    17
 73
    13
 74
     0
 42
0.0000000001
 43
0.0000000001
 40
0.0
 40
0.0
 40
0.0
 40
0.0
 40
1.0
 40
1.0
 40
1.0
 40
2.0
 40
2.0
 40
2.0
 40
3.0
 40
3.0
 40
3.0
 40
4.0
 40
4.0
 40
4.0
 40
4.0
 10
76.74415281284521
 20
-147.812338558967
 30
0.0
 10
76.74415281284521
 20
-148.0621079816476
 30
0.0
 10
77.02751191650701
 20
-148.1086167706985
 30
0.0
 10
77.37236597458052
 20
-148.1086167706985
 30
0.0
 10
77.69189858083745
 20
-148.1086167706985
 30
0.0
 10
78.00075139109009
 20
-148.0724432681034
 30
0.0
 10
78.00075139109009
 20
-147.812338558967
 30
0.0
 10
78.00075139109009
 20
-147.5646361935776
 30
0.0
 10
77.71928708994519
 20
-147.5160603472355
 30
0.0
 10
77.37236597458052
 20
-147.5160603472355
 30
0.0
 10
77.05300562309786
 20
-147.5160603472355
 30
0.0
 10
76.74415281284521
 20
-147.5543009071218
 30
0.0
 10
76.74415281284521
 20
-147.812338558967
 30
0.0
  0
SPLINE
  5
E9
330
E4
100
AcDbEntity
  8
レイヤー 1
100
AcDbSpline
210
0.0
220
0.0
230
1.0
 70
     9
 71
     3
 72
    29
 73
    25
 74
     0
 42
0.0000000001
 43
0.0000000001
 40
0.0
 40
0.0
 40
0.0
 40
0.0
 40
1.0
 40
1.0
 40
1.0
 40
2.0
 40
2.0
 40
2.0
 40
3.0
 40
3.0
 40
3.0
 40
4.0
 40
4.0
 40
4.0
 40
5.0
 40
5.0
 40
5.0
 40
6.0
 40
6.0
 40
6.0
 40
7.0
 40
7.0
 40
7.0
 40
8.0
 40
8.0
 40
8.0
 40
8.0
 10
77.96681720056039
 20
-147.4144300304207
 30
0.0
 10
78.17627900606357
 20
-147.5226060286575
 30
0.0
 10
78.1953992860067
 20
-147.6958943315656
 30
0.0
 10
78.1953992860067
 20
-147.812338558967
 30
0.0
 10
78.1953992860067
 20
-147.9732245181282
 30
0.0
 10
78.14889049695584
 20
-148.114817942572
 30
0.0
 10
77.96681720056039
 20
-148.2099025779649
 30
0.0
 10
77.77234156041803
 20
-148.3135999520709
 30
0.0
 10
77.53531899103283
 20
-148.3328924867883
 30
0.0
 10
77.37236597458052
 20
-148.3328924867883
 30
0.0
 10
77.22853323807133
 20
-148.3328924867883
 30
0.0
 10
76.97686901287385
 20
-148.315667009362
 30
0.0
 10
76.77791474860066
 20
-148.2099025779649
 30
0.0
 10
76.57482636974518
 20
-148.1020710892765
 30
0.0
 10
76.55157197521974
 20
-147.9411851301154
 30
0.0
 10
76.55157197521974
 20
-147.812338558967
 30
0.0
 10
76.55157197521974
 20
-147.653519657097
 30
0.0
 10
76.59601370697948
 20
-147.5098591753621
 30
0.0
 10
76.77791474860066
 20
-147.4144300304207
 30
0.0
 10
76.97049558622613
 20
-147.3152112804455
 30
0.0
 10
77.1989054168982
 20
-147.2917846311458
 30
0.0
 10
77.37236597458052
 20
-147.2917846311458
 30
0.0
 10
77.5437594749717
 20
-147.2917846311458
 30
0.0
 10
77.77440861770918
 20
-147.3131442231543
 30
0.0
 10
77.96681720056039
 20
-147.4144300304207
 30
0.0
  0
HATCH
  5
EA
330
E4
100
AcDbEntity
  8
レイヤー 1
 62
    18
420
        0
440
 33554687
100
AcDbHatch
 10
0.0
 20
0.0
 30
0.0
210
0.0
220
0.0
230
1.0
  2
SOLID
 70
     1
 71
     1
 91
        2
 92
        1
 93
        1
 72
     4
 94
        3
 73
     0
 74
     0
 95
       17
 96
       13
 40
0.0
 40
0.0
 40
0.0
 40
0.0
 40
1.0
 40
1.0
 40
1.0
 40
2.0
 40
2.0
 40
2.0
 40
3.0
 40
3.0
 40
3.0
 40
4.0
 40
4.0
 40
4.0
 40
4.0
 10
76.74415281284521
 20
-147.812338558967
 10
76.74415281284521
 20
-148.0621079816476
 10
77.02751191650701
 20
-148.1086167706985
 10
77.37236597458052
 20
-148.1086167706985
 10
77.69189858083745
 20
-148.1086167706985
 10
78.00075139109009
 20
-148.0724432681034
 10
78.00075139109009
 20
-147.812338558967
 10
78.00075139109009
 20
-147.5646361935776
 10
77.71928708994519
 20
-147.5160603472355
 10
77.37236597458052
 20
-147.5160603472355
 10
77.05300562309786
 20
-147.5160603472355
 10
76.74415281284521
 20
-147.5543009071218
 10
76.74415281284521
 20
-147.812338558967
 97
        0
 97
        1
330
E8
 92
        1
 93
        1
 72
     4
 94
        3
 73
     0
 74
     0
 95
       29
 96
       25
 40
0.0
 40
0.0
 40
0.0
 40
0.0
 40
1.0
 40
1.0
 40
1.0
 40
2.0
 40
2.0
 40
2.0
 40
3.0
 40
3.0
 40
3.0
 40
4.0
 40
4.0
 40
4.0
 40
5.0
 40
5.0
 40
5.0
 40
6.0
 40
6.0
 40
6.0
 40
7.0
 40
7.0
 40
7.0
 40
8.0
 40
8.0
 40
8.0
 40
8.0
 10
77.96681720056039
 20
-147.4144300304207
 10
78.17627900606357
 20
-147.5226060286575
 10
78.1953992860067
 20
-147.6958943315656
 10
78.1953992860067
 20
-147.812338558967
 10
78.1953992860067
 20
-147.9732245181282
 10
78.14889049695584
 20
-148.114817942572
 10
77.96681720056039
 20
-148.2099025779649
 10
77.77234156041803
 20
-148.3135999520709
 10
77.53531899103283
 20
-148.3328924867883
 10
77.37236597458052
 20
-148.3328924867883
 10
77.22853323807133
 20
-148.3328924867883
 10
76.97686901287385
 20
-148.315667009362
 10
76.77791474860066
 20
-148.2099025779649
 10
76.57482636974518
 20
-148.1020710892765
 10
76.55157197521974
 20
-147.9411851301154
 10
76.55157197521974
 20
-147.812338558967
 10
76.55157197521974
 20
-147.653519657097
 10
76.59601370697948
 20
-147.5098591753621
 10
76.77791474860066
 20
-147.4144300304207
 10
76.97049558622613
 20
-147.3152112804455
 10
77.1989054168982
 20
-147.2917846311458
 10
77.37236597458052
 20
-147.2917846311458
 10
77.5437594749717
 20
-147.2917846311458
 10
77.77440861770918
 20
-147.3131442231543
 10
77.96681720056039
 20
-147.4144300304207
 97
        0
 97
        1
330
E9
 75
     2
 76
     1
 98
        1
 10
0.0
 20
0.0
450
        0
451
        0
460
0.0
461
0.0
452
        0
462
0.0
453
        0
470

  0
SPLINE
  5
EB
330
E4
100
AcDbEntity
  8
レイヤー 1
100
AcDbSpline
210
0.0
220
0.0
230
1.0
 70
    11
 71
     3
 72
    17
 73
    13
 74
     0
 42
0.0000000001
 43
0.0000000001
 40
0.0
 40
0.0
 40
0.0
 40
0.0
 40
1.0
 40
1.0
 40
1.0
 40
2.0
 40
2.0
 40
2.0
 40
3.0
 40
3.0
 40
3.0
 40
4.0
 40
4.0
 40
4.0
 40
4.0
 10
78.14458412759927
 20
-147.0754326346721
 30
0.0
 10
78.14458412759927
 20
-147.0754326346721
 30
0.0
 10
77.89291990240177
 20
-147.0754326346721
 30
0.0
 10
77.89291990240177
 20
-147.0754326346721
 30
0.0
 10
77.89291990240177
 20
-147.0754326346721
 30
0.0
 10
77.89291990240177
 20
-146.8235961547003
 30
0.0
 10
77.89291990240177
 20
-146.8235961547003
 30
0.0
 10
77.89291990240177
 20
-146.8235961547003
 30
0.0
 10
78.14458412759927
 20
-146.8235961547003
 30
0.0
 10
78.14458412759927
 20
-146.8235961547003
 30
0.0
 10
78.14458412759927
 20
-146.8235961547003
 30
0.0
 10
78.14458412759927
 20
-147.0754326346721
 30
0.0
 10
78.14458412759927
 20
-147.0754326346721
 30
0.0
  0
HATCH
  5
EC
330
E4
100
AcDbEntity
  8
レイヤー 1
 62
    18
420
        0
440
 33554687
100
AcDbHatch
 10
0.0
 20
0.0
 30
0.0
210
0.0
220
0.0
230
1.0
  2
SOLID
 70
     1
 71
     1
 91
        1
 92
        1
 93
        1
 72
     4
 94
        3
 73
     0
 74
     0
 95
       17
 96
       13
 40
0.0
 40
0.0
 40
0.0
 40
0.0
 40
1.0
 40
1.0
 40
1.0
 40
2.0
 40
2.0
 40
2.0
 40
3.0
 40
3.0
 40
3.0
 40
4.0
 40
4.0
 40
4.0
 40
4.0
 10
78.14458412759927
 20
-147.0754326346721
 10
78.14458412759927
 20
-147.0754326346721
 10
77.89291990240177
 20
-147.0754326346721
 10
77.89291990240177
 20
-147.0754326346721
 10
77.89291990240177
 20
-147.0754326346721
 10
77.89291990240177
 20
-146.8235961547003
 10
77.89291990240177
 20
-146.8235961547003
 10
77.89291990240177
 20
-146.8235961547003
 10
78.14458412759927
 20
-146.8235961547003
 10
78.14458412759927
 20
-146.8235961547003
 10
78.14458412759927
 20
-146.8235961547003
 10
78.14458412759927
 20
-147.0754326346721
 10
78.14458412759927
 20
-147.0754326346721
 97
        0
 97
        1
330
EB
 75
     2
 76
     1
 98
        1
 10
0.0
 20
0.0
450
        0
451
        0
460
0.0
461
0.0
452
        0
462
0.0
453
        0
470

  0
SPLINE
  5
ED
330
E4
100
AcDbEntity
  8
レイヤー 1
100
AcDbSpline
210
0.0
220
0.0
230
1.0
 70
     9
 71
     3
 72
    53
 73
    49
 74
     0
 42
0.0000000001
 43
0.0000000001
 40
0.0
 40
0.0
 40
0.0
 40
0.0
 40
1.0
 40
1.0
 40
1.0
 40
2.0
 40
2.0
 40
2.0
 40
3.0
 40
3.0
 40
3.0
 40
4.0
 40
4.0
 40
4.0
 40
5.0
 40
5.0
 40
5.0
 40
6.0
 40
6.0
 40
6.0
 40
7.0
 40
7.0
 40
7.0
 40
8.0
 40
8.0
 40
8.0
 40
9.0
 40
9.0
 40
9.0
 40
10.0
 40
10.0
 40
10.0
 40
11.0
 40
11.0
 40
11.0
 40
12.0
 40
12.0
 40
12.0
 40
13.0
 40
13.0
 40
13.0
 40
14.0
 40
14.0
 40
14.0
 40
15.0
 40
15.0
 40
15.0
 40
16.0
 40
16.0
 40
16.0
 40
16.0
 10
78.1953992860067
 20
-146.1063272746713
 30
0.0
 10
78.1953992860067
 20
-146.1845309421865
 30
0.0
 10
78.17851831812898
 20
-146.2861612590014
 30
0.0
 10
78.11495630642612
 20
-146.3877915758162
 30
0.0
 10
78.00488550567239
 20
-146.5610798787243
 30
0.0
 10
77.87379962245863
 20
-146.5824394707329
 30
0.0
 10
77.76596813377032
 20
-146.6013874959017
 30
0.0
 10
77.76596813377032
 20
-146.6013874959017
 30
0.0
 10
77.76596813377032
 20
-146.3791788371031
 30
0.0
 10
77.76596813377032
 20
-146.3791788371031
 30
0.0
 10
77.96475014326922
 20
-146.3244018188876
 30
0.0
 10
77.99437796444237
 20
-146.1972777954819
 30
0.0
 10
77.99437796444237
 20
-146.1042602173802
 30
0.0
 10
77.99437796444237
 20
-145.9647338502275
 30
0.0
 10
77.89498695969292
 20
-145.8124606297795
 30
0.0
 10
77.6622707596643
 20
-145.8124606297795
 30
0.0
 10
77.40630016511024
 20
-145.8124606297795
 30
0.0
 10
77.33653698153393
 20
-145.9922946141095
 30
0.0
 10
77.33653698153393
 20
-146.1128729560933
 30
0.0
 10
77.33653698153393
 20
-146.1445678345576
 30
0.0
 10
77.33653698153393
 20
-146.2861612590014
 30
0.0
 10
77.46555580745653
 20
-146.3750447225208
 30
0.0
 10
77.46555580745653
 20
-146.3750447225208
 30
0.0
 10
77.4464355275134
 20
-146.5507445922685
 30
0.0
 10
77.4464355275134
 20
-146.5507445922685
 30
0.0
 10
77.4464355275134
 20
-146.5507445922685
 30
0.0
 10
76.60032007633603
 20
-146.4301662502848
 30
0.0
 10
76.60032007633603
 20
-146.4301662502848
 30
0.0
 10
76.60032007633603
 20
-146.4301662502848
 30
0.0
 10
76.60032007633603
 20
-145.6515746706184
 30
0.0
 10
76.60032007633603
 20
-145.6515746706184
 30
0.0
 10
76.60032007633603
 20
-145.6515746706184
 30
0.0
 10
76.79496797125264
 20
-145.6515746706184
 30
0.0
 10
76.79496797125264
 20
-145.6515746706184
 30
0.0
 10
76.79496797125264
 20
-145.6515746706184
 30
0.0
 10
76.79496797125264
 20
-146.2672132338325
 30
0.0
 10
76.79496797125264
 20
-146.2672132338325
 30
0.0
 10
76.79496797125264
 20
-146.2672132338325
 30
0.0
 10
77.21802569684133
 20
-146.3326700480522
 30
0.0
 10
77.21802569684133
 20
-146.3326700480522
 30
0.0
 10
77.18409150631162
 20
-146.2713473484148
 30
0.0
 10
77.14395614390845
 20
-146.1890095663173
 30
0.0
 10
77.14395614390845
 20
-146.0704982816247
 30
0.0
 10
77.14395614390845
 20
-145.8165947443618
 30
0.0
 10
77.33016355488621
 20
-145.5795721749766
 30
0.0
 10
77.64315047972115
 20
-145.5795721749766
 30
0.0
 10
77.96061602868693
 20
-145.5795721749766
 30
0.0
 10
78.1953992860067
 20
-145.8038478910664
 30
0.0
 10
78.1953992860067
 20
-146.1063272746713
 30
0.0
  0
HATCH
  5
EE
330
E4
100
AcDbEntity
  8
レイヤー 1
 62
    18
420
        0
440
 33554687
100
AcDbHatch
 10
0.0
 20
0.0
 30
0.0
210
0.0
220
0.0
230
1.0
  2
SOLID
 70
     1
 71
     1
 91
        1
 92
        1
 93
        1
 72
     4
 94
        3
 73
     0
 74
     0
 95
       53
 96
       49
 40
0.0
 40
0.0
 40
0.0
 40
0.0
 40
1.0
 40
1.0
 40
1.0
 40
2.0
 40
2.0
 40
2.0
 40
3.0
 40
3.0
 40
3.0
 40
4.0
 40
4.0
 40
4.0
 40
5.0
 40
5.0
 40
5.0
 40
6.0
 40
6.0
 40
6.0
 40
7.0
 40
7.0
 40
7.0
 40
8.0
 40
8.0
 40
8.0
 40
9.0
 40
9.0
 40
9.0
 40
10.0
 40
10.0
 40
10.0
 40
11.0
 40
11.0
 40
11.0
 40
12.0
 40
12.0
 40
12.0
 40
13.0
 40
13.0
 40
13.0
 40
14.0
 40
14.0
 40
14.0
 40
15.0
 40
15.0
 40
15.0
 40
16.0
 40
16.0
 40
16.0
 40
16.0
 10
78.1953992860067
 20
-146.1063272746713
 10
78.1953992860067
 20
-146.1845309421865
 10
78.17851831812898
 20
-146.2861612590014
 10
78.11495630642612
 20
-146.3877915758162
 10
78.00488550567239
 20
-146.5610798787243
 10
77.87379962245863
 20
-146.5824394707329
 10
77.76596813377032
 20
-146.6013874959017
 10
77.76596813377032
 20
-146.6013874959017
 10
77.76596813377032
 20
-146.3791788371031
 10
77.76596813377032
 20
-146.3791788371031
 10
77.96475014326922
 20
-146.3244018188876
 10
77.99437796444237
 20
-146.1972777954819
 10
77.99437796444237
 20
-146.1042602173802
 10
77.99437796444237
 20
-145.9647338502275
 10
77.89498695969292
 20
-145.8124606297795
 10
77.6622707596643
 20
-145.8124606297795
 10
77.40630016511024
 20
-145.8124606297795
 10
77.33653698153393
 20
-145.9922946141095
 10
77.33653698153393
 20
-146.1128729560933
 10
77.33653698153393
 20
-146.1445678345576
 10
77.33653698153393
 20
-146.2861612590014
 10
77.46555580745653
 20
-146.3750447225208
 10
77.46555580745653
 20
-146.3750447225208
 10
77.4464355275134
 20
-146.5507445922685
 10
77.4464355275134
 20
-146.5507445922685
 10
77.4464355275134
 20
-146.5507445922685
 10
76.60032007633603
 20
-146.4301662502848
 10
76.60032007633603
 20
-146.4301662502848
 10
76.60032007633603
 20
-146.4301662502848
 10
76.60032007633603
 20
-145.6515746706184
 10
76.60032007633603
 20
-145.6515746706184
 10
76.60032007633603
 20
-145.6515746706184
 10
76.79496797125264
 20
-145.6515746706184
 10
76.79496797125264
 20
-145.6515746706184
 10
76.79496797125264
 20
-145.6515746706184
 10
76.79496797125264
 20
-146.2672132338325
 10
76.79496797125264
 20
-146.2672132338325
 10
76.79496797125264
 20
-146.2672132338325
 10
77.21802569684133
 20
-146.3326700480522
 10
77.21802569684133
 20
-146.3326700480522
 10
77.18409150631162
 20
-146.2713473484148
 10
77.14395614390845
 20
-146.1890095663173
 10
77.14395614390845
 20
-146.0704982816247
 10
77.14395614390845
 20
-145.8165947443618
 10
77.33016355488621
 20
-145.5795721749766
 10
77.64315047972115
 20
-145.5795721749766
 10
77.96061602868693
 20
-145.5795721749766
 10
78.1953992860067
 20
-145.8038478910664
 10
78.1953992860067
 20
-146.1063272746713
 97
        0
 97
        1
330
ED
 75
     2
 76
     1
 98
        1
 10
0.0
 20
0.0
450
        0
451
        0
460
0.0
461
0.0
452
        0
462
0.0
453
        0
470

  0
ENDBLK
  5
E7
330
E4
100
AcDbEntity
  8
0
100
AcDbBlockEnd
  0
BLOCK
  5
F3
330
F1
100
AcDbEntity
  8
0
100
AcDbBlockBegin
  2
Block_2
 70
     0
 10
0.0
 20
0.0
 30
0.0
  3
Block_2
  1

  0
INSERT
  5
F6
330
F1
100
AcDbEntity
  8
レイヤー 1
100
AcDbBlockReference
  2
Block_3
 10
0.0
 20
0.0
 30
0.0
  0
ENDBLK
  5
F4
330
F1
100
AcDbEntity
  8
0
100
AcDbBlockEnd
  0
BLOCK
  5
F7
330
F5
100
AcDbEntity
  8
0
100
AcDbBlockBegin
  2
Block_3
 70
     0
 10
0.0
 20
0.0
 30
0.0
  3
Block_3
  1

  0
SPLINE
  5
F9
330
F5
100
AcDbEntity
  8
レイヤー 1
100
AcDbSpline
210
0.0
220
0.0
230
1.0
 70
     9
 71
     3
 72
    44
 73
    40
 74
     0
 42
0.0000000001
 43
0.0000000001
 40
0.0
 40
0.0
 40
0.0
 40
0.0
 40
1.0
 40
1.0
 40
1.0
 40
2.0
 40
2.0
 40
2.0
 40
3.0
 40
3.0
 40
3.0
 40
4.0
 40
4.0
 40
4.0
 40
5.0
 40
5.0
 40
5.0
 40
6.0
 40
6.0
 40
6.0
 40
7.0
 40
7.0
 40
7.0
 40
8.0
 40
8.0
 40
8.0
 40
9.0
 40
9.0
 40
9.0
 40
10.0
 40
10.0
 40
10.0
 40
11.0
 40
11.0
 40
11.0
 40
12.0
 40
12.0
 40
12.0
 40
13.0
 40
13.0
 40
13.0
 40
13.0
 10
93.51780596620388
 20
-140.6000311605965
 30
0.0
 10
93.29990367676183
 20
-140.7586778076923
 30
0.0
 10
93.20671384388582
 20
-140.8327473606251
 30
0.0
 10
93.1581379975438
 20
-140.9765800971343
 30
0.0
 10
93.1581379975438
 20
-140.9765800971343
 30
0.0
 10
93.93655732243599
 20
-140.9765800971343
 30
0.0
 10
93.93655732243599
 20
-140.9765800971343
 30
0.0
 10
93.93655732243599
 20
-140.9765800971343
 30
0.0
 10
93.93655732243599
 20
-141.1817355332809
 30
0.0
 10
93.93655732243599
 20
-141.1817355332809
 30
0.0
 10
93.93655732243599
 20
-141.1817355332809
 30
0.0
 10
92.90854082963745
 20
-141.1817355332809
 30
0.0
 10
92.90854082963745
 20
-141.1817355332809
 30
0.0
 10
92.94023570810175
 20
-140.824134621912
 30
0.0
 10
93.00569252232149
 20
-140.7459309543968
 30
0.0
 10
93.39085419757243
 20
-140.4475856853742
 30
0.0
 10
93.6468247921265
 20
-140.2488036758753
 30
0.0
 10
93.71228160634624
 20
-140.1811075495901
 30
0.0
 10
93.71228160634624
 20
-140.0436482397287
 30
0.0
 10
93.71228160634624
 20
-139.9251369550361
 30
0.0
 10
93.64045136547877
 20
-139.793878817048
 30
0.0
 10
93.443736413271
 20
-139.793878817048
 30
0.0
 10
93.18345944936039
 20
-139.793878817048
 30
0.0
 10
93.17501896542152
 20
-140.0245279597855
 30
0.0
 10
93.17071259606496
 20
-140.1409721871869
 30
0.0
 10
93.17071259606496
 20
-140.1409721871869
 30
0.0
 10
92.94660913474947
 20
-140.1409721871869
 30
0.0
 10
92.94660913474947
 20
-140.1409721871869
 30
0.0
 10
92.95504961868832
 20
-140.0140204185555
 30
0.0
 10
92.96555715991834
 20
-139.9018825605106
 30
0.0
 10
93.04600013949892
 20
-139.783371275818
 30
0.0
 10
93.15589868547839
 20
-139.6226575714311
 30
0.0
 10
93.34210609645614
 20
-139.5887233809014
 30
0.0
 10
93.4585503238576
 20
-139.5887233809014
 30
0.0
 10
93.73570825564593
 20
-139.5887233809014
 30
0.0
 10
93.94293074908372
 20
-139.772863734588
 30
0.0
 10
93.94293074908372
 20
-140.0457152970198
 30
0.0
 10
93.94293074908372
 20
-140.2741251276919
 30
0.0
 10
93.82665877645655
 20
-140.3736883872156
 30
0.0
 10
93.51780596620388
 20
-140.6000311605965
 30
0.0
  0
HATCH
  5
FA
330
F5
100
AcDbEntity
  8
レイヤー 1
 62
    18
420
        0
440
 33554687
100
AcDbHatch
 10
0.0
 20
0.0
 30
0.0
210
0.0
220
0.0
230
1.0
  2
SOLID
 70
     1
 71
     1
 91
        1
 92
        1
 93
        1
 72
     4
 94
        3
 73
     0
 74
     0
 95
       44
 96
       40
 40
0.0
 40
0.0
 40
0.0
 40
0.0
 40
1.0
 40
1.0
 40
1.0
 40
2.0
 40
2.0
 40
2.0
 40
3.0
 40
3.0
 40
3.0
 40
4.0
 40
4.0
 40
4.0
 40
5.0
 40
5.0
 40
5.0
 40
6.0
 40
6.0
 40
6.0
 40
7.0
 40
7.0
 40
7.0
 40
8.0
 40
8.0
 40
8.0
 40
9.0
 40
9.0
 40
9.0
 40
10.0
 40
10.0
 40
10.0
 40
11.0
 40
11.0
 40
11.0
 40
12.0
 40
12.0
 40
12.0
 40
13.0
 40
13.0
 40
13.0
 40
13.0
 10
93.51780596620388
 20
-140.6000311605965
 10
93.29990367676183
 20
-140.7586778076923
 10
93.20671384388582
 20
-140.8327473606251
 10
93.1581379975438
 20
-140.9765800971343
 10
93.1581379975438
 20
-140.9765800971343
 10
93.93655732243599
 20
-140.9765800971343
 10
93.93655732243599
 20
-140.9765800971343
 10
93.93655732243599
 20
-140.9765800971343
 10
93.93655732243599
 20
-141.1817355332809
 10
93.93655732243599
 20
-141.1817355332809
 10
93.93655732243599
 20
-141.1817355332809
 10
92.90854082963745
 20
-141.1817355332809
 10
92.90854082963745
 20
-141.1817355332809
 10
92.94023570810175
 20
-140.824134621912
 10
93.00569252232149
 20
-140.7459309543968
 10
93.39085419757243
 20
-140.4475856853742
 10
93.6468247921265
 20
-140.2488036758753
 10
93.71228160634624
 20
-140.1811075495901
 10
93.71228160634624
 20
-140.0436482397287
 10
93.71228160634624
 20
-139.9251369550361
 10
93.64045136547877
 20
-139.793878817048
 10
93.443736413271
 20
-139.793878817048
 10
93.18345944936039
 20
-139.793878817048
 10
93.17501896542152
 20
-140.0245279597855
 10
93.17071259606496
 20
-140.1409721871869
 10
93.17071259606496
 20
-140.1409721871869
 10
92.94660913474947
 20
-140.1409721871869
 10
92.94660913474947
 20
-140.1409721871869
 10
92.95504961868832
 20
-140.0140204185555
 10
92.96555715991834
 20
-139.9018825605106
 10
93.04600013949892
 20
-139.783371275818
 10
93.15589868547839
 20
-139.6226575714311
 10
93.34210609645614
 20
-139.5887233809014
 10
93.4585503238576
 20
-139.5887233809014
 10
93.73570825564593
 20
-139.5887233809014
 10
93.94293074908372
 20
-139.772863734588
 10
93.94293074908372
 20
-140.0457152970198
 10
93.94293074908372
 20
-140.2741251276919
 10
93.82665877645655
 20
-140.3736883872156
 10
93.51780596620388
 20
-140.6000311605965
 97
        0
 97
        1
330
F9
 75
     2
 76
     1
 98
        1
 10
0.0
 20
0.0
450
        0
451
        0
460
0.0
461
0.0
452
        0
462
0.0
453
        0
470

  0
SPLINE
  5
FB
330
F5
100
AcDbEntity
  8
レイヤー 1
100
AcDbSpline
210
0.0
220
0.0
230
1.0
 70
    11
 71
     3
 72
    26
 73
    22
 74
     0
 42
0.0000000001
 43
0.0000000001
 40
0.0
 40
0.0
 40
0.0
 40
0.0
 40
1.0
 40
1.0
 40
1.0
 40
2.0
 40
2.0
 40
2.0
 40
3.0
 40
3.0
 40
3.0
 40
4.0
 40
4.0
 40
4.0
 40
5.0
 40
5.0
 40
5.0
 40
6.0
 40
6.0
 40
6.0
 40
7.0
 40
7.0
 40
7.0
 40
7.0
 10
94.55288490474719
 20
-141.1817355332809
 30
0.0
 10
94.55288490474719
 20
-141.1817355332809
 30
0.0
 10
94.55288490474719
 20
-140.0774101754841
 30
0.0
 10
94.55288490474719
 20
-140.0774101754841
 30
0.0
 10
94.55288490474719
 20
-140.0774101754841
 30
0.0
 10
94.22284475726026
 20
-140.0774101754841
 30
0.0
 10
94.22284475726026
 20
-140.0774101754841
 30
0.0
 10
94.22284475726026
 20
-140.0774101754841
 30
0.0
 10
94.22284475726026
 20
-139.9292710696184
 30
0.0
 10
94.22284475726026
 20
-139.9292710696184
 30
0.0
 10
94.55495196203834
 20
-139.9146294138061
 30
0.0
 10
94.60146075108921
 20
-139.7516763973537
 30
0.0
 10
94.63108857226236
 20
-139.6374714820177
 30
0.0
 10
94.63108857226236
 20
-139.6374714820177
 30
0.0
 10
94.77716062083697
 20
-139.6374714820177
 30
0.0
 10
94.77716062083697
 20
-139.6374714820177
 30
0.0
 10
94.77716062083697
 20
-139.6374714820177
 30
0.0
 10
94.77716062083697
 20
-141.1817355332809
 30
0.0
 10
94.77716062083697
 20
-141.1817355332809
 30
0.0
 10
94.77716062083697
 20
-141.1817355332809
 30
0.0
 10
94.55288490474719
 20
-141.1817355332809
 30
0.0
 10
94.55288490474719
 20
-141.1817355332809
 30
0.0
  0
HATCH
  5
FC
330
F5
100
AcDbEntity
  8
レイヤー 1
 62
    18
420
        0
440
 33554687
100
AcDbHatch
 10
0.0
 20
0.0
 30
0.0
210
0.0
220
0.0
230
1.0
  2
SOLID
 70
     1
 71
     1
 91
        1
 92
        1
 93
        1
 72
     4
 94
        3
 73
     0
 74
     0
 95
       26
 96
       22
 40
0.0
 40
0.0
 40
0.0
 40
0.0
 40
1.0
 40
1.0
 40
1.0
 40
2.0
 40
2.0
 40
2.0
 40
3.0
 40
3.0
 40
3.0
 40
4.0
 40
4.0
 40
4.0
 40
5.0
 40
5.0
 40
5.0
 40
6.0
 40
6.0
 40
6.0
 40
7.0
 40
7.0
 40
7.0
 40
7.0
 10
94.55288490474719
 20
-141.1817355332809
 10
94.55288490474719
 20
-141.1817355332809
 10
94.55288490474719
 20
-140.0774101754841
 10
94.55288490474719
 20
-140.0774101754841
 10
94.55288490474719
 20
-140.0774101754841
 10
94.22284475726026
 20
-140.0774101754841
 10
94.22284475726026
 20
-140.0774101754841
 10
94.22284475726026
 20
-140.0774101754841
 10
94.22284475726026
 20
-139.9292710696184
 10
94.22284475726026
 20
-139.9292710696184
 10
94.55495196203834
 20
-139.9146294138061
 10
94.60146075108921
 20
-139.7516763973537
 10
94.63108857226236
 20
-139.6374714820177
 10
94.63108857226236
 20
-139.6374714820177
 10
94.77716062083697
 20
-139.6374714820177
 10
94.77716062083697
 20
-139.6374714820177
 10
94.77716062083697
 20
-139.6374714820177
 10
94.77716062083697
 20
-141.1817355332809
 10
94.77716062083697
 20
-141.1817355332809
 10
94.77716062083697
 20
-141.1817355332809
 10
94.55288490474719
 20
-141.1817355332809
 10
94.55288490474719
 20
-141.1817355332809
 97
        0
 97
        1
330
FB
 75
     2
 76
     1
 98
        1
 10
0.0
 20
0.0
450
        0
451
        0
460
0.0
461
0.0
452
        0
462
0.0
453
        0
470

  0
ENDBLK
  5
F8
330
F5
100
AcDbEntity
  8
0
100
AcDbBlockEnd
  0
BLOCK
  5
101
330
FF
100
AcDbEntity
  8
0
100
AcDbBlockBegin
  2
Block_4
 70
     0
 10
0.0
 20
0.0
 30
0.0
  3
Block_4
  1

  0
SPLINE
  5
103
330
FF
100
AcDbEntity
  8
レイヤー 1
100
AcDbSpline
210
0.0
220
0.0
230
1.0
 70
     9
 71
     3
 72
    17
 73
    13
 74
     0
 42
0.0000000001
 43
0.0000000001
 40
0.0
 40
0.0
 40
0.0
 40
0.0
 40
1.0
 40
1.0
 40
1.0
 40
2.0
 40
2.0
 40
2.0
 40
3.0
 40
3.0
 40
3.0
 40
4.0
 40
4.0
 40
4.0
 40
4.0
 10
78.06689722440689
 20
-150.1338161517026
 30
0.0
 10
78.06689722440689
 20
-150.3959879181302
 30
0.0
 10
78.27842608720122
 20
-150.4338839684679
 30
0.0
 10
78.39469805982841
 20
-150.4338839684679
 30
0.0
 10
78.57022567480189
 20
-150.4338839684679
 30
0.0
 10
78.73317869125421
 20
-150.338799333075
 30
0.0
 10
78.73317869125421
 20
-150.1548312341627
 30
0.0
 10
78.73317869125421
 20
-150.0342528921789
 30
0.0
 10
78.67392304890791
 20
-149.8585530224312
 30
0.0
 10
78.3883246331807
 20
-149.8585530224312
 30
0.0
 10
78.16404891709094
 20
-149.8585530224312
 30
0.0
 10
78.06689722440689
 20
-149.9980793895838
 30
0.0
 10
78.06689722440689
 20
-150.1338161517026
 30
0.0
  0
SPLINE
  5
104
330
FF
100
AcDbEntity
  8
レイヤー 1
100
AcDbSpline
210
0.0
220
0.0
230
1.0
 70
     9
 71
     3
 72
    32
 73
    28
 74
     0
 42
0.0000000001
 43
0.0000000001
 40
0.0
 40
0.0
 40
0.0
 40
0.0
 40
1.0
 40
1.0
 40
1.0
 40
2.0
 40
2.0
 40
2.0
 40
3.0
 40
3.0
 40
3.0
 40
4.0
 40
4.0
 40
4.0
 40
5.0
 40
5.0
 40
5.0
 40
6.0
 40
6.0
 40
6.0
 40
7.0
 40
7.0
 40
7.0
 40
8.0
 40
8.0
 40
8.0
 40
9.0
 40
9.0
 40
9.0
 40
9.0
 10
78.92575952887968
 20
-150.1506971195804
 30
0.0
 10
78.92575952887968
 20
-150.6667724232708
 30
0.0
 10
78.37144366530298
 20
-150.6753851619839
 30
0.0
 10
78.15784774521748
 20
-150.6753851619839
 30
0.0
 10
77.92719860248
 20
-150.6753851619839
 30
0.0
 10
77.27986516080156
 20
-150.6560926272665
 30
0.0
 10
77.27986516080156
 20
-150.1124565596941
 30
0.0
 10
77.27986516080156
 20
-149.939168256786
 30
0.0
 10
77.34962834437787
 20
-149.6935329486877
 30
0.0
 10
77.68173554915596
 20
-149.65563689835
 30
0.0
 10
77.68173554915596
 20
-149.65563689835
 30
0.0
 10
77.68173554915596
 20
-149.8692328184354
 30
0.0
 10
77.68173554915596
 20
-149.8692328184354
 30
0.0
 10
77.62471921887507
 20
-149.8799126144397
 30
0.0
 10
77.47658011300933
 20
-149.911607492904
 30
0.0
 10
77.47658011300933
 20
-150.1145236169852
 30
0.0
 10
77.47658011300933
 20
-150.4066677141344
 30
0.0
 10
77.80455320320512
 20
-150.4466308217633
 30
0.0
 10
78.00970863935174
 20
-150.4593776750587
 30
0.0
 10
77.93150497183657
 20
-150.366360096957
 30
0.0
 10
77.87224932949027
 20
-150.2984917158976
 30
0.0
 10
77.87224932949027
 20
-150.1165906742764
 30
0.0
 10
77.87224932949027
 20
-149.9367566899463
 30
0.0
 10
77.98008081817859
 20
-149.6342773063414
 30
0.0
 10
78.38625757588954
 20
-149.6342773063414
 30
0.0
 10
78.70561792737222
 20
-149.6342773063414
 30
0.0
 10
78.92575952887968
 20
-149.8334038253888
 30
0.0
 10
78.92575952887968
 20
-150.1506971195804
 30
0.0
  0
HATCH
  5
105
330
FF
100
AcDbEntity
  8
レイヤー 1
 62
    18
420
        0
440
 33554687
100
AcDbHatch
 10
0.0
 20
0.0
 30
0.0
210
0.0
220
0.0
230
1.0
  2
SOLID
 70
     1
 71
     1
 91
        2
 92
        1
 93
        1
 72
     4
 94
        3
 73
     0
 74
     0
 95
       17
 96
       13
 40
0.0
 40
0.0
 40
0.0
 40
0.0
 40
1.0
 40
1.0
 40
1.0
 40
2.0
 40
2.0
 40
2.0
 40
3.0
 40
3.0
 40
3.0
 40
4.0
 40
4.0
 40
4.0
 40
4.0
 10
78.06689722440689
 20
-150.1338161517026
 10
78.06689722440689
 20
-150.3959879181302
 10
78.27842608720122
 20
-150.4338839684679
 10
78.39469805982841
 20
-150.4338839684679
 10
78.57022567480189
 20
-150.4338839684679
 10
78.73317869125421
 20
-150.338799333075
 10
78.73317869125421
 20
-150.1548312341627
 10
78.73317869125421
 20
-150.0342528921789
 10
78.67392304890791
 20
-149.8585530224312
 10
78.3883246331807
 20
-149.8585530224312
 10
78.16404891709094
 20
-149.8585530224312
 10
78.06689722440689
 20
-149.9980793895838
 10
78.06689722440689
 20
-150.1338161517026
 97
        0
 97
        1
330
103
 92
        1
 93
        1
 72
     4
 94
        3
 73
     0
 74
     0
 95
       32
 96
       28
 40
0.0
 40
0.0
 40
0.0
 40
0.0
 40
1.0
 40
1.0
 40
1.0
 40
2.0
 40
2.0
 40
2.0
 40
3.0
 40
3.0
 40
3.0
 40
4.0
 40
4.0
 40
4.0
 40
5.0
 40
5.0
 40
5.0
 40
6.0
 40
6.0
 40
6.0
 40
7.0
 40
7.0
 40
7.0
 40
8.0
 40
8.0
 40
8.0
 40
9.0
 40
9.0
 40
9.0
 40
9.0
 10
78.92575952887968
 20
-150.1506971195804
 10
78.92575952887968
 20
-150.6667724232708
 10
78.37144366530298
 20
-150.6753851619839
 10
78.15784774521748
 20
-150.6753851619839
 10
77.92719860248
 20
-150.6753851619839
 10
77.27986516080156
 20
-150.6560926272665
 10
77.27986516080156
 20
-150.1124565596941
 10
77.27986516080156
 20
-149.939168256786
 10
77.34962834437787
 20
-149.6935329486877
 10
77.68173554915596
 20
-149.65563689835
 10
77.68173554915596
 20
-149.65563689835
 10
77.68173554915596
 20
-149.8692328184354
 10
77.68173554915596
 20
-149.8692328184354
 10
77.62471921887507
 20
-149.8799126144397
 10
77.47658011300933
 20
-149.911607492904
 10
77.47658011300933
 20
-150.1145236169852
 10
77.47658011300933
 20
-150.4066677141344
 10
77.80455320320512
 20
-150.4466308217633
 10
78.00970863935174
 20
-150.4593776750587
 10
77.93150497183657
 20
-150.366360096957
 10
77.87224932949027
 20
-150.2984917158976
 10
77.87224932949027
 20
-150.1165906742764
 10
77.87224932949027
 20
-149.9367566899463
 10
77.98008081817859
 20
-149.6342773063414
 10
78.38625757588954
 20
-149.6342773063414
 10
78.70561792737222
 20
-149.6342773063414
 10
78.92575952887968
 20
-149.8334038253888
 10
78.92575952887968
 20
-150.1506971195804
 97
        0
 97
        1
330
104
 75
     2
 76
     1
 98
        1
 10
0.0
 20
0.0
450
        0
451
        0
460
0.0
461
0.0
452
        0
462
0.0
453
        0
470

  0
ENDBLK
  5
102
330
FF
100
AcDbEntity
  8
0
100
AcDbBlockEnd
  0
BLOCK
  5
10A
330
108
100
AcDbEntity
  8
0
100
AcDbBlockBegin
  2
Block_5
 70
     0
 10
0.0
 20
0.0
 30
0.0
  3
Block_5
  1

  0
INSERT
  5
10D
330
108
100
AcDbEntity
  8
レイヤー 1
100
AcDbBlockReference
  2
Block_6
 10
0.0
 20
0.0
 30
0.0
  0
ENDBLK
  5
10B
330
108
100
AcDbEntity
  8
0
100
AcDbBlockEnd
  0
BLOCK
  5
10E
330
10C
100
AcDbEntity
  8
0
100
AcDbBlockBegin
  2
Block_6
 70
     0
 10
0.0
 20
0.0
 30
0.0
  3
Block_6
  1

  0
SPLINE
  5
110
330
10C
100
AcDbEntity
  8
レイヤー 1
100
AcDbSpline
210
0.0
220
0.0
230
1.0
 70
     9
 71
     3
 72
    44
 73
    40
 74
     0
 42
0.0000000001
 43
0.0000000001
 40
0.0
 40
0.0
 40
0.0
 40
0.0
 40
1.0
 40
1.0
 40
1.0
 40
2.0
 40
2.0
 40
2.0
 40
3.0
 40
3.0
 40
3.0
 40
4.0
 40
4.0
 40
4.0
 40
5.0
 40
5.0
 40
5.0
 40
6.0
 40
6.0
 40
6.0
 40
7.0
 40
7.0
 40
7.0
 40
8.0
 40
8.0
 40
8.0
 40
9.0
 40
9.0
 40
9.0
 40
10.0
 40
10.0
 40
10.0
 40
11.0
 40
11.0
 40
11.0
 40
12.0
 40
12.0
 40
12.0
 40
13.0
 40
13.0
 40
13.0
 40
13.0
 10
122.6192165492063
 20
-140.6000311605965
 30
0.0
 10
122.4014865145385
 20
-140.7586778076923
 30
0.0
 10
122.3084689364368
 20
-140.8327473606251
 30
0.0
 10
122.2595485805462
 20
-140.9765800971343
 30
0.0
 10
122.2595485805462
 20
-140.9765800971343
 30
0.0
 10
123.0381401602127
 20
-140.9765800971343
 30
0.0
 10
123.0381401602127
 20
-140.9765800971343
 30
0.0
 10
123.0381401602127
 20
-140.9765800971343
 30
0.0
 10
123.0381401602127
 20
-141.1817355332809
 30
0.0
 10
123.0381401602127
 20
-141.1817355332809
 30
0.0
 10
123.0381401602127
 20
-141.1817355332809
 30
0.0
 10
122.0101236674141
 20
-141.1817355332809
 30
0.0
 10
122.0101236674141
 20
-141.1817355332809
 30
0.0
 10
122.0418185458784
 20
-140.824134621912
 30
0.0
 10
122.1072753600981
 20
-140.7459309543968
 30
0.0
 10
122.4924370353491
 20
-140.4475856853742
 30
0.0
 10
122.7484076299032
 20
-140.2488036758753
 30
0.0
 10
122.8138644441229
 20
-140.1811075495901
 30
0.0
 10
122.8138644441229
 20
-140.0436482397287
 30
0.0
 10
122.8138644441229
 20
-139.9251369550361
 30
0.0
 10
122.7418619484812
 20
-139.793878817048
 30
0.0
 10
122.5451469962734
 20
-139.793878817048
 30
0.0
 10
122.2850422871371
 20
-139.793878817048
 30
0.0
 10
122.2767740579725
 20
-140.0245279597855
 30
0.0
 10
122.2722954338416
 20
-140.1409721871869
 30
0.0
 10
122.2722954338416
 20
-140.1409721871869
 30
0.0
 10
122.0480197177518
 20
-140.1409721871869
 30
0.0
 10
122.0480197177518
 20
-140.1409721871869
 30
0.0
 10
122.056632456465
 20
-140.0140204185555
 30
0.0
 10
122.0673122524693
 20
-139.9018825605106
 30
0.0
 10
122.1475829772756
 20
-139.783371275818
 30
0.0
 10
122.2574815232551
 20
-139.6226575714311
 30
0.0
 10
122.4438611890071
 20
-139.5887233809014
 30
0.0
 10
122.55996090686
 20
-139.5887233809014
 30
0.0
 10
122.8372910934226
 20
-139.5887233809014
 30
0.0
 10
123.0446858416347
 20
-139.772863734588
 30
0.0
 10
123.0446858416347
 20
-140.0457152970198
 30
0.0
 10
123.0446858416347
 20
-140.2741251276919
 30
0.0
 10
122.9282416142332
 20
-140.3736883872156
 30
0.0
 10
122.6192165492063
 20
-140.6000311605965
 30
0.0
  0
HATCH
  5
111
330
10C
100
AcDbEntity
  8
レイヤー 1
 62
    18
420
        0
440
 33554687
100
AcDbHatch
 10
0.0
 20
0.0
 30
0.0
210
0.0
220
0.0
230
1.0
  2
SOLID
 70
     1
 71
     1
 91
        1
 92
        1
 93
        1
 72
     4
 94
        3
 73
     0
 74
     0
 95
       44
 96
       40
 40
0.0
 40
0.0
 40
0.0
 40
0.0
 40
1.0
 40
1.0
 40
1.0
 40
2.0
 40
2.0
 40
2.0
 40
3.0
 40
3.0
 40
3.0
 40
4.0
 40
4.0
 40
4.0
 40
5.0
 40
5.0
 40
5.0
 40
6.0
 40
6.0
 40
6.0
 40
7.0
 40
7.0
 40
7.0
 40
8.0
 40
8.0
 40
8.0
 40
9.0
 40
9.0
 40
9.0
 40
10.0
 40
10.0
 40
10.0
 40
11.0
 40
11.0
 40
11.0
 40
12.0
 40
12.0
 40
12.0
 40
13.0
 40
13.0
 40
13.0
 40
13.0
 10
122.6192165492063
 20
-140.6000311605965
 10
122.4014865145385
 20
-140.7586778076923
 10
122.3084689364368
 20
-140.8327473606251
 10
122.2595485805462
 20
-140.9765800971343
 10
122.2595485805462
 20
-140.9765800971343
 10
123.0381401602127
 20
-140.9765800971343
 10
123.0381401602127
 20
-140.9765800971343
 10
123.0381401602127
 20
-140.9765800971343
 10
123.0381401602127
 20
-141.1817355332809
 10
123.0381401602127
 20
-141.1817355332809
 10
123.0381401602127
 20
-141.1817355332809
 10
122.0101236674141
 20
-141.1817355332809
 10
122.0101236674141
 20
-141.1817355332809
 10
122.0418185458784
 20
-140.824134621912
 10
122.1072753600981
 20
-140.7459309543968
 10
122.4924370353491
 20
-140.4475856853742
 10
122.7484076299032
 20
-140.2488036758753
 10
122.8138644441229
 20
-140.1811075495901
 10
122.8138644441229
 20
-140.0436482397287
 10
122.8138644441229
 20
-139.9251369550361
 10
122.7418619484812
 20
-139.793878817048
 10
122.5451469962734
 20
-139.793878817048
 10
122.2850422871371
 20
-139.793878817048
 10
122.2767740579725
 20
-140.0245279597855
 10
122.2722954338416
 20
-140.1409721871869
 10
122.2722954338416
 20
-140.1409721871869
 10
122.0480197177518
 20
-140.1409721871869
 10
122.0480197177518
 20
-140.1409721871869
 10
122.056632456465
 20
-140.0140204185555
 10
122.0673122524693
 20
-139.9018825605106
 10
122.1475829772756
 20
-139.783371275818
 10
122.2574815232551
 20
-139.6226575714311
 10
122.4438611890071
 20
-139.5887233809014
 10
122.55996090686
 20
-139.5887233809014
 10
122.8372910934226
 20
-139.5887233809014
 10
123.0446858416347
 20
-139.772863734588
 10
123.0446858416347
 20
-140.0457152970198
 10
123.0446858416347
 20
-140.2741251276919
 10
122.9282416142332
 20
-140.3736883872156
 10
122.6192165492063
 20
-140.6000311605965
 97
        0
 97
        1
330
110
 75
     2
 76
     1
 98
        1
 10
0.0
 20
0.0
450
        0
451
        0
460
0.0
461
0.0
452
        0
462
0.0
453
        0
470

  0
SPLINE
  5
112
330
10C
100
AcDbEntity
  8
レイヤー 1
100
AcDbSpline
210
0.0
220
0.0
230
1.0
 70
    11
 71
     3
 72
    26
 73
    22
 74
     0
 42
0.0000000001
 43
0.0000000001
 40
0.0
 40
0.0
 40
0.0
 40
0.0
 40
1.0
 40
1.0
 40
1.0
 40
2.0
 40
2.0
 40
2.0
 40
3.0
 40
3.0
 40
3.0
 40
4.0
 40
4.0
 40
4.0
 40
5.0
 40
5.0
 40
5.0
 40
6.0
 40
6.0
 40
6.0
 40
7.0
 40
7.0
 40
7.0
 40
7.0
 10
123.6544677425239
 20
-141.1817355332809
 30
0.0
 10
123.6544677425239
 20
-141.1817355332809
 30
0.0
 10
123.6544677425239
 20
-140.0774101754841
 30
0.0
 10
123.6544677425239
 20
-140.0774101754841
 30
0.0
 10
123.6544677425239
 20
-140.0774101754841
 30
0.0
 10
123.3244275950369
 20
-140.0774101754841
 30
0.0
 10
123.3244275950369
 20
-140.0774101754841
 30
0.0
 10
123.3244275950369
 20
-140.0774101754841
 30
0.0
 10
123.3244275950369
 20
-139.9292710696184
 30
0.0
 10
123.3244275950369
 20
-139.9292710696184
 30
0.0
 10
123.656534799815
 20
-139.9146294138061
 30
0.0
 10
123.7030435888659
 20
-139.7516763973537
 30
0.0
 10
123.732671410039
 20
-139.6374714820177
 30
0.0
 10
123.732671410039
 20
-139.6374714820177
 30
0.0
 10
123.8787434586136
 20
-139.6374714820177
 30
0.0
 10
123.8787434586136
 20
-139.6374714820177
 30
0.0
 10
123.8787434586136
 20
-139.6374714820177
 30
0.0
 10
123.8787434586136
 20
-141.1817355332809
 30
0.0
 10
123.8787434586136
 20
-141.1817355332809
 30
0.0
 10
123.8787434586136
 20
-141.1817355332809
 30
0.0
 10
123.6544677425239
 20
-141.1817355332809
 30
0.0
 10
123.6544677425239
 20
-141.1817355332809
 30
0.0
  0
HATCH
  5
113
330
10C
100
AcDbEntity
  8
レイヤー 1
 62
    18
420
        0
440
 33554687
100
AcDbHatch
 10
0.0
 20
0.0
 30
0.0
210
0.0
220
0.0
230
1.0
  2
SOLID
 70
     1
 71
     1
 91
        1
 92
        1
 93
        1
 72
     4
 94
        3
 73
     0
 74
     0
 95
       26
 96
       22
 40
0.0
 40
0.0
 40
0.0
 40
0.0
 40
1.0
 40
1.0
 40
1.0
 40
2.0
 40
2.0
 40
2.0
 40
3.0
 40
3.0
 40
3.0
 40
4.0
 40
4.0
 40
4.0
 40
5.0
 40
5.0
 40
5.0
 40
6.0
 40
6.0
 40
6.0
 40
7.0
 40
7.0
 40
7.0
 40
7.0
 10
123.6544677425239
 20
-141.1817355332809
 10
123.6544677425239
 20
-141.1817355332809
 10
123.6544677425239
 20
-140.0774101754841
 10
123.6544677425239
 20
-140.0774101754841
 10
123.6544677425239
 20
-140.0774101754841
 10
123.3244275950369
 20
-140.0774101754841
 10
123.3244275950369
 20
-140.0774101754841
 10
123.3244275950369
 20
-140.0774101754841
 10
123.3244275950369
 20
-139.9292710696184
 10
123.3244275950369
 20
-139.9292710696184
 10
123.656534799815
 20
-139.9146294138061
 10
123.7030435888659
 20
-139.7516763973537
 10
123.732671410039
 20
-139.6374714820177
 10
123.732671410039
 20
-139.6374714820177
 10
123.8787434586136
 20
-139.6374714820177
 10
123.8787434586136
 20
-139.6374714820177
 10
123.8787434586136
 20
-139.6374714820177
 10
123.8787434586136
 20
-141.1817355332809
 10
123.8787434586136
 20
-141.1817355332809
 10
123.8787434586136
 20
-141.1817355332809
 10
123.6544677425239
 20
-141.1817355332809
 10
123.6544677425239
 20
-141.1817355332809
 97
        0
 97
        1
330
112
 75
     2
 76
     1
 98
        1
 10
0.0
 20
0.0
450
        0
451
        0
460
0.0
461
0.0
452
        0
462
0.0
453
        0
470

  0
ENDBLK
  5
10F
330
10C
100
AcDbEntity
  8
0
100
AcDbBlockEnd
  0
BLOCK
  5
119
330
117
100
AcDbEntity
  8
0
100
AcDbBlockBegin
  2
Block_7
 70
     0
 10
0.0
 20
0.0
 30
0.0
  3
Block_7
  1

  0
SPLINE
  5
11B
330
117
100
AcDbEntity
  8
レイヤー 1
100
AcDbSpline
210
0.0
220
0.0
230
1.0
 70
     9
 71
     3
 72
    17
 73
    13
 74
     0
 42
0.0000000001
 43
0.0000000001
 40
0.0
 40
0.0
 40
0.0
 40
0.0
 40
1.0
 40
1.0
 40
1.0
 40
2.0
 40
2.0
 40
2.0
 40
3.0
 40
3.0
 40
3.0
 40
4.0
 40
4.0
 40
4.0
 40
4.0
 10
108.5900987141719
 20
-139.7809597089783
 30
0.0
 10
108.4250786404284
 20
-139.7809597089783
 30
0.0
 10
108.3406738010398
 20
-139.8760443443713
 30
0.0
 10
108.3406738010398
 20
-140.0114365969416
 30
0.0
 10
108.3406738010398
 20
-140.1342542509907
 30
0.0
 10
108.412331787133
 20
-140.2527655356833
 30
0.0
 10
108.5900987141719
 20
-140.2527655356833
 30
0.0
 10
108.7678656412108
 20
-140.2527655356833
 30
0.0
 10
108.8398681368525
 20
-140.1342542509907
 30
0.0
 10
108.8398681368525
 20
-140.0114365969416
 30
0.0
 10
108.8398681368525
 20
-139.8760443443713
 30
0.0
 10
108.7530517306242
 20
-139.7809597089783
 30
0.0
 10
108.5900987141719
 20
-139.7809597089783
 30
0.0
  0
SPLINE
  5
11C
330
117
100
AcDbEntity
  8
レイヤー 1
100
AcDbSpline
210
0.0
220
0.0
230
1.0
 70
     9
 71
     3
 72
    17
 73
    13
 74
     0
 42
0.0000000001
 43
0.0000000001
 40
0.0
 40
0.0
 40
0.0
 40
0.0
 40
1.0
 40
1.0
 40
1.0
 40
2.0
 40
2.0
 40
2.0
 40
3.0
 40
3.0
 40
3.0
 40
4.0
 40
4.0
 40
4.0
 40
4.0
 10
108.5900987141719
 20
-140.4410400039522
 30
0.0
 10
108.446438232437
 20
-140.4410400039522
 30
0.0
 10
108.2938205024404
 20
-140.5276841554063
 30
0.0
 10
108.2938205024404
 20
-140.7307725342617
 30
0.0
 10
108.2938205024404
 20
-140.9359279704084
 30
0.0
 10
108.4209445258461
 20
-141.0375582872232
 30
0.0
 10
108.5900987141719
 20
-141.0375582872232
 30
0.0
 10
108.7761338703754
 20
-141.0375582872232
 30
0.0
 10
108.8863769259034
 20
-140.9149128879484
 30
0.0
 10
108.8863769259034
 20
-140.7371459609094
 30
0.0
 10
108.8863769259034
 20
-140.5149373021108
 30
0.0
 10
108.7234239094511
 20
-140.4410400039522
 30
0.0
 10
108.5900987141719
 20
-140.4410400039522
 30
0.0
  0
SPLINE
  5
11D
330
117
100
AcDbEntity
  8
レイヤー 1
100
AcDbSpline
210
0.0
220
0.0
230
1.0
 70
     9
 71
     3
 72
    29
 73
    25
 74
     0
 42
0.0000000001
 43
0.0000000001
 40
0.0
 40
0.0
 40
0.0
 40
0.0
 40
1.0
 40
1.0
 40
1.0
 40
2.0
 40
2.0
 40
2.0
 40
3.0
 40
3.0
 40
3.0
 40
4.0
 40
4.0
 40
4.0
 40
5.0
 40
5.0
 40
5.0
 40
6.0
 40
6.0
 40
6.0
 40
7.0
 40
7.0
 40
7.0
 40
8.0
 40
8.0
 40
8.0
 40
8.0
 10
108.5900987141719
 20
-141.2322061821399
 30
0.0
 10
108.3234483236136
 20
-141.2322061821399
 30
0.0
 10
108.0698892958992
 20
-141.0945746175041
 30
0.0
 10
108.0698892958992
 20
-140.7455864448483
 30
0.0
 10
108.0698892958992
 20
-140.4896158502942
 30
0.0
 10
108.2114827203429
 20
-140.3943589601271
 30
0.0
 10
108.3172471517401
 20
-140.3330362604896
 30
0.0
 10
108.1925346951741
 20
-140.2737806181433
 30
0.0
 10
108.1163980849501
 20
-140.1595757028073
 30
0.0
 10
108.1163980849501
 20
-139.9988619984204
 30
0.0
 10
108.1163980849501
 20
-139.7237711239232
 30
0.0
 10
108.315180094449
 20
-139.5883788713529
 30
0.0
 10
108.5900987141719
 20
-139.5883788713529
 30
0.0
 10
108.8736300726079
 20
-139.5883788713529
 30
0.0
 10
109.0641438529423
 20
-139.7322116078621
 30
0.0
 10
109.0641438529423
 20
-139.9988619984204
 30
0.0
 10
109.0641438529423
 20
-140.1595757028073
 30
0.0
 10
108.9855956758786
 20
-140.2737806181433
 30
0.0
 10
108.8608832193125
 20
-140.3330362604896
 30
0.0
 10
108.949766682832
 20
-140.3838514188971
 30
0.0
 10
109.108585584702
 20
-140.4791083090642
 30
0.0
 10
109.108585584702
 20
-140.741452330266
 30
0.0
 10
109.108585584702
 20
-141.1157619547384
 30
0.0
 10
108.8291883408482
 20
-141.2322061821399
 30
0.0
 10
108.5900987141719
 20
-141.2322061821399
 30
0.0
  0
HATCH
  5
11E
330
117
100
AcDbEntity
  8
レイヤー 1
 62
    18
420
        0
440
 33554687
100
AcDbHatch
 10
0.0
 20
0.0
 30
0.0
210
0.0
220
0.0
230
1.0
  2
SOLID
 70
     1
 71
     1
 91
        3
 92
        1
 93
        1
 72
     4
 94
        3
 73
     0
 74
     0
 95
       17
 96
       13
 40
0.0
 40
0.0
 40
0.0
 40
0.0
 40
1.0
 40
1.0
 40
1.0
 40
2.0
 40
2.0
 40
2.0
 40
3.0
 40
3.0
 40
3.0
 40
4.0
 40
4.0
 40
4.0
 40
4.0
 10
108.5900987141719
 20
-139.7809597089783
 10
108.4250786404284
 20
-139.7809597089783
 10
108.3406738010398
 20
-139.8760443443713
 10
108.3406738010398
 20
-140.0114365969416
 10
108.3406738010398
 20
-140.1342542509907
 10
108.412331787133
 20
-140.2527655356833
 10
108.5900987141719
 20
-140.2527655356833
 10
108.7678656412108
 20
-140.2527655356833
 10
108.8398681368525
 20
-140.1342542509907
 10
108.8398681368525
 20
-140.0114365969416
 10
108.8398681368525
 20
-139.8760443443713
 10
108.7530517306242
 20
-139.7809597089783
 10
108.5900987141719
 20
-139.7809597089783
 97
        0
 97
        1
330
11B
 92
        1
 93
        1
 72
     4
 94
        3
 73
     0
 74
     0
 95
       17
 96
       13
 40
0.0
 40
0.0
 40
0.0
 40
0.0
 40
1.0
 40
1.0
 40
1.0
 40
2.0
 40
2.0
 40
2.0
 40
3.0
 40
3.0
 40
3.0
 40
4.0
 40
4.0
 40
4.0
 40
4.0
 10
108.5900987141719
 20
-140.4410400039522
 10
108.446438232437
 20
-140.4410400039522
 10
108.2938205024404
 20
-140.5276841554063
 10
108.2938205024404
 20
-140.7307725342617
 10
108.2938205024404
 20
-140.9359279704084
 10
108.4209445258461
 20
-141.0375582872232
 10
108.5900987141719
 20
-141.0375582872232
 10
108.7761338703754
 20
-141.0375582872232
 10
108.8863769259034
 20
-140.9149128879484
 10
108.8863769259034
 20
-140.7371459609094
 10
108.8863769259034
 20
-140.5149373021108
 10
108.7234239094511
 20
-140.4410400039522
 10
108.5900987141719
 20
-140.4410400039522
 97
        0
 97
        1
330
11C
 92
        1
 93
        1
 72
     4
 94
        3
 73
     0
 74
     0
 95
       29
 96
       25
 40
0.0
 40
0.0
 40
0.0
 40
0.0
 40
1.0
 40
1.0
 40
1.0
 40
2.0
 40
2.0
 40
2.0
 40
3.0
 40
3.0
 40
3.0
 40
4.0
 40
4.0
 40
4.0
 40
5.0
 40
5.0
 40
5.0
 40
6.0
 40
6.0
 40
6.0
 40
7.0
 40
7.0
 40
7.0
 40
8.0
 40
8.0
 40
8.0
 40
8.0
 10
108.5900987141719
 20
-141.2322061821399
 10
108.3234483236136
 20
-141.2322061821399
 10
108.0698892958992
 20
-141.0945746175041
 10
108.0698892958992
 20
-140.7455864448483
 10
108.0698892958992
 20
-140.4896158502942
 10
108.2114827203429
 20
-140.3943589601271
 10
108.3172471517401
 20
-140.3330362604896
 10
108.1925346951741
 20
-140.2737806181433
 10
108.1163980849501
 20
-140.1595757028073
 10
108.1163980849501
 20
-139.9988619984204
 10
108.1163980849501
 20
-139.7237711239232
 10
108.315180094449
 20
-139.5883788713529
 10
108.5900987141719
 20
-139.5883788713529
 10
108.8736300726079
 20
-139.5883788713529
 10
109.0641438529423
 20
-139.7322116078621
 10
109.0641438529423
 20
-139.9988619984204
 10
109.0641438529423
 20
-140.1595757028073
 10
108.9855956758786
 20
-140.2737806181433
 10
108.8608832193125
 20
-140.3330362604896
 10
108.949766682832
 20
-140.3838514188971
 10
109.108585584702
 20
-140.4791083090642
 10
109.108585584702
 20
-140.741452330266
 10
109.108585584702
 20
-141.1157619547384
 10
108.8291883408482
 20
-141.2322061821399
 10
108.5900987141719
 20
-141.2322061821399
 97
        0
 97
        1
330
11D
 75
     2
 76
     1
 98
        1
 10
0.0
 20
0.0
450
        0
451
        0
460
0.0
461
0.0
452
        0
462
0.0
453
        0
470

  0
ENDBLK
  5
11A
330
117
100
AcDbEntity
  8
0
100
AcDbBlockEnd
  0
BLOCK
  5
126
330
124
100
AcDbEntity
  8
0
100
AcDbBlockBegin
  2
Block_8
 70
     0
 10
0.0
 20
0.0
 30
0.0
  3
Block_8
  1

  0
INSERT
  5
129
330
124
100
AcDbEntity
  8
レイヤー 1
100
AcDbBlockReference
  2
Block_9
 10
0.0
 20
0.0
 30
0.0
  0
ENDBLK
  5
127
330
124
100
AcDbEntity
  8
0
100
AcDbBlockEnd
  0
BLOCK
  5
12A
330
128
100
AcDbEntity
  8
0
100
AcDbBlockBegin
  2
Block_9
 70
     0
 10
0.0
 20
0.0
 30
0.0
  3
Block_9
  1

  0
SPLINE
  5
12C
330
128
100
AcDbEntity
  8
レイヤー 1
100
AcDbSpline
210
0.0
220
0.0
230
1.0
 70
    11
 71
     3
 72
    26
 73
    22
 74
     0
 42
0.0000000001
 43
0.0000000001
 40
0.0
 40
0.0
 40
0.0
 40
0.0
 40
1.0
 40
1.0
 40
1.0
 40
2.0
 40
2.0
 40
2.0
 40
3.0
 40
3.0
 40
3.0
 40
4.0
 40
4.0
 40
4.0
 40
5.0
 40
5.0
 40
5.0
 40
6.0
 40
6.0
 40
6.0
 40
7.0
 40
7.0
 40
7.0
 40
7.0
 10
108.2011474338872
 20
-156.5575411934995
 30
0.0
 10
108.2011474338872
 20
-156.5575411934995
 30
0.0
 10
108.2011474338872
 20
-155.4533880904769
 30
0.0
 10
108.2011474338872
 20
-155.4533880904769
 30
0.0
 10
108.2011474338872
 20
-155.4533880904769
 30
0.0
 10
107.8711072864003
 20
-155.4533880904769
 30
0.0
 10
107.8711072864003
 20
-155.4533880904769
 30
0.0
 10
107.8711072864003
 20
-155.4533880904769
 30
0.0
 10
107.8711072864003
 20
-155.3052489846112
 30
0.0
 10
107.8711072864003
 20
-155.3052489846112
 30
0.0
 10
108.2032144911784
 20
-155.2904350740246
 30
0.0
 10
108.2497232802292
 20
-155.1274820575723
 30
0.0
 10
108.2793511014024
 20
-155.013104887462
 30
0.0
 10
108.2793511014024
 20
-155.013104887462
 30
0.0
 10
108.425423149977
 20
-155.013104887462
 30
0.0
 10
108.425423149977
 20
-155.013104887462
 30
0.0
 10
108.425423149977
 20
-155.013104887462
 30
0.0
 10
108.425423149977
 20
-156.5575411934995
 30
0.0
 10
108.425423149977
 20
-156.5575411934995
 30
0.0
 10
108.425423149977
 20
-156.5575411934995
 30
0.0
 10
108.2011474338872
 20
-156.5575411934995
 30
0.0
 10
108.2011474338872
 20
-156.5575411934995
 30
0.0
  0
HATCH
  5
12D
330
128
100
AcDbEntity
  8
レイヤー 1
 62
    18
420
        0
440
 33554687
100
AcDbHatch
 10
0.0
 20
0.0
 30
0.0
210
0.0
220
0.0
230
1.0
  2
SOLID
 70
     1
 71
     1
 91
        1
 92
        1
 93
        1
 72
     4
 94
        3
 73
     0
 74
     0
 95
       26
 96
       22
 40
0.0
 40
0.0
 40
0.0
 40
0.0
 40
1.0
 40
1.0
 40
1.0
 40
2.0
 40
2.0
 40
2.0
 40
3.0
 40
3.0
 40
3.0
 40
4.0
 40
4.0
 40
4.0
 40
5.0
 40
5.0
 40
5.0
 40
6.0
 40
6.0
 40
6.0
 40
7.0
 40
7.0
 40
7.0
 40
7.0
 10
108.2011474338872
 20
-156.5575411934995
 10
108.2011474338872
 20
-156.5575411934995
 10
108.2011474338872
 20
-155.4533880904769
 10
108.2011474338872
 20
-155.4533880904769
 10
108.2011474338872
 20
-155.4533880904769
 10
107.8711072864003
 20
-155.4533880904769
 10
107.8711072864003
 20
-155.4533880904769
 10
107.8711072864003
 20
-155.4533880904769
 10
107.8711072864003
 20
-155.3052489846112
 10
107.8711072864003
 20
-155.3052489846112
 10
108.2032144911784
 20
-155.2904350740246
 10
108.2497232802292
 20
-155.1274820575723
 10
108.2793511014024
 20
-155.013104887462
 10
108.2793511014024
 20
-155.013104887462
 10
108.425423149977
 20
-155.013104887462
 10
108.425423149977
 20
-155.013104887462
 10
108.425423149977
 20
-155.013104887462
 10
108.425423149977
 20
-156.5575411934995
 10
108.425423149977
 20
-156.5575411934995
 10
108.425423149977
 20
-156.5575411934995
 10
108.2011474338872
 20
-156.5575411934995
 10
108.2011474338872
 20
-156.5575411934995
 97
        0
 97
        1
330
12C
 75
     2
 76
     1
 98
        1
 10
0.0
 20
0.0
450
        0
451
        0
460
0.0
461
0.0
452
        0
462
0.0
453
        0
470

  0
SPLINE
  5
12E
330
128
100
AcDbEntity
  8
レイヤー 1
100
AcDbSpline
210
0.0
220
0.0
230
1.0
 70
     9
 71
     3
 72
    17
 73
    13
 74
     0
 42
0.0000000001
 43
0.0000000001
 40
0.0
 40
0.0
 40
0.0
 40
0.0
 40
1.0
 40
1.0
 40
1.0
 40
2.0
 40
2.0
 40
2.0
 40
3.0
 40
3.0
 40
3.0
 40
4.0
 40
4.0
 40
4.0
 40
4.0
 10
109.4265678979906
 20
-155.1571098787454
 30
0.0
 10
109.1767984753099
 20
-155.1571098787454
 30
0.0
 10
109.1302896862591
 20
-155.4406412371815
 30
0.0
 10
109.1302896862591
 20
-155.785495295255
 30
0.0
 10
109.1302896862591
 20
-156.1048556467377
 30
0.0
 10
109.1664631888542
 20
-156.413536202216
 30
0.0
 10
109.4265678979906
 20
-156.413536202216
 30
0.0
 10
109.67427026338
 20
-156.413536202216
 30
0.0
 10
109.722846109722
 20
-156.1324164106197
 30
0.0
 10
109.722846109722
 20
-155.785495295255
 30
0.0
 10
109.722846109722
 20
-155.4657904342238
 30
0.0
 10
109.6846055498358
 20
-155.1571098787454
 30
0.0
 10
109.4265678979906
 20
-155.1571098787454
 30
0.0
  0
SPLINE
  5
12F
330
128
100
AcDbEntity
  8
レイヤー 1
100
AcDbSpline
210
0.0
220
0.0
230
1.0
 70
     9
 71
     3
 72
    29
 73
    25
 74
     0
 42
0.0000000001
 43
0.0000000001
 40
0.0
 40
0.0
 40
0.0
 40
0.0
 40
1.0
 40
1.0
 40
1.0
 40
2.0
 40
2.0
 40
2.0
 40
3.0
 40
3.0
 40
3.0
 40
4.0
 40
4.0
 40
4.0
 40
5.0
 40
5.0
 40
5.0
 40
6.0
 40
6.0
 40
6.0
 40
7.0
 40
7.0
 40
7.0
 40
8.0
 40
8.0
 40
8.0
 40
8.0
 10
109.8244764265369
 20
-156.3797742664606
 30
0.0
 10
109.7163004283001
 20
-156.5892360719638
 30
0.0
 10
109.543012125392
 20
-156.6081840971327
 30
0.0
 10
109.4265678979906
 20
-156.6081840971327
 30
0.0
 10
109.2656819388294
 20
-156.6081840971327
 30
0.0
 10
109.1240885143856
 20
-156.5616753080818
 30
0.0
 10
109.0290038789927
 20
-156.3797742664606
 30
0.0
 10
108.9253065048867
 20
-156.185126371544
 30
0.0
 10
108.9060139701693
 20
-155.9481038021588
 30
0.0
 10
108.9060139701693
 20
-155.785495295255
 30
0.0
 10
108.9060139701693
 20
-155.6414903039716
 30
0.0
 10
108.9232394475956
 20
-155.3896538239998
 30
0.0
 10
109.0290038789927
 20
-155.1908718145009
 30
0.0
 10
109.1368353676811
 20
-154.9879556904197
 30
0.0
 10
109.2977213268422
 20
-154.96452904112
 30
0.0
 10
109.4265678979906
 20
-154.96452904112
 30
0.0
 10
109.5853867998606
 20
-154.96452904112
 30
0.0
 10
109.7290472815955
 20
-155.0089707728797
 30
0.0
 10
109.8244764265369
 20
-155.1908718145009
 30
0.0
 10
109.9236951765121
 20
-155.3834526521264
 30
0.0
 10
109.9471218258118
 20
-155.6118624827984
 30
0.0
 10
109.9471218258118
 20
-155.785495295255
 30
0.0
 10
109.9471218258118
 20
-155.9567165408719
 30
0.0
 10
109.9257622338033
 20
-156.1871934288351
 30
0.0
 10
109.8244764265369
 20
-156.3797742664606
 30
0.0
  0
HATCH
  5
130
330
128
100
AcDbEntity
  8
レイヤー 1
 62
    18
420
        0
440
 33554687
100
AcDbHatch
 10
0.0
 20
0.0
 30
0.0
210
0.0
220
0.0
230
1.0
  2
SOLID
 70
     1
 71
     1
 91
        2
 92
        1
 93
        1
 72
     4
 94
        3
 73
     0
 74
     0
 95
       17
 96
       13
 40
0.0
 40
0.0
 40
0.0
 40
0.0
 40
1.0
 40
1.0
 40
1.0
 40
2.0
 40
2.0
 40
2.0
 40
3.0
 40
3.0
 40
3.0
 40
4.0
 40
4.0
 40
4.0
 40
4.0
 10
109.4265678979906
 20
-155.1571098787454
 10
109.1767984753099
 20
-155.1571098787454
 10
109.1302896862591
 20
-155.4406412371815
 10
109.1302896862591
 20
-155.785495295255
 10
109.1302896862591
 20
-156.1048556467377
 10
109.1664631888542
 20
-156.413536202216
 10
109.4265678979906
 20
-156.413536202216
 10
109.67427026338
 20
-156.413536202216
 10
109.722846109722
 20
-156.1324164106197
 10
109.722846109722
 20
-155.785495295255
 10
109.722846109722
 20
-155.4657904342238
 10
109.6846055498358
 20
-155.1571098787454
 10
109.4265678979906
 20
-155.1571098787454
 97
        0
 97
        1
330
12E
 92
        1
 93
        1
 72
     4
 94
        3
 73
     0
 74
     0
 95
       29
 96
       25
 40
0.0
 40
0.0
 40
0.0
 40
0.0
 40
1.0
 40
1.0
 40
1.0
 40
2.0
 40
2.0
 40
2.0
 40
3.0
 40
3.0
 40
3.0
 40
4.0
 40
4.0
 40
4.0
 40
5.0
 40
5.0
 40
5.0
 40
6.0
 40
6.0
 40
6.0
 40
7.0
 40
7.0
 40
7.0
 40
8.0
 40
8.0
 40
8.0
 40
8.0
 10
109.8244764265369
 20
-156.3797742664606
 10
109.7163004283001
 20
-156.5892360719638
 10
109.543012125392
 20
-156.6081840971327
 10
109.4265678979906
 20
-156.6081840971327
 10
109.2656819388294
 20
-156.6081840971327
 10
109.1240885143856
 20
-156.5616753080818
 10
109.0290038789927
 20
-156.3797742664606
 10
108.9253065048867
 20
-156.185126371544
 10
108.9060139701693
 20
-155.9481038021588
 10
108.9060139701693
 20
-155.785495295255
 10
108.9060139701693
 20
-155.6414903039716
 10
108.9232394475956
 20
-155.3896538239998
 10
109.0290038789927
 20
-155.1908718145009
 10
109.1368353676811
 20
-154.9879556904197
 10
109.2977213268422
 20
-154.96452904112
 10
109.4265678979906
 20
-154.96452904112
 10
109.5853867998606
 20
-154.96452904112
 10
109.7290472815955
 20
-155.0089707728797
 10
109.8244764265369
 20
-155.1908718145009
 10
109.9236951765121
 20
-155.3834526521264
 10
109.9471218258118
 20
-155.6118624827984
 10
109.9471218258118
 20
-155.785495295255
 10
109.9471218258118
 20
-155.9567165408719
 10
109.9257622338033
 20
-156.1871934288351
 10
109.8244764265369
 20
-156.3797742664606
 97
        0
 97
        1
330
12F
 75
     2
 76
     1
 98
        1
 10
0.0
 20
0.0
450
        0
451
        0
460
0.0
461
0.0
452
        0
462
0.0
453
        0
470

  0
ENDBLK
  5
12B
330
128
100
AcDbEntity
  8
0
100
AcDbBlockEnd
  0
BLOCK
  5
134
330
132
100
AcDbEntity
  8
0
100
AcDbBlockBegin
  2
Block_10
 70
     0
 10
0.0
 20
0.0
 30
0.0
  3
Block_10
  1

  0
SPLINE
  5
136
330
132
100
AcDbEntity
  8
レイヤー 1
100
AcDbSpline
210
0.0
220
0.0
230
1.0
 70
    11
 71
     3
 72
    26
 73
    22
 74
     0
 42
0.0000000001
 43
0.0000000001
 40
0.0
 40
0.0
 40
0.0
 40
0.0
 40
1.0
 40
1.0
 40
1.0
 40
2.0
 40
2.0
 40
2.0
 40
3.0
 40
3.0
 40
3.0
 40
4.0
 40
4.0
 40
4.0
 40
5.0
 40
5.0
 40
5.0
 40
6.0
 40
6.0
 40
6.0
 40
7.0
 40
7.0
 40
7.0
 40
7.0
 10
115.5216308304946
 20
-149.5347140468177
 30
0.0
 10
115.5216308304946
 20
-149.5347140468177
 30
0.0
 10
115.5216308304946
 20
-148.4305609437951
 30
0.0
 10
115.5216308304946
 20
-148.4305609437951
 30
0.0
 10
115.5216308304946
 20
-148.4305609437951
 30
0.0
 10
115.1915906830076
 20
-148.4305609437951
 30
0.0
 10
115.1915906830076
 20
-148.4305609437951
 30
0.0
 10
115.1915906830076
 20
-148.4305609437951
 30
0.0
 10
115.1915906830076
 20
-148.2824218379294
 30
0.0
 10
115.1915906830076
 20
-148.2824218379294
 30
0.0
 10
115.5236978877857
 20
-148.2677801821171
 30
0.0
 10
115.5702066768366
 20
-148.1048271656647
 30
0.0
 10
115.5998344980097
 20
-147.9906222503287
 30
0.0
 10
115.5998344980097
 20
-147.9906222503287
 30
0.0
 10
115.7459065465843
 20
-147.9906222503287
 30
0.0
 10
115.7459065465843
 20
-147.9906222503287
 30
0.0
 10
115.7459065465843
 20
-147.9906222503287
 30
0.0
 10
115.7459065465843
 20
-149.5347140468177
 30
0.0
 10
115.7459065465843
 20
-149.5347140468177
 30
0.0
 10
115.7459065465843
 20
-149.5347140468177
 30
0.0
 10
115.5216308304946
 20
-149.5347140468177
 30
0.0
 10
115.5216308304946
 20
-149.5347140468177
 30
0.0
  0
HATCH
  5
137
330
132
100
AcDbEntity
  8
レイヤー 1
 62
    18
420
        0
440
 33554687
100
AcDbHatch
 10
0.0
 20
0.0
 30
0.0
210
0.0
220
0.0
230
1.0
  2
SOLID
 70
     1
 71
     1
 91
        1
 92
        1
 93
        1
 72
     4
 94
        3
 73
     0
 74
     0
 95
       26
 96
       22
 40
0.0
 40
0.0
 40
0.0
 40
0.0
 40
1.0
 40
1.0
 40
1.0
 40
2.0
 40
2.0
 40
2.0
 40
3.0
 40
3.0
 40
3.0
 40
4.0
 40
4.0
 40
4.0
 40
5.0
 40
5.0
 40
5.0
 40
6.0
 40
6.0
 40
6.0
 40
7.0
 40
7.0
 40
7.0
 40
7.0
 10
115.5216308304946
 20
-149.5347140468177
 10
115.5216308304946
 20
-149.5347140468177
 10
115.5216308304946
 20
-148.4305609437951
 10
115.5216308304946
 20
-148.4305609437951
 10
115.5216308304946
 20
-148.4305609437951
 10
115.1915906830076
 20
-148.4305609437951
 10
115.1915906830076
 20
-148.4305609437951
 10
115.1915906830076
 20
-148.4305609437951
 10
115.1915906830076
 20
-148.2824218379294
 10
115.1915906830076
 20
-148.2824218379294
 10
115.5236978877857
 20
-148.2677801821171
 10
115.5702066768366
 20
-148.1048271656647
 10
115.5998344980097
 20
-147.9906222503287
 10
115.5998344980097
 20
-147.9906222503287
 10
115.7459065465843
 20
-147.9906222503287
 10
115.7459065465843
 20
-147.9906222503287
 10
115.7459065465843
 20
-147.9906222503287
 10
115.7459065465843
 20
-149.5347140468177
 10
115.7459065465843
 20
-149.5347140468177
 10
115.7459065465843
 20
-149.5347140468177
 10
115.5216308304946
 20
-149.5347140468177
 10
115.5216308304946
 20
-149.5347140468177
 97
        0
 97
        1
330
136
 75
     2
 76
     1
 98
        1
 10
0.0
 20
0.0
450
        0
451
        0
460
0.0
461
0.0
452
        0
462
0.0
453
        0
470

  0
ENDBLK
  5
135
330
132
100
AcDbEntity
  8
0
100
AcDbBlockEnd
  0
BLOCK
  5
13A
330
138
100
AcDbEntity
  8
0
100
AcDbBlockBegin
  2
Block_11
 70
     0
 10
0.0
 20
0.0
 30
0.0
  3
Block_11
  1

  0
LWPOLYLINE
  5
13C
330
138
100
AcDbEntity
  8
レイヤー 1
 62
   250
420
  2299925
370
     9
100
AcDbPolyline
 90
        4
 70
     1
 43
0.0
 10
114.0456393880402
 20
-152.8884939679757
 10
114.6075401969344
 20
-152.8815795235331
 10
113.7169527196552
 20
-152.5660198013891
 10
114.0211529896722
 20
-153.4803492456056
  0
HATCH
  5
13D
330
138
100
AcDbEntity
  8
レイヤー 1
 62
   250
420
  2299925
440
 33554687
100
AcDbHatch
 10
0.0
 20
0.0
 30
0.0
210
0.0
220
0.0
230
1.0
  2
SOLID
 70
     1
 71
     1
 91
        1
 92
        1
 93
        4
 72
     1
 10
114.0456393880402
 20
-152.8884939679757
 11
114.6075401969344
 21
-152.8815795235331
 72
     1
 10
114.6075401969344
 20
-152.8815795235331
 11
113.7169527196552
 21
-152.5660198013891
 72
     1
 10
113.7169527196552
 20
-152.5660198013891
 11
114.0211529896722
 21
-153.4803492456056
 72
     1
 10
114.0211529896722
 20
-153.4803492456056
 11
114.0456393880402
 21
-152.8884939679757
 97
        1
330
13C
 75
     2
 76
     1
 98
        1
 10
0.0
 20
0.0
450
        0
451
        0
460
0.0
461
0.0
452
        0
462
0.0
453
        0
470

  0
LINE
  5
13E
330
138
100
AcDbEntity
  8
レイヤー 1
 62
   250
420
  2299925
370
     9
100
AcDbLine
 10
114.0456393880402
 20
-152.8884939679757
 30
0.0
 11
116.4499573721527
 21
-155.2776461896006
 31
0.0
  0
ENDBLK
  5
13B
330
138
100
AcDbEntity
  8
0
100
AcDbBlockEnd
  0
BLOCK
  5
141
330
13F
100
AcDbEntity
  8
0
100
AcDbBlockBegin
  2
Block_12
 70
     0
 10
0.0
 20
0.0
 30
0.0
  3
Block_12
  1

  0
INSERT
  5
144
330
13F
100
AcDbEntity
  8
レイヤー 1
100
AcDbBlockReference
  2
Block_13
 10
0.0
 20
0.0
 30
0.0
  0
ENDBLK
  5
142
330
13F
100
AcDbEntity
  8
0
100
AcDbBlockEnd
  0
BLOCK
  5
145
330
143
100
AcDbEntity
  8
0
100
AcDbBlockBegin
  2
Block_13
 70
     0
 10
0.0
 20
0.0
 30
0.0
  3
Block_13
  1

  0
SPLINE
  5
147
330
143
100
AcDbEntity
  8
レイヤー 1
100
AcDbSpline
210
0.0
220
0.0
230
1.0
 70
     9
 71
     3
 72
    38
 73
    34
 74
     0
 42
0.0000000001
 43
0.0000000001
 40
0.0
 40
0.0
 40
0.0
 40
0.0
 40
1.0
 40
1.0
 40
1.0
 40
2.0
 40
2.0
 40
2.0
 40
3.0
 40
3.0
 40
3.0
 40
4.0
 40
4.0
 40
4.0
 40
5.0
 40
5.0
 40
5.0
 40
6.0
 40
6.0
 40
6.0
 40
7.0
 40
7.0
 40
7.0
 40
8.0
 40
8.0
 40
8.0
 40
9.0
 40
9.0
 40
9.0
 40
10.0
 40
10.0
 40
10.0
 40
11.0
 40
11.0
 40
11.0
 40
11.0
 10
116.982006806692
 20
-156.3580701649035
 30
0.0
 10
117.0750243847937
 20
-156.2354247656286
 30
0.0
 10
117.2000813509083
 20
-156.0555907812986
 30
0.0
 10
117.2951659863012
 20
-155.607039349119
 30
0.0
 10
117.2951659863012
 20
-155.607039349119
 30
0.0
 10
117.4622531173358
 20
-155.6263318838365
 30
0.0
 10
117.4622531173358
 20
-155.6263318838365
 30
0.0
 10
117.436759410745
 20
-155.7469102258202
 30
0.0
 10
117.4136772709938
 20
-155.8378607466308
 30
0.0
 10
117.3754367111075
 20
-155.9456922353191
 30
0.0
 10
117.3754367111075
 20
-155.9456922353191
 30
0.0
 10
118.0038221276171
 20
-155.9456922353191
 30
0.0
 10
118.0038221276171
 20
-155.9456922353191
 30
0.0
 10
118.0038221276171
 20
-155.9456922353191
 30
0.0
 10
118.0038221276171
 20
-156.0979654557672
 30
0.0
 10
118.0038221276171
 20
-156.0979654557672
 30
0.0
 10
117.9700601918616
 20
-156.2399033897594
 30
0.0
 10
117.8746310469202
 20
-156.4979410416047
 30
0.0
 10
117.8009060035359
 20
-156.6164523262973
 30
0.0
 10
117.8009060035359
 20
-156.6164523262973
 30
0.0
 10
117.6482882735393
 20
-156.5379041492336
 30
0.0
 10
117.6482882735393
 20
-156.5379041492336
 30
0.0
 10
117.7437174184807
 20
-156.4025118966632
 30
0.0
 10
117.8091742327005
 20
-156.2144096831686
 30
0.0
 10
117.8367349965825
 20
-156.1041666276406
 30
0.0
 10
117.8367349965825
 20
-156.1041666276406
 30
0.0
 10
117.3182481260524
 20
-156.1041666276406
 30
0.0
 10
117.3182481260524
 20
-156.1041666276406
 30
0.0
 10
117.2190293760772
 20
-156.3456678211566
 30
0.0
 10
117.1449598231443
 20
-156.4342067751275
 30
0.0
 10
117.106719263258
 20
-156.4786485068873
 30
0.0
 10
117.106719263258
 20
-156.4786485068873
 30
0.0
 10
116.982006806692
 20
-156.3580701649035
 30
0.0
 10
116.982006806692
 20
-156.3580701649035
 30
0.0
  0
SPLINE
  5
148
330
143
100
AcDbEntity
  8
レイヤー 1
100
AcDbSpline
210
0.0
220
0.0
230
1.0
 70
     9
 71
     3
 72
    38
 73
    34
 74
     0
 42
0.0000000001
 43
0.0000000001
 40
0.0
 40
0.0
 40
0.0
 40
0.0
 40
1.0
 40
1.0
 40
1.0
 40
2.0
 40
2.0
 40
2.0
 40
3.0
 40
3.0
 40
3.0
 40
4.0
 40
4.0
 40
4.0
 40
5.0
 40
5.0
 40
5.0
 40
6.0
 40
6.0
 40
6.0
 40
7.0
 40
7.0
 40
7.0
 40
8.0
 40
8.0
 40
8.0
 40
9.0
 40
9.0
 40
9.0
 40
10.0
 40
10.0
 40
10.0
 40
11.0
 40
11.0
 40
11.0
 40
11.0
 10
116.8676296365817
 20
-157.4308728990103
 30
0.0
 10
116.9503119282277
 20
-157.3778184285375
 30
0.0
 10
117.1153320019711
 20
-157.2699869398492
 30
0.0
 10
117.2210964333683
 20
-157.0625921916371
 30
0.0
 10
117.3692355392341
 20
-156.7707926040364
 30
0.0
 10
117.3692355392341
 20
-156.5444498306555
 30
0.0
 10
117.3692355392341
 20
-156.4597004817184
 30
0.0
 10
117.3692355392341
 20
-156.4597004817184
 30
0.0
 10
117.3692355392341
 20
-156.2250894791729
 30
0.0
 10
117.3692355392341
 20
-156.2250894791729
 30
0.0
 10
117.3692355392341
 20
-156.2250894791729
 30
0.0
 10
117.5342556129775
 20
-156.2250894791729
 30
0.0
 10
117.5342556129775
 20
-156.2250894791729
 30
0.0
 10
117.5342556129775
 20
-156.2250894791729
 30
0.0
 10
117.5342556129775
 20
-156.4514322525538
 30
0.0
 10
117.5342556129775
 20
-156.4514322525538
 30
0.0
 10
117.5342556129775
 20
-156.6502142620527
 30
0.0
 10
117.5997124271973
 20
-156.8872368314379
 30
0.0
 10
117.7013427440121
 20
-157.060525134346
 30
0.0
 10
117.8177869714136
 20
-157.2593071438449
 30
0.0
 10
117.9466335425619
 20
-157.3588704033686
 30
0.0
 10
118.0313828914991
 20
-157.420193103006
 30
0.0
 10
118.0313828914991
 20
-157.420193103006
 30
0.0
 10
117.9235514028108
 20
-157.5703992661629
 30
0.0
 10
117.9235514028108
 20
-157.5703992661629
 30
0.0
 10
117.7457844757719
 20
-157.441208185466
 30
0.0
 10
117.5470024662729
 20
-157.2021185587897
 30
0.0
 10
117.4684542892093
 20
-156.8489962715516
 30
0.0
 10
117.4029974749895
 20
-157.0880858982279
 30
0.0
 10
117.3013671581746
 20
-157.3568033460774
 30
0.0
 10
116.9926866026963
 20
-157.5662651515806
 30
0.0
 10
116.9926866026963
 20
-157.5662651515806
 30
0.0
 10
116.8676296365817
 20
-157.4308728990103
 30
0.0
 10
116.8676296365817
 20
-157.4308728990103
 30
0.0
  0
SPLINE
  5
149
330
143
100
AcDbEntity
  8
レイヤー 1
100
AcDbSpline
210
0.0
220
0.0
230
1.0
 70
    11
 71
     3
 72
    17
 73
    13
 74
     0
 42
0.0000000001
 43
0.0000000001
 40
0.0
 40
0.0
 40
0.0
 40
0.0
 40
1.0
 40
1.0
 40
1.0
 40
2.0
 40
2.0
 40
2.0
 40
3.0
 40
3.0
 40
3.0
 40
4.0
 40
4.0
 40
4.0
 40
4.0
 10
116.8255994716616
 20
-156.5423827733644
 30
0.0
 10
116.8255994716616
 20
-156.5423827733644
 30
0.0
 10
116.6140706088673
 20
-156.5423827733644
 30
0.0
 10
116.6140706088673
 20
-156.5423827733644
 30
0.0
 10
116.6140706088673
 20
-156.5423827733644
 30
0.0
 10
116.6140706088673
 20
-156.7494330120279
 30
0.0
 10
116.6140706088673
 20
-156.7494330120279
 30
0.0
 10
116.6140706088673
 20
-156.7494330120279
 30
0.0
 10
116.8255994716616
 20
-156.7494330120279
 30
0.0
 10
116.8255994716616
 20
-156.7494330120279
 30
0.0
 10
116.8255994716616
 20
-156.7494330120279
 30
0.0
 10
116.8255994716616
 20
-156.5423827733644
 30
0.0
 10
116.8255994716616
 20
-156.5423827733644
 30
0.0
  0
SPLINE
  5
14A
330
143
100
AcDbEntity
  8
レイヤー 1
100
AcDbSpline
210
0.0
220
0.0
230
1.0
 70
    11
 71
     3
 72
    17
 73
    13
 74
     0
 42
0.0000000001
 43
0.0000000001
 40
0.0
 40
0.0
 40
0.0
 40
0.0
 40
1.0
 40
1.0
 40
1.0
 40
2.0
 40
2.0
 40
2.0
 40
3.0
 40
3.0
 40
3.0
 40
4.0
 40
4.0
 40
4.0
 40
4.0
 10
116.8255994716616
 20
-156.2164767404597
 30
0.0
 10
116.8255994716616
 20
-156.2164767404597
 30
0.0
 10
116.6140706088673
 20
-156.2164767404597
 30
0.0
 10
116.6140706088673
 20
-156.2164767404597
 30
0.0
 10
116.6140706088673
 20
-156.2164767404597
 30
0.0
 10
116.6140706088673
 20
-156.419392864541
 30
0.0
 10
116.6140706088673
 20
-156.419392864541
 30
0.0
 10
116.6140706088673
 20
-156.419392864541
 30
0.0
 10
116.8255994716616
 20
-156.419392864541
 30
0.0
 10
116.8255994716616
 20
-156.419392864541
 30
0.0
 10
116.8255994716616
 20
-156.419392864541
 30
0.0
 10
116.8255994716616
 20
-156.2164767404597
 30
0.0
 10
116.8255994716616
 20
-156.2164767404597
 30
0.0
  0
SPLINE
  5
14B
330
143
100
AcDbEntity
  8
レイヤー 1
100
AcDbSpline
210
0.0
220
0.0
230
1.0
 70
    11
 71
     3
 72
    17
 73
    13
 74
     0
 42
0.0000000001
 43
0.0000000001
 40
0.0
 40
0.0
 40
0.0
 40
0.0
 40
1.0
 40
1.0
 40
1.0
 40
2.0
 40
2.0
 40
2.0
 40
3.0
 40
3.0
 40
3.0
 40
4.0
 40
4.0
 40
4.0
 40
4.0
 10
116.4593858215796
 20
-156.5423827733644
 30
0.0
 10
116.4593858215796
 20
-156.5423827733644
 30
0.0
 10
116.2523355829161
 20
-156.5423827733644
 30
0.0
 10
116.2523355829161
 20
-156.5423827733644
 30
0.0
 10
116.2523355829161
 20
-156.5423827733644
 30
0.0
 10
116.2523355829161
 20
-156.7494330120279
 30
0.0
 10
116.2523355829161
 20
-156.7494330120279
 30
0.0
 10
116.2523355829161
 20
-156.7494330120279
 30
0.0
 10
116.4593858215796
 20
-156.7494330120279
 30
0.0
 10
116.4593858215796
 20
-156.7494330120279
 30
0.0
 10
116.4593858215796
 20
-156.7494330120279
 30
0.0
 10
116.4593858215796
 20
-156.5423827733644
 30
0.0
 10
116.4593858215796
 20
-156.5423827733644
 30
0.0
  0
SPLINE
  5
14C
330
143
100
AcDbEntity
  8
レイヤー 1
100
AcDbSpline
210
0.0
220
0.0
230
1.0
 70
    11
 71
     3
 72
    17
 73
    13
 74
     0
 42
0.0000000001
 43
0.0000000001
 40
0.0
 40
0.0
 40
0.0
 40
0.0
 40
1.0
 40
1.0
 40
1.0
 40
2.0
 40
2.0
 40
2.0
 40
3.0
 40
3.0
 40
3.0
 40
4.0
 40
4.0
 40
4.0
 40
4.0
 10
116.4593858215796
 20
-156.2164767404597
 30
0.0
 10
116.4593858215796
 20
-156.2164767404597
 30
0.0
 10
116.2523355829161
 20
-156.2164767404597
 30
0.0
 10
116.2523355829161
 20
-156.2164767404597
 30
0.0
 10
116.2523355829161
 20
-156.2164767404597
 30
0.0
 10
116.2523355829161
 20
-156.419392864541
 30
0.0
 10
116.2523355829161
 20
-156.419392864541
 30
0.0
 10
116.2523355829161
 20
-156.419392864541
 30
0.0
 10
116.4593858215796
 20
-156.419392864541
 30
0.0
 10
116.4593858215796
 20
-156.419392864541
 30
0.0
 10
116.4593858215796
 20
-156.419392864541
 30
0.0
 10
116.4593858215796
 20
-156.2164767404597
 30
0.0
 10
116.4593858215796
 20
-156.2164767404597
 30
0.0
  0
SPLINE
  5
14D
330
143
100
AcDbEntity
  8
レイヤー 1
100
AcDbSpline
210
0.0
220
0.0
230
1.0
 70
    11
 71
     3
 72
    89
 73
    85
 74
     0
 42
0.0000000001
 43
0.0000000001
 40
0.0
 40
0.0
 40
0.0
 40
0.0
 40
1.0
 40
1.0
 40
1.0
 40
2.0
 40
2.0
 40
2.0
 40
3.0
 40
3.0
 40
3.0
 40
4.0
 40
4.0
 40
4.0
 40
5.0
 40
5.0
 40
5.0
 40
6.0
 40
6.0
 40
6.0
 40
7.0
 40
7.0
 40
7.0
 40
8.0
 40
8.0
 40
8.0
 40
9.0
 40
9.0
 40
9.0
 40
10.0
 40
10.0
 40
10.0
 40
11.0
 40
11.0
 40
11.0
 40
12.0
 40
12.0
 40
12.0
 40
13.0
 40
13.0
 40
13.0
 40
14.0
 40
14.0
 40
14.0
 40
15.0
 40
15.0
 40
15.0
 40
16.0
 40
16.0
 40
16.0
 40
17.0
 40
17.0
 40
17.0
 40
18.0
 40
18.0
 40
18.0
 40
19.0
 40
19.0
 40
19.0
 40
20.0
 40
20.0
 40
20.0
 40
21.0
 40
21.0
 40
21.0
 40
22.0
 40
22.0
 40
22.0
 40
23.0
 40
23.0
 40
23.0
 40
24.0
 40
24.0
 40
24.0
 40
25.0
 40
25.0
 40
25.0
 40
26.0
 40
26.0
 40
26.0
 40
27.0
 40
27.0
 40
27.0
 40
28.0
 40
28.0
 40
28.0
 40
28.0
 10
116.4593858215796
 20
-155.7679253082802
 30
0.0
 10
116.4593858215796
 20
-155.7679253082802
 30
0.0
 10
116.4593858215796
 20
-155.607039349119
 30
0.0
 10
116.4593858215796
 20
-155.607039349119
 30
0.0
 10
116.4593858215796
 20
-155.607039349119
 30
0.0
 10
116.6140706088673
 20
-155.607039349119
 30
0.0
 10
116.6140706088673
 20
-155.607039349119
 30
0.0
 10
116.6140706088673
 20
-155.607039349119
 30
0.0
 10
116.6140706088673
 20
-155.7679253082802
 30
0.0
 10
116.6140706088673
 20
-155.7679253082802
 30
0.0
 10
116.6140706088673
 20
-155.7679253082802
 30
0.0
 10
117.0075005132828
 20
-155.7679253082802
 30
0.0
 10
117.0075005132828
 20
-155.7679253082802
 30
0.0
 10
117.0075005132828
 20
-155.7679253082802
 30
0.0
 10
117.0075005132828
 20
-155.9222655860194
 30
0.0
 10
117.0075005132828
 20
-155.9222655860194
 30
0.0
 10
117.0075005132828
 20
-155.9222655860194
 30
0.0
 10
116.6140706088673
 20
-155.9222655860194
 30
0.0
 10
116.6140706088673
 20
-155.9222655860194
 30
0.0
 10
116.6140706088673
 20
-155.9222655860194
 30
0.0
 10
116.6140706088673
 20
-156.0769503733071
 30
0.0
 10
116.6140706088673
 20
-156.0769503733071
 30
0.0
 10
116.6140706088673
 20
-156.0769503733071
 30
0.0
 10
116.9692599533965
 20
-156.0769503733071
 30
0.0
 10
116.9692599533965
 20
-156.0769503733071
 30
0.0
 10
116.9692599533965
 20
-156.0769503733071
 30
0.0
 10
116.9692599533965
 20
-156.889303888729
 30
0.0
 10
116.9692599533965
 20
-156.889303888729
 30
0.0
 10
116.9692599533965
 20
-156.889303888729
 30
0.0
 10
116.6140706088673
 20
-156.889303888729
 30
0.0
 10
116.6140706088673
 20
-156.889303888729
 30
0.0
 10
116.6140706088673
 20
-156.889303888729
 30
0.0
 10
116.6140706088673
 20
-157.0584580770548
 30
0.0
 10
116.6140706088673
 20
-157.0584580770548
 30
0.0
 10
116.6140706088673
 20
-157.0584580770548
 30
0.0
 10
117.0223144238694
 20
-157.0584580770548
 30
0.0
 10
117.0223144238694
 20
-157.0584580770548
 30
0.0
 10
117.0223144238694
 20
-157.0584580770548
 30
0.0
 10
117.0223144238694
 20
-157.212798354794
 30
0.0
 10
117.0223144238694
 20
-157.212798354794
 30
0.0
 10
117.0223144238694
 20
-157.212798354794
 30
0.0
 10
116.6140706088673
 20
-157.212798354794
 30
0.0
 10
116.6140706088673
 20
-157.212798354794
 30
0.0
 10
116.6140706088673
 20
-157.212798354794
 30
0.0
 10
116.6140706088673
 20
-157.5662651515806
 30
0.0
 10
116.6140706088673
 20
-157.5662651515806
 30
0.0
 10
116.6140706088673
 20
-157.5662651515806
 30
0.0
 10
116.4593858215796
 20
-157.5662651515806
 30
0.0
 10
116.4593858215796
 20
-157.5662651515806
 30
0.0
 10
116.4593858215796
 20
-157.5662651515806
 30
0.0
 10
116.4593858215796
 20
-157.212798354794
 30
0.0
 10
116.4593858215796
 20
-157.212798354794
 30
0.0
 10
116.4593858215796
 20
-157.212798354794
 30
0.0
 10
116.0490749492863
 20
-157.212798354794
 30
0.0
 10
116.0490749492863
 20
-157.212798354794
 30
0.0
 10
116.0490749492863
 20
-157.212798354794
 30
0.0
 10
116.0490749492863
 20
-157.0584580770548
 30
0.0
 10
116.0490749492863
 20
-157.0584580770548
 30
0.0
 10
116.0490749492863
 20
-157.0584580770548
 30
0.0
 10
116.4593858215796
 20
-157.0584580770548
 30
0.0
 10
116.4593858215796
 20
-157.0584580770548
 30
0.0
 10
116.4593858215796
 20
-157.0584580770548
 30
0.0
 10
116.4593858215796
 20
-156.889303888729
 30
0.0
 10
116.4593858215796
 20
-156.889303888729
 30
0.0
 10
116.4593858215796
 20
-156.889303888729
 30
0.0
 10
116.1103976489238
 20
-156.889303888729
 30
0.0
 10
116.1103976489238
 20
-156.889303888729
 30
0.0
 10
116.1103976489238
 20
-156.889303888729
 30
0.0
 10
116.1103976489238
 20
-156.0769503733071
 30
0.0
 10
116.1103976489238
 20
-156.0769503733071
 30
0.0
 10
116.1103976489238
 20
-156.0769503733071
 30
0.0
 10
116.4593858215796
 20
-156.0769503733071
 30
0.0
 10
116.4593858215796
 20
-156.0769503733071
 30
0.0
 10
116.4593858215796
 20
-156.0769503733071
 30
0.0
 10
116.4593858215796
 20
-155.9222655860194
 30
0.0
 10
116.4593858215796
 20
-155.9222655860194
 30
0.0
 10
116.4593858215796
 20
-155.9222655860194
 30
0.0
 10
116.0700900317463
 20
-155.9222655860194
 30
0.0
 10
116.0700900317463
 20
-155.9222655860194
 30
0.0
 10
116.0700900317463
 20
-155.9222655860194
 30
0.0
 10
116.0700900317463
 20
-155.7679253082802
 30
0.0
 10
116.0700900317463
 20
-155.7679253082802
 30
0.0
 10
116.0700900317463
 20
-155.7679253082802
 30
0.0
 10
116.4593858215796
 20
-155.7679253082802
 30
0.0
 10
116.4593858215796
 20
-155.7679253082802
 30
0.0
  0
HATCH
  5
14E
330
143
100
AcDbEntity
  8
レイヤー 1
 62
    12
420
 15007762
440
 33554687
100
AcDbHatch
 10
0.0
 20
0.0
 30
0.0
210
0.0
220
0.0
230
1.0
  2
SOLID
 70
     1
 71
     1
 91
        7
 92
        1
 93
        1
 72
     4
 94
        3
 73
     0
 74
     0
 95
       38
 96
       34
 40
0.0
 40
0.0
 40
0.0
 40
0.0
 40
1.0
 40
1.0
 40
1.0
 40
2.0
 40
2.0
 40
2.0
 40
3.0
 40
3.0
 40
3.0
 40
4.0
 40
4.0
 40
4.0
 40
5.0
 40
5.0
 40
5.0
 40
6.0
 40
6.0
 40
6.0
 40
7.0
 40
7.0
 40
7.0
 40
8.0
 40
8.0
 40
8.0
 40
9.0
 40
9.0
 40
9.0
 40
10.0
 40
10.0
 40
10.0
 40
11.0
 40
11.0
 40
11.0
 40
11.0
 10
116.982006806692
 20
-156.3580701649035
 10
117.0750243847937
 20
-156.2354247656286
 10
117.2000813509083
 20
-156.0555907812986
 10
117.2951659863012
 20
-155.607039349119
 10
117.2951659863012
 20
-155.607039349119
 10
117.4622531173358
 20
-155.6263318838365
 10
117.4622531173358
 20
-155.6263318838365
 10
117.436759410745
 20
-155.7469102258202
 10
117.4136772709938
 20
-155.8378607466308
 10
117.3754367111075
 20
-155.9456922353191
 10
117.3754367111075
 20
-155.9456922353191
 10
118.0038221276171
 20
-155.9456922353191
 10
118.0038221276171
 20
-155.9456922353191
 10
118.0038221276171
 20
-155.9456922353191
 10
118.0038221276171
 20
-156.0979654557672
 10
118.0038221276171
 20
-156.0979654557672
 10
117.9700601918616
 20
-156.2399033897594
 10
117.8746310469202
 20
-156.4979410416047
 10
117.8009060035359
 20
-156.6164523262973
 10
117.8009060035359
 20
-156.6164523262973
 10
117.6482882735393
 20
-156.5379041492336
 10
117.6482882735393
 20
-156.5379041492336
 10
117.7437174184807
 20
-156.4025118966632
 10
117.8091742327005
 20
-156.2144096831686
 10
117.8367349965825
 20
-156.1041666276406
 10
117.8367349965825
 20
-156.1041666276406
 10
117.3182481260524
 20
-156.1041666276406
 10
117.3182481260524
 20
-156.1041666276406
 10
117.2190293760772
 20
-156.3456678211566
 10
117.1449598231443
 20
-156.4342067751275
 10
117.106719263258
 20
-156.4786485068873
 10
117.106719263258
 20
-156.4786485068873
 10
116.982006806692
 20
-156.3580701649035
 10
116.982006806692
 20
-156.3580701649035
 97
        0
 97
        1
330
147
 92
        1
 93
        1
 72
     4
 94
        3
 73
     0
 74
     0
 95
       38
 96
       34
 40
0.0
 40
0.0
 40
0.0
 40
0.0
 40
1.0
 40
1.0
 40
1.0
 40
2.0
 40
2.0
 40
2.0
 40
3.0
 40
3.0
 40
3.0
 40
4.0
 40
4.0
 40
4.0
 40
5.0
 40
5.0
 40
5.0
 40
6.0
 40
6.0
 40
6.0
 40
7.0
 40
7.0
 40
7.0
 40
8.0
 40
8.0
 40
8.0
 40
9.0
 40
9.0
 40
9.0
 40
10.0
 40
10.0
 40
10.0
 40
11.0
 40
11.0
 40
11.0
 40
11.0
 10
116.8676296365817
 20
-157.4308728990103
 10
116.9503119282277
 20
-157.3778184285375
 10
117.1153320019711
 20
-157.2699869398492
 10
117.2210964333683
 20
-157.0625921916371
 10
117.3692355392341
 20
-156.7707926040364
 10
117.3692355392341
 20
-156.5444498306555
 10
117.3692355392341
 20
-156.4597004817184
 10
117.3692355392341
 20
-156.4597004817184
 10
117.3692355392341
 20
-156.2250894791729
 10
117.3692355392341
 20
-156.2250894791729
 10
117.3692355392341
 20
-156.2250894791729
 10
117.5342556129775
 20
-156.2250894791729
 10
117.5342556129775
 20
-156.2250894791729
 10
117.5342556129775
 20
-156.2250894791729
 10
117.5342556129775
 20
-156.4514322525538
 10
117.5342556129775
 20
-156.4514322525538
 10
117.5342556129775
 20
-156.6502142620527
 10
117.5997124271973
 20
-156.8872368314379
 10
117.7013427440121
 20
-157.060525134346
 10
117.8177869714136
 20
-157.2593071438449
 10
117.9466335425619
 20
-157.3588704033686
 10
118.0313828914991
 20
-157.420193103006
 10
118.0313828914991
 20
-157.420193103006
 10
117.9235514028108
 20
-157.5703992661629
 10
117.9235514028108
 20
-157.5703992661629
 10
117.7457844757719
 20
-157.441208185466
 10
117.5470024662729
 20
-157.2021185587897
 10
117.4684542892093
 20
-156.8489962715516
 10
117.4029974749895
 20
-157.0880858982279
 10
117.3013671581746
 20
-157.3568033460774
 10
116.9926866026963
 20
-157.5662651515806
 10
116.9926866026963
 20
-157.5662651515806
 10
116.8676296365817
 20
-157.4308728990103
 10
116.8676296365817
 20
-157.4308728990103
 97
        0
 97
        1
330
148
 92
        1
 93
        1
 72
     4
 94
        3
 73
     0
 74
     0
 95
       17
 96
       13
 40
0.0
 40
0.0
 40
0.0
 40
0.0
 40
1.0
 40
1.0
 40
1.0
 40
2.0
 40
2.0
 40
2.0
 40
3.0
 40
3.0
 40
3.0
 40
4.0
 40
4.0
 40
4.0
 40
4.0
 10
116.8255994716616
 20
-156.5423827733644
 10
116.8255994716616
 20
-156.5423827733644
 10
116.6140706088673
 20
-156.5423827733644
 10
116.6140706088673
 20
-156.5423827733644
 10
116.6140706088673
 20
-156.5423827733644
 10
116.6140706088673
 20
-156.7494330120279
 10
116.6140706088673
 20
-156.7494330120279
 10
116.6140706088673
 20
-156.7494330120279
 10
116.8255994716616
 20
-156.7494330120279
 10
116.8255994716616
 20
-156.7494330120279
 10
116.8255994716616
 20
-156.7494330120279
 10
116.8255994716616
 20
-156.5423827733644
 10
116.8255994716616
 20
-156.5423827733644
 97
        0
 97
        1
330
149
 92
        1
 93
        1
 72
     4
 94
        3
 73
     0
 74
     0
 95
       17
 96
       13
 40
0.0
 40
0.0
 40
0.0
 40
0.0
 40
1.0
 40
1.0
 40
1.0
 40
2.0
 40
2.0
 40
2.0
 40
3.0
 40
3.0
 40
3.0
 40
4.0
 40
4.0
 40
4.0
 40
4.0
 10
116.8255994716616
 20
-156.2164767404597
 10
116.8255994716616
 20
-156.2164767404597
 10
116.6140706088673
 20
-156.2164767404597
 10
116.6140706088673
 20
-156.2164767404597
 10
116.6140706088673
 20
-156.2164767404597
 10
116.6140706088673
 20
-156.419392864541
 10
116.6140706088673
 20
-156.419392864541
 10
116.6140706088673
 20
-156.419392864541
 10
116.8255994716616
 20
-156.419392864541
 10
116.8255994716616
 20
-156.419392864541
 10
116.8255994716616
 20
-156.419392864541
 10
116.8255994716616
 20
-156.2164767404597
 10
116.8255994716616
 20
-156.2164767404597
 97
        0
 97
        1
330
14A
 92
        1
 93
        1
 72
     4
 94
        3
 73
     0
 74
     0
 95
       17
 96
       13
 40
0.0
 40
0.0
 40
0.0
 40
0.0
 40
1.0
 40
1.0
 40
1.0
 40
2.0
 40
2.0
 40
2.0
 40
3.0
 40
3.0
 40
3.0
 40
4.0
 40
4.0
 40
4.0
 40
4.0
 10
116.4593858215796
 20
-156.5423827733644
 10
116.4593858215796
 20
-156.5423827733644
 10
116.2523355829161
 20
-156.5423827733644
 10
116.2523355829161
 20
-156.5423827733644
 10
116.2523355829161
 20
-156.5423827733644
 10
116.2523355829161
 20
-156.7494330120279
 10
116.2523355829161
 20
-156.7494330120279
 10
116.2523355829161
 20
-156.7494330120279
 10
116.4593858215796
 20
-156.7494330120279
 10
116.4593858215796
 20
-156.7494330120279
 10
116.4593858215796
 20
-156.7494330120279
 10
116.4593858215796
 20
-156.5423827733644
 10
116.4593858215796
 20
-156.5423827733644
 97
        0
 97
        1
330
14B
 92
        1
 93
        1
 72
     4
 94
        3
 73
     0
 74
     0
 95
       17
 96
       13
 40
0.0
 40
0.0
 40
0.0
 40
0.0
 40
1.0
 40
1.0
 40
1.0
 40
2.0
 40
2.0
 40
2.0
 40
3.0
 40
3.0
 40
3.0
 40
4.0
 40
4.0
 40
4.0
 40
4.0
 10
116.4593858215796
 20
-156.2164767404597
 10
116.4593858215796
 20
-156.2164767404597
 10
116.2523355829161
 20
-156.2164767404597
 10
116.2523355829161
 20
-156.2164767404597
 10
116.2523355829161
 20
-156.2164767404597
 10
116.2523355829161
 20
-156.419392864541
 10
116.2523355829161
 20
-156.419392864541
 10
116.2523355829161
 20
-156.419392864541
 10
116.4593858215796
 20
-156.419392864541
 10
116.4593858215796
 20
-156.419392864541
 10
116.4593858215796
 20
-156.419392864541
 10
116.4593858215796
 20
-156.2164767404597
 10
116.4593858215796
 20
-156.2164767404597
 97
        0
 97
        1
330
14C
 92
        1
 93
        1
 72
     4
 94
        3
 73
     0
 74
     0
 95
       89
 96
       85
 40
0.0
 40
0.0
 40
0.0
 40
0.0
 40
1.0
 40
1.0
 40
1.0
 40
2.0
 40
2.0
 40
2.0
 40
3.0
 40
3.0
 40
3.0
 40
4.0
 40
4.0
 40
4.0
 40
5.0
 40
5.0
 40
5.0
 40
6.0
 40
6.0
 40
6.0
 40
7.0
 40
7.0
 40
7.0
 40
8.0
 40
8.0
 40
8.0
 40
9.0
 40
9.0
 40
9.0
 40
10.0
 40
10.0
 40
10.0
 40
11.0
 40
11.0
 40
11.0
 40
12.0
 40
12.0
 40
12.0
 40
13.0
 40
13.0
 40
13.0
 40
14.0
 40
14.0
 40
14.0
 40
15.0
 40
15.0
 40
15.0
 40
16.0
 40
16.0
 40
16.0
 40
17.0
 40
17.0
 40
17.0
 40
18.0
 40
18.0
 40
18.0
 40
19.0
 40
19.0
 40
19.0
 40
20.0
 40
20.0
 40
20.0
 40
21.0
 40
21.0
 40
21.0
 40
22.0
 40
22.0
 40
22.0
 40
23.0
 40
23.0
 40
23.0
 40
24.0
 40
24.0
 40
24.0
 40
25.0
 40
25.0
 40
25.0
 40
26.0
 40
26.0
 40
26.0
 40
27.0
 40
27.0
 40
27.0
 40
28.0
 40
28.0
 40
28.0
 40
28.0
 10
116.4593858215796
 20
-155.7679253082802
 10
116.4593858215796
 20
-155.7679253082802
 10
116.4593858215796
 20
-155.607039349119
 10
116.4593858215796
 20
-155.607039349119
 10
116.4593858215796
 20
-155.607039349119
 10
116.6140706088673
 20
-155.607039349119
 10
116.6140706088673
 20
-155.607039349119
 10
116.6140706088673
 20
-155.607039349119
 10
116.6140706088673
 20
-155.7679253082802
 10
116.6140706088673
 20
-155.7679253082802
 10
116.6140706088673
 20
-155.7679253082802
 10
117.0075005132828
 20
-155.7679253082802
 10
117.0075005132828
 20
-155.7679253082802
 10
117.0075005132828
 20
-155.7679253082802
 10
117.0075005132828
 20
-155.9222655860194
 10
117.0075005132828
 20
-155.9222655860194
 10
117.0075005132828
 20
-155.9222655860194
 10
116.6140706088673
 20
-155.9222655860194
 10
116.6140706088673
 20
-155.9222655860194
 10
116.6140706088673
 20
-155.9222655860194
 10
116.6140706088673
 20
-156.0769503733071
 10
116.6140706088673
 20
-156.0769503733071
 10
116.6140706088673
 20
-156.0769503733071
 10
116.9692599533965
 20
-156.0769503733071
 10
116.9692599533965
 20
-156.0769503733071
 10
116.9692599533965
 20
-156.0769503733071
 10
116.9692599533965
 20
-156.889303888729
 10
116.9692599533965
 20
-156.889303888729
 10
116.9692599533965
 20
-156.889303888729
 10
116.6140706088673
 20
-156.889303888729
 10
116.6140706088673
 20
-156.889303888729
 10
116.6140706088673
 20
-156.889303888729
 10
116.6140706088673
 20
-157.0584580770548
 10
116.6140706088673
 20
-157.0584580770548
 10
116.6140706088673
 20
-157.0584580770548
 10
117.0223144238694
 20
-157.0584580770548
 10
117.0223144238694
 20
-157.0584580770548
 10
117.0223144238694
 20
-157.0584580770548
 10
117.0223144238694
 20
-157.212798354794
 10
117.0223144238694
 20
-157.212798354794
 10
117.0223144238694
 20
-157.212798354794
 10
116.6140706088673
 20
-157.212798354794
 10
116.6140706088673
 20
-157.212798354794
 10
116.6140706088673
 20
-157.212798354794
 10
116.6140706088673
 20
-157.5662651515806
 10
116.6140706088673
 20
-157.5662651515806
 10
116.6140706088673
 20
-157.5662651515806
 10
116.4593858215796
 20
-157.5662651515806
 10
116.4593858215796
 20
-157.5662651515806
 10
116.4593858215796
 20
-157.5662651515806
 10
116.4593858215796
 20
-157.212798354794
 10
116.4593858215796
 20
-157.212798354794
 10
116.4593858215796
 20
-157.212798354794
 10
116.0490749492863
 20
-157.212798354794
 10
116.0490749492863
 20
-157.212798354794
 10
116.0490749492863
 20
-157.212798354794
 10
116.0490749492863
 20
-157.0584580770548
 10
116.0490749492863
 20
-157.0584580770548
 10
116.0490749492863
 20
-157.0584580770548
 10
116.4593858215796
 20
-157.0584580770548
 10
116.4593858215796
 20
-157.0584580770548
 10
116.4593858215796
 20
-157.0584580770548
 10
116.4593858215796
 20
-156.889303888729
 10
116.4593858215796
 20
-156.889303888729
 10
116.4593858215796
 20
-156.889303888729
 10
116.1103976489238
 20
-156.889303888729
 10
116.1103976489238
 20
-156.889303888729
 10
116.1103976489238
 20
-156.889303888729
 10
116.1103976489238
 20
-156.0769503733071
 10
116.1103976489238
 20
-156.0769503733071
 10
116.1103976489238
 20
-156.0769503733071
 10
116.4593858215796
 20
-156.0769503733071
 10
116.4593858215796
 20
-156.0769503733071
 10
116.4593858215796
 20
-156.0769503733071
 10
116.4593858215796
 20
-155.9222655860194
 10
116.4593858215796
 20
-155.9222655860194
 10
116.4593858215796
 20
-155.9222655860194
 10
116.0700900317463
 20
-155.9222655860194
 10
116.0700900317463
 20
-155.9222655860194
 10
116.0700900317463
 20
-155.9222655860194
 10
116.0700900317463
 20
-155.7679253082802
 10
116.0700900317463
 20
-155.7679253082802
 10
116.0700900317463
 20
-155.7679253082802
 10
116.4593858215796
 20
-155.7679253082802
 10
116.4593858215796
 20
-155.7679253082802
 97
        0
 97
        1
330
14D
 75
     2
 76
     1
 98
        1
 10
0.0
 20
0.0
450
        0
451
        0
460
0.0
461
0.0
452
        0
462
0.0
453
        0
470

  0
SPLINE
  5
14F
330
143
100
AcDbEntity
  8
レイヤー 1
100
AcDbSpline
210
0.0
220
0.0
230
1.0
 70
     9
 71
     3
 72
    17
 73
    13
 74
     0
 42
0.0000000001
 43
0.0000000001
 40
0.0
 40
0.0
 40
0.0
 40
0.0
 40
1.0
 40
1.0
 40
1.0
 40
2.0
 40
2.0
 40
2.0
 40
3.0
 40
3.0
 40
3.0
 40
4.0
 40
4.0
 40
4.0
 40
4.0
 10
119.4965820013758
 20
-157.2572400865538
 30
0.0
 10
119.7163790933348
 20
-157.3695501993729
 30
0.0
 10
119.9830294838931
 20
-157.4074462497106
 30
0.0
 10
120.1118760550414
 20
-157.4181260457149
 30
0.0
 10
120.1118760550414
 20
-157.4181260457149
 30
0.0
 10
120.0422851262394
 20
-157.5724663234541
 30
0.0
 10
120.0422851262394
 20
-157.5724663234541
 30
0.0
 10
119.9217067842557
 20
-157.5576524128675
 30
0.0
 10
119.6591905082796
 20
-157.5173447956901
 30
0.0
 10
119.394951684561
 20
-157.371617256664
 30
0.0
 10
119.394951684561
 20
-157.371617256664
 30
0.0
 10
119.4965820013758
 20
-157.2572400865538
 30
0.0
 10
119.4965820013758
 20
-157.2572400865538
 30
0.0
  0
SPLINE
  5
150
330
143
100
AcDbEntity
  8
レイヤー 1
100
AcDbSpline
210
0.0
220
0.0
230
1.0
 70
    11
 71
     3
 72
    50
 73
    46
 74
     0
 42
0.0000000001
 43
0.0000000001
 40
0.0
 40
0.0
 40
0.0
 40
0.0
 40
1.0
 40
1.0
 40
1.0
 40
2.0
 40
2.0
 40
2.0
 40
3.0
 40
3.0
 40
3.0
 40
4.0
 40
4.0
 40
4.0
 40
5.0
 40
5.0
 40
5.0
 40
6.0
 40
6.0
 40
6.0
 40
7.0
 40
7.0
 40
7.0
 40
8.0
 40
8.0
 40
8.0
 40
9.0
 40
9.0
 40
9.0
 40
10.0
 40
10.0
 40
10.0
 40
11.0
 40
11.0
 40
11.0
 40
12.0
 40
12.0
 40
12.0
 40
13.0
 40
13.0
 40
13.0
 40
14.0
 40
14.0
 40
14.0
 40
15.0
 40
15.0
 40
15.0
 40
15.0
 10
119.3842718885567
 20
-155.9053846181417
 30
0.0
 10
119.3842718885567
 20
-155.9053846181417
 30
0.0
 10
120.1204887937546
 20
-155.9053846181417
 30
0.0
 10
120.1204887937546
 20
-155.9053846181417
 30
0.0
 10
120.1204887937546
 20
-155.9053846181417
 30
0.0
 10
120.1204887937546
 20
-156.0304415842563
 30
0.0
 10
120.1204887937546
 20
-156.0304415842563
 30
0.0
 10
120.1204887937546
 20
-156.0304415842563
 30
0.0
 10
119.7904486462677
 20
-156.0304415842563
 30
0.0
 10
119.7904486462677
 20
-156.0304415842563
 30
0.0
 10
119.7904486462677
 20
-156.0304415842563
 30
0.0
 10
119.7904486462677
 20
-156.3053602039792
 30
0.0
 10
119.7904486462677
 20
-156.3053602039792
 30
0.0
 10
119.7904486462677
 20
-156.3053602039792
 30
0.0
 10
119.6340413112373
 20
-156.3053602039792
 30
0.0
 10
119.6340413112373
 20
-156.3053602039792
 30
0.0
 10
119.6340413112373
 20
-156.3053602039792
 30
0.0
 10
119.6340413112373
 20
-156.0304415842563
 30
0.0
 10
119.6340413112373
 20
-156.0304415842563
 30
0.0
 10
119.6340413112373
 20
-156.0304415842563
 30
0.0
 10
119.3694579779701
 20
-156.0304415842563
 30
0.0
 10
119.3694579779701
 20
-156.0304415842563
 30
0.0
 10
119.3439642713793
 20
-156.1592881554046
 30
0.0
 10
119.2933213677461
 20
-156.2502386762152
 30
0.0
 10
119.1961696750621
 20
-156.3329209678612
 30
0.0
 10
119.1961696750621
 20
-156.3329209678612
 30
0.0
 10
119.0731797662386
 20
-156.2250894791729
 30
0.0
 10
119.0731797662386
 20
-156.2250894791729
 30
0.0
 10
119.208572018809
 20
-156.1148464236449
 30
0.0
 10
119.2319986681086
 20
-155.9773871137834
 30
0.0
 10
119.2319986681086
 20
-155.9033175608505
 30
0.0
 10
119.2319986681086
 20
-155.9033175608505
 30
0.0
 10
119.2319986681086
 20
-155.6600938195919
 30
0.0
 10
119.2319986681086
 20
-155.6600938195919
 30
0.0
 10
119.7015651827482
 20
-155.6600938195919
 30
0.0
 10
119.8686523137828
 20
-155.6197862024145
 30
0.0
 10
120.0126573050663
 20
-155.5774115279459
 30
0.0
 10
120.0126573050663
 20
-155.5774115279459
 30
0.0
 10
120.0719129474126
 20
-155.7152153473559
 30
0.0
 10
120.0719129474126
 20
-155.7152153473559
 30
0.0
 10
119.8011284422719
 20
-155.784806276158
 30
0.0
 10
119.4859022053716
 20
-155.7892849002888
 30
0.0
 10
119.3842718885567
 20
-155.7892849002888
 30
0.0
 10
119.3842718885567
 20
-155.7892849002888
 30
0.0
 10
119.3842718885567
 20
-155.9053846181417
 30
0.0
 10
119.3842718885567
 20
-155.9053846181417
 30
0.0
  0
SPLINE
  5
151
330
143
100
AcDbEntity
  8
レイヤー 1
100
AcDbSpline
210
0.0
220
0.0
230
1.0
 70
    11
 71
     3
 72
    17
 73
    13
 74
     0
 42
0.0000000001
 43
0.0000000001
 40
0.0
 40
0.0
 40
0.0
 40
0.0
 40
1.0
 40
1.0
 40
1.0
 40
2.0
 40
2.0
 40
2.0
 40
3.0
 40
3.0
 40
3.0
 40
4.0
 40
4.0
 40
4.0
 40
4.0
 10
119.7205132079171
 20
-156.9757757854088
 30
0.0
 10
119.7205132079171
 20
-156.9757757854088
 30
0.0
 10
118.5612385771305
 20
-156.9757757854088
 30
0.0
 10
118.5612385771305
 20
-156.9757757854088
 30
0.0
 10
118.5612385771305
 20
-156.9757757854088
 30
0.0
 10
118.5612385771305
 20
-157.11564666211
 30
0.0
 10
118.5612385771305
 20
-157.11564666211
 30
0.0
 10
118.5612385771305
 20
-157.11564666211
 30
0.0
 10
119.7205132079171
 20
-157.11564666211
 30
0.0
 10
119.7205132079171
 20
-157.11564666211
 30
0.0
 10
119.7205132079171
 20
-157.11564666211
 30
0.0
 10
119.7205132079171
 20
-156.9757757854088
 30
0.0
 10
119.7205132079171
 20
-156.9757757854088
 30
0.0
  0
SPLINE
  5
152
330
143
100
AcDbEntity
  8
レイヤー 1
100
AcDbSpline
210
0.0
220
0.0
230
1.0
 70
    11
 71
     3
 72
    17
 73
    13
 74
     0
 42
0.0000000001
 43
0.0000000001
 40
0.0
 40
0.0
 40
0.0
 40
0.0
 40
1.0
 40
1.0
 40
1.0
 40
2.0
 40
2.0
 40
2.0
 40
3.0
 40
3.0
 40
3.0
 40
4.0
 40
4.0
 40
4.0
 40
4.0
 10
119.7205132079171
 20
-156.7242838149856
 30
0.0
 10
119.7205132079171
 20
-156.7242838149856
 30
0.0
 10
118.5612385771305
 20
-156.7242838149856
 30
0.0
 10
118.5612385771305
 20
-156.7242838149856
 30
0.0
 10
118.5612385771305
 20
-156.7242838149856
 30
0.0
 10
118.5612385771305
 20
-156.8658772394293
 30
0.0
 10
118.5612385771305
 20
-156.8658772394293
 30
0.0
 10
118.5612385771305
 20
-156.8658772394293
 30
0.0
 10
119.7205132079171
 20
-156.8658772394293
 30
0.0
 10
119.7205132079171
 20
-156.8658772394293
 30
0.0
 10
119.7205132079171
 20
-156.8658772394293
 30
0.0
 10
119.7205132079171
 20
-156.7242838149856
 30
0.0
 10
119.7205132079171
 20
-156.7242838149856
 30
0.0
  0
SPLINE
  5
153
330
143
100
AcDbEntity
  8
レイヤー 1
100
AcDbSpline
210
0.0
220
0.0
230
1.0
 70
    11
 71
     3
 72
    17
 73
    13
 74
     0
 42
0.0000000001
 43
0.0000000001
 40
0.0
 40
0.0
 40
0.0
 40
0.0
 40
1.0
 40
1.0
 40
1.0
 40
2.0
 40
2.0
 40
2.0
 40
3.0
 40
3.0
 40
3.0
 40
4.0
 40
4.0
 40
4.0
 40
4.0
 10
119.7205132079171
 20
-156.4851941883092
 30
0.0
 10
119.7205132079171
 20
-156.4851941883092
 30
0.0
 10
118.5612385771305
 20
-156.4851941883092
 30
0.0
 10
118.5612385771305
 20
-156.4851941883092
 30
0.0
 10
118.5612385771305
 20
-156.4851941883092
 30
0.0
 10
118.5612385771305
 20
-156.6140407594576
 30
0.0
 10
118.5612385771305
 20
-156.6140407594576
 30
0.0
 10
118.5612385771305
 20
-156.6140407594576
 30
0.0
 10
119.7205132079171
 20
-156.6140407594576
 30
0.0
 10
119.7205132079171
 20
-156.6140407594576
 30
0.0
 10
119.7205132079171
 20
-156.6140407594576
 30
0.0
 10
119.7205132079171
 20
-156.4851941883092
 30
0.0
 10
119.7205132079171
 20
-156.4851941883092
 30
0.0
  0
SPLINE
  5
154
330
143
100
AcDbEntity
  8
レイヤー 1
100
AcDbSpline
210
0.0
220
0.0
230
1.0
 70
    11
 71
     3
 72
    32
 73
    28
 74
     0
 42
0.0000000001
 43
0.0000000001
 40
0.0
 40
0.0
 40
0.0
 40
0.0
 40
1.0
 40
1.0
 40
1.0
 40
2.0
 40
2.0
 40
2.0
 40
3.0
 40
3.0
 40
3.0
 40
4.0
 40
4.0
 40
4.0
 40
5.0
 40
5.0
 40
5.0
 40
6.0
 40
6.0
 40
6.0
 40
7.0
 40
7.0
 40
7.0
 40
8.0
 40
8.0
 40
8.0
 40
9.0
 40
9.0
 40
9.0
 40
9.0
 10
118.3920843888047
 20
-157.2510389146803
 30
0.0
 10
118.3920843888047
 20
-157.2510389146803
 30
0.0
 10
118.3920843888047
 20
-156.3518689930301
 30
0.0
 10
118.3920843888047
 20
-156.3518689930301
 30
0.0
 10
118.3920843888047
 20
-156.3518689930301
 30
0.0
 10
119.8900119057914
 20
-156.3518689930301
 30
0.0
 10
119.8900119057914
 20
-156.3518689930301
 30
0.0
 10
119.8900119057914
 20
-156.3518689930301
 30
0.0
 10
119.8900119057914
 20
-157.2510389146803
 30
0.0
 10
119.8900119057914
 20
-157.2510389146803
 30
0.0
 10
119.8900119057914
 20
-157.2510389146803
 30
0.0
 10
118.7455511855914
 20
-157.2510389146803
 30
0.0
 10
118.7455511855914
 20
-157.2510389146803
 30
0.0
 10
118.7455511855914
 20
-157.2510389146803
 30
0.0
 10
118.8513156169886
 20
-157.3609374606597
 30
0.0
 10
118.8513156169886
 20
-157.3609374606597
 30
0.0
 10
118.6862955432451
 20
-157.4560220960526
 30
0.0
 10
118.5212754695016
 20
-157.5173447956901
 30
0.0
 10
118.2249972577701
 20
-157.5683322088718
 30
0.0
 10
118.2249972577701
 20
-157.5683322088718
 30
0.0
 10
118.1595404435504
 20
-157.4160589884237
 30
0.0
 10
118.1595404435504
 20
-157.4160589884237
 30
0.0
 10
118.5381564373793
 20
-157.3630045179509
 30
0.0
 10
118.6608018366542
 20
-157.29548064644
 30
0.0
 10
118.7410725614606
 20
-157.2510389146803
 30
0.0
 10
118.7410725614606
 20
-157.2510389146803
 30
0.0
 10
118.3920843888047
 20
-157.2510389146803
 30
0.0
 10
118.3920843888047
 20
-157.2510389146803
 30
0.0
  0
SPLINE
  5
155
330
143
100
AcDbEntity
  8
レイヤー 1
100
AcDbSpline
210
0.0
220
0.0
230
1.0
 70
    11
 71
     3
 72
    50
 73
    46
 74
     0
 42
0.0000000001
 43
0.0000000001
 40
0.0
 40
0.0
 40
0.0
 40
0.0
 40
1.0
 40
1.0
 40
1.0
 40
2.0
 40
2.0
 40
2.0
 40
3.0
 40
3.0
 40
3.0
 40
4.0
 40
4.0
 40
4.0
 40
5.0
 40
5.0
 40
5.0
 40
6.0
 40
6.0
 40
6.0
 40
7.0
 40
7.0
 40
7.0
 40
8.0
 40
8.0
 40
8.0
 40
9.0
 40
9.0
 40
9.0
 40
10.0
 40
10.0
 40
10.0
 40
11.0
 40
11.0
 40
11.0
 40
12.0
 40
12.0
 40
12.0
 40
13.0
 40
13.0
 40
13.0
 40
14.0
 40
14.0
 40
14.0
 40
15.0
 40
15.0
 40
15.0
 40
15.0
 10
118.4768337377419
 20
-155.9053846181417
 30
0.0
 10
118.4768337377419
 20
-155.9053846181417
 30
0.0
 10
119.1283012940026
 20
-155.9053846181417
 30
0.0
 10
119.1283012940026
 20
-155.9053846181417
 30
0.0
 10
119.1283012940026
 20
-155.9053846181417
 30
0.0
 10
119.1283012940026
 20
-156.0304415842563
 30
0.0
 10
119.1283012940026
 20
-156.0304415842563
 30
0.0
 10
119.1283012940026
 20
-156.0304415842563
 30
0.0
 10
118.8513156169886
 20
-156.0304415842563
 30
0.0
 10
118.8513156169886
 20
-156.0304415842563
 30
0.0
 10
118.8513156169886
 20
-156.0304415842563
 30
0.0
 10
118.8513156169886
 20
-156.3053602039792
 30
0.0
 10
118.8513156169886
 20
-156.3053602039792
 30
0.0
 10
118.8513156169886
 20
-156.3053602039792
 30
0.0
 10
118.6904296578274
 20
-156.3053602039792
 30
0.0
 10
118.6904296578274
 20
-156.3053602039792
 30
0.0
 10
118.6904296578274
 20
-156.3053602039792
 30
0.0
 10
118.6904296578274
 20
-156.0304415842563
 30
0.0
 10
118.6904296578274
 20
-156.0304415842563
 30
0.0
 10
118.6904296578274
 20
-156.0304415842563
 30
0.0
 10
118.4702880563199
 20
-156.0304415842563
 30
0.0
 10
118.4702880563199
 20
-156.0304415842563
 30
0.0
 10
118.4599527698642
 20
-156.1000325130583
 30
0.0
 10
118.4344590632733
 20
-156.2946804079749
 30
0.0
 10
118.2801187855341
 20
-156.4448865711318
 30
0.0
 10
118.2801187855341
 20
-156.4448865711318
 30
0.0
 10
118.1571288767107
 20
-156.3349880251523
 30
0.0
 10
118.1571288767107
 20
-156.3349880251523
 30
0.0
 10
118.278051728243
 20
-156.2354247656286
 30
0.0
 10
118.320081893163
 20
-156.0304415842563
 30
0.0
 10
118.320081893163
 20
-155.9477592926103
 30
0.0
 10
118.320081893163
 20
-155.9477592926103
 30
0.0
 10
118.320081893163
 20
-155.662160876883
 30
0.0
 10
118.320081893163
 20
-155.662160876883
 30
0.0
 10
118.8048068279377
 20
-155.662160876883
 30
0.0
 10
118.9591471056769
 20
-155.6156520878322
 30
0.0
 10
119.0542317410698
 20
-155.5880913239502
 30
0.0
 10
119.0542317410698
 20
-155.5880913239502
 30
0.0
 10
119.1072862115426
 20
-155.7276176911028
 30
0.0
 10
119.1072862115426
 20
-155.7276176911028
 30
0.0
 10
118.8978244060394
 20
-155.7765380469934
 30
0.0
 10
118.7348713895871
 20
-155.7868733334491
 30
0.0
 10
118.4768337377419
 20
-155.7913519575799
 30
0.0
 10
118.4768337377419
 20
-155.7913519575799
 30
0.0
 10
118.4768337377419
 20
-155.9053846181417
 30
0.0
 10
118.4768337377419
 20
-155.9053846181417
 30
0.0
  0
HATCH
  5
156
330
143
100
AcDbEntity
  8
レイヤー 1
 62
    12
420
 15007762
440
 33554687
100
AcDbHatch
 10
0.0
 20
0.0
 30
0.0
210
0.0
220
0.0
230
1.0
  2
SOLID
 70
     1
 71
     1
 91
        7
 92
        1
 93
        1
 72
     4
 94
        3
 73
     0
 74
     0
 95
       17
 96
       13
 40
0.0
 40
0.0
 40
0.0
 40
0.0
 40
1.0
 40
1.0
 40
1.0
 40
2.0
 40
2.0
 40
2.0
 40
3.0
 40
3.0
 40
3.0
 40
4.0
 40
4.0
 40
4.0
 40
4.0
 10
119.4965820013758
 20
-157.2572400865538
 10
119.7163790933348
 20
-157.3695501993729
 10
119.9830294838931
 20
-157.4074462497106
 10
120.1118760550414
 20
-157.4181260457149
 10
120.1118760550414
 20
-157.4181260457149
 10
120.0422851262394
 20
-157.5724663234541
 10
120.0422851262394
 20
-157.5724663234541
 10
119.9217067842557
 20
-157.5576524128675
 10
119.6591905082796
 20
-157.5173447956901
 10
119.394951684561
 20
-157.371617256664
 10
119.394951684561
 20
-157.371617256664
 10
119.4965820013758
 20
-157.2572400865538
 10
119.4965820013758
 20
-157.2572400865538
 97
        0
 97
        1
330
14F
 92
        1
 93
        1
 72
     4
 94
        3
 73
     0
 74
     0
 95
       50
 96
       46
 40
0.0
 40
0.0
 40
0.0
 40
0.0
 40
1.0
 40
1.0
 40
1.0
 40
2.0
 40
2.0
 40
2.0
 40
3.0
 40
3.0
 40
3.0
 40
4.0
 40
4.0
 40
4.0
 40
5.0
 40
5.0
 40
5.0
 40
6.0
 40
6.0
 40
6.0
 40
7.0
 40
7.0
 40
7.0
 40
8.0
 40
8.0
 40
8.0
 40
9.0
 40
9.0
 40
9.0
 40
10.0
 40
10.0
 40
10.0
 40
11.0
 40
11.0
 40
11.0
 40
12.0
 40
12.0
 40
12.0
 40
13.0
 40
13.0
 40
13.0
 40
14.0
 40
14.0
 40
14.0
 40
15.0
 40
15.0
 40
15.0
 40
15.0
 10
119.3842718885567
 20
-155.9053846181417
 10
119.3842718885567
 20
-155.9053846181417
 10
120.1204887937546
 20
-155.9053846181417
 10
120.1204887937546
 20
-155.9053846181417
 10
120.1204887937546
 20
-155.9053846181417
 10
120.1204887937546
 20
-156.0304415842563
 10
120.1204887937546
 20
-156.0304415842563
 10
120.1204887937546
 20
-156.0304415842563
 10
119.7904486462677
 20
-156.0304415842563
 10
119.7904486462677
 20
-156.0304415842563
 10
119.7904486462677
 20
-156.0304415842563
 10
119.7904486462677
 20
-156.3053602039792
 10
119.7904486462677
 20
-156.3053602039792
 10
119.7904486462677
 20
-156.3053602039792
 10
119.6340413112373
 20
-156.3053602039792
 10
119.6340413112373
 20
-156.3053602039792
 10
119.6340413112373
 20
-156.3053602039792
 10
119.6340413112373
 20
-156.0304415842563
 10
119.6340413112373
 20
-156.0304415842563
 10
119.6340413112373
 20
-156.0304415842563
 10
119.3694579779701
 20
-156.0304415842563
 10
119.3694579779701
 20
-156.0304415842563
 10
119.3439642713793
 20
-156.1592881554046
 10
119.2933213677461
 20
-156.2502386762152
 10
119.1961696750621
 20
-156.3329209678612
 10
119.1961696750621
 20
-156.3329209678612
 10
119.0731797662386
 20
-156.2250894791729
 10
119.0731797662386
 20
-156.2250894791729
 10
119.208572018809
 20
-156.1148464236449
 10
119.2319986681086
 20
-155.9773871137834
 10
119.2319986681086
 20
-155.9033175608505
 10
119.2319986681086
 20
-155.9033175608505
 10
119.2319986681086
 20
-155.6600938195919
 10
119.2319986681086
 20
-155.6600938195919
 10
119.7015651827482
 20
-155.6600938195919
 10
119.8686523137828
 20
-155.6197862024145
 10
120.0126573050663
 20
-155.5774115279459
 10
120.0126573050663
 20
-155.5774115279459
 10
120.0719129474126
 20
-155.7152153473559
 10
120.0719129474126
 20
-155.7152153473559
 10
119.8011284422719
 20
-155.784806276158
 10
119.4859022053716
 20
-155.7892849002888
 10
119.3842718885567
 20
-155.7892849002888
 10
119.3842718885567
 20
-155.7892849002888
 10
119.3842718885567
 20
-155.9053846181417
 10
119.3842718885567
 20
-155.9053846181417
 97
        0
 97
        1
330
150
 92
        1
 93
        1
 72
     4
 94
        3
 73
     0
 74
     0
 95
       17
 96
       13
 40
0.0
 40
0.0
 40
0.0
 40
0.0
 40
1.0
 40
1.0
 40
1.0
 40
2.0
 40
2.0
 40
2.0
 40
3.0
 40
3.0
 40
3.0
 40
4.0
 40
4.0
 40
4.0
 40
4.0
 10
119.7205132079171
 20
-156.9757757854088
 10
119.7205132079171
 20
-156.9757757854088
 10
118.5612385771305
 20
-156.9757757854088
 10
118.5612385771305
 20
-156.9757757854088
 10
118.5612385771305
 20
-156.9757757854088
 10
118.5612385771305
 20
-157.11564666211
 10
118.5612385771305
 20
-157.11564666211
 10
118.5612385771305
 20
-157.11564666211
 10
119.7205132079171
 20
-157.11564666211
 10
119.7205132079171
 20
-157.11564666211
 10
119.7205132079171
 20
-157.11564666211
 10
119.7205132079171
 20
-156.9757757854088
 10
119.7205132079171
 20
-156.9757757854088
 97
        0
 97
        1
330
151
 92
        1
 93
        1
 72
     4
 94
        3
 73
     0
 74
     0
 95
       17
 96
       13
 40
0.0
 40
0.0
 40
0.0
 40
0.0
 40
1.0
 40
1.0
 40
1.0
 40
2.0
 40
2.0
 40
2.0
 40
3.0
 40
3.0
 40
3.0
 40
4.0
 40
4.0
 40
4.0
 40
4.0
 10
119.7205132079171
 20
-156.7242838149856
 10
119.7205132079171
 20
-156.7242838149856
 10
118.5612385771305
 20
-156.7242838149856
 10
118.5612385771305
 20
-156.7242838149856
 10
118.5612385771305
 20
-156.7242838149856
 10
118.5612385771305
 20
-156.8658772394293
 10
118.5612385771305
 20
-156.8658772394293
 10
118.5612385771305
 20
-156.8658772394293
 10
119.7205132079171
 20
-156.8658772394293
 10
119.7205132079171
 20
-156.8658772394293
 10
119.7205132079171
 20
-156.8658772394293
 10
119.7205132079171
 20
-156.7242838149856
 10
119.7205132079171
 20
-156.7242838149856
 97
        0
 97
        1
330
152
 92
        1
 93
        1
 72
     4
 94
        3
 73
     0
 74
     0
 95
       17
 96
       13
 40
0.0
 40
0.0
 40
0.0
 40
0.0
 40
1.0
 40
1.0
 40
1.0
 40
2.0
 40
2.0
 40
2.0
 40
3.0
 40
3.0
 40
3.0
 40
4.0
 40
4.0
 40
4.0
 40
4.0
 10
119.7205132079171
 20
-156.4851941883092
 10
119.7205132079171
 20
-156.4851941883092
 10
118.5612385771305
 20
-156.4851941883092
 10
118.5612385771305
 20
-156.4851941883092
 10
118.5612385771305
 20
-156.4851941883092
 10
118.5612385771305
 20
-156.6140407594576
 10
118.5612385771305
 20
-156.6140407594576
 10
118.5612385771305
 20
-156.6140407594576
 10
119.7205132079171
 20
-156.6140407594576
 10
119.7205132079171
 20
-156.6140407594576
 10
119.7205132079171
 20
-156.6140407594576
 10
119.7205132079171
 20
-156.4851941883092
 10
119.7205132079171
 20
-156.4851941883092
 97
        0
 97
        1
330
153
 92
        1
 93
        1
 72
     4
 94
        3
 73
     0
 74
     0
 95
       32
 96
       28
 40
0.0
 40
0.0
 40
0.0
 40
0.0
 40
1.0
 40
1.0
 40
1.0
 40
2.0
 40
2.0
 40
2.0
 40
3.0
 40
3.0
 40
3.0
 40
4.0
 40
4.0
 40
4.0
 40
5.0
 40
5.0
 40
5.0
 40
6.0
 40
6.0
 40
6.0
 40
7.0
 40
7.0
 40
7.0
 40
8.0
 40
8.0
 40
8.0
 40
9.0
 40
9.0
 40
9.0
 40
9.0
 10
118.3920843888047
 20
-157.2510389146803
 10
118.3920843888047
 20
-157.2510389146803
 10
118.3920843888047
 20
-156.3518689930301
 10
118.3920843888047
 20
-156.3518689930301
 10
118.3920843888047
 20
-156.3518689930301
 10
119.8900119057914
 20
-156.3518689930301
 10
119.8900119057914
 20
-156.3518689930301
 10
119.8900119057914
 20
-156.3518689930301
 10
119.8900119057914
 20
-157.2510389146803
 10
119.8900119057914
 20
-157.2510389146803
 10
119.8900119057914
 20
-157.2510389146803
 10
118.7455511855914
 20
-157.2510389146803
 10
118.7455511855914
 20
-157.2510389146803
 10
118.7455511855914
 20
-157.2510389146803
 10
118.8513156169886
 20
-157.3609374606597
 10
118.8513156169886
 20
-157.3609374606597
 10
118.6862955432451
 20
-157.4560220960526
 10
118.5212754695016
 20
-157.5173447956901
 10
118.2249972577701
 20
-157.5683322088718
 10
118.2249972577701
 20
-157.5683322088718
 10
118.1595404435504
 20
-157.4160589884237
 10
118.1595404435504
 20
-157.4160589884237
 10
118.5381564373793
 20
-157.3630045179509
 10
118.6608018366542
 20
-157.29548064644
 10
118.7410725614606
 20
-157.2510389146803
 10
118.7410725614606
 20
-157.2510389146803
 10
118.3920843888047
 20
-157.2510389146803
 10
118.3920843888047
 20
-157.2510389146803
 97
        0
 97
        1
330
154
 92
        1
 93
        1
 72
     4
 94
        3
 73
     0
 74
     0
 95
       50
 96
       46
 40
0.0
 40
0.0
 40
0.0
 40
0.0
 40
1.0
 40
1.0
 40
1.0
 40
2.0
 40
2.0
 40
2.0
 40
3.0
 40
3.0
 40
3.0
 40
4.0
 40
4.0
 40
4.0
 40
5.0
 40
5.0
 40
5.0
 40
6.0
 40
6.0
 40
6.0
 40
7.0
 40
7.0
 40
7.0
 40
8.0
 40
8.0
 40
8.0
 40
9.0
 40
9.0
 40
9.0
 40
10.0
 40
10.0
 40
10.0
 40
11.0
 40
11.0
 40
11.0
 40
12.0
 40
12.0
 40
12.0
 40
13.0
 40
13.0
 40
13.0
 40
14.0
 40
14.0
 40
14.0
 40
15.0
 40
15.0
 40
15.0
 40
15.0
 10
118.4768337377419
 20
-155.9053846181417
 10
118.4768337377419
 20
-155.9053846181417
 10
119.1283012940026
 20
-155.9053846181417
 10
119.1283012940026
 20
-155.9053846181417
 10
119.1283012940026
 20
-155.9053846181417
 10
119.1283012940026
 20
-156.0304415842563
 10
119.1283012940026
 20
-156.0304415842563
 10
119.1283012940026
 20
-156.0304415842563
 10
118.8513156169886
 20
-156.0304415842563
 10
118.8513156169886
 20
-156.0304415842563
 10
118.8513156169886
 20
-156.0304415842563
 10
118.8513156169886
 20
-156.3053602039792
 10
118.8513156169886
 20
-156.3053602039792
 10
118.8513156169886
 20
-156.3053602039792
 10
118.6904296578274
 20
-156.3053602039792
 10
118.6904296578274
 20
-156.3053602039792
 10
118.6904296578274
 20
-156.3053602039792
 10
118.6904296578274
 20
-156.0304415842563
 10
118.6904296578274
 20
-156.0304415842563
 10
118.6904296578274
 20
-156.0304415842563
 10
118.4702880563199
 20
-156.0304415842563
 10
118.4702880563199
 20
-156.0304415842563
 10
118.4599527698642
 20
-156.1000325130583
 10
118.4344590632733
 20
-156.2946804079749
 10
118.2801187855341
 20
-156.4448865711318
 10
118.2801187855341
 20
-156.4448865711318
 10
118.1571288767107
 20
-156.3349880251523
 10
118.1571288767107
 20
-156.3349880251523
 10
118.278051728243
 20
-156.2354247656286
 10
118.320081893163
 20
-156.0304415842563
 10
118.320081893163
 20
-155.9477592926103
 10
118.320081893163
 20
-155.9477592926103
 10
118.320081893163
 20
-155.662160876883
 10
118.320081893163
 20
-155.662160876883
 10
118.8048068279377
 20
-155.662160876883
 10
118.9591471056769
 20
-155.6156520878322
 10
119.0542317410698
 20
-155.5880913239502
 10
119.0542317410698
 20
-155.5880913239502
 10
119.1072862115426
 20
-155.7276176911028
 10
119.1072862115426
 20
-155.7276176911028
 10
118.8978244060394
 20
-155.7765380469934
 10
118.7348713895871
 20
-155.7868733334491
 10
118.4768337377419
 20
-155.7913519575799
 10
118.4768337377419
 20
-155.7913519575799
 10
118.4768337377419
 20
-155.9053846181417
 10
118.4768337377419
 20
-155.9053846181417
 97
        0
 97
        1
330
155
 75
     2
 76
     1
 98
        1
 10
0.0
 20
0.0
450
        0
451
        0
460
0.0
461
0.0
452
        0
462
0.0
453
        0
470

  0
ENDBLK
  5
146
330
143
100
AcDbEntity
  8
0
100
AcDbBlockEnd
  0
BLOCK
  5
15A
330
158
100
AcDbEntity
  8
0
100
AcDbBlockBegin
  2
Block_14
 70
     0
 10
0.0
 20
0.0
 30
0.0
  3
Block_14
  1

  0
INSERT
  5
15D
330
158
100
AcDbEntity
  8
レイヤー 1
100
AcDbBlockReference
  2
Block_15
 10
0.0
 20
0.0
 30
0.0
  0
ENDBLK
  5
15B
330
158
100
AcDbEntity
  8
0
100
AcDbBlockEnd
  0
BLOCK
  5
15E
330
15C
100
AcDbEntity
  8
0
100
AcDbBlockBegin
  2
Block_15
 70
     0
 10
0.0
 20
0.0
 30
0.0
  3
Block_15
  1

  0
SPLINE
  5
160
330
15C
100
AcDbEntity
  8
レイヤー 1
100
AcDbSpline
210
0.0
220
0.0
230
1.0
 70
     9
 71
     3
 72
    59
 73
    55
 74
     0
 42
0.0000000001
 43
0.0000000001
 40
0.0
 40
0.0
 40
0.0
 40
0.0
 40
1.0
 40
1.0
 40
1.0
 40
2.0
 40
2.0
 40
2.0
 40
3.0
 40
3.0
 40
3.0
 40
4.0
 40
4.0
 40
4.0
 40
5.0
 40
5.0
 40
5.0
 40
6.0
 40
6.0
 40
6.0
 40
7.0
 40
7.0
 40
7.0
 40
8.0
 40
8.0
 40
8.0
 40
9.0
 40
9.0
 40
9.0
 40
10.0
 40
10.0
 40
10.0
 40
11.0
 40
11.0
 40
11.0
 40
12.0
 40
12.0
 40
12.0
 40
13.0
 40
13.0
 40
13.0
 40
14.0
 40
14.0
 40
14.0
 40
15.0
 40
15.0
 40
15.0
 40
16.0
 40
16.0
 40
16.0
 40
17.0
 40
17.0
 40
17.0
 40
18.0
 40
18.0
 40
18.0
 40
18.0
 10
124.1829453899612
 20
-149.1898599887442
 30
0.0
 10
124.0368733413866
 20
-149.6763074712615
 30
0.0
 10
123.8184542876217
 20
-150.1989284563739
 30
0.0
 10
123.2941107547667
 20
-150.5162217505654
 30
0.0
 10
123.2941107547667
 20
-150.5162217505654
 30
0.0
 10
123.1294351905718
 20
-150.3639485301173
 30
0.0
 10
123.1294351905718
 20
-150.3639485301173
 30
0.0
 10
123.2703395959185
 20
-150.2940130917667
 30
0.0
 10
123.4849690446496
 20
-150.1841145457873
 30
0.0
 10
123.7054551557056
 20
-149.8540743983004
 30
0.0
 10
123.9128499039176
 20
-149.5409152186911
 30
0.0
 10
123.9628037884537
 20
-149.2849446241371
 30
0.0
 10
123.9869194568505
 20
-149.1581651102799
 30
0.0
 10
123.9869194568505
 20
-149.1581651102799
 30
0.0
 10
123.4202012495269
 20
-149.1581651102799
 30
0.0
 10
123.4202012495269
 20
-149.1581651102799
 30
0.0
 10
123.3295952382648
 20
-149.3187065598925
 30
0.0
 10
123.2238308068676
 20
-149.4857936909272
 30
0.0
 10
123.0553656376389
 20
-149.6573594460926
 30
0.0
 10
123.0553656376389
 20
-149.6573594460926
 30
0.0
 10
122.9034369267394
 20
-149.5347140468177
 30
0.0
 10
122.9034369267394
 20
-149.5347140468177
 30
0.0
 10
122.9554578685667
 20
-149.4882052577668
 30
0.0
 10
123.0849934588121
 20
-149.3758951449477
 30
0.0
 10
123.229342959644
 20
-149.1264702318156
 30
0.0
 10
123.2961778120579
 20
-149.007958947123
 30
0.0
 10
123.38678382332
 20
-148.838632504023
 30
0.0
 10
123.4091769439741
 20
-148.7159871047481
 30
0.0
 10
123.4091769439741
 20
-148.7159871047481
 30
0.0
 10
123.6110595394097
 20
-148.8174451667887
 30
0.0
 10
123.6110595394097
 20
-148.8174451667887
 30
0.0
 10
123.6238063927051
 20
-148.8238185934364
 30
0.0
 10
123.6368977555491
 20
-148.8322590773753
 30
0.0
 10
123.6368977555491
 20
-148.8470729879618
 30
0.0
 10
123.6368977555491
 20
-148.8682603251961
 30
0.0
 10
123.614504634895
 20
-148.8808349237173
 30
0.0
 10
123.6072699343759
 20
-148.8829019810084
 30
0.0
 10
123.5831542659792
 20
-148.8915147197216
 30
0.0
 10
123.5759195654602
 20
-148.8894476624304
 30
0.0
 10
123.553526444806
 20
-148.9145968594727
 30
0.0
 10
123.5311333241519
 20
-148.9400905660636
 30
0.0
 10
123.5332003814431
 20
-148.9487033047767
 30
0.0
 10
123.5052951080126
 20
-149.001413265701
 30
0.0
 10
123.5052951080126
 20
-149.001413265701
 30
0.0
 10
123.7977837147103
 20
-149.001413265701
 30
0.0
 10
123.7977837147103
 20
-149.001413265701
 30
0.0
 10
124.0220594308
 20
-149.001413265701
 30
0.0
 10
124.0499647042305
 20
-148.9886664124056
 30
0.0
 10
124.0999185887667
 20
-148.9590385912324
 30
0.0
 10
124.0999185887667
 20
-148.9590385912324
 30
0.0
 10
124.2366888795311
 20
-149.1240586649759
 30
0.0
 10
124.2366888795311
 20
-149.1240586649759
 30
0.0
 10
124.2070610583579
 20
-149.160232167571
 30
0.0
 10
124.2053385106153
 20
-149.1622992248622
 30
0.0
 10
124.1829453899612
 20
-149.1898599887442
 30
0.0
  0
HATCH
  5
161
330
15C
100
AcDbEntity
  8
レイヤー 1
 62
   250
420
  2299925
440
 33554687
100
AcDbHatch
 10
0.0
 20
0.0
 30
0.0
210
0.0
220
0.0
230
1.0
  2
SOLID
 70
     1
 71
     1
 91
        1
 92
        1
 93
        1
 72
     4
 94
        3
 73
     0
 74
     0
 95
       59
 96
       55
 40
0.0
 40
0.0
 40
0.0
 40
0.0
 40
1.0
 40
1.0
 40
1.0
 40
2.0
 40
2.0
 40
2.0
 40
3.0
 40
3.0
 40
3.0
 40
4.0
 40
4.0
 40
4.0
 40
5.0
 40
5.0
 40
5.0
 40
6.0
 40
6.0
 40
6.0
 40
7.0
 40
7.0
 40
7.0
 40
8.0
 40
8.0
 40
8.0
 40
9.0
 40
9.0
 40
9.0
 40
10.0
 40
10.0
 40
10.0
 40
11.0
 40
11.0
 40
11.0
 40
12.0
 40
12.0
 40
12.0
 40
13.0
 40
13.0
 40
13.0
 40
14.0
 40
14.0
 40
14.0
 40
15.0
 40
15.0
 40
15.0
 40
16.0
 40
16.0
 40
16.0
 40
17.0
 40
17.0
 40
17.0
 40
18.0
 40
18.0
 40
18.0
 40
18.0
 10
124.1829453899612
 20
-149.1898599887442
 10
124.0368733413866
 20
-149.6763074712615
 10
123.8184542876217
 20
-150.1989284563739
 10
123.2941107547667
 20
-150.5162217505654
 10
123.2941107547667
 20
-150.5162217505654
 10
123.1294351905718
 20
-150.3639485301173
 10
123.1294351905718
 20
-150.3639485301173
 10
123.2703395959185
 20
-150.2940130917667
 10
123.4849690446496
 20
-150.1841145457873
 10
123.7054551557056
 20
-149.8540743983004
 10
123.9128499039176
 20
-149.5409152186911
 10
123.9628037884537
 20
-149.2849446241371
 10
123.9869194568505
 20
-149.1581651102799
 10
123.9869194568505
 20
-149.1581651102799
 10
123.4202012495269
 20
-149.1581651102799
 10
123.4202012495269
 20
-149.1581651102799
 10
123.3295952382648
 20
-149.3187065598925
 10
123.2238308068676
 20
-149.4857936909272
 10
123.0553656376389
 20
-149.6573594460926
 10
123.0553656376389
 20
-149.6573594460926
 10
122.9034369267394
 20
-149.5347140468177
 10
122.9034369267394
 20
-149.5347140468177
 10
122.9554578685667
 20
-149.4882052577668
 10
123.0849934588121
 20
-149.3758951449477
 10
123.229342959644
 20
-149.1264702318156
 10
123.2961778120579
 20
-149.007958947123
 10
123.38678382332
 20
-148.838632504023
 10
123.4091769439741
 20
-148.7159871047481
 10
123.4091769439741
 20
-148.7159871047481
 10
123.6110595394097
 20
-148.8174451667887
 10
123.6110595394097
 20
-148.8174451667887
 10
123.6238063927051
 20
-148.8238185934364
 10
123.6368977555491
 20
-148.8322590773753
 10
123.6368977555491
 20
-148.8470729879618
 10
123.6368977555491
 20
-148.8682603251961
 10
123.614504634895
 20
-148.8808349237173
 10
123.6072699343759
 20
-148.8829019810084
 10
123.5831542659792
 20
-148.8915147197216
 10
123.5759195654602
 20
-148.8894476624304
 10
123.553526444806
 20
-148.9145968594727
 10
123.5311333241519
 20
-148.9400905660636
 10
123.5332003814431
 20
-148.9487033047767
 10
123.5052951080126
 20
-149.001413265701
 10
123.5052951080126
 20
-149.001413265701
 10
123.7977837147103
 20
-149.001413265701
 10
123.7977837147103
 20
-149.001413265701
 10
124.0220594308
 20
-149.001413265701
 10
124.0499647042305
 20
-148.9886664124056
 10
124.0999185887667
 20
-148.9590385912324
 10
124.0999185887667
 20
-148.9590385912324
 10
124.2366888795311
 20
-149.1240586649759
 10
124.2366888795311
 20
-149.1240586649759
 10
124.2070610583579
 20
-149.160232167571
 10
124.2053385106153
 20
-149.1622992248622
 10
124.1829453899612
 20
-149.1898599887442
 97
        0
 97
        1
330
160
 75
     2
 76
     1
 98
        1
 10
0.0
 20
0.0
450
        0
451
        0
460
0.0
461
0.0
452
        0
462
0.0
453
        0
470

  0
SPLINE
  5
162
330
15C
100
AcDbEntity
  8
レイヤー 1
100
AcDbSpline
210
0.0
220
0.0
230
1.0
 70
    11
 71
     3
 72
    17
 73
    13
 74
     0
 42
0.0000000001
 43
0.0000000001
 40
0.0
 40
0.0
 40
0.0
 40
0.0
 40
1.0
 40
1.0
 40
1.0
 40
2.0
 40
2.0
 40
2.0
 40
3.0
 40
3.0
 40
3.0
 40
4.0
 40
4.0
 40
4.0
 40
4.0
 10
125.62196177415
 20
-149.0989094679336
 30
0.0
 10
125.62196177415
 20
-149.0989094679336
 30
0.0
 10
124.7107340183015
 20
-149.0989094679336
 30
0.0
 10
124.7107340183015
 20
-149.0989094679336
 30
0.0
 10
124.7107340183015
 20
-149.0989094679336
 30
0.0
 10
124.7107340183015
 20
-149.9873995935795
 30
0.0
 10
124.7107340183015
 20
-149.9873995935795
 30
0.0
 10
124.7107340183015
 20
-149.9873995935795
 30
0.0
 10
125.62196177415
 20
-149.9873995935795
 30
0.0
 10
125.62196177415
 20
-149.9873995935795
 30
0.0
 10
125.62196177415
 20
-149.9873995935795
 30
0.0
 10
125.62196177415
 20
-149.0989094679336
 30
0.0
 10
125.62196177415
 20
-149.0989094679336
 30
0.0
  0
SPLINE
  5
163
330
15C
100
AcDbEntity
  8
レイヤー 1
100
AcDbSpline
210
0.0
220
0.0
230
1.0
 70
     9
 71
     3
 72
    53
 73
    49
 74
     0
 42
0.0000000001
 43
0.0000000001
 40
0.0
 40
0.0
 40
0.0
 40
0.0
 40
1.0
 40
1.0
 40
1.0
 40
2.0
 40
2.0
 40
2.0
 40
3.0
 40
3.0
 40
3.0
 40
4.0
 40
4.0
 40
4.0
 40
5.0
 40
5.0
 40
5.0
 40
6.0
 40
6.0
 40
6.0
 40
7.0
 40
7.0
 40
7.0
 40
8.0
 40
8.0
 40
8.0
 40
9.0
 40
9.0
 40
9.0
 40
10.0
 40
10.0
 40
10.0
 40
11.0
 40
11.0
 40
11.0
 40
12.0
 40
12.0
 40
12.0
 40
13.0
 40
13.0
 40
13.0
 40
14.0
 40
14.0
 40
14.0
 40
15.0
 40
15.0
 40
15.0
 40
16.0
 40
16.0
 40
16.0
 40
16.0
 10
125.6016357107871
 20
-150.3026258304799
 30
0.0
 10
125.6088704113061
 20
-150.2581840987202
 30
0.0
 10
125.6088704113061
 20
-150.249571360007
 30
0.0
 10
125.6143825640825
 20
-150.1755018070742
 30
0.0
 10
125.6143825640825
 20
-150.1755018070742
 30
0.0
 10
124.7128010755926
 20
-150.1755018070742
 30
0.0
 10
124.7128010755926
 20
-150.1755018070742
 30
0.0
 10
124.7128010755926
 20
-150.2071966855385
 30
0.0
 10
124.7128010755926
 20
-150.2623182133025
 30
0.0
 10
124.7162461710779
 20
-150.2981472063491
 30
0.0
 10
124.7162461710779
 20
-150.2981472063491
 30
0.0
 10
124.5054063273806
 20
-150.2981472063491
 30
0.0
 10
124.5054063273806
 20
-150.2981472063491
 30
0.0
 10
124.510918480157
 20
-150.2433701881336
 30
0.0
 10
124.5202202379671
 20
-150.152419667323
 30
0.0
 10
124.5202202379671
 20
-150.0232285866261
 30
0.0
 10
124.5219427857098
 20
-149.8182454052537
 30
0.0
 10
124.5219427857098
 20
-149.7948187559541
 30
0.0
 10
124.5219427857098
 20
-149.7713921066544
 30
0.0
 10
124.5219427857098
 20
-149.7713921066544
 30
0.0
 10
124.5219427857098
 20
-149.3314534131879
 30
0.0
 10
124.5219427857098
 20
-149.3314534131879
 30
0.0
 10
124.5219427857098
 20
-149.2659965989682
 30
0.0
 10
124.5164306329334
 20
-148.9421576233547
 30
0.0
 10
124.5126410278996
 20
-148.8873806051392
 30
0.0
 10
124.621850554782
 20
-148.8997829488862
 30
0.0
 10
124.8533609713908
 20
-148.904261573017
 30
0.0
 10
124.9684271605982
 20
-148.904261573017
 30
0.0
 10
124.9684271605982
 20
-148.904261573017
 30
0.0
 10
125.3663356891445
 20
-148.904261573017
 30
0.0
 10
125.3663356891445
 20
-148.904261573017
 30
0.0
 10
125.4979383366811
 20
-148.904261573017
 30
0.0
 10
125.6939642697918
 20
-148.9021945157258
 30
0.0
 10
125.8217773122945
 20
-148.8935817770127
 30
0.0
 10
125.8145426117755
 20
-149.0034803229922
 30
0.0
 10
125.8107530067417
 20
-149.2532497456728
 30
0.0
 10
125.8107530067417
 20
-149.3717610303654
 30
0.0
 10
125.8107530067417
 20
-149.3717610303654
 30
0.0
 10
125.8107530067417
 20
-149.7906846413718
 30
0.0
 10
125.8107530067417
 20
-149.7906846413718
 30
0.0
 10
125.8107530067417
 20
-149.8330593158403
 30
0.0
 10
125.8162651595181
 20
-150.0149603574615
 30
0.0
 10
125.8162651595181
 20
-150.0528564077993
 30
0.0
 10
125.8183322168093
 20
-150.2030625709562
 30
0.0
 10
125.8255669173283
 20
-150.2537054745893
 30
0.0
 10
125.8331461273959
 20
-150.3026258304799
 30
0.0
 10
125.8331461273959
 20
-150.3026258304799
 30
0.0
 10
125.6016357107871
 20
-150.3026258304799
 30
0.0
 10
125.6016357107871
 20
-150.3026258304799
 30
0.0
  0
HATCH
  5
164
330
15C
100
AcDbEntity
  8
レイヤー 1
 62
   250
420
  2299925
440
 33554687
100
AcDbHatch
 10
0.0
 20
0.0
 30
0.0
210
0.0
220
0.0
230
1.0
  2
SOLID
 70
     1
 71
     1
 91
        2
 92
        1
 93
        1
 72
     4
 94
        3
 73
     0
 74
     0
 95
       17
 96
       13
 40
0.0
 40
0.0
 40
0.0
 40
0.0
 40
1.0
 40
1.0
 40
1.0
 40
2.0
 40
2.0
 40
2.0
 40
3.0
 40
3.0
 40
3.0
 40
4.0
 40
4.0
 40
4.0
 40
4.0
 10
125.62196177415
 20
-149.0989094679336
 10
125.62196177415
 20
-149.0989094679336
 10
124.7107340183015
 20
-149.0989094679336
 10
124.7107340183015
 20
-149.0989094679336
 10
124.7107340183015
 20
-149.0989094679336
 10
124.7107340183015
 20
-149.9873995935795
 10
124.7107340183015
 20
-149.9873995935795
 10
124.7107340183015
 20
-149.9873995935795
 10
125.62196177415
 20
-149.9873995935795
 10
125.62196177415
 20
-149.9873995935795
 10
125.62196177415
 20
-149.9873995935795
 10
125.62196177415
 20
-149.0989094679336
 10
125.62196177415
 20
-149.0989094679336
 97
        0
 97
        1
330
162
 92
        1
 93
        1
 72
     4
 94
        3
 73
     0
 74
     0
 95
       53
 96
       49
 40
0.0
 40
0.0
 40
0.0
 40
0.0
 40
1.0
 40
1.0
 40
1.0
 40
2.0
 40
2.0
 40
2.0
 40
3.0
 40
3.0
 40
3.0
 40
4.0
 40
4.0
 40
4.0
 40
5.0
 40
5.0
 40
5.0
 40
6.0
 40
6.0
 40
6.0
 40
7.0
 40
7.0
 40
7.0
 40
8.0
 40
8.0
 40
8.0
 40
9.0
 40
9.0
 40
9.0
 40
10.0
 40
10.0
 40
10.0
 40
11.0
 40
11.0
 40
11.0
 40
12.0
 40
12.0
 40
12.0
 40
13.0
 40
13.0
 40
13.0
 40
14.0
 40
14.0
 40
14.0
 40
15.0
 40
15.0
 40
15.0
 40
16.0
 40
16.0
 40
16.0
 40
16.0
 10
125.6016357107871
 20
-150.3026258304799
 10
125.6088704113061
 20
-150.2581840987202
 10
125.6088704113061
 20
-150.249571360007
 10
125.6143825640825
 20
-150.1755018070742
 10
125.6143825640825
 20
-150.1755018070742
 10
124.7128010755926
 20
-150.1755018070742
 10
124.7128010755926
 20
-150.1755018070742
 10
124.7128010755926
 20
-150.2071966855385
 10
124.7128010755926
 20
-150.2623182133025
 10
124.7162461710779
 20
-150.2981472063491
 10
124.7162461710779
 20
-150.2981472063491
 10
124.5054063273806
 20
-150.2981472063491
 10
124.5054063273806
 20
-150.2981472063491
 10
124.510918480157
 20
-150.2433701881336
 10
124.5202202379671
 20
-150.152419667323
 10
124.5202202379671
 20
-150.0232285866261
 10
124.5219427857098
 20
-149.8182454052537
 10
124.5219427857098
 20
-149.7948187559541
 10
124.5219427857098
 20
-149.7713921066544
 10
124.5219427857098
 20
-149.7713921066544
 10
124.5219427857098
 20
-149.3314534131879
 10
124.5219427857098
 20
-149.3314534131879
 10
124.5219427857098
 20
-149.2659965989682
 10
124.5164306329334
 20
-148.9421576233547
 10
124.5126410278996
 20
-148.8873806051392
 10
124.621850554782
 20
-148.8997829488862
 10
124.8533609713908
 20
-148.904261573017
 10
124.9684271605982
 20
-148.904261573017
 10
124.9684271605982
 20
-148.904261573017
 10
125.3663356891445
 20
-148.904261573017
 10
125.3663356891445
 20
-148.904261573017
 10
125.4979383366811
 20
-148.904261573017
 10
125.6939642697918
 20
-148.9021945157258
 10
125.8217773122945
 20
-148.8935817770127
 10
125.8145426117755
 20
-149.0034803229922
 10
125.8107530067417
 20
-149.2532497456728
 10
125.8107530067417
 20
-149.3717610303654
 10
125.8107530067417
 20
-149.3717610303654
 10
125.8107530067417
 20
-149.7906846413718
 10
125.8107530067417
 20
-149.7906846413718
 10
125.8107530067417
 20
-149.8330593158403
 10
125.8162651595181
 20
-150.0149603574615
 10
125.8162651595181
 20
-150.0528564077993
 10
125.8183322168093
 20
-150.2030625709562
 10
125.8255669173283
 20
-150.2537054745893
 10
125.8331461273959
 20
-150.3026258304799
 10
125.8331461273959
 20
-150.3026258304799
 10
125.6016357107871
 20
-150.3026258304799
 10
125.6016357107871
 20
-150.3026258304799
 97
        0
 97
        1
330
163
 75
     2
 76
     1
 98
        1
 10
0.0
 20
0.0
450
        0
451
        0
460
0.0
461
0.0
452
        0
462
0.0
453
        0
470

  0
SPLINE
  5
165
330
15C
100
AcDbEntity
  8
レイヤー 1
100
AcDbSpline
210
0.0
220
0.0
230
1.0
 70
     9
 71
     3
 72
    56
 73
    52
 74
     0
 42
0.0000000001
 43
0.0000000001
 40
0.0
 40
0.0
 40
0.0
 40
0.0
 40
1.0
 40
1.0
 40
1.0
 40
2.0
 40
2.0
 40
2.0
 40
3.0
 40
3.0
 40
3.0
 40
4.0
 40
4.0
 40
4.0
 40
5.0
 40
5.0
 40
5.0
 40
6.0
 40
6.0
 40
6.0
 40
7.0
 40
7.0
 40
7.0
 40
8.0
 40
8.0
 40
8.0
 40
9.0
 40
9.0
 40
9.0
 40
10.0
 40
10.0
 40
10.0
 40
11.0
 40
11.0
 40
11.0
 40
12.0
 40
12.0
 40
12.0
 40
13.0
 40
13.0
 40
13.0
 40
14.0
 40
14.0
 40
14.0
 40
15.0
 40
15.0
 40
15.0
 40
16.0
 40
16.0
 40
16.0
 40
17.0
 40
17.0
 40
17.0
 40
17.0
 10
127.3627685228468
 20
-150.3680826446996
 30
0.0
 10
127.1943033536181
 20
-150.0594020892212
 30
0.0
 10
126.9686495993342
 20
-149.8540743983004
 30
0.0
 10
126.8887233840764
 20
-149.7886175840806
 30
0.0
 10
126.6313747513282
 20
-150.1269259607321
 30
0.0
 10
126.3778157236139
 20
-150.2791991811802
 30
0.0
 10
126.2038384016087
 20
-150.3722167592819
 30
0.0
 10
126.2038384016087
 20
-150.3722167592819
 30
0.0
 10
126.0646565440046
 20
-150.1841145457873
 30
0.0
 10
126.0646565440046
 20
-150.1841145457873
 30
0.0
 10
126.1556070648153
 20
-150.1479410431922
 30
0.0
 10
126.3426757496643
 20
-150.0718044329682
 30
0.0
 10
126.5462808928426
 20
-149.8857692767647
 30
0.0
 10
126.7777913094514
 20
-149.6742404139703
 30
0.0
 10
126.9407443259037
 20
-149.386574940952
 30
0.0
 10
127.0482313050435
 20
-149.0734157613427
 30
0.0
 10
127.0482313050435
 20
-149.0734157613427
 30
0.0
 10
126.7185356671051
 20
-149.0734157613427
 30
0.0
 10
126.7185356671051
 20
-149.0734157613427
 30
0.0
 10
126.5852104718259
 20
-149.0734157613427
 30
0.0
 10
126.4019313920106
 20
-149.077549875925
 30
0.0
 10
126.2703287444741
 20
-149.0968424106424
 30
0.0
 10
126.2703287444741
 20
-149.0968424106424
 30
0.0
 10
126.2703287444741
 20
-148.8853135478481
 30
0.0
 10
126.2703287444741
 20
-148.8853135478481
 30
0.0
 10
126.3295843868204
 20
-148.8915147197216
 30
0.0
 10
126.5573051983954
 20
-148.9021945157258
 30
0.0
 10
126.6334418086194
 20
-148.9021945157258
 30
0.0
 10
126.6334418086194
 20
-148.9021945157258
 30
0.0
 10
126.9056043519541
 20
-148.9021945157258
 30
0.0
 10
126.9056043519541
 20
-148.9021945157258
 30
0.0
 10
127.0871608840268
 20
-148.9021945157258
 30
0.0
 10
127.1074869473898
 20
-148.8956488343038
 30
0.0
 10
127.1278130107527
 20
-148.8915147197216
 30
0.0
 10
127.1667425897361
 20
-148.8853135478481
 30
0.0
 10
127.1998155063945
 20
-148.8598198412572
 30
0.0
 10
127.2184190220148
 20
-148.8429388733795
 30
0.0
 10
127.2184190220148
 20
-148.8429388733795
 30
0.0
 10
127.3555338223278
 20
-149.0162271762876
 30
0.0
 10
127.3555338223278
 20
-149.0162271762876
 30
0.0
 10
127.3203938483782
 20
-149.0437879401696
 30
0.0
 10
127.3090250332769
 20
-149.0544677361739
 30
0.0
 10
127.2666503588083
 20
-149.0902967292205
 30
0.0
 10
127.1536512268921
 20
-149.3379990946099
 30
0.0
 10
127.083371278993
 20
-149.4882052577668
 30
0.0
 10
126.9924207581824
 20
-149.6339327967929
 30
0.0
 10
127.2666503588083
 20
-149.8520073410092
 30
0.0
 10
127.4664658969528
 20
-150.1376057567364
 30
0.0
 10
127.5129746860037
 20
-150.2158094242516
 30
0.0
 10
127.5129746860037
 20
-150.2158094242516
 30
0.0
 10
127.3627685228468
 20
-150.3680826446996
 30
0.0
 10
127.3627685228468
 20
-150.3680826446996
 30
0.0
  0
HATCH
  5
166
330
15C
100
AcDbEntity
  8
レイヤー 1
 62
   250
420
  2299925
440
 33554687
100
AcDbHatch
 10
0.0
 20
0.0
 30
0.0
210
0.0
220
0.0
230
1.0
  2
SOLID
 70
     1
 71
     1
 91
        1
 92
        1
 93
        1
 72
     4
 94
        3
 73
     0
 74
     0
 95
       56
 96
       52
 40
0.0
 40
0.0
 40
0.0
 40
0.0
 40
1.0
 40
1.0
 40
1.0
 40
2.0
 40
2.0
 40
2.0
 40
3.0
 40
3.0
 40
3.0
 40
4.0
 40
4.0
 40
4.0
 40
5.0
 40
5.0
 40
5.0
 40
6.0
 40
6.0
 40
6.0
 40
7.0
 40
7.0
 40
7.0
 40
8.0
 40
8.0
 40
8.0
 40
9.0
 40
9.0
 40
9.0
 40
10.0
 40
10.0
 40
10.0
 40
11.0
 40
11.0
 40
11.0
 40
12.0
 40
12.0
 40
12.0
 40
13.0
 40
13.0
 40
13.0
 40
14.0
 40
14.0
 40
14.0
 40
15.0
 40
15.0
 40
15.0
 40
16.0
 40
16.0
 40
16.0
 40
17.0
 40
17.0
 40
17.0
 40
17.0
 10
127.3627685228468
 20
-150.3680826446996
 10
127.1943033536181
 20
-150.0594020892212
 10
126.9686495993342
 20
-149.8540743983004
 10
126.8887233840764
 20
-149.7886175840806
 10
126.6313747513282
 20
-150.1269259607321
 10
126.3778157236139
 20
-150.2791991811802
 10
126.2038384016087
 20
-150.3722167592819
 10
126.2038384016087
 20
-150.3722167592819
 10
126.0646565440046
 20
-150.1841145457873
 10
126.0646565440046
 20
-150.1841145457873
 10
126.1556070648153
 20
-150.1479410431922
 10
126.3426757496643
 20
-150.0718044329682
 10
126.5462808928426
 20
-149.8857692767647
 10
126.7777913094514
 20
-149.6742404139703
 10
126.9407443259037
 20
-149.386574940952
 10
127.0482313050435
 20
-149.0734157613427
 10
127.0482313050435
 20
-149.0734157613427
 10
126.7185356671051
 20
-149.0734157613427
 10
126.7185356671051
 20
-149.0734157613427
 10
126.5852104718259
 20
-149.0734157613427
 10
126.4019313920106
 20
-149.077549875925
 10
126.2703287444741
 20
-149.0968424106424
 10
126.2703287444741
 20
-149.0968424106424
 10
126.2703287444741
 20
-148.8853135478481
 10
126.2703287444741
 20
-148.8853135478481
 10
126.3295843868204
 20
-148.8915147197216
 10
126.5573051983954
 20
-148.9021945157258
 10
126.6334418086194
 20
-148.9021945157258
 10
126.6334418086194
 20
-148.9021945157258
 10
126.9056043519541
 20
-148.9021945157258
 10
126.9056043519541
 20
-148.9021945157258
 10
127.0871608840268
 20
-148.9021945157258
 10
127.1074869473898
 20
-148.8956488343038
 10
127.1278130107527
 20
-148.8915147197216
 10
127.1667425897361
 20
-148.8853135478481
 10
127.1998155063945
 20
-148.8598198412572
 10
127.2184190220148
 20
-148.8429388733795
 10
127.2184190220148
 20
-148.8429388733795
 10
127.3555338223278
 20
-149.0162271762876
 10
127.3555338223278
 20
-149.0162271762876
 10
127.3203938483782
 20
-149.0437879401696
 10
127.3090250332769
 20
-149.0544677361739
 10
127.2666503588083
 20
-149.0902967292205
 10
127.1536512268921
 20
-149.3379990946099
 10
127.083371278993
 20
-149.4882052577668
 10
126.9924207581824
 20
-149.6339327967929
 10
127.2666503588083
 20
-149.8520073410092
 10
127.4664658969528
 20
-150.1376057567364
 10
127.5129746860037
 20
-150.2158094242516
 10
127.5129746860037
 20
-150.2158094242516
 10
127.3627685228468
 20
-150.3680826446996
 10
127.3627685228468
 20
-150.3680826446996
 97
        0
 97
        1
330
165
 75
     2
 76
     1
 98
        1
 10
0.0
 20
0.0
450
        0
451
        0
460
0.0
461
0.0
452
        0
462
0.0
453
        0
470

  0
SPLINE
  5
167
330
15C
100
AcDbEntity
  8
レイヤー 1
100
AcDbSpline
210
0.0
220
0.0
230
1.0
 70
    11
 71
     3
 72
    17
 73
    13
 74
     0
 42
0.0000000001
 43
0.0000000001
 40
0.0
 40
0.0
 40
0.0
 40
0.0
 40
1.0
 40
1.0
 40
1.0
 40
2.0
 40
2.0
 40
2.0
 40
3.0
 40
3.0
 40
3.0
 40
4.0
 40
4.0
 40
4.0
 40
4.0
 10
129.0112467125388
 20
-149.3907090555343
 30
0.0
 10
129.0112467125388
 20
-149.3907090555343
 30
0.0
 10
128.6095485789587
 20
-149.3907090555343
 30
0.0
 10
128.6095485789587
 20
-149.3907090555343
 30
0.0
 10
128.6095485789587
 20
-149.3907090555343
 30
0.0
 10
128.6095485789587
 20
-149.6997341205611
 30
0.0
 10
128.6095485789587
 20
-149.6997341205611
 30
0.0
 10
128.6095485789587
 20
-149.6997341205611
 30
0.0
 10
129.0112467125388
 20
-149.6997341205611
 30
0.0
 10
129.0112467125388
 20
-149.6997341205611
 30
0.0
 10
129.0112467125388
 20
-149.6997341205611
 30
0.0
 10
129.0112467125388
 20
-149.3907090555343
 30
0.0
 10
129.0112467125388
 20
-149.3907090555343
 30
0.0
  0
SPLINE
  5
168
330
15C
100
AcDbEntity
  8
レイヤー 1
100
AcDbSpline
210
0.0
220
0.0
230
1.0
 70
    11
 71
     3
 72
    17
 73
    13
 74
     0
 42
0.0000000001
 43
0.0000000001
 40
0.0
 40
0.0
 40
0.0
 40
0.0
 40
1.0
 40
1.0
 40
1.0
 40
2.0
 40
2.0
 40
2.0
 40
3.0
 40
3.0
 40
3.0
 40
4.0
 40
4.0
 40
4.0
 40
4.0
 10
129.0112467125388
 20
-148.9190754836035
 30
0.0
 10
129.0112467125388
 20
-148.9190754836035
 30
0.0
 10
128.6095485789587
 20
-148.9190754836035
 30
0.0
 10
128.6095485789587
 20
-148.9190754836035
 30
0.0
 10
128.6095485789587
 20
-148.9190754836035
 30
0.0
 10
128.6095485789587
 20
-149.2236219244996
 30
0.0
 10
128.6095485789587
 20
-149.2236219244996
 30
0.0
 10
128.6095485789587
 20
-149.2236219244996
 30
0.0
 10
129.0112467125388
 20
-149.2236219244996
 30
0.0
 10
129.0112467125388
 20
-149.2236219244996
 30
0.0
 10
129.0112467125388
 20
-149.2236219244996
 30
0.0
 10
129.0112467125388
 20
-148.9190754836035
 30
0.0
 10
129.0112467125388
 20
-148.9190754836035
 30
0.0
  0
SPLINE
  5
169
330
15C
100
AcDbEntity
  8
レイヤー 1
100
AcDbSpline
210
0.0
220
0.0
230
1.0
 70
    11
 71
     3
 72
    17
 73
    13
 74
     0
 42
0.0000000001
 43
0.0000000001
 40
0.0
 40
0.0
 40
0.0
 40
0.0
 40
1.0
 40
1.0
 40
1.0
 40
2.0
 40
2.0
 40
2.0
 40
3.0
 40
3.0
 40
3.0
 40
4.0
 40
4.0
 40
4.0
 40
4.0
 10
128.4428059574726
 20
-149.3907090555343
 30
0.0
 10
128.4428059574726
 20
-149.3907090555343
 30
0.0
 10
128.0593668299643
 20
-149.3907090555343
 30
0.0
 10
128.0593668299643
 20
-149.3907090555343
 30
0.0
 10
128.0593668299643
 20
-149.3907090555343
 30
0.0
 10
128.0593668299643
 20
-149.6997341205611
 30
0.0
 10
128.0593668299643
 20
-149.6997341205611
 30
0.0
 10
128.0593668299643
 20
-149.6997341205611
 30
0.0
 10
128.4428059574726
 20
-149.6997341205611
 30
0.0
 10
128.4428059574726
 20
-149.6997341205611
 30
0.0
 10
128.4428059574726
 20
-149.6997341205611
 30
0.0
 10
128.4428059574726
 20
-149.3907090555343
 30
0.0
 10
128.4428059574726
 20
-149.3907090555343
 30
0.0
  0
SPLINE
  5
16A
330
15C
100
AcDbEntity
  8
レイヤー 1
100
AcDbSpline
210
0.0
220
0.0
230
1.0
 70
    11
 71
     3
 72
    17
 73
    13
 74
     0
 42
0.0000000001
 43
0.0000000001
 40
0.0
 40
0.0
 40
0.0
 40
0.0
 40
1.0
 40
1.0
 40
1.0
 40
2.0
 40
2.0
 40
2.0
 40
3.0
 40
3.0
 40
3.0
 40
4.0
 40
4.0
 40
4.0
 40
4.0
 10
128.4428059574726
 20
-148.9190754836035
 30
0.0
 10
128.4428059574726
 20
-148.9190754836035
 30
0.0
 10
128.0593668299643
 20
-148.9190754836035
 30
0.0
 10
128.0593668299643
 20
-148.9190754836035
 30
0.0
 10
128.0593668299643
 20
-148.9190754836035
 30
0.0
 10
128.0593668299643
 20
-149.2236219244996
 30
0.0
 10
128.0593668299643
 20
-149.2236219244996
 30
0.0
 10
128.0593668299643
 20
-149.2236219244996
 30
0.0
 10
128.4428059574726
 20
-149.2236219244996
 30
0.0
 10
128.4428059574726
 20
-149.2236219244996
 30
0.0
 10
128.4428059574726
 20
-149.2236219244996
 30
0.0
 10
128.4428059574726
 20
-148.9190754836035
 30
0.0
 10
128.4428059574726
 20
-148.9190754836035
 30
0.0
  0
SPLINE
  5
16B
330
15C
100
AcDbEntity
  8
レイヤー 1
100
AcDbSpline
210
0.0
220
0.0
230
1.0
 70
     9
 71
     3
 72
    77
 73
    73
 74
     0
 42
0.0000000001
 43
0.0000000001
 40
0.0
 40
0.0
 40
0.0
 40
0.0
 40
1.0
 40
1.0
 40
1.0
 40
2.0
 40
2.0
 40
2.0
 40
3.0
 40
3.0
 40
3.0
 40
4.0
 40
4.0
 40
4.0
 40
5.0
 40
5.0
 40
5.0
 40
6.0
 40
6.0
 40
6.0
 40
7.0
 40
7.0
 40
7.0
 40
8.0
 40
8.0
 40
8.0
 40
9.0
 40
9.0
 40
9.0
 40
10.0
 40
10.0
 40
10.0
 40
11.0
 40
11.0
 40
11.0
 40
12.0
 40
12.0
 40
12.0
 40
13.0
 40
13.0
 40
13.0
 40
14.0
 40
14.0
 40
14.0
 40
15.0
 40
15.0
 40
15.0
 40
16.0
 40
16.0
 40
16.0
 40
17.0
 40
17.0
 40
17.0
 40
18.0
 40
18.0
 40
18.0
 40
19.0
 40
19.0
 40
19.0
 40
20.0
 40
20.0
 40
20.0
 40
21.0
 40
21.0
 40
21.0
 40
22.0
 40
22.0
 40
22.0
 40
23.0
 40
23.0
 40
23.0
 40
24.0
 40
24.0
 40
24.0
 40
24.0
 10
129.1297579972314
 20
-150.5055419545611
 30
0.0
 10
129.0891058705055
 20
-150.531035661152
 30
0.0
 10
128.9798963436231
 20
-150.5437825144474
 30
0.0
 10
128.9113389434666
 20
-150.5437825144474
 30
0.0
 10
128.8999701283653
 20
-150.5437825144474
 30
0.0
 10
128.8779215172597
 20
-150.5437825144474
 30
0.0
 10
128.8482936960865
 20
-150.5393038903165
 30
0.0
 10
128.8482936960865
 20
-150.5393038903165
 30
0.0
 10
128.7631998376008
 20
-150.3129611169356
 30
0.0
 10
128.7631998376008
 20
-150.3129611169356
 30
0.0
 10
128.7890380537402
 20
-150.3195067983576
 30
0.0
 10
128.8389919382763
 20
-150.3277750275222
 30
0.0
 10
128.9409667646397
 20
-150.3277750275222
 30
0.0
 10
129.0095241647962
 20
-150.3277750275222
 30
0.0
 10
129.0112467125388
 20
-150.2857448626022
 30
0.0
 10
129.0112467125388
 20
-150.228556277547
 30
0.0
 10
129.0112467125388
 20
-150.228556277547
 30
0.0
 10
129.0112467125388
 20
-149.8795681048912
 30
0.0
 10
129.0112467125388
 20
-149.8795681048912
 30
0.0
 10
129.0112467125388
 20
-149.8795681048912
 30
0.0
 10
128.6095485789587
 20
-149.8795681048912
 30
0.0
 10
128.6095485789587
 20
-149.8795681048912
 30
0.0
 10
128.6112711267013
 20
-150.0170274147527
 30
0.0
 10
128.6129936744439
 20
-150.2158094242516
 30
0.0
 10
128.6188503367689
 20
-150.3491346195308
 30
0.0
 10
128.6205728845115
 20
-150.3766953834127
 30
0.0
 10
128.6205728845115
 20
-150.4211371151725
 30
0.0
 10
128.6315971900643
 20
-150.4824598148099
 30
0.0
 10
128.6315971900643
 20
-150.4824598148099
 30
0.0
 10
128.4204128368185
 20
-150.4824598148099
 30
0.0
 10
128.4204128368185
 20
-150.4824598148099
 30
0.0
 10
128.4428059574726
 20
-150.3574028486954
 30
0.0
 10
128.4428059574726
 20
-150.0170274147527
 30
0.0
 10
128.4428059574726
 20
-149.8795681048912
 30
0.0
 10
128.4428059574726
 20
-149.8795681048912
 30
0.0
 10
128.0559217344791
 20
-149.8795681048912
 30
0.0
 10
128.0559217344791
 20
-149.8795681048912
 30
0.0
 10
128.0352511615675
 20
-150.0866183435547
 30
0.0
 10
127.9780625765124
 20
-150.3553357914042
 30
0.0
 10
127.8058078022499
 20
-150.5393038903165
 30
0.0
 10
127.8058078022499
 20
-150.5393038903165
 30
0.0
 10
127.641132238055
 20
-150.4166584910417
 30
0.0
 10
127.641132238055
 20
-150.4166584910417
 30
0.0
 10
127.8629963873051
 20
-150.1968613990827
 30
0.0
 10
127.8909016607356
 20
-149.8647541943046
 30
0.0
 10
127.8909016607356
 20
-149.5326469895266
 30
0.0
 10
127.8909016607356
 20
-149.5326469895266
 30
0.0
 10
127.8909016607356
 20
-149.0968424106424
 30
0.0
 10
127.8909016607356
 20
-149.0968424106424
 30
0.0
 10
127.8909016607356
 20
-149.0606689080473
 30
0.0
 10
127.889179112993
 20
-148.8281249627929
 30
0.0
 10
127.8815999029254
 20
-148.7264946459781
 30
0.0
 10
128.0039007926518
 20
-148.7371744419824
 30
0.0
 10
128.2150851458976
 20
-148.7371744419824
 30
0.0
 10
128.3408311311092
 20
-148.7371744419824
 30
0.0
 10
128.3408311311092
 20
-148.7371744419824
 30
0.0
 10
128.7428737742379
 20
-148.7371744419824
 30
0.0
 10
128.7428737742379
 20
-148.7371744419824
 30
0.0
 10
128.7556206275333
 20
-148.7371744419824
 30
0.0
 10
129.061200597075
 20
-148.7371744419824
 30
0.0
 10
129.2000379451305
 20
-148.7264946459781
 30
0.0
 10
129.1983153973879
 20
-148.7793768616767
 30
0.0
 10
129.1928032446115
 20
-148.9400905660636
 30
0.0
 10
129.1928032446115
 20
-148.9910779792453
 30
0.0
 10
129.1928032446115
 20
-148.9910779792453
 30
0.0
 10
129.1928032446115
 20
-149.5981038037463
 30
0.0
 10
129.1928032446115
 20
-149.5981038037463
 30
0.0
 10
129.1928032446115
 20
-149.6170518289152
 30
0.0
 10
129.2021050024217
 20
-150.1882486603696
 30
0.0
 10
129.2021050024217
 20
-150.3005587731887
 30
0.0
 10
129.2021050024217
 20
-150.3574028486954
 30
0.0
 10
129.2021050024217
 20
-150.4590331655102
 30
0.0
 10
129.1297579972314
 20
-150.5055419545611
 30
0.0
  0
HATCH
  5
16C
330
15C
100
AcDbEntity
  8
レイヤー 1
 62
   250
420
  2299925
440
 33554687
100
AcDbHatch
 10
0.0
 20
0.0
 30
0.0
210
0.0
220
0.0
230
1.0
  2
SOLID
 70
     1
 71
     1
 91
        5
 92
        1
 93
        1
 72
     4
 94
        3
 73
     0
 74
     0
 95
       17
 96
       13
 40
0.0
 40
0.0
 40
0.0
 40
0.0
 40
1.0
 40
1.0
 40
1.0
 40
2.0
 40
2.0
 40
2.0
 40
3.0
 40
3.0
 40
3.0
 40
4.0
 40
4.0
 40
4.0
 40
4.0
 10
129.0112467125388
 20
-149.3907090555343
 10
129.0112467125388
 20
-149.3907090555343
 10
128.6095485789587
 20
-149.3907090555343
 10
128.6095485789587
 20
-149.3907090555343
 10
128.6095485789587
 20
-149.3907090555343
 10
128.6095485789587
 20
-149.6997341205611
 10
128.6095485789587
 20
-149.6997341205611
 10
128.6095485789587
 20
-149.6997341205611
 10
129.0112467125388
 20
-149.6997341205611
 10
129.0112467125388
 20
-149.6997341205611
 10
129.0112467125388
 20
-149.6997341205611
 10
129.0112467125388
 20
-149.3907090555343
 10
129.0112467125388
 20
-149.3907090555343
 97
        0
 97
        1
330
167
 92
        1
 93
        1
 72
     4
 94
        3
 73
     0
 74
     0
 95
       17
 96
       13
 40
0.0
 40
0.0
 40
0.0
 40
0.0
 40
1.0
 40
1.0
 40
1.0
 40
2.0
 40
2.0
 40
2.0
 40
3.0
 40
3.0
 40
3.0
 40
4.0
 40
4.0
 40
4.0
 40
4.0
 10
129.0112467125388
 20
-148.9190754836035
 10
129.0112467125388
 20
-148.9190754836035
 10
128.6095485789587
 20
-148.9190754836035
 10
128.6095485789587
 20
-148.9190754836035
 10
128.6095485789587
 20
-148.9190754836035
 10
128.6095485789587
 20
-149.2236219244996
 10
128.6095485789587
 20
-149.2236219244996
 10
128.6095485789587
 20
-149.2236219244996
 10
129.0112467125388
 20
-149.2236219244996
 10
129.0112467125388
 20
-149.2236219244996
 10
129.0112467125388
 20
-149.2236219244996
 10
129.0112467125388
 20
-148.9190754836035
 10
129.0112467125388
 20
-148.9190754836035
 97
        0
 97
        1
330
168
 92
        1
 93
        1
 72
     4
 94
        3
 73
     0
 74
     0
 95
       17
 96
       13
 40
0.0
 40
0.0
 40
0.0
 40
0.0
 40
1.0
 40
1.0
 40
1.0
 40
2.0
 40
2.0
 40
2.0
 40
3.0
 40
3.0
 40
3.0
 40
4.0
 40
4.0
 40
4.0
 40
4.0
 10
128.4428059574726
 20
-149.3907090555343
 10
128.4428059574726
 20
-149.3907090555343
 10
128.0593668299643
 20
-149.3907090555343
 10
128.0593668299643
 20
-149.3907090555343
 10
128.0593668299643
 20
-149.3907090555343
 10
128.0593668299643
 20
-149.6997341205611
 10
128.0593668299643
 20
-149.6997341205611
 10
128.0593668299643
 20
-149.6997341205611
 10
128.4428059574726
 20
-149.6997341205611
 10
128.4428059574726
 20
-149.6997341205611
 10
128.4428059574726
 20
-149.6997341205611
 10
128.4428059574726
 20
-149.3907090555343
 10
128.4428059574726
 20
-149.3907090555343
 97
        0
 97
        1
330
169
 92
        1
 93
        1
 72
     4
 94
        3
 73
     0
 74
     0
 95
       17
 96
       13
 40
0.0
 40
0.0
 40
0.0
 40
0.0
 40
1.0
 40
1.0
 40
1.0
 40
2.0
 40
2.0
 40
2.0
 40
3.0
 40
3.0
 40
3.0
 40
4.0
 40
4.0
 40
4.0
 40
4.0
 10
128.4428059574726
 20
-148.9190754836035
 10
128.4428059574726
 20
-148.9190754836035
 10
128.0593668299643
 20
-148.9190754836035
 10
128.0593668299643
 20
-148.9190754836035
 10
128.0593668299643
 20
-148.9190754836035
 10
128.0593668299643
 20
-149.2236219244996
 10
128.0593668299643
 20
-149.2236219244996
 10
128.0593668299643
 20
-149.2236219244996
 10
128.4428059574726
 20
-149.2236219244996
 10
128.4428059574726
 20
-149.2236219244996
 10
128.4428059574726
 20
-149.2236219244996
 10
128.4428059574726
 20
-148.9190754836035
 10
128.4428059574726
 20
-148.9190754836035
 97
        0
 97
        1
330
16A
 92
        1
 93
        1
 72
     4
 94
        3
 73
     0
 74
     0
 95
       77
 96
       73
 40
0.0
 40
0.0
 40
0.0
 40
0.0
 40
1.0
 40
1.0
 40
1.0
 40
2.0
 40
2.0
 40
2.0
 40
3.0
 40
3.0
 40
3.0
 40
4.0
 40
4.0
 40
4.0
 40
5.0
 40
5.0
 40
5.0
 40
6.0
 40
6.0
 40
6.0
 40
7.0
 40
7.0
 40
7.0
 40
8.0
 40
8.0
 40
8.0
 40
9.0
 40
9.0
 40
9.0
 40
10.0
 40
10.0
 40
10.0
 40
11.0
 40
11.0
 40
11.0
 40
12.0
 40
12.0
 40
12.0
 40
13.0
 40
13.0
 40
13.0
 40
14.0
 40
14.0
 40
14.0
 40
15.0
 40
15.0
 40
15.0
 40
16.0
 40
16.0
 40
16.0
 40
17.0
 40
17.0
 40
17.0
 40
18.0
 40
18.0
 40
18.0
 40
19.0
 40
19.0
 40
19.0
 40
20.0
 40
20.0
 40
20.0
 40
21.0
 40
21.0
 40
21.0
 40
22.0
 40
22.0
 40
22.0
 40
23.0
 40
23.0
 40
23.0
 40
24.0
 40
24.0
 40
24.0
 40
24.0
 10
129.1297579972314
 20
-150.5055419545611
 10
129.0891058705055
 20
-150.531035661152
 10
128.9798963436231
 20
-150.5437825144474
 10
128.9113389434666
 20
-150.5437825144474
 10
128.8999701283653
 20
-150.5437825144474
 10
128.8779215172597
 20
-150.5437825144474
 10
128.8482936960865
 20
-150.5393038903165
 10
128.8482936960865
 20
-150.5393038903165
 10
128.7631998376008
 20
-150.3129611169356
 10
128.7631998376008
 20
-150.3129611169356
 10
128.7890380537402
 20
-150.3195067983576
 10
128.8389919382763
 20
-150.3277750275222
 10
128.9409667646397
 20
-150.3277750275222
 10
129.0095241647962
 20
-150.3277750275222
 10
129.0112467125388
 20
-150.2857448626022
 10
129.0112467125388
 20
-150.228556277547
 10
129.0112467125388
 20
-150.228556277547
 10
129.0112467125388
 20
-149.8795681048912
 10
129.0112467125388
 20
-149.8795681048912
 10
129.0112467125388
 20
-149.8795681048912
 10
128.6095485789587
 20
-149.8795681048912
 10
128.6095485789587
 20
-149.8795681048912
 10
128.6112711267013
 20
-150.0170274147527
 10
128.6129936744439
 20
-150.2158094242516
 10
128.6188503367689
 20
-150.3491346195308
 10
128.6205728845115
 20
-150.3766953834127
 10
128.6205728845115
 20
-150.4211371151725
 10
128.6315971900643
 20
-150.4824598148099
 10
128.6315971900643
 20
-150.4824598148099
 10
128.4204128368185
 20
-150.4824598148099
 10
128.4204128368185
 20
-150.4824598148099
 10
128.4428059574726
 20
-150.3574028486954
 10
128.4428059574726
 20
-150.0170274147527
 10
128.4428059574726
 20
-149.8795681048912
 10
128.4428059574726
 20
-149.8795681048912
 10
128.0559217344791
 20
-149.8795681048912
 10
128.0559217344791
 20
-149.8795681048912
 10
128.0352511615675
 20
-150.0866183435547
 10
127.9780625765124
 20
-150.3553357914042
 10
127.8058078022499
 20
-150.5393038903165
 10
127.8058078022499
 20
-150.5393038903165
 10
127.641132238055
 20
-150.4166584910417
 10
127.641132238055
 20
-150.4166584910417
 10
127.8629963873051
 20
-150.1968613990827
 10
127.8909016607356
 20
-149.8647541943046
 10
127.8909016607356
 20
-149.5326469895266
 10
127.8909016607356
 20
-149.5326469895266
 10
127.8909016607356
 20
-149.0968424106424
 10
127.8909016607356
 20
-149.0968424106424
 10
127.8909016607356
 20
-149.0606689080473
 10
127.889179112993
 20
-148.8281249627929
 10
127.8815999029254
 20
-148.7264946459781
 10
128.0039007926518
 20
-148.7371744419824
 10
128.2150851458976
 20
-148.7371744419824
 10
128.3408311311092
 20
-148.7371744419824
 10
128.3408311311092
 20
-148.7371744419824
 10
128.7428737742379
 20
-148.7371744419824
 10
128.7428737742379
 20
-148.7371744419824
 10
128.7556206275333
 20
-148.7371744419824
 10
129.061200597075
 20
-148.7371744419824
 10
129.2000379451305
 20
-148.7264946459781
 10
129.1983153973879
 20
-148.7793768616767
 10
129.1928032446115
 20
-148.9400905660636
 10
129.1928032446115
 20
-148.9910779792453
 10
129.1928032446115
 20
-148.9910779792453
 10
129.1928032446115
 20
-149.5981038037463
 10
129.1928032446115
 20
-149.5981038037463
 10
129.1928032446115
 20
-149.6170518289152
 10
129.2021050024217
 20
-150.1882486603696
 10
129.2021050024217
 20
-150.3005587731887
 10
129.2021050024217
 20
-150.3574028486954
 10
129.2021050024217
 20
-150.4590331655102
 10
129.1297579972314
 20
-150.5055419545611
 97
        0
 97
        1
330
16B
 75
     2
 76
     1
 98
        1
 10
0.0
 20
0.0
450
        0
451
        0
460
0.0
461
0.0
452
        0
462
0.0
453
        0
470

  0
SPLINE
  5
16D
330
15C
100
AcDbEntity
  8
レイヤー 1
100
AcDbSpline
210
0.0
220
0.0
230
1.0
 70
     9
 71
     3
 72
    17
 73
    13
 74
     0
 42
0.0000000001
 43
0.0000000001
 40
0.0
 40
0.0
 40
0.0
 40
0.0
 40
1.0
 40
1.0
 40
1.0
 40
2.0
 40
2.0
 40
2.0
 40
3.0
 40
3.0
 40
3.0
 40
4.0
 40
4.0
 40
4.0
 40
4.0
 10
124.3517550687384
 20
-151.2665635472528
 30
0.0
 10
124.3035237319449
 20
-151.2665635472528
 30
0.0
 10
124.2645941529616
 20
-151.3110052790125
 30
0.0
 10
124.2645941529616
 20
-151.3661268067765
 30
0.0
 10
124.2645941529616
 20
-151.4229708822831
 30
0.0
 10
124.3035237319449
 20
-151.4718912381737
 30
0.0
 10
124.3555446737722
 20
-151.4718912381737
 30
0.0
 10
124.407221106051
 20
-151.4718912381737
 30
0.0
 10
124.4423610800005
 20
-151.420903824992
 30
0.0
 10
124.4423610800005
 20
-151.3681938640677
 30
0.0
 10
124.4423610800005
 20
-151.3110052790125
 30
0.0
 10
124.4017089532746
 20
-151.2665635472528
 30
0.0
 10
124.3517550687384
 20
-151.2665635472528
 30
0.0
  0
SPLINE
  5
16E
330
15C
100
AcDbEntity
  8
レイヤー 1
100
AcDbSpline
210
0.0
220
0.0
230
1.0
 70
     9
 71
     3
 72
    17
 73
    13
 74
     0
 42
0.0000000001
 43
0.0000000001
 40
0.0
 40
0.0
 40
0.0
 40
0.0
 40
1.0
 40
1.0
 40
1.0
 40
2.0
 40
2.0
 40
2.0
 40
3.0
 40
3.0
 40
3.0
 40
4.0
 40
4.0
 40
4.0
 40
4.0
 10
124.3534776164811
 20
-151.5966036947397
 30
0.0
 10
124.242545541856
 20
-151.5966036947397
 30
0.0
 10
124.1536620783366
 20
-151.4949733779249
 30
0.0
 10
124.1536620783366
 20
-151.3681938640677
 30
0.0
 10
124.1536620783366
 20
-151.2410698406619
 30
0.0
 10
124.242545541856
 20
-151.1373724665559
 30
0.0
 10
124.3534776164811
 20
-151.1373724665559
 30
0.0
 10
124.4647542006546
 20
-151.1373724665559
 30
0.0
 10
124.5553602119167
 20
-151.2410698406619
 30
0.0
 10
124.5553602119167
 20
-151.3681938640677
 30
0.0
 10
124.5553602119167
 20
-151.4949733779249
 30
0.0
 10
124.4647542006546
 20
-151.5966036947397
 30
0.0
 10
124.3534776164811
 20
-151.5966036947397
 30
0.0
  0
SPLINE
  5
16F
330
15C
100
AcDbEntity
  8
レイヤー 1
100
AcDbSpline
210
0.0
220
0.0
230
1.0
 70
     9
 71
     3
 72
    44
 73
    40
 74
     0
 42
0.0000000001
 43
0.0000000001
 40
0.0
 40
0.0
 40
0.0
 40
0.0
 40
1.0
 40
1.0
 40
1.0
 40
2.0
 40
2.0
 40
2.0
 40
3.0
 40
3.0
 40
3.0
 40
4.0
 40
4.0
 40
4.0
 40
5.0
 40
5.0
 40
5.0
 40
6.0
 40
6.0
 40
6.0
 40
7.0
 40
7.0
 40
7.0
 40
8.0
 40
8.0
 40
8.0
 40
9.0
 40
9.0
 40
9.0
 40
10.0
 40
10.0
 40
10.0
 40
11.0
 40
11.0
 40
11.0
 40
12.0
 40
12.0
 40
12.0
 40
13.0
 40
13.0
 40
13.0
 40
13.0
 10
124.1701985366658
 20
-151.7953857042386
 30
0.0
 10
124.0720133153361
 20
-152.1636664116118
 30
0.0
 10
124.0275715835764
 20
-152.3221408039333
 30
0.0
 10
123.8553168093139
 20
-152.5719102266139
 30
0.0
 10
123.6944308501528
 20
-152.8023871145772
 30
0.0
 10
123.4870361019407
 20
-152.9884222707807
 30
0.0
 10
123.242434322488
 20
-153.0817843584309
 30
0.0
 10
123.242434322488
 20
-153.0817843584309
 30
0.0
 10
123.0739691532592
 20
-152.9019503741009
 30
0.0
 10
123.0739691532592
 20
-152.9019503741009
 30
0.0
 10
123.6351752078065
 20
-152.7496771536528
 30
0.0
 10
123.9238742094704
 20
-152.193294232785
 30
0.0
 10
123.9796847563314
 20
-151.7530110297701
 30
0.0
 10
123.9796847563314
 20
-151.7530110297701
 30
0.0
 10
123.3092691749018
 20
-151.7530110297701
 30
0.0
 10
123.3092691749018
 20
-151.7530110297701
 30
0.0
 10
123.2276204119014
 20
-151.7530110297701
 30
0.0
 10
123.0667344527402
 20
-151.7574896539009
 30
0.0
 10
122.9296196524273
 20
-151.7764376790698
 30
0.0
 10
122.9296196524273
 20
-151.7764376790698
 30
0.0
 10
122.9296196524273
 20
-151.5562960775623
 30
0.0
 10
122.9296196524273
 20
-151.5562960775623
 30
0.0
 10
123.0054117531028
 20
-151.5776556695709
 30
0.0
 10
123.2258978641588
 20
-151.5776556695709
 30
0.0
 10
123.3127142703871
 20
-151.5776556695709
 30
0.0
 10
123.3127142703871
 20
-151.5776556695709
 30
0.0
 10
123.690641245119
 20
-151.5776556695709
 30
0.0
 10
123.690641245119
 20
-151.5776556695709
 30
0.0
 10
123.7275037668112
 20
-151.5776556695709
 30
0.0
 10
123.9331759672806
 20
-151.5752441027312
 30
0.0
 10
123.9665933934875
 20
-151.5690429308577
 30
0.0
 10
124.0034559151797
 20
-151.5628417589843
 30
0.0
 10
124.0055229724708
 20
-151.5607747016931
 30
0.0
 10
124.0592664620407
 20
-151.5204670845157
 30
0.0
 10
124.0592664620407
 20
-151.5204670845157
 30
0.0
 10
124.2239420262357
 20
-151.6748073622549
 30
0.0
 10
124.2239420262357
 20
-151.6748073622549
 30
0.0
 10
124.1981038100963
 20
-151.7044351834281
 30
0.0
 10
124.1850124472523
 20
-151.7361300618923
 30
0.0
 10
124.1701985366658
 20
-151.7953857042386
 30
0.0
  0
HATCH
  5
170
330
15C
100
AcDbEntity
  8
レイヤー 1
 62
   250
420
  2299925
440
 33554687
100
AcDbHatch
 10
0.0
 20
0.0
 30
0.0
210
0.0
220
0.0
230
1.0
  2
SOLID
 70
     1
 71
     1
 91
        3
 92
        1
 93
        1
 72
     4
 94
        3
 73
     0
 74
     0
 95
       17
 96
       13
 40
0.0
 40
0.0
 40
0.0
 40
0.0
 40
1.0
 40
1.0
 40
1.0
 40
2.0
 40
2.0
 40
2.0
 40
3.0
 40
3.0
 40
3.0
 40
4.0
 40
4.0
 40
4.0
 40
4.0
 10
124.3517550687384
 20
-151.2665635472528
 10
124.3035237319449
 20
-151.2665635472528
 10
124.2645941529616
 20
-151.3110052790125
 10
124.2645941529616
 20
-151.3661268067765
 10
124.2645941529616
 20
-151.4229708822831
 10
124.3035237319449
 20
-151.4718912381737
 10
124.3555446737722
 20
-151.4718912381737
 10
124.407221106051
 20
-151.4718912381737
 10
124.4423610800005
 20
-151.420903824992
 10
124.4423610800005
 20
-151.3681938640677
 10
124.4423610800005
 20
-151.3110052790125
 10
124.4017089532746
 20
-151.2665635472528
 10
124.3517550687384
 20
-151.2665635472528
 97
        0
 97
        1
330
16D
 92
        1
 93
        1
 72
     4
 94
        3
 73
     0
 74
     0
 95
       17
 96
       13
 40
0.0
 40
0.0
 40
0.0
 40
0.0
 40
1.0
 40
1.0
 40
1.0
 40
2.0
 40
2.0
 40
2.0
 40
3.0
 40
3.0
 40
3.0
 40
4.0
 40
4.0
 40
4.0
 40
4.0
 10
124.3534776164811
 20
-151.5966036947397
 10
124.242545541856
 20
-151.5966036947397
 10
124.1536620783366
 20
-151.4949733779249
 10
124.1536620783366
 20
-151.3681938640677
 10
124.1536620783366
 20
-151.2410698406619
 10
124.242545541856
 20
-151.1373724665559
 10
124.3534776164811
 20
-151.1373724665559
 10
124.4647542006546
 20
-151.1373724665559
 10
124.5553602119167
 20
-151.2410698406619
 10
124.5553602119167
 20
-151.3681938640677
 10
124.5553602119167
 20
-151.4949733779249
 10
124.4647542006546
 20
-151.5966036947397
 10
124.3534776164811
 20
-151.5966036947397
 97
        0
 97
        1
330
16E
 92
        1
 93
        1
 72
     4
 94
        3
 73
     0
 74
     0
 95
       44
 96
       40
 40
0.0
 40
0.0
 40
0.0
 40
0.0
 40
1.0
 40
1.0
 40
1.0
 40
2.0
 40
2.0
 40
2.0
 40
3.0
 40
3.0
 40
3.0
 40
4.0
 40
4.0
 40
4.0
 40
5.0
 40
5.0
 40
5.0
 40
6.0
 40
6.0
 40
6.0
 40
7.0
 40
7.0
 40
7.0
 40
8.0
 40
8.0
 40
8.0
 40
9.0
 40
9.0
 40
9.0
 40
10.0
 40
10.0
 40
10.0
 40
11.0
 40
11.0
 40
11.0
 40
12.0
 40
12.0
 40
12.0
 40
13.0
 40
13.0
 40
13.0
 40
13.0
 10
124.1701985366658
 20
-151.7953857042386
 10
124.0720133153361
 20
-152.1636664116118
 10
124.0275715835764
 20
-152.3221408039333
 10
123.8553168093139
 20
-152.5719102266139
 10
123.6944308501528
 20
-152.8023871145772
 10
123.4870361019407
 20
-152.9884222707807
 10
123.242434322488
 20
-153.0817843584309
 10
123.242434322488
 20
-153.0817843584309
 10
123.0739691532592
 20
-152.9019503741009
 10
123.0739691532592
 20
-152.9019503741009
 10
123.6351752078065
 20
-152.7496771536528
 10
123.9238742094704
 20
-152.193294232785
 10
123.9796847563314
 20
-151.7530110297701
 10
123.9796847563314
 20
-151.7530110297701
 10
123.3092691749018
 20
-151.7530110297701
 10
123.3092691749018
 20
-151.7530110297701
 10
123.2276204119014
 20
-151.7530110297701
 10
123.0667344527402
 20
-151.7574896539009
 10
122.9296196524273
 20
-151.7764376790698
 10
122.9296196524273
 20
-151.7764376790698
 10
122.9296196524273
 20
-151.5562960775623
 10
122.9296196524273
 20
-151.5562960775623
 10
123.0054117531028
 20
-151.5776556695709
 10
123.2258978641588
 20
-151.5776556695709
 10
123.3127142703871
 20
-151.5776556695709
 10
123.3127142703871
 20
-151.5776556695709
 10
123.690641245119
 20
-151.5776556695709
 10
123.690641245119
 20
-151.5776556695709
 10
123.7275037668112
 20
-151.5776556695709
 10
123.9331759672806
 20
-151.5752441027312
 10
123.9665933934875
 20
-151.5690429308577
 10
124.0034559151797
 20
-151.5628417589843
 10
124.0055229724708
 20
-151.5607747016931
 10
124.0592664620407
 20
-151.5204670845157
 10
124.0592664620407
 20
-151.5204670845157
 10
124.2239420262357
 20
-151.6748073622549
 10
124.2239420262357
 20
-151.6748073622549
 10
124.1981038100963
 20
-151.7044351834281
 10
124.1850124472523
 20
-151.7361300618923
 10
124.1701985366658
 20
-151.7953857042386
 97
        0
 97
        1
330
16F
 75
     2
 76
     1
 98
        1
 10
0.0
 20
0.0
450
        0
451
        0
460
0.0
461
0.0
452
        0
462
0.0
453
        0
470

  0
SPLINE
  5
171
330
15C
100
AcDbEntity
  8
レイヤー 1
100
AcDbSpline
210
0.0
220
0.0
230
1.0
 70
     9
 71
     3
 72
    29
 73
    25
 74
     0
 42
0.0000000001
 43
0.0000000001
 40
0.0
 40
0.0
 40
0.0
 40
0.0
 40
1.0
 40
1.0
 40
1.0
 40
2.0
 40
2.0
 40
2.0
 40
3.0
 40
3.0
 40
3.0
 40
4.0
 40
4.0
 40
4.0
 40
5.0
 40
5.0
 40
5.0
 40
6.0
 40
6.0
 40
6.0
 40
7.0
 40
7.0
 40
7.0
 40
8.0
 40
8.0
 40
8.0
 40
8.0
 10
125.4944932411958
 20
-151.4780924100471
 30
0.0
 10
125.4944932411958
 20
-151.4780924100471
 30
0.0
 10
125.1964924817217
 20
-151.4780924100471
 30
0.0
 10
125.1964924817217
 20
-151.4780924100471
 30
0.0
 10
125.0965847126495
 20
-151.4780924100471
 30
0.0
 10
124.9946098862861
 20
-151.4822265246294
 30
0.0
 10
124.8947021172138
 20
-151.497040435216
 30
0.0
 10
124.8947021172138
 20
-151.497040435216
 30
0.0
 10
124.8947021172138
 20
-151.2875786297128
 30
0.0
 10
124.8947021172138
 20
-151.2875786297128
 30
0.0
 10
124.9983994913198
 20
-151.3023925402994
 30
0.0
 10
125.1503282022193
 20
-151.3068711644302
 30
0.0
 10
125.1964924817217
 20
-151.3068711644302
 30
0.0
 10
125.1964924817217
 20
-151.3068711644302
 30
0.0
 10
125.4944932411958
 20
-151.3068711644302
 30
0.0
 10
125.4944932411958
 20
-151.3068711644302
 30
0.0
 10
125.5964680675592
 20
-151.3068711644302
 30
0.0
 10
125.6980983843741
 20
-151.3023925402994
 30
0.0
 10
125.8000732107375
 20
-151.2875786297128
 30
0.0
 10
125.8000732107375
 20
-151.2875786297128
 30
0.0
 10
125.8000732107375
 20
-151.497040435216
 30
0.0
 10
125.8000732107375
 20
-151.497040435216
 30
0.0
 10
125.6684705632009
 20
-151.4780924100471
 30
0.0
 10
125.5075846040398
 20
-151.4780924100471
 30
0.0
 10
125.4944932411958
 20
-151.4780924100471
 30
0.0
  0
SPLINE
  5
172
330
15C
100
AcDbEntity
  8
レイヤー 1
100
AcDbSpline
210
0.0
220
0.0
230
1.0
 70
     9
 71
     3
 72
    50
 73
    46
 74
     0
 42
0.0000000001
 43
0.0000000001
 40
0.0
 40
0.0
 40
0.0
 40
0.0
 40
1.0
 40
1.0
 40
1.0
 40
2.0
 40
2.0
 40
2.0
 40
3.0
 40
3.0
 40
3.0
 40
4.0
 40
4.0
 40
4.0
 40
5.0
 40
5.0
 40
5.0
 40
6.0
 40
6.0
 40
6.0
 40
7.0
 40
7.0
 40
7.0
 40
8.0
 40
8.0
 40
8.0
 40
9.0
 40
9.0
 40
9.0
 40
10.0
 40
10.0
 40
10.0
 40
11.0
 40
11.0
 40
11.0
 40
12.0
 40
12.0
 40
12.0
 40
13.0
 40
13.0
 40
13.0
 40
14.0
 40
14.0
 40
14.0
 40
15.0
 40
15.0
 40
15.0
 40
15.0
 10
125.9261637054976
 20
-152.1044107692655
 30
0.0
 10
125.8576063053411
 20
-152.2818331867559
 30
0.0
 10
125.7390950206485
 20
-152.4892279349679
 30
0.0
 10
125.6185166786648
 20
-152.6290988116691
 30
0.0
 10
125.4703775727991
 20
-152.800320057286
 30
0.0
 10
125.3280951292582
 20
-152.8892035208055
 30
0.0
 10
125.048353375856
 20
-153.0307969452492
 30
0.0
 10
125.048353375856
 20
-153.0307969452492
 30
0.0
 10
124.9002142699902
 20
-152.8426947317546
 30
0.0
 10
124.9002142699902
 20
-152.8426947317546
 30
0.0
 10
125.0631672864425
 20
-152.8192680824549
 30
0.0
 10
125.2130289400509
 20
-152.7324516762266
 30
0.0
 10
125.3463541353301
 20
-152.6266872448294
 30
0.0
 10
125.5761420041962
 20
-152.4447862032082
 30
0.0
 10
125.7428846256823
 20
-152.131627023599
 30
0.0
 10
125.7852593001509
 20
-151.9497259819778
 30
0.0
 10
125.7852593001509
 20
-151.9497259819778
 30
0.0
 10
125.1982150294643
 20
-151.9497259819778
 30
0.0
 10
125.1982150294643
 20
-151.9497259819778
 30
0.0
 10
125.0593776814088
 20
-151.9497259819778
 30
0.0
 10
124.8037515964032
 20
-151.958338720691
 30
0.0
 10
124.670426401124
 20
-151.9752196885687
 30
0.0
 10
124.670426401124
 20
-151.9752196885687
 30
0.0
 10
124.670426401124
 20
-151.7468098578966
 30
0.0
 10
124.670426401124
 20
-151.7468098578966
 30
0.0
 10
124.7000542222972
 20
-151.7530110297701
 30
0.0
 10
124.7224473429513
 20
-151.759556711192
 30
0.0
 10
124.7686116224537
 20
-151.7636908257744
 30
0.0
 10
124.8574950859731
 20
-151.7698919976478
 30
0.0
 10
125.0297498602356
 20
-151.7723035644875
 30
0.0
 10
125.1038194131685
 20
-151.7723035644875
 30
0.0
 10
125.1038194131685
 20
-151.7723035644875
 30
0.0
 10
125.5465141830231
 20
-151.7723035644875
 30
0.0
 10
125.5465141830231
 20
-151.7723035644875
 30
0.0
 10
125.6057698253694
 20
-151.7723035644875
 30
0.0
 10
125.7335828678721
 20
-151.7678249403566
 30
0.0
 10
125.7869818478935
 20
-151.7616237684832
 30
0.0
 10
125.8500270952736
 20
-151.7530110297701
 30
0.0
 10
125.8741427636703
 20
-151.7381971191835
 30
0.0
 10
125.9037705848435
 20
-151.7151149794323
 30
0.0
 10
125.9037705848435
 20
-151.7151149794323
 30
0.0
 10
126.0481200856754
 20
-151.8822021104669
 30
0.0
 10
126.0481200856754
 20
-151.8822021104669
 30
0.0
 10
125.9871418955865
 20
-151.9497259819778
 30
0.0
 10
125.9464897688606
 20
-152.0534233560838
 30
0.0
 10
125.9261637054976
 20
-152.1044107692655
 30
0.0
  0
HATCH
  5
173
330
15C
100
AcDbEntity
  8
レイヤー 1
 62
   250
420
  2299925
440
 33554687
100
AcDbHatch
 10
0.0
 20
0.0
 30
0.0
210
0.0
220
0.0
230
1.0
  2
SOLID
 70
     1
 71
     1
 91
        2
 92
        1
 93
        1
 72
     4
 94
        3
 73
     0
 74
     0
 95
       29
 96
       25
 40
0.0
 40
0.0
 40
0.0
 40
0.0
 40
1.0
 40
1.0
 40
1.0
 40
2.0
 40
2.0
 40
2.0
 40
3.0
 40
3.0
 40
3.0
 40
4.0
 40
4.0
 40
4.0
 40
5.0
 40
5.0
 40
5.0
 40
6.0
 40
6.0
 40
6.0
 40
7.0
 40
7.0
 40
7.0
 40
8.0
 40
8.0
 40
8.0
 40
8.0
 10
125.4944932411958
 20
-151.4780924100471
 10
125.4944932411958
 20
-151.4780924100471
 10
125.1964924817217
 20
-151.4780924100471
 10
125.1964924817217
 20
-151.4780924100471
 10
125.0965847126495
 20
-151.4780924100471
 10
124.9946098862861
 20
-151.4822265246294
 10
124.8947021172138
 20
-151.497040435216
 10
124.8947021172138
 20
-151.497040435216
 10
124.8947021172138
 20
-151.2875786297128
 10
124.8947021172138
 20
-151.2875786297128
 10
124.9983994913198
 20
-151.3023925402994
 10
125.1503282022193
 20
-151.3068711644302
 10
125.1964924817217
 20
-151.3068711644302
 10
125.1964924817217
 20
-151.3068711644302
 10
125.4944932411958
 20
-151.3068711644302
 10
125.4944932411958
 20
-151.3068711644302
 10
125.5964680675592
 20
-151.3068711644302
 10
125.6980983843741
 20
-151.3023925402994
 10
125.8000732107375
 20
-151.2875786297128
 10
125.8000732107375
 20
-151.2875786297128
 10
125.8000732107375
 20
-151.497040435216
 10
125.8000732107375
 20
-151.497040435216
 10
125.6684705632009
 20
-151.4780924100471
 10
125.5075846040398
 20
-151.4780924100471
 10
125.4944932411958
 20
-151.4780924100471
 97
        0
 97
        1
330
171
 92
        1
 93
        1
 72
     4
 94
        3
 73
     0
 74
     0
 95
       50
 96
       46
 40
0.0
 40
0.0
 40
0.0
 40
0.0
 40
1.0
 40
1.0
 40
1.0
 40
2.0
 40
2.0
 40
2.0
 40
3.0
 40
3.0
 40
3.0
 40
4.0
 40
4.0
 40
4.0
 40
5.0
 40
5.0
 40
5.0
 40
6.0
 40
6.0
 40
6.0
 40
7.0
 40
7.0
 40
7.0
 40
8.0
 40
8.0
 40
8.0
 40
9.0
 40
9.0
 40
9.0
 40
10.0
 40
10.0
 40
10.0
 40
11.0
 40
11.0
 40
11.0
 40
12.0
 40
12.0
 40
12.0
 40
13.0
 40
13.0
 40
13.0
 40
14.0
 40
14.0
 40
14.0
 40
15.0
 40
15.0
 40
15.0
 40
15.0
 10
125.9261637054976
 20
-152.1044107692655
 10
125.8576063053411
 20
-152.2818331867559
 10
125.7390950206485
 20
-152.4892279349679
 10
125.6185166786648
 20
-152.6290988116691
 10
125.4703775727991
 20
-152.800320057286
 10
125.3280951292582
 20
-152.8892035208055
 10
125.048353375856
 20
-153.0307969452492
 10
125.048353375856
 20
-153.0307969452492
 10
124.9002142699902
 20
-152.8426947317546
 10
124.9002142699902
 20
-152.8426947317546
 10
125.0631672864425
 20
-152.8192680824549
 10
125.2130289400509
 20
-152.7324516762266
 10
125.3463541353301
 20
-152.6266872448294
 10
125.5761420041962
 20
-152.4447862032082
 10
125.7428846256823
 20
-152.131627023599
 10
125.7852593001509
 20
-151.9497259819778
 10
125.7852593001509
 20
-151.9497259819778
 10
125.1982150294643
 20
-151.9497259819778
 10
125.1982150294643
 20
-151.9497259819778
 10
125.0593776814088
 20
-151.9497259819778
 10
124.8037515964032
 20
-151.958338720691
 10
124.670426401124
 20
-151.9752196885687
 10
124.670426401124
 20
-151.9752196885687
 10
124.670426401124
 20
-151.7468098578966
 10
124.670426401124
 20
-151.7468098578966
 10
124.7000542222972
 20
-151.7530110297701
 10
124.7224473429513
 20
-151.759556711192
 10
124.7686116224537
 20
-151.7636908257744
 10
124.8574950859731
 20
-151.7698919976478
 10
125.0297498602356
 20
-151.7723035644875
 10
125.1038194131685
 20
-151.7723035644875
 10
125.1038194131685
 20
-151.7723035644875
 10
125.5465141830231
 20
-151.7723035644875
 10
125.5465141830231
 20
-151.7723035644875
 10
125.6057698253694
 20
-151.7723035644875
 10
125.7335828678721
 20
-151.7678249403566
 10
125.7869818478935
 20
-151.7616237684832
 10
125.8500270952736
 20
-151.7530110297701
 10
125.8741427636703
 20
-151.7381971191835
 10
125.9037705848435
 20
-151.7151149794323
 10
125.9037705848435
 20
-151.7151149794323
 10
126.0481200856754
 20
-151.8822021104669
 10
126.0481200856754
 20
-151.8822021104669
 10
125.9871418955865
 20
-151.9497259819778
 10
125.9464897688606
 20
-152.0534233560838
 10
125.9261637054976
 20
-152.1044107692655
 97
        0
 97
        1
330
172
 75
     2
 76
     1
 98
        1
 10
0.0
 20
0.0
450
        0
451
        0
460
0.0
461
0.0
452
        0
462
0.0
453
        0
470

  0
SPLINE
  5
174
330
15C
100
AcDbEntity
  8
レイヤー 1
100
AcDbSpline
210
0.0
220
0.0
230
1.0
 70
     9
 71
     3
 72
    50
 73
    46
 74
     0
 42
0.0000000001
 43
0.0000000001
 40
0.0
 40
0.0
 40
0.0
 40
0.0
 40
1.0
 40
1.0
 40
1.0
 40
2.0
 40
2.0
 40
2.0
 40
3.0
 40
3.0
 40
3.0
 40
4.0
 40
4.0
 40
4.0
 40
5.0
 40
5.0
 40
5.0
 40
6.0
 40
6.0
 40
6.0
 40
7.0
 40
7.0
 40
7.0
 40
8.0
 40
8.0
 40
8.0
 40
9.0
 40
9.0
 40
9.0
 40
10.0
 40
10.0
 40
10.0
 40
11.0
 40
11.0
 40
11.0
 40
12.0
 40
12.0
 40
12.0
 40
13.0
 40
13.0
 40
13.0
 40
14.0
 40
14.0
 40
14.0
 40
15.0
 40
15.0
 40
15.0
 40
15.0
 10
127.4240912224842
 20
-151.4632784994606
 30
0.0
 10
127.240812142669
 20
-151.676874419546
 30
0.0
 10
127.1781114048374
 20
-151.7488769151878
 30
0.0
 10
127.0537434578199
 20
-151.8673881998804
 30
0.0
 10
127.0537434578199
 20
-151.8673881998804
 30
0.0
 10
127.0537434578199
 20
-152.4344509167525
 30
0.0
 10
127.0537434578199
 20
-152.4344509167525
 30
0.0
 10
127.0537434578199
 20
-152.5846570799094
 30
0.0
 10
127.0596001201448
 20
-152.6036051050782
 30
0.0
 10
127.06304521563
 20
-152.7813720321171
 30
0.0
 10
127.0651122729212
 20
-152.9122856605566
 30
0.0
 10
127.0706244256976
 20
-152.9612060164472
 30
0.0
 10
127.076136578474
 20
-153.0204616587935
 30
0.0
 10
127.076136578474
 20
-153.0204616587935
 30
0.0
 10
126.8780435880721
 20
-153.0204616587935
 30
0.0
 10
126.8780435880721
 20
-153.0204616587935
 30
0.0
 10
126.8818331931059
 20
-152.9760199270338
 30
0.0
 10
126.8852782885911
 20
-152.9291666284344
 30
0.0
 10
126.8852782885911
 20
-152.9208983992698
 30
0.0
 10
126.8852782885911
 20
-152.8406276744634
 30
0.0
 10
126.8890678936249
 20
-152.4892279349679
 30
0.0
 10
126.8890678936249
 20
-152.4172254393262
 30
0.0
 10
126.8890678936249
 20
-152.4172254393262
 30
0.0
 10
126.8890678936249
 20
-152.0110486816153
 30
0.0
 10
126.8890678936249
 20
-152.0110486816153
 30
0.0
 10
126.7299044822064
 20
-152.1361056477298
 30
0.0
 10
126.5593722556865
 20
-152.2460041937093
 30
0.0
 10
126.3816053286476
 20
-152.3328205999376
 30
0.0
 10
126.3816053286476
 20
-152.3328205999376
 30
0.0
 10
126.2038384016087
 20
-152.1698675834853
 30
0.0
 10
126.2038384016087
 20
-152.1698675834853
 30
0.0
 10
126.3113253807485
 20
-152.1340385904387
 30
0.0
 10
126.5352565872898
 20
-152.0599690375058
 30
0.0
 10
126.8370469517977
 20
-151.8039984429518
 30
0.0
 10
127.0261826939379
 20
-151.6451795410818
 30
0.0
 10
127.1946478631666
 20
-151.4570773275871
 30
0.0
 10
127.3279730584458
 20
-151.2369357260796
 30
0.0
 10
127.3279730584458
 20
-151.2369357260796
 30
0.0
 10
127.4964382276745
 20
-151.3809407173631
 30
0.0
 10
127.4964382276745
 20
-151.3809407173631
 30
0.0
 10
127.5074625332273
 20
-151.3912760038188
 30
0.0
 10
127.5150417432948
 20
-151.4060899144054
 30
0.0
 10
127.5150417432948
 20
-151.4188367677008
 30
0.0
 10
127.5150417432948
 20
-151.4591443848783
 30
0.0
 10
127.4816243170879
 20
-151.4591443848783
 30
0.0
 10
127.4240912224842
 20
-151.4632784994606
 30
0.0
  0
HATCH
  5
175
330
15C
100
AcDbEntity
  8
レイヤー 1
 62
   250
420
  2299925
440
 33554687
100
AcDbHatch
 10
0.0
 20
0.0
 30
0.0
210
0.0
220
0.0
230
1.0
  2
SOLID
 70
     1
 71
     1
 91
        1
 92
        1
 93
        1
 72
     4
 94
        3
 73
     0
 74
     0
 95
       50
 96
       46
 40
0.0
 40
0.0
 40
0.0
 40
0.0
 40
1.0
 40
1.0
 40
1.0
 40
2.0
 40
2.0
 40
2.0
 40
3.0
 40
3.0
 40
3.0
 40
4.0
 40
4.0
 40
4.0
 40
5.0
 40
5.0
 40
5.0
 40
6.0
 40
6.0
 40
6.0
 40
7.0
 40
7.0
 40
7.0
 40
8.0
 40
8.0
 40
8.0
 40
9.0
 40
9.0
 40
9.0
 40
10.0
 40
10.0
 40
10.0
 40
11.0
 40
11.0
 40
11.0
 40
12.0
 40
12.0
 40
12.0
 40
13.0
 40
13.0
 40
13.0
 40
14.0
 40
14.0
 40
14.0
 40
15.0
 40
15.0
 40
15.0
 40
15.0
 10
127.4240912224842
 20
-151.4632784994606
 10
127.240812142669
 20
-151.676874419546
 10
127.1781114048374
 20
-151.7488769151878
 10
127.0537434578199
 20
-151.8673881998804
 10
127.0537434578199
 20
-151.8673881998804
 10
127.0537434578199
 20
-152.4344509167525
 10
127.0537434578199
 20
-152.4344509167525
 10
127.0537434578199
 20
-152.5846570799094
 10
127.0596001201448
 20
-152.6036051050782
 10
127.06304521563
 20
-152.7813720321171
 10
127.0651122729212
 20
-152.9122856605566
 10
127.0706244256976
 20
-152.9612060164472
 10
127.076136578474
 20
-153.0204616587935
 10
127.076136578474
 20
-153.0204616587935
 10
126.8780435880721
 20
-153.0204616587935
 10
126.8780435880721
 20
-153.0204616587935
 10
126.8818331931059
 20
-152.9760199270338
 10
126.8852782885911
 20
-152.9291666284344
 10
126.8852782885911
 20
-152.9208983992698
 10
126.8852782885911
 20
-152.8406276744634
 10
126.8890678936249
 20
-152.4892279349679
 10
126.8890678936249
 20
-152.4172254393262
 10
126.8890678936249
 20
-152.4172254393262
 10
126.8890678936249
 20
-152.0110486816153
 10
126.8890678936249
 20
-152.0110486816153
 10
126.7299044822064
 20
-152.1361056477298
 10
126.5593722556865
 20
-152.2460041937093
 10
126.3816053286476
 20
-152.3328205999376
 10
126.3816053286476
 20
-152.3328205999376
 10
126.2038384016087
 20
-152.1698675834853
 10
126.2038384016087
 20
-152.1698675834853
 10
126.3113253807485
 20
-152.1340385904387
 10
126.5352565872898
 20
-152.0599690375058
 10
126.8370469517977
 20
-151.8039984429518
 10
127.0261826939379
 20
-151.6451795410818
 10
127.1946478631666
 20
-151.4570773275871
 10
127.3279730584458
 20
-151.2369357260796
 10
127.3279730584458
 20
-151.2369357260796
 10
127.4964382276745
 20
-151.3809407173631
 10
127.4964382276745
 20
-151.3809407173631
 10
127.5074625332273
 20
-151.3912760038188
 10
127.5150417432948
 20
-151.4060899144054
 10
127.5150417432948
 20
-151.4188367677008
 10
127.5150417432948
 20
-151.4591443848783
 10
127.4816243170879
 20
-151.4591443848783
 10
127.4240912224842
 20
-151.4632784994606
 97
        0
 97
        1
330
174
 75
     2
 76
     1
 98
        1
 10
0.0
 20
0.0
450
        0
451
        0
460
0.0
461
0.0
452
        0
462
0.0
453
        0
470

  0
SPLINE
  5
176
330
15C
100
AcDbEntity
  8
レイヤー 1
100
AcDbSpline
210
0.0
220
0.0
230
1.0
 70
     9
 71
     3
 72
    50
 73
    46
 74
     0
 42
0.0000000001
 43
0.0000000001
 40
0.0
 40
0.0
 40
0.0
 40
0.0
 40
1.0
 40
1.0
 40
1.0
 40
2.0
 40
2.0
 40
2.0
 40
3.0
 40
3.0
 40
3.0
 40
4.0
 40
4.0
 40
4.0
 40
5.0
 40
5.0
 40
5.0
 40
6.0
 40
6.0
 40
6.0
 40
7.0
 40
7.0
 40
7.0
 40
8.0
 40
8.0
 40
8.0
 40
9.0
 40
9.0
 40
9.0
 40
10.0
 40
10.0
 40
10.0
 40
11.0
 40
11.0
 40
11.0
 40
12.0
 40
12.0
 40
12.0
 40
13.0
 40
13.0
 40
13.0
 40
14.0
 40
14.0
 40
14.0
 40
15.0
 40
15.0
 40
15.0
 40
15.0
 10
128.9202961917282
 20
-151.9900335991553
 30
0.0
 10
128.8668972117068
 20
-152.062036094797
 30
0.0
 10
128.6388318905833
 20
-152.3793293889885
 30
0.0
 10
128.5888780060472
 20
-152.4427191459171
 30
0.0
 10
128.6629475589801
 20
-152.5402153481496
 30
0.0
 10
128.7073892907398
 20
-152.6036051050782
 30
0.0
 10
128.7649223853435
 20
-152.6945556258889
 30
0.0
 10
128.7649223853435
 20
-152.6945556258889
 30
0.0
 10
128.6036919166338
 20
-152.8320149357503
 30
0.0
 10
128.6036919166338
 20
-152.8320149357503
 30
0.0
 10
128.4851806319412
 20
-152.620486072956
 30
0.0
 10
128.3353189783328
 20
-152.3962103568662
 30
0.0
 10
128.0779703455847
 20
-152.1974283473673
 30
0.0
 10
128.0779703455847
 20
-152.1974283473673
 30
0.0
 10
128.2075059358301
 20
-152.0430880696281
 30
0.0
 10
128.2075059358301
 20
-152.0430880696281
 30
0.0
 10
128.303968609417
 20
-152.1233587944344
 30
0.0
 10
128.3945746206791
 20
-152.2122422579539
 30
0.0
 10
128.4796684791648
 20
-152.3073268933468
 30
0.0
 10
128.5389241215111
 20
-152.2311902831227
 30
0.0
 10
128.71669104855
 20
-151.9879665418641
 30
0.0
 10
128.8334797854999
 20
-151.759556711192
 30
0.0
 10
128.8334797854999
 20
-151.759556711192
 30
0.0
 10
128.2447129670707
 20
-151.759556711192
 30
0.0
 10
128.2447129670707
 20
-151.759556711192
 30
0.0
 10
128.1351589306398
 20
-151.759556711192
 30
0.0
 10
127.9150173291323
 20
-151.7678249403566
 30
0.0
 10
127.731738249317
 20
-151.7785047363609
 30
0.0
 10
127.731738249317
 20
-151.7785047363609
 30
0.0
 10
127.731738249317
 20
-151.5583631348534
 30
0.0
 10
127.731738249317
 20
-151.5583631348534
 30
0.0
 10
127.8926242084782
 20
-151.5776556695709
 30
0.0
 10
128.0724581928083
 20
-151.5817897841531
 30
0.0
 10
128.2371337570032
 20
-151.5817897841531
 30
0.0
 10
128.2371337570032
 20
-151.5817897841531
 30
0.0
 10
128.6777614695667
 20
-151.5817897841531
 30
0.0
 10
128.6777614695667
 20
-151.5817897841531
 30
0.0
 10
128.9740396812981
 20
-151.5817897841531
 30
0.0
 10
129.0129692602815
 20
-151.5669758735666
 30
0.0
 10
129.0853162654717
 20
-151.5266682563892
 30
0.0
 10
129.0853162654717
 20
-151.5266682563892
 30
0.0
 10
129.2313883140463
 20
-151.6854871582592
 30
0.0
 10
129.2313883140463
 20
-151.6854871582592
 30
0.0
 10
129.0980631187671
 20
-151.7574896539009
 30
0.0
 10
128.9723171335555
 20
-151.9200981608047
 30
0.0
 10
128.9202961917282
 20
-151.9900335991553
 30
0.0
  0
HATCH
  5
177
330
15C
100
AcDbEntity
  8
レイヤー 1
 62
   250
420
  2299925
440
 33554687
100
AcDbHatch
 10
0.0
 20
0.0
 30
0.0
210
0.0
220
0.0
230
1.0
  2
SOLID
 70
     1
 71
     1
 91
        1
 92
        1
 93
        1
 72
     4
 94
        3
 73
     0
 74
     0
 95
       50
 96
       46
 40
0.0
 40
0.0
 40
0.0
 40
0.0
 40
1.0
 40
1.0
 40
1.0
 40
2.0
 40
2.0
 40
2.0
 40
3.0
 40
3.0
 40
3.0
 40
4.0
 40
4.0
 40
4.0
 40
5.0
 40
5.0
 40
5.0
 40
6.0
 40
6.0
 40
6.0
 40
7.0
 40
7.0
 40
7.0
 40
8.0
 40
8.0
 40
8.0
 40
9.0
 40
9.0
 40
9.0
 40
10.0
 40
10.0
 40
10.0
 40
11.0
 40
11.0
 40
11.0
 40
12.0
 40
12.0
 40
12.0
 40
13.0
 40
13.0
 40
13.0
 40
14.0
 40
14.0
 40
14.0
 40
15.0
 40
15.0
 40
15.0
 40
15.0
 10
128.9202961917282
 20
-151.9900335991553
 10
128.8668972117068
 20
-152.062036094797
 10
128.6388318905833
 20
-152.3793293889885
 10
128.5888780060472
 20
-152.4427191459171
 10
128.6629475589801
 20
-152.5402153481496
 10
128.7073892907398
 20
-152.6036051050782
 10
128.7649223853435
 20
-152.6945556258889
 10
128.7649223853435
 20
-152.6945556258889
 10
128.6036919166338
 20
-152.8320149357503
 10
128.6036919166338
 20
-152.8320149357503
 10
128.4851806319412
 20
-152.620486072956
 10
128.3353189783328
 20
-152.3962103568662
 10
128.0779703455847
 20
-152.1974283473673
 10
128.0779703455847
 20
-152.1974283473673
 10
128.2075059358301
 20
-152.0430880696281
 10
128.2075059358301
 20
-152.0430880696281
 10
128.303968609417
 20
-152.1233587944344
 10
128.3945746206791
 20
-152.2122422579539
 10
128.4796684791648
 20
-152.3073268933468
 10
128.5389241215111
 20
-152.2311902831227
 10
128.71669104855
 20
-151.9879665418641
 10
128.8334797854999
 20
-151.759556711192
 10
128.8334797854999
 20
-151.759556711192
 10
128.2447129670707
 20
-151.759556711192
 10
128.2447129670707
 20
-151.759556711192
 10
128.1351589306398
 20
-151.759556711192
 10
127.9150173291323
 20
-151.7678249403566
 10
127.731738249317
 20
-151.7785047363609
 10
127.731738249317
 20
-151.7785047363609
 10
127.731738249317
 20
-151.5583631348534
 10
127.731738249317
 20
-151.5583631348534
 10
127.8926242084782
 20
-151.5776556695709
 10
128.0724581928083
 20
-151.5817897841531
 10
128.2371337570032
 20
-151.5817897841531
 10
128.2371337570032
 20
-151.5817897841531
 10
128.6777614695667
 20
-151.5817897841531
 10
128.6777614695667
 20
-151.5817897841531
 10
128.9740396812981
 20
-151.5817897841531
 10
129.0129692602815
 20
-151.5669758735666
 10
129.0853162654717
 20
-151.5266682563892
 10
129.0853162654717
 20
-151.5266682563892
 10
129.2313883140463
 20
-151.6854871582592
 10
129.2313883140463
 20
-151.6854871582592
 10
129.0980631187671
 20
-151.7574896539009
 10
128.9723171335555
 20
-151.9200981608047
 10
128.9202961917282
 20
-151.9900335991553
 97
        0
 97
        1
330
176
 75
     2
 76
     1
 98
        1
 10
0.0
 20
0.0
450
        0
451
        0
460
0.0
461
0.0
452
        0
462
0.0
453
        0
470

  0
SPLINE
  5
178
330
15C
100
AcDbEntity
  8
レイヤー 1
100
AcDbSpline
210
0.0
220
0.0
230
1.0
 70
     9
 71
     3
 72
    29
 73
    25
 74
     0
 42
0.0000000001
 43
0.0000000001
 40
0.0
 40
0.0
 40
0.0
 40
0.0
 40
1.0
 40
1.0
 40
1.0
 40
2.0
 40
2.0
 40
2.0
 40
3.0
 40
3.0
 40
3.0
 40
4.0
 40
4.0
 40
4.0
 40
5.0
 40
5.0
 40
5.0
 40
6.0
 40
6.0
 40
6.0
 40
7.0
 40
7.0
 40
7.0
 40
8.0
 40
8.0
 40
8.0
 40
8.0
 10
130.3427761175879
 20
-152.2332573404139
 30
0.0
 10
130.3427761175879
 20
-152.2332573404139
 30
0.0
 10
129.9186848633536
 20
-152.2332573404139
 30
0.0
 10
129.9186848633536
 20
-152.2332573404139
 30
0.0
 10
129.8945691949569
 20
-152.2332573404139
 30
0.0
 10
129.6165499892972
 20
-152.2332573404139
 30
0.0
 10
129.4315483617393
 20
-152.2587510470047
 30
0.0
 10
129.4315483617393
 20
-152.2587510470047
 30
0.0
 10
129.4315483617393
 20
-152.0282741590415
 30
0.0
 10
129.4315483617393
 20
-152.0282741590415
 30
0.0
 10
129.5703857097949
 20
-152.0513562987927
 30
0.0
 10
129.737128331281
 20
-152.0534233560838
 30
0.0
 10
129.9186848633536
 20
-152.0534233560838
 30
0.0
 10
129.9186848633536
 20
-152.0534233560838
 30
0.0
 10
130.3427761175879
 20
-152.0534233560838
 30
0.0
 10
130.3427761175879
 20
-152.0534233560838
 30
0.0
 10
130.5053846244917
 20
-152.0534233560838
 30
0.0
 10
130.6686821504925
 20
-152.0513562987927
 30
0.0
 10
130.8295681096537
 20
-152.0282741590415
 30
0.0
 10
130.8295681096537
 20
-152.0282741590415
 30
0.0
 10
130.8295681096537
 20
-152.2587510470047
 30
0.0
 10
130.8295681096537
 20
-152.2587510470047
 30
0.0
 10
130.6686821504925
 20
-152.235324397705
 30
0.0
 10
130.4519856444703
 20
-152.2332573404139
 30
0.0
 10
130.3427761175879
 20
-152.2332573404139
 30
0.0
  0
HATCH
  5
179
330
15C
100
AcDbEntity
  8
レイヤー 1
 62
   250
420
  2299925
440
 33554687
100
AcDbHatch
 10
0.0
 20
0.0
 30
0.0
210
0.0
220
0.0
230
1.0
  2
SOLID
 70
     1
 71
     1
 91
        1
 92
        1
 93
        1
 72
     4
 94
        3
 73
     0
 74
     0
 95
       29
 96
       25
 40
0.0
 40
0.0
 40
0.0
 40
0.0
 40
1.0
 40
1.0
 40
1.0
 40
2.0
 40
2.0
 40
2.0
 40
3.0
 40
3.0
 40
3.0
 40
4.0
 40
4.0
 40
4.0
 40
5.0
 40
5.0
 40
5.0
 40
6.0
 40
6.0
 40
6.0
 40
7.0
 40
7.0
 40
7.0
 40
8.0
 40
8.0
 40
8.0
 40
8.0
 10
130.3427761175879
 20
-152.2332573404139
 10
130.3427761175879
 20
-152.2332573404139
 10
129.9186848633536
 20
-152.2332573404139
 10
129.9186848633536
 20
-152.2332573404139
 10
129.8945691949569
 20
-152.2332573404139
 10
129.6165499892972
 20
-152.2332573404139
 10
129.4315483617393
 20
-152.2587510470047
 10
129.4315483617393
 20
-152.2587510470047
 10
129.4315483617393
 20
-152.0282741590415
 10
129.4315483617393
 20
-152.0282741590415
 10
129.5703857097949
 20
-152.0513562987927
 10
129.737128331281
 20
-152.0534233560838
 10
129.9186848633536
 20
-152.0534233560838
 10
129.9186848633536
 20
-152.0534233560838
 10
130.3427761175879
 20
-152.0534233560838
 10
130.3427761175879
 20
-152.0534233560838
 10
130.5053846244917
 20
-152.0534233560838
 10
130.6686821504925
 20
-152.0513562987927
 10
130.8295681096537
 20
-152.0282741590415
 10
130.8295681096537
 20
-152.0282741590415
 10
130.8295681096537
 20
-152.2587510470047
 10
130.8295681096537
 20
-152.2587510470047
 10
130.6686821504925
 20
-152.235324397705
 10
130.4519856444703
 20
-152.2332573404139
 10
130.3427761175879
 20
-152.2332573404139
 97
        0
 97
        1
330
178
 75
     2
 76
     1
 98
        1
 10
0.0
 20
0.0
450
        0
451
        0
460
0.0
461
0.0
452
        0
462
0.0
453
        0
470

  0
SPLINE
  5
17A
330
15C
100
AcDbEntity
  8
レイヤー 1
100
AcDbSpline
210
0.0
220
0.0
230
1.0
 70
     9
 71
     3
 72
    20
 73
    16
 74
     0
 42
0.0000000001
 43
0.0000000001
 40
0.0
 40
0.0
 40
0.0
 40
0.0
 40
1.0
 40
1.0
 40
1.0
 40
2.0
 40
2.0
 40
2.0
 40
3.0
 40
3.0
 40
3.0
 40
4.0
 40
4.0
 40
4.0
 40
5.0
 40
5.0
 40
5.0
 40
5.0
 10
131.9185627925412
 20
-152.5846570799094
 30
0.0
 10
131.8779106658152
 20
-152.4068901528705
 30
0.0
 10
131.7928168073296
 20
-152.2649522188782
 30
0.0
 10
131.6705159176032
 20
-152.1550536728987
 30
0.0
 10
131.6705159176032
 20
-152.1550536728987
 30
0.0
 10
131.8114203229499
 20
-152.0406765027884
 30
0.0
 10
131.8114203229499
 20
-152.0406765027884
 30
0.0
 10
131.8648193029713
 20
-152.083051177257
 30
0.0
 10
131.9003037864693
 20
-152.1168131130125
 30
0.0
 10
131.9667941293347
 20
-152.2249891112493
 30
0.0
 10
132.0370740772338
 20
-152.3410888291022
 30
0.0
 10
132.0556775928541
 20
-152.3941432995751
 30
0.0
 10
132.0780707135082
 20
-152.4596001137948
 30
0.0
 10
132.0780707135082
 20
-152.4596001137948
 30
0.0
 10
131.9185627925412
 20
-152.5846570799094
 30
0.0
 10
131.9185627925412
 20
-152.5846570799094
 30
0.0
  0
SPLINE
  5
17B
330
15C
100
AcDbEntity
  8
レイヤー 1
100
AcDbSpline
210
0.0
220
0.0
230
1.0
 70
     9
 71
     3
 72
    77
 73
    73
 74
     0
 42
0.0000000001
 43
0.0000000001
 40
0.0
 40
0.0
 40
0.0
 40
0.0
 40
1.0
 40
1.0
 40
1.0
 40
2.0
 40
2.0
 40
2.0
 40
3.0
 40
3.0
 40
3.0
 40
4.0
 40
4.0
 40
4.0
 40
5.0
 40
5.0
 40
5.0
 40
6.0
 40
6.0
 40
6.0
 40
7.0
 40
7.0
 40
7.0
 40
8.0
 40
8.0
 40
8.0
 40
9.0
 40
9.0
 40
9.0
 40
10.0
 40
10.0
 40
10.0
 40
11.0
 40
11.0
 40
11.0
 40
12.0
 40
12.0
 40
12.0
 40
13.0
 40
13.0
 40
13.0
 40
14.0
 40
14.0
 40
14.0
 40
15.0
 40
15.0
 40
15.0
 40
16.0
 40
16.0
 40
16.0
 40
17.0
 40
17.0
 40
17.0
 40
18.0
 40
18.0
 40
18.0
 40
19.0
 40
19.0
 40
19.0
 40
20.0
 40
20.0
 40
20.0
 40
21.0
 40
21.0
 40
21.0
 40
22.0
 40
22.0
 40
22.0
 40
23.0
 40
23.0
 40
23.0
 40
24.0
 40
24.0
 40
24.0
 40
24.0
 10
132.5927679790046
 20
-151.8587754611672
 30
0.0
 10
132.5317897889156
 20
-151.8546413465849
 30
0.0
 10
132.4725341465693
 20
-151.8546413465849
 30
0.0
 10
132.4132785042231
 20
-151.8546413465849
 30
0.0
 10
132.4132785042231
 20
-151.8546413465849
 30
0.0
 10
132.4132785042231
 20
-152.6290988116691
 30
0.0
 10
132.4132785042231
 20
-152.6290988116691
 30
0.0
 10
132.4132785042231
 20
-152.8933376353878
 30
0.0
 10
132.4112114469319
 20
-152.9229654565609
 30
0.0
 10
132.4056992941555
 20
-152.9525932777341
 30
0.0
 10
132.3760714729824
 20
-153.0859184730132
 30
0.0
 10
132.2871880094629
 20
-153.0941867021778
 30
0.0
 10
132.1335367508208
 20
-153.0941867021778
 30
0.0
 10
132.0983967768712
 20
-153.0941867021778
 30
0.0
 10
132.0835828662846
 20
-153.0941867021778
 30
0.0
 10
132.0484428923351
 20
-153.0900525875955
 30
0.0
 10
132.0484428923351
 20
-153.0900525875955
 30
0.0
 10
131.9392333654527
 20
-152.848895903628
 30
0.0
 10
131.9392333654527
 20
-152.848895903628
 30
0.0
 10
132.0408636822675
 20
-152.8805907820923
 30
0.0
 10
132.1132106874578
 20
-152.8805907820923
 30
0.0
 10
132.1335367508208
 20
-152.8805907820923
 30
0.0
 10
132.1945149409097
 20
-152.8805907820923
 30
0.0
 10
132.2241427620828
 20
-152.8637098142146
 30
0.0
 10
132.2279323671166
 20
-152.8065212291595
 30
0.0
 10
132.2279323671166
 20
-152.793774375864
 30
0.0
 10
132.2296549148592
 20
-152.69662268318
 30
0.0
 10
132.2296549148592
 20
-152.6394340981248
 30
0.0
 10
132.2296549148592
 20
-152.6394340981248
 30
0.0
 10
132.2296549148592
 20
-151.8525742892938
 30
0.0
 10
132.2296549148592
 20
-151.8525742892938
 30
0.0
 10
132.2296549148592
 20
-151.8525742892938
 30
0.0
 10
131.9723062821111
 20
-151.8525742892938
 30
0.0
 10
131.9723062821111
 20
-151.8525742892938
 30
0.0
 10
131.8444932396083
 20
-151.8525742892938
 30
0.0
 10
131.7166801971055
 20
-151.8587754611672
 30
0.0
 10
131.5909342118939
 20
-151.8715223144627
 30
0.0
 10
131.5909342118939
 20
-151.8715223144627
 30
0.0
 10
131.5909342118939
 20
-151.6641275662506
 30
0.0
 10
131.5909342118939
 20
-151.6641275662506
 30
0.0
 10
131.7225368594304
 20
-151.676874419546
 30
0.0
 10
131.9130506397648
 20
-151.6813530436769
 30
0.0
 10
131.9723062821111
 20
-151.6813530436769
 30
0.0
 10
131.9723062821111
 20
-151.6813530436769
 30
0.0
 10
132.2296549148592
 20
-151.6813530436769
 30
0.0
 10
132.2296549148592
 20
-151.6813530436769
 30
0.0
 10
132.2279323671166
 20
-151.4126355958274
 30
0.0
 10
132.2279323671166
 20
-151.3364989856034
 30
0.0
 10
132.2203531570491
 20
-151.1883598797376
 30
0.0
 10
132.2203531570491
 20
-151.1883598797376
 30
0.0
 10
132.4463514208815
 20
-151.2262559300754
 30
0.0
 10
132.4463514208815
 20
-151.2262559300754
 30
0.0
 10
132.4594427837254
 20
-151.2283229873665
 30
0.0
 10
132.4725341465693
 20
-151.2348686687885
 30
0.0
 10
132.4725341465693
 20
-151.2558837512485
 30
0.0
 10
132.4725341465693
 20
-151.2751762859659
 30
0.0
 10
132.4666774842444
 20
-151.2772433432571
 30
0.0
 10
132.4167235997083
 20
-151.3110052790125
 30
0.0
 10
132.4132785042231
 20
-151.3892089465277
 30
0.0
 10
132.4132785042231
 20
-151.4040228571143
 30
0.0
 10
132.4132785042231
 20
-151.6813530436769
 30
0.0
 10
132.5686523106078
 20
-151.676874419546
 30
0.0
 10
132.585188768937
 20
-151.676874419546
 30
0.0
 10
132.6148165901102
 20
-151.6727403049637
 30
0.0
 10
132.6592583218699
 20
-151.6686061903814
 30
0.0
 10
132.6630479269037
 20
-151.6665391330903
 30
0.0
 10
132.701977505887
 20
-151.6641275662506
 30
0.0
 10
132.701977505887
 20
-151.6641275662506
 30
0.0
 10
132.701977505887
 20
-151.8715223144627
 30
0.0
 10
132.701977505887
 20
-151.8715223144627
 30
0.0
 10
132.6761392897476
 20
-151.8694552571715
 30
0.0
 10
132.6279079529541
 20
-151.8608425184584
 30
0.0
 10
132.5927679790046
 20
-151.8587754611672
 30
0.0
  0
SPLINE
  5
17C
330
15C
100
AcDbEntity
  8
レイヤー 1
100
AcDbSpline
210
0.0
220
0.0
230
1.0
 70
     9
 71
     3
 72
    53
 73
    49
 74
     0
 42
0.0000000001
 43
0.0000000001
 40
0.0
 40
0.0
 40
0.0
 40
0.0
 40
1.0
 40
1.0
 40
1.0
 40
2.0
 40
2.0
 40
2.0
 40
3.0
 40
3.0
 40
3.0
 40
4.0
 40
4.0
 40
4.0
 40
5.0
 40
5.0
 40
5.0
 40
6.0
 40
6.0
 40
6.0
 40
7.0
 40
7.0
 40
7.0
 40
8.0
 40
8.0
 40
8.0
 40
9.0
 40
9.0
 40
9.0
 40
10.0
 40
10.0
 40
10.0
 40
11.0
 40
11.0
 40
11.0
 40
12.0
 40
12.0
 40
12.0
 40
13.0
 40
13.0
 40
13.0
 40
14.0
 40
14.0
 40
14.0
 40
15.0
 40
15.0
 40
15.0
 40
16.0
 40
16.0
 40
16.0
 40
16.0
 10
131.5854220591175
 20
-151.3595811253545
 30
0.0
 10
131.5261664167712
 20
-151.5118543458026
 30
0.0
 10
131.4889593855305
 20
-151.5900580133177
 30
0.0
 10
131.4558864688721
 20
-151.6579263943772
 30
0.0
 10
131.4927489905643
 20
-151.6789414768372
 30
0.0
 10
131.4965385955981
 20
-151.6813530436769
 30
0.0
 10
131.4965385955981
 20
-151.6961669542635
 30
0.0
 10
131.4965385955981
 20
-151.7085692980103
 30
0.0
 10
131.4669107744249
 20
-151.7426757433143
 30
0.0
 10
131.4576090166148
 20
-151.7509439724789
 30
0.0
 10
131.4558864688721
 20
-151.9476589246867
 30
0.0
 10
131.4558864688721
 20
-151.9690185166952
 30
0.0
 10
131.4558864688721
 20
-152.1023437119744
 30
0.0
 10
131.453819411581
 20
-152.1147460557213
 30
0.0
 10
131.453819411581
 20
-152.1295599663079
 30
0.0
 10
131.453819411581
 20
-152.1443738768944
 30
0.0
 10
131.453819411581
 20
-152.1443738768944
 30
0.0
 10
131.453819411581
 20
-152.6797417153023
 30
0.0
 10
131.453819411581
 20
-152.6797417153023
 30
0.0
 10
131.453819411581
 20
-152.751744210944
 30
0.0
 10
131.4576090166148
 20
-152.9863552134895
 30
0.0
 10
131.4651882266823
 20
-153.0965982690175
 30
0.0
 10
131.4651882266823
 20
-153.0965982690175
 30
0.0
 10
131.2519368161453
 20
-153.0965982690175
 30
0.0
 10
131.2519368161453
 20
-153.0965982690175
 30
0.0
 10
131.2722628795083
 20
-152.9377793671475
 30
0.0
 10
131.2781195418332
 20
-152.69662268318
 30
0.0
 10
131.2781195418332
 20
-152.67560760072
 30
0.0
 10
131.2781195418332
 20
-152.67560760072
 30
0.0
 10
131.2781195418332
 20
-151.958338720691
 30
0.0
 10
131.2781195418332
 20
-151.958338720691
 30
0.0
 10
131.198537836124
 20
-152.0727158908013
 30
0.0
 10
131.1447943465541
 20
-152.131627023599
 30
0.0
 10
131.1075873153134
 20
-152.1740016980676
 30
0.0
 10
131.1075873153134
 20
-152.1740016980676
 30
0.0
 10
130.9408446938273
 20
-152.0365423882061
 30
0.0
 10
130.9408446938273
 20
-152.0365423882061
 30
0.0
 10
131.1871690210226
 20
-151.8208794108295
 30
0.0
 10
131.3556341902514
 20
-151.5118543458026
 30
0.0
 10
131.453819411581
 20
-151.1756130264422
 30
0.0
 10
131.453819411581
 20
-151.1756130264422
 30
0.0
 10
131.6464002492064
 20
-151.2899901965525
 30
0.0
 10
131.6464002492064
 20
-151.2899901965525
 30
0.0
 10
131.6574245547593
 20
-151.2961913684259
 30
0.0
 10
131.6650037648268
 20
-151.3003254830082
 30
0.0
 10
131.6650037648268
 20
-151.3151393935948
 30
0.0
 10
131.6650037648268
 20
-151.3406331001857
 30
0.0
 10
131.6501898542402
 20
-151.344767214768
 30
0.0
 10
131.5854220591175
 20
-151.3595811253545
 30
0.0
  0
HATCH
  5
17D
330
15C
100
AcDbEntity
  8
レイヤー 1
 62
   250
420
  2299925
440
 33554687
100
AcDbHatch
 10
0.0
 20
0.0
 30
0.0
210
0.0
220
0.0
230
1.0
  2
SOLID
 70
     1
 71
     1
 91
        3
 92
        1
 93
        1
 72
     4
 94
        3
 73
     0
 74
     0
 95
       20
 96
       16
 40
0.0
 40
0.0
 40
0.0
 40
0.0
 40
1.0
 40
1.0
 40
1.0
 40
2.0
 40
2.0
 40
2.0
 40
3.0
 40
3.0
 40
3.0
 40
4.0
 40
4.0
 40
4.0
 40
5.0
 40
5.0
 40
5.0
 40
5.0
 10
131.9185627925412
 20
-152.5846570799094
 10
131.8779106658152
 20
-152.4068901528705
 10
131.7928168073296
 20
-152.2649522188782
 10
131.6705159176032
 20
-152.1550536728987
 10
131.6705159176032
 20
-152.1550536728987
 10
131.8114203229499
 20
-152.0406765027884
 10
131.8114203229499
 20
-152.0406765027884
 10
131.8648193029713
 20
-152.083051177257
 10
131.9003037864693
 20
-152.1168131130125
 10
131.9667941293347
 20
-152.2249891112493
 10
132.0370740772338
 20
-152.3410888291022
 10
132.0556775928541
 20
-152.3941432995751
 10
132.0780707135082
 20
-152.4596001137948
 10
132.0780707135082
 20
-152.4596001137948
 10
131.9185627925412
 20
-152.5846570799094
 10
131.9185627925412
 20
-152.5846570799094
 97
        0
 97
        1
330
17A
 92
        1
 93
        1
 72
     4
 94
        3
 73
     0
 74
     0
 95
       77
 96
       73
 40
0.0
 40
0.0
 40
0.0
 40
0.0
 40
1.0
 40
1.0
 40
1.0
 40
2.0
 40
2.0
 40
2.0
 40
3.0
 40
3.0
 40
3.0
 40
4.0
 40
4.0
 40
4.0
 40
5.0
 40
5.0
 40
5.0
 40
6.0
 40
6.0
 40
6.0
 40
7.0
 40
7.0
 40
7.0
 40
8.0
 40
8.0
 40
8.0
 40
9.0
 40
9.0
 40
9.0
 40
10.0
 40
10.0
 40
10.0
 40
11.0
 40
11.0
 40
11.0
 40
12.0
 40
12.0
 40
12.0
 40
13.0
 40
13.0
 40
13.0
 40
14.0
 40
14.0
 40
14.0
 40
15.0
 40
15.0
 40
15.0
 40
16.0
 40
16.0
 40
16.0
 40
17.0
 40
17.0
 40
17.0
 40
18.0
 40
18.0
 40
18.0
 40
19.0
 40
19.0
 40
19.0
 40
20.0
 40
20.0
 40
20.0
 40
21.0
 40
21.0
 40
21.0
 40
22.0
 40
22.0
 40
22.0
 40
23.0
 40
23.0
 40
23.0
 40
24.0
 40
24.0
 40
24.0
 40
24.0
 10
132.5927679790046
 20
-151.8587754611672
 10
132.5317897889156
 20
-151.8546413465849
 10
132.4725341465693
 20
-151.8546413465849
 10
132.4132785042231
 20
-151.8546413465849
 10
132.4132785042231
 20
-151.8546413465849
 10
132.4132785042231
 20
-152.6290988116691
 10
132.4132785042231
 20
-152.6290988116691
 10
132.4132785042231
 20
-152.8933376353878
 10
132.4112114469319
 20
-152.9229654565609
 10
132.4056992941555
 20
-152.9525932777341
 10
132.3760714729824
 20
-153.0859184730132
 10
132.2871880094629
 20
-153.0941867021778
 10
132.1335367508208
 20
-153.0941867021778
 10
132.0983967768712
 20
-153.0941867021778
 10
132.0835828662846
 20
-153.0941867021778
 10
132.0484428923351
 20
-153.0900525875955
 10
132.0484428923351
 20
-153.0900525875955
 10
131.9392333654527
 20
-152.848895903628
 10
131.9392333654527
 20
-152.848895903628
 10
132.0408636822675
 20
-152.8805907820923
 10
132.1132106874578
 20
-152.8805907820923
 10
132.1335367508208
 20
-152.8805907820923
 10
132.1945149409097
 20
-152.8805907820923
 10
132.2241427620828
 20
-152.8637098142146
 10
132.2279323671166
 20
-152.8065212291595
 10
132.2279323671166
 20
-152.793774375864
 10
132.2296549148592
 20
-152.69662268318
 10
132.2296549148592
 20
-152.6394340981248
 10
132.2296549148592
 20
-152.6394340981248
 10
132.2296549148592
 20
-151.8525742892938
 10
132.2296549148592
 20
-151.8525742892938
 10
132.2296549148592
 20
-151.8525742892938
 10
131.9723062821111
 20
-151.8525742892938
 10
131.9723062821111
 20
-151.8525742892938
 10
131.8444932396083
 20
-151.8525742892938
 10
131.7166801971055
 20
-151.8587754611672
 10
131.5909342118939
 20
-151.8715223144627
 10
131.5909342118939
 20
-151.8715223144627
 10
131.5909342118939
 20
-151.6641275662506
 10
131.5909342118939
 20
-151.6641275662506
 10
131.7225368594304
 20
-151.676874419546
 10
131.9130506397648
 20
-151.6813530436769
 10
131.9723062821111
 20
-151.6813530436769
 10
131.9723062821111
 20
-151.6813530436769
 10
132.2296549148592
 20
-151.6813530436769
 10
132.2296549148592
 20
-151.6813530436769
 10
132.2279323671166
 20
-151.4126355958274
 10
132.2279323671166
 20
-151.3364989856034
 10
132.2203531570491
 20
-151.1883598797376
 10
132.2203531570491
 20
-151.1883598797376
 10
132.4463514208815
 20
-151.2262559300754
 10
132.4463514208815
 20
-151.2262559300754
 10
132.4594427837254
 20
-151.2283229873665
 10
132.4725341465693
 20
-151.2348686687885
 10
132.4725341465693
 20
-151.2558837512485
 10
132.4725341465693
 20
-151.2751762859659
 10
132.4666774842444
 20
-151.2772433432571
 10
132.4167235997083
 20
-151.3110052790125
 10
132.4132785042231
 20
-151.3892089465277
 10
132.4132785042231
 20
-151.4040228571143
 10
132.4132785042231
 20
-151.6813530436769
 10
132.5686523106078
 20
-151.676874419546
 10
132.585188768937
 20
-151.676874419546
 10
132.6148165901102
 20
-151.6727403049637
 10
132.6592583218699
 20
-151.6686061903814
 10
132.6630479269037
 20
-151.6665391330903
 10
132.701977505887
 20
-151.6641275662506
 10
132.701977505887
 20
-151.6641275662506
 10
132.701977505887
 20
-151.8715223144627
 10
132.701977505887
 20
-151.8715223144627
 10
132.6761392897476
 20
-151.8694552571715
 10
132.6279079529541
 20
-151.8608425184584
 10
132.5927679790046
 20
-151.8587754611672
 97
        0
 97
        1
330
17B
 92
        1
 93
        1
 72
     4
 94
        3
 73
     0
 74
     0
 95
       53
 96
       49
 40
0.0
 40
0.0
 40
0.0
 40
0.0
 40
1.0
 40
1.0
 40
1.0
 40
2.0
 40
2.0
 40
2.0
 40
3.0
 40
3.0
 40
3.0
 40
4.0
 40
4.0
 40
4.0
 40
5.0
 40
5.0
 40
5.0
 40
6.0
 40
6.0
 40
6.0
 40
7.0
 40
7.0
 40
7.0
 40
8.0
 40
8.0
 40
8.0
 40
9.0
 40
9.0
 40
9.0
 40
10.0
 40
10.0
 40
10.0
 40
11.0
 40
11.0
 40
11.0
 40
12.0
 40
12.0
 40
12.0
 40
13.0
 40
13.0
 40
13.0
 40
14.0
 40
14.0
 40
14.0
 40
15.0
 40
15.0
 40
15.0
 40
16.0
 40
16.0
 40
16.0
 40
16.0
 10
131.5854220591175
 20
-151.3595811253545
 10
131.5261664167712
 20
-151.5118543458026
 10
131.4889593855305
 20
-151.5900580133177
 10
131.4558864688721
 20
-151.6579263943772
 10
131.4927489905643
 20
-151.6789414768372
 10
131.4965385955981
 20
-151.6813530436769
 10
131.4965385955981
 20
-151.6961669542635
 10
131.4965385955981
 20
-151.7085692980103
 10
131.4669107744249
 20
-151.7426757433143
 10
131.4576090166148
 20
-151.7509439724789
 10
131.4558864688721
 20
-151.9476589246867
 10
131.4558864688721
 20
-151.9690185166952
 10
131.4558864688721
 20
-152.1023437119744
 10
131.453819411581
 20
-152.1147460557213
 10
131.453819411581
 20
-152.1295599663079
 10
131.453819411581
 20
-152.1443738768944
 10
131.453819411581
 20
-152.1443738768944
 10
131.453819411581
 20
-152.6797417153023
 10
131.453819411581
 20
-152.6797417153023
 10
131.453819411581
 20
-152.751744210944
 10
131.4576090166148
 20
-152.9863552134895
 10
131.4651882266823
 20
-153.0965982690175
 10
131.4651882266823
 20
-153.0965982690175
 10
131.2519368161453
 20
-153.0965982690175
 10
131.2519368161453
 20
-153.0965982690175
 10
131.2722628795083
 20
-152.9377793671475
 10
131.2781195418332
 20
-152.69662268318
 10
131.2781195418332
 20
-152.67560760072
 10
131.2781195418332
 20
-152.67560760072
 10
131.2781195418332
 20
-151.958338720691
 10
131.2781195418332
 20
-151.958338720691
 10
131.198537836124
 20
-152.0727158908013
 10
131.1447943465541
 20
-152.131627023599
 10
131.1075873153134
 20
-152.1740016980676
 10
131.1075873153134
 20
-152.1740016980676
 10
130.9408446938273
 20
-152.0365423882061
 10
130.9408446938273
 20
-152.0365423882061
 10
131.1871690210226
 20
-151.8208794108295
 10
131.3556341902514
 20
-151.5118543458026
 10
131.453819411581
 20
-151.1756130264422
 10
131.453819411581
 20
-151.1756130264422
 10
131.6464002492064
 20
-151.2899901965525
 10
131.6464002492064
 20
-151.2899901965525
 10
131.6574245547593
 20
-151.2961913684259
 10
131.6650037648268
 20
-151.3003254830082
 10
131.6650037648268
 20
-151.3151393935948
 10
131.6650037648268
 20
-151.3406331001857
 10
131.6501898542402
 20
-151.344767214768
 10
131.5854220591175
 20
-151.3595811253545
 97
        0
 97
        1
330
17C
 75
     2
 76
     1
 98
        1
 10
0.0
 20
0.0
450
        0
451
        0
460
0.0
461
0.0
452
        0
462
0.0
453
        0
470

  0
ENDBLK
  5
15F
330
15C
100
AcDbEntity
  8
0
100
AcDbBlockEnd
  0
ENDSEC
  0
SECTION
  2
ENTITIES
  0
LINE
  5
79
330
70
100
AcDbEntity
  8
レイヤー 1
 62
    18
420
        0
370
    25
100
AcDbLine
 10
113.5908699450941
 20
-153.1585806345744
 30
0.0
 11
103.5904668668923
 21
-153.1585806345744
 31
0.0
  0
LINE
  5
7A
330
70
100
AcDbEntity
  8
レイヤー 1
 62
    18
420
        0
370
    25
100
AcDbLine
 10
83.58892272898748
 20
-146.658367858422
 30
0.0
 11
83.58892272898748
 21
-147.1586067471858
 31
0.0
  0
LINE
  5
7B
330
70
100
AcDbEntity
  8
レイヤー 1
 62
    18
420
        0
370
    25
100
AcDbLine
 10
104.5261393430213
 20
-147.1586067471858
 30
0.0
 11
83.58892272898748
 21
-147.1586067471858
 31
0.0
  0
LINE
  5
7C
330
70
100
AcDbEntity
  8
レイヤー 1
 62
    18
420
        0
370
    25
100
AcDbLine
 10
83.58892272898748
 20
-146.658367858422
 30
0.0
 11
84.10291995108131
 21
-147.0404261916597
 31
0.0
  0
LINE
  5
7D
330
70
100
AcDbEntity
  8
レイヤー 1
 62
    18
420
        0
370
    25
100
AcDbLine
 10
84.10291995108131
 20
-147.0404261916597
 30
0.0
 11
84.58834217318225
 21
-146.6228784139862
 31
0.0
  0
LINE
  5
7E
330
70
100
AcDbEntity
  8
レイヤー 1
 62
    18
420
        0
370
    25
100
AcDbLine
 10
85.10233939527608
 20
-147.0049367472242
 30
0.0
 11
85.58811439515414
 21
-146.5870714695508
 31
0.0
  0
LINE
  5
7F
330
70
100
AcDbEntity
  8
レイヤー 1
 62
    18
420
        0
370
    25
100
AcDbLine
 10
84.58834217318225
 20
-146.6228784139862
 30
0.0
 11
85.10233939527608
 21
-147.0049367472242
 31
0.0
  0
LINE
  5
80
330
70
100
AcDbEntity
  8
レイヤー 1
 62
    18
420
        0
370
    25
100
AcDbLine
 10
85.58811439515414
 20
-146.5870714695508
 30
0.0
 11
86.102111617248
 21
-146.9691298027888
 31
0.0
  0
LINE
  5
81
330
70
100
AcDbEntity
  8
レイヤー 1
 62
    18
420
        0
370
    25
100
AcDbLine
 10
86.102111617248
 20
-146.9691298027888
 30
0.0
 11
86.58718106157117
 21
-146.5515820251153
 31
0.0
  0
LINE
  5
82
330
70
100
AcDbEntity
  8
レイヤー 1
 62
    18
420
        0
370
    25
100
AcDbLine
 10
86.58718106157117
 20
-146.5515820251153
 30
0.0
 11
87.10121062090159
 21
-146.9332875805756
 31
0.0
  0
LINE
  5
83
330
70
100
AcDbEntity
  8
レイヤー 1
 62
    18
420
        0
370
    25
100
AcDbLine
 10
87.10121062090159
 20
-146.9332875805756
 30
0.0
 11
87.5869532835437
 21
-146.5157398029021
 31
0.0
  0
LINE
  5
84
330
70
100
AcDbEntity
  8
レイヤー 1
 62
    18
420
        0
370
    25
100
AcDbLine
 10
87.5869532835437
 20
-146.5157398029021
 30
0.0
 11
88.10095050563756
 21
-146.8974453583624
 31
0.0
  0
LINE
  5
85
330
70
100
AcDbEntity
  8
レイヤー 1
 62
    18
420
        0
370
    25
100
AcDbLine
 10
88.10095050563756
 20
-146.8974453583624
 30
0.0
 11
88.58601994996073
 21
-146.4799328584667
 31
0.0
  0
LINE
  5
86
330
70
100
AcDbEntity
  8
レイヤー 1
 62
    18
420
        0
370
    25
100
AcDbLine
 10
88.58601994996073
 20
-146.4799328584667
 30
0.0
 11
89.10004945879618
 21
-146.8619911917044
 31
0.0
  0
LINE
  5
87
330
70
100
AcDbEntity
  8
レイヤー 1
 62
    18
420
        0
370
    25
100
AcDbLine
 10
89.10004945879618
 20
-146.8619911917044
 30
0.0
 11
89.58579217193262
 21
-146.4444434140309
 31
0.0
  0
LINE
  5
88
330
70
100
AcDbEntity
  8
レイヤー 1
 62
    18
420
        0
370
    25
100
AcDbLine
 10
89.58579217193262
 20
-146.4444434140309
 30
0.0
 11
90.09911609997422
 21
-146.8265017472689
 31
0.0
  0
LINE
  5
89
330
70
100
AcDbEntity
  8
レイヤー 1
 62
    18
420
        0
370
    25
100
AcDbLine
 10
90.09911609997422
 20
-146.8265017472689
 30
0.0
 11
90.58489108758108
 21
-146.4086011918176
 31
0.0
  0
LINE
  5
8A
330
70
100
AcDbEntity
  8
レイヤー 1
 62
    18
420
        0
370
    25
100
AcDbLine
 10
91.09888829669012
 20
-146.7906595250557
 30
0.0
 11
91.58395772875941
 21
-146.3731117473821
 31
0.0
  0
LINE
  5
8B
330
70
100
AcDbEntity
  8
レイヤー 1
 62
    18
420
        0
370
    25
100
AcDbLine
 10
90.58489108758108
 20
-146.4086011918176
 30
0.0
 11
91.09888829669012
 21
-146.7906595250557
 31
0.0
  0
LINE
  5
8C
330
70
100
AcDbEntity
  8
レイヤー 1
 62
    18
420
        0
370
    25
100
AcDbLine
 10
91.58395772875941
 20
-146.3731117473821
 30
0.0
 11
92.09795493786847
 21
-146.7548525806199
 31
0.0
  0
LINE
  5
8D
330
70
100
AcDbEntity
  8
レイヤー 1
 62
    18
420
        0
370
    25
100
AcDbLine
 10
92.09795493786847
 20
-146.7548525806199
 30
0.0
 11
92.58372992547533
 21
-146.3373048029467
 31
0.0
  0
LINE
  5
8E
330
70
100
AcDbEntity
  8
レイヤー 1
 62
    18
420
        0
370
    25
100
AcDbLine
 10
93.09772713458439
 20
-146.7190103584067
 30
0.0
 11
93.58244378888491
 21
-146.3014625807335
 31
0.0
  0
LINE
  5
8F
330
70
100
AcDbEntity
  8
レイヤー 1
 62
    18
420
        0
370
    25
100
AcDbLine
 10
92.58372992547533
 20
-146.3373048029467
 30
0.0
 11
93.09772713458439
 21
-146.7190103584067
 31
0.0
  0
LINE
  5
90
330
70
100
AcDbEntity
  8
レイヤー 1
 62
    18
420
        0
370
    25
100
AcDbLine
 10
94.09647627577085
 20
-146.6835209139712
 30
0.0
 11
94.58221598560081
 21
-146.2659731362977
 31
0.0
  0
LINE
  5
91
330
70
100
AcDbEntity
  8
レイヤー 1
 62
    18
420
        0
370
    25
100
AcDbLine
 10
93.58244378888491
 20
-146.3014625807335
 30
0.0
 11
94.09647627577085
 21
-146.6835209139712
 31
0.0
  0
LINE
  5
92
330
70
100
AcDbEntity
  8
レイヤー 1
 62
    18
420
        0
370
    25
100
AcDbLine
 10
94.58221598560081
 20
-146.2659731362977
 30
0.0
 11
95.09621319470987
 21
-146.6480314695357
 31
0.0
  0
LINE
  5
93
330
70
100
AcDbEntity
  8
レイヤー 1
 62
    18
420
        0
370
    25
100
AcDbLine
 10
95.09621319470987
 20
-146.6480314695357
 30
0.0
 11
95.58128262677916
 21
-146.2301309140844
 31
0.0
  0
LINE
  5
94
330
70
100
AcDbEntity
  8
レイヤー 1
 62
    18
420
        0
370
    25
100
AcDbLine
 10
95.58128262677916
 20
-146.2301309140844
 30
0.0
 11
96.0953151136651
 21
-146.6122245251003
 31
0.0
  0
LINE
  5
95
330
70
100
AcDbEntity
  8
レイヤー 1
 62
    18
420
        0
370
    25
100
AcDbLine
 10
96.0953151136651
 20
-146.6122245251003
 30
0.0
 11
96.58038454573439
 21
-146.1946767474268
 31
0.0
  0
LINE
  5
96
330
70
100
AcDbEntity
  8
レイヤー 1
 62
    18
420
        0
370
    25
100
AcDbLine
 10
96.58038454573439
 20
-146.1946767474268
 30
0.0
 11
97.09438175484345
 21
-146.576382302887
 31
0.0
  0
LINE
  5
97
330
70
100
AcDbEntity
  8
レイヤー 1
 62
    18
420
        0
370
    25
100
AcDbLine
 10
97.09438175484345
 20
-146.576382302887
 30
0.0
 11
97.58015674245029
 21
-146.1588345252135
 31
0.0
  0
LINE
  5
98
330
70
100
AcDbEntity
  8
レイヤー 1
 62
    18
420
        0
370
    25
100
AcDbLine
 10
97.58015674245029
 20
-146.1588345252135
 30
0.0
 11
98.09415395155937
 21
-146.5405400806741
 31
0.0
  0
LINE
  5
99
330
70
100
AcDbEntity
  8
レイヤー 1
 62
    18
420
        0
370
    25
100
AcDbLine
 10
98.09415395155937
 20
-146.5405400806741
 30
0.0
 11
98.57922338362866
 21
-146.1229923030003
 31
0.0
  0
LINE
  5
9A
330
70
100
AcDbEntity
  8
レイヤー 1
 62
    18
420
        0
370
    25
100
AcDbLine
 10
98.57922338362866
 20
-146.1229923030003
 30
0.0
 11
99.09322059273772
 21
-146.505050636238
 31
0.0
  0
LINE
  5
9B
330
70
100
AcDbEntity
  8
レイヤー 1
 62
    18
420
        0
370
    25
100
AcDbLine
 10
99.09322059273772
 20
-146.505050636238
 30
0.0
 11
99.57899558034457
 21
-146.0875028585648
 31
0.0
  0
LINE
  5
9C
330
70
100
AcDbEntity
  8
レイヤー 1
 62
    18
420
        0
370
    25
100
AcDbLine
 10
99.57899558034457
 20
-146.0875028585648
 30
0.0
 11
100.0929927894536
 21
-146.4695964695803
 31
0.0
  0
LINE
  5
9D
330
70
100
AcDbEntity
  8
レイヤー 1
 62
    18
420
        0
370
    25
100
AcDbLine
 10
100.0929927894536
 20
-146.4695964695803
 30
0.0
 11
100.5780622215232
 21
-146.051695914129
 31
0.0
  0
LINE
  5
9E
330
70
100
AcDbEntity
  8
レイヤー 1
 62
    18
420
        0
370
    25
100
AcDbLine
 10
100.5780622215232
 20
-146.051695914129
 30
0.0
 11
101.0920594306319
 21
-146.4337542473671
 31
0.0
  0
LINE
  5
9F
330
70
100
AcDbEntity
  8
レイヤー 1
 62
    18
420
        0
370
    25
100
AcDbLine
 10
101.0920594306319
 20
-146.4337542473671
 30
0.0
 11
101.5778344182388
 21
-146.0162064696936
 31
0.0
  0
LINE
  5
A0
330
70
100
AcDbEntity
  8
レイヤー 1
 62
    18
420
        0
370
    25
100
AcDbLine
 10
101.5778344182388
 20
-146.0162064696936
 30
0.0
 11
102.0918316273479
 21
-146.3979120251538
 31
0.0
  0
LINE
  5
A1
330
70
100
AcDbEntity
  8
レイヤー 1
 62
    18
420
        0
370
    25
100
AcDbLine
 10
102.0918316273479
 20
-146.3979120251538
 30
0.0
 11
102.5769010594172
 21
-145.9803642474803
 31
0.0
  0
LINE
  5
A2
330
70
100
AcDbEntity
  8
レイヤー 1
 62
    18
420
        0
370
    25
100
AcDbLine
 10
102.5769010594172
 20
-145.9803642474803
 30
0.0
 11
103.0909335463031
 21
-146.3621050807181
 31
0.0
  0
LINE
  5
A3
330
70
100
AcDbEntity
  8
レイヤー 1
 62
    18
420
        0
370
    25
100
AcDbLine
 10
103.0909335463031
 20
-146.3621050807181
 30
0.0
 11
103.5766732561331
 21
-145.9445573030449
 31
0.0
  0
LINE
  5
A4
330
70
100
AcDbEntity
  8
レイヤー 1
 62
    18
420
        0
370
    25
100
AcDbLine
 10
103.6506704653511
 20
-145.8963325808348
 30
0.0
 11
104.5902390636082
 21
-145.8963325808348
 31
0.0
  0
LINE
  5
A5
330
70
100
AcDbEntity
  8
レイヤー 1
 62
    18
420
        0
370
    25
100
AcDbLine
 10
104.5902390636082
 20
-145.8963325808348
 30
0.0
 11
104.5902390636082
 21
-152.1584556348248
 31
0.0
  0
LINE
  5
A6
330
70
100
AcDbEntity
  8
レイヤー 1
 62
    18
420
        0
370
    25
100
AcDbLine
 10
103.5904668668923
 20
-147.1586067471858
 30
0.0
 11
103.5904668668923
 21
-153.1585806345744
 31
0.0
  0
LINE
  5
A7
330
70
100
AcDbEntity
  8
レイヤー 1
 62
    18
420
        0
370
    25
100
AcDbLine
 10
112.5910977483782
 20
-152.1584556348248
 30
0.0
 11
104.5902390636082
 21
-152.1584556348248
 31
0.0
  0
LINE
  5
A8
330
70
100
AcDbEntity
  8
レイヤー 1
 62
    18
420
        0
370
    25
100
AcDbLine
 10
123.5981874675639
 20
-146.3014625807335
 30
0.0
 11
123.0848643857803
 21
-146.6835209139712
 31
0.0
  0
LINE
  5
A9
330
70
100
AcDbEntity
  8
レイヤー 1
 62
    18
420
        0
370
    25
100
AcDbLine
 10
128.5956373400683
 20
-146.4799328584667
 30
0.0
 11
128.0816401309593
 21
-146.8619911917044
 31
0.0
  0
LINE
  5
AA
330
70
100
AcDbEntity
  8
レイヤー 1
 62
    18
420
        0
370
    25
100
AcDbLine
 10
124.0839624551707
 20
-146.7190103584067
 30
0.0
 11
123.5981874675639
 21
-146.3014625807335
 31
0.0
  0
LINE
  5
AB
330
70
100
AcDbEntity
  8
レイヤー 1
 62
    18
420
        0
370
    25
100
AcDbLine
 10
125.0830290963491
 20
-146.7548525806199
 30
0.0
 11
124.5979596642798
 21
-146.3373048029467
 31
0.0
  0
LINE
  5
AC
330
70
100
AcDbEntity
  8
レイヤー 1
 62
    18
420
        0
370
    25
100
AcDbLine
 10
123.0848643857803
 20
-146.6835209139712
 30
0.0
 11
122.5991208263855
 21
-146.2659731362977
 31
0.0
  0
LINE
  5
AD
330
70
100
AcDbEntity
  8
レイヤー 1
 62
    18
420
        0
370
    25
100
AcDbLine
 10
124.5979596642798
 20
-146.3373048029467
 30
0.0
 11
124.0839624551707
 21
-146.7190103584067
 31
0.0
  0
LINE
  5
AE
330
70
100
AcDbEntity
  8
レイヤー 1
 62
    18
420
        0
370
    25
100
AcDbLine
 10
132.5926447380962
 20
-146.6228784139862
 30
0.0
 11
132.0786475289871
 21
-147.0049367472242
 31
0.0
  0
LINE
  5
AF
330
70
100
AcDbEntity
  8
レイヤー 1
 62
    18
420
        0
370
    25
100
AcDbLine
 10
125.5970263054582
 20
-146.3731117473821
 30
0.0
 11
125.0830290963491
 21
-146.7548525806199
 31
0.0
  0
LINE
  5
B0
330
70
100
AcDbEntity
  8
レイヤー 1
 62
    18
420
        0
370
    25
100
AcDbLine
 10
126.5967985021741
 20
-146.4086011918176
 30
0.0
 11
126.082801293065
 21
-146.7906595250557
 31
0.0
  0
LINE
  5
B1
330
70
100
AcDbEntity
  8
レイヤー 1
 62
    18
420
        0
370
    25
100
AcDbLine
 10
112.5910977483782
 20
-145.8963325808348
 30
0.0
 11
112.5910977483782
 21
-152.1584556348248
 31
0.0
  0
LINE
  5
B2
330
70
100
AcDbEntity
  8
レイヤー 1
 62
    18
420
        0
370
    25
100
AcDbLine
 10
126.082801293065
 20
-146.7906595250557
 30
0.0
 11
125.5970263054582
 21
-146.3731117473821
 31
0.0
  0
LINE
  5
B3
330
70
100
AcDbEntity
  8
レイヤー 1
 62
    18
420
        0
370
    25
100
AcDbLine
 10
127.0818679342434
 20
-146.8265017472689
 30
0.0
 11
126.5967985021741
 21
-146.4086011918176
 31
0.0
  0
LINE
  5
B4
330
70
100
AcDbEntity
  8
レイヤー 1
 62
    18
420
        0
370
    25
100
AcDbLine
 10
132.0786475289871
 20
-147.0049367472242
 30
0.0
 11
131.5935780969178
 21
-146.5870714695508
 31
0.0
  0
LINE
  5
B5
330
70
100
AcDbEntity
  8
レイヤー 1
 62
    18
420
        0
370
    25
100
AcDbLine
 10
127.5958651433524
 20
-146.4444434140309
 30
0.0
 11
127.0818679342434
 21
-146.8265017472689
 31
0.0
  0
LINE
  5
B6
330
70
100
AcDbEntity
  8
レイヤー 1
 62
    18
420
        0
370
    25
100
AcDbLine
 10
128.0816401309593
 20
-146.8619911917044
 30
0.0
 11
127.5958651433524
 21
-146.4444434140309
 31
0.0
  0
LINE
  5
B7
330
70
100
AcDbEntity
  8
レイヤー 1
 62
    18
420
        0
370
    25
100
AcDbLine
 10
133.078419725703
 20
-147.0404261916597
 30
0.0
 11
132.5926447380962
 21
-146.6228784139862
 31
0.0
  0
LINE
  5
B8
330
70
100
AcDbEntity
  8
レイヤー 1
 62
    18
420
        0
370
    25
100
AcDbLine
 10
129.5947392590236
 20
-146.5157398029021
 30
0.0
 11
129.0807067721376
 21
-146.8974453583624
 31
0.0
  0
LINE
  5
B9
330
70
100
AcDbEntity
  8
レイヤー 1
 62
    18
420
        0
370
    25
100
AcDbLine
 10
130.5938059002019
 20
-146.5515820251153
 30
0.0
 11
130.0798086910929
 21
-146.9332875805756
 31
0.0
  0
LINE
  5
BA
330
70
100
AcDbEntity
  8
レイヤー 1
 62
    18
420
        0
370
    25
100
AcDbLine
 10
130.0798086910929
 20
-146.9332875805756
 30
0.0
 11
129.5947392590236
 21
-146.5157398029021
 31
0.0
  0
LINE
  5
BB
330
70
100
AcDbEntity
  8
レイヤー 1
 62
    18
420
        0
370
    25
100
AcDbLine
 10
133.5924169348121
 20
-146.658367858422
 30
0.0
 11
133.078419725703
 21
-147.0404261916597
 31
0.0
  0
LINE
  5
BC
330
70
100
AcDbEntity
  8
レイヤー 1
 62
    18
420
        0
370
    25
100
AcDbLine
 10
129.0807067721376
 20
-146.8974453583624
 30
0.0
 11
128.5956373400683
 21
-146.4799328584667
 31
0.0
  0
LINE
  5
BD
330
70
100
AcDbEntity
  8
レイヤー 1
 62
    18
420
        0
370
    25
100
AcDbLine
 10
131.5935780969178
 20
-146.5870714695508
 30
0.0
 11
131.0795456100319
 21
-146.9691298027888
 31
0.0
  0
LINE
  5
BE
330
70
100
AcDbEntity
  8
レイヤー 1
 62
    18
420
        0
370
    25
100
AcDbLine
 10
131.0795456100319
 20
-146.9691298027888
 30
0.0
 11
130.5938059002019
 21
-146.5515820251153
 31
0.0
  0
LINE
  5
BF
330
70
100
AcDbEntity
  8
レイヤー 1
 62
    18
420
        0
370
    25
100
AcDbLine
 10
133.5924169348121
 20
-146.658367858422
 30
0.0
 11
133.5924169348121
 21
-147.1586067471858
 31
0.0
  0
LINE
  5
C0
330
70
100
AcDbEntity
  8
レイヤー 1
 62
    18
420
        0
370
    25
100
AcDbLine
 10
112.7013408011212
 20
-147.1586067471858
 30
0.0
 11
133.5924169348121
 21
-147.1586067471858
 31
0.0
  0
LINE
  5
C1
330
70
100
AcDbEntity
  8
レイヤー 1
 62
    18
420
        0
370
    25
100
AcDbLine
 10
122.5991208263855
 20
-146.2659731362977
 30
0.0
 11
122.0850921638077
 21
-146.6480314695357
 31
0.0
  0
LINE
  5
C2
330
70
100
AcDbEntity
  8
レイヤー 1
 62
    18
420
        0
370
    25
100
AcDbLine
 10
122.0850921638077
 20
-146.6480314695357
 30
0.0
 11
121.6000227194845
 21
-146.2301309140844
 31
0.0
  0
LINE
  5
C3
330
70
100
AcDbEntity
  8
レイヤー 1
 62
    18
420
        0
370
    25
100
AcDbLine
 10
121.6000227194845
 20
-146.2301309140844
 30
0.0
 11
121.0860254973907
 21
-146.6122245251003
 31
0.0
  0
LINE
  5
C4
330
70
100
AcDbEntity
  8
レイヤー 1
 62
    18
420
        0
370
    25
100
AcDbLine
 10
121.0860254973907
 20
-146.6122245251003
 30
0.0
 11
120.6002819884913
 21
-146.1946767474268
 31
0.0
  0
LINE
  5
C5
330
70
100
AcDbEntity
  8
レイヤー 1
 62
    18
420
        0
370
    25
100
AcDbLine
 10
120.6002819884913
 20
-146.1946767474268
 30
0.0
 11
120.0862532754188
 21
-146.576382302887
 31
0.0
  0
LINE
  5
C6
330
70
100
AcDbEntity
  8
レイヤー 1
 62
    18
420
        0
370
    25
100
AcDbLine
 10
120.0862532754188
 20
-146.576382302887
 30
0.0
 11
119.6011838310956
 21
-146.1588345252135
 31
0.0
  0
LINE
  5
C7
330
70
100
AcDbEntity
  8
レイヤー 1
 62
    18
420
        0
370
    25
100
AcDbLine
 10
119.6011838310956
 20
-146.1588345252135
 30
0.0
 11
119.0871866090018
 21
-146.5405400806741
 31
0.0
  0
LINE
  5
C8
330
70
100
AcDbEntity
  8
レイヤー 1
 62
    18
420
        0
370
    25
100
AcDbLine
 10
119.0871866090018
 20
-146.5405400806741
 30
0.0
 11
118.6014116091231
 21
-146.1229923030003
 31
0.0
  0
LINE
  5
C9
330
70
100
AcDbEntity
  8
レイヤー 1
 62
    18
420
        0
370
    25
100
AcDbLine
 10
118.6014116091231
 20
-146.1229923030003
 30
0.0
 11
118.0874143870292
 21
-146.505050636238
 31
0.0
  0
LINE
  5
CA
330
70
100
AcDbEntity
  8
レイヤー 1
 62
    18
420
        0
370
    25
100
AcDbLine
 10
118.0874143870292
 20
-146.505050636238
 30
0.0
 11
117.6023449427061
 21
-146.0875028585648
 31
0.0
  0
LINE
  5
CB
330
70
100
AcDbEntity
  8
レイヤー 1
 62
    18
420
        0
370
    25
100
AcDbLine
 10
117.6023449427061
 20
-146.0875028585648
 30
0.0
 11
117.0883477206128
 21
-146.4695964695803
 31
0.0
  0
LINE
  5
CC
330
70
100
AcDbEntity
  8
レイヤー 1
 62
    18
420
        0
370
    25
100
AcDbLine
 10
117.0883477206128
 20
-146.4695964695803
 30
0.0
 11
116.6032782762897
 21
-146.051695914129
 31
0.0
  0
LINE
  5
CD
330
70
100
AcDbEntity
  8
レイヤー 1
 62
    18
420
        0
370
    25
100
AcDbLine
 10
116.6032782762897
 20
-146.051695914129
 30
0.0
 11
116.0892810541958
 21
-146.4337542473671
 31
0.0
  0
LINE
  5
CE
330
70
100
AcDbEntity
  8
レイヤー 1
 62
    18
420
        0
370
    25
100
AcDbLine
 10
116.0892810541958
 20
-146.4337542473671
 30
0.0
 11
115.6035060543171
 21
-146.0162064696936
 31
0.0
  0
LINE
  5
CF
330
70
100
AcDbEntity
  8
レイヤー 1
 62
    18
420
        0
370
    25
100
AcDbLine
 10
115.6035060543171
 20
-146.0162064696936
 30
0.0
 11
115.0895088322233
 21
-146.3979120251538
 31
0.0
  0
LINE
  5
D0
330
70
100
AcDbEntity
  8
レイヤー 1
 62
    18
420
        0
370
    25
100
AcDbLine
 10
115.0895088322233
 20
-146.3979120251538
 30
0.0
 11
114.6044393879001
 21
-145.9803642474803
 31
0.0
  0
LINE
  5
D1
330
70
100
AcDbEntity
  8
レイヤー 1
 62
    18
420
        0
370
    25
100
AcDbLine
 10
114.6044393879001
 20
-145.9803642474803
 30
0.0
 11
114.0904032656832
 21
-146.3621050807181
 31
0.0
  0
LINE
  5
D2
330
70
100
AcDbEntity
  8
レイヤー 1
 62
    18
420
        0
370
    25
100
AcDbLine
 10
114.0904032656832
 20
-146.3621050807181
 30
0.0
 11
113.6046671659282
 21
-145.9445573030449
 31
0.0
  0
LINE
  5
D3
330
70
100
AcDbEntity
  8
レイヤー 1
 62
    18
420
        0
370
    25
100
AcDbLine
 10
113.5306699437254
 20
-145.8963325808348
 30
0.0
 11
112.5910977483782
 21
-145.8963325808348
 31
0.0
  0
LINE
  5
D4
330
70
100
AcDbEntity
  8
レイヤー 1
 62
    18
420
        0
370
    25
100
AcDbLine
 10
113.5908699450941
 20
-147.1586067471858
 30
0.0
 11
113.5908699450941
 21
-153.1585806345744
 31
0.0
  0
SPLINE
  5
D5
330
70
100
AcDbEntity
  8
レイヤー 1
 62
    18
420
        0
370
     9
100
AcDbSpline
210
0.0
220
0.0
230
1.0
 70
     9
 71
     3
 72
    17
 73
    13
 74
     0
 42
0.0000000001
 43
0.0000000001
 40
0.0
 40
0.0
 40
0.0
 40
0.0
 40
1.0
 40
1.0
 40
1.0
 40
2.0
 40
2.0
 40
2.0
 40
3.0
 40
3.0
 40
3.0
 40
4.0
 40
4.0
 40
4.0
 40
4.0
 10
83.6888265412921
 20
-141.8965734151679
 30
0.0
 10
83.6888265412921
 20
-141.8410814707374
 30
0.0
 10
83.64405904243453
 20
-141.7963139707484
 30
0.0
 10
83.58892272898748
 20
-141.7963139707484
 30
0.0
 10
83.5338159896912
 20
-141.7963139707484
 30
0.0
 10
83.48901321305644
 20
-141.8410814707374
 30
0.0
 10
83.48901321305644
 20
-141.8965734151679
 30
0.0
 10
83.48901321305644
 20
-141.9516773040431
 30
0.0
 10
83.5338159896912
 20
-141.9964800818095
 30
0.0
 10
83.58892272898748
 20
-141.9964800818095
 30
0.0
 10
83.64405904243453
 20
-141.9964800818095
 30
0.0
 10
83.6888265412921
 20
-141.9516773040431
 30
0.0
 10
83.6888265412921
 20
-141.8965734151679
 30
0.0
  0
CIRCLE
  5
D6
330
70
100
AcDbEntity
  8
レイヤー 1
 62
    18
420
        0
370
     9
100
AcDbCircle
 10
79.58880803478118
 20
-146.658367858422
 30
0.0
 40
0.0999066653797365
  0
CIRCLE
  5
D7
330
70
100
AcDbEntity
  8
レイヤー 1
 62
    18
420
        0
370
     9
100
AcDbCircle
 10
79.58880803478118
 20
-147.1586067471858
 30
0.0
 40
0.0999066653797365
  0
CIRCLE
  5
D8
330
70
100
AcDbEntity
  8
レイヤー 1
 62
    18
420
        0
370
     9
100
AcDbCircle
 10
79.58880803478118
 20
-153.1585806345747
 30
0.0
 40
0.0999066653795761
  0
SPLINE
  5
D9
330
70
100
AcDbEntity
  8
レイヤー 1
 62
    18
420
        0
370
     9
100
AcDbSpline
210
0.0
220
0.0
230
1.0
 70
     9
 71
     3
 72
    17
 73
    13
 74
     0
 42
0.0000000001
 43
0.0000000001
 40
0.0
 40
0.0
 40
0.0
 40
0.0
 40
1.0
 40
1.0
 40
1.0
 40
2.0
 40
2.0
 40
2.0
 40
3.0
 40
3.0
 40
3.0
 40
4.0
 40
4.0
 40
4.0
 40
4.0
 10
104.690145727726
 20
-141.8965734151679
 30
0.0
 10
104.690145727726
 20
-141.8410814707374
 30
0.0
 10
104.6453429510913
 20
-141.7963139707484
 30
0.0
 10
104.5902390636082
 20
-141.7963139707484
 30
0.0
 10
104.5351032793065
 20
-141.7963139707484
 30
0.0
 10
104.4903005015401
 20
-141.8410814707374
 30
0.0
 10
104.4903005015401
 20
-141.8965734151679
 30
0.0
 10
104.4903005015401
 20
-141.9516773040431
 30
0.0
 10
104.5351032793065
 20
-141.9964800818095
 30
0.0
 10
104.5902390636082
 20
-141.9964800818095
 30
0.0
 10
104.6453429510913
 20
-141.9964800818095
 30
0.0
 10
104.690145727726
 20
-141.9516773040431
 30
0.0
 10
104.690145727726
 20
-141.8965734151679
 30
0.0
  0
SPLINE
  5
DA
330
70
100
AcDbEntity
  8
レイヤー 1
 62
    18
420
        0
370
     9
100
AcDbSpline
210
0.0
220
0.0
230
1.0
 70
     9
 71
     3
 72
    17
 73
    13
 74
     0
 42
0.0000000001
 43
0.0000000001
 40
0.0
 40
0.0
 40
0.0
 40
0.0
 40
1.0
 40
1.0
 40
1.0
 40
2.0
 40
2.0
 40
2.0
 40
3.0
 40
3.0
 40
3.0
 40
4.0
 40
4.0
 40
4.0
 40
4.0
 10
133.7922302630478
 20
-141.8965734151679
 30
0.0
 10
133.7922302630478
 20
-141.8410814707374
 30
0.0
 10
133.747427486413
 20
-141.7963139707484
 30
0.0
 10
133.6923235989299
 20
-141.7963139707484
 30
0.0
 10
133.6365141559093
 20
-141.7963139707484
 30
0.0
 10
133.5917113792745
 20
-141.8410814707374
 30
0.0
 10
133.5917113792745
 20
-141.8965734151679
 30
0.0
 10
133.5917113792745
 20
-141.9516773040431
 30
0.0
 10
133.6365141559093
 20
-141.9964800818095
 30
0.0
 10
133.6923235989299
 20
-141.9964800818095
 30
0.0
 10
133.747427486413
 20
-141.9964800818095
 30
0.0
 10
133.7922302630478
 20
-141.9516773040431
 30
0.0
 10
133.7922302630478
 20
-141.8965734151679
 30
0.0
  0
SPLINE
  5
DB
330
70
100
AcDbEntity
  8
レイヤー 1
 62
    18
420
        0
370
     9
100
AcDbSpline
210
0.0
220
0.0
230
1.0
 70
     9
 71
     3
 72
    17
 73
    13
 74
     0
 42
0.0000000001
 43
0.0000000001
 40
0.0
 40
0.0
 40
0.0
 40
0.0
 40
1.0
 40
1.0
 40
1.0
 40
2.0
 40
2.0
 40
2.0
 40
3.0
 40
3.0
 40
3.0
 40
4.0
 40
4.0
 40
4.0
 40
4.0
 10
112.7909110766138
 20
-141.8965734151679
 30
0.0
 10
112.7909110766138
 20
-141.8410814707374
 30
0.0
 10
112.746143577756
 20
-141.7963139707484
 30
0.0
 10
112.691004412496
 20
-141.7963139707484
 30
0.0
 10
112.6359005250129
 20
-141.7963139707484
 30
0.0
 10
112.5910977483782
 20
-141.8410814707374
 30
0.0
 10
112.5910977483782
 20
-141.8965734151679
 30
0.0
 10
112.5910977483782
 20
-141.9516773040431
 30
0.0
 10
112.6359005250129
 20
-141.9964800818095
 30
0.0
 10
112.691004412496
 20
-141.9964800818095
 30
0.0
 10
112.746143577756
 20
-141.9964800818095
 30
0.0
 10
112.7909110766138
 20
-141.9516773040431
 30
0.0
 10
112.7909110766138
 20
-141.8965734151679
 30
0.0
  0
LINE
  5
DC
330
70
100
AcDbEntity
  8
レイヤー 1
 62
    18
420
        0
370
     9
100
AcDbLine
 10
79.58880803478118
 20
-146.658367858422
 30
0.0
 11
79.58880803478118
 21
-141.4004620264031
 31
0.0
  0
LINE
  5
DD
330
70
100
AcDbEntity
  8
レイヤー 1
 62
    18
420
        0
370
     9
100
AcDbLine
 10
79.58880803478118
 20
-146.658367858422
 30
0.0
 11
79.58880803478118
 21
-147.1586067471858
 31
0.0
  0
LINE
  5
DE
330
70
100
AcDbEntity
  8
レイヤー 1
 62
    18
420
        0
370
     9
100
AcDbLine
 10
81.04884938642131
 20
-146.658367858422
 30
0.0
 11
78.58871833807338
 21
-146.658367858422
 31
0.0
  0
LINE
  5
DF
330
70
100
AcDbEntity
  8
レイヤー 1
 62
    18
420
        0
370
     9
100
AcDbLine
 10
81.04884938642131
 20
-147.1586067471858
 30
0.0
 11
78.58871833807338
 21
-147.1586067471858
 31
0.0
  0
INSERT
  5
E1
330
70
100
AcDbEntity
  8
レイヤー 1
100
AcDbBlockReference
  2
Block_0
 10
0.0
 20
0.0
 30
0.0
  0
LINE
  5
EF
330
70
100
AcDbEntity
  8
レイヤー 1
 62
    18
420
        0
370
     9
100
AcDbLine
 10
83.58892272898748
 20
-141.8965734151679
 30
0.0
 11
104.5902390636082
 21
-141.8965734151679
 31
0.0
  0
LINE
  5
F0
330
70
100
AcDbEntity
  8
レイヤー 1
 62
    18
420
        0
370
     9
100
AcDbLine
 10
83.58892272898748
 20
-144.1186500812792
 30
0.0
 11
83.58892272898748
 21
-140.8964484154179
 31
0.0
  0
INSERT
  5
F2
330
70
100
AcDbEntity
  8
レイヤー 1
100
AcDbBlockReference
  2
Block_2
 10
0.0
 20
0.0
 30
0.0
  0
LINE
  5
FD
330
70
100
AcDbEntity
  8
レイヤー 1
 62
    18
420
        0
370
     9
100
AcDbLine
 10
79.58880803478118
 20
-147.1586067471858
 30
0.0
 11
79.58880803478118
 21
-153.1585806345744
 31
0.0
  0
LINE
  5
FE
330
70
100
AcDbEntity
  8
レイヤー 1
 62
    18
420
        0
370
     9
100
AcDbLine
 10
101.0507171690666
 20
-153.1585806345744
 30
0.0
 11
78.58871833807338
 21
-153.1585806345744
 31
0.0
  0
INSERT
  5
100
330
70
100
AcDbEntity
  8
レイヤー 1
100
AcDbBlockReference
  2
Block_4
 10
0.0
 20
0.0
 30
0.0
  0
LINE
  5
106
330
70
100
AcDbEntity
  8
レイヤー 1
 62
    18
420
        0
370
     9
100
AcDbLine
 10
133.6923235989299
 20
-141.8965734151679
 30
0.0
 11
112.691004412496
 21
-141.8965734151679
 31
0.0
  0
LINE
  5
107
330
70
100
AcDbEntity
  8
レイヤー 1
 62
    18
420
        0
370
     9
100
AcDbLine
 10
133.6923235989299
 20
-144.1186500812792
 30
0.0
 11
133.6923235989299
 21
-140.8964484154179
 31
0.0
  0
INSERT
  5
109
330
70
100
AcDbEntity
  8
レイヤー 1
100
AcDbBlockReference
  2
Block_5
 10
0.0
 20
0.0
 30
0.0
  0
LINE
  5
114
330
70
100
AcDbEntity
  8
レイヤー 1
 62
    18
420
        0
370
     9
100
AcDbLine
 10
104.5902390636082
 20
-141.8965734151679
 30
0.0
 11
112.5910977483782
 21
-141.8965734151679
 31
0.0
  0
LINE
  5
115
330
70
100
AcDbEntity
  8
レイヤー 1
 62
    18
420
        0
370
     9
100
AcDbLine
 10
104.5902390636082
 20
-143.356579525914
 30
0.0
 11
104.5902390636082
 21
-140.8964484154179
 31
0.0
  0
LINE
  5
116
330
70
100
AcDbEntity
  8
レイヤー 1
 62
    18
420
        0
370
     9
100
AcDbLine
 10
112.691004412496
 20
-143.356579525914
 30
0.0
 11
112.691004412496
 21
-140.8964484154179
 31
0.0
  0
INSERT
  5
118
330
70
100
AcDbEntity
  8
レイヤー 1
100
AcDbBlockReference
  2
Block_7
 10
0.0
 20
0.0
 30
0.0
  0
SPLINE
  5
11F
330
70
100
AcDbEntity
  8
レイヤー 1
 62
    18
420
        0
370
     9
100
AcDbSpline
210
0.0
220
0.0
230
1.0
 70
     9
 71
     3
 72
    17
 73
    13
 74
     0
 42
0.0000000001
 43
0.0000000001
 40
0.0
 40
0.0
 40
0.0
 40
0.0
 40
1.0
 40
1.0
 40
1.0
 40
2.0
 40
2.0
 40
2.0
 40
3.0
 40
3.0
 40
3.0
 40
4.0
 40
4.0
 40
4.0
 40
4.0
 10
103.874350501694
 20
-157.2716873002135
 30
0.0
 10
103.874350501694
 20
-157.2165481335598
 30
0.0
 10
103.818537694407
 20
-157.1717806335718
 30
0.0
 10
103.7503104739254
 20
-157.1717806335718
 30
0.0
 10
103.6814129756832
 20
-157.1717806335718
 30
0.0
 10
103.6262738104232
 20
-157.2165481335598
 30
0.0
 10
103.6262738104232
 20
-157.2716873002135
 30
0.0
 10
103.6262738104232
 20
-157.3267911890878
 30
0.0
 10
103.6814129756832
 20
-157.3715939668545
 30
0.0
 10
103.7503104739254
 20
-157.3715939668545
 30
0.0
 10
103.818537694407
 20
-157.3715939668545
 30
0.0
 10
103.874350501694
 20
-157.3267911890878
 30
0.0
 10
103.874350501694
 20
-157.2716873002135
 30
0.0
  0
SPLINE
  5
120
330
70
100
AcDbEntity
  8
レイヤー 1
 62
    18
420
        0
370
     9
100
AcDbSpline
210
0.0
220
0.0
230
1.0
 70
     9
 71
     3
 72
    17
 73
    13
 74
     0
 42
0.0000000001
 43
0.0000000001
 40
0.0
 40
0.0
 40
0.0
 40
0.0
 40
1.0
 40
1.0
 40
1.0
 40
2.0
 40
2.0
 40
2.0
 40
3.0
 40
3.0
 40
3.0
 40
4.0
 40
4.0
 40
4.0
 40
4.0
 10
113.875455771167
 20
-157.2716873002135
 30
0.0
 10
113.875455771167
 20
-157.2165481335598
 30
0.0
 10
113.8196463281464
 20
-157.1717806335718
 30
0.0
 10
113.7507171658913
 20
-157.1717806335718
 30
0.0
 10
113.6818160538849
 20
-157.1717806335718
 30
0.0
 10
113.6267121664019
 20
-157.2165481335598
 30
0.0
 10
113.6267121664019
 20
-157.2716873002135
 30
0.0
 10
113.6267121664019
 20
-157.3267911890878
 30
0.0
 10
113.6818160538849
 20
-157.3715939668545
 30
0.0
 10
113.7507171658913
 20
-157.3715939668545
 30
0.0
 10
113.8196463281464
 20
-157.3715939668545
 30
0.0
 10
113.875455771167
 20
-157.3267911890878
 30
0.0
 10
113.875455771167
 20
-157.2716873002135
 30
0.0
  0
LINE
  5
121
330
70
100
AcDbEntity
  8
レイヤー 1
 62
    18
420
        0
370
     9
100
AcDbLine
 10
113.7507171658913
 20
-157.2716873002135
 30
0.0
 11
103.7503104739254
 21
-157.2716873002135
 31
0.0
  0
LINE
  5
122
330
70
100
AcDbEntity
  8
レイヤー 1
 62
    18
420
        0
370
     9
100
AcDbLine
 10
113.7507171658913
 20
-155.8116459116891
 30
0.0
 11
113.7507171658913
 21
-158.271777022185
 31
0.0
  0
LINE
  5
123
330
70
100
AcDbEntity
  8
レイヤー 1
 62
    18
420
        0
370
     9
100
AcDbLine
 10
103.7503104739254
 20
-155.8116459116891
 30
0.0
 11
103.7503104739254
 21
-158.271777022185
 31
0.0
  0
INSERT
  5
125
330
70
100
AcDbEntity
  8
レイヤー 1
100
AcDbBlockReference
  2
Block_8
 10
0.0
 20
0.0
 30
0.0
  0
LINE
  5
131
330
70
100
AcDbEntity
  8
レイヤー 1
 62
    18
420
        0
370
     9
100
AcDbLine
 10
111.5623977746225
 20
-150.3039734130664
 30
0.0
 11
118.5628492626928
 21
-150.3039734130664
 31
0.0
  0
INSERT
  5
133
330
70
100
AcDbEntity
  8
レイヤー 1
100
AcDbBlockReference
  2
Block_10
 10
0.0
 20
0.0
 30
0.0
  0
INSERT
  5
139
330
70
100
AcDbEntity
  8
レイヤー 1
100
AcDbBlockReference
  2
Block_11
 10
0.0
 20
0.0
 30
0.0
  0
INSERT
  5
140
330
70
100
AcDbEntity
  8
レイヤー 1
100
AcDbBlockReference
  2
Block_12
 10
0.0
 20
0.0
 30
0.0
  0
LINE
  5
157
330
70
100
AcDbEntity
  8
レイヤー 1
 62
    18
420
        0
370
    25
100
AcDbLine
 10
112.5910977483782
 20
-145.8963325808348
 30
0.0
 11
112.5910977483782
 21
-152.1584556348248
 31
0.0
  0
INSERT
  5
159
330
70
100
AcDbEntity
  8
レイヤー 1
100
AcDbBlockReference
  2
Block_14
 10
0.0
 20
0.0
 30
0.0
  0
LWPOLYLINE
  5
17E
330
70
100
AcDbEntity
  8
レイヤー 1
 62
   250
420
  2299925
370
     9
100
AcDbPolyline
 90
        3
 70
     0
 43
0.0
 10
116.6497707003883
 20
-145.4601581364998
 10
122.8237344317663
 20
-153.5730239678044
 10
133.4663341602509
 20
-153.5730239678044
  0
LWPOLYLINE
  5
17F
330
70
100
AcDbEntity
  8
レイヤー 1
  6
AI-Linetype-0
 62
   154
420
    23468
370
    25
100
AcDbPolyline
 90
        6
 70
     0
 43
0.0
 10
84.01299403302189
 20
-146.04788591413
 10
105.2909615457312
 20
-145.2252081365581
 10
105.2909615457312
 20
-151.4336031350058
 10
111.8910808217926
 20
-151.4336031350058
 10
111.8910808217926
 20
-145.283769247655
 10
133.1693699388144
 20
-145.9893248030341
  0
ENDSEC
  0
SECTION
  2
OBJECTS
  0
DICTIONARY
  5
C
330
0
100
AcDbDictionary
281
     1
  3
ACAD_COLOR
350
63
  3
ACAD_DETAILVIEWSTYLE
350
6A
  3
ACAD_GROUP
350
D
  3
ACAD_LAYOUT
350
62
  3
ACAD_MATERIAL
350
10
  3
ACAD_MLEADERSTYLE
350
66
  3
ACAD_MLINESTYLE
350
5F
  3
ACAD_PLOTSETTINGS
350
61
  3
ACAD_PLOTSTYLENAME
350
E
  3
ACAD_SCALELIST
350
42
  3
ACAD_SECTIONVIEWSTYLE
350
68
  3
ACAD_TABLESTYLE
350
64
  3
ACAD_VISUALSTYLE
350
29
  3
ACDB_RECOMPOSE_DATA
350
189
  3
AcDbVariableDictionary
350
181
  0
DICTIONARY
  5
63
102
{ACAD_REACTORS
330
C
102
}
330
C
100
AcDbDictionary
281
     1
  0
DICTIONARY
  5
6A
102
{ACAD_REACTORS
330
C
102
}
330
C
100
AcDbDictionary
281
     1
  3
Imperial24
350
6B
  0
DICTIONARY
  5
D
102
{ACAD_REACTORS
330
C
102
}
330
C
100
AcDbDictionary
281
     1
  0
DICTIONARY
  5
62
102
{ACAD_REACTORS
330
C
102
}
330
C
100
AcDbDictionary
281
     1
  3
Layout1
350
6F
  3
Layout2
350
77
  3
Model
350
73
  0
DICTIONARY
  5
10
102
{ACAD_REACTORS
330
C
102
}
330
C
100
AcDbDictionary
281
     1
  3
ByBlock
350
19
  3
ByLayer
350
11
  3
Global
350
21
  0
DICTIONARY
  5
66
102
{ACAD_REACTORS
330
C
102
}
330
C
100
AcDbDictionary
281
     1
  3
Standard
350
67
  0
DICTIONARY
  5
5F
102
{ACAD_REACTORS
330
C
102
}
330
C
100
AcDbDictionary
281
     1
  3
Standard
350
60
  0
DICTIONARY
  5
61
102
{ACAD_REACTORS
330
C
102
}
330
C
100
AcDbDictionary
281
     1
  0
ACDBDICTIONARYWDFLT
  5
E
102
{ACAD_REACTORS
330
C
102
}
330
C
100
AcDbDictionary
281
     1
  3
Normal
350
F
100
AcDbDictionaryWithDefault
340
F
  0
DICTIONARY
  5
42
102
{ACAD_REACTORS
330
C
102
}
330
C
100
AcDbDictionary
281
     1
  3
A0
350
43
  3
A1
350
44
  3
A2
350
45
  3
A3
350
46
  3
A4
350
47
  3
A5
350
48
  3
A6
350
49
  3
A7
350
4A
  3
A8
350
4B
  3
A9
350
4C
  3
B0
350
4D
  3
B1
350
4E
  3
B2
350
4F
  3
B3
350
50
  3
B4
350
51
  3
B5
350
52
  3
B6
350
53
  0
DICTIONARY
  5
68
102
{ACAD_REACTORS
330
C
102
}
330
C
100
AcDbDictionary
281
     1
  3
Imperial24
350
69
  0
DICTIONARY
  5
64
102
{ACAD_REACTORS
330
C
102
}
330
C
100
AcDbDictionary
281
     1
  3
Standard
350
65
  0
DICTIONARY
  5
29
102
{ACAD_REACTORS
330
C
102
}
330
C
100
AcDbDictionary
281
     1
  3
2dWireframe
350
2F
  3
Basic
350
2E
  3
Brighten
350
35
  3
ColorChange
350
39
  3
Conceptual
350
32
  3
Dim
350
34
  3
EdgeColorOff
350
41
  3
Facepattern
350
38
  3
Flat
350
2A
  3
FlatWithEdges
350
2B
  3
Gouraud
350
2C
  3
GouraudWithEdges
350
2D
  3
Hidden
350
31
  3
JitterOff
350
3F
  3
Linepattern
350
37
  3
OverhangOff
350
40
  3
Realistic
350
33
  3
Shaded
350
3E
  3
Shaded with edges
350
3D
  3
Shades of Gray
350
3A
  3
Sketchy
350
3B
  3
Thicken
350
36
  3
Wireframe
350
30
  3
X-Ray
350
3C
  0
XRECORD
  5
189
102
{ACAD_REACTORS
330
C
102
}
330
C
100
AcDbXrecord
280
     1
 90
        1
330
65
  0
DICTIONARY
  5
181
102
{ACAD_REACTORS
330
C
102
}
330
C
100
AcDbDictionary
281
     1
  3
CANNOSCALE
350
186
  3
CMLEADERSTYLE
350
183
  3
CTABLESTYLE
350
182
  3
CVIEWDETAILSTYLE
350
184
  3
CVIEWSECTIONSTYLE
350
185
  0
ACDBDETAILVIEWSTYLE
  5
6B
102
{ACAD_XDICTIONARY
360
1BE
102
}
102
{ACAD_REACTORS
330
6A
102
}
330
6A
100
AcDbModelDocViewStyle
 70
     0
  3
Imperial24
290
     0
100
AcDbDetailViewStyle
 70
     0
 71
     0
 90
        3
 71
     1
340
55
 62
   256
 40
0.24
340
0
 62
   256
 40
0.24
300

 40
0.36
280
     3
 71
     2
340
5D
 90
       25
 62
   256
 71
     3
340
55
 62
   256
 40
0.24
 90
        1
 40
0.75
 90
        1
300
%<\AcVar ViewType \f "%tc1">% %<\AcVar ViewDetailId>%\PSCALE %<\AcVar ViewScale \f "%sn">%
 71
     4
340
5D
 90
       25
 62
   256
340
5D
 90
       25
 62
   256
280
     0
  0
LAYOUT
  5
6F
102
{ACAD_REACTORS
330
62
102
}
330
62
100
AcDbPlotSettings
  1

  2

  4

  6

 40
0.0
 41
0.0
 42
0.0
 43
0.0
 44
0.0
 45
0.0
 46
0.0
 47
0.0
 48
0.0
 49
0.0
140
0.0
141
0.0
142
1.0
143
1.0
 70
   688
 72
     0
 73
     0
 74
     5
  7

 75
    16
147
1.0
 76
     0
 77
     2
 78
   300
148
0.0
149
0.0
100
AcDbLayout
  1
Layout1
 70
     1
 71
     1
 10
0.0
 20
0.0
 11
12.0
 21
9.0
 12
0.0
 22
0.0
 32
0.0
 14
0.0
 24
0.0
 34
0.0
 15
0.0
 25
0.0
 35
0.0
146
0.0
 13
0.0
 23
0.0
 33
0.0
 16
1.0
 26
0.0
 36
0.0
 17
0.0
 27
1.0
 37
0.0
 76
     0
330
6C
  0
LAYOUT
  5
77
102
{ACAD_REACTORS
330
62
102
}
330
62
100
AcDbPlotSettings
  1

  2

  4

  6

 40
0.0
 41
0.0
 42
0.0
 43
0.0
 44
0.0
 45
0.0
 46
0.0
 47
0.0
 48
0.0
 49
0.0
140
0.0
141
0.0
142
1.0
143
1.0
 70
   688
 72
     0
 73
     0
 74
     5
  7

 75
    16
147
1.0
 76
     0
 77
     2
 78
   300
148
0.0
149
0.0
100
AcDbLayout
  1
Layout2
 70
     1
 71
     2
 10
0.0
 20
0.0
 11
12.0
 21
9.0
 12
0.0
 22
0.0
 32
0.0
 14
0.0
 24
0.0
 34
0.0
 15
0.0
 25
0.0
 35
0.0
146
0.0
 13
0.0
 23
0.0
 33
0.0
 16
1.0
 26
0.0
 36
0.0
 17
0.0
 27
1.0
 37
0.0
 76
     0
330
74
  0
LAYOUT
  5
73
102
{ACAD_REACTORS
330
62
102
}
330
62
100
AcDbPlotSettings
  1

  2

  4

  6

 40
0.0
 41
0.0
 42
0.0
 43
0.0
 44
0.0
 45
0.0
 46
0.0
 47
0.0
 48
0.0
 49
0.0
140
0.0
141
0.0
142
1.0
143
1.0
 70
  1712
 72
     0
 73
     0
 74
     0
  7

 75
     0
147
1.0
 76
     0
 77
     2
 78
   300
148
0.0
149
0.0
100
AcDbLayout
  1
Model
 70
     1
 71
     0
 10
0.0
 20
0.0
 11
12.0
 21
9.0
 12
0.0
 22
0.0
 32
0.0
 14
0.0
 24
0.0
 34
0.0
 15
0.0
 25
0.0
 35
0.0
146
0.0
 13
0.0
 23
0.0
 33
0.0
 16
1.0
 26
0.0
 36
0.0
 17
0.0
 27
1.0
 37
0.0
 76
     0
330
70
  0
MATERIAL
  5
19
102
{ACAD_XDICTIONARY
360
1A
102
}
102
{ACAD_REACTORS
330
10
102
}
330
10
100
AcDbMaterial
  1
ByBlock
 72
     0
 43
0.0208333333333333
 43
0.0
 43
0.0
 43
0.0
 43
0.0
 43
0.0208333333333333
 43
0.0
 43
0.0
 43
0.0
 43
0.0
 43
1.0
 43
0.0
 43
0.0
 43
0.0
 43
0.0
 43
1.0
 77
     0
 47
0.0208333333333333
 47
0.0
 47
0.0
 47
0.0
 47
0.0
 47
0.0208333333333333
 47
0.0
 47
0.0
 47
0.0
 47
0.0
 47
1.0
 47
0.0
 47
0.0
 47
0.0
 47
0.0
 47
1.0
171
     0
 49
0.0208333333333333
 49
0.0
 49
0.0
 49
0.0
 49
0.0
 49
0.0208333333333333
 49
0.0
 49
0.0
 49
0.0
 49
0.0
 49
1.0
 49
0.0
 49
0.0
 49
0.0
 49
0.0
 49
1.0
175
     0
142
0.0208333333333333
142
0.0
142
0.0
142
0.0
142
0.0
142
0.0208333333333333
142
0.0
142
0.0
142
0.0
142
0.0
142
1.0
142
0.0
142
0.0
142
0.0
142
0.0
142
1.0
179
     0
144
0.0208333333333333
144
0.0
144
0.0
144
0.0
144
0.0
144
0.0208333333333333
144
0.0
144
0.0
144
0.0
144
0.0
144
1.0
144
0.0
144
0.0
144
0.0
144
0.0
144
1.0
147
0.0208333333333333
147
0.0
147
0.0
147
0.0
147
0.0
147
0.0208333333333333
147
0.0
147
0.0
147
0.0
147
0.0
147
1.0
147
0.0
147
0.0
147
0.0
147
0.0
147
1.0
  0
MATERIAL
  5
11
102
{ACAD_XDICTIONARY
360
12
102
}
102
{ACAD_REACTORS
330
10
102
}
330
10
100
AcDbMaterial
  1
ByLayer
 72
     0
 43
0.0208333333333333
 43
0.0
 43
0.0
 43
0.0
 43
0.0
 43
0.0208333333333333
 43
0.0
 43
0.0
 43
0.0
 43
0.0
 43
1.0
 43
0.0
 43
0.0
 43
0.0
 43
0.0
 43
1.0
 77
     0
 47
0.0208333333333333
 47
0.0
 47
0.0
 47
0.0
 47
0.0
 47
0.0208333333333333
 47
0.0
 47
0.0
 47
0.0
 47
0.0
 47
1.0
 47
0.0
 47
0.0
 47
0.0
 47
0.0
 47
1.0
171
     0
 49
0.0208333333333333
 49
0.0
 49
0.0
 49
0.0
 49
0.0
 49
0.0208333333333333
 49
0.0
 49
0.0
 49
0.0
 49
0.0
 49
1.0
 49
0.0
 49
0.0
 49
0.0
 49
0.0
 49
1.0
175
     0
142
0.0208333333333333
142
0.0
142
0.0
142
0.0
142
0.0
142
0.0208333333333333
142
0.0
142
0.0
142
0.0
142
0.0
142
1.0
142
0.0
142
0.0
142
0.0
142
0.0
142
1.0
179
     0
144
0.0208333333333333
144
0.0
144
0.0
144
0.0
144
0.0
144
0.0208333333333333
144
0.0
144
0.0
144
0.0
144
0.0
144
1.0
144
0.0
144
0.0
144
0.0
144
0.0
144
1.0
147
0.0208333333333333
147
0.0
147
0.0
147
0.0
147
0.0
147
0.0208333333333333
147
0.0
147
0.0
147
0.0
147
0.0
147
1.0
147
0.0
147
0.0
147
0.0
147
0.0
147
1.0
  0
MATERIAL
  5
21
102
{ACAD_XDICTIONARY
360
22
102
}
102
{ACAD_REACTORS
330
10
102
}
330
10
100
AcDbMaterial
  1
Global
 72
     0
 43
0.0208333333333333
 43
0.0
 43
0.0
 43
0.0
 43
0.0
 43
0.0208333333333333
 43
0.0
 43
0.0
 43
0.0
 43
0.0
 43
1.0
 43
0.0
 43
0.0
 43
0.0
 43
0.0
 43
1.0
 77
     0
 47
0.0208333333333333
 47
0.0
 47
0.0
 47
0.0
 47
0.0
 47
0.0208333333333333
 47
0.0
 47
0.0
 47
0.0
 47
0.0
 47
1.0
 47
0.0
 47
0.0
 47
0.0
 47
0.0
 47
1.0
171
     0
 49
0.0208333333333333
 49
0.0
 49
0.0
 49
0.0
 49
0.0
 49
0.0208333333333333
 49
0.0
 49
0.0
 49
0.0
 49
0.0
 49
1.0
 49
0.0
 49
0.0
 49
0.0
 49
0.0
 49
1.0
175
     0
142
0.0208333333333333
142
0.0
142
0.0
142
0.0
142
0.0
142
0.0208333333333333
142
0.0
142
0.0
142
0.0
142
0.0
142
1.0
142
0.0
142
0.0
142
0.0
142
0.0
142
1.0
179
     0
144
0.0208333333333333
144
0.0
144
0.0
144
0.0
144
0.0
144
0.0208333333333333
144
0.0
144
0.0
144
0.0
144
0.0
144
1.0
144
0.0
144
0.0
144
0.0
144
0.0
144
1.0
147
0.0208333333333333
147
0.0
147
0.0
147
0.0
147
0.0
147
0.0208333333333333
147
0.0
147
0.0
147
0.0
147
0.0
147
1.0
147
0.0
147
0.0
147
0.0
147
0.0
147
1.0
  0
MLEADERSTYLE
  5
67
102
{ACAD_XDICTIONARY
360
1BA
102
}
102
{ACAD_REACTORS
330
66
102
}
330
66
100
AcDbMLeaderStyle
179
     2
170
     2
171
     1
172
     0
 90
        2
 40
0.0
 41
0.0
173
     1
 91
-1056964608
340
5B
 92
       -2
290
     1
 42
0.09
291
     1
 43
0.36
  3
Standard
 44
0.18
300

342
55
174
     1
178
     6
175
     1
176
     0
 93
-1056964608
 45
0.18
292
     0
297
     0
 46
0.18
 94
-1056964608
 47
1.0
 49
1.0
140
1.0
293
     1
141
0.0
294
     1
177
     0
142
1.0
295
     0
296
     0
143
0.125
271
     0
272
     9
273
     9
  0
MLINESTYLE
  5
60
102
{ACAD_REACTORS
330
5F
102
}
330
5F
100
AcDbMlineStyle
  2
STANDARD
 70
     0
  3

 62
   256
 51
90.0
 52
90.0
 71
     2
 49
0.5
 62
   256
  6
BYLAYER
 49
-0.5
 62
   256
  6
BYLAYER
  0
ACDBPLACEHOLDER
  5
F
102
{ACAD_REACTORS
330
E
102
}
330
E
  0
SCALE
  5
43
102
{ACAD_REACTORS
330
42
102
}
330
42
100
AcDbScale
 70
     0
300
1:1
140
1.0
141
1.0
290
     1
  0
SCALE
  5
44
102
{ACAD_REACTORS
330
42
102
}
330
42
100
AcDbScale
 70
     0
300
1/128" = 1'-0"
140
0.0078125
141
12.0
290
     0
  0
SCALE
  5
45
102
{ACAD_REACTORS
330
42
102
}
330
42
100
AcDbScale
 70
     0
300
1/64" = 1'-0"
140
0.015625
141
12.0
290
     0
  0
SCALE
  5
46
102
{ACAD_REACTORS
330
42
102
}
330
42
100
AcDbScale
 70
     0
300
1/32" = 1'-0"
140
0.03125
141
12.0
290
     0
  0
SCALE
  5
47
102
{ACAD_REACTORS
330
42
102
}
330
42
100
AcDbScale
 70
     0
300
1/16" = 1'-0"
140
0.0625
141
12.0
290
     0
  0
SCALE
  5
48
102
{ACAD_REACTORS
330
42
102
}
330
42
100
AcDbScale
 70
     0
300
3/32" = 1'-0"
140
0.09375
141
12.0
290
     0
  0
SCALE
  5
49
102
{ACAD_REACTORS
330
42
102
}
330
42
100
AcDbScale
 70
     0
300
1/8" = 1'-0"
140
0.125
141
12.0
290
     0
  0
SCALE
  5
4A
102
{ACAD_REACTORS
330
42
102
}
330
42
100
AcDbScale
 70
     0
300
3/16" = 1'-0"
140
0.1875
141
12.0
290
     0
  0
SCALE
  5
4B
102
{ACAD_REACTORS
330
42
102
}
330
42
100
AcDbScale
 70
     0
300
1/4" = 1'-0"
140
0.25
141
12.0
290
     0
  0
SCALE
  5
4C
102
{ACAD_REACTORS
330
42
102
}
330
42
100
AcDbScale
 70
     0
300
3/8" = 1'-0"
140
0.375
141
12.0
290
     0
  0
SCALE
  5
4D
102
{ACAD_REACTORS
330
42
102
}
330
42
100
AcDbScale
 70
     0
300
1/2" = 1'-0"
140
0.5
141
12.0
290
     0
  0
SCALE
  5
4E
102
{ACAD_REACTORS
330
42
102
}
330
42
100
AcDbScale
 70
     0
300
3/4" = 1'-0"
140
0.75
141
12.0
290
     0
  0
SCALE
  5
4F
102
{ACAD_REACTORS
330
42
102
}
330
42
100
AcDbScale
 70
     0
300
1" = 1'-0"
140
1.0
141
12.0
290
     0
  0
SCALE
  5
50
102
{ACAD_REACTORS
330
42
102
}
330
42
100
AcDbScale
 70
     0
300
1-1/2" = 1'-0"
140
1.5
141
12.0
290
     0
  0
SCALE
  5
51
102
{ACAD_REACTORS
330
42
102
}
330
42
100
AcDbScale
 70
     0
300
3" = 1'-0"
140
3.0
141
12.0
290
     0
  0
SCALE
  5
52
102
{ACAD_REACTORS
330
42
102
}
330
42
100
AcDbScale
 70
     0
300
6" = 1'-0"
140
6.0
141
12.0
290
     0
  0
SCALE
  5
53
102
{ACAD_REACTORS
330
42
102
}
330
42
100
AcDbScale
 70
     0
300
1'-0" = 1'-0"
140
12.0
141
12.0
290
     0
  0
ACDBSECTIONVIEWSTYLE
  5
69
102
{ACAD_XDICTIONARY
360
1BC
102
}
102
{ACAD_REACTORS
330
68
102
}
330
68
100
AcDbModelDocViewStyle
 70
     0
  3
Imperial24
290
     0
100
AcDbSectionViewStyle
 70
     0
 71
     0
 90
       78
 71
     1
340
55
 62
   256
 40
0.24
340
0
340
0
 62
   256
 40
0.24
300
I, O, Q, S, X, Z
 40
0.48
 90
        3
 40
0.18
 90
        1
 71
     2
340
5D
 90
       25
 62
   256
340
5D
 90
       50
 62
   256
 40
0.24
 40
0.0
 40
0.24
 71
     3
340
55
 62
   256
 40
0.24
 90
        1
 40
0.75
 90
        1
300
%<\AcVar ViewType \f "%tc1">% %<\AcVar ViewSectionStartId>%-%<\AcVar ViewSectionEndId>%\PSCALE %<\AcVar ViewScale \f "%sn">%
 71
     4
 62
   256
 62
   257
300
ANSI31
 40
1.0
 90
        0
290
     0
290
     0
 90
        6
 40
0.0
 40
1.570796326794896
 40
0.2617993877991494
 40
1.308996938995747
 40
-0.2617993877991494
 40
1.832595714594046
  0
TABLESTYLE
  5
65
102
{ACAD_XDICTIONARY
360
187
102
}
102
{ACAD_REACTORS
330
64
102
}
330
64
100
AcDbTableStyle
280
     0
  3
Standard
 70
     0
 71
     0
 40
0.06
 41
0.06
280
     0
281
     0
  7
Standard
140
0.18
170
     2
 62
     0
 63
     7
283
     0
 90
      512
 91
        0
  1

274
    -2
284
     1
 64
     0
275
    -2
285
     1
 65
     0
276
    -2
286
     1
 66
     0
277
    -2
287
     1
 67
     0
278
    -2
288
     1
 68
     0
279
    -2
289
     1
 69
     0
  7
Standard
140
0.25
170
     5
 62
     0
 63
     7
283
     0
 90
      512
 91
        0
  1

274
    -2
284
     1
 64
     0
275
    -2
285
     1
 65
     0
276
    -2
286
     1
 66
     0
277
    -2
287
     1
 67
     0
278
    -2
288
     1
 68
     0
279
    -2
289
     1
 69
     0
  7
Standard
140
0.18
170
     5
 62
     0
 63
     7
283
     0
 90
      512
 91
        0
  1

274
    -2
284
     1
 64
     0
275
    -2
285
     1
 65
     0
276
    -2
286
     1
 66
     0
277
    -2
287
     1
 67
     0
278
    -2
288
     1
 68
     0
279
    -2
289
     1
 69
     0
  0
VISUALSTYLE
  5
2F
102
{ACAD_XDICTIONARY
360
194
102
}
102
{ACAD_REACTORS
330
29
102
}
330
29
100
AcDbVisualStyle
  2
2dWireframe
 70
     4
177
     2
291
     0
 71
     0
176
     1
 72
     2
176
     1
 73
     0
176
     1
 90
        0
176
     1
 40
0.6
176
     1
 41
30.0
176
     1
 63
     7
421
 16777215
176
     1
 74
     1
176
     1
 91
        4
176
     1
 64
     7
176
     1
 65
   257
176
     1
 75
     1
176
     1
175
     1
176
     1
 42
1.0
176
     1
 92
        0
176
     1
 66
   257
176
     1
 43
1.0
176
     1
 76
     1
176
     1
 77
     6
176
     1
 78
     2
176
     1
 67
     7
176
     1
 79
     5
176
     1
170
     0
176
     1
171
     0
176
     1
290
     0
176
     1
 93
        1
176
     1
 44
0.0
176
     1
173
     0
176
     1
1001
ACAD
1000
AcDbSavedByObjectVersion
1070
     0
  0
VISUALSTYLE
  5
2E
102
{ACAD_XDICTIONARY
360
192
102
}
102
{ACAD_REACTORS
330
29
102
}
330
29
100
AcDbVisualStyle
  2
Basic
 70
     7
177
     2
291
     1
 71
     1
176
     1
 72
     0
176
     1
 73
     1
176
     1
 90
        0
176
     1
 40
0.6
176
     1
 41
30.0
176
     1
 63
     7
421
 16777215
176
     1
 74
     0
176
     1
 91
        4
176
     1
 64
     7
176
     1
 65
   257
176
     1
 75
     1
176
     1
175
     1
176
     1
 42
1.0
176
     1
 92
        8
176
     1
 66
     7
176
     1
 43
1.0
176
     1
 76
     1
176
     1
 77
     6
176
     1
 78
     2
176
     1
 67
     7
176
     1
 79
     5
176
     1
170
     0
176
     1
171
     0
176
     1
290
     0
176
     1
 93
        1
176
     1
 44
0.0
176
     1
173
     0
176
     1
1001
ACAD
1000
AcDbSavedByObjectVersion
1070
     0
  0
VISUALSTYLE
  5
35
102
{ACAD_XDICTIONARY
360
1A0
102
}
102
{ACAD_REACTORS
330
29
102
}
330
29
100
AcDbVisualStyle
  2
Brighten
 70
    12
177
     2
291
     1
 71
     2
176
     1
 72
     2
176
     1
 73
     0
176
     1
 90
        0
176
     1
 40
0.6
176
     1
 41
30.0
176
     1
 63
     7
421
 16777215
176
     1
 74
     1
176
     1
 91
        4
176
     1
 64
     7
176
     1
 65
   257
176
     1
 75
     1
176
     1
175
     1
176
     1
 42
1.0
176
     1
 92
        8
176
     1
 66
     7
176
     1
 43
1.0
176
     1
 76
     1
176
     1
 77
     6
176
     1
 78
     2
176
     1
 67
     7
176
     1
 79
     5
176
     1
170
     0
176
     1
171
     0
176
     1
290
     0
176
     1
 93
        1
176
     1
 44
50.0
176
     1
173
     0
176
     1
1001
ACAD
1000
AcDbSavedByObjectVersion
1070
     0
  0
VISUALSTYLE
  5
39
102
{ACAD_XDICTIONARY
360
1A8
102
}
102
{ACAD_REACTORS
330
29
102
}
330
29
100
AcDbVisualStyle
  2
ColorChange
 70
    16
177
     2
291
     1
 71
     2
176
     1
 72
     2
176
     1
 73
     3
176
     1
 90
        0
176
     1
 40
0.6
176
     1
 41
30.0
176
     1
 63
     8
421
  8421504
176
     1
 74
     1
176
     1
 91
        4
176
     1
 64
     7
176
     1
 65
   257
176
     1
 75
     1
176
     1
175
     1
176
     1
 42
1.0
176
     1
 92
        8
176
     1
 66
     8
424
  8421504
176
     1
 43
1.0
176
     1
 76
     1
176
     1
 77
     6
176
     1
 78
     2
176
     1
 67
     7
176
     1
 79
     5
176
     1
170
     0
176
     1
171
     0
176
     1
290
     0
176
     1
 93
        1
176
     1
 44
0.0
176
     1
173
     0
176
     1
1001
ACAD
1000
AcDbSavedByObjectVersion
1070
     0
  0
VISUALSTYLE
  5
32
102
{ACAD_XDICTIONARY
360
19A
102
}
102
{ACAD_REACTORS
330
29
102
}
330
29
100
AcDbVisualStyle
  2
Conceptual
 70
     9
177
     2
291
     0
 71
     3
176
     1
 72
     2
176
     1
 73
     0
176
     1
 90
        0
176
     1
 40
0.6
176
     1
 41
30.0
176
     1
 63
     7
421
 16777215
176
     1
 74
     2
176
     1
 91
        2
176
     1
 64
     7
176
     1
 65
   257
176
     1
 75
     1
176
     1
175
     1
176
     1
 42
179.0
176
     1
 92
        8
176
     1
 66
     7
176
     1
 43
1.0
176
     1
 76
     1
176
     1
 77
     6
176
     1
 78
     2
176
     1
 67
     7
176
     1
 79
     3
176
     1
170
     0
176
     1
171
     0
176
     1
290
     0
176
     1
 93
        1
176
     1
 44
0.0
176
     1
173
     0
176
     1
1001
ACAD
1000
AcDbSavedByObjectVersion
1070
     0
  0
VISUALSTYLE
  5
34
102
{ACAD_XDICTIONARY
360
19E
102
}
102
{ACAD_REACTORS
330
29
102
}
330
29
100
AcDbVisualStyle
  2
Dim
 70
    11
177
     2
291
     1
 71
     2
176
     1
 72
     2
176
     1
 73
     0
176
     1
 90
        0
176
     1
 40
0.6
176
     1
 41
30.0
176
     1
 63
     7
421
 16777215
176
     1
 74
     1
176
     1
 91
        4
176
     1
 64
     7
176
     1
 65
   257
176
     1
 75
     1
176
     1
175
     1
176
     1
 42
1.0
176
     1
 92
        8
176
     1
 66
     7
176
     1
 43
1.0
176
     1
 76
     1
176
     1
 77
     6
176
     1
 78
     2
176
     1
 67
     7
176
     1
 79
     5
176
     1
170
     0
176
     1
171
     0
176
     1
290
     0
176
     1
 93
        1
176
     1
 44
-50.0
176
     1
173
     0
176
     1
1001
ACAD
1000
AcDbSavedByObjectVersion
1070
     0
  0
VISUALSTYLE
  5
41
102
{ACAD_XDICTIONARY
360
1B8
102
}
102
{ACAD_REACTORS
330
29
102
}
330
29
100
AcDbVisualStyle
  2
EdgeColorOff
 70
    22
177
     2
291
     1
 71
     2
176
     0
 72
     2
176
     0
 73
     0
176
     0
 90
        0
176
     0
 40
0.6
176
     0
 41
30.0
176
     0
 63
     7
421
 16777215
176
     0
 74
     1
176
     0
 91
        4
176
     0
 64
     7
176
     0
 65
   257
176
     0
 75
     1
176
     0
175
     1
176
     0
 42
1.0
176
     0
 92
        8
176
     2
 66
     7
176
     0
 43
1.0
176
     0
 76
     1
176
     0
 77
     6
176
     0
 78
     2
176
     0
 67
     7
176
     0
 79
     5
176
     0
170
     0
176
     0
171
     0
176
     0
290
     0
176
     0
 93
        1
176
     0
 44
0.0
176
     0
173
     0
176
     0
1001
ACAD
1000
AcDbSavedByObjectVersion
1070
     0
  0
VISUALSTYLE
  5
38
102
{ACAD_XDICTIONARY
360
1A6
102
}
102
{ACAD_REACTORS
330
29
102
}
330
29
100
AcDbVisualStyle
  2
Facepattern
 70
    15
177
     2
291
     1
 71
     2
176
     1
 72
     2
176
     1
 73
     0
176
     1
 90
        0
176
     1
 40
0.6
176
     1
 41
30.0
176
     1
 63
     7
421
 16777215
176
     1
 74
     1
176
     1
 91
        4
176
     1
 64
     7
176
     1
 65
   257
176
     1
 75
     1
176
     1
175
     1
176
     1
 42
1.0
176
     1
 92
        8
176
     1
 66
     7
176
     1
 43
1.0
176
     1
 76
     1
176
     1
 77
     6
176
     1
 78
     2
176
     1
 67
     7
176
     1
 79
     5
176
     1
170
     0
176
     1
171
     0
176
     1
290
     0
176
     1
 93
        1
176
     1
 44
0.0
176
     1
173
     0
176
     1
1001
ACAD
1000
AcDbSavedByObjectVersion
1070
     0
  0
VISUALSTYLE
  5
2A
102
{ACAD_XDICTIONARY
360
18A
102
}
102
{ACAD_REACTORS
330
29
102
}
330
29
100
AcDbVisualStyle
  2
Flat
 70
     0
177
     2
291
     1
 71
     2
176
     1
 72
     1
176
     1
 73
     1
176
     1
 90
        2
176
     1
 40
0.6
176
     1
 41
30.0
176
     1
 63
     7
421
 16777215
176
     1
 74
     0
176
     1
 91
        0
176
     1
 64
     7
176
     1
 65
   257
176
     1
 75
     1
176
     1
175
     1
176
     1
 42
1.0
176
     1
 92
        8
176
     1
 66
     7
176
     1
 43
1.0
176
     1
 76
     1
176
     1
 77
     6
176
     1
 78
     2
176
     1
 67
     7
176
     1
 79
     5
176
     1
170
     0
176
     1
171
     0
176
     1
290
     0
176
     1
 93
       13
176
     1
 44
0.0
176
     1
173
     0
176
     1
1001
ACAD
1000
AcDbSavedByObjectVersion
1070
     0
  0
VISUALSTYLE
  5
2B
102
{ACAD_XDICTIONARY
360
18C
102
}
102
{ACAD_REACTORS
330
29
102
}
330
29
100
AcDbVisualStyle
  2
FlatWithEdges
 70
     1
177
     2
291
     1
 71
     2
176
     1
 72
     1
176
     1
 73
     1
176
     1
 90
        2
176
     1
 40
0.6
176
     1
 41
30.0
176
     1
 63
     7
421
 16777215
176
     1
 74
     1
176
     1
 91
        0
176
     1
 64
     7
176
     1
 65
   257
176
     1
 75
     1
176
     1
175
     1
176
     1
 42
1.0
176
     1
 92
        0
176
     1
 66
   257
176
     1
 43
1.0
176
     1
 76
     1
176
     1
 77
     6
176
     1
 78
     2
176
     1
 67
     7
176
     1
 79
     5
176
     1
170
     0
176
     1
171
     0
176
     1
290
     0
176
     1
 93
       13
176
     1
 44
0.0
176
     1
173
     0
176
     1
1001
ACAD
1000
AcDbSavedByObjectVersion
1070
     0
  0
VISUALSTYLE
  5
2C
102
{ACAD_XDICTIONARY
360
18E
102
}
102
{ACAD_REACTORS
330
29
102
}
330
29
100
AcDbVisualStyle
  2
Gouraud
 70
     2
177
     2
291
     1
 71
     2
176
     1
 72
     2
176
     1
 73
     1
176
     1
 90
        2
176
     1
 40
0.6
176
     1
 41
30.0
176
     1
 63
     7
421
 16777215
176
     1
 74
     0
176
     1
 91
        0
176
     1
 64
     7
176
     1
 65
   257
176
     1
 75
     1
176
     1
175
     1
176
     1
 42
1.0
176
     1
 92
        0
176
     1
 66
     7
176
     1
 43
1.0
176
     1
 76
     1
176
     1
 77
     6
176
     1
 78
     2
176
     1
 67
     7
176
     1
 79
     5
176
     1
170
     0
176
     1
171
     0
176
     1
290
     0
176
     1
 93
       13
176
     1
 44
0.0
176
     1
173
     0
176
     1
1001
ACAD
1000
AcDbSavedByObjectVersion
1070
     0
  0
VISUALSTYLE
  5
2D
102
{ACAD_XDICTIONARY
360
190
102
}
102
{ACAD_REACTORS
330
29
102
}
330
29
100
AcDbVisualStyle
  2
GouraudWithEdges
 70
     3
177
     2
291
     1
 71
     2
176
     1
 72
     2
176
     1
 73
     1
176
     1
 90
        2
176
     1
 40
0.6
176
     1
 41
30.0
176
     1
 63
     7
421
 16777215
176
     1
 74
     1
176
     1
 91
        0
176
     1
 64
     7
176
     1
 65
   257
176
     1
 75
     1
176
     1
175
     1
176
     1
 42
1.0
176
     1
 92
        0
176
     1
 66
   257
176
     1
 43
1.0
176
     1
 76
     1
176
     1
 77
     6
176
     1
 78
     2
176
     1
 67
     7
176
     1
 79
     5
176
     1
170
     0
176
     1
171
     0
176
     1
290
     0
176
     1
 93
       13
176
     1
 44
0.0
176
     1
173
     0
176
     1
1001
ACAD
1000
AcDbSavedByObjectVersion
1070
     0
  0
VISUALSTYLE
  5
31
102
{ACAD_XDICTIONARY
360
198
102
}
102
{ACAD_REACTORS
330
29
102
}
330
29
100
AcDbVisualStyle
  2
Hidden
 70
     6
177
     2
291
     0
 71
     1
176
     1
 72
     2
176
     1
 73
     2
176
     1
 90
        0
176
     1
 40
0.6
176
     1
 41
30.0
176
     1
 63
     7
421
 16777215
176
     1
 74
     2
176
     1
 91
        2
176
     1
 64
     7
176
     1
 65
   257
176
     1
 75
     2
176
     1
175
     1
176
     1
 42
40.0
176
     1
 92
        0
176
     1
 66
   257
176
     1
 43
1.0
176
     1
 76
     1
176
     1
 77
     6
176
     1
 78
     2
176
     1
 67
     7
176
     1
 79
     3
176
     1
170
     0
176
     1
171
     0
176
     1
290
     0
176
     1
 93
        1
176
     1
 44
0.0
176
     1
173
     0
176
     1
1001
ACAD
1000
AcDbSavedByObjectVersion
1070
     0
  0
VISUALSTYLE
  5
3F
102
{ACAD_XDICTIONARY
360
1B4
102
}
102
{ACAD_REACTORS
330
29
102
}
330
29
100
AcDbVisualStyle
  2
JitterOff
 70
    20
177
     2
291
     1
 71
     2
176
     0
 72
     2
176
     0
 73
     0
176
     0
 90
        0
176
     0
 40
0.6
176
     0
 41
30.0
176
     0
 63
     7
421
 16777215
176
     0
 74
     1
176
     0
 91
        4
176
     0
 64
     7
176
     0
 65
   257
176
     0
 75
     1
176
     0
175
     1
176
     0
 42
1.0
176
     0
 92
       10
176
     2
 66
     7
176
     0
 43
1.0
176
     0
 76
     1
176
     0
 77
     6
176
     0
 78
     2
176
     0
 67
     7
176
     0
 79
     5
176
     0
170
     0
176
     0
171
     0
176
     0
290
     0
176
     0
 93
        1
176
     0
 44
0.0
176
     0
173
     0
176
     0
1001
ACAD
1000
AcDbSavedByObjectVersion
1070
     0
  0
VISUALSTYLE
  5
37
102
{ACAD_XDICTIONARY
360
1A4
102
}
102
{ACAD_REACTORS
330
29
102
}
330
29
100
AcDbVisualStyle
  2
Linepattern
 70
    14
177
     2
291
     1
 71
     2
176
     1
 72
     2
176
     1
 73
     0
176
     1
 90
        0
176
     1
 40
0.6
176
     1
 41
30.0
176
     1
 63
     7
421
 16777215
176
     1
 74
     1
176
     1
 91
        4
176
     1
 64
     7
176
     1
 65
   257
176
     1
 75
     7
176
     1
175
     7
176
     1
 42
1.0
176
     1
 92
        8
176
     1
 66
     7
176
     1
 43
1.0
176
     1
 76
     1
176
     1
 77
     6
176
     1
 78
     2
176
     1
 67
     7
176
     1
 79
     5
176
     1
170
     0
176
     1
171
     0
176
     1
290
     0
176
     1
 93
        1
176
     1
 44
0.0
176
     1
173
     0
176
     1
1001
ACAD
1000
AcDbSavedByObjectVersion
1070
     0
  0
VISUALSTYLE
  5
40
102
{ACAD_XDICTIONARY
360
1B6
102
}
102
{ACAD_REACTORS
330
29
102
}
330
29
100
AcDbVisualStyle
  2
OverhangOff
 70
    21
177
     2
291
     1
 71
     2
176
     0
 72
     2
176
     0
 73
     0
176
     0
 90
        0
176
     0
 40
0.6
176
     0
 41
30.0
176
     0
 63
     7
421
 16777215
176
     0
 74
     1
176
     0
 91
        4
176
     0
 64
     7
176
     0
 65
   257
176
     0
 75
     1
176
     0
175
     1
176
     0
 42
1.0
176
     0
 92
        9
176
     2
 66
     7
176
     0
 43
1.0
176
     0
 76
     1
176
     0
 77
     6
176
     0
 78
     2
176
     0
 67
     7
176
     0
 79
     5
176
     0
170
     0
176
     0
171
     0
176
     0
290
     0
176
     0
 93
        1
176
     0
 44
0.0
176
     0
173
     0
176
     0
1001
ACAD
1000
AcDbSavedByObjectVersion
1070
     0
  0
VISUALSTYLE
  5
33
102
{ACAD_XDICTIONARY
360
19C
102
}
102
{ACAD_REACTORS
330
29
102
}
330
29
100
AcDbVisualStyle
  2
Realistic
 70
     8
177
     2
291
     0
 71
     2
176
     1
 72
     3
176
     1
 73
     0
176
     1
 90
        2
176
     1
 40
0.6
176
     1
 41
30.0
176
     1
 63
     7
421
 16777215
176
     1
 74
     0
176
     1
 91
        0
176
     1
 64
     7
176
     1
 65
   257
176
     1
 75
     1
176
     1
175
     1
176
     1
 42
1.0
176
     1
 92
        8
176
     1
 66
   257
176
     1
 43
1.0
176
     1
 76
     1
176
     1
 77
     6
176
     1
 78
     2
176
     1
 67
     7
176
     1
 79
     3
176
     1
170
     0
176
     1
171
     0
176
     1
290
     0
176
     1
 93
       13
176
     1
 44
0.0
176
     1
173
     0
176
     1
1001
ACAD
1000
AcDbSavedByObjectVersion
1070
     0
  0
VISUALSTYLE
  5
3E
102
{ACAD_XDICTIONARY
360
1B2
102
}
102
{ACAD_REACTORS
330
29
102
}
330
29
100
AcDbVisualStyle
  2
Shaded
 70
    27
177
     2
291
     0
 71
     2
176
     1
 72
     2
176
     1
 73
     1
176
     1
 90
        2
176
     1
 40
0.6
176
     1
 41
30.0
176
     1
 63
     7
421
 16777215
176
     1
 74
     0
176
     1
 91
        4
176
     1
 64
     7
176
     1
 65
   257
176
     1
 75
     1
176
     1
175
     1
176
     1
 42
1.0
176
     1
 92
        8
176
     1
 66
   257
176
     1
 43
1.0
176
     1
 76
     1
176
     1
 77
     6
176
     1
 78
     2
176
     1
 67
     8
425
  7895160
176
     1
 79
     3
176
     1
170
     0
176
     1
171
     0
176
     1
290
     0
176
     1
 93
        5
176
     1
 44
0.0
176
     1
173
     0
176
     1
1001
ACAD
1000
AcDbSavedByObjectVersion
1070
     0
  0
VISUALSTYLE
  5
3D
102
{ACAD_XDICTIONARY
360
1B0
102
}
102
{ACAD_REACTORS
330
29
102
}
330
29
100
AcDbVisualStyle
  2
Shaded with edges
 70
    26
177
     2
291
     0
 71
     2
176
     1
 72
     2
176
     1
 73
     1
176
     1
 90
        2
176
     1
 40
0.6
176
     1
 41
30.0
176
     1
 63
     7
421
 16777215
176
     1
 74
     1
176
     1
 91
        2
176
     1
 64
     7
176
     1
 65
   257
176
     1
 75
     2
176
     1
175
     1
176
     1
 42
1.0
176
     1
 92
        8
176
     1
 66
   257
176
     1
 43
1.0
176
     1
 76
     1
176
     1
 77
     6
176
     1
 78
     2
176
     1
 67
     7
176
     1
 79
     3
176
     1
170
     0
176
     1
171
     0
176
     1
290
     0
176
     1
 93
        5
176
     1
 44
0.0
176
     1
173
     0
176
     1
1001
ACAD
1000
AcDbSavedByObjectVersion
1070
     0
  0
VISUALSTYLE
  5
3A
102
{ACAD_XDICTIONARY
360
1AA
102
}
102
{ACAD_REACTORS
330
29
102
}
330
29
100
AcDbVisualStyle
  2
Shades of Gray
 70
    23
177
     2
291
     0
 71
     2
176
     1
 72
     2
176
     1
 73
     3
176
     1
 90
        0
176
     1
 40
0.6
176
     1
 41
30.0
176
     1
 63
     7
421
 16777215
176
     1
 74
     2
176
     1
 91
        2
176
     1
 64
     7
176
     1
 65
     7
176
     1
 75
     1
176
     1
175
     1
176
     1
 42
40.0
176
     1
 92
        8
176
     1
 66
     7
176
     1
 43
1.0
176
     1
 76
     1
176
     1
 77
     6
176
     1
 78
     2
176
     1
 67
     7
176
     1
 79
     3
176
     1
170
     0
176
     1
171
     0
176
     1
290
     0
176
     1
 93
        1
176
     1
 44
0.0
176
     1
173
     0
176
     1
1001
ACAD
1000
AcDbSavedByObjectVersion
1070
     0
  0
VISUALSTYLE
  5
3B
102
{ACAD_XDICTIONARY
360
1AC
102
}
102
{ACAD_REACTORS
330
29
102
}
330
29
100
AcDbVisualStyle
  2
Sketchy
 70
    24
177
     2
291
     0
 71
     1
176
     1
 72
     2
176
     1
 73
     2
176
     1
 90
        0
176
     1
 40
0.6
176
     1
 41
30.0
176
     1
 63
     7
421
 16777215
176
     1
 74
     2
176
     1
 91
        2
176
     1
 64
     7
176
     1
 65
     7
176
     1
 75
     1
176
     1
175
     1
176
     1
 42
40.0
176
     1
 92
       11
176
     1
 66
     7
176
     1
 43
1.0
176
     1
 76
     1
176
     1
 77
     6
176
     1
 78
     2
176
     1
 67
     7
176
     1
 79
     6
176
     1
170
     0
176
     1
171
     0
176
     1
290
     0
176
     1
 93
        1
176
     1
 44
0.0
176
     1
173
     0
176
     1
1001
ACAD
1000
AcDbSavedByObjectVersion
1070
     0
  0
VISUALSTYLE
  5
36
102
{ACAD_XDICTIONARY
360
1A2
102
}
102
{ACAD_REACTORS
330
29
102
}
330
29
100
AcDbVisualStyle
  2
Thicken
 70
    13
177
     2
291
     1
 71
     2
176
     1
 72
     2
176
     1
 73
     0
176
     1
 90
        0
176
     1
 40
0.6
176
     1
 41
30.0
176
     1
 63
     7
421
 16777215
176
     1
 74
     1
176
     1
 91
        4
176
     1
 64
     7
176
     1
 65
   257
176
     1
 75
     1
176
     1
175
     1
176
     1
 42
1.0
176
     1
 92
       12
176
     1
 66
     7
176
     1
 43
1.0
176
     1
 76
     1
176
     1
 77
     6
176
     1
 78
     2
176
     1
 67
     7
176
     1
 79
     5
176
     1
170
     0
176
     1
171
     0
176
     1
290
     0
176
     1
 93
        1
176
     1
 44
0.0
176
     1
173
     0
176
     1
1001
ACAD
1000
AcDbSavedByObjectVersion
1070
     0
  0
VISUALSTYLE
  5
30
102
{ACAD_XDICTIONARY
360
196
102
}
102
{ACAD_REACTORS
330
29
102
}
330
29
100
AcDbVisualStyle
  2
Wireframe
 70
     5
177
     2
291
     0
 71
     0
176
     1
 72
     2
176
     1
 73
     0
176
     1
 90
        0
176
     1
 40
0.6
176
     1
 41
30.0
176
     1
 63
     7
421
 16777215
176
     1
 74
     1
176
     1
 91
        4
176
     1
 64
     7
176
     1
 65
   257
176
     1
 75
     1
176
     1
175
     1
176
     1
 42
1.0
176
     1
 92
        0
176
     1
 66
   257
176
     1
 43
1.0
176
     1
 76
     1
176
     1
 77
     6
176
     1
 78
     2
176
     1
 67
     7
176
     1
 79
     3
176
     1
170
     0
176
     1
171
     0
176
     1
290
     0
176
     1
 93
        1
176
     1
 44
0.0
176
     1
173
     0
176
     1
1001
ACAD
1000
AcDbSavedByObjectVersion
1070
     0
  0
VISUALSTYLE
  5
3C
102
{ACAD_XDICTIONARY
360
1AE
102
}
102
{ACAD_REACTORS
330
29
102
}
330
29
100
AcDbVisualStyle
  2
X-Ray
 70
    25
177
     2
291
     0
 71
     2
176
     1
 72
     2
176
     1
 73
     1
176
     1
 90
        1
176
     1
 40
0.5
176
     1
 41
30.0
176
     1
 63
     7
421
 16777215
176
     1
 74
     1
176
     1
 91
        0
176
     1
 64
     7
176
     1
 65
   257
176
     1
 75
     1
176
     1
175
     1
176
     1
 42
1.0
176
     1
 92
        8
176
     1
 66
     7
176
     1
 43
1.0
176
     1
 76
     1
176
     1
 77
     6
176
     1
 78
     2
176
     1
 67
     7
176
     1
 79
     3
176
     1
170
     0
176
     1
171
     0
176
     1
290
     0
176
     1
 93
       13
176
     1
 44
0.0
176
     1
173
     0
176
     1
1001
ACAD
1000
AcDbSavedByObjectVersion
1070
     0
  0
DICTIONARYVAR
  5
186
102
{ACAD_REACTORS
330
181
102
}
330
181
100
DictionaryVariables
280
     0
  1
1:1
  0
DICTIONARYVAR
  5
183
102
{ACAD_REACTORS
330
181
102
}
330
181
100
DictionaryVariables
280
     0
  1
STANDARD
  0
DICTIONARYVAR
  5
182
102
{ACAD_REACTORS
330
181
102
}
330
181
100
DictionaryVariables
280
     0
  1
STANDARD
  0
DICTIONARYVAR
  5
184
102
{ACAD_REACTORS
330
181
102
}
330
181
100
DictionaryVariables
280
     0
  1
Imperial24
  0
DICTIONARYVAR
  5
185
102
{ACAD_REACTORS
330
181
102
}
330
181
100
DictionaryVariables
280
     0
  1
Imperial24
  0
DICTIONARY
  5
1BE
330
6B
100
AcDbDictionary
280
     1
281
     1
  3
ACAD_XREC_ROUNDTRIP
360
1BF
  0
DICTIONARY
  5
1A
330
19
100
AcDbDictionary
280
     1
281
     1
  3
BUMPTILE
360
1C
  3
DIFFUSETILE
360
1B
  3
OPACITYTILE
360
1F
  3
REFLECTIONTILE
360
1E
  3
REFRACTIONTILE
360
20
  3
SPECULARTILE
360
1D
  0
DICTIONARY
  5
12
330
11
100
AcDbDictionary
280
     1
281
     1
  3
BUMPTILE
360
14
  3
DIFFUSETILE
360
13
  3
OPACITYTILE
360
17
  3
REFLECTIONTILE
360
16
  3
REFRACTIONTILE
360
18
  3
SPECULARTILE
360
15
  0
DICTIONARY
  5
22
330
21
100
AcDbDictionary
280
     1
281
     1
  3
BUMPTILE
360
24
  3
DIFFUSETILE
360
23
  3
OPACITYTILE
360
27
  3
REFLECTIONTILE
360
26
  3
REFRACTIONTILE
360
28
  3
SPECULARTILE
360
25
  0
DICTIONARY
  5
1BA
330
67
100
AcDbDictionary
280
     1
281
     1
  3
ACAD_XREC_ROUNDTRIP
360
1BB
  0
DICTIONARY
  5
1BC
330
69
100
AcDbDictionary
280
     1
281
     1
  3
ACAD_XREC_ROUNDTRIP
360
1BD
  0
DICTIONARY
  5
187
330
65
100
AcDbDictionary
280
     1
281
     1
  3
ACAD_ROUNDTRIP_2008_TABLESTYLE_CELLSTYLEMAP
360
188
  0
DICTIONARY
  5
194
330
2F
100
AcDbDictionary
280
     1
281
     1
  3
ACAD_XREC_ROUNDTRIP
360
195
  0
DICTIONARY
  5
192
330
2E
100
AcDbDictionary
280
     1
281
     1
  3
ACAD_XREC_ROUNDTRIP
360
193
  0
DICTIONARY
  5
1A0
330
35
100
AcDbDictionary
280
     1
281
     1
  3
ACAD_XREC_ROUNDTRIP
360
1A1
  0
DICTIONARY
  5
1A8
330
39
100
AcDbDictionary
280
     1
281
     1
  3
ACAD_XREC_ROUNDTRIP
360
1A9
  0
DICTIONARY
  5
19A
330
32
100
AcDbDictionary
280
     1
281
     1
  3
ACAD_XREC_ROUNDTRIP
360
19B
  0
DICTIONARY
  5
19E
330
34
100
AcDbDictionary
280
     1
281
     1
  3
ACAD_XREC_ROUNDTRIP
360
19F
  0
DICTIONARY
  5
1B8
330
41
100
AcDbDictionary
280
     1
281
     1
  3
ACAD_XREC_ROUNDTRIP
360
1B9
  0
DICTIONARY
  5
1A6
330
38
100
AcDbDictionary
280
     1
281
     1
  3
ACAD_XREC_ROUNDTRIP
360
1A7
  0
DICTIONARY
  5
18A
330
2A
100
AcDbDictionary
280
     1
281
     1
  3
ACAD_XREC_ROUNDTRIP
360
18B
  0
DICTIONARY
  5
18C
330
2B
100
AcDbDictionary
280
     1
281
     1
  3
ACAD_XREC_ROUNDTRIP
360
18D
  0
DICTIONARY
  5
18E
330
2C
100
AcDbDictionary
280
     1
281
     1
  3
ACAD_XREC_ROUNDTRIP
360
18F
  0
DICTIONARY
  5
190
330
2D
100
AcDbDictionary
280
     1
281
     1
  3
ACAD_XREC_ROUNDTRIP
360
191
  0
DICTIONARY
  5
198
330
31
100
AcDbDictionary
280
     1
281
     1
  3
ACAD_XREC_ROUNDTRIP
360
199
  0
DICTIONARY
  5
1B4
330
3F
100
AcDbDictionary
280
     1
281
     1
  3
ACAD_XREC_ROUNDTRIP
360
1B5
  0
DICTIONARY
  5
1A4
330
37
100
AcDbDictionary
280
     1
281
     1
  3
ACAD_XREC_ROUNDTRIP
360
1A5
  0
DICTIONARY
  5
1B6
330
40
100
AcDbDictionary
280
     1
281
     1
  3
ACAD_XREC_ROUNDTRIP
360
1B7
  0
DICTIONARY
  5
19C
330
33
100
AcDbDictionary
280
     1
281
     1
  3
ACAD_XREC_ROUNDTRIP
360
19D
  0
DICTIONARY
  5
1B2
330
3E
100
AcDbDictionary
280
     1
281
     1
  3
ACAD_XREC_ROUNDTRIP
360
1B3
  0
DICTIONARY
  5
1B0
330
3D
100
AcDbDictionary
280
     1
281
     1
  3
ACAD_XREC_ROUNDTRIP
360
1B1
  0
DICTIONARY
  5
1AA
330
3A
100
AcDbDictionary
280
     1
281
     1
  3
ACAD_XREC_ROUNDTRIP
360
1AB
  0
DICTIONARY
  5
1AC
330
3B
100
AcDbDictionary
280
     1
281
     1
  3
ACAD_XREC_ROUNDTRIP
360
1AD
  0
DICTIONARY
  5
1A2
330
36
100
AcDbDictionary
280
     1
281
     1
  3
ACAD_XREC_ROUNDTRIP
360
1A3
  0
DICTIONARY
  5
196
330
30
100
AcDbDictionary
280
     1
281
     1
  3
ACAD_XREC_ROUNDTRIP
360
197
  0
DICTIONARY
  5
1AE
330
3C
100
AcDbDictionary
280
     1
281
     1
  3
ACAD_XREC_ROUNDTRIP
360
1AF
  0
XRECORD
  5
1BF
102
{ACAD_REACTORS
330
1BE
102
}
330
1BE
100
AcDbXrecord
280
     1
102
DISPLAYNAME
  1
Imperial24
102
FLAGS
 90
        0
  0
XRECORD
  5
1C
102
{ACAD_REACTORS
330
1A
102
}
330
1A
100
AcDbXrecord
280
     1
270
     1
271
     1
  0
XRECORD
  5
1B
102
{ACAD_REACTORS
330
1A
102
}
330
1A
100
AcDbXrecord
280
     1
270
     1
271
     1
  0
XRECORD
  5
1F
102
{ACAD_REACTORS
330
1A
102
}
330
1A
100
AcDbXrecord
280
     1
270
     1
271
     1
  0
XRECORD
  5
1E
102
{ACAD_REACTORS
330
1A
102
}
330
1A
100
AcDbXrecord
280
     1
270
     1
271
     1
  0
XRECORD
  5
20
102
{ACAD_REACTORS
330
1A
102
}
330
1A
100
AcDbXrecord
280
     1
270
     1
271
     1
  0
XRECORD
  5
1D
102
{ACAD_REACTORS
330
1A
102
}
330
1A
100
AcDbXrecord
280
     1
270
     1
271
     1
  0
XRECORD
  5
14
102
{ACAD_REACTORS
330
12
102
}
330
12
100
AcDbXrecord
280
     1
270
     1
271
     1
  0
XRECORD
  5
13
102
{ACAD_REACTORS
330
12
102
}
330
12
100
AcDbXrecord
280
     1
270
     1
271
     1
  0
XRECORD
  5
17
102
{ACAD_REACTORS
330
12
102
}
330
12
100
AcDbXrecord
280
     1
270
     1
271
     1
  0
XRECORD
  5
16
102
{ACAD_REACTORS
330
12
102
}
330
12
100
AcDbXrecord
280
     1
270
     1
271
     1
  0
XRECORD
  5
18
102
{ACAD_REACTORS
330
12
102
}
330
12
100
AcDbXrecord
280
     1
270
     1
271
     1
  0
XRECORD
  5
15
102
{ACAD_REACTORS
330
12
102
}
330
12
100
AcDbXrecord
280
     1
270
     1
271
     1
  0
XRECORD
  5
24
102
{ACAD_REACTORS
330
22
102
}
330
22
100
AcDbXrecord
280
     1
270
     1
271
     1
  0
XRECORD
  5
23
102
{ACAD_REACTORS
330
22
102
}
330
22
100
AcDbXrecord
280
     1
270
     1
271
     1
  0
XRECORD
  5
27
102
{ACAD_REACTORS
330
22
102
}
330
22
100
AcDbXrecord
280
     1
270
     1
271
     1
  0
XRECORD
  5
26
102
{ACAD_REACTORS
330
22
102
}
330
22
100
AcDbXrecord
280
     1
270
     1
271
     1
  0
XRECORD
  5
28
102
{ACAD_REACTORS
330
22
102
}
330
22
100
AcDbXrecord
280
     1
270
     1
271
     1
  0
XRECORD
  5
25
102
{ACAD_REACTORS
330
22
102
}
330
22
100
AcDbXrecord
280
     1
270
     1
271
     1
  0
XRECORD
  5
1BB
102
{ACAD_REACTORS
330
1BA
102
}
330
1BA
100
AcDbXrecord
280
     1
102
ACAD_ROUNDTRIP_2012_MLEADER_STYLE
298
     1
  0
XRECORD
  5
1BD
102
{ACAD_REACTORS
330
1BC
102
}
330
1BC
100
AcDbXrecord
280
     1
102
DISPLAYNAME
  1
Imperial24
102
FLAGS
 90
        0
  0
CELLSTYLEMAP
  5
188
102
{ACAD_REACTORS
330
187
102
}
330
187
100
AcDbCellStyleMap
 90
        3
300
CELLSTYLE
  1
TABLEFORMAT_BEGIN
 90
        5
170
     1
 91
        0
 92
    32768
 62
   257
 93
        1
300
CONTENTFORMAT
  1
CONTENTFORMAT_BEGIN
 90
        0
 91
        0
 92
      512
 93
        0
300

 40
0.0
140
1.0
 94
        5
 62
     0
340
55
144
0.25
309
CONTENTFORMAT_END
171
     0
 94
        0
309
TABLEFORMAT_END
  1
CELLSTYLE_BEGIN
 90
        1
 91
        1
300
_TITLE
309
CELLSTYLE_END
300
CELLSTYLE
  1
TABLEFORMAT_BEGIN
 90
        5
170
     1
 91
        0
 92
        0
 62
   257
 93
        1
300
CONTENTFORMAT
  1
CONTENTFORMAT_BEGIN
 90
        0
 91
        0
 92
      512
 93
        0
300

 40
0.0
140
1.0
 94
        5
 62
     0
340
55
144
0.18
309
CONTENTFORMAT_END
171
     0
 94
        0
309
TABLEFORMAT_END
  1
CELLSTYLE_BEGIN
 90
        2
 91
        1
300
_HEADER
309
CELLSTYLE_END
300
CELLSTYLE
  1
TABLEFORMAT_BEGIN
 90
        5
170
     1
 91
        0
 92
        0
 62
   257
 93
        1
300
CONTENTFORMAT
  1
CONTENTFORMAT_BEGIN
 90
        0
 91
        0
 92
      512
 93
        0
300

 40
0.0
140
1.0
 94
        2
 62
     0
340
55
144
0.18
309
CONTENTFORMAT_END
171
     0
 94
        0
309
TABLEFORMAT_END
  1
CELLSTYLE_BEGIN
 90
        3
 91
        2
300
_DATA
309
CELLSTYLE_END
  0
XRECORD
  5
195
102
{ACAD_REACTORS
330
194
102
}
330
194
100
AcDbXrecord
280
     1
102
RTVSPost2010Prop28
280
     1
102
RTVSPost2010PropOp28
 70
     1
102
RTVSPost2010Prop29
280
     1
102
RTVSPost2010PropOp29
 70
     1
102
RTVSPost2010Prop30
280
     0
102
RTVSPost2010PropOp30
 70
     1
102
RTVSPost2010Prop31
280
     0
102
RTVSPost2010PropOp31
 70
     1
102
RTVSPost2010Prop32
280
     0
102
RTVSPost2010PropOp32
 70
     1
102
RTVSPost2010Prop33
280
     0
102
RTVSPost2010PropOp33
 70
     1
102
RTVSPost2010Prop34
280
     0
102
RTVSPost2010PropOp34
 70
     1
102
RTVSPost2010Prop35
280
     0
102
RTVSPost2010PropOp35
 70
     1
102
RTVSPost2010Prop36
280
     0
102
RTVSPost2010PropOp36
 70
     1
102
RTVSPost2010Prop37
 90
       50
102
RTVSPost2010PropOp37
 70
     1
102
RTVSPost2010Prop38
140
0.0
102
RTVSPost2010PropOp38
 70
     1
102
RTVSPost2010Prop39
140
1.0
102
RTVSPost2010PropOp39
 70
     1
102
RTVSPost2010Prop40
 90
        0
102
RTVSPost2010PropOp40
 70
     1
102
RTVSPost2010Prop41ColorIndex
 90
       18
102
RTVSPost2010Prop41ColorRGB
 90
        0
102
RTVSPost2010PropOp41
 70
     1
102
RTVSPost2010Prop42
 90
       50
102
RTVSPost2010PropOp42
 70
     1
102
RTVSPost2010Prop43
 90
        3
102
RTVSPost2010PropOp43
 70
     1
102
RTVSPost2010Prop44ColorIndex
 90
        5
102
RTVSPost2010Prop44ColorRGB
 90
      255
102
RTVSPost2010PropOp44
 70
     1
102
RTVSPost2010Prop45
280
     0
102
RTVSPost2010PropOp45
 70
     1
102
RTVSPost2010Prop46
 90
       50
102
RTVSPost2010PropOp46
 70
     1
102
RTVSPost2010Prop47
 90
       50
102
RTVSPost2010PropOp47
 70
     1
102
RTVSPost2010Prop48
 90
       50
102
RTVSPost2010PropOp48
 70
     1
102
RTVSPost2010Prop49
280
     0
102
RTVSPost2010PropOp49
 70
     1
102
RTVSPost2010Prop50
 90
       50
102
RTVSPost2010PropOp50
 70
     1
102
RTVSPost2010Prop51ColorIndex
 90
      256
102
RTVSPost2010Prop51ColorRGB
 90
-16777216
102
RTVSPost2010PropOp51
 70
     0
102
RTVSPost2010Prop52
140
1.0
102
RTVSPost2010PropOp52
 70
     0
102
RTVSPost2010Prop53
 90
        2
102
RTVSPost2010PropOp53
 70
     1
102
RTVSPost2010Prop54
  1
strokes_ogs.tif
102
RTVSPost2010PropOp54
 70
     1
102
RTVSPost2010Prop55
280
     0
102
RTVSPost2010PropOp55
 70
     1
102
RTVSPost2010Prop56
140
1.0
102
RTVSPost2010PropOp56
 70
     1
102
RTVSPost2010Prop57
140
1.0
102
RTVSPost2010PropOp57
 70
     1
  0
XRECORD
  5
193
102
{ACAD_REACTORS
330
192
102
}
330
192
100
AcDbXrecord
280
     1
102
RTVSPost2010Prop28
280
     0
102
RTVSPost2010PropOp28
 70
     1
102
RTVSPost2010Prop29
280
     1
102
RTVSPost2010PropOp29
 70
     1
102
RTVSPost2010Prop30
280
     1
102
RTVSPost2010PropOp30
 70
     1
102
RTVSPost2010Prop31
280
     0
102
RTVSPost2010PropOp31
 70
     1
102
RTVSPost2010Prop32
280
     0
102
RTVSPost2010PropOp32
 70
     1
102
RTVSPost2010Prop33
280
     0
102
RTVSPost2010PropOp33
 70
     1
102
RTVSPost2010Prop34
280
     0
102
RTVSPost2010PropOp34
 70
     1
102
RTVSPost2010Prop35
280
     0
102
RTVSPost2010PropOp35
 70
     1
102
RTVSPost2010Prop36
280
     0
102
RTVSPost2010PropOp36
 70
     1
102
RTVSPost2010Prop37
 90
       50
102
RTVSPost2010PropOp37
 70
     1
102
RTVSPost2010Prop38
140
0.0
102
RTVSPost2010PropOp38
 70
     1
102
RTVSPost2010Prop39
140
1.0
102
RTVSPost2010PropOp39
 70
     1
102
RTVSPost2010Prop40
 90
        0
102
RTVSPost2010PropOp40
 70
     1
102
RTVSPost2010Prop41ColorIndex
 90
       18
102
RTVSPost2010Prop41ColorRGB
 90
        0
102
RTVSPost2010PropOp41
 70
     1
102
RTVSPost2010Prop42
 90
       50
102
RTVSPost2010PropOp42
 70
     1
102
RTVSPost2010Prop43
 90
        3
102
RTVSPost2010PropOp43
 70
     1
102
RTVSPost2010Prop44ColorIndex
 90
        5
102
RTVSPost2010Prop44ColorRGB
 90
      255
102
RTVSPost2010PropOp44
 70
     1
102
RTVSPost2010Prop45
280
     0
102
RTVSPost2010PropOp45
 70
     1
102
RTVSPost2010Prop46
 90
       50
102
RTVSPost2010PropOp46
 70
     1
102
RTVSPost2010Prop47
 90
       50
102
RTVSPost2010PropOp47
 70
     1
102
RTVSPost2010Prop48
 90
       50
102
RTVSPost2010PropOp48
 70
     1
102
RTVSPost2010Prop49
280
     0
102
RTVSPost2010PropOp49
 70
     1
102
RTVSPost2010Prop50
 90
       50
102
RTVSPost2010PropOp50
 70
     1
102
RTVSPost2010Prop51ColorIndex
 90
      256
102
RTVSPost2010Prop51ColorRGB
 90
-16777216
102
RTVSPost2010PropOp51
 70
     0
102
RTVSPost2010Prop52
140
1.0
102
RTVSPost2010PropOp52
 70
     0
102
RTVSPost2010Prop53
 90
        2
102
RTVSPost2010PropOp53
 70
     1
102
RTVSPost2010Prop54
  1
strokes_ogs.tif
102
RTVSPost2010PropOp54
 70
     1
102
RTVSPost2010Prop55
280
     0
102
RTVSPost2010PropOp55
 70
     1
102
RTVSPost2010Prop56
140
1.0
102
RTVSPost2010PropOp56
 70
     1
102
RTVSPost2010Prop57
140
1.0
102
RTVSPost2010PropOp57
 70
     1
  0
XRECORD
  5
1A1
102
{ACAD_REACTORS
330
1A0
102
}
330
1A0
100
AcDbXrecord
280
     1
102
RTVSPost2010Prop28
280
     0
102
RTVSPost2010PropOp28
 70
     1
102
RTVSPost2010Prop29
280
     1
102
RTVSPost2010PropOp29
 70
     1
102
RTVSPost2010Prop30
280
     1
102
RTVSPost2010PropOp30
 70
     1
102
RTVSPost2010Prop31
280
     0
102
RTVSPost2010PropOp31
 70
     1
102
RTVSPost2010Prop32
280
     0
102
RTVSPost2010PropOp32
 70
     1
102
RTVSPost2010Prop33
280
     0
102
RTVSPost2010PropOp33
 70
     1
102
RTVSPost2010Prop34
280
     0
102
RTVSPost2010PropOp34
 70
     1
102
RTVSPost2010Prop35
280
     0
102
RTVSPost2010PropOp35
 70
     1
102
RTVSPost2010Prop36
280
     0
102
RTVSPost2010PropOp36
 70
     1
102
RTVSPost2010Prop37
 90
       50
102
RTVSPost2010PropOp37
 70
     1
102
RTVSPost2010Prop38
140
0.0
102
RTVSPost2010PropOp38
 70
     1
102
RTVSPost2010Prop39
140
1.0
102
RTVSPost2010PropOp39
 70
     1
102
RTVSPost2010Prop40
 90
        0
102
RTVSPost2010PropOp40
 70
     1
102
RTVSPost2010Prop41ColorIndex
 90
       18
102
RTVSPost2010Prop41ColorRGB
 90
        0
102
RTVSPost2010PropOp41
 70
     1
102
RTVSPost2010Prop42
 90
       50
102
RTVSPost2010PropOp42
 70
     1
102
RTVSPost2010Prop43
 90
        3
102
RTVSPost2010PropOp43
 70
     1
102
RTVSPost2010Prop44ColorIndex
 90
        5
102
RTVSPost2010Prop44ColorRGB
 90
      255
102
RTVSPost2010PropOp44
 70
     1
102
RTVSPost2010Prop45
280
     0
102
RTVSPost2010PropOp45
 70
     1
102
RTVSPost2010Prop46
 90
       50
102
RTVSPost2010PropOp46
 70
     1
102
RTVSPost2010Prop47
 90
       50
102
RTVSPost2010PropOp47
 70
     1
102
RTVSPost2010Prop48
 90
       50
102
RTVSPost2010PropOp48
 70
     1
102
RTVSPost2010Prop49
280
     0
102
RTVSPost2010PropOp49
 70
     1
102
RTVSPost2010Prop50
 90
       50
102
RTVSPost2010PropOp50
 70
     1
102
RTVSPost2010Prop51ColorIndex
 90
      256
102
RTVSPost2010Prop51ColorRGB
 90
-16777216
102
RTVSPost2010PropOp51
 70
     0
102
RTVSPost2010Prop52
140
1.0
102
RTVSPost2010PropOp52
 70
     0
102
RTVSPost2010Prop53
 90
        2
102
RTVSPost2010PropOp53
 70
     1
102
RTVSPost2010Prop54
  1
strokes_ogs.tif
102
RTVSPost2010PropOp54
 70
     1
102
RTVSPost2010Prop55
280
     0
102
RTVSPost2010PropOp55
 70
     1
102
RTVSPost2010Prop56
140
1.0
102
RTVSPost2010PropOp56
 70
     1
102
RTVSPost2010Prop57
140
1.0
102
RTVSPost2010PropOp57
 70
     1
  0
XRECORD
  5
1A9
102
{ACAD_REACTORS
330
1A8
102
}
330
1A8
100
AcDbXrecord
280
     1
102
RTVSPost2010Prop28
280
     0
102
RTVSPost2010PropOp28
 70
     1
102
RTVSPost2010Prop29
280
     1
102
RTVSPost2010PropOp29
 70
     1
102
RTVSPost2010Prop30
280
     1
102
RTVSPost2010PropOp30
 70
     1
102
RTVSPost2010Prop31
280
     0
102
RTVSPost2010PropOp31
 70
     1
102
RTVSPost2010Prop32
280
     0
102
RTVSPost2010PropOp32
 70
     1
102
RTVSPost2010Prop33
280
     0
102
RTVSPost2010PropOp33
 70
     1
102
RTVSPost2010Prop34
280
     0
102
RTVSPost2010PropOp34
 70
     1
102
RTVSPost2010Prop35
280
     0
102
RTVSPost2010PropOp35
 70
     1
102
RTVSPost2010Prop36
280
     0
102
RTVSPost2010PropOp36
 70
     1
102
RTVSPost2010Prop37
 90
       50
102
RTVSPost2010PropOp37
 70
     1
102
RTVSPost2010Prop38
140
0.0
102
RTVSPost2010PropOp38
 70
     1
102
RTVSPost2010Prop39
140
1.0
102
RTVSPost2010PropOp39
 70
     1
102
RTVSPost2010Prop40
 90
        0
102
RTVSPost2010PropOp40
 70
     1
102
RTVSPost2010Prop41ColorIndex
 90
       18
102
RTVSPost2010Prop41ColorRGB
 90
        0
102
RTVSPost2010PropOp41
 70
     1
102
RTVSPost2010Prop42
 90
       50
102
RTVSPost2010PropOp42
 70
     1
102
RTVSPost2010Prop43
 90
        3
102
RTVSPost2010PropOp43
 70
     1
102
RTVSPost2010Prop44ColorIndex
 90
        5
102
RTVSPost2010Prop44ColorRGB
 90
      255
102
RTVSPost2010PropOp44
 70
     1
102
RTVSPost2010Prop45
280
     0
102
RTVSPost2010PropOp45
 70
     1
102
RTVSPost2010Prop46
 90
       50
102
RTVSPost2010PropOp46
 70
     1
102
RTVSPost2010Prop47
 90
       50
102
RTVSPost2010PropOp47
 70
     1
102
RTVSPost2010Prop48
 90
       50
102
RTVSPost2010PropOp48
 70
     1
102
RTVSPost2010Prop49
280
     0
102
RTVSPost2010PropOp49
 70
     1
102
RTVSPost2010Prop50
 90
       50
102
RTVSPost2010PropOp50
 70
     1
102
RTVSPost2010Prop51ColorIndex
 90
      256
102
RTVSPost2010Prop51ColorRGB
 90
-16777216
102
RTVSPost2010PropOp51
 70
     0
102
RTVSPost2010Prop52
140
1.0
102
RTVSPost2010PropOp52
 70
     0
102
RTVSPost2010Prop53
 90
        2
102
RTVSPost2010PropOp53
 70
     1
102
RTVSPost2010Prop54
  1
strokes_ogs.tif
102
RTVSPost2010PropOp54
 70
     1
102
RTVSPost2010Prop55
280
     0
102
RTVSPost2010PropOp55
 70
     1
102
RTVSPost2010Prop56
140
1.0
102
RTVSPost2010PropOp56
 70
     1
102
RTVSPost2010Prop57
140
1.0
102
RTVSPost2010PropOp57
 70
     1
  0
XRECORD
  5
19B
102
{ACAD_REACTORS
330
19A
102
}
330
19A
100
AcDbXrecord
280
     1
102
RTVSPost2010Prop28
280
     0
102
RTVSPost2010PropOp28
 70
     1
102
RTVSPost2010Prop29
280
     1
102
RTVSPost2010PropOp29
 70
     1
102
RTVSPost2010Prop30
280
     1
102
RTVSPost2010PropOp30
 70
     1
102
RTVSPost2010Prop31
280
     0
102
RTVSPost2010PropOp31
 70
     1
102
RTVSPost2010Prop32
280
     0
102
RTVSPost2010PropOp32
 70
     1
102
RTVSPost2010Prop33
280
     0
102
RTVSPost2010PropOp33
 70
     1
102
RTVSPost2010Prop34
280
     0
102
RTVSPost2010PropOp34
 70
     1
102
RTVSPost2010Prop35
280
     0
102
RTVSPost2010PropOp35
 70
     1
102
RTVSPost2010Prop36
280
     0
102
RTVSPost2010PropOp36
 70
     1
102
RTVSPost2010Prop37
 90
       50
102
RTVSPost2010PropOp37
 70
     1
102
RTVSPost2010Prop38
140
0.0
102
RTVSPost2010PropOp38
 70
     1
102
RTVSPost2010Prop39
140
1.0
102
RTVSPost2010PropOp39
 70
     1
102
RTVSPost2010Prop40
 90
        0
102
RTVSPost2010PropOp40
 70
     1
102
RTVSPost2010Prop41ColorIndex
 90
       18
102
RTVSPost2010Prop41ColorRGB
 90
        0
102
RTVSPost2010PropOp41
 70
     1
102
RTVSPost2010Prop42
 90
       50
102
RTVSPost2010PropOp42
 70
     1
102
RTVSPost2010Prop43
 90
        3
102
RTVSPost2010PropOp43
 70
     1
102
RTVSPost2010Prop44ColorIndex
 90
        5
102
RTVSPost2010Prop44ColorRGB
 90
      255
102
RTVSPost2010PropOp44
 70
     1
102
RTVSPost2010Prop45
280
     0
102
RTVSPost2010PropOp45
 70
     1
102
RTVSPost2010Prop46
 90
       50
102
RTVSPost2010PropOp46
 70
     1
102
RTVSPost2010Prop47
 90
       50
102
RTVSPost2010PropOp47
 70
     1
102
RTVSPost2010Prop48
 90
       50
102
RTVSPost2010PropOp48
 70
     1
102
RTVSPost2010Prop49
280
     0
102
RTVSPost2010PropOp49
 70
     1
102
RTVSPost2010Prop50
 90
       50
102
RTVSPost2010PropOp50
 70
     1
102
RTVSPost2010Prop51ColorIndex
 90
      256
102
RTVSPost2010Prop51ColorRGB
 90
-16777216
102
RTVSPost2010PropOp51
 70
     0
102
RTVSPost2010Prop52
140
1.0
102
RTVSPost2010PropOp52
 70
     0
102
RTVSPost2010Prop53
 90
        2
102
RTVSPost2010PropOp53
 70
     1
102
RTVSPost2010Prop54
  1
strokes_ogs.tif
102
RTVSPost2010PropOp54
 70
     1
102
RTVSPost2010Prop55
280
     0
102
RTVSPost2010PropOp55
 70
     1
102
RTVSPost2010Prop56
140
1.0
102
RTVSPost2010PropOp56
 70
     1
102
RTVSPost2010Prop57
140
1.0
102
RTVSPost2010PropOp57
 70
     1
  0
XRECORD
  5
19F
102
{ACAD_REACTORS
330
19E
102
}
330
19E
100
AcDbXrecord
280
     1
102
RTVSPost2010Prop28
280
     0
102
RTVSPost2010PropOp28
 70
     1
102
RTVSPost2010Prop29
280
     1
102
RTVSPost2010PropOp29
 70
     1
102
RTVSPost2010Prop30
280
     1
102
RTVSPost2010PropOp30
 70
     1
102
RTVSPost2010Prop31
280
     0
102
RTVSPost2010PropOp31
 70
     1
102
RTVSPost2010Prop32
280
     0
102
RTVSPost2010PropOp32
 70
     1
102
RTVSPost2010Prop33
280
     0
102
RTVSPost2010PropOp33
 70
     1
102
RTVSPost2010Prop34
280
     0
102
RTVSPost2010PropOp34
 70
     1
102
RTVSPost2010Prop35
280
     0
102
RTVSPost2010PropOp35
 70
     1
102
RTVSPost2010Prop36
280
     0
102
RTVSPost2010PropOp36
 70
     1
102
RTVSPost2010Prop37
 90
       50
102
RTVSPost2010PropOp37
 70
     1
102
RTVSPost2010Prop38
140
0.0
102
RTVSPost2010PropOp38
 70
     1
102
RTVSPost2010Prop39
140
1.0
102
RTVSPost2010PropOp39
 70
     1
102
RTVSPost2010Prop40
 90
        0
102
RTVSPost2010PropOp40
 70
     1
102
RTVSPost2010Prop41ColorIndex
 90
       18
102
RTVSPost2010Prop41ColorRGB
 90
        0
102
RTVSPost2010PropOp41
 70
     1
102
RTVSPost2010Prop42
 90
       50
102
RTVSPost2010PropOp42
 70
     1
102
RTVSPost2010Prop43
 90
        3
102
RTVSPost2010PropOp43
 70
     1
102
RTVSPost2010Prop44ColorIndex
 90
        5
102
RTVSPost2010Prop44ColorRGB
 90
      255
102
RTVSPost2010PropOp44
 70
     1
102
RTVSPost2010Prop45
280
     0
102
RTVSPost2010PropOp45
 70
     1
102
RTVSPost2010Prop46
 90
       50
102
RTVSPost2010PropOp46
 70
     1
102
RTVSPost2010Prop47
 90
       50
102
RTVSPost2010PropOp47
 70
     1
102
RTVSPost2010Prop48
 90
       50
102
RTVSPost2010PropOp48
 70
     1
102
RTVSPost2010Prop49
280
     0
102
RTVSPost2010PropOp49
 70
     1
102
RTVSPost2010Prop50
 90
       50
102
RTVSPost2010PropOp50
 70
     1
102
RTVSPost2010Prop51ColorIndex
 90
      256
102
RTVSPost2010Prop51ColorRGB
 90
-16777216
102
RTVSPost2010PropOp51
 70
     0
102
RTVSPost2010Prop52
140
1.0
102
RTVSPost2010PropOp52
 70
     0
102
RTVSPost2010Prop53
 90
        2
102
RTVSPost2010PropOp53
 70
     1
102
RTVSPost2010Prop54
  1
strokes_ogs.tif
102
RTVSPost2010PropOp54
 70
     1
102
RTVSPost2010Prop55
280
     0
102
RTVSPost2010PropOp55
 70
     1
102
RTVSPost2010Prop56
140
1.0
102
RTVSPost2010PropOp56
 70
     1
102
RTVSPost2010Prop57
140
1.0
102
RTVSPost2010PropOp57
 70
     1
  0
XRECORD
  5
1B9
102
{ACAD_REACTORS
330
1B8
102
}
330
1B8
100
AcDbXrecord
280
     1
102
RTVSPost2010Prop28
280
     0
102
RTVSPost2010PropOp28
 70
     0
102
RTVSPost2010Prop29
280
     1
102
RTVSPost2010PropOp29
 70
     0
102
RTVSPost2010Prop30
280
     1
102
RTVSPost2010PropOp30
 70
     0
102
RTVSPost2010Prop31
280
     0
102
RTVSPost2010PropOp31
 70
     0
102
RTVSPost2010Prop32
280
     0
102
RTVSPost2010PropOp32
 70
     0
102
RTVSPost2010Prop33
280
     0
102
RTVSPost2010PropOp33
 70
     0
102
RTVSPost2010Prop34
280
     0
102
RTVSPost2010PropOp34
 70
     0
102
RTVSPost2010Prop35
280
     0
102
RTVSPost2010PropOp35
 70
     0
102
RTVSPost2010Prop36
280
     0
102
RTVSPost2010PropOp36
 70
     0
102
RTVSPost2010Prop37
 90
       50
102
RTVSPost2010PropOp37
 70
     0
102
RTVSPost2010Prop38
140
0.0
102
RTVSPost2010PropOp38
 70
     0
102
RTVSPost2010Prop39
140
1.0
102
RTVSPost2010PropOp39
 70
     0
102
RTVSPost2010Prop40
 90
        0
102
RTVSPost2010PropOp40
 70
     0
102
RTVSPost2010Prop41ColorIndex
 90
       18
102
RTVSPost2010Prop41ColorRGB
 90
        0
102
RTVSPost2010PropOp41
 70
     0
102
RTVSPost2010Prop42
 90
       50
102
RTVSPost2010PropOp42
 70
     0
102
RTVSPost2010Prop43
 90
        3
102
RTVSPost2010PropOp43
 70
     0
102
RTVSPost2010Prop44ColorIndex
 90
        5
102
RTVSPost2010Prop44ColorRGB
 90
      255
102
RTVSPost2010PropOp44
 70
     0
102
RTVSPost2010Prop45
280
     0
102
RTVSPost2010PropOp45
 70
     0
102
RTVSPost2010Prop46
 90
       50
102
RTVSPost2010PropOp46
 70
     0
102
RTVSPost2010Prop47
 90
       50
102
RTVSPost2010PropOp47
 70
     0
102
RTVSPost2010Prop48
 90
       50
102
RTVSPost2010PropOp48
 70
     0
102
RTVSPost2010Prop49
280
     0
102
RTVSPost2010PropOp49
 70
     0
102
RTVSPost2010Prop50
 90
       50
102
RTVSPost2010PropOp50
 70
     0
102
RTVSPost2010Prop51ColorIndex
 90
      256
102
RTVSPost2010Prop51ColorRGB
 90
-16777216
102
RTVSPost2010PropOp51
 70
     0
102
RTVSPost2010Prop52
140
1.0
102
RTVSPost2010PropOp52
 70
     0
102
RTVSPost2010Prop53
 90
        2
102
RTVSPost2010PropOp53
 70
     0
102
RTVSPost2010Prop54
  1
strokes_ogs.tif
102
RTVSPost2010PropOp54
 70
     0
102
RTVSPost2010Prop55
280
     0
102
RTVSPost2010PropOp55
 70
     0
102
RTVSPost2010Prop56
140
1.0
102
RTVSPost2010PropOp56
 70
     0
102
RTVSPost2010Prop57
140
1.0
102
RTVSPost2010PropOp57
 70
     0
  0
XRECORD
  5
1A7
102
{ACAD_REACTORS
330
1A6
102
}
330
1A6
100
AcDbXrecord
280
     1
102
RTVSPost2010Prop28
280
     0
102
RTVSPost2010PropOp28
 70
     1
102
RTVSPost2010Prop29
280
     1
102
RTVSPost2010PropOp29
 70
     1
102
RTVSPost2010Prop30
280
     1
102
RTVSPost2010PropOp30
 70
     1
102
RTVSPost2010Prop31
280
     0
102
RTVSPost2010PropOp31
 70
     1
102
RTVSPost2010Prop32
280
     0
102
RTVSPost2010PropOp32
 70
     1
102
RTVSPost2010Prop33
280
     0
102
RTVSPost2010PropOp33
 70
     1
102
RTVSPost2010Prop34
280
     0
102
RTVSPost2010PropOp34
 70
     1
102
RTVSPost2010Prop35
280
     0
102
RTVSPost2010PropOp35
 70
     1
102
RTVSPost2010Prop36
280
     0
102
RTVSPost2010PropOp36
 70
     1
102
RTVSPost2010Prop37
 90
       50
102
RTVSPost2010PropOp37
 70
     1
102
RTVSPost2010Prop38
140
0.0
102
RTVSPost2010PropOp38
 70
     1
102
RTVSPost2010Prop39
140
1.0
102
RTVSPost2010PropOp39
 70
     1
102
RTVSPost2010Prop40
 90
        0
102
RTVSPost2010PropOp40
 70
     1
102
RTVSPost2010Prop41ColorIndex
 90
       18
102
RTVSPost2010Prop41ColorRGB
 90
        0
102
RTVSPost2010PropOp41
 70
     1
102
RTVSPost2010Prop42
 90
       50
102
RTVSPost2010PropOp42
 70
     1
102
RTVSPost2010Prop43
 90
        3
102
RTVSPost2010PropOp43
 70
     1
102
RTVSPost2010Prop44ColorIndex
 90
        5
102
RTVSPost2010Prop44ColorRGB
 90
      255
102
RTVSPost2010PropOp44
 70
     1
102
RTVSPost2010Prop45
280
     0
102
RTVSPost2010PropOp45
 70
     1
102
RTVSPost2010Prop46
 90
       50
102
RTVSPost2010PropOp46
 70
     1
102
RTVSPost2010Prop47
 90
       50
102
RTVSPost2010PropOp47
 70
     1
102
RTVSPost2010Prop48
 90
       50
102
RTVSPost2010PropOp48
 70
     1
102
RTVSPost2010Prop49
280
     0
102
RTVSPost2010PropOp49
 70
     1
102
RTVSPost2010Prop50
 90
       50
102
RTVSPost2010PropOp50
 70
     1
102
RTVSPost2010Prop51ColorIndex
 90
      256
102
RTVSPost2010Prop51ColorRGB
 90
-16777216
102
RTVSPost2010PropOp51
 70
     0
102
RTVSPost2010Prop52
140
1.0
102
RTVSPost2010PropOp52
 70
     0
102
RTVSPost2010Prop53
 90
        2
102
RTVSPost2010PropOp53
 70
     1
102
RTVSPost2010Prop54
  1
strokes_ogs.tif
102
RTVSPost2010PropOp54
 70
     1
102
RTVSPost2010Prop55
280
     0
102
RTVSPost2010PropOp55
 70
     1
102
RTVSPost2010Prop56
140
1.0
102
RTVSPost2010PropOp56
 70
     1
102
RTVSPost2010Prop57
140
1.0
102
RTVSPost2010PropOp57
 70
     1
  0
XRECORD
  5
18B
102
{ACAD_REACTORS
330
18A
102
}
330
18A
100
AcDbXrecord
280
     1
102
RTVSPost2010Prop28
280
     0
102
RTVSPost2010PropOp28
 70
     1
102
RTVSPost2010Prop29
280
     1
102
RTVSPost2010PropOp29
 70
     1
102
RTVSPost2010Prop30
280
     1
102
RTVSPost2010PropOp30
 70
     1
102
RTVSPost2010Prop31
280
     0
102
RTVSPost2010PropOp31
 70
     1
102
RTVSPost2010Prop32
280
     0
102
RTVSPost2010PropOp32
 70
     1
102
RTVSPost2010Prop33
280
     0
102
RTVSPost2010PropOp33
 70
     1
102
RTVSPost2010Prop34
280
     0
102
RTVSPost2010PropOp34
 70
     1
102
RTVSPost2010Prop35
280
     0
102
RTVSPost2010PropOp35
 70
     1
102
RTVSPost2010Prop36
280
     0
102
RTVSPost2010PropOp36
 70
     1
102
RTVSPost2010Prop37
 90
       50
102
RTVSPost2010PropOp37
 70
     1
102
RTVSPost2010Prop38
140
0.0
102
RTVSPost2010PropOp38
 70
     1
102
RTVSPost2010Prop39
140
1.0
102
RTVSPost2010PropOp39
 70
     1
102
RTVSPost2010Prop40
 90
        0
102
RTVSPost2010PropOp40
 70
     1
102
RTVSPost2010Prop41ColorIndex
 90
       18
102
RTVSPost2010Prop41ColorRGB
 90
        0
102
RTVSPost2010PropOp41
 70
     1
102
RTVSPost2010Prop42
 90
       50
102
RTVSPost2010PropOp42
 70
     1
102
RTVSPost2010Prop43
 90
        3
102
RTVSPost2010PropOp43
 70
     1
102
RTVSPost2010Prop44ColorIndex
 90
        5
102
RTVSPost2010Prop44ColorRGB
 90
      255
102
RTVSPost2010PropOp44
 70
     1
102
RTVSPost2010Prop45
280
     0
102
RTVSPost2010PropOp45
 70
     1
102
RTVSPost2010Prop46
 90
       50
102
RTVSPost2010PropOp46
 70
     1
102
RTVSPost2010Prop47
 90
       50
102
RTVSPost2010PropOp47
 70
     1
102
RTVSPost2010Prop48
 90
       50
102
RTVSPost2010PropOp48
 70
     1
102
RTVSPost2010Prop49
280
     0
102
RTVSPost2010PropOp49
 70
     1
102
RTVSPost2010Prop50
 90
       50
102
RTVSPost2010PropOp50
 70
     1
102
RTVSPost2010Prop51ColorIndex
 90
      256
102
RTVSPost2010Prop51ColorRGB
 90
-16777216
102
RTVSPost2010PropOp51
 70
     0
102
RTVSPost2010Prop52
140
1.0
102
RTVSPost2010PropOp52
 70
     0
102
RTVSPost2010Prop53
 90
        2
102
RTVSPost2010PropOp53
 70
     1
102
RTVSPost2010Prop54
  1
strokes_ogs.tif
102
RTVSPost2010PropOp54
 70
     1
102
RTVSPost2010Prop55
280
     0
102
RTVSPost2010PropOp55
 70
     1
102
RTVSPost2010Prop56
140
1.0
102
RTVSPost2010PropOp56
 70
     1
102
RTVSPost2010Prop57
140
1.0
102
RTVSPost2010PropOp57
 70
     1
  0
XRECORD
  5
18D
102
{ACAD_REACTORS
330
18C
102
}
330
18C
100
AcDbXrecord
280
     1
102
RTVSPost2010Prop28
280
     0
102
RTVSPost2010PropOp28
 70
     1
102
RTVSPost2010Prop29
280
     1
102
RTVSPost2010PropOp29
 70
     1
102
RTVSPost2010Prop30
280
     1
102
RTVSPost2010PropOp30
 70
     1
102
RTVSPost2010Prop31
280
     0
102
RTVSPost2010PropOp31
 70
     1
102
RTVSPost2010Prop32
280
     0
102
RTVSPost2010PropOp32
 70
     1
102
RTVSPost2010Prop33
280
     0
102
RTVSPost2010PropOp33
 70
     1
102
RTVSPost2010Prop34
280
     0
102
RTVSPost2010PropOp34
 70
     1
102
RTVSPost2010Prop35
280
     0
102
RTVSPost2010PropOp35
 70
     1
102
RTVSPost2010Prop36
280
     0
102
RTVSPost2010PropOp36
 70
     1
102
RTVSPost2010Prop37
 90
       50
102
RTVSPost2010PropOp37
 70
     1
102
RTVSPost2010Prop38
140
0.0
102
RTVSPost2010PropOp38
 70
     1
102
RTVSPost2010Prop39
140
1.0
102
RTVSPost2010PropOp39
 70
     1
102
RTVSPost2010Prop40
 90
        0
102
RTVSPost2010PropOp40
 70
     1
102
RTVSPost2010Prop41ColorIndex
 90
       18
102
RTVSPost2010Prop41ColorRGB
 90
        0
102
RTVSPost2010PropOp41
 70
     1
102
RTVSPost2010Prop42
 90
       50
102
RTVSPost2010PropOp42
 70
     1
102
RTVSPost2010Prop43
 90
        3
102
RTVSPost2010PropOp43
 70
     1
102
RTVSPost2010Prop44ColorIndex
 90
        5
102
RTVSPost2010Prop44ColorRGB
 90
      255
102
RTVSPost2010PropOp44
 70
     1
102
RTVSPost2010Prop45
280
     0
102
RTVSPost2010PropOp45
 70
     1
102
RTVSPost2010Prop46
 90
       50
102
RTVSPost2010PropOp46
 70
     1
102
RTVSPost2010Prop47
 90
       50
102
RTVSPost2010PropOp47
 70
     1
102
RTVSPost2010Prop48
 90
       50
102
RTVSPost2010PropOp48
 70
     1
102
RTVSPost2010Prop49
280
     0
102
RTVSPost2010PropOp49
 70
     1
102
RTVSPost2010Prop50
 90
       50
102
RTVSPost2010PropOp50
 70
     1
102
RTVSPost2010Prop51ColorIndex
 90
      256
102
RTVSPost2010Prop51ColorRGB
 90
-16777216
102
RTVSPost2010PropOp51
 70
     0
102
RTVSPost2010Prop52
140
1.0
102
RTVSPost2010PropOp52
 70
     0
102
RTVSPost2010Prop53
 90
        2
102
RTVSPost2010PropOp53
 70
     1
102
RTVSPost2010Prop54
  1
strokes_ogs.tif
102
RTVSPost2010PropOp54
 70
     1
102
RTVSPost2010Prop55
280
     0
102
RTVSPost2010PropOp55
 70
     1
102
RTVSPost2010Prop56
140
1.0
102
RTVSPost2010PropOp56
 70
     1
102
RTVSPost2010Prop57
140
1.0
102
RTVSPost2010PropOp57
 70
     1
  0
XRECORD
  5
18F
102
{ACAD_REACTORS
330
18E
102
}
330
18E
100
AcDbXrecord
280
     1
102
RTVSPost2010Prop28
280
     0
102
RTVSPost2010PropOp28
 70
     1
102
RTVSPost2010Prop29
280
     1
102
RTVSPost2010PropOp29
 70
     1
102
RTVSPost2010Prop30
280
     1
102
RTVSPost2010PropOp30
 70
     1
102
RTVSPost2010Prop31
280
     0
102
RTVSPost2010PropOp31
 70
     1
102
RTVSPost2010Prop32
280
     0
102
RTVSPost2010PropOp32
 70
     1
102
RTVSPost2010Prop33
280
     0
102
RTVSPost2010PropOp33
 70
     1
102
RTVSPost2010Prop34
280
     0
102
RTVSPost2010PropOp34
 70
     1
102
RTVSPost2010Prop35
280
     0
102
RTVSPost2010PropOp35
 70
     1
102
RTVSPost2010Prop36
280
     0
102
RTVSPost2010PropOp36
 70
     1
102
RTVSPost2010Prop37
 90
       50
102
RTVSPost2010PropOp37
 70
     1
102
RTVSPost2010Prop38
140
0.0
102
RTVSPost2010PropOp38
 70
     1
102
RTVSPost2010Prop39
140
1.0
102
RTVSPost2010PropOp39
 70
     1
102
RTVSPost2010Prop40
 90
        0
102
RTVSPost2010PropOp40
 70
     1
102
RTVSPost2010Prop41ColorIndex
 90
       18
102
RTVSPost2010Prop41ColorRGB
 90
        0
102
RTVSPost2010PropOp41
 70
     1
102
RTVSPost2010Prop42
 90
       50
102
RTVSPost2010PropOp42
 70
     1
102
RTVSPost2010Prop43
 90
        3
102
RTVSPost2010PropOp43
 70
     1
102
RTVSPost2010Prop44ColorIndex
 90
        5
102
RTVSPost2010Prop44ColorRGB
 90
      255
102
RTVSPost2010PropOp44
 70
     1
102
RTVSPost2010Prop45
280
     0
102
RTVSPost2010PropOp45
 70
     1
102
RTVSPost2010Prop46
 90
       50
102
RTVSPost2010PropOp46
 70
     1
102
RTVSPost2010Prop47
 90
       50
102
RTVSPost2010PropOp47
 70
     1
102
RTVSPost2010Prop48
 90
       50
102
RTVSPost2010PropOp48
 70
     1
102
RTVSPost2010Prop49
280
     0
102
RTVSPost2010PropOp49
 70
     1
102
RTVSPost2010Prop50
 90
       50
102
RTVSPost2010PropOp50
 70
     1
102
RTVSPost2010Prop51ColorIndex
 90
      256
102
RTVSPost2010Prop51ColorRGB
 90
-16777216
102
RTVSPost2010PropOp51
 70
     0
102
RTVSPost2010Prop52
140
1.0
102
RTVSPost2010PropOp52
 70
     0
102
RTVSPost2010Prop53
 90
        2
102
RTVSPost2010PropOp53
 70
     1
102
RTVSPost2010Prop54
  1
strokes_ogs.tif
102
RTVSPost2010PropOp54
 70
     1
102
RTVSPost2010Prop55
280
     0
102
RTVSPost2010PropOp55
 70
     1
102
RTVSPost2010Prop56
140
1.0
102
RTVSPost2010PropOp56
 70
     1
102
RTVSPost2010Prop57
140
1.0
102
RTVSPost2010PropOp57
 70
     1
  0
XRECORD
  5
191
102
{ACAD_REACTORS
330
190
102
}
330
190
100
AcDbXrecord
280
     1
102
RTVSPost2010Prop28
280
     0
102
RTVSPost2010PropOp28
 70
     1
102
RTVSPost2010Prop29
280
     1
102
RTVSPost2010PropOp29
 70
     1
102
RTVSPost2010Prop30
280
     1
102
RTVSPost2010PropOp30
 70
     1
102
RTVSPost2010Prop31
280
     0
102
RTVSPost2010PropOp31
 70
     1
102
RTVSPost2010Prop32
280
     0
102
RTVSPost2010PropOp32
 70
     1
102
RTVSPost2010Prop33
280
     0
102
RTVSPost2010PropOp33
 70
     1
102
RTVSPost2010Prop34
280
     0
102
RTVSPost2010PropOp34
 70
     1
102
RTVSPost2010Prop35
280
     0
102
RTVSPost2010PropOp35
 70
     1
102
RTVSPost2010Prop36
280
     0
102
RTVSPost2010PropOp36
 70
     1
102
RTVSPost2010Prop37
 90
       50
102
RTVSPost2010PropOp37
 70
     1
102
RTVSPost2010Prop38
140
0.0
102
RTVSPost2010PropOp38
 70
     1
102
RTVSPost2010Prop39
140
1.0
102
RTVSPost2010PropOp39
 70
     1
102
RTVSPost2010Prop40
 90
        0
102
RTVSPost2010PropOp40
 70
     1
102
RTVSPost2010Prop41ColorIndex
 90
       18
102
RTVSPost2010Prop41ColorRGB
 90
        0
102
RTVSPost2010PropOp41
 70
     1
102
RTVSPost2010Prop42
 90
       50
102
RTVSPost2010PropOp42
 70
     1
102
RTVSPost2010Prop43
 90
        3
102
RTVSPost2010PropOp43
 70
     1
102
RTVSPost2010Prop44ColorIndex
 90
        5
102
RTVSPost2010Prop44ColorRGB
 90
      255
102
RTVSPost2010PropOp44
 70
     1
102
RTVSPost2010Prop45
280
     0
102
RTVSPost2010PropOp45
 70
     1
102
RTVSPost2010Prop46
 90
       50
102
RTVSPost2010PropOp46
 70
     1
102
RTVSPost2010Prop47
 90
       50
102
RTVSPost2010PropOp47
 70
     1
102
RTVSPost2010Prop48
 90
       50
102
RTVSPost2010PropOp48
 70
     1
102
RTVSPost2010Prop49
280
     0
102
RTVSPost2010PropOp49
 70
     1
102
RTVSPost2010Prop50
 90
       50
102
RTVSPost2010PropOp50
 70
     1
102
RTVSPost2010Prop51ColorIndex
 90
      256
102
RTVSPost2010Prop51ColorRGB
 90
-16777216
102
RTVSPost2010PropOp51
 70
     0
102
RTVSPost2010Prop52
140
1.0
102
RTVSPost2010PropOp52
 70
     0
102
RTVSPost2010Prop53
 90
        2
102
RTVSPost2010PropOp53
 70
     1
102
RTVSPost2010Prop54
  1
strokes_ogs.tif
102
RTVSPost2010PropOp54
 70
     1
102
RTVSPost2010Prop55
280
     0
102
RTVSPost2010PropOp55
 70
     1
102
RTVSPost2010Prop56
140
1.0
102
RTVSPost2010PropOp56
 70
     1
102
RTVSPost2010Prop57
140
1.0
102
RTVSPost2010PropOp57
 70
     1
  0
XRECORD
  5
199
102
{ACAD_REACTORS
330
198
102
}
330
198
100
AcDbXrecord
280
     1
102
RTVSPost2010Prop28
280
     0
102
RTVSPost2010PropOp28
 70
     1
102
RTVSPost2010Prop29
280
     1
102
RTVSPost2010PropOp29
 70
     1
102
RTVSPost2010Prop30
280
     1
102
RTVSPost2010PropOp30
 70
     1
102
RTVSPost2010Prop31
280
     0
102
RTVSPost2010PropOp31
 70
     1
102
RTVSPost2010Prop32
280
     0
102
RTVSPost2010PropOp32
 70
     1
102
RTVSPost2010Prop33
280
     0
102
RTVSPost2010PropOp33
 70
     1
102
RTVSPost2010Prop34
280
     0
102
RTVSPost2010PropOp34
 70
     1
102
RTVSPost2010Prop35
280
     0
102
RTVSPost2010PropOp35
 70
     1
102
RTVSPost2010Prop36
280
     0
102
RTVSPost2010PropOp36
 70
     1
102
RTVSPost2010Prop37
 90
       50
102
RTVSPost2010PropOp37
 70
     1
102
RTVSPost2010Prop38
140
0.0
102
RTVSPost2010PropOp38
 70
     1
102
RTVSPost2010Prop39
140
1.0
102
RTVSPost2010PropOp39
 70
     1
102
RTVSPost2010Prop40
 90
        0
102
RTVSPost2010PropOp40
 70
     1
102
RTVSPost2010Prop41ColorIndex
 90
       18
102
RTVSPost2010Prop41ColorRGB
 90
        0
102
RTVSPost2010PropOp41
 70
     1
102
RTVSPost2010Prop42
 90
       50
102
RTVSPost2010PropOp42
 70
     1
102
RTVSPost2010Prop43
 90
        3
102
RTVSPost2010PropOp43
 70
     1
102
RTVSPost2010Prop44ColorIndex
 90
        5
102
RTVSPost2010Prop44ColorRGB
 90
      255
102
RTVSPost2010PropOp44
 70
     1
102
RTVSPost2010Prop45
280
     0
102
RTVSPost2010PropOp45
 70
     1
102
RTVSPost2010Prop46
 90
       50
102
RTVSPost2010PropOp46
 70
     1
102
RTVSPost2010Prop47
 90
       50
102
RTVSPost2010PropOp47
 70
     1
102
RTVSPost2010Prop48
 90
       50
102
RTVSPost2010PropOp48
 70
     1
102
RTVSPost2010Prop49
280
     0
102
RTVSPost2010PropOp49
 70
     1
102
RTVSPost2010Prop50
 90
       50
102
RTVSPost2010PropOp50
 70
     1
102
RTVSPost2010Prop51ColorIndex
 90
      256
102
RTVSPost2010Prop51ColorRGB
 90
-16777216
102
RTVSPost2010PropOp51
 70
     0
102
RTVSPost2010Prop52
140
1.0
102
RTVSPost2010PropOp52
 70
     0
102
RTVSPost2010Prop53
 90
        2
102
RTVSPost2010PropOp53
 70
     1
102
RTVSPost2010Prop54
  1
strokes_ogs.tif
102
RTVSPost2010PropOp54
 70
     1
102
RTVSPost2010Prop55
280
     0
102
RTVSPost2010PropOp55
 70
     1
102
RTVSPost2010Prop56
140
1.0
102
RTVSPost2010PropOp56
 70
     1
102
RTVSPost2010Prop57
140
1.0
102
RTVSPost2010PropOp57
 70
     1
  0
XRECORD
  5
1B5
102
{ACAD_REACTORS
330
1B4
102
}
330
1B4
100
AcDbXrecord
280
     1
102
RTVSPost2010Prop28
280
     0
102
RTVSPost2010PropOp28
 70
     0
102
RTVSPost2010Prop29
280
     1
102
RTVSPost2010PropOp29
 70
     0
102
RTVSPost2010Prop30
280
     1
102
RTVSPost2010PropOp30
 70
     0
102
RTVSPost2010Prop31
280
     0
102
RTVSPost2010PropOp31
 70
     0
102
RTVSPost2010Prop32
280
     0
102
RTVSPost2010PropOp32
 70
     0
102
RTVSPost2010Prop33
280
     0
102
RTVSPost2010PropOp33
 70
     0
102
RTVSPost2010Prop34
280
     0
102
RTVSPost2010PropOp34
 70
     0
102
RTVSPost2010Prop35
280
     0
102
RTVSPost2010PropOp35
 70
     0
102
RTVSPost2010Prop36
280
     0
102
RTVSPost2010PropOp36
 70
     0
102
RTVSPost2010Prop37
 90
       50
102
RTVSPost2010PropOp37
 70
     0
102
RTVSPost2010Prop38
140
0.0
102
RTVSPost2010PropOp38
 70
     0
102
RTVSPost2010Prop39
140
1.0
102
RTVSPost2010PropOp39
 70
     0
102
RTVSPost2010Prop40
 90
        0
102
RTVSPost2010PropOp40
 70
     0
102
RTVSPost2010Prop41ColorIndex
 90
       18
102
RTVSPost2010Prop41ColorRGB
 90
        0
102
RTVSPost2010PropOp41
 70
     0
102
RTVSPost2010Prop42
 90
       50
102
RTVSPost2010PropOp42
 70
     0
102
RTVSPost2010Prop43
 90
        3
102
RTVSPost2010PropOp43
 70
     0
102
RTVSPost2010Prop44ColorIndex
 90
        5
102
RTVSPost2010Prop44ColorRGB
 90
      255
102
RTVSPost2010PropOp44
 70
     0
102
RTVSPost2010Prop45
280
     0
102
RTVSPost2010PropOp45
 70
     0
102
RTVSPost2010Prop46
 90
       50
102
RTVSPost2010PropOp46
 70
     0
102
RTVSPost2010Prop47
 90
       50
102
RTVSPost2010PropOp47
 70
     0
102
RTVSPost2010Prop48
 90
       50
102
RTVSPost2010PropOp48
 70
     0
102
RTVSPost2010Prop49
280
     0
102
RTVSPost2010PropOp49
 70
     0
102
RTVSPost2010Prop50
 90
       50
102
RTVSPost2010PropOp50
 70
     0
102
RTVSPost2010Prop51ColorIndex
 90
      256
102
RTVSPost2010Prop51ColorRGB
 90
-16777216
102
RTVSPost2010PropOp51
 70
     0
102
RTVSPost2010Prop52
140
1.0
102
RTVSPost2010PropOp52
 70
     0
102
RTVSPost2010Prop53
 90
        2
102
RTVSPost2010PropOp53
 70
     0
102
RTVSPost2010Prop54
  1
strokes_ogs.tif
102
RTVSPost2010PropOp54
 70
     0
102
RTVSPost2010Prop55
280
     0
102
RTVSPost2010PropOp55
 70
     0
102
RTVSPost2010Prop56
140
1.0
102
RTVSPost2010PropOp56
 70
     0
102
RTVSPost2010Prop57
140
1.0
102
RTVSPost2010PropOp57
 70
     0
  0
XRECORD
  5
1A5
102
{ACAD_REACTORS
330
1A4
102
}
330
1A4
100
AcDbXrecord
280
     1
102
RTVSPost2010Prop28
280
     0
102
RTVSPost2010PropOp28
 70
     1
102
RTVSPost2010Prop29
280
     1
102
RTVSPost2010PropOp29
 70
     1
102
RTVSPost2010Prop30
280
     1
102
RTVSPost2010PropOp30
 70
     1
102
RTVSPost2010Prop31
280
     0
102
RTVSPost2010PropOp31
 70
     1
102
RTVSPost2010Prop32
280
     0
102
RTVSPost2010PropOp32
 70
     1
102
RTVSPost2010Prop33
280
     0
102
RTVSPost2010PropOp33
 70
     1
102
RTVSPost2010Prop34
280
     0
102
RTVSPost2010PropOp34
 70
     1
102
RTVSPost2010Prop35
280
     0
102
RTVSPost2010PropOp35
 70
     1
102
RTVSPost2010Prop36
280
     0
102
RTVSPost2010PropOp36
 70
     1
102
RTVSPost2010Prop37
 90
       50
102
RTVSPost2010PropOp37
 70
     1
102
RTVSPost2010Prop38
140
0.0
102
RTVSPost2010PropOp38
 70
     1
102
RTVSPost2010Prop39
140
1.0
102
RTVSPost2010PropOp39
 70
     1
102
RTVSPost2010Prop40
 90
        0
102
RTVSPost2010PropOp40
 70
     1
102
RTVSPost2010Prop41ColorIndex
 90
       18
102
RTVSPost2010Prop41ColorRGB
 90
        0
102
RTVSPost2010PropOp41
 70
     1
102
RTVSPost2010Prop42
 90
       50
102
RTVSPost2010PropOp42
 70
     1
102
RTVSPost2010Prop43
 90
        3
102
RTVSPost2010PropOp43
 70
     1
102
RTVSPost2010Prop44ColorIndex
 90
        5
102
RTVSPost2010Prop44ColorRGB
 90
      255
102
RTVSPost2010PropOp44
 70
     1
102
RTVSPost2010Prop45
280
     0
102
RTVSPost2010PropOp45
 70
     1
102
RTVSPost2010Prop46
 90
       50
102
RTVSPost2010PropOp46
 70
     1
102
RTVSPost2010Prop47
 90
       50
102
RTVSPost2010PropOp47
 70
     1
102
RTVSPost2010Prop48
 90
       50
102
RTVSPost2010PropOp48
 70
     1
102
RTVSPost2010Prop49
280
     0
102
RTVSPost2010PropOp49
 70
     1
102
RTVSPost2010Prop50
 90
       50
102
RTVSPost2010PropOp50
 70
     1
102
RTVSPost2010Prop51ColorIndex
 90
      256
102
RTVSPost2010Prop51ColorRGB
 90
-16777216
102
RTVSPost2010PropOp51
 70
     0
102
RTVSPost2010Prop52
140
1.0
102
RTVSPost2010PropOp52
 70
     0
102
RTVSPost2010Prop53
 90
        2
102
RTVSPost2010PropOp53
 70
     1
102
RTVSPost2010Prop54
  1
strokes_ogs.tif
102
RTVSPost2010PropOp54
 70
     1
102
RTVSPost2010Prop55
280
     0
102
RTVSPost2010PropOp55
 70
     1
102
RTVSPost2010Prop56
140
1.0
102
RTVSPost2010PropOp56
 70
     1
102
RTVSPost2010Prop57
140
1.0
102
RTVSPost2010PropOp57
 70
     1
  0
XRECORD
  5
1B7
102
{ACAD_REACTORS
330
1B6
102
}
330
1B6
100
AcDbXrecord
280
     1
102
RTVSPost2010Prop28
280
     0
102
RTVSPost2010PropOp28
 70
     0
102
RTVSPost2010Prop29
280
     1
102
RTVSPost2010PropOp29
 70
     0
102
RTVSPost2010Prop30
280
     1
102
RTVSPost2010PropOp30
 70
     0
102
RTVSPost2010Prop31
280
     0
102
RTVSPost2010PropOp31
 70
     0
102
RTVSPost2010Prop32
280
     0
102
RTVSPost2010PropOp32
 70
     0
102
RTVSPost2010Prop33
280
     0
102
RTVSPost2010PropOp33
 70
     0
102
RTVSPost2010Prop34
280
     0
102
RTVSPost2010PropOp34
 70
     0
102
RTVSPost2010Prop35
280
     0
102
RTVSPost2010PropOp35
 70
     0
102
RTVSPost2010Prop36
280
     0
102
RTVSPost2010PropOp36
 70
     0
102
RTVSPost2010Prop37
 90
       50
102
RTVSPost2010PropOp37
 70
     0
102
RTVSPost2010Prop38
140
0.0
102
RTVSPost2010PropOp38
 70
     0
102
RTVSPost2010Prop39
140
1.0
102
RTVSPost2010PropOp39
 70
     0
102
RTVSPost2010Prop40
 90
        0
102
RTVSPost2010PropOp40
 70
     0
102
RTVSPost2010Prop41ColorIndex
 90
       18
102
RTVSPost2010Prop41ColorRGB
 90
        0
102
RTVSPost2010PropOp41
 70
     0
102
RTVSPost2010Prop42
 90
       50
102
RTVSPost2010PropOp42
 70
     0
102
RTVSPost2010Prop43
 90
        3
102
RTVSPost2010PropOp43
 70
     0
102
RTVSPost2010Prop44ColorIndex
 90
        5
102
RTVSPost2010Prop44ColorRGB
 90
      255
102
RTVSPost2010PropOp44
 70
     0
102
RTVSPost2010Prop45
280
     0
102
RTVSPost2010PropOp45
 70
     0
102
RTVSPost2010Prop46
 90
       50
102
RTVSPost2010PropOp46
 70
     0
102
RTVSPost2010Prop47
 90
       50
102
RTVSPost2010PropOp47
 70
     0
102
RTVSPost2010Prop48
 90
       50
102
RTVSPost2010PropOp48
 70
     0
102
RTVSPost2010Prop49
280
     0
102
RTVSPost2010PropOp49
 70
     0
102
RTVSPost2010Prop50
 90
       50
102
RTVSPost2010PropOp50
 70
     0
102
RTVSPost2010Prop51ColorIndex
 90
      256
102
RTVSPost2010Prop51ColorRGB
 90
-16777216
102
RTVSPost2010PropOp51
 70
     0
102
RTVSPost2010Prop52
140
1.0
102
RTVSPost2010PropOp52
 70
     0
102
RTVSPost2010Prop53
 90
        2
102
RTVSPost2010PropOp53
 70
     0
102
RTVSPost2010Prop54
  1
strokes_ogs.tif
102
RTVSPost2010PropOp54
 70
     0
102
RTVSPost2010Prop55
280
     0
102
RTVSPost2010PropOp55
 70
     0
102
RTVSPost2010Prop56
140
1.0
102
RTVSPost2010PropOp56
 70
     0
102
RTVSPost2010Prop57
140
1.0
102
RTVSPost2010PropOp57
 70
     0
  0
XRECORD
  5
19D
102
{ACAD_REACTORS
330
19C
102
}
330
19C
100
AcDbXrecord
280
     1
102
RTVSPost2010Prop28
280
     0
102
RTVSPost2010PropOp28
 70
     1
102
RTVSPost2010Prop29
280
     1
102
RTVSPost2010PropOp29
 70
     1
102
RTVSPost2010Prop30
280
     1
102
RTVSPost2010PropOp30
 70
     1
102
RTVSPost2010Prop31
280
     0
102
RTVSPost2010PropOp31
 70
     1
102
RTVSPost2010Prop32
280
     0
102
RTVSPost2010PropOp32
 70
     1
102
RTVSPost2010Prop33
280
     0
102
RTVSPost2010PropOp33
 70
     1
102
RTVSPost2010Prop34
280
     0
102
RTVSPost2010PropOp34
 70
     1
102
RTVSPost2010Prop35
280
     0
102
RTVSPost2010PropOp35
 70
     1
102
RTVSPost2010Prop36
280
     0
102
RTVSPost2010PropOp36
 70
     1
102
RTVSPost2010Prop37
 90
       50
102
RTVSPost2010PropOp37
 70
     1
102
RTVSPost2010Prop38
140
0.0
102
RTVSPost2010PropOp38
 70
     1
102
RTVSPost2010Prop39
140
1.0
102
RTVSPost2010PropOp39
 70
     1
102
RTVSPost2010Prop40
 90
        0
102
RTVSPost2010PropOp40
 70
     1
102
RTVSPost2010Prop41ColorIndex
 90
       18
102
RTVSPost2010Prop41ColorRGB
 90
        0
102
RTVSPost2010PropOp41
 70
     1
102
RTVSPost2010Prop42
 90
       50
102
RTVSPost2010PropOp42
 70
     1
102
RTVSPost2010Prop43
 90
        3
102
RTVSPost2010PropOp43
 70
     1
102
RTVSPost2010Prop44ColorIndex
 90
        5
102
RTVSPost2010Prop44ColorRGB
 90
      255
102
RTVSPost2010PropOp44
 70
     1
102
RTVSPost2010Prop45
280
     0
102
RTVSPost2010PropOp45
 70
     1
102
RTVSPost2010Prop46
 90
       50
102
RTVSPost2010PropOp46
 70
     1
102
RTVSPost2010Prop47
 90
       50
102
RTVSPost2010PropOp47
 70
     1
102
RTVSPost2010Prop48
 90
       50
102
RTVSPost2010PropOp48
 70
     1
102
RTVSPost2010Prop49
280
     0
102
RTVSPost2010PropOp49
 70
     1
102
RTVSPost2010Prop50
 90
       50
102
RTVSPost2010PropOp50
 70
     1
102
RTVSPost2010Prop51ColorIndex
 90
      256
102
RTVSPost2010Prop51ColorRGB
 90
-16777216
102
RTVSPost2010PropOp51
 70
     0
102
RTVSPost2010Prop52
140
1.0
102
RTVSPost2010PropOp52
 70
     0
102
RTVSPost2010Prop53
 90
        2
102
RTVSPost2010PropOp53
 70
     1
102
RTVSPost2010Prop54
  1
strokes_ogs.tif
102
RTVSPost2010PropOp54
 70
     1
102
RTVSPost2010Prop55
280
     0
102
RTVSPost2010PropOp55
 70
     1
102
RTVSPost2010Prop56
140
1.0
102
RTVSPost2010PropOp56
 70
     1
102
RTVSPost2010Prop57
140
1.0
102
RTVSPost2010PropOp57
 70
     1
  0
XRECORD
  5
1B3
102
{ACAD_REACTORS
330
1B2
102
}
330
1B2
100
AcDbXrecord
280
     1
102
RTVSPost2010Prop28
280
     0
102
RTVSPost2010PropOp28
 70
     1
102
RTVSPost2010Prop29
280
     1
102
RTVSPost2010PropOp29
 70
     1
102
RTVSPost2010Prop30
280
     1
102
RTVSPost2010PropOp30
 70
     1
102
RTVSPost2010Prop31
280
     0
102
RTVSPost2010PropOp31
 70
     1
102
RTVSPost2010Prop32
280
     0
102
RTVSPost2010PropOp32
 70
     1
102
RTVSPost2010Prop33
280
     0
102
RTVSPost2010PropOp33
 70
     1
102
RTVSPost2010Prop34
280
     0
102
RTVSPost2010PropOp34
 70
     1
102
RTVSPost2010Prop35
280
     0
102
RTVSPost2010PropOp35
 70
     1
102
RTVSPost2010Prop36
280
     0
102
RTVSPost2010PropOp36
 70
     1
102
RTVSPost2010Prop37
 90
       50
102
RTVSPost2010PropOp37
 70
     1
102
RTVSPost2010Prop38
140
0.0
102
RTVSPost2010PropOp38
 70
     1
102
RTVSPost2010Prop39
140
1.0
102
RTVSPost2010PropOp39
 70
     1
102
RTVSPost2010Prop40
 90
        0
102
RTVSPost2010PropOp40
 70
     1
102
RTVSPost2010Prop41ColorIndex
 90
       18
102
RTVSPost2010Prop41ColorRGB
 90
        0
102
RTVSPost2010PropOp41
 70
     1
102
RTVSPost2010Prop42
 90
       50
102
RTVSPost2010PropOp42
 70
     1
102
RTVSPost2010Prop43
 90
        3
102
RTVSPost2010PropOp43
 70
     1
102
RTVSPost2010Prop44ColorIndex
 90
        5
102
RTVSPost2010Prop44ColorRGB
 90
      255
102
RTVSPost2010PropOp44
 70
     1
102
RTVSPost2010Prop45
280
     0
102
RTVSPost2010PropOp45
 70
     1
102
RTVSPost2010Prop46
 90
       50
102
RTVSPost2010PropOp46
 70
     1
102
RTVSPost2010Prop47
 90
       50
102
RTVSPost2010PropOp47
 70
     1
102
RTVSPost2010Prop48
 90
       50
102
RTVSPost2010PropOp48
 70
     1
102
RTVSPost2010Prop49
280
     0
102
RTVSPost2010PropOp49
 70
     1
102
RTVSPost2010Prop50
 90
       50
102
RTVSPost2010PropOp50
 70
     1
102
RTVSPost2010Prop51ColorIndex
 90
      256
102
RTVSPost2010Prop51ColorRGB
 90
-16777216
102
RTVSPost2010PropOp51
 70
     0
102
RTVSPost2010Prop52
140
1.0
102
RTVSPost2010PropOp52
 70
     0
102
RTVSPost2010Prop53
 90
        2
102
RTVSPost2010PropOp53
 70
     1
102
RTVSPost2010Prop54
  1
strokes_ogs.tif
102
RTVSPost2010PropOp54
 70
     1
102
RTVSPost2010Prop55
280
     0
102
RTVSPost2010PropOp55
 70
     1
102
RTVSPost2010Prop56
140
1.0
102
RTVSPost2010PropOp56
 70
     1
102
RTVSPost2010Prop57
140
1.0
102
RTVSPost2010PropOp57
 70
     1
  0
XRECORD
  5
1B1
102
{ACAD_REACTORS
330
1B0
102
}
330
1B0
100
AcDbXrecord
280
     1
102
RTVSPost2010Prop28
280
     0
102
RTVSPost2010PropOp28
 70
     1
102
RTVSPost2010Prop29
280
     1
102
RTVSPost2010PropOp29
 70
     1
102
RTVSPost2010Prop30
280
     1
102
RTVSPost2010PropOp30
 70
     1
102
RTVSPost2010Prop31
280
     0
102
RTVSPost2010PropOp31
 70
     1
102
RTVSPost2010Prop32
280
     0
102
RTVSPost2010PropOp32
 70
     1
102
RTVSPost2010Prop33
280
     0
102
RTVSPost2010PropOp33
 70
     1
102
RTVSPost2010Prop34
280
     0
102
RTVSPost2010PropOp34
 70
     1
102
RTVSPost2010Prop35
280
     0
102
RTVSPost2010PropOp35
 70
     1
102
RTVSPost2010Prop36
280
     0
102
RTVSPost2010PropOp36
 70
     1
102
RTVSPost2010Prop37
 90
       50
102
RTVSPost2010PropOp37
 70
     1
102
RTVSPost2010Prop38
140
0.0
102
RTVSPost2010PropOp38
 70
     1
102
RTVSPost2010Prop39
140
1.0
102
RTVSPost2010PropOp39
 70
     1
102
RTVSPost2010Prop40
 90
        0
102
RTVSPost2010PropOp40
 70
     1
102
RTVSPost2010Prop41ColorIndex
 90
       18
102
RTVSPost2010Prop41ColorRGB
 90
        0
102
RTVSPost2010PropOp41
 70
     1
102
RTVSPost2010Prop42
 90
       50
102
RTVSPost2010PropOp42
 70
     1
102
RTVSPost2010Prop43
 90
        3
102
RTVSPost2010PropOp43
 70
     1
102
RTVSPost2010Prop44ColorIndex
 90
        5
102
RTVSPost2010Prop44ColorRGB
 90
      255
102
RTVSPost2010PropOp44
 70
     1
102
RTVSPost2010Prop45
280
     0
102
RTVSPost2010PropOp45
 70
     1
102
RTVSPost2010Prop46
 90
       50
102
RTVSPost2010PropOp46
 70
     1
102
RTVSPost2010Prop47
 90
       50
102
RTVSPost2010PropOp47
 70
     1
102
RTVSPost2010Prop48
 90
       50
102
RTVSPost2010PropOp48
 70
     1
102
RTVSPost2010Prop49
280
     0
102
RTVSPost2010PropOp49
 70
     1
102
RTVSPost2010Prop50
 90
       50
102
RTVSPost2010PropOp50
 70
     1
102
RTVSPost2010Prop51ColorIndex
 90
      256
102
RTVSPost2010Prop51ColorRGB
 90
-16777216
102
RTVSPost2010PropOp51
 70
     0
102
RTVSPost2010Prop52
140
1.0
102
RTVSPost2010PropOp52
 70
     0
102
RTVSPost2010Prop53
 90
        2
102
RTVSPost2010PropOp53
 70
     1
102
RTVSPost2010Prop54
  1
strokes_ogs.tif
102
RTVSPost2010PropOp54
 70
     1
102
RTVSPost2010Prop55
280
     0
102
RTVSPost2010PropOp55
 70
     1
102
RTVSPost2010Prop56
140
1.0
102
RTVSPost2010PropOp56
 70
     1
102
RTVSPost2010Prop57
140
1.0
102
RTVSPost2010PropOp57
 70
     1
  0
XRECORD
  5
1AB
102
{ACAD_REACTORS
330
1AA
102
}
330
1AA
100
AcDbXrecord
280
     1
102
RTVSPost2010Prop28
280
     0
102
RTVSPost2010PropOp28
 70
     1
102
RTVSPost2010Prop29
280
     1
102
RTVSPost2010PropOp29
 70
     1
102
RTVSPost2010Prop30
280
     1
102
RTVSPost2010PropOp30
 70
     1
102
RTVSPost2010Prop31
280
     0
102
RTVSPost2010PropOp31
 70
     1
102
RTVSPost2010Prop32
280
     0
102
RTVSPost2010PropOp32
 70
     1
102
RTVSPost2010Prop33
280
     0
102
RTVSPost2010PropOp33
 70
     1
102
RTVSPost2010Prop34
280
     0
102
RTVSPost2010PropOp34
 70
     1
102
RTVSPost2010Prop35
280
     0
102
RTVSPost2010PropOp35
 70
     1
102
RTVSPost2010Prop36
280
     0
102
RTVSPost2010PropOp36
 70
     1
102
RTVSPost2010Prop37
 90
       50
102
RTVSPost2010PropOp37
 70
     1
102
RTVSPost2010Prop38
140
0.0
102
RTVSPost2010PropOp38
 70
     1
102
RTVSPost2010Prop39
140
1.0
102
RTVSPost2010PropOp39
 70
     1
102
RTVSPost2010Prop40
 90
        0
102
RTVSPost2010PropOp40
 70
     1
102
RTVSPost2010Prop41ColorIndex
 90
       18
102
RTVSPost2010Prop41ColorRGB
 90
        0
102
RTVSPost2010PropOp41
 70
     1
102
RTVSPost2010Prop42
 90
       50
102
RTVSPost2010PropOp42
 70
     1
102
RTVSPost2010Prop43
 90
        3
102
RTVSPost2010PropOp43
 70
     1
102
RTVSPost2010Prop44ColorIndex
 90
        5
102
RTVSPost2010Prop44ColorRGB
 90
      255
102
RTVSPost2010PropOp44
 70
     1
102
RTVSPost2010Prop45
280
     0
102
RTVSPost2010PropOp45
 70
     1
102
RTVSPost2010Prop46
 90
       50
102
RTVSPost2010PropOp46
 70
     1
102
RTVSPost2010Prop47
 90
       50
102
RTVSPost2010PropOp47
 70
     1
102
RTVSPost2010Prop48
 90
       50
102
RTVSPost2010PropOp48
 70
     1
102
RTVSPost2010Prop49
280
     0
102
RTVSPost2010PropOp49
 70
     1
102
RTVSPost2010Prop50
 90
       50
102
RTVSPost2010PropOp50
 70
     1
102
RTVSPost2010Prop51ColorIndex
 90
      256
102
RTVSPost2010Prop51ColorRGB
 90
-16777216
102
RTVSPost2010PropOp51
 70
     0
102
RTVSPost2010Prop52
140
1.0
102
RTVSPost2010PropOp52
 70
     0
102
RTVSPost2010Prop53
 90
        2
102
RTVSPost2010PropOp53
 70
     1
102
RTVSPost2010Prop54
  1
strokes_ogs.tif
102
RTVSPost2010PropOp54
 70
     1
102
RTVSPost2010Prop55
280
     0
102
RTVSPost2010PropOp55
 70
     1
102
RTVSPost2010Prop56
140
1.0
102
RTVSPost2010PropOp56
 70
     1
102
RTVSPost2010Prop57
140
1.0
102
RTVSPost2010PropOp57
 70
     1
  0
XRECORD
  5
1AD
102
{ACAD_REACTORS
330
1AC
102
}
330
1AC
100
AcDbXrecord
280
     1
102
RTVSPost2010Prop28
280
     0
102
RTVSPost2010PropOp28
 70
     1
102
RTVSPost2010Prop29
280
     1
102
RTVSPost2010PropOp29
 70
     1
102
RTVSPost2010Prop30
280
     1
102
RTVSPost2010PropOp30
 70
     1
102
RTVSPost2010Prop31
280
     0
102
RTVSPost2010PropOp31
 70
     1
102
RTVSPost2010Prop32
280
     0
102
RTVSPost2010PropOp32
 70
     1
102
RTVSPost2010Prop33
280
     0
102
RTVSPost2010PropOp33
 70
     1
102
RTVSPost2010Prop34
280
     0
102
RTVSPost2010PropOp34
 70
     1
102
RTVSPost2010Prop35
280
     0
102
RTVSPost2010PropOp35
 70
     1
102
RTVSPost2010Prop36
280
     0
102
RTVSPost2010PropOp36
 70
     1
102
RTVSPost2010Prop37
 90
       50
102
RTVSPost2010PropOp37
 70
     1
102
RTVSPost2010Prop38
140
0.0
102
RTVSPost2010PropOp38
 70
     1
102
RTVSPost2010Prop39
140
1.0
102
RTVSPost2010PropOp39
 70
     1
102
RTVSPost2010Prop40
 90
        0
102
RTVSPost2010PropOp40
 70
     1
102
RTVSPost2010Prop41ColorIndex
 90
       18
102
RTVSPost2010Prop41ColorRGB
 90
        0
102
RTVSPost2010PropOp41
 70
     1
102
RTVSPost2010Prop42
 90
       50
102
RTVSPost2010PropOp42
 70
     1
102
RTVSPost2010Prop43
 90
        3
102
RTVSPost2010PropOp43
 70
     1
102
RTVSPost2010Prop44ColorIndex
 90
        5
102
RTVSPost2010Prop44ColorRGB
 90
      255
102
RTVSPost2010PropOp44
 70
     1
102
RTVSPost2010Prop45
280
     0
102
RTVSPost2010PropOp45
 70
     1
102
RTVSPost2010Prop46
 90
       50
102
RTVSPost2010PropOp46
 70
     1
102
RTVSPost2010Prop47
 90
       50
102
RTVSPost2010PropOp47
 70
     1
102
RTVSPost2010Prop48
 90
       50
102
RTVSPost2010PropOp48
 70
     1
102
RTVSPost2010Prop49
280
     0
102
RTVSPost2010PropOp49
 70
     1
102
RTVSPost2010Prop50
 90
       50
102
RTVSPost2010PropOp50
 70
     1
102
RTVSPost2010Prop51ColorIndex
 90
      256
102
RTVSPost2010Prop51ColorRGB
 90
-16777216
102
RTVSPost2010PropOp51
 70
     0
102
RTVSPost2010Prop52
140
1.0
102
RTVSPost2010PropOp52
 70
     0
102
RTVSPost2010Prop53
 90
        2
102
RTVSPost2010PropOp53
 70
     1
102
RTVSPost2010Prop54
  1
strokes_ogs.tif
102
RTVSPost2010PropOp54
 70
     1
102
RTVSPost2010Prop55
280
     0
102
RTVSPost2010PropOp55
 70
     1
102
RTVSPost2010Prop56
140
1.0
102
RTVSPost2010PropOp56
 70
     1
102
RTVSPost2010Prop57
140
1.0
102
RTVSPost2010PropOp57
 70
     1
  0
XRECORD
  5
1A3
102
{ACAD_REACTORS
330
1A2
102
}
330
1A2
100
AcDbXrecord
280
     1
102
RTVSPost2010Prop28
280
     0
102
RTVSPost2010PropOp28
 70
     1
102
RTVSPost2010Prop29
280
     1
102
RTVSPost2010PropOp29
 70
     1
102
RTVSPost2010Prop30
280
     1
102
RTVSPost2010PropOp30
 70
     1
102
RTVSPost2010Prop31
280
     0
102
RTVSPost2010PropOp31
 70
     1
102
RTVSPost2010Prop32
280
     0
102
RTVSPost2010PropOp32
 70
     1
102
RTVSPost2010Prop33
280
     0
102
RTVSPost2010PropOp33
 70
     1
102
RTVSPost2010Prop34
280
     0
102
RTVSPost2010PropOp34
 70
     1
102
RTVSPost2010Prop35
280
     0
102
RTVSPost2010PropOp35
 70
     1
102
RTVSPost2010Prop36
280
     0
102
RTVSPost2010PropOp36
 70
     1
102
RTVSPost2010Prop37
 90
       50
102
RTVSPost2010PropOp37
 70
     1
102
RTVSPost2010Prop38
140
0.0
102
RTVSPost2010PropOp38
 70
     1
102
RTVSPost2010Prop39
140
1.0
102
RTVSPost2010PropOp39
 70
     1
102
RTVSPost2010Prop40
 90
        0
102
RTVSPost2010PropOp40
 70
     1
102
RTVSPost2010Prop41ColorIndex
 90
       18
102
RTVSPost2010Prop41ColorRGB
 90
        0
102
RTVSPost2010PropOp41
 70
     1
102
RTVSPost2010Prop42
 90
       50
102
RTVSPost2010PropOp42
 70
     1
102
RTVSPost2010Prop43
 90
        3
102
RTVSPost2010PropOp43
 70
     1
102
RTVSPost2010Prop44ColorIndex
 90
        5
102
RTVSPost2010Prop44ColorRGB
 90
      255
102
RTVSPost2010PropOp44
 70
     1
102
RTVSPost2010Prop45
280
     0
102
RTVSPost2010PropOp45
 70
     1
102
RTVSPost2010Prop46
 90
       50
102
RTVSPost2010PropOp46
 70
     1
102
RTVSPost2010Prop47
 90
       50
102
RTVSPost2010PropOp47
 70
     1
102
RTVSPost2010Prop48
 90
       50
102
RTVSPost2010PropOp48
 70
     1
102
RTVSPost2010Prop49
280
     0
102
RTVSPost2010PropOp49
 70
     1
102
RTVSPost2010Prop50
 90
       50
102
RTVSPost2010PropOp50
 70
     1
102
RTVSPost2010Prop51ColorIndex
 90
      256
102
RTVSPost2010Prop51ColorRGB
 90
-16777216
102
RTVSPost2010PropOp51
 70
     0
102
RTVSPost2010Prop52
140
1.0
102
RTVSPost2010PropOp52
 70
     0
102
RTVSPost2010Prop53
 90
        2
102
RTVSPost2010PropOp53
 70
     1
102
RTVSPost2010Prop54
  1
strokes_ogs.tif
102
RTVSPost2010PropOp54
 70
     1
102
RTVSPost2010Prop55
280
     0
102
RTVSPost2010PropOp55
 70
     1
102
RTVSPost2010Prop56
140
1.0
102
RTVSPost2010PropOp56
 70
     1
102
RTVSPost2010Prop57
140
1.0
102
RTVSPost2010PropOp57
 70
     1
  0
XRECORD
  5
197
102
{ACAD_REACTORS
330
196
102
}
330
196
100
AcDbXrecord
280
     1
102
RTVSPost2010Prop28
280
     0
102
RTVSPost2010PropOp28
 70
     1
102
RTVSPost2010Prop29
280
     1
102
RTVSPost2010PropOp29
 70
     1
102
RTVSPost2010Prop30
280
     1
102
RTVSPost2010PropOp30
 70
     1
102
RTVSPost2010Prop31
280
     0
102
RTVSPost2010PropOp31
 70
     1
102
RTVSPost2010Prop32
280
     0
102
RTVSPost2010PropOp32
 70
     1
102
RTVSPost2010Prop33
280
     0
102
RTVSPost2010PropOp33
 70
     1
102
RTVSPost2010Prop34
280
     0
102
RTVSPost2010PropOp34
 70
     1
102
RTVSPost2010Prop35
280
     0
102
RTVSPost2010PropOp35
 70
     1
102
RTVSPost2010Prop36
280
     0
102
RTVSPost2010PropOp36
 70
     1
102
RTVSPost2010Prop37
 90
       50
102
RTVSPost2010PropOp37
 70
     1
102
RTVSPost2010Prop38
140
0.0
102
RTVSPost2010PropOp38
 70
     1
102
RTVSPost2010Prop39
140
1.0
102
RTVSPost2010PropOp39
 70
     1
102
RTVSPost2010Prop40
 90
        0
102
RTVSPost2010PropOp40
 70
     1
102
RTVSPost2010Prop41ColorIndex
 90
       18
102
RTVSPost2010Prop41ColorRGB
 90
        0
102
RTVSPost2010PropOp41
 70
     1
102
RTVSPost2010Prop42
 90
       50
102
RTVSPost2010PropOp42
 70
     1
102
RTVSPost2010Prop43
 90
        3
102
RTVSPost2010PropOp43
 70
     1
102
RTVSPost2010Prop44ColorIndex
 90
        5
102
RTVSPost2010Prop44ColorRGB
 90
      255
102
RTVSPost2010PropOp44
 70
     1
102
RTVSPost2010Prop45
280
     0
102
RTVSPost2010PropOp45
 70
     1
102
RTVSPost2010Prop46
 90
       50
102
RTVSPost2010PropOp46
 70
     1
102
RTVSPost2010Prop47
 90
       50
102
RTVSPost2010PropOp47
 70
     1
102
RTVSPost2010Prop48
 90
       50
102
RTVSPost2010PropOp48
 70
     1
102
RTVSPost2010Prop49
280
     0
102
RTVSPost2010PropOp49
 70
     1
102
RTVSPost2010Prop50
 90
       50
102
RTVSPost2010PropOp50
 70
     1
102
RTVSPost2010Prop51ColorIndex
 90
      256
102
RTVSPost2010Prop51ColorRGB
 90
-16777216
102
RTVSPost2010PropOp51
 70
     0
102
RTVSPost2010Prop52
140
1.0
102
RTVSPost2010PropOp52
 70
     0
102
RTVSPost2010Prop53
 90
        2
102
RTVSPost2010PropOp53
 70
     1
102
RTVSPost2010Prop54
  1
strokes_ogs.tif
102
RTVSPost2010PropOp54
 70
     1
102
RTVSPost2010Prop55
280
     0
102
RTVSPost2010PropOp55
 70
     1
102
RTVSPost2010Prop56
140
1.0
102
RTVSPost2010PropOp56
 70
     1
102
RTVSPost2010Prop57
140
1.0
102
RTVSPost2010PropOp57
 70
     1
  0
XRECORD
  5
1AF
102
{ACAD_REACTORS
330
1AE
102
}
330
1AE
100
AcDbXrecord
280
     1
102
RTVSPost2010Prop28
280
     0
102
RTVSPost2010PropOp28
 70
     1
102
RTVSPost2010Prop29
280
     1
102
RTVSPost2010PropOp29
 70
     1
102
RTVSPost2010Prop30
280
     1
102
RTVSPost2010PropOp30
 70
     1
102
RTVSPost2010Prop31
280
     0
102
RTVSPost2010PropOp31
 70
     1
102
RTVSPost2010Prop32
280
     0
102
RTVSPost2010PropOp32
 70
     1
102
RTVSPost2010Prop33
280
     0
102
RTVSPost2010PropOp33
 70
     1
102
RTVSPost2010Prop34
280
     0
102
RTVSPost2010PropOp34
 70
     1
102
RTVSPost2010Prop35
280
     0
102
RTVSPost2010PropOp35
 70
     1
102
RTVSPost2010Prop36
280
     0
102
RTVSPost2010PropOp36
 70
     1
102
RTVSPost2010Prop37
 90
       50
102
RTVSPost2010PropOp37
 70
     1
102
RTVSPost2010Prop38
140
0.0
102
RTVSPost2010PropOp38
 70
     1
102
RTVSPost2010Prop39
140
1.0
102
RTVSPost2010PropOp39
 70
     1
102
RTVSPost2010Prop40
 90
        0
102
RTVSPost2010PropOp40
 70
     1
102
RTVSPost2010Prop41ColorIndex
 90
       18
102
RTVSPost2010Prop41ColorRGB
 90
        0
102
RTVSPost2010PropOp41
 70
     1
102
RTVSPost2010Prop42
 90
       50
102
RTVSPost2010PropOp42
 70
     1
102
RTVSPost2010Prop43
 90
        3
102
RTVSPost2010PropOp43
 70
     1
102
RTVSPost2010Prop44ColorIndex
 90
        5
102
RTVSPost2010Prop44ColorRGB
 90
      255
102
RTVSPost2010PropOp44
 70
     1
102
RTVSPost2010Prop45
280
     0
102
RTVSPost2010PropOp45
 70
     1
102
RTVSPost2010Prop46
 90
       50
102
RTVSPost2010PropOp46
 70
     1
102
RTVSPost2010Prop47
 90
       50
102
RTVSPost2010PropOp47
 70
     1
102
RTVSPost2010Prop48
 90
       50
102
RTVSPost2010PropOp48
 70
     1
102
RTVSPost2010Prop49
280
     0
102
RTVSPost2010PropOp49
 70
     1
102
RTVSPost2010Prop50
 90
       50
102
RTVSPost2010PropOp50
 70
     1
102
RTVSPost2010Prop51ColorIndex
 90
      256
102
RTVSPost2010Prop51ColorRGB
 90
-16777216
102
RTVSPost2010PropOp51
 70
     0
102
RTVSPost2010Prop52
140
1.0
102
RTVSPost2010PropOp52
 70
     0
102
RTVSPost2010Prop53
 90
        2
102
RTVSPost2010PropOp53
 70
     1
102
RTVSPost2010Prop54
  1
strokes_ogs.tif
102
RTVSPost2010PropOp54
 70
     1
102
RTVSPost2010Prop55
280
     0
102
RTVSPost2010PropOp55
 70
     1
102
RTVSPost2010Prop56
140
1.0
102
RTVSPost2010PropOp56
 70
     1
102
RTVSPost2010Prop57
140
1.0
102
RTVSPost2010PropOp57
 70
     1
  0
ENDSEC
  0
EOF
