  0
SECTION
  2
HEADER
  9
$ACADVER
  1
AC1024
  9
$ACADMAINTVER
 70
   226
  9
$DWGCODEPAGE
  3
ANSI_932
  9
$INSBASE
 10
0.0
 20
0.0
 30
0.0
  9
$EXTMIN
 10
1.000000000000000E+20
 20
1.000000000000000E+20
 30
1.000000000000000E+20
  9
$EXTMAX
 10
-1.000000000000000E+20
 20
-1.000000000000000E+20
 30
-1.000000000000000E+20
  9
$LIMMIN
 10
0.0
 20
0.0
  9
$LIMMAX
 10
12.0
 20
9.0
  9
$ORTHOMODE
 70
     0
  9
$REGENMODE
 70
     1
  9
$FILLMODE
 70
     1
  9
$QTEXTMODE
 70
     0
  9
$MIRRTEXT
 70
     0
  9
$LTSCALE
 40
1.0
  9
$ATTMODE
 70
     1
  9
$TEXTSIZE
 40
0.2
  9
$TRACEWID
 40
0.05
  9
$TEXTSTYLE
  7
Standard
  9
$CLAYER
  8
0
  9
$CELTYPE
  6
ByLayer
  9
$CECOLOR
 62
   256
  9
$CELTSCALE
 40
1.0
  9
$DISPSILH
 70
     0
  9
$DIMSCALE
 40
1.0
  9
$DIMASZ
 40
0.18
  9
$DIMEXO
 40
0.0625
  9
$DIMDLI
 40
0.38
  9
$DIMRND
 40
0.0
  9
$DIMDLE
 40
0.0
  9
$DIMEXE
 40
0.18
  9
$DIMTP
 40
0.0
  9
$DIMTM
 40
0.0
  9
$DIMTXT
 40
0.18
  9
$DIMCEN
 40
0.09
  9
$DIMTSZ
 40
0.0
  9
$DIMTOL
 70
     0
  9
$DIMLIM
 70
     0
  9
$DIMTIH
 70
     1
  9
$DIMTOH
 70
     1
  9
$DIMSE1
 70
     0
  9
$DIMSE2
 70
     0
  9
$DIMTAD
 70
     0
  9
$DIMZIN
 70
     0
  9
$DIMBLK
  1

  9
$DIMASO
 70
     1
  9
$DIMSHO
 70
     1
  9
$DIMPOST
  1

  9
$DIMAPOST
  1

  9
$DIMALT
 70
     0
  9
$DIMALTD
 70
     2
  9
$DIMALTF
 40
25.4
  9
$DIMLFAC
 40
1.0
  9
$DIMTOFL
 70
     0
  9
$DIMTVP
 40
0.0
  9
$DIMTIX
 70
     0
  9
$DIMSOXD
 70
     0
  9
$DIMSAH
 70
     0
  9
$DIMBLK1
  1

  9
$DIMBLK2
  1

  9
$DIMSTYLE
  2
Standard
  9
$DIMCLRD
 70
     0
  9
$DIMCLRE
 70
     0
  9
$DIMCLRT
 70
     0
  9
$DIMTFAC
 40
1.0
  9
$DIMGAP
 40
0.09
  9
$DIMJUST
 70
     0
  9
$DIMSD1
 70
     0
  9
$DIMSD2
 70
     0
  9
$DIMTOLJ
 70
     1
  9
$DIMTZIN
 70
     0
  9
$DIMALTZ
 70
     0
  9
$DIMALTTZ
 70
     0
  9
$DIMUPT
 70
     0
  9
$DIMDEC
 70
     4
  9
$DIMTDEC
 70
     4
  9
$DIMALTU
 70
     2
  9
$DIMALTTD
 70
     2
  9
$DIMTXSTY
  7
Standard
  9
$DIMAUNIT
 70
     0
  9
$DIMADEC
 70
     0
  9
$DIMALTRND
 40
0.0
  9
$DIMAZIN
 70
     0
  9
$DIMDSEP
 70
    46
  9
$DIMATFIT
 70
     3
  9
$DIMFRAC
 70
     0
  9
$DIMLDRBLK
  1

  9
$DIMLUNIT
 70
     2
  9
$DIMLWD
 70
    -2
  9
$DIMLWE
 70
    -2
  9
$DIMTMOVE
 70
     0
  9
$DIMFXL
 40
1.0
  9
$DIMFXLON
 70
     0
  9
$DIMJOGANG
 40
0.7853981633974483
  9
$DIMTFILL
 70
     0
  9
$DIMTFILLCLR
 70
     0
  9
$DIMARCSYM
 70
     0
  9
$DIMLTYPE
  6

  9
$DIMLTEX1
  6

  9
$DIMLTEX2
  6

  9
$DIMTXTDIRECTION
 70
     0
  9
$LUNITS
 70
     2
  9
$LUPREC
 70
     4
  9
$SKETCHINC
 40
0.1
  9
$FILLETRAD
 40
0.0
  9
$AUNITS
 70
     0
  9
$AUPREC
 70
     0
  9
$MENU
  1
.
  9
$ELEVATION
 40
0.0
  9
$PELEVATION
 40
0.0
  9
$THICKNESS
 40
0.0
  9
$LIMCHECK
 70
     0
  9
$CHAMFERA
 40
0.0
  9
$CHAMFERB
 40
0.0
  9
$CHAMFERC
 40
0.0
  9
$CHAMFERD
 40
0.0
  9
$SKPOLY
 70
     0
  9
$TDCREATE
 40
2459569.503923611
  9
$TDUCREATE
 40
2459569.128923611
  9
$TDUPDATE
 40
2459569.503923611
  9
$TDUUPDATE
 40
2459569.128923611
  9
$TDINDWG
 40
0.0000000000
  9
$TDUSRTIMER
 40
0.0000000000
  9
$USRTIMER
 70
     1
  9
$ANGBASE
 50
0.0
  9
$ANGDIR
 70
     0
  9
$PDMODE
 70
     0
  9
$PDSIZE
 40
0.0
  9
$PLINEWID
 40
0.0
  9
$SPLFRAME
 70
     0
  9
$SPLINETYPE
 70
     6
  9
$SPLINESEGS
 70
     8
  9
$HANDSEED
  5
196
  9
$SURFTAB1
 70
     6
  9
$SURFTAB2
 70
     6
  9
$SURFTYPE
 70
     6
  9
$SURFU
 70
     6
  9
$SURFV
 70
     6
  9
$UCSBASE
  2

  9
$UCSNAME
  2

  9
$UCSORG
 10
0.0
 20
0.0
 30
0.0
  9
$UCSXDIR
 10
1.0
 20
0.0
 30
0.0
  9
$UCSYDIR
 10
0.0
 20
1.0
 30
0.0
  9
$UCSORTHOREF
  2

  9
$UCSORTHOVIEW
 70
     0
  9
$UCSORGTOP
 10
0.0
 20
0.0
 30
0.0
  9
$UCSORGBOTTOM
 10
0.0
 20
0.0
 30
0.0
  9
$UCSORGLEFT
 10
0.0
 20
0.0
 30
0.0
  9
$UCSORGRIGHT
 10
0.0
 20
0.0
 30
0.0
  9
$UCSORGFRONT
 10
0.0
 20
0.0
 30
0.0
  9
$UCSORGBACK
 10
0.0
 20
0.0
 30
0.0
  9
$PUCSBASE
  2

  9
$PUCSNAME
  2

  9
$PUCSORG
 10
0.0
 20
0.0
 30
0.0
  9
$PUCSXDIR
 10
1.0
 20
0.0
 30
0.0
  9
$PUCSYDIR
 10
0.0
 20
1.0
 30
0.0
  9
$PUCSORTHOREF
  2

  9
$PUCSORTHOVIEW
 70
     0
  9
$PUCSORGTOP
 10
0.0
 20
0.0
 30
0.0
  9
$PUCSORGBOTTOM
 10
0.0
 20
0.0
 30
0.0
  9
$PUCSORGLEFT
 10
0.0
 20
0.0
 30
0.0
  9
$PUCSORGRIGHT
 10
0.0
 20
0.0
 30
0.0
  9
$PUCSORGFRONT
 10
0.0
 20
0.0
 30
0.0
  9
$PUCSORGBACK
 10
0.0
 20
0.0
 30
0.0
  9
$USERI1
 70
     0
  9
$USERI2
 70
     0
  9
$USERI3
 70
     0
  9
$USERI4
 70
     0
  9
$USERI5
 70
     0
  9
$USERR1
 40
0.0
  9
$USERR2
 40
0.0
  9
$USERR3
 40
0.0
  9
$USERR4
 40
0.0
  9
$USERR5
 40
0.0
  9
$WORLDVIEW
 70
     1
  9
$SHADEDGE
 70
     3
  9
$SHADEDIF
 70
    70
  9
$TILEMODE
 70
     1
  9
$MAXACTVP
 70
    64
  9
$PINSBASE
 10
0.0
 20
0.0
 30
0.0
  9
$PLIMCHECK
 70
     0
  9
$PEXTMIN
 10
1.000000000000000E+20
 20
1.000000000000000E+20
 30
1.000000000000000E+20
  9
$PEXTMAX
 10
-1.000000000000000E+20
 20
-1.000000000000000E+20
 30
-1.000000000000000E+20
  9
$PLIMMIN
 10
0.0
 20
0.0
  9
$PLIMMAX
 10
12.0
 20
9.0
  9
$UNITMODE
 70
     0
  9
$VISRETAIN
 70
     1
  9
$PLINEGEN
 70
     0
  9
$PSLTSCALE
 70
     1
  9
$TREEDEPTH
 70
  3020
  9
$CMLSTYLE
  2
Standard
  9
$CMLJUST
 70
     0
  9
$CMLSCALE
 40
1.0
  9
$PROXYGRAPHICS
 70
     1
  9
$MEASUREMENT
 70
     0
  9
$CELWEIGHT
370
    -1
  9
$ENDCAPS
280
     0
  9
$JOINSTYLE
280
     0
  9
$LWDISPLAY
290
     1
  9
$INSUNITS
 70
     4
  9
$HYPERLINKBASE
  1

  9
$STYLESHEET
  1

  9
$XEDIT
290
     1
  9
$CEPSNTYPE
380
     0
  9
$PSTYLEMODE
290
     1
  9
$FINGERPRINTGUID
  2
{65B9F8C4-9F1C-254E-93E8-8A3F74ED58EF}
  9
$VERSIONGUID
  2
{51CD89B4-FDD0-6F4E-AADA-E5E5C588B5F8}
  9
$EXTNAMES
290
     1
  9
$PSVPSCALE
 40
0.0
  9
$OLESTARTUP
290
     0
  9
$SORTENTS
280
   127
  9
$INDEXCTL
280
     0
  9
$HIDETEXT
280
     1
  9
$XCLIPFRAME
280
     2
  9
$HALOGAP
280
     0
  9
$OBSCOLOR
 70
   257
  9
$OBSLTYPE
280
     0
  9
$INTERSECTIONDISPLAY
280
     0
  9
$INTERSECTIONCOLOR
 70
   257
  9
$DIMASSOC
280
     2
  9
$PROJECTNAME
  1

  9
$CAMERADISPLAY
290
     0
  9
$LENSLENGTH
 40
50.0
  9
$CAMERAHEIGHT
 40
0.0
  9
$STEPSPERSEC
 40
2.0
  9
$STEPSIZE
 40
6.0
  9
$3DDWFPREC
 40
2.0
  9
$PSOLWIDTH
 40
0.25
  9
$PSOLHEIGHT
 40
4.0
  9
$LOFTANG1
 40
1.570796326794896
  9
$LOFTANG2
 40
1.570796326794896
  9
$LOFTMAG1
 40
0.0
  9
$LOFTMAG2
 40
0.0
  9
$LOFTPARAM
 70
     7
  9
$LOFTNORMALS
280
     1
  9
$LATITUDE
 40
37.795
  9
$LONGITUDE
 40
-122.394
  9
$NORTHDIRECTION
 40
0.0
  9
$TIMEZONE
 70
 -8000
  9
$LIGHTGLYPHDISPLAY
280
     1
  9
$TILEMODELIGHTSYNCH
280
     1
  9
$CMATERIAL
347
11
  9
$SOLIDHIST
280
     0
  9
$SHOWHIST
280
     1
  9
$DWFFRAME
280
     2
  9
$DGNFRAME
280
     0
  9
$REALWORLDSCALE
290
     1
  9
$INTERFERECOLOR
 62
     1
  9
$INTERFEREOBJVS
345
33
  9
$INTERFEREVPVS
346
30
  9
$CSHADOW
280
     0
  9
$SHADOWPLANELOCATION
 40
0.0
  0
ENDSEC
  0
SECTION
  2
CLASSES
  0
CLASS
  1
ACDBDICTIONARYWDFLT
  2
AcDbDictionaryWithDefault
  3
ObjectDBX Classes
 90
        0
 91
        1
280
     0
281
     0
  0
CLASS
  1
MATERIAL
  2
AcDbMaterial
  3
ObjectDBX Classes
 90
     1153
 91
        3
280
     0
281
     0
  0
CLASS
  1
VISUALSTYLE
  2
AcDbVisualStyle
  3
ObjectDBX Classes
 90
     4095
 91
       24
280
     0
281
     0
  0
CLASS
  1
SCALE
  2
AcDbScale
  3
ObjectDBX Classes
 90
     1153
 91
       17
280
     0
281
     0
  0
CLASS
  1
TABLESTYLE
  2
AcDbTableStyle
  3
ObjectDBX Classes
 90
     4095
 91
        1
280
     0
281
     0
  0
CLASS
  1
MLEADERSTYLE
  2
AcDbMLeaderStyle
  3
ACDB_MLEADERSTYLE_CLASS
 90
     4095
 91
        1
280
     0
281
     0
  0
CLASS
  1
ACDBSECTIONVIEWSTYLE
  2
AcDbSectionViewStyle
  3
ObjectDBX Classes
 90
     1025
 91
        1
280
     0
281
     0
  0
CLASS
  1
ACDBDETAILVIEWSTYLE
  2
AcDbDetailViewStyle
  3
ObjectDBX Classes
 90
     1025
 91
        1
280
     0
281
     0
  0
CLASS
  1
DICTIONARYVAR
  2
AcDbDictionaryVar
  3
ObjectDBX Classes
 90
        0
 91
        5
280
     0
281
     0
  0
CLASS
  1
CELLSTYLEMAP
  2
AcDbCellStyleMap
  3
ObjectDBX Classes
 90
     1152
 91
        1
280
     0
281
     0
  0
ENDSEC
  0
SECTION
  2
TABLES
  0
TABLE
  2
VPORT
  5
8
330
0
100
AcDbSymbolTable
 70
     1
  0
VPORT
  5
57
330
8
100
AcDbSymbolTableRecord
100
AcDbViewportTableRecord
  2
*Active
 70
     0
 10
0.0
 20
0.0
 11
1.0
 21
1.0
 12
0.0
 22
0.0
 13
0.0
 23
0.0
 14
1.0
 24
1.0
 15
0.0
 25
0.0
 16
0.0
 26
0.0
 36
1.0
 17
104.9999999737534
 27
-148.4999999628701
 37
0.0
 40
302.939999924255
 41
0.7070707070707534
 42
50.0
 43
0.0
 44
0.0
 50
0.0
 51
0.0
 71
     0
 72
   100
 73
     1
 74
     0
 75
     1
 76
     0
 77
     0
 78
     0
281
     0
 65
     1
110
0.0
120
0.0
130
0.0
111
1.0
121
0.0
131
0.0
112
0.0
122
1.0
132
0.0
 79
     0
146
0.0
 60
     3
 61
     5
292
     1
282
     1
141
0.0
142
0.0
 63
   250
421
  3355443
  0
ENDTAB
  0
TABLE
  2
LTYPE
  5
5
330
0
100
AcDbSymbolTable
 70
     1
  0
LTYPE
  5
5B
330
5
100
AcDbSymbolTableRecord
100
AcDbLinetypeTableRecord
  2
ByBlock
 70
     0
  3

 72
    65
 73
     0
 40
0.0
  0
LTYPE
  5
5C
330
5
100
AcDbSymbolTableRecord
100
AcDbLinetypeTableRecord
  2
ByLayer
 70
     0
  3

 72
    65
 73
     0
 40
0.0
  0
LTYPE
  5
5D
330
5
100
AcDbSymbolTableRecord
100
AcDbLinetypeTableRecord
  2
Continuous
 70
     0
  3
Solid line
 72
    65
 73
     0
 40
0.0
  0
ENDTAB
  0
TABLE
  2
LAYER
  5
2
330
0
100
AcDbSymbolTable
 70
     2
  0
LAYER
  5
54
330
2
100
AcDbSymbolTableRecord
100
AcDbLayerTableRecord
  2
0
 70
     0
 62
     7
  6
Continuous
370
    -3
390
F
347
21
  0
LAYER
  5
78
330
2
100
AcDbSymbolTableRecord
100
AcDbLayerTableRecord
  2
レイヤー 1
 70
     0
 62
     7
  6
Continuous
370
     0
390
F
347
21
  0
ENDTAB
  0
TABLE
  2
STYLE
  5
3
330
0
100
AcDbSymbolTable
 70
     2
  0
STYLE
  5
55
330
3
100
AcDbSymbolTableRecord
100
AcDbTextStyleTableRecord
  2
Standard
 70
     0
 40
0.0
 41
1.0
 50
0.0
 71
     0
 42
0.2
  3
txt
  4

  0
STYLE
  5
5A
330
3
100
AcDbSymbolTableRecord
100
AcDbTextStyleTableRecord
  2
Annotative
 70
     0
 40
0.0
 41
1.0
 50
0.0
 71
     0
 42
0.2
  3
txt
  4

1001
AcadAnnotative
1000
AnnotativeData
1002
{
1070
     1
1070
     1
1002
}
  0
ENDTAB
  0
TABLE
  2
VIEW
  5
6
330
0
100
AcDbSymbolTable
 70
     0
  0
ENDTAB
  0
TABLE
  2
UCS
  5
7
330
0
100
AcDbSymbolTable
 70
     0
  0
ENDTAB
  0
TABLE
  2
APPID
  5
9
330
0
100
AcDbSymbolTable
 70
     2
  0
APPID
  5
56
330
9
100
AcDbSymbolTableRecord
100
AcDbRegAppTableRecord
  2
ACAD
 70
     0
  0
APPID
  5
5E
330
9
100
AcDbSymbolTableRecord
100
AcDbRegAppTableRecord
  2
AcadAnnotative
 70
     0
  0
ENDTAB
  0
TABLE
  2
DIMSTYLE
  5
A
330
0
100
AcDbSymbolTable
 70
     2
100
AcDbDimStyleTable
 71
     0
  0
DIMSTYLE
105
58
330
A
100
AcDbSymbolTableRecord
100
AcDbDimStyleTableRecord
  2
Standard
 70
     0
340
55
  0
DIMSTYLE
105
59
330
A
100
AcDbSymbolTableRecord
100
AcDbDimStyleTableRecord
  2
Annotative
 70
     0
340
55
1001
AcadAnnotative
1000
AnnotativeData
1002
{
1070
     1
1070
     1
1002
}
  0
ENDTAB
  0
TABLE
  2
BLOCK_RECORD
  5
1
330
0
100
AcDbSymbolTable
 70
    15
  0
BLOCK_RECORD
  5
70
330
1
100
AcDbSymbolTableRecord
100
AcDbBlockTableRecord
  2
*Model_Space
340
73
 70
     0
280
     1
281
     0
  0
BLOCK_RECORD
  5
6C
330
1
100
AcDbSymbolTableRecord
100
AcDbBlockTableRecord
  2
*Paper_Space
340
6F
 70
     0
280
     1
281
     0
  0
BLOCK_RECORD
  5
74
330
1
100
AcDbSymbolTableRecord
100
AcDbBlockTableRecord
  2
*Paper_Space0
340
77
 70
     0
280
     1
281
     0
  0
BLOCK_RECORD
  5
E0
330
1
100
AcDbSymbolTableRecord
100
AcDbBlockTableRecord
  2
Block_0
340
0
102
{BLKREFS
331
E1
102
}
 70
     0
280
     1
281
     0
  0
BLOCK_RECORD
  5
E4
330
1
100
AcDbSymbolTableRecord
100
AcDbBlockTableRecord
  2
Block_1
340
0
102
{BLKREFS
331
E5
102
}
 70
     0
280
     1
281
     0
  0
BLOCK_RECORD
  5
F1
330
1
100
AcDbSymbolTableRecord
100
AcDbBlockTableRecord
  2
Block_2
340
0
102
{BLKREFS
331
F2
102
}
 70
     0
280
     1
281
     0
  0
BLOCK_RECORD
  5
F5
330
1
100
AcDbSymbolTableRecord
100
AcDbBlockTableRecord
  2
Block_3
340
0
102
{BLKREFS
331
F6
102
}
 70
     0
280
     1
281
     0
  0
BLOCK_RECORD
  5
FF
330
1
100
AcDbSymbolTableRecord
100
AcDbBlockTableRecord
  2
Block_4
340
0
102
{BLKREFS
331
100
102
}
 70
     0
280
     1
281
     0
  0
BLOCK_RECORD
  5
108
330
1
100
AcDbSymbolTableRecord
100
AcDbBlockTableRecord
  2
Block_5
340
0
102
{BLKREFS
331
109
102
}
 70
     0
280
     1
281
     0
  0
BLOCK_RECORD
  5
10C
330
1
100
AcDbSymbolTableRecord
100
AcDbBlockTableRecord
  2
Block_6
340
0
102
{BLKREFS
331
10D
102
}
 70
     0
280
     1
281
     0
  0
BLOCK_RECORD
  5
117
330
1
100
AcDbSymbolTableRecord
100
AcDbBlockTableRecord
  2
Block_7
340
0
102
{BLKREFS
331
118
102
}
 70
     0
280
     1
281
     0
  0
BLOCK_RECORD
  5
124
330
1
100
AcDbSymbolTableRecord
100
AcDbBlockTableRecord
  2
Block_8
340
0
102
{BLKREFS
331
125
102
}
 70
     0
280
     1
281
     0
  0
BLOCK_RECORD
  5
128
330
1
100
AcDbSymbolTableRecord
100
AcDbBlockTableRecord
  2
Block_9
340
0
102
{BLKREFS
331
129
102
}
 70
     0
280
     1
281
     0
  0
BLOCK_RECORD
  5
132
330
1
100
AcDbSymbolTableRecord
100
AcDbBlockTableRecord
  2
Block_10
340
0
102
{BLKREFS
331
133
102
}
 70
     0
280
     1
281
     0
  0
BLOCK_RECORD
  5
138
330
1
100
AcDbSymbolTableRecord
100
AcDbBlockTableRecord
  2
Block_11
340
0
102
{BLKREFS
331
139
102
}
 70
     0
280
     1
281
     0
  0
BLOCK_RECORD
  5
13F
330
1
100
AcDbSymbolTableRecord
100
AcDbBlockTableRecord
  2
Block_12
340
0
102
{BLKREFS
331
140
102
}
 70
     0
280
     1
281
     0
  0
BLOCK_RECORD
  5
143
330
1
100
AcDbSymbolTableRecord
100
AcDbBlockTableRecord
  2
Block_13
340
0
102
{BLKREFS
331
144
102
}
 70
     0
280
     1
281
     0
  0
ENDTAB
  0
ENDSEC
  0
SECTION
  2
BLOCKS
  0
BLOCK
  5
71
330
70
100
AcDbEntity
  8
0
100
AcDbBlockBegin
  2
*Model_Space
 70
     0
 10
0.0
 20
0.0
 30
0.0
  3
*Model_Space
  1

  0
ENDBLK
  5
72
330
70
100
AcDbEntity
  8
0
100
AcDbBlockEnd
  0
BLOCK
  5
6D
330
6C
100
AcDbEntity
 67
     1
  8
0
100
AcDbBlockBegin
  2
*Paper_Space
 70
     0
 10
0.0
 20
0.0
 30
0.0
  3
*Paper_Space
  1

  0
ENDBLK
  5
6E
330
6C
100
AcDbEntity
 67
     1
  8
0
100
AcDbBlockEnd
  0
BLOCK
  5
75
330
74
100
AcDbEntity
 67
     1
  8
0
100
AcDbBlockBegin
  2
*Paper_Space0
 70
     0
 10
0.0
 20
0.0
 30
0.0
  3
*Paper_Space0
  1

  0
ENDBLK
  5
76
330
74
100
AcDbEntity
 67
     1
  8
0
100
AcDbBlockEnd
  0
BLOCK
  5
E2
330
E0
100
AcDbEntity
  8
0
100
AcDbBlockBegin
  2
Block_0
 70
     0
 10
0.0
 20
0.0
 30
0.0
  3
Block_0
  1

  0
INSERT
  5
E5
330
E0
100
AcDbEntity
  8
レイヤー 1
100
AcDbBlockReference
  2
Block_1
 10
0.0
 20
0.0
 30
0.0
  0
ENDBLK
  5
E3
330
E0
100
AcDbEntity
  8
0
100
AcDbBlockEnd
  0
BLOCK
  5
E6
330
E4
100
AcDbEntity
  8
0
100
AcDbBlockBegin
  2
Block_1
 70
     0
 10
0.0
 20
0.0
 30
0.0
  3
Block_1
  1

  0
SPLINE
  5
E8
330
E4
100
AcDbEntity
  8
レイヤー 1
100
AcDbSpline
210
0.0
220
0.0
230
1.0
 70
     9
 71
     3
 72
    17
 73
    13
 74
     0
 42
0.0000000001
 43
0.0000000001
 40
0.0
 40
0.0
 40
0.0
 40
0.0
 40
1.0
 40
1.0
 40
1.0
 40
2.0
 40
2.0
 40
2.0
 40
3.0
 40
3.0
 40
3.0
 40
4.0
 40
4.0
 40
4.0
 40
4.0
 10
76.91864689917313
 20
-147.8119940494185
 30
0.0
 10
76.91864689917313
 20
-148.0617634720991
 30
0.0
 10
77.20200600283492
 20
-148.10827226115
 30
0.0
 10
77.54686006090842
 20
-148.10827226115
 30
0.0
 10
77.86639266716534
 20
-148.10827226115
 30
0.0
 10
78.175245477418
 20
-148.0720987585549
 30
0.0
 10
78.175245477418
 20
-147.8119940494185
 30
0.0
 10
78.175245477418
 20
-147.5642916840291
 30
0.0
 10
77.89378117627308
 20
-147.515715837687
 30
0.0
 10
77.54686006090842
 20
-147.515715837687
 30
0.0
 10
77.22749970942577
 20
-147.515715837687
 30
0.0
 10
76.91864689917313
 20
-147.5539563975733
 30
0.0
 10
76.91864689917313
 20
-147.8119940494185
 30
0.0
  0
SPLINE
  5
E9
330
E4
100
AcDbEntity
  8
レイヤー 1
100
AcDbSpline
210
0.0
220
0.0
230
1.0
 70
     9
 71
     3
 72
    29
 73
    25
 74
     0
 42
0.0000000001
 43
0.0000000001
 40
0.0
 40
0.0
 40
0.0
 40
0.0
 40
1.0
 40
1.0
 40
1.0
 40
2.0
 40
2.0
 40
2.0
 40
3.0
 40
3.0
 40
3.0
 40
4.0
 40
4.0
 40
4.0
 40
5.0
 40
5.0
 40
5.0
 40
6.0
 40
6.0
 40
6.0
 40
7.0
 40
7.0
 40
7.0
 40
8.0
 40
8.0
 40
8.0
 40
8.0
 10
78.14131128688828
 20
-147.4140855208722
 30
0.0
 10
78.35077309239148
 20
-147.522261519109
 30
0.0
 10
78.36989337233461
 20
-147.6955498220171
 30
0.0
 10
78.36989337233461
 20
-147.8119940494185
 30
0.0
 10
78.36989337233461
 20
-147.9728800085797
 30
0.0
 10
78.32338458328374
 20
-148.1144734330235
 30
0.0
 10
78.14131128688828
 20
-148.2095580684163
 30
0.0
 10
77.94683564674594
 20
-148.3132554425224
 30
0.0
 10
77.70981307736075
 20
-148.3325479772398
 30
0.0
 10
77.54686006090842
 20
-148.3325479772398
 30
0.0
 10
77.40302732439925
 20
-148.3325479772398
 30
0.0
 10
77.15136309920175
 20
-148.3153224998135
 30
0.0
 10
76.95240883492856
 20
-148.2095580684163
 30
0.0
 10
76.7493204560731
 20
-148.101726579728
 30
0.0
 10
76.72606606154765
 20
-147.9408406205669
 30
0.0
 10
76.72606606154765
 20
-147.8119940494185
 30
0.0
 10
76.72606606154765
 20
-147.6531751475485
 30
0.0
 10
76.77050779330738
 20
-147.5095146658136
 30
0.0
 10
76.95240883492856
 20
-147.4140855208722
 30
0.0
 10
77.14498967255403
 20
-147.314866770897
 30
0.0
 10
77.3733995032261
 20
-147.2914401215972
 30
0.0
 10
77.54686006090842
 20
-147.2914401215972
 30
0.0
 10
77.7182535612996
 20
-147.2914401215972
 30
0.0
 10
77.94890270403708
 20
-147.3127997136058
 30
0.0
 10
78.14131128688828
 20
-147.4140855208722
 30
0.0
  0
HATCH
  5
EA
330
E4
100
AcDbEntity
  8
レイヤー 1
 62
    18
420
        0
440
 33554687
100
AcDbHatch
 10
0.0
 20
0.0
 30
0.0
210
0.0
220
0.0
230
1.0
  2
SOLID
 70
     1
 71
     1
 91
        2
 92
        1
 93
        1
 72
     4
 94
        3
 73
     0
 74
     0
 95
       17
 96
       13
 40
0.0
 40
0.0
 40
0.0
 40
0.0
 40
1.0
 40
1.0
 40
1.0
 40
2.0
 40
2.0
 40
2.0
 40
3.0
 40
3.0
 40
3.0
 40
4.0
 40
4.0
 40
4.0
 40
4.0
 10
76.91864689917313
 20
-147.8119940494185
 10
76.91864689917313
 20
-148.0617634720991
 10
77.20200600283492
 20
-148.10827226115
 10
77.54686006090842
 20
-148.10827226115
 10
77.86639266716534
 20
-148.10827226115
 10
78.175245477418
 20
-148.0720987585549
 10
78.175245477418
 20
-147.8119940494185
 10
78.175245477418
 20
-147.5642916840291
 10
77.89378117627308
 20
-147.515715837687
 10
77.54686006090842
 20
-147.515715837687
 10
77.22749970942577
 20
-147.515715837687
 10
76.91864689917313
 20
-147.5539563975733
 10
76.91864689917313
 20
-147.8119940494185
 97
        0
 97
        1
330
E8
 92
        1
 93
        1
 72
     4
 94
        3
 73
     0
 74
     0
 95
       29
 96
       25
 40
0.0
 40
0.0
 40
0.0
 40
0.0
 40
1.0
 40
1.0
 40
1.0
 40
2.0
 40
2.0
 40
2.0
 40
3.0
 40
3.0
 40
3.0
 40
4.0
 40
4.0
 40
4.0
 40
5.0
 40
5.0
 40
5.0
 40
6.0
 40
6.0
 40
6.0
 40
7.0
 40
7.0
 40
7.0
 40
8.0
 40
8.0
 40
8.0
 40
8.0
 10
78.14131128688828
 20
-147.4140855208722
 10
78.35077309239148
 20
-147.522261519109
 10
78.36989337233461
 20
-147.6955498220171
 10
78.36989337233461
 20
-147.8119940494185
 10
78.36989337233461
 20
-147.9728800085797
 10
78.32338458328374
 20
-148.1144734330235
 10
78.14131128688828
 20
-148.2095580684163
 10
77.94683564674594
 20
-148.3132554425224
 10
77.70981307736075
 20
-148.3325479772398
 10
77.54686006090842
 20
-148.3325479772398
 10
77.40302732439925
 20
-148.3325479772398
 10
77.15136309920175
 20
-148.3153224998135
 10
76.95240883492856
 20
-148.2095580684163
 10
76.7493204560731
 20
-148.101726579728
 10
76.72606606154765
 20
-147.9408406205669
 10
76.72606606154765
 20
-147.8119940494185
 10
76.72606606154765
 20
-147.6531751475485
 10
76.77050779330738
 20
-147.5095146658136
 10
76.95240883492856
 20
-147.4140855208722
 10
77.14498967255403
 20
-147.314866770897
 10
77.3733995032261
 20
-147.2914401215972
 10
77.54686006090842
 20
-147.2914401215972
 10
77.7182535612996
 20
-147.2914401215972
 10
77.94890270403708
 20
-147.3127997136058
 10
78.14131128688828
 20
-147.4140855208722
 97
        0
 97
        1
330
E9
 75
     2
 76
     1
 98
        1
 10
0.0
 20
0.0
450
        0
451
        0
460
0.0
461
0.0
452
        0
462
0.0
453
        0
470

  0
SPLINE
  5
EB
330
E4
100
AcDbEntity
  8
レイヤー 1
100
AcDbSpline
210
0.0
220
0.0
230
1.0
 70
    11
 71
     3
 72
    17
 73
    13
 74
     0
 42
0.0000000001
 43
0.0000000001
 40
0.0
 40
0.0
 40
0.0
 40
0.0
 40
1.0
 40
1.0
 40
1.0
 40
2.0
 40
2.0
 40
2.0
 40
3.0
 40
3.0
 40
3.0
 40
4.0
 40
4.0
 40
4.0
 40
4.0
 10
78.31907821392718
 20
-147.0750881251236
 30
0.0
 10
78.31907821392718
 20
-147.0750881251236
 30
0.0
 10
78.06741398872969
 20
-147.0750881251236
 30
0.0
 10
78.06741398872969
 20
-147.0750881251236
 30
0.0
 10
78.06741398872969
 20
-147.0750881251236
 30
0.0
 10
78.06741398872969
 20
-146.8232516451518
 30
0.0
 10
78.06741398872969
 20
-146.8232516451518
 30
0.0
 10
78.06741398872969
 20
-146.8232516451518
 30
0.0
 10
78.31907821392718
 20
-146.8232516451518
 30
0.0
 10
78.31907821392718
 20
-146.8232516451518
 30
0.0
 10
78.31907821392718
 20
-146.8232516451518
 30
0.0
 10
78.31907821392718
 20
-147.0750881251236
 30
0.0
 10
78.31907821392718
 20
-147.0750881251236
 30
0.0
  0
HATCH
  5
EC
330
E4
100
AcDbEntity
  8
レイヤー 1
 62
    18
420
        0
440
 33554687
100
AcDbHatch
 10
0.0
 20
0.0
 30
0.0
210
0.0
220
0.0
230
1.0
  2
SOLID
 70
     1
 71
     1
 91
        1
 92
        1
 93
        1
 72
     4
 94
        3
 73
     0
 74
     0
 95
       17
 96
       13
 40
0.0
 40
0.0
 40
0.0
 40
0.0
 40
1.0
 40
1.0
 40
1.0
 40
2.0
 40
2.0
 40
2.0
 40
3.0
 40
3.0
 40
3.0
 40
4.0
 40
4.0
 40
4.0
 40
4.0
 10
78.31907821392718
 20
-147.0750881251236
 10
78.31907821392718
 20
-147.0750881251236
 10
78.06741398872969
 20
-147.0750881251236
 10
78.06741398872969
 20
-147.0750881251236
 10
78.06741398872969
 20
-147.0750881251236
 10
78.06741398872969
 20
-146.8232516451518
 10
78.06741398872969
 20
-146.8232516451518
 10
78.06741398872969
 20
-146.8232516451518
 10
78.31907821392718
 20
-146.8232516451518
 10
78.31907821392718
 20
-146.8232516451518
 10
78.31907821392718
 20
-146.8232516451518
 10
78.31907821392718
 20
-147.0750881251236
 10
78.31907821392718
 20
-147.0750881251236
 97
        0
 97
        1
330
EB
 75
     2
 76
     1
 98
        1
 10
0.0
 20
0.0
450
        0
451
        0
460
0.0
461
0.0
452
        0
462
0.0
453
        0
470

  0
SPLINE
  5
ED
330
E4
100
AcDbEntity
  8
レイヤー 1
100
AcDbSpline
210
0.0
220
0.0
230
1.0
 70
     9
 71
     3
 72
    53
 73
    49
 74
     0
 42
0.0000000001
 43
0.0000000001
 40
0.0
 40
0.0
 40
0.0
 40
0.0
 40
1.0
 40
1.0
 40
1.0
 40
2.0
 40
2.0
 40
2.0
 40
3.0
 40
3.0
 40
3.0
 40
4.0
 40
4.0
 40
4.0
 40
5.0
 40
5.0
 40
5.0
 40
6.0
 40
6.0
 40
6.0
 40
7.0
 40
7.0
 40
7.0
 40
8.0
 40
8.0
 40
8.0
 40
9.0
 40
9.0
 40
9.0
 40
10.0
 40
10.0
 40
10.0
 40
11.0
 40
11.0
 40
11.0
 40
12.0
 40
12.0
 40
12.0
 40
13.0
 40
13.0
 40
13.0
 40
14.0
 40
14.0
 40
14.0
 40
15.0
 40
15.0
 40
15.0
 40
16.0
 40
16.0
 40
16.0
 40
16.0
 10
78.36989337233461
 20
-146.1059827651228
 30
0.0
 10
78.36989337233461
 20
-146.184186432638
 30
0.0
 10
78.35301240445689
 20
-146.2858167494528
 30
0.0
 10
78.28945039275403
 20
-146.3874470662677
 30
0.0
 10
78.1793795920003
 20
-146.5607353691758
 30
0.0
 10
78.04829370878654
 20
-146.5820949611843
 30
0.0
 10
77.94046222009822
 20
-146.6010429863532
 30
0.0
 10
77.94046222009822
 20
-146.6010429863532
 30
0.0
 10
77.94046222009822
 20
-146.3788343275546
 30
0.0
 10
77.94046222009822
 20
-146.3788343275546
 30
0.0
 10
78.13924422959714
 20
-146.3240573093391
 30
0.0
 10
78.16887205077029
 20
-146.1969332859334
 30
0.0
 10
78.16887205077029
 20
-146.1039157078316
 30
0.0
 10
78.16887205077029
 20
-145.964389340679
 30
0.0
 10
78.06948104602082
 20
-145.812116120231
 30
0.0
 10
77.83676484599221
 20
-145.812116120231
 30
0.0
 10
77.58079425143813
 20
-145.812116120231
 30
0.0
 10
77.51103106786183
 20
-145.991950104561
 30
0.0
 10
77.51103106786183
 20
-146.1125284465448
 30
0.0
 10
77.51103106786183
 20
-146.1442233250091
 30
0.0
 10
77.51103106786183
 20
-146.2858167494528
 30
0.0
 10
77.64004989378443
 20
-146.3747002129723
 30
0.0
 10
77.64004989378443
 20
-146.3747002129723
 30
0.0
 10
77.6209296138413
 20
-146.55040008272
 30
0.0
 10
77.6209296138413
 20
-146.55040008272
 30
0.0
 10
77.6209296138413
 20
-146.55040008272
 30
0.0
 10
76.77481416266394
 20
-146.4298217407363
 30
0.0
 10
76.77481416266394
 20
-146.4298217407363
 30
0.0
 10
76.77481416266394
 20
-146.4298217407363
 30
0.0
 10
76.77481416266394
 20
-145.6512301610698
 30
0.0
 10
76.77481416266394
 20
-145.6512301610698
 30
0.0
 10
76.77481416266394
 20
-145.6512301610698
 30
0.0
 10
76.96946205758056
 20
-145.6512301610698
 30
0.0
 10
76.96946205758056
 20
-145.6512301610698
 30
0.0
 10
76.96946205758056
 20
-145.6512301610698
 30
0.0
 10
76.96946205758056
 20
-146.266868724284
 30
0.0
 10
76.96946205758056
 20
-146.266868724284
 30
0.0
 10
76.96946205758056
 20
-146.266868724284
 30
0.0
 10
77.39251978316923
 20
-146.3323255385037
 30
0.0
 10
77.39251978316923
 20
-146.3323255385037
 30
0.0
 10
77.35858559263952
 20
-146.2710028388663
 30
0.0
 10
77.31845023023637
 20
-146.1886650567688
 30
0.0
 10
77.31845023023637
 20
-146.0701537720762
 30
0.0
 10
77.31845023023637
 20
-145.8162502348133
 30
0.0
 10
77.50465764121412
 20
-145.5792276654281
 30
0.0
 10
77.81764456604907
 20
-145.5792276654281
 30
0.0
 10
78.13511011501484
 20
-145.5792276654281
 30
0.0
 10
78.36989337233461
 20
-145.8035033815179
 30
0.0
 10
78.36989337233461
 20
-146.1059827651228
 30
0.0
  0
HATCH
  5
EE
330
E4
100
AcDbEntity
  8
レイヤー 1
 62
    18
420
        0
440
 33554687
100
AcDbHatch
 10
0.0
 20
0.0
 30
0.0
210
0.0
220
0.0
230
1.0
  2
SOLID
 70
     1
 71
     1
 91
        1
 92
        1
 93
        1
 72
     4
 94
        3
 73
     0
 74
     0
 95
       53
 96
       49
 40
0.0
 40
0.0
 40
0.0
 40
0.0
 40
1.0
 40
1.0
 40
1.0
 40
2.0
 40
2.0
 40
2.0
 40
3.0
 40
3.0
 40
3.0
 40
4.0
 40
4.0
 40
4.0
 40
5.0
 40
5.0
 40
5.0
 40
6.0
 40
6.0
 40
6.0
 40
7.0
 40
7.0
 40
7.0
 40
8.0
 40
8.0
 40
8.0
 40
9.0
 40
9.0
 40
9.0
 40
10.0
 40
10.0
 40
10.0
 40
11.0
 40
11.0
 40
11.0
 40
12.0
 40
12.0
 40
12.0
 40
13.0
 40
13.0
 40
13.0
 40
14.0
 40
14.0
 40
14.0
 40
15.0
 40
15.0
 40
15.0
 40
16.0
 40
16.0
 40
16.0
 40
16.0
 10
78.36989337233461
 20
-146.1059827651228
 10
78.36989337233461
 20
-146.184186432638
 10
78.35301240445689
 20
-146.2858167494528
 10
78.28945039275403
 20
-146.3874470662677
 10
78.1793795920003
 20
-146.5607353691758
 10
78.04829370878654
 20
-146.5820949611843
 10
77.94046222009822
 20
-146.6010429863532
 10
77.94046222009822
 20
-146.6010429863532
 10
77.94046222009822
 20
-146.3788343275546
 10
77.94046222009822
 20
-146.3788343275546
 10
78.13924422959714
 20
-146.3240573093391
 10
78.16887205077029
 20
-146.1969332859334
 10
78.16887205077029
 20
-146.1039157078316
 10
78.16887205077029
 20
-145.964389340679
 10
78.06948104602082
 20
-145.812116120231
 10
77.83676484599221
 20
-145.812116120231
 10
77.58079425143813
 20
-145.812116120231
 10
77.51103106786183
 20
-145.991950104561
 10
77.51103106786183
 20
-146.1125284465448
 10
77.51103106786183
 20
-146.1442233250091
 10
77.51103106786183
 20
-146.2858167494528
 10
77.64004989378443
 20
-146.3747002129723
 10
77.64004989378443
 20
-146.3747002129723
 10
77.6209296138413
 20
-146.55040008272
 10
77.6209296138413
 20
-146.55040008272
 10
77.6209296138413
 20
-146.55040008272
 10
76.77481416266394
 20
-146.4298217407363
 10
76.77481416266394
 20
-146.4298217407363
 10
76.77481416266394
 20
-146.4298217407363
 10
76.77481416266394
 20
-145.6512301610698
 10
76.77481416266394
 20
-145.6512301610698
 10
76.77481416266394
 20
-145.6512301610698
 10
76.96946205758056
 20
-145.6512301610698
 10
76.96946205758056
 20
-145.6512301610698
 10
76.96946205758056
 20
-145.6512301610698
 10
76.96946205758056
 20
-146.266868724284
 10
76.96946205758056
 20
-146.266868724284
 10
76.96946205758056
 20
-146.266868724284
 10
77.39251978316923
 20
-146.3323255385037
 10
77.39251978316923
 20
-146.3323255385037
 10
77.35858559263952
 20
-146.2710028388663
 10
77.31845023023637
 20
-146.1886650567688
 10
77.31845023023637
 20
-146.0701537720762
 10
77.31845023023637
 20
-145.8162502348133
 10
77.50465764121412
 20
-145.5792276654281
 10
77.81764456604907
 20
-145.5792276654281
 10
78.13511011501484
 20
-145.5792276654281
 10
78.36989337233461
 20
-145.8035033815179
 10
78.36989337233461
 20
-146.1059827651228
 97
        0
 97
        1
330
ED
 75
     2
 76
     1
 98
        1
 10
0.0
 20
0.0
450
        0
451
        0
460
0.0
461
0.0
452
        0
462
0.0
453
        0
470

  0
ENDBLK
  5
E7
330
E4
100
AcDbEntity
  8
0
100
AcDbBlockEnd
  0
BLOCK
  5
F3
330
F1
100
AcDbEntity
  8
0
100
AcDbBlockBegin
  2
Block_2
 70
     0
 10
0.0
 20
0.0
 30
0.0
  3
Block_2
  1

  0
INSERT
  5
F6
330
F1
100
AcDbEntity
  8
レイヤー 1
100
AcDbBlockReference
  2
Block_3
 10
0.0
 20
0.0
 30
0.0
  0
ENDBLK
  5
F4
330
F1
100
AcDbEntity
  8
0
100
AcDbBlockEnd
  0
BLOCK
  5
F7
330
F5
100
AcDbEntity
  8
0
100
AcDbBlockBegin
  2
Block_3
 70
     0
 10
0.0
 20
0.0
 30
0.0
  3
Block_3
  1

  0
SPLINE
  5
F9
330
F5
100
AcDbEntity
  8
レイヤー 1
100
AcDbSpline
210
0.0
220
0.0
230
1.0
 70
     9
 71
     3
 72
    44
 73
    40
 74
     0
 42
0.0000000001
 43
0.0000000001
 40
0.0
 40
0.0
 40
0.0
 40
0.0
 40
1.0
 40
1.0
 40
1.0
 40
2.0
 40
2.0
 40
2.0
 40
3.0
 40
3.0
 40
3.0
 40
4.0
 40
4.0
 40
4.0
 40
5.0
 40
5.0
 40
5.0
 40
6.0
 40
6.0
 40
6.0
 40
7.0
 40
7.0
 40
7.0
 40
8.0
 40
8.0
 40
8.0
 40
9.0
 40
9.0
 40
9.0
 40
10.0
 40
10.0
 40
10.0
 40
11.0
 40
11.0
 40
11.0
 40
12.0
 40
12.0
 40
12.0
 40
13.0
 40
13.0
 40
13.0
 40
13.0
 10
93.69230005253179
 20
-140.599686651048
 30
0.0
 10
93.47439776308974
 20
-140.7583332981437
 30
0.0
 10
93.38120793021372
 20
-140.8324028510766
 30
0.0
 10
93.33263208387171
 20
-140.9762355875858
 30
0.0
 10
93.33263208387171
 20
-140.9762355875858
 30
0.0
 10
94.11105140876392
 20
-140.9762355875858
 30
0.0
 10
94.11105140876392
 20
-140.9762355875858
 30
0.0
 10
94.11105140876392
 20
-140.9762355875858
 30
0.0
 10
94.11105140876392
 20
-141.1813910237324
 30
0.0
 10
94.11105140876392
 20
-141.1813910237324
 30
0.0
 10
94.11105140876392
 20
-141.1813910237324
 30
0.0
 10
93.08303491596536
 20
-141.1813910237324
 30
0.0
 10
93.08303491596536
 20
-141.1813910237324
 30
0.0
 10
93.11472979442966
 20
-140.8237901123635
 30
0.0
 10
93.18018660864941
 20
-140.7455864448483
 30
0.0
 10
93.56534828390033
 20
-140.4472411758257
 30
0.0
 10
93.82131887845439
 20
-140.2484591663267
 30
0.0
 10
93.88677569267414
 20
-140.1807630400416
 30
0.0
 10
93.88677569267414
 20
-140.0433037301801
 30
0.0
 10
93.88677569267414
 20
-139.9247924454875
 30
0.0
 10
93.81494545180668
 20
-139.7935343074995
 30
0.0
 10
93.61823049959893
 20
-139.7935343074995
 30
0.0
 10
93.3579535356883
 20
-139.7935343074995
 30
0.0
 10
93.34951305174943
 20
-140.024183450237
 30
0.0
 10
93.34520668239287
 20
-140.1406276776384
 30
0.0
 10
93.34520668239287
 20
-140.1406276776384
 30
0.0
 10
93.12110322107736
 20
-140.1406276776384
 30
0.0
 10
93.12110322107736
 20
-140.1406276776384
 30
0.0
 10
93.12954370501623
 20
-140.013675909007
 30
0.0
 10
93.14005124624625
 20
-139.9015380509621
 30
0.0
 10
93.22049422582683
 20
-139.7830267662695
 30
0.0
 10
93.33039277180629
 20
-139.6223130618826
 30
0.0
 10
93.51660018278405
 20
-139.5883788713529
 30
0.0
 10
93.63304441018549
 20
-139.5883788713529
 30
0.0
 10
93.91020234197384
 20
-139.5883788713529
 30
0.0
 10
94.11742483541162
 20
-139.7725192250395
 30
0.0
 10
94.11742483541162
 20
-140.0453707874713
 30
0.0
 10
94.11742483541162
 20
-140.2737806181433
 30
0.0
 10
94.00115286278444
 20
-140.3733438776671
 30
0.0
 10
93.69230005253179
 20
-140.599686651048
 30
0.0
  0
HATCH
  5
FA
330
F5
100
AcDbEntity
  8
レイヤー 1
 62
    18
420
        0
440
 33554687
100
AcDbHatch
 10
0.0
 20
0.0
 30
0.0
210
0.0
220
0.0
230
1.0
  2
SOLID
 70
     1
 71
     1
 91
        1
 92
        1
 93
        1
 72
     4
 94
        3
 73
     0
 74
     0
 95
       44
 96
       40
 40
0.0
 40
0.0
 40
0.0
 40
0.0
 40
1.0
 40
1.0
 40
1.0
 40
2.0
 40
2.0
 40
2.0
 40
3.0
 40
3.0
 40
3.0
 40
4.0
 40
4.0
 40
4.0
 40
5.0
 40
5.0
 40
5.0
 40
6.0
 40
6.0
 40
6.0
 40
7.0
 40
7.0
 40
7.0
 40
8.0
 40
8.0
 40
8.0
 40
9.0
 40
9.0
 40
9.0
 40
10.0
 40
10.0
 40
10.0
 40
11.0
 40
11.0
 40
11.0
 40
12.0
 40
12.0
 40
12.0
 40
13.0
 40
13.0
 40
13.0
 40
13.0
 10
93.69230005253179
 20
-140.599686651048
 10
93.47439776308974
 20
-140.7583332981437
 10
93.38120793021372
 20
-140.8324028510766
 10
93.33263208387171
 20
-140.9762355875858
 10
93.33263208387171
 20
-140.9762355875858
 10
94.11105140876392
 20
-140.9762355875858
 10
94.11105140876392
 20
-140.9762355875858
 10
94.11105140876392
 20
-140.9762355875858
 10
94.11105140876392
 20
-141.1813910237324
 10
94.11105140876392
 20
-141.1813910237324
 10
94.11105140876392
 20
-141.1813910237324
 10
93.08303491596536
 20
-141.1813910237324
 10
93.08303491596536
 20
-141.1813910237324
 10
93.11472979442966
 20
-140.8237901123635
 10
93.18018660864941
 20
-140.7455864448483
 10
93.56534828390033
 20
-140.4472411758257
 10
93.82131887845439
 20
-140.2484591663267
 10
93.88677569267414
 20
-140.1807630400416
 10
93.88677569267414
 20
-140.0433037301801
 10
93.88677569267414
 20
-139.9247924454875
 10
93.81494545180668
 20
-139.7935343074995
 10
93.61823049959893
 20
-139.7935343074995
 10
93.3579535356883
 20
-139.7935343074995
 10
93.34951305174943
 20
-140.024183450237
 10
93.34520668239287
 20
-140.1406276776384
 10
93.34520668239287
 20
-140.1406276776384
 10
93.12110322107736
 20
-140.1406276776384
 10
93.12110322107736
 20
-140.1406276776384
 10
93.12954370501623
 20
-140.013675909007
 10
93.14005124624625
 20
-139.9015380509621
 10
93.22049422582683
 20
-139.7830267662695
 10
93.33039277180629
 20
-139.6223130618826
 10
93.51660018278405
 20
-139.5883788713529
 10
93.63304441018549
 20
-139.5883788713529
 10
93.91020234197384
 20
-139.5883788713529
 10
94.11742483541162
 20
-139.7725192250395
 10
94.11742483541162
 20
-140.0453707874713
 10
94.11742483541162
 20
-140.2737806181433
 10
94.00115286278444
 20
-140.3733438776671
 10
93.69230005253179
 20
-140.599686651048
 97
        0
 97
        1
330
F9
 75
     2
 76
     1
 98
        1
 10
0.0
 20
0.0
450
        0
451
        0
460
0.0
461
0.0
452
        0
462
0.0
453
        0
470

  0
SPLINE
  5
FB
330
F5
100
AcDbEntity
  8
レイヤー 1
100
AcDbSpline
210
0.0
220
0.0
230
1.0
 70
    11
 71
     3
 72
    26
 73
    22
 74
     0
 42
0.0000000001
 43
0.0000000001
 40
0.0
 40
0.0
 40
0.0
 40
0.0
 40
1.0
 40
1.0
 40
1.0
 40
2.0
 40
2.0
 40
2.0
 40
3.0
 40
3.0
 40
3.0
 40
4.0
 40
4.0
 40
4.0
 40
5.0
 40
5.0
 40
5.0
 40
6.0
 40
6.0
 40
6.0
 40
7.0
 40
7.0
 40
7.0
 40
7.0
 10
94.7273789910751
 20
-141.1813910237324
 30
0.0
 10
94.7273789910751
 20
-141.1813910237324
 30
0.0
 10
94.7273789910751
 20
-140.0770656659356
 30
0.0
 10
94.7273789910751
 20
-140.0770656659356
 30
0.0
 10
94.7273789910751
 20
-140.0770656659356
 30
0.0
 10
94.39733884358817
 20
-140.0770656659356
 30
0.0
 10
94.39733884358817
 20
-140.0770656659356
 30
0.0
 10
94.39733884358817
 20
-140.0770656659356
 30
0.0
 10
94.39733884358817
 20
-139.9289265600699
 30
0.0
 10
94.39733884358817
 20
-139.9289265600699
 30
0.0
 10
94.72944604836625
 20
-139.9142849042575
 30
0.0
 10
94.77595483741714
 20
-139.7513318878052
 30
0.0
 10
94.80558265859029
 20
-139.6371269724692
 30
0.0
 10
94.80558265859029
 20
-139.6371269724692
 30
0.0
 10
94.95165470716486
 20
-139.6371269724692
 30
0.0
 10
94.95165470716486
 20
-139.6371269724692
 30
0.0
 10
94.95165470716486
 20
-139.6371269724692
 30
0.0
 10
94.95165470716486
 20
-141.1813910237324
 30
0.0
 10
94.95165470716486
 20
-141.1813910237324
 30
0.0
 10
94.95165470716486
 20
-141.1813910237324
 30
0.0
 10
94.7273789910751
 20
-141.1813910237324
 30
0.0
 10
94.7273789910751
 20
-141.1813910237324
 30
0.0
  0
HATCH
  5
FC
330
F5
100
AcDbEntity
  8
レイヤー 1
 62
    18
420
        0
440
 33554687
100
AcDbHatch
 10
0.0
 20
0.0
 30
0.0
210
0.0
220
0.0
230
1.0
  2
SOLID
 70
     1
 71
     1
 91
        1
 92
        1
 93
        1
 72
     4
 94
        3
 73
     0
 74
     0
 95
       26
 96
       22
 40
0.0
 40
0.0
 40
0.0
 40
0.0
 40
1.0
 40
1.0
 40
1.0
 40
2.0
 40
2.0
 40
2.0
 40
3.0
 40
3.0
 40
3.0
 40
4.0
 40
4.0
 40
4.0
 40
5.0
 40
5.0
 40
5.0
 40
6.0
 40
6.0
 40
6.0
 40
7.0
 40
7.0
 40
7.0
 40
7.0
 10
94.7273789910751
 20
-141.1813910237324
 10
94.7273789910751
 20
-141.1813910237324
 10
94.7273789910751
 20
-140.0770656659356
 10
94.7273789910751
 20
-140.0770656659356
 10
94.7273789910751
 20
-140.0770656659356
 10
94.39733884358817
 20
-140.0770656659356
 10
94.39733884358817
 20
-140.0770656659356
 10
94.39733884358817
 20
-140.0770656659356
 10
94.39733884358817
 20
-139.9289265600699
 10
94.39733884358817
 20
-139.9289265600699
 10
94.72944604836625
 20
-139.9142849042575
 10
94.77595483741714
 20
-139.7513318878052
 10
94.80558265859029
 20
-139.6371269724692
 10
94.80558265859029
 20
-139.6371269724692
 10
94.95165470716486
 20
-139.6371269724692
 10
94.95165470716486
 20
-139.6371269724692
 10
94.95165470716486
 20
-139.6371269724692
 10
94.95165470716486
 20
-141.1813910237324
 10
94.95165470716486
 20
-141.1813910237324
 10
94.95165470716486
 20
-141.1813910237324
 10
94.7273789910751
 20
-141.1813910237324
 10
94.7273789910751
 20
-141.1813910237324
 97
        0
 97
        1
330
FB
 75
     2
 76
     1
 98
        1
 10
0.0
 20
0.0
450
        0
451
        0
460
0.0
461
0.0
452
        0
462
0.0
453
        0
470

  0
ENDBLK
  5
F8
330
F5
100
AcDbEntity
  8
0
100
AcDbBlockEnd
  0
BLOCK
  5
101
330
FF
100
AcDbEntity
  8
0
100
AcDbBlockBegin
  2
Block_4
 70
     0
 10
0.0
 20
0.0
 30
0.0
  3
Block_4
  1

  0
SPLINE
  5
103
330
FF
100
AcDbEntity
  8
レイヤー 1
100
AcDbSpline
210
0.0
220
0.0
230
1.0
 70
     9
 71
     3
 72
    17
 73
    13
 74
     0
 42
0.0000000001
 43
0.0000000001
 40
0.0
 40
0.0
 40
0.0
 40
0.0
 40
1.0
 40
1.0
 40
1.0
 40
2.0
 40
2.0
 40
2.0
 40
3.0
 40
3.0
 40
3.0
 40
4.0
 40
4.0
 40
4.0
 40
4.0
 10
78.24139131073479
 20
-150.1338161517026
 30
0.0
 10
78.24139131073479
 20
-150.3959879181302
 30
0.0
 10
78.45292017352914
 20
-150.4338839684679
 30
0.0
 10
78.56919214615631
 20
-150.4338839684679
 30
0.0
 10
78.74489201590406
 20
-150.4338839684679
 30
0.0
 10
78.90767277758211
 20
-150.338799333075
 30
0.0
 10
78.90767277758211
 20
-150.1548312341627
 30
0.0
 10
78.90767277758211
 20
-150.0342528921789
 30
0.0
 10
78.84841713523582
 20
-149.8585530224312
 30
0.0
 10
78.5628187195086
 20
-149.8585530224312
 30
0.0
 10
78.33871525819311
 20
-149.8585530224312
 30
0.0
 10
78.24139131073479
 20
-149.9980793895838
 30
0.0
 10
78.24139131073479
 20
-150.1338161517026
 30
0.0
  0
SPLINE
  5
104
330
FF
100
AcDbEntity
  8
レイヤー 1
100
AcDbSpline
210
0.0
220
0.0
230
1.0
 70
     9
 71
     3
 72
    32
 73
    28
 74
     0
 42
0.0000000001
 43
0.0000000001
 40
0.0
 40
0.0
 40
0.0
 40
0.0
 40
1.0
 40
1.0
 40
1.0
 40
2.0
 40
2.0
 40
2.0
 40
3.0
 40
3.0
 40
3.0
 40
4.0
 40
4.0
 40
4.0
 40
5.0
 40
5.0
 40
5.0
 40
6.0
 40
6.0
 40
6.0
 40
7.0
 40
7.0
 40
7.0
 40
8.0
 40
8.0
 40
8.0
 40
9.0
 40
9.0
 40
9.0
 40
9.0
 10
79.10025361520758
 20
-150.1506971195804
 30
0.0
 10
79.10025361520758
 20
-150.6667724232708
 30
0.0
 10
78.54593775163087
 20
-150.6753851619839
 30
0.0
 10
78.33234183154539
 20
-150.6753851619839
 30
0.0
 10
78.10169268880791
 20
-150.6753851619839
 30
0.0
 10
77.45435924712947
 20
-150.6560926272665
 30
0.0
 10
77.45435924712947
 20
-150.1124565596941
 30
0.0
 10
77.45435924712947
 20
-149.939168256786
 30
0.0
 10
77.52412243070577
 20
-149.6935329486877
 30
0.0
 10
77.85622963548386
 20
-149.65563689835
 30
0.0
 10
77.85622963548386
 20
-149.65563689835
 30
0.0
 10
77.85622963548386
 20
-149.8692328184354
 30
0.0
 10
77.85622963548386
 20
-149.8692328184354
 30
0.0
 10
77.79921330520298
 20
-149.8799126144397
 30
0.0
 10
77.65107419933723
 20
-149.911607492904
 30
0.0
 10
77.65107419933723
 20
-150.1145236169852
 30
0.0
 10
77.65107419933723
 20
-150.4066677141344
 30
0.0
 10
77.97904728953302
 20
-150.4466308217633
 30
0.0
 10
78.18420272567966
 20
-150.4593776750587
 30
0.0
 10
78.10599905816447
 20
-150.366360096957
 30
0.0
 10
78.04674341581819
 20
-150.2984917158976
 30
0.0
 10
78.04674341581819
 20
-150.1165906742764
 30
0.0
 10
78.04674341581819
 20
-149.9367566899463
 30
0.0
 10
78.15457490450651
 20
-149.6342773063414
 30
0.0
 10
78.56075166221746
 20
-149.6342773063414
 30
0.0
 10
78.88028426847438
 20
-149.6342773063414
 30
0.0
 10
79.10025361520758
 20
-149.8334038253888
 30
0.0
 10
79.10025361520758
 20
-150.1506971195804
 30
0.0
  0
HATCH
  5
105
330
FF
100
AcDbEntity
  8
レイヤー 1
 62
    18
420
        0
440
 33554687
100
AcDbHatch
 10
0.0
 20
0.0
 30
0.0
210
0.0
220
0.0
230
1.0
  2
SOLID
 70
     1
 71
     1
 91
        2
 92
        1
 93
        1
 72
     4
 94
        3
 73
     0
 74
     0
 95
       17
 96
       13
 40
0.0
 40
0.0
 40
0.0
 40
0.0
 40
1.0
 40
1.0
 40
1.0
 40
2.0
 40
2.0
 40
2.0
 40
3.0
 40
3.0
 40
3.0
 40
4.0
 40
4.0
 40
4.0
 40
4.0
 10
78.24139131073479
 20
-150.1338161517026
 10
78.24139131073479
 20
-150.3959879181302
 10
78.45292017352914
 20
-150.4338839684679
 10
78.56919214615631
 20
-150.4338839684679
 10
78.74489201590406
 20
-150.4338839684679
 10
78.90767277758211
 20
-150.338799333075
 10
78.90767277758211
 20
-150.1548312341627
 10
78.90767277758211
 20
-150.0342528921789
 10
78.84841713523582
 20
-149.8585530224312
 10
78.5628187195086
 20
-149.8585530224312
 10
78.33871525819311
 20
-149.8585530224312
 10
78.24139131073479
 20
-149.9980793895838
 10
78.24139131073479
 20
-150.1338161517026
 97
        0
 97
        1
330
103
 92
        1
 93
        1
 72
     4
 94
        3
 73
     0
 74
     0
 95
       32
 96
       28
 40
0.0
 40
0.0
 40
0.0
 40
0.0
 40
1.0
 40
1.0
 40
1.0
 40
2.0
 40
2.0
 40
2.0
 40
3.0
 40
3.0
 40
3.0
 40
4.0
 40
4.0
 40
4.0
 40
5.0
 40
5.0
 40
5.0
 40
6.0
 40
6.0
 40
6.0
 40
7.0
 40
7.0
 40
7.0
 40
8.0
 40
8.0
 40
8.0
 40
9.0
 40
9.0
 40
9.0
 40
9.0
 10
79.10025361520758
 20
-150.1506971195804
 10
79.10025361520758
 20
-150.6667724232708
 10
78.54593775163087
 20
-150.6753851619839
 10
78.33234183154539
 20
-150.6753851619839
 10
78.10169268880791
 20
-150.6753851619839
 10
77.45435924712947
 20
-150.6560926272665
 10
77.45435924712947
 20
-150.1124565596941
 10
77.45435924712947
 20
-149.939168256786
 10
77.52412243070577
 20
-149.6935329486877
 10
77.85622963548386
 20
-149.65563689835
 10
77.85622963548386
 20
-149.65563689835
 10
77.85622963548386
 20
-149.8692328184354
 10
77.85622963548386
 20
-149.8692328184354
 10
77.79921330520298
 20
-149.8799126144397
 10
77.65107419933723
 20
-149.911607492904
 10
77.65107419933723
 20
-150.1145236169852
 10
77.65107419933723
 20
-150.4066677141344
 10
77.97904728953302
 20
-150.4466308217633
 10
78.18420272567966
 20
-150.4593776750587
 10
78.10599905816447
 20
-150.366360096957
 10
78.04674341581819
 20
-150.2984917158976
 10
78.04674341581819
 20
-150.1165906742764
 10
78.04674341581819
 20
-149.9367566899463
 10
78.15457490450651
 20
-149.6342773063414
 10
78.56075166221746
 20
-149.6342773063414
 10
78.88028426847438
 20
-149.6342773063414
 10
79.10025361520758
 20
-149.8334038253888
 10
79.10025361520758
 20
-150.1506971195804
 97
        0
 97
        1
330
104
 75
     2
 76
     1
 98
        1
 10
0.0
 20
0.0
450
        0
451
        0
460
0.0
461
0.0
452
        0
462
0.0
453
        0
470

  0
ENDBLK
  5
102
330
FF
100
AcDbEntity
  8
0
100
AcDbBlockEnd
  0
BLOCK
  5
10A
330
108
100
AcDbEntity
  8
0
100
AcDbBlockBegin
  2
Block_5
 70
     0
 10
0.0
 20
0.0
 30
0.0
  3
Block_5
  1

  0
INSERT
  5
10D
330
108
100
AcDbEntity
  8
レイヤー 1
100
AcDbBlockReference
  2
Block_6
 10
0.0
 20
0.0
 30
0.0
  0
ENDBLK
  5
10B
330
108
100
AcDbEntity
  8
0
100
AcDbBlockEnd
  0
BLOCK
  5
10E
330
10C
100
AcDbEntity
  8
0
100
AcDbBlockBegin
  2
Block_6
 70
     0
 10
0.0
 20
0.0
 30
0.0
  3
Block_6
  1

  0
SPLINE
  5
110
330
10C
100
AcDbEntity
  8
レイヤー 1
100
AcDbSpline
210
0.0
220
0.0
230
1.0
 70
     9
 71
     3
 72
    44
 73
    40
 74
     0
 42
0.0000000001
 43
0.0000000001
 40
0.0
 40
0.0
 40
0.0
 40
0.0
 40
1.0
 40
1.0
 40
1.0
 40
2.0
 40
2.0
 40
2.0
 40
3.0
 40
3.0
 40
3.0
 40
4.0
 40
4.0
 40
4.0
 40
5.0
 40
5.0
 40
5.0
 40
6.0
 40
6.0
 40
6.0
 40
7.0
 40
7.0
 40
7.0
 40
8.0
 40
8.0
 40
8.0
 40
9.0
 40
9.0
 40
9.0
 40
10.0
 40
10.0
 40
10.0
 40
11.0
 40
11.0
 40
11.0
 40
12.0
 40
12.0
 40
12.0
 40
13.0
 40
13.0
 40
13.0
 40
13.0
 10
122.7935383807599
 20
-140.599686651048
 30
0.0
 10
122.5758083460921
 20
-140.7583332981437
 30
0.0
 10
122.4827907679904
 20
-140.8324028510766
 30
0.0
 10
122.4338704120998
 20
-140.9762355875858
 30
0.0
 10
122.4338704120998
 20
-140.9762355875858
 30
0.0
 10
123.2124619917663
 20
-140.9762355875858
 30
0.0
 10
123.2124619917663
 20
-140.9762355875858
 30
0.0
 10
123.2124619917663
 20
-140.9762355875858
 30
0.0
 10
123.2124619917663
 20
-141.1813910237324
 30
0.0
 10
123.2124619917663
 20
-141.1813910237324
 30
0.0
 10
123.2124619917663
 20
-141.1813910237324
 30
0.0
 10
122.1844454989678
 20
-141.1813910237324
 30
0.0
 10
122.1844454989678
 20
-141.1813910237324
 30
0.0
 10
122.2161403774321
 20
-140.8237901123635
 30
0.0
 10
122.2815971916518
 20
-140.7455864448483
 30
0.0
 10
122.6667588669027
 20
-140.4472411758257
 30
0.0
 10
122.9227294614568
 20
-140.2484591663267
 30
0.0
 10
122.9881862756766
 20
-140.1807630400416
 30
0.0
 10
122.9881862756766
 20
-140.0433037301801
 30
0.0
 10
122.9881862756766
 20
-139.9247924454875
 30
0.0
 10
122.9161837800348
 20
-139.7935343074995
 30
0.0
 10
122.7194688278271
 20
-139.7935343074995
 30
0.0
 10
122.4593641186907
 20
-139.7935343074995
 30
0.0
 10
122.4510958895261
 20
-140.024183450237
 30
0.0
 10
122.4466172653953
 20
-140.1406276776384
 30
0.0
 10
122.4466172653953
 20
-140.1406276776384
 30
0.0
 10
122.2223415493055
 20
-140.1406276776384
 30
0.0
 10
122.2223415493055
 20
-140.1406276776384
 30
0.0
 10
122.2309542880186
 20
-140.013675909007
 30
0.0
 10
122.2416340840229
 20
-139.9015380509621
 30
0.0
 10
122.3219048088292
 20
-139.7830267662695
 30
0.0
 10
122.4318033548087
 20
-139.6223130618826
 30
0.0
 10
122.6181830205607
 20
-139.5883788713529
 30
0.0
 10
122.7342827384136
 20
-139.5883788713529
 30
0.0
 10
123.0116129249762
 20
-139.5883788713529
 30
0.0
 10
123.2190076731883
 20
-139.7725192250395
 30
0.0
 10
123.2190076731883
 20
-140.0453707874713
 30
0.0
 10
123.2190076731883
 20
-140.2737806181433
 30
0.0
 10
123.1025634457868
 20
-140.3733438776671
 30
0.0
 10
122.7935383807599
 20
-140.599686651048
 30
0.0
  0
HATCH
  5
111
330
10C
100
AcDbEntity
  8
レイヤー 1
 62
    18
420
        0
440
 33554687
100
AcDbHatch
 10
0.0
 20
0.0
 30
0.0
210
0.0
220
0.0
230
1.0
  2
SOLID
 70
     1
 71
     1
 91
        1
 92
        1
 93
        1
 72
     4
 94
        3
 73
     0
 74
     0
 95
       44
 96
       40
 40
0.0
 40
0.0
 40
0.0
 40
0.0
 40
1.0
 40
1.0
 40
1.0
 40
2.0
 40
2.0
 40
2.0
 40
3.0
 40
3.0
 40
3.0
 40
4.0
 40
4.0
 40
4.0
 40
5.0
 40
5.0
 40
5.0
 40
6.0
 40
6.0
 40
6.0
 40
7.0
 40
7.0
 40
7.0
 40
8.0
 40
8.0
 40
8.0
 40
9.0
 40
9.0
 40
9.0
 40
10.0
 40
10.0
 40
10.0
 40
11.0
 40
11.0
 40
11.0
 40
12.0
 40
12.0
 40
12.0
 40
13.0
 40
13.0
 40
13.0
 40
13.0
 10
122.7935383807599
 20
-140.599686651048
 10
122.5758083460921
 20
-140.7583332981437
 10
122.4827907679904
 20
-140.8324028510766
 10
122.4338704120998
 20
-140.9762355875858
 10
122.4338704120998
 20
-140.9762355875858
 10
123.2124619917663
 20
-140.9762355875858
 10
123.2124619917663
 20
-140.9762355875858
 10
123.2124619917663
 20
-140.9762355875858
 10
123.2124619917663
 20
-141.1813910237324
 10
123.2124619917663
 20
-141.1813910237324
 10
123.2124619917663
 20
-141.1813910237324
 10
122.1844454989678
 20
-141.1813910237324
 10
122.1844454989678
 20
-141.1813910237324
 10
122.2161403774321
 20
-140.8237901123635
 10
122.2815971916518
 20
-140.7455864448483
 10
122.6667588669027
 20
-140.4472411758257
 10
122.9227294614568
 20
-140.2484591663267
 10
122.9881862756766
 20
-140.1807630400416
 10
122.9881862756766
 20
-140.0433037301801
 10
122.9881862756766
 20
-139.9247924454875
 10
122.9161837800348
 20
-139.7935343074995
 10
122.7194688278271
 20
-139.7935343074995
 10
122.4593641186907
 20
-139.7935343074995
 10
122.4510958895261
 20
-140.024183450237
 10
122.4466172653953
 20
-140.1406276776384
 10
122.4466172653953
 20
-140.1406276776384
 10
122.2223415493055
 20
-140.1406276776384
 10
122.2223415493055
 20
-140.1406276776384
 10
122.2309542880186
 20
-140.013675909007
 10
122.2416340840229
 20
-139.9015380509621
 10
122.3219048088292
 20
-139.7830267662695
 10
122.4318033548087
 20
-139.6223130618826
 10
122.6181830205607
 20
-139.5883788713529
 10
122.7342827384136
 20
-139.5883788713529
 10
123.0116129249762
 20
-139.5883788713529
 10
123.2190076731883
 20
-139.7725192250395
 10
123.2190076731883
 20
-140.0453707874713
 10
123.2190076731883
 20
-140.2737806181433
 10
123.1025634457868
 20
-140.3733438776671
 10
122.7935383807599
 20
-140.599686651048
 97
        0
 97
        1
330
110
 75
     2
 76
     1
 98
        1
 10
0.0
 20
0.0
450
        0
451
        0
460
0.0
461
0.0
452
        0
462
0.0
453
        0
470

  0
SPLINE
  5
112
330
10C
100
AcDbEntity
  8
レイヤー 1
100
AcDbSpline
210
0.0
220
0.0
230
1.0
 70
    11
 71
     3
 72
    26
 73
    22
 74
     0
 42
0.0000000001
 43
0.0000000001
 40
0.0
 40
0.0
 40
0.0
 40
0.0
 40
1.0
 40
1.0
 40
1.0
 40
2.0
 40
2.0
 40
2.0
 40
3.0
 40
3.0
 40
3.0
 40
4.0
 40
4.0
 40
4.0
 40
5.0
 40
5.0
 40
5.0
 40
6.0
 40
6.0
 40
6.0
 40
7.0
 40
7.0
 40
7.0
 40
7.0
 10
123.8287895740775
 20
-141.1813910237324
 30
0.0
 10
123.8287895740775
 20
-141.1813910237324
 30
0.0
 10
123.8287895740775
 20
-140.0770656659356
 30
0.0
 10
123.8287895740775
 20
-140.0770656659356
 30
0.0
 10
123.8287895740775
 20
-140.0770656659356
 30
0.0
 10
123.4987494265906
 20
-140.0770656659356
 30
0.0
 10
123.4987494265906
 20
-140.0770656659356
 30
0.0
 10
123.4987494265906
 20
-140.0770656659356
 30
0.0
 10
123.4987494265906
 20
-139.9289265600699
 30
0.0
 10
123.4987494265906
 20
-139.9289265600699
 30
0.0
 10
123.8308566313687
 20
-139.9142849042575
 30
0.0
 10
123.8773654204195
 20
-139.7513318878052
 30
0.0
 10
123.9069932415927
 20
-139.6371269724692
 30
0.0
 10
123.9069932415927
 20
-139.6371269724692
 30
0.0
 10
124.0530652901673
 20
-139.6371269724692
 30
0.0
 10
124.0530652901673
 20
-139.6371269724692
 30
0.0
 10
124.0530652901673
 20
-139.6371269724692
 30
0.0
 10
124.0530652901673
 20
-141.1813910237324
 30
0.0
 10
124.0530652901673
 20
-141.1813910237324
 30
0.0
 10
124.0530652901673
 20
-141.1813910237324
 30
0.0
 10
123.8287895740775
 20
-141.1813910237324
 30
0.0
 10
123.8287895740775
 20
-141.1813910237324
 30
0.0
  0
HATCH
  5
113
330
10C
100
AcDbEntity
  8
レイヤー 1
 62
    18
420
        0
440
 33554687
100
AcDbHatch
 10
0.0
 20
0.0
 30
0.0
210
0.0
220
0.0
230
1.0
  2
SOLID
 70
     1
 71
     1
 91
        1
 92
        1
 93
        1
 72
     4
 94
        3
 73
     0
 74
     0
 95
       26
 96
       22
 40
0.0
 40
0.0
 40
0.0
 40
0.0
 40
1.0
 40
1.0
 40
1.0
 40
2.0
 40
2.0
 40
2.0
 40
3.0
 40
3.0
 40
3.0
 40
4.0
 40
4.0
 40
4.0
 40
5.0
 40
5.0
 40
5.0
 40
6.0
 40
6.0
 40
6.0
 40
7.0
 40
7.0
 40
7.0
 40
7.0
 10
123.8287895740775
 20
-141.1813910237324
 10
123.8287895740775
 20
-141.1813910237324
 10
123.8287895740775
 20
-140.0770656659356
 10
123.8287895740775
 20
-140.0770656659356
 10
123.8287895740775
 20
-140.0770656659356
 10
123.4987494265906
 20
-140.0770656659356
 10
123.4987494265906
 20
-140.0770656659356
 10
123.4987494265906
 20
-140.0770656659356
 10
123.4987494265906
 20
-139.9289265600699
 10
123.4987494265906
 20
-139.9289265600699
 10
123.8308566313687
 20
-139.9142849042575
 10
123.8773654204195
 20
-139.7513318878052
 10
123.9069932415927
 20
-139.6371269724692
 10
123.9069932415927
 20
-139.6371269724692
 10
124.0530652901673
 20
-139.6371269724692
 10
124.0530652901673
 20
-139.6371269724692
 10
124.0530652901673
 20
-139.6371269724692
 10
124.0530652901673
 20
-141.1813910237324
 10
124.0530652901673
 20
-141.1813910237324
 10
124.0530652901673
 20
-141.1813910237324
 10
123.8287895740775
 20
-141.1813910237324
 10
123.8287895740775
 20
-141.1813910237324
 97
        0
 97
        1
330
112
 75
     2
 76
     1
 98
        1
 10
0.0
 20
0.0
450
        0
451
        0
460
0.0
461
0.0
452
        0
462
0.0
453
        0
470

  0
ENDBLK
  5
10F
330
10C
100
AcDbEntity
  8
0
100
AcDbBlockEnd
  0
BLOCK
  5
119
330
117
100
AcDbEntity
  8
0
100
AcDbBlockBegin
  2
Block_7
 70
     0
 10
0.0
 20
0.0
 30
0.0
  3
Block_7
  1

  0
SPLINE
  5
11B
330
117
100
AcDbEntity
  8
レイヤー 1
100
AcDbSpline
210
0.0
220
0.0
230
1.0
 70
     9
 71
     3
 72
    17
 73
    13
 74
     0
 42
0.0000000001
 43
0.0000000001
 40
0.0
 40
0.0
 40
0.0
 40
0.0
 40
1.0
 40
1.0
 40
1.0
 40
2.0
 40
2.0
 40
2.0
 40
3.0
 40
3.0
 40
3.0
 40
4.0
 40
4.0
 40
4.0
 40
4.0
 10
108.764076036177
 20
-139.7809597089783
 30
0.0
 10
108.5990559624335
 20
-139.7809597089783
 30
0.0
 10
108.5143066134964
 20
-139.8760443443713
 30
0.0
 10
108.5143066134964
 20
-140.0114365969416
 30
0.0
 10
108.5143066134964
 20
-140.1342542509907
 30
0.0
 10
108.5863091091381
 20
-140.2527655356833
 30
0.0
 10
108.764076036177
 20
-140.2527655356833
 30
0.0
 10
108.9418429632159
 20
-140.2527655356833
 30
0.0
 10
109.0138454588576
 20
-140.1342542509907
 30
0.0
 10
109.0138454588576
 20
-140.0114365969416
 30
0.0
 10
109.0138454588576
 20
-139.8760443443713
 30
0.0
 10
108.9270290526293
 20
-139.7809597089783
 30
0.0
 10
108.764076036177
 20
-139.7809597089783
 30
0.0
  0
SPLINE
  5
11C
330
117
100
AcDbEntity
  8
レイヤー 1
100
AcDbSpline
210
0.0
220
0.0
230
1.0
 70
     9
 71
     3
 72
    17
 73
    13
 74
     0
 42
0.0000000001
 43
0.0000000001
 40
0.0
 40
0.0
 40
0.0
 40
0.0
 40
1.0
 40
1.0
 40
1.0
 40
2.0
 40
2.0
 40
2.0
 40
3.0
 40
3.0
 40
3.0
 40
4.0
 40
4.0
 40
4.0
 40
4.0
 10
108.764076036177
 20
-140.4410400039522
 30
0.0
 10
108.6204155544421
 20
-140.4410400039522
 30
0.0
 10
108.4677978244455
 20
-140.5276841554063
 30
0.0
 10
108.4677978244455
 20
-140.7307725342617
 30
0.0
 10
108.4677978244455
 20
-140.9359279704084
 30
0.0
 10
108.5949218478512
 20
-141.0375582872232
 30
0.0
 10
108.764076036177
 20
-141.0375582872232
 30
0.0
 10
108.9501111923805
 20
-141.0375582872232
 30
0.0
 10
109.0603542479085
 20
-140.9149128879484
 30
0.0
 10
109.0603542479085
 20
-140.7371459609094
 30
0.0
 10
109.0603542479085
 20
-140.5149373021108
 30
0.0
 10
108.8974012314562
 20
-140.4410400039522
 30
0.0
 10
108.764076036177
 20
-140.4410400039522
 30
0.0
  0
SPLINE
  5
11D
330
117
100
AcDbEntity
  8
レイヤー 1
100
AcDbSpline
210
0.0
220
0.0
230
1.0
 70
     9
 71
     3
 72
    29
 73
    25
 74
     0
 42
0.0000000001
 43
0.0000000001
 40
0.0
 40
0.0
 40
0.0
 40
0.0
 40
1.0
 40
1.0
 40
1.0
 40
2.0
 40
2.0
 40
2.0
 40
3.0
 40
3.0
 40
3.0
 40
4.0
 40
4.0
 40
4.0
 40
5.0
 40
5.0
 40
5.0
 40
6.0
 40
6.0
 40
6.0
 40
7.0
 40
7.0
 40
7.0
 40
8.0
 40
8.0
 40
8.0
 40
8.0
 10
108.764076036177
 20
-141.2322061821399
 30
0.0
 10
108.4974256456187
 20
-141.2322061821399
 30
0.0
 10
108.2435221083558
 20
-141.0945746175041
 30
0.0
 10
108.2435221083558
 20
-140.7455864448483
 30
0.0
 10
108.2435221083558
 20
-140.4896158502942
 30
0.0
 10
108.3854600423481
 20
-140.3943589601271
 30
0.0
 10
108.4912244737452
 20
-140.3330362604896
 30
0.0
 10
108.3665120171792
 20
-140.2737806181433
 30
0.0
 10
108.2903754069552
 20
-140.1595757028073
 30
0.0
 10
108.2903754069552
 20
-139.9988619984204
 30
0.0
 10
108.2903754069552
 20
-139.7237711239232
 30
0.0
 10
108.4891574164541
 20
-139.5883788713529
 30
0.0
 10
108.764076036177
 20
-139.5883788713529
 30
0.0
 10
109.0476073946131
 20
-139.5883788713529
 30
0.0
 10
109.2381211749474
 20
-139.7322116078621
 30
0.0
 10
109.2381211749474
 20
-139.9988619984204
 30
0.0
 10
109.2381211749474
 20
-140.1595757028073
 30
0.0
 10
109.1595729978837
 20
-140.2737806181433
 30
0.0
 10
109.0348605413177
 20
-140.3330362604896
 30
0.0
 10
109.1237440048371
 20
-140.3838514188971
 30
0.0
 10
109.2825629067071
 20
-140.4791083090642
 30
0.0
 10
109.2825629067071
 20
-140.741452330266
 30
0.0
 10
109.2825629067071
 20
-141.1157619547384
 30
0.0
 10
109.0031656628533
 20
-141.2322061821399
 30
0.0
 10
108.764076036177
 20
-141.2322061821399
 30
0.0
  0
HATCH
  5
11E
330
117
100
AcDbEntity
  8
レイヤー 1
 62
    18
420
        0
440
 33554687
100
AcDbHatch
 10
0.0
 20
0.0
 30
0.0
210
0.0
220
0.0
230
1.0
  2
SOLID
 70
     1
 71
     1
 91
        3
 92
        1
 93
        1
 72
     4
 94
        3
 73
     0
 74
     0
 95
       17
 96
       13
 40
0.0
 40
0.0
 40
0.0
 40
0.0
 40
1.0
 40
1.0
 40
1.0
 40
2.0
 40
2.0
 40
2.0
 40
3.0
 40
3.0
 40
3.0
 40
4.0
 40
4.0
 40
4.0
 40
4.0
 10
108.764076036177
 20
-139.7809597089783
 10
108.5990559624335
 20
-139.7809597089783
 10
108.5143066134964
 20
-139.8760443443713
 10
108.5143066134964
 20
-140.0114365969416
 10
108.5143066134964
 20
-140.1342542509907
 10
108.5863091091381
 20
-140.2527655356833
 10
108.764076036177
 20
-140.2527655356833
 10
108.9418429632159
 20
-140.2527655356833
 10
109.0138454588576
 20
-140.1342542509907
 10
109.0138454588576
 20
-140.0114365969416
 10
109.0138454588576
 20
-139.8760443443713
 10
108.9270290526293
 20
-139.7809597089783
 10
108.764076036177
 20
-139.7809597089783
 97
        0
 97
        1
330
11B
 92
        1
 93
        1
 72
     4
 94
        3
 73
     0
 74
     0
 95
       17
 96
       13
 40
0.0
 40
0.0
 40
0.0
 40
0.0
 40
1.0
 40
1.0
 40
1.0
 40
2.0
 40
2.0
 40
2.0
 40
3.0
 40
3.0
 40
3.0
 40
4.0
 40
4.0
 40
4.0
 40
4.0
 10
108.764076036177
 20
-140.4410400039522
 10
108.6204155544421
 20
-140.4410400039522
 10
108.4677978244455
 20
-140.5276841554063
 10
108.4677978244455
 20
-140.7307725342617
 10
108.4677978244455
 20
-140.9359279704084
 10
108.5949218478512
 20
-141.0375582872232
 10
108.764076036177
 20
-141.0375582872232
 10
108.9501111923805
 20
-141.0375582872232
 10
109.0603542479085
 20
-140.9149128879484
 10
109.0603542479085
 20
-140.7371459609094
 10
109.0603542479085
 20
-140.5149373021108
 10
108.8974012314562
 20
-140.4410400039522
 10
108.764076036177
 20
-140.4410400039522
 97
        0
 97
        1
330
11C
 92
        1
 93
        1
 72
     4
 94
        3
 73
     0
 74
     0
 95
       29
 96
       25
 40
0.0
 40
0.0
 40
0.0
 40
0.0
 40
1.0
 40
1.0
 40
1.0
 40
2.0
 40
2.0
 40
2.0
 40
3.0
 40
3.0
 40
3.0
 40
4.0
 40
4.0
 40
4.0
 40
5.0
 40
5.0
 40
5.0
 40
6.0
 40
6.0
 40
6.0
 40
7.0
 40
7.0
 40
7.0
 40
8.0
 40
8.0
 40
8.0
 40
8.0
 10
108.764076036177
 20
-141.2322061821399
 10
108.4974256456187
 20
-141.2322061821399
 10
108.2435221083558
 20
-141.0945746175041
 10
108.2435221083558
 20
-140.7455864448483
 10
108.2435221083558
 20
-140.4896158502942
 10
108.3854600423481
 20
-140.3943589601271
 10
108.4912244737452
 20
-140.3330362604896
 10
108.3665120171792
 20
-140.2737806181433
 10
108.2903754069552
 20
-140.1595757028073
 10
108.2903754069552
 20
-139.9988619984204
 10
108.2903754069552
 20
-139.7237711239232
 10
108.4891574164541
 20
-139.5883788713529
 10
108.764076036177
 20
-139.5883788713529
 10
109.0476073946131
 20
-139.5883788713529
 10
109.2381211749474
 20
-139.7322116078621
 10
109.2381211749474
 20
-139.9988619984204
 10
109.2381211749474
 20
-140.1595757028073
 10
109.1595729978837
 20
-140.2737806181433
 10
109.0348605413177
 20
-140.3330362604896
 10
109.1237440048371
 20
-140.3838514188971
 10
109.2825629067071
 20
-140.4791083090642
 10
109.2825629067071
 20
-140.741452330266
 10
109.2825629067071
 20
-141.1157619547384
 10
109.0031656628533
 20
-141.2322061821399
 10
108.764076036177
 20
-141.2322061821399
 97
        0
 97
        1
330
11D
 75
     2
 76
     1
 98
        1
 10
0.0
 20
0.0
450
        0
451
        0
460
0.0
461
0.0
452
        0
462
0.0
453
        0
470

  0
ENDBLK
  5
11A
330
117
100
AcDbEntity
  8
0
100
AcDbBlockEnd
  0
BLOCK
  5
126
330
124
100
AcDbEntity
  8
0
100
AcDbBlockBegin
  2
Block_8
 70
     0
 10
0.0
 20
0.0
 30
0.0
  3
Block_8
  1

  0
INSERT
  5
129
330
124
100
AcDbEntity
  8
レイヤー 1
100
AcDbBlockReference
  2
Block_9
 10
0.0
 20
0.0
 30
0.0
  0
ENDBLK
  5
127
330
124
100
AcDbEntity
  8
0
100
AcDbBlockEnd
  0
BLOCK
  5
12A
330
128
100
AcDbEntity
  8
0
100
AcDbBlockBegin
  2
Block_9
 70
     0
 10
0.0
 20
0.0
 30
0.0
  3
Block_9
  1

  0
SPLINE
  5
12C
330
128
100
AcDbEntity
  8
レイヤー 1
100
AcDbSpline
210
0.0
220
0.0
230
1.0
 70
    11
 71
     3
 72
    26
 73
    22
 74
     0
 42
0.0000000001
 43
0.0000000001
 40
0.0
 40
0.0
 40
0.0
 40
0.0
 40
1.0
 40
1.0
 40
1.0
 40
2.0
 40
2.0
 40
2.0
 40
3.0
 40
3.0
 40
3.0
 40
4.0
 40
4.0
 40
4.0
 40
5.0
 40
5.0
 40
5.0
 40
6.0
 40
6.0
 40
6.0
 40
7.0
 40
7.0
 40
7.0
 40
7.0
 10
108.3155246039975
 20
-156.557196683951
 30
0.0
 10
108.3155246039975
 20
-156.557196683951
 30
0.0
 10
108.3155246039975
 20
-155.4530435809284
 30
0.0
 10
108.3155246039975
 20
-155.4530435809284
 30
0.0
 10
108.3155246039975
 20
-155.4530435809284
 30
0.0
 10
107.9854844565105
 20
-155.4530435809284
 30
0.0
 10
107.9854844565105
 20
-155.4530435809284
 30
0.0
 10
107.9854844565105
 20
-155.4530435809284
 30
0.0
 10
107.9854844565105
 20
-155.3049044750626
 30
0.0
 10
107.9854844565105
 20
-155.3049044750626
 30
0.0
 10
108.3175916612886
 20
-155.2900905644761
 30
0.0
 10
108.3641004503395
 20
-155.1271375480237
 30
0.0
 10
108.3937282715127
 20
-155.0127603779135
 30
0.0
 10
108.3937282715127
 20
-155.0127603779135
 30
0.0
 10
108.5398003200872
 20
-155.0127603779135
 30
0.0
 10
108.5398003200872
 20
-155.0127603779135
 30
0.0
 10
108.5398003200872
 20
-155.0127603779135
 30
0.0
 10
108.5398003200872
 20
-156.557196683951
 30
0.0
 10
108.5398003200872
 20
-156.557196683951
 30
0.0
 10
108.5398003200872
 20
-156.557196683951
 30
0.0
 10
108.3155246039975
 20
-156.557196683951
 30
0.0
 10
108.3155246039975
 20
-156.557196683951
 30
0.0
  0
HATCH
  5
12D
330
128
100
AcDbEntity
  8
レイヤー 1
 62
    18
420
        0
440
 33554687
100
AcDbHatch
 10
0.0
 20
0.0
 30
0.0
210
0.0
220
0.0
230
1.0
  2
SOLID
 70
     1
 71
     1
 91
        1
 92
        1
 93
        1
 72
     4
 94
        3
 73
     0
 74
     0
 95
       26
 96
       22
 40
0.0
 40
0.0
 40
0.0
 40
0.0
 40
1.0
 40
1.0
 40
1.0
 40
2.0
 40
2.0
 40
2.0
 40
3.0
 40
3.0
 40
3.0
 40
4.0
 40
4.0
 40
4.0
 40
5.0
 40
5.0
 40
5.0
 40
6.0
 40
6.0
 40
6.0
 40
7.0
 40
7.0
 40
7.0
 40
7.0
 10
108.3155246039975
 20
-156.557196683951
 10
108.3155246039975
 20
-156.557196683951
 10
108.3155246039975
 20
-155.4530435809284
 10
108.3155246039975
 20
-155.4530435809284
 10
108.3155246039975
 20
-155.4530435809284
 10
107.9854844565105
 20
-155.4530435809284
 10
107.9854844565105
 20
-155.4530435809284
 10
107.9854844565105
 20
-155.4530435809284
 10
107.9854844565105
 20
-155.3049044750626
 10
107.9854844565105
 20
-155.3049044750626
 10
108.3175916612886
 20
-155.2900905644761
 10
108.3641004503395
 20
-155.1271375480237
 10
108.3937282715127
 20
-155.0127603779135
 10
108.3937282715127
 20
-155.0127603779135
 10
108.5398003200872
 20
-155.0127603779135
 10
108.5398003200872
 20
-155.0127603779135
 10
108.5398003200872
 20
-155.0127603779135
 10
108.5398003200872
 20
-156.557196683951
 10
108.5398003200872
 20
-156.557196683951
 10
108.5398003200872
 20
-156.557196683951
 10
108.3155246039975
 20
-156.557196683951
 10
108.3155246039975
 20
-156.557196683951
 97
        0
 97
        1
330
12C
 75
     2
 76
     1
 98
        1
 10
0.0
 20
0.0
450
        0
451
        0
460
0.0
461
0.0
452
        0
462
0.0
453
        0
470

  0
SPLINE
  5
12E
330
128
100
AcDbEntity
  8
レイヤー 1
100
AcDbSpline
210
0.0
220
0.0
230
1.0
 70
     9
 71
     3
 72
    17
 73
    13
 74
     0
 42
0.0000000001
 43
0.0000000001
 40
0.0
 40
0.0
 40
0.0
 40
0.0
 40
1.0
 40
1.0
 40
1.0
 40
2.0
 40
2.0
 40
2.0
 40
3.0
 40
3.0
 40
3.0
 40
4.0
 40
4.0
 40
4.0
 40
4.0
 10
109.5409450681009
 20
-155.1567653691969
 30
0.0
 10
109.2911756454203
 20
-155.1567653691969
 30
0.0
 10
109.2446668563694
 20
-155.4402967276329
 30
0.0
 10
109.2446668563694
 20
-155.7851507857065
 30
0.0
 10
109.2446668563694
 20
-156.1045111371891
 30
0.0
 10
109.2808403589645
 20
-156.4131916926675
 30
0.0
 10
109.5409450681009
 20
-156.4131916926675
 30
0.0
 10
109.7886474334903
 20
-156.4131916926675
 30
0.0
 10
109.8372232798324
 20
-156.1320719010711
 30
0.0
 10
109.8372232798324
 20
-155.7851507857065
 30
0.0
 10
109.8372232798324
 20
-155.4654459246753
 30
0.0
 10
109.7989827199461
 20
-155.1567653691969
 30
0.0
 10
109.5409450681009
 20
-155.1567653691969
 30
0.0
  0
SPLINE
  5
12F
330
128
100
AcDbEntity
  8
レイヤー 1
100
AcDbSpline
210
0.0
220
0.0
230
1.0
 70
     9
 71
     3
 72
    29
 73
    25
 74
     0
 42
0.0000000001
 43
0.0000000001
 40
0.0
 40
0.0
 40
0.0
 40
0.0
 40
1.0
 40
1.0
 40
1.0
 40
2.0
 40
2.0
 40
2.0
 40
3.0
 40
3.0
 40
3.0
 40
4.0
 40
4.0
 40
4.0
 40
5.0
 40
5.0
 40
5.0
 40
6.0
 40
6.0
 40
6.0
 40
7.0
 40
7.0
 40
7.0
 40
8.0
 40
8.0
 40
8.0
 40
8.0
 10
109.9388535966472
 20
-156.3794297569121
 30
0.0
 10
109.8306775984104
 20
-156.5888915624153
 30
0.0
 10
109.6573892955023
 20
-156.6078395875841
 30
0.0
 10
109.5409450681009
 20
-156.6078395875841
 30
0.0
 10
109.3800591089397
 20
-156.6078395875841
 30
0.0
 10
109.2384656844959
 20
-156.5613307985332
 30
0.0
 10
109.143381049103
 20
-156.3794297569121
 30
0.0
 10
109.039683674997
 20
-156.1847818619954
 30
0.0
 10
109.0203911402796
 20
-155.9477592926103
 30
0.0
 10
109.0203911402796
 20
-155.7851507857065
 30
0.0
 10
109.0203911402796
 20
-155.641145794423
 30
0.0
 10
109.0376166177059
 20
-155.3893093144513
 30
0.0
 10
109.143381049103
 20
-155.1905273049524
 30
0.0
 10
109.2512125377913
 20
-154.9876111808711
 30
0.0
 10
109.4120984969525
 20
-154.9641845315714
 30
0.0
 10
109.5409450681009
 20
-154.9641845315714
 30
0.0
 10
109.6997639699709
 20
-154.9641845315714
 30
0.0
 10
109.8434244517058
 20
-155.0086262633312
 30
0.0
 10
109.9388535966472
 20
-155.1905273049524
 30
0.0
 10
110.0380723466224
 20
-155.3831081425778
 30
0.0
 10
110.0614989959221
 20
-155.6115179732499
 30
0.0
 10
110.0614989959221
 20
-155.7851507857065
 30
0.0
 10
110.0614989959221
 20
-155.9563720313234
 30
0.0
 10
110.0401394039136
 20
-156.1868489192866
 30
0.0
 10
109.9388535966472
 20
-156.3794297569121
 30
0.0
  0
HATCH
  5
130
330
128
100
AcDbEntity
  8
レイヤー 1
 62
    18
420
        0
440
 33554687
100
AcDbHatch
 10
0.0
 20
0.0
 30
0.0
210
0.0
220
0.0
230
1.0
  2
SOLID
 70
     1
 71
     1
 91
        2
 92
        1
 93
        1
 72
     4
 94
        3
 73
     0
 74
     0
 95
       17
 96
       13
 40
0.0
 40
0.0
 40
0.0
 40
0.0
 40
1.0
 40
1.0
 40
1.0
 40
2.0
 40
2.0
 40
2.0
 40
3.0
 40
3.0
 40
3.0
 40
4.0
 40
4.0
 40
4.0
 40
4.0
 10
109.5409450681009
 20
-155.1567653691969
 10
109.2911756454203
 20
-155.1567653691969
 10
109.2446668563694
 20
-155.4402967276329
 10
109.2446668563694
 20
-155.7851507857065
 10
109.2446668563694
 20
-156.1045111371891
 10
109.2808403589645
 20
-156.4131916926675
 10
109.5409450681009
 20
-156.4131916926675
 10
109.7886474334903
 20
-156.4131916926675
 10
109.8372232798324
 20
-156.1320719010711
 10
109.8372232798324
 20
-155.7851507857065
 10
109.8372232798324
 20
-155.4654459246753
 10
109.7989827199461
 20
-155.1567653691969
 10
109.5409450681009
 20
-155.1567653691969
 97
        0
 97
        1
330
12E
 92
        1
 93
        1
 72
     4
 94
        3
 73
     0
 74
     0
 95
       29
 96
       25
 40
0.0
 40
0.0
 40
0.0
 40
0.0
 40
1.0
 40
1.0
 40
1.0
 40
2.0
 40
2.0
 40
2.0
 40
3.0
 40
3.0
 40
3.0
 40
4.0
 40
4.0
 40
4.0
 40
5.0
 40
5.0
 40
5.0
 40
6.0
 40
6.0
 40
6.0
 40
7.0
 40
7.0
 40
7.0
 40
8.0
 40
8.0
 40
8.0
 40
8.0
 10
109.9388535966472
 20
-156.3794297569121
 10
109.8306775984104
 20
-156.5888915624153
 10
109.6573892955023
 20
-156.6078395875841
 10
109.5409450681009
 20
-156.6078395875841
 10
109.3800591089397
 20
-156.6078395875841
 10
109.2384656844959
 20
-156.5613307985332
 10
109.143381049103
 20
-156.3794297569121
 10
109.039683674997
 20
-156.1847818619954
 10
109.0203911402796
 20
-155.9477592926103
 10
109.0203911402796
 20
-155.7851507857065
 10
109.0203911402796
 20
-155.641145794423
 10
109.0376166177059
 20
-155.3893093144513
 10
109.143381049103
 20
-155.1905273049524
 10
109.2512125377913
 20
-154.9876111808711
 10
109.4120984969525
 20
-154.9641845315714
 10
109.5409450681009
 20
-154.9641845315714
 10
109.6997639699709
 20
-154.9641845315714
 10
109.8434244517058
 20
-155.0086262633312
 10
109.9388535966472
 20
-155.1905273049524
 10
110.0380723466224
 20
-155.3831081425778
 10
110.0614989959221
 20
-155.6115179732499
 10
110.0614989959221
 20
-155.7851507857065
 10
110.0614989959221
 20
-155.9563720313234
 10
110.0401394039136
 20
-156.1868489192866
 10
109.9388535966472
 20
-156.3794297569121
 97
        0
 97
        1
330
12F
 75
     2
 76
     1
 98
        1
 10
0.0
 20
0.0
450
        0
451
        0
460
0.0
461
0.0
452
        0
462
0.0
453
        0
470

  0
ENDBLK
  5
12B
330
128
100
AcDbEntity
  8
0
100
AcDbBlockEnd
  0
BLOCK
  5
134
330
132
100
AcDbEntity
  8
0
100
AcDbBlockBegin
  2
Block_10
 70
     0
 10
0.0
 20
0.0
 30
0.0
  3
Block_10
  1

  0
SPLINE
  5
136
330
132
100
AcDbEntity
  8
レイヤー 1
100
AcDbSpline
210
0.0
220
0.0
230
1.0
 70
    11
 71
     3
 72
    26
 73
    22
 74
     0
 42
0.0000000001
 43
0.0000000001
 40
0.0
 40
0.0
 40
0.0
 40
0.0
 40
1.0
 40
1.0
 40
1.0
 40
2.0
 40
2.0
 40
2.0
 40
3.0
 40
3.0
 40
3.0
 40
4.0
 40
4.0
 40
4.0
 40
5.0
 40
5.0
 40
5.0
 40
6.0
 40
6.0
 40
6.0
 40
7.0
 40
7.0
 40
7.0
 40
7.0
 10
115.6959526620482
 20
-149.5343695372692
 30
0.0
 10
115.6959526620482
 20
-149.5343695372692
 30
0.0
 10
115.6959526620482
 20
-148.4302164342466
 30
0.0
 10
115.6959526620482
 20
-148.4302164342466
 30
0.0
 10
115.6959526620482
 20
-148.4302164342466
 30
0.0
 10
115.3659125145613
 20
-148.4302164342466
 30
0.0
 10
115.3659125145613
 20
-148.4302164342466
 30
0.0
 10
115.3659125145613
 20
-148.4302164342466
 30
0.0
 10
115.3659125145613
 20
-148.2820773283808
 30
0.0
 10
115.3659125145613
 20
-148.2820773283808
 30
0.0
 10
115.6980197193394
 20
-148.2674356725685
 30
0.0
 10
115.7445285083902
 20
-148.1044826561162
 30
0.0
 10
115.7741563295634
 20
-147.9902777407802
 30
0.0
 10
115.7741563295634
 20
-147.9902777407802
 30
0.0
 10
115.920228378138
 20
-147.9902777407802
 30
0.0
 10
115.920228378138
 20
-147.9902777407802
 30
0.0
 10
115.920228378138
 20
-147.9902777407802
 30
0.0
 10
115.920228378138
 20
-149.5343695372692
 30
0.0
 10
115.920228378138
 20
-149.5343695372692
 30
0.0
 10
115.920228378138
 20
-149.5343695372692
 30
0.0
 10
115.6959526620482
 20
-149.5343695372692
 30
0.0
 10
115.6959526620482
 20
-149.5343695372692
 30
0.0
  0
HATCH
  5
137
330
132
100
AcDbEntity
  8
レイヤー 1
 62
    18
420
        0
440
 33554687
100
AcDbHatch
 10
0.0
 20
0.0
 30
0.0
210
0.0
220
0.0
230
1.0
  2
SOLID
 70
     1
 71
     1
 91
        1
 92
        1
 93
        1
 72
     4
 94
        3
 73
     0
 74
     0
 95
       26
 96
       22
 40
0.0
 40
0.0
 40
0.0
 40
0.0
 40
1.0
 40
1.0
 40
1.0
 40
2.0
 40
2.0
 40
2.0
 40
3.0
 40
3.0
 40
3.0
 40
4.0
 40
4.0
 40
4.0
 40
5.0
 40
5.0
 40
5.0
 40
6.0
 40
6.0
 40
6.0
 40
7.0
 40
7.0
 40
7.0
 40
7.0
 10
115.6959526620482
 20
-149.5343695372692
 10
115.6959526620482
 20
-149.5343695372692
 10
115.6959526620482
 20
-148.4302164342466
 10
115.6959526620482
 20
-148.4302164342466
 10
115.6959526620482
 20
-148.4302164342466
 10
115.3659125145613
 20
-148.4302164342466
 10
115.3659125145613
 20
-148.4302164342466
 10
115.3659125145613
 20
-148.4302164342466
 10
115.3659125145613
 20
-148.2820773283808
 10
115.3659125145613
 20
-148.2820773283808
 10
115.6980197193394
 20
-148.2674356725685
 10
115.7445285083902
 20
-148.1044826561162
 10
115.7741563295634
 20
-147.9902777407802
 10
115.7741563295634
 20
-147.9902777407802
 10
115.920228378138
 20
-147.9902777407802
 10
115.920228378138
 20
-147.9902777407802
 10
115.920228378138
 20
-147.9902777407802
 10
115.920228378138
 20
-149.5343695372692
 10
115.920228378138
 20
-149.5343695372692
 10
115.920228378138
 20
-149.5343695372692
 10
115.6959526620482
 20
-149.5343695372692
 10
115.6959526620482
 20
-149.5343695372692
 97
        0
 97
        1
330
136
 75
     2
 76
     1
 98
        1
 10
0.0
 20
0.0
450
        0
451
        0
460
0.0
461
0.0
452
        0
462
0.0
453
        0
470

  0
ENDBLK
  5
135
330
132
100
AcDbEntity
  8
0
100
AcDbBlockEnd
  0
BLOCK
  5
13A
330
138
100
AcDbEntity
  8
0
100
AcDbBlockBegin
  2
Block_11
 70
     0
 10
0.0
 20
0.0
 30
0.0
  3
Block_11
  1

  0
LWPOLYLINE
  5
13C
330
138
100
AcDbEntity
  8
レイヤー 1
 62
   250
420
  2299925
370
     9
100
AcDbPolyline
 90
        4
 70
     1
 43
0.0
 10
114.2194250321718
 20
-152.8884653047812
 10
114.7813294622809
 20
-152.8815861381161
 10
113.8907772627785
 20
-152.5660264159727
 10
114.1949775327955
 20
-153.4803558601886
  0
HATCH
  5
13D
330
138
100
AcDbEntity
  8
レイヤー 1
 62
   250
420
  2299925
440
 33554687
100
AcDbHatch
 10
0.0
 20
0.0
 30
0.0
210
0.0
220
0.0
230
1.0
  2
SOLID
 70
     1
 71
     1
 91
        1
 92
        1
 93
        4
 72
     1
 10
114.2194250321718
 20
-152.8884653047812
 11
114.7813294622809
 21
-152.8815861381161
 72
     1
 10
114.7813294622809
 20
-152.8815861381161
 11
113.8907772627785
 21
-152.5660264159727
 72
     1
 10
113.8907772627785
 20
-152.5660264159727
 11
114.1949775327955
 21
-153.4803558601886
 72
     1
 10
114.1949775327955
 20
-153.4803558601886
 11
114.2194250321718
 21
-152.8884653047812
 97
        1
330
13C
 75
     2
 76
     1
 98
        1
 10
0.0
 20
0.0
450
        0
451
        0
460
0.0
461
0.0
452
        0
462
0.0
453
        0
470

  0
LINE
  5
13E
330
138
100
AcDbEntity
  8
レイヤー 1
 62
   250
420
  2299925
370
     9
100
AcDbLine
 10
114.2194250321718
 20
-152.8884653047812
 30
0.0
 11
116.6237466374991
 21
-155.2776528041836
 31
0.0
  0
ENDBLK
  5
13B
330
138
100
AcDbEntity
  8
0
100
AcDbBlockEnd
  0
BLOCK
  5
141
330
13F
100
AcDbEntity
  8
0
100
AcDbBlockBegin
  2
Block_12
 70
     0
 10
0.0
 20
0.0
 30
0.0
  3
Block_12
  1

  0
INSERT
  5
144
330
13F
100
AcDbEntity
  8
レイヤー 1
100
AcDbBlockReference
  2
Block_13
 10
0.0
 20
0.0
 30
0.0
  0
ENDBLK
  5
142
330
13F
100
AcDbEntity
  8
0
100
AcDbBlockEnd
  0
BLOCK
  5
145
330
143
100
AcDbEntity
  8
0
100
AcDbBlockBegin
  2
Block_13
 70
     0
 10
0.0
 20
0.0
 30
0.0
  3
Block_13
  1

  0
SPLINE
  5
147
330
143
100
AcDbEntity
  8
レイヤー 1
100
AcDbSpline
210
0.0
220
0.0
230
1.0
 70
     9
 71
     3
 72
    38
 73
    34
 74
     0
 42
0.0000000001
 43
0.0000000001
 40
0.0
 40
0.0
 40
0.0
 40
0.0
 40
1.0
 40
1.0
 40
1.0
 40
2.0
 40
2.0
 40
2.0
 40
3.0
 40
3.0
 40
3.0
 40
4.0
 40
4.0
 40
4.0
 40
5.0
 40
5.0
 40
5.0
 40
6.0
 40
6.0
 40
6.0
 40
7.0
 40
7.0
 40
7.0
 40
8.0
 40
8.0
 40
8.0
 40
9.0
 40
9.0
 40
9.0
 40
10.0
 40
10.0
 40
10.0
 40
11.0
 40
11.0
 40
11.0
 40
11.0
 10
117.1552951096
 20
-156.3580701649035
 30
0.0
 10
117.2483126877018
 20
-156.2354247656286
 30
0.0
 10
117.3733696538164
 20
-156.0555907812986
 30
0.0
 10
117.4684542892093
 20
-155.607039349119
 30
0.0
 10
117.4684542892093
 20
-155.607039349119
 30
0.0
 10
117.6355414202439
 20
-155.6263318838365
 30
0.0
 10
117.6355414202439
 20
-155.6263318838365
 30
0.0
 10
117.610047713653
 20
-155.7469102258202
 30
0.0
 10
117.5869655739019
 20
-155.8378607466308
 30
0.0
 10
117.5487250140156
 20
-155.9456922353191
 30
0.0
 10
117.5487250140156
 20
-155.9456922353191
 30
0.0
 10
118.1771104305251
 20
-155.9456922353191
 30
0.0
 10
118.1771104305251
 20
-155.9456922353191
 30
0.0
 10
118.1771104305251
 20
-155.9456922353191
 30
0.0
 10
118.1771104305251
 20
-156.0979654557672
 30
0.0
 10
118.1771104305251
 20
-156.0979654557672
 30
0.0
 10
118.1433484947697
 20
-156.2399033897594
 30
0.0
 10
118.0479193498283
 20
-156.4979410416047
 30
0.0
 10
117.9738497968954
 20
-156.6164523262973
 30
0.0
 10
117.9738497968954
 20
-156.6164523262973
 30
0.0
 10
117.8215765764474
 20
-156.5379041492336
 30
0.0
 10
117.8215765764474
 20
-156.5379041492336
 30
0.0
 10
117.9170057213888
 20
-156.4025118966632
 30
0.0
 10
117.9824625356085
 20
-156.2144096831686
 30
0.0
 10
118.0100232994905
 20
-156.1041666276406
 30
0.0
 10
118.0100232994905
 20
-156.1041666276406
 30
0.0
 10
117.4915364289604
 20
-156.1041666276406
 30
0.0
 10
117.4915364289604
 20
-156.1041666276406
 30
0.0
 10
117.3923176789852
 20
-156.3456678211566
 30
0.0
 10
117.3182481260524
 20
-156.4342067751275
 30
0.0
 10
117.2800075661661
 20
-156.4786485068873
 30
0.0
 10
117.2800075661661
 20
-156.4786485068873
 30
0.0
 10
117.1552951096
 20
-156.3580701649035
 30
0.0
 10
117.1552951096
 20
-156.3580701649035
 30
0.0
  0
SPLINE
  5
148
330
143
100
AcDbEntity
  8
レイヤー 1
100
AcDbSpline
210
0.0
220
0.0
230
1.0
 70
     9
 71
     3
 72
    38
 73
    34
 74
     0
 42
0.0000000001
 43
0.0000000001
 40
0.0
 40
0.0
 40
0.0
 40
0.0
 40
1.0
 40
1.0
 40
1.0
 40
2.0
 40
2.0
 40
2.0
 40
3.0
 40
3.0
 40
3.0
 40
4.0
 40
4.0
 40
4.0
 40
5.0
 40
5.0
 40
5.0
 40
6.0
 40
6.0
 40
6.0
 40
7.0
 40
7.0
 40
7.0
 40
8.0
 40
8.0
 40
8.0
 40
9.0
 40
9.0
 40
9.0
 40
10.0
 40
10.0
 40
10.0
 40
11.0
 40
11.0
 40
11.0
 40
11.0
 10
117.0409179394898
 20
-157.4308728990103
 30
0.0
 10
117.1236002311357
 20
-157.3778184285375
 30
0.0
 10
117.2886203048792
 20
-157.2699869398492
 30
0.0
 10
117.3943847362764
 20
-157.0625921916371
 30
0.0
 10
117.5425238421421
 20
-156.7707926040364
 30
0.0
 10
117.5425238421421
 20
-156.5444498306555
 30
0.0
 10
117.5425238421421
 20
-156.4597004817184
 30
0.0
 10
117.5425238421421
 20
-156.4597004817184
 30
0.0
 10
117.5425238421421
 20
-156.2250894791729
 30
0.0
 10
117.5425238421421
 20
-156.2250894791729
 30
0.0
 10
117.5425238421421
 20
-156.2250894791729
 30
0.0
 10
117.7075439158856
 20
-156.2250894791729
 30
0.0
 10
117.7075439158856
 20
-156.2250894791729
 30
0.0
 10
117.7075439158856
 20
-156.2250894791729
 30
0.0
 10
117.7075439158856
 20
-156.4514322525538
 30
0.0
 10
117.7075439158856
 20
-156.4514322525538
 30
0.0
 10
117.7075439158856
 20
-156.6502142620527
 30
0.0
 10
117.7730007301053
 20
-156.8872368314379
 30
0.0
 10
117.8746310469202
 20
-157.060525134346
 30
0.0
 10
117.9910752743217
 20
-157.2593071438449
 30
0.0
 10
118.11992184547
 20
-157.3588704033686
 30
0.0
 10
118.2046711944071
 20
-157.420193103006
 30
0.0
 10
118.2046711944071
 20
-157.420193103006
 30
0.0
 10
118.0968397057188
 20
-157.5703992661629
 30
0.0
 10
118.0968397057188
 20
-157.5703992661629
 30
0.0
 10
117.9190727786799
 20
-157.441208185466
 30
0.0
 10
117.720290769181
 20
-157.2021185587897
 30
0.0
 10
117.6417425921173
 20
-156.8489962715516
 30
0.0
 10
117.5762857778976
 20
-157.0880858982279
 30
0.0
 10
117.4746554610827
 20
-157.3568033460774
 30
0.0
 10
117.1659749056043
 20
-157.5662651515806
 30
0.0
 10
117.1659749056043
 20
-157.5662651515806
 30
0.0
 10
117.0409179394898
 20
-157.4308728990103
 30
0.0
 10
117.0409179394898
 20
-157.4308728990103
 30
0.0
  0
SPLINE
  5
149
330
143
100
AcDbEntity
  8
レイヤー 1
100
AcDbSpline
210
0.0
220
0.0
230
1.0
 70
    11
 71
     3
 72
    17
 73
    13
 74
     0
 42
0.0000000001
 43
0.0000000001
 40
0.0
 40
0.0
 40
0.0
 40
0.0
 40
1.0
 40
1.0
 40
1.0
 40
2.0
 40
2.0
 40
2.0
 40
3.0
 40
3.0
 40
3.0
 40
4.0
 40
4.0
 40
4.0
 40
4.0
 10
116.9988877745697
 20
-156.5423827733644
 30
0.0
 10
116.9988877745697
 20
-156.5423827733644
 30
0.0
 10
116.7873589117754
 20
-156.5423827733644
 30
0.0
 10
116.7873589117754
 20
-156.5423827733644
 30
0.0
 10
116.7873589117754
 20
-156.5423827733644
 30
0.0
 10
116.7873589117754
 20
-156.7494330120279
 30
0.0
 10
116.7873589117754
 20
-156.7494330120279
 30
0.0
 10
116.7873589117754
 20
-156.7494330120279
 30
0.0
 10
116.9988877745697
 20
-156.7494330120279
 30
0.0
 10
116.9988877745697
 20
-156.7494330120279
 30
0.0
 10
116.9988877745697
 20
-156.7494330120279
 30
0.0
 10
116.9988877745697
 20
-156.5423827733644
 30
0.0
 10
116.9988877745697
 20
-156.5423827733644
 30
0.0
  0
SPLINE
  5
14A
330
143
100
AcDbEntity
  8
レイヤー 1
100
AcDbSpline
210
0.0
220
0.0
230
1.0
 70
    11
 71
     3
 72
    17
 73
    13
 74
     0
 42
0.0000000001
 43
0.0000000001
 40
0.0
 40
0.0
 40
0.0
 40
0.0
 40
1.0
 40
1.0
 40
1.0
 40
2.0
 40
2.0
 40
2.0
 40
3.0
 40
3.0
 40
3.0
 40
4.0
 40
4.0
 40
4.0
 40
4.0
 10
116.9988877745697
 20
-156.2164767404597
 30
0.0
 10
116.9988877745697
 20
-156.2164767404597
 30
0.0
 10
116.7873589117754
 20
-156.2164767404597
 30
0.0
 10
116.7873589117754
 20
-156.2164767404597
 30
0.0
 10
116.7873589117754
 20
-156.2164767404597
 30
0.0
 10
116.7873589117754
 20
-156.419392864541
 30
0.0
 10
116.7873589117754
 20
-156.419392864541
 30
0.0
 10
116.7873589117754
 20
-156.419392864541
 30
0.0
 10
116.9988877745697
 20
-156.419392864541
 30
0.0
 10
116.9988877745697
 20
-156.419392864541
 30
0.0
 10
116.9988877745697
 20
-156.419392864541
 30
0.0
 10
116.9988877745697
 20
-156.2164767404597
 30
0.0
 10
116.9988877745697
 20
-156.2164767404597
 30
0.0
  0
SPLINE
  5
14B
330
143
100
AcDbEntity
  8
レイヤー 1
100
AcDbSpline
210
0.0
220
0.0
230
1.0
 70
    11
 71
     3
 72
    17
 73
    13
 74
     0
 42
0.0000000001
 43
0.0000000001
 40
0.0
 40
0.0
 40
0.0
 40
0.0
 40
1.0
 40
1.0
 40
1.0
 40
2.0
 40
2.0
 40
2.0
 40
3.0
 40
3.0
 40
3.0
 40
4.0
 40
4.0
 40
4.0
 40
4.0
 10
116.6326741244876
 20
-156.5423827733644
 30
0.0
 10
116.6326741244876
 20
-156.5423827733644
 30
0.0
 10
116.4256238858241
 20
-156.5423827733644
 30
0.0
 10
116.4256238858241
 20
-156.5423827733644
 30
0.0
 10
116.4256238858241
 20
-156.5423827733644
 30
0.0
 10
116.4256238858241
 20
-156.7494330120279
 30
0.0
 10
116.4256238858241
 20
-156.7494330120279
 30
0.0
 10
116.4256238858241
 20
-156.7494330120279
 30
0.0
 10
116.6326741244876
 20
-156.7494330120279
 30
0.0
 10
116.6326741244876
 20
-156.7494330120279
 30
0.0
 10
116.6326741244876
 20
-156.7494330120279
 30
0.0
 10
116.6326741244876
 20
-156.5423827733644
 30
0.0
 10
116.6326741244876
 20
-156.5423827733644
 30
0.0
  0
SPLINE
  5
14C
330
143
100
AcDbEntity
  8
レイヤー 1
100
AcDbSpline
210
0.0
220
0.0
230
1.0
 70
    11
 71
     3
 72
    17
 73
    13
 74
     0
 42
0.0000000001
 43
0.0000000001
 40
0.0
 40
0.0
 40
0.0
 40
0.0
 40
1.0
 40
1.0
 40
1.0
 40
2.0
 40
2.0
 40
2.0
 40
3.0
 40
3.0
 40
3.0
 40
4.0
 40
4.0
 40
4.0
 40
4.0
 10
116.6326741244876
 20
-156.2164767404597
 30
0.0
 10
116.6326741244876
 20
-156.2164767404597
 30
0.0
 10
116.4256238858241
 20
-156.2164767404597
 30
0.0
 10
116.4256238858241
 20
-156.2164767404597
 30
0.0
 10
116.4256238858241
 20
-156.2164767404597
 30
0.0
 10
116.4256238858241
 20
-156.419392864541
 30
0.0
 10
116.4256238858241
 20
-156.419392864541
 30
0.0
 10
116.4256238858241
 20
-156.419392864541
 30
0.0
 10
116.6326741244876
 20
-156.419392864541
 30
0.0
 10
116.6326741244876
 20
-156.419392864541
 30
0.0
 10
116.6326741244876
 20
-156.419392864541
 30
0.0
 10
116.6326741244876
 20
-156.2164767404597
 30
0.0
 10
116.6326741244876
 20
-156.2164767404597
 30
0.0
  0
SPLINE
  5
14D
330
143
100
AcDbEntity
  8
レイヤー 1
100
AcDbSpline
210
0.0
220
0.0
230
1.0
 70
    11
 71
     3
 72
    89
 73
    85
 74
     0
 42
0.0000000001
 43
0.0000000001
 40
0.0
 40
0.0
 40
0.0
 40
0.0
 40
1.0
 40
1.0
 40
1.0
 40
2.0
 40
2.0
 40
2.0
 40
3.0
 40
3.0
 40
3.0
 40
4.0
 40
4.0
 40
4.0
 40
5.0
 40
5.0
 40
5.0
 40
6.0
 40
6.0
 40
6.0
 40
7.0
 40
7.0
 40
7.0
 40
8.0
 40
8.0
 40
8.0
 40
9.0
 40
9.0
 40
9.0
 40
10.0
 40
10.0
 40
10.0
 40
11.0
 40
11.0
 40
11.0
 40
12.0
 40
12.0
 40
12.0
 40
13.0
 40
13.0
 40
13.0
 40
14.0
 40
14.0
 40
14.0
 40
15.0
 40
15.0
 40
15.0
 40
16.0
 40
16.0
 40
16.0
 40
17.0
 40
17.0
 40
17.0
 40
18.0
 40
18.0
 40
18.0
 40
19.0
 40
19.0
 40
19.0
 40
20.0
 40
20.0
 40
20.0
 40
21.0
 40
21.0
 40
21.0
 40
22.0
 40
22.0
 40
22.0
 40
23.0
 40
23.0
 40
23.0
 40
24.0
 40
24.0
 40
24.0
 40
25.0
 40
25.0
 40
25.0
 40
26.0
 40
26.0
 40
26.0
 40
27.0
 40
27.0
 40
27.0
 40
28.0
 40
28.0
 40
28.0
 40
28.0
 10
116.6326741244876
 20
-155.7679253082802
 30
0.0
 10
116.6326741244876
 20
-155.7679253082802
 30
0.0
 10
116.6326741244876
 20
-155.607039349119
 30
0.0
 10
116.6326741244876
 20
-155.607039349119
 30
0.0
 10
116.6326741244876
 20
-155.607039349119
 30
0.0
 10
116.7873589117754
 20
-155.607039349119
 30
0.0
 10
116.7873589117754
 20
-155.607039349119
 30
0.0
 10
116.7873589117754
 20
-155.607039349119
 30
0.0
 10
116.7873589117754
 20
-155.7679253082802
 30
0.0
 10
116.7873589117754
 20
-155.7679253082802
 30
0.0
 10
116.7873589117754
 20
-155.7679253082802
 30
0.0
 10
117.1807888161909
 20
-155.7679253082802
 30
0.0
 10
117.1807888161909
 20
-155.7679253082802
 30
0.0
 10
117.1807888161909
 20
-155.7679253082802
 30
0.0
 10
117.1807888161909
 20
-155.9222655860194
 30
0.0
 10
117.1807888161909
 20
-155.9222655860194
 30
0.0
 10
117.1807888161909
 20
-155.9222655860194
 30
0.0
 10
116.7873589117754
 20
-155.9222655860194
 30
0.0
 10
116.7873589117754
 20
-155.9222655860194
 30
0.0
 10
116.7873589117754
 20
-155.9222655860194
 30
0.0
 10
116.7873589117754
 20
-156.0769503733071
 30
0.0
 10
116.7873589117754
 20
-156.0769503733071
 30
0.0
 10
116.7873589117754
 20
-156.0769503733071
 30
0.0
 10
117.1425482563046
 20
-156.0769503733071
 30
0.0
 10
117.1425482563046
 20
-156.0769503733071
 30
0.0
 10
117.1425482563046
 20
-156.0769503733071
 30
0.0
 10
117.1425482563046
 20
-156.889303888729
 30
0.0
 10
117.1425482563046
 20
-156.889303888729
 30
0.0
 10
117.1425482563046
 20
-156.889303888729
 30
0.0
 10
116.7873589117754
 20
-156.889303888729
 30
0.0
 10
116.7873589117754
 20
-156.889303888729
 30
0.0
 10
116.7873589117754
 20
-156.889303888729
 30
0.0
 10
116.7873589117754
 20
-157.0584580770548
 30
0.0
 10
116.7873589117754
 20
-157.0584580770548
 30
0.0
 10
116.7873589117754
 20
-157.0584580770548
 30
0.0
 10
117.1956027267775
 20
-157.0584580770548
 30
0.0
 10
117.1956027267775
 20
-157.0584580770548
 30
0.0
 10
117.1956027267775
 20
-157.0584580770548
 30
0.0
 10
117.1956027267775
 20
-157.212798354794
 30
0.0
 10
117.1956027267775
 20
-157.212798354794
 30
0.0
 10
117.1956027267775
 20
-157.212798354794
 30
0.0
 10
116.7873589117754
 20
-157.212798354794
 30
0.0
 10
116.7873589117754
 20
-157.212798354794
 30
0.0
 10
116.7873589117754
 20
-157.212798354794
 30
0.0
 10
116.7873589117754
 20
-157.5662651515806
 30
0.0
 10
116.7873589117754
 20
-157.5662651515806
 30
0.0
 10
116.7873589117754
 20
-157.5662651515806
 30
0.0
 10
116.6326741244876
 20
-157.5662651515806
 30
0.0
 10
116.6326741244876
 20
-157.5662651515806
 30
0.0
 10
116.6326741244876
 20
-157.5662651515806
 30
0.0
 10
116.6326741244876
 20
-157.212798354794
 30
0.0
 10
116.6326741244876
 20
-157.212798354794
 30
0.0
 10
116.6326741244876
 20
-157.212798354794
 30
0.0
 10
116.2223632521944
 20
-157.212798354794
 30
0.0
 10
116.2223632521944
 20
-157.212798354794
 30
0.0
 10
116.2223632521944
 20
-157.212798354794
 30
0.0
 10
116.2223632521944
 20
-157.0584580770548
 30
0.0
 10
116.2223632521944
 20
-157.0584580770548
 30
0.0
 10
116.2223632521944
 20
-157.0584580770548
 30
0.0
 10
116.6326741244876
 20
-157.0584580770548
 30
0.0
 10
116.6326741244876
 20
-157.0584580770548
 30
0.0
 10
116.6326741244876
 20
-157.0584580770548
 30
0.0
 10
116.6326741244876
 20
-156.889303888729
 30
0.0
 10
116.6326741244876
 20
-156.889303888729
 30
0.0
 10
116.6326741244876
 20
-156.889303888729
 30
0.0
 10
116.2836859518318
 20
-156.889303888729
 30
0.0
 10
116.2836859518318
 20
-156.889303888729
 30
0.0
 10
116.2836859518318
 20
-156.889303888729
 30
0.0
 10
116.2836859518318
 20
-156.0769503733071
 30
0.0
 10
116.2836859518318
 20
-156.0769503733071
 30
0.0
 10
116.2836859518318
 20
-156.0769503733071
 30
0.0
 10
116.6326741244876
 20
-156.0769503733071
 30
0.0
 10
116.6326741244876
 20
-156.0769503733071
 30
0.0
 10
116.6326741244876
 20
-156.0769503733071
 30
0.0
 10
116.6326741244876
 20
-155.9222655860194
 30
0.0
 10
116.6326741244876
 20
-155.9222655860194
 30
0.0
 10
116.6326741244876
 20
-155.9222655860194
 30
0.0
 10
116.2433783346544
 20
-155.9222655860194
 30
0.0
 10
116.2433783346544
 20
-155.9222655860194
 30
0.0
 10
116.2433783346544
 20
-155.9222655860194
 30
0.0
 10
116.2433783346544
 20
-155.7679253082802
 30
0.0
 10
116.2433783346544
 20
-155.7679253082802
 30
0.0
 10
116.2433783346544
 20
-155.7679253082802
 30
0.0
 10
116.6326741244876
 20
-155.7679253082802
 30
0.0
 10
116.6326741244876
 20
-155.7679253082802
 30
0.0
  0
HATCH
  5
14E
330
143
100
AcDbEntity
  8
レイヤー 1
 62
    12
420
 15007762
440
 33554687
100
AcDbHatch
 10
0.0
 20
0.0
 30
0.0
210
0.0
220
0.0
230
1.0
  2
SOLID
 70
     1
 71
     1
 91
        7
 92
        1
 93
        1
 72
     4
 94
        3
 73
     0
 74
     0
 95
       38
 96
       34
 40
0.0
 40
0.0
 40
0.0
 40
0.0
 40
1.0
 40
1.0
 40
1.0
 40
2.0
 40
2.0
 40
2.0
 40
3.0
 40
3.0
 40
3.0
 40
4.0
 40
4.0
 40
4.0
 40
5.0
 40
5.0
 40
5.0
 40
6.0
 40
6.0
 40
6.0
 40
7.0
 40
7.0
 40
7.0
 40
8.0
 40
8.0
 40
8.0
 40
9.0
 40
9.0
 40
9.0
 40
10.0
 40
10.0
 40
10.0
 40
11.0
 40
11.0
 40
11.0
 40
11.0
 10
117.1552951096
 20
-156.3580701649035
 10
117.2483126877018
 20
-156.2354247656286
 10
117.3733696538164
 20
-156.0555907812986
 10
117.4684542892093
 20
-155.607039349119
 10
117.4684542892093
 20
-155.607039349119
 10
117.6355414202439
 20
-155.6263318838365
 10
117.6355414202439
 20
-155.6263318838365
 10
117.610047713653
 20
-155.7469102258202
 10
117.5869655739019
 20
-155.8378607466308
 10
117.5487250140156
 20
-155.9456922353191
 10
117.5487250140156
 20
-155.9456922353191
 10
118.1771104305251
 20
-155.9456922353191
 10
118.1771104305251
 20
-155.9456922353191
 10
118.1771104305251
 20
-155.9456922353191
 10
118.1771104305251
 20
-156.0979654557672
 10
118.1771104305251
 20
-156.0979654557672
 10
118.1433484947697
 20
-156.2399033897594
 10
118.0479193498283
 20
-156.4979410416047
 10
117.9738497968954
 20
-156.6164523262973
 10
117.9738497968954
 20
-156.6164523262973
 10
117.8215765764474
 20
-156.5379041492336
 10
117.8215765764474
 20
-156.5379041492336
 10
117.9170057213888
 20
-156.4025118966632
 10
117.9824625356085
 20
-156.2144096831686
 10
118.0100232994905
 20
-156.1041666276406
 10
118.0100232994905
 20
-156.1041666276406
 10
117.4915364289604
 20
-156.1041666276406
 10
117.4915364289604
 20
-156.1041666276406
 10
117.3923176789852
 20
-156.3456678211566
 10
117.3182481260524
 20
-156.4342067751275
 10
117.2800075661661
 20
-156.4786485068873
 10
117.2800075661661
 20
-156.4786485068873
 10
117.1552951096
 20
-156.3580701649035
 10
117.1552951096
 20
-156.3580701649035
 97
        0
 97
        1
330
147
 92
        1
 93
        1
 72
     4
 94
        3
 73
     0
 74
     0
 95
       38
 96
       34
 40
0.0
 40
0.0
 40
0.0
 40
0.0
 40
1.0
 40
1.0
 40
1.0
 40
2.0
 40
2.0
 40
2.0
 40
3.0
 40
3.0
 40
3.0
 40
4.0
 40
4.0
 40
4.0
 40
5.0
 40
5.0
 40
5.0
 40
6.0
 40
6.0
 40
6.0
 40
7.0
 40
7.0
 40
7.0
 40
8.0
 40
8.0
 40
8.0
 40
9.0
 40
9.0
 40
9.0
 40
10.0
 40
10.0
 40
10.0
 40
11.0
 40
11.0
 40
11.0
 40
11.0
 10
117.0409179394898
 20
-157.4308728990103
 10
117.1236002311357
 20
-157.3778184285375
 10
117.2886203048792
 20
-157.2699869398492
 10
117.3943847362764
 20
-157.0625921916371
 10
117.5425238421421
 20
-156.7707926040364
 10
117.5425238421421
 20
-156.5444498306555
 10
117.5425238421421
 20
-156.4597004817184
 10
117.5425238421421
 20
-156.4597004817184
 10
117.5425238421421
 20
-156.2250894791729
 10
117.5425238421421
 20
-156.2250894791729
 10
117.5425238421421
 20
-156.2250894791729
 10
117.7075439158856
 20
-156.2250894791729
 10
117.7075439158856
 20
-156.2250894791729
 10
117.7075439158856
 20
-156.2250894791729
 10
117.7075439158856
 20
-156.4514322525538
 10
117.7075439158856
 20
-156.4514322525538
 10
117.7075439158856
 20
-156.6502142620527
 10
117.7730007301053
 20
-156.8872368314379
 10
117.8746310469202
 20
-157.060525134346
 10
117.9910752743217
 20
-157.2593071438449
 10
118.11992184547
 20
-157.3588704033686
 10
118.2046711944071
 20
-157.420193103006
 10
118.2046711944071
 20
-157.420193103006
 10
118.0968397057188
 20
-157.5703992661629
 10
118.0968397057188
 20
-157.5703992661629
 10
117.9190727786799
 20
-157.441208185466
 10
117.720290769181
 20
-157.2021185587897
 10
117.6417425921173
 20
-156.8489962715516
 10
117.5762857778976
 20
-157.0880858982279
 10
117.4746554610827
 20
-157.3568033460774
 10
117.1659749056043
 20
-157.5662651515806
 10
117.1659749056043
 20
-157.5662651515806
 10
117.0409179394898
 20
-157.4308728990103
 10
117.0409179394898
 20
-157.4308728990103
 97
        0
 97
        1
330
148
 92
        1
 93
        1
 72
     4
 94
        3
 73
     0
 74
     0
 95
       17
 96
       13
 40
0.0
 40
0.0
 40
0.0
 40
0.0
 40
1.0
 40
1.0
 40
1.0
 40
2.0
 40
2.0
 40
2.0
 40
3.0
 40
3.0
 40
3.0
 40
4.0
 40
4.0
 40
4.0
 40
4.0
 10
116.9988877745697
 20
-156.5423827733644
 10
116.9988877745697
 20
-156.5423827733644
 10
116.7873589117754
 20
-156.5423827733644
 10
116.7873589117754
 20
-156.5423827733644
 10
116.7873589117754
 20
-156.5423827733644
 10
116.7873589117754
 20
-156.7494330120279
 10
116.7873589117754
 20
-156.7494330120279
 10
116.7873589117754
 20
-156.7494330120279
 10
116.9988877745697
 20
-156.7494330120279
 10
116.9988877745697
 20
-156.7494330120279
 10
116.9988877745697
 20
-156.7494330120279
 10
116.9988877745697
 20
-156.5423827733644
 10
116.9988877745697
 20
-156.5423827733644
 97
        0
 97
        1
330
149
 92
        1
 93
        1
 72
     4
 94
        3
 73
     0
 74
     0
 95
       17
 96
       13
 40
0.0
 40
0.0
 40
0.0
 40
0.0
 40
1.0
 40
1.0
 40
1.0
 40
2.0
 40
2.0
 40
2.0
 40
3.0
 40
3.0
 40
3.0
 40
4.0
 40
4.0
 40
4.0
 40
4.0
 10
116.9988877745697
 20
-156.2164767404597
 10
116.9988877745697
 20
-156.2164767404597
 10
116.7873589117754
 20
-156.2164767404597
 10
116.7873589117754
 20
-156.2164767404597
 10
116.7873589117754
 20
-156.2164767404597
 10
116.7873589117754
 20
-156.419392864541
 10
116.7873589117754
 20
-156.419392864541
 10
116.7873589117754
 20
-156.419392864541
 10
116.9988877745697
 20
-156.419392864541
 10
116.9988877745697
 20
-156.419392864541
 10
116.9988877745697
 20
-156.419392864541
 10
116.9988877745697
 20
-156.2164767404597
 10
116.9988877745697
 20
-156.2164767404597
 97
        0
 97
        1
330
14A
 92
        1
 93
        1
 72
     4
 94
        3
 73
     0
 74
     0
 95
       17
 96
       13
 40
0.0
 40
0.0
 40
0.0
 40
0.0
 40
1.0
 40
1.0
 40
1.0
 40
2.0
 40
2.0
 40
2.0
 40
3.0
 40
3.0
 40
3.0
 40
4.0
 40
4.0
 40
4.0
 40
4.0
 10
116.6326741244876
 20
-156.5423827733644
 10
116.6326741244876
 20
-156.5423827733644
 10
116.4256238858241
 20
-156.5423827733644
 10
116.4256238858241
 20
-156.5423827733644
 10
116.4256238858241
 20
-156.5423827733644
 10
116.4256238858241
 20
-156.7494330120279
 10
116.4256238858241
 20
-156.7494330120279
 10
116.4256238858241
 20
-156.7494330120279
 10
116.6326741244876
 20
-156.7494330120279
 10
116.6326741244876
 20
-156.7494330120279
 10
116.6326741244876
 20
-156.7494330120279
 10
116.6326741244876
 20
-156.5423827733644
 10
116.6326741244876
 20
-156.5423827733644
 97
        0
 97
        1
330
14B
 92
        1
 93
        1
 72
     4
 94
        3
 73
     0
 74
     0
 95
       17
 96
       13
 40
0.0
 40
0.0
 40
0.0
 40
0.0
 40
1.0
 40
1.0
 40
1.0
 40
2.0
 40
2.0
 40
2.0
 40
3.0
 40
3.0
 40
3.0
 40
4.0
 40
4.0
 40
4.0
 40
4.0
 10
116.6326741244876
 20
-156.2164767404597
 10
116.6326741244876
 20
-156.2164767404597
 10
116.4256238858241
 20
-156.2164767404597
 10
116.4256238858241
 20
-156.2164767404597
 10
116.4256238858241
 20
-156.2164767404597
 10
116.4256238858241
 20
-156.419392864541
 10
116.4256238858241
 20
-156.419392864541
 10
116.4256238858241
 20
-156.419392864541
 10
116.6326741244876
 20
-156.419392864541
 10
116.6326741244876
 20
-156.419392864541
 10
116.6326741244876
 20
-156.419392864541
 10
116.6326741244876
 20
-156.2164767404597
 10
116.6326741244876
 20
-156.2164767404597
 97
        0
 97
        1
330
14C
 92
        1
 93
        1
 72
     4
 94
        3
 73
     0
 74
     0
 95
       89
 96
       85
 40
0.0
 40
0.0
 40
0.0
 40
0.0
 40
1.0
 40
1.0
 40
1.0
 40
2.0
 40
2.0
 40
2.0
 40
3.0
 40
3.0
 40
3.0
 40
4.0
 40
4.0
 40
4.0
 40
5.0
 40
5.0
 40
5.0
 40
6.0
 40
6.0
 40
6.0
 40
7.0
 40
7.0
 40
7.0
 40
8.0
 40
8.0
 40
8.0
 40
9.0
 40
9.0
 40
9.0
 40
10.0
 40
10.0
 40
10.0
 40
11.0
 40
11.0
 40
11.0
 40
12.0
 40
12.0
 40
12.0
 40
13.0
 40
13.0
 40
13.0
 40
14.0
 40
14.0
 40
14.0
 40
15.0
 40
15.0
 40
15.0
 40
16.0
 40
16.0
 40
16.0
 40
17.0
 40
17.0
 40
17.0
 40
18.0
 40
18.0
 40
18.0
 40
19.0
 40
19.0
 40
19.0
 40
20.0
 40
20.0
 40
20.0
 40
21.0
 40
21.0
 40
21.0
 40
22.0
 40
22.0
 40
22.0
 40
23.0
 40
23.0
 40
23.0
 40
24.0
 40
24.0
 40
24.0
 40
25.0
 40
25.0
 40
25.0
 40
26.0
 40
26.0
 40
26.0
 40
27.0
 40
27.0
 40
27.0
 40
28.0
 40
28.0
 40
28.0
 40
28.0
 10
116.6326741244876
 20
-155.7679253082802
 10
116.6326741244876
 20
-155.7679253082802
 10
116.6326741244876
 20
-155.607039349119
 10
116.6326741244876
 20
-155.607039349119
 10
116.6326741244876
 20
-155.607039349119
 10
116.7873589117754
 20
-155.607039349119
 10
116.7873589117754
 20
-155.607039349119
 10
116.7873589117754
 20
-155.607039349119
 10
116.7873589117754
 20
-155.7679253082802
 10
116.7873589117754
 20
-155.7679253082802
 10
116.7873589117754
 20
-155.7679253082802
 10
117.1807888161909
 20
-155.7679253082802
 10
117.1807888161909
 20
-155.7679253082802
 10
117.1807888161909
 20
-155.7679253082802
 10
117.1807888161909
 20
-155.9222655860194
 10
117.1807888161909
 20
-155.9222655860194
 10
117.1807888161909
 20
-155.9222655860194
 10
116.7873589117754
 20
-155.9222655860194
 10
116.7873589117754
 20
-155.9222655860194
 10
116.7873589117754
 20
-155.9222655860194
 10
116.7873589117754
 20
-156.0769503733071
 10
116.7873589117754
 20
-156.0769503733071
 10
116.7873589117754
 20
-156.0769503733071
 10
117.1425482563046
 20
-156.0769503733071
 10
117.1425482563046
 20
-156.0769503733071
 10
117.1425482563046
 20
-156.0769503733071
 10
117.1425482563046
 20
-156.889303888729
 10
117.1425482563046
 20
-156.889303888729
 10
117.1425482563046
 20
-156.889303888729
 10
116.7873589117754
 20
-156.889303888729
 10
116.7873589117754
 20
-156.889303888729
 10
116.7873589117754
 20
-156.889303888729
 10
116.7873589117754
 20
-157.0584580770548
 10
116.7873589117754
 20
-157.0584580770548
 10
116.7873589117754
 20
-157.0584580770548
 10
117.1956027267775
 20
-157.0584580770548
 10
117.1956027267775
 20
-157.0584580770548
 10
117.1956027267775
 20
-157.0584580770548
 10
117.1956027267775
 20
-157.212798354794
 10
117.1956027267775
 20
-157.212798354794
 10
117.1956027267775
 20
-157.212798354794
 10
116.7873589117754
 20
-157.212798354794
 10
116.7873589117754
 20
-157.212798354794
 10
116.7873589117754
 20
-157.212798354794
 10
116.7873589117754
 20
-157.5662651515806
 10
116.7873589117754
 20
-157.5662651515806
 10
116.7873589117754
 20
-157.5662651515806
 10
116.6326741244876
 20
-157.5662651515806
 10
116.6326741244876
 20
-157.5662651515806
 10
116.6326741244876
 20
-157.5662651515806
 10
116.6326741244876
 20
-157.212798354794
 10
116.6326741244876
 20
-157.212798354794
 10
116.6326741244876
 20
-157.212798354794
 10
116.2223632521944
 20
-157.212798354794
 10
116.2223632521944
 20
-157.212798354794
 10
116.2223632521944
 20
-157.212798354794
 10
116.2223632521944
 20
-157.0584580770548
 10
116.2223632521944
 20
-157.0584580770548
 10
116.2223632521944
 20
-157.0584580770548
 10
116.6326741244876
 20
-157.0584580770548
 10
116.6326741244876
 20
-157.0584580770548
 10
116.6326741244876
 20
-157.0584580770548
 10
116.6326741244876
 20
-156.889303888729
 10
116.6326741244876
 20
-156.889303888729
 10
116.6326741244876
 20
-156.889303888729
 10
116.2836859518318
 20
-156.889303888729
 10
116.2836859518318
 20
-156.889303888729
 10
116.2836859518318
 20
-156.889303888729
 10
116.2836859518318
 20
-156.0769503733071
 10
116.2836859518318
 20
-156.0769503733071
 10
116.2836859518318
 20
-156.0769503733071
 10
116.6326741244876
 20
-156.0769503733071
 10
116.6326741244876
 20
-156.0769503733071
 10
116.6326741244876
 20
-156.0769503733071
 10
116.6326741244876
 20
-155.9222655860194
 10
116.6326741244876
 20
-155.9222655860194
 10
116.6326741244876
 20
-155.9222655860194
 10
116.2433783346544
 20
-155.9222655860194
 10
116.2433783346544
 20
-155.9222655860194
 10
116.2433783346544
 20
-155.9222655860194
 10
116.2433783346544
 20
-155.7679253082802
 10
116.2433783346544
 20
-155.7679253082802
 10
116.2433783346544
 20
-155.7679253082802
 10
116.6326741244876
 20
-155.7679253082802
 10
116.6326741244876
 20
-155.7679253082802
 97
        0
 97
        1
330
14D
 75
     2
 76
     1
 98
        1
 10
0.0
 20
0.0
450
        0
451
        0
460
0.0
461
0.0
452
        0
462
0.0
453
        0
470

  0
SPLINE
  5
14F
330
143
100
AcDbEntity
  8
レイヤー 1
100
AcDbSpline
210
0.0
220
0.0
230
1.0
 70
     9
 71
     3
 72
    17
 73
    13
 74
     0
 42
0.0000000001
 43
0.0000000001
 40
0.0
 40
0.0
 40
0.0
 40
0.0
 40
1.0
 40
1.0
 40
1.0
 40
2.0
 40
2.0
 40
2.0
 40
3.0
 40
3.0
 40
3.0
 40
4.0
 40
4.0
 40
4.0
 40
4.0
 10
119.6698703042839
 20
-157.2572400865538
 30
0.0
 10
119.8896673962428
 20
-157.3695501993729
 30
0.0
 10
120.1563177868012
 20
-157.4074462497106
 30
0.0
 10
120.2851643579495
 20
-157.4181260457149
 30
0.0
 10
120.2851643579495
 20
-157.4181260457149
 30
0.0
 10
120.2155734291475
 20
-157.5724663234541
 30
0.0
 10
120.2155734291475
 20
-157.5724663234541
 30
0.0
 10
120.0949950871637
 20
-157.5576524128675
 30
0.0
 10
119.8324788111877
 20
-157.5173447956901
 30
0.0
 10
119.568239987469
 20
-157.371617256664
 30
0.0
 10
119.568239987469
 20
-157.371617256664
 30
0.0
 10
119.6698703042839
 20
-157.2572400865538
 30
0.0
 10
119.6698703042839
 20
-157.2572400865538
 30
0.0
  0
SPLINE
  5
150
330
143
100
AcDbEntity
  8
レイヤー 1
100
AcDbSpline
210
0.0
220
0.0
230
1.0
 70
    11
 71
     3
 72
    50
 73
    46
 74
     0
 42
0.0000000001
 43
0.0000000001
 40
0.0
 40
0.0
 40
0.0
 40
0.0
 40
1.0
 40
1.0
 40
1.0
 40
2.0
 40
2.0
 40
2.0
 40
3.0
 40
3.0
 40
3.0
 40
4.0
 40
4.0
 40
4.0
 40
5.0
 40
5.0
 40
5.0
 40
6.0
 40
6.0
 40
6.0
 40
7.0
 40
7.0
 40
7.0
 40
8.0
 40
8.0
 40
8.0
 40
9.0
 40
9.0
 40
9.0
 40
10.0
 40
10.0
 40
10.0
 40
11.0
 40
11.0
 40
11.0
 40
12.0
 40
12.0
 40
12.0
 40
13.0
 40
13.0
 40
13.0
 40
14.0
 40
14.0
 40
14.0
 40
15.0
 40
15.0
 40
15.0
 40
15.0
 10
119.5575601914648
 20
-155.9053846181417
 30
0.0
 10
119.5575601914648
 20
-155.9053846181417
 30
0.0
 10
120.2937770966626
 20
-155.9053846181417
 30
0.0
 10
120.2937770966626
 20
-155.9053846181417
 30
0.0
 10
120.2937770966626
 20
-155.9053846181417
 30
0.0
 10
120.2937770966626
 20
-156.0304415842563
 30
0.0
 10
120.2937770966626
 20
-156.0304415842563
 30
0.0
 10
120.2937770966626
 20
-156.0304415842563
 30
0.0
 10
119.9637369491757
 20
-156.0304415842563
 30
0.0
 10
119.9637369491757
 20
-156.0304415842563
 30
0.0
 10
119.9637369491757
 20
-156.0304415842563
 30
0.0
 10
119.9637369491757
 20
-156.3053602039792
 30
0.0
 10
119.9637369491757
 20
-156.3053602039792
 30
0.0
 10
119.9637369491757
 20
-156.3053602039792
 30
0.0
 10
119.8073296141454
 20
-156.3053602039792
 30
0.0
 10
119.8073296141454
 20
-156.3053602039792
 30
0.0
 10
119.8073296141454
 20
-156.3053602039792
 30
0.0
 10
119.8073296141454
 20
-156.0304415842563
 30
0.0
 10
119.8073296141454
 20
-156.0304415842563
 30
0.0
 10
119.8073296141454
 20
-156.0304415842563
 30
0.0
 10
119.5427462808782
 20
-156.0304415842563
 30
0.0
 10
119.5427462808782
 20
-156.0304415842563
 30
0.0
 10
119.5172525742873
 20
-156.1592881554046
 30
0.0
 10
119.4666096706542
 20
-156.2502386762152
 30
0.0
 10
119.3694579779701
 20
-156.3329209678612
 30
0.0
 10
119.3694579779701
 20
-156.3329209678612
 30
0.0
 10
119.2464680691467
 20
-156.2250894791729
 30
0.0
 10
119.2464680691467
 20
-156.2250894791729
 30
0.0
 10
119.381860321717
 20
-156.1148464236449
 30
0.0
 10
119.4052869710167
 20
-155.9773871137834
 30
0.0
 10
119.4052869710167
 20
-155.9033175608505
 30
0.0
 10
119.4052869710167
 20
-155.9033175608505
 30
0.0
 10
119.4052869710167
 20
-155.6600938195919
 30
0.0
 10
119.4052869710167
 20
-155.6600938195919
 30
0.0
 10
119.8748534856563
 20
-155.6600938195919
 30
0.0
 10
120.0419406166909
 20
-155.6197862024145
 30
0.0
 10
120.1859456079743
 20
-155.5774115279459
 30
0.0
 10
120.1859456079743
 20
-155.5774115279459
 30
0.0
 10
120.2452012503206
 20
-155.7152153473559
 30
0.0
 10
120.2452012503206
 20
-155.7152153473559
 30
0.0
 10
119.97441674518
 20
-155.784806276158
 30
0.0
 10
119.6591905082796
 20
-155.7892849002888
 30
0.0
 10
119.5575601914648
 20
-155.7892849002888
 30
0.0
 10
119.5575601914648
 20
-155.7892849002888
 30
0.0
 10
119.5575601914648
 20
-155.9053846181417
 30
0.0
 10
119.5575601914648
 20
-155.9053846181417
 30
0.0
  0
SPLINE
  5
151
330
143
100
AcDbEntity
  8
レイヤー 1
100
AcDbSpline
210
0.0
220
0.0
230
1.0
 70
    11
 71
     3
 72
    17
 73
    13
 74
     0
 42
0.0000000001
 43
0.0000000001
 40
0.0
 40
0.0
 40
0.0
 40
0.0
 40
1.0
 40
1.0
 40
1.0
 40
2.0
 40
2.0
 40
2.0
 40
3.0
 40
3.0
 40
3.0
 40
4.0
 40
4.0
 40
4.0
 40
4.0
 10
119.8938015108252
 20
-156.9757757854088
 30
0.0
 10
119.8938015108252
 20
-156.9757757854088
 30
0.0
 10
118.7345268800386
 20
-156.9757757854088
 30
0.0
 10
118.7345268800386
 20
-156.9757757854088
 30
0.0
 10
118.7345268800386
 20
-156.9757757854088
 30
0.0
 10
118.7345268800386
 20
-157.11564666211
 30
0.0
 10
118.7345268800386
 20
-157.11564666211
 30
0.0
 10
118.7345268800386
 20
-157.11564666211
 30
0.0
 10
119.8938015108252
 20
-157.11564666211
 30
0.0
 10
119.8938015108252
 20
-157.11564666211
 30
0.0
 10
119.8938015108252
 20
-157.11564666211
 30
0.0
 10
119.8938015108252
 20
-156.9757757854088
 30
0.0
 10
119.8938015108252
 20
-156.9757757854088
 30
0.0
  0
SPLINE
  5
152
330
143
100
AcDbEntity
  8
レイヤー 1
100
AcDbSpline
210
0.0
220
0.0
230
1.0
 70
    11
 71
     3
 72
    17
 73
    13
 74
     0
 42
0.0000000001
 43
0.0000000001
 40
0.0
 40
0.0
 40
0.0
 40
0.0
 40
1.0
 40
1.0
 40
1.0
 40
2.0
 40
2.0
 40
2.0
 40
3.0
 40
3.0
 40
3.0
 40
4.0
 40
4.0
 40
4.0
 40
4.0
 10
119.8938015108252
 20
-156.7242838149856
 30
0.0
 10
119.8938015108252
 20
-156.7242838149856
 30
0.0
 10
118.7345268800386
 20
-156.7242838149856
 30
0.0
 10
118.7345268800386
 20
-156.7242838149856
 30
0.0
 10
118.7345268800386
 20
-156.7242838149856
 30
0.0
 10
118.7345268800386
 20
-156.8658772394293
 30
0.0
 10
118.7345268800386
 20
-156.8658772394293
 30
0.0
 10
118.7345268800386
 20
-156.8658772394293
 30
0.0
 10
119.8938015108252
 20
-156.8658772394293
 30
0.0
 10
119.8938015108252
 20
-156.8658772394293
 30
0.0
 10
119.8938015108252
 20
-156.8658772394293
 30
0.0
 10
119.8938015108252
 20
-156.7242838149856
 30
0.0
 10
119.8938015108252
 20
-156.7242838149856
 30
0.0
  0
SPLINE
  5
153
330
143
100
AcDbEntity
  8
レイヤー 1
100
AcDbSpline
210
0.0
220
0.0
230
1.0
 70
    11
 71
     3
 72
    17
 73
    13
 74
     0
 42
0.0000000001
 43
0.0000000001
 40
0.0
 40
0.0
 40
0.0
 40
0.0
 40
1.0
 40
1.0
 40
1.0
 40
2.0
 40
2.0
 40
2.0
 40
3.0
 40
3.0
 40
3.0
 40
4.0
 40
4.0
 40
4.0
 40
4.0
 10
119.8938015108252
 20
-156.4851941883092
 30
0.0
 10
119.8938015108252
 20
-156.4851941883092
 30
0.0
 10
118.7345268800386
 20
-156.4851941883092
 30
0.0
 10
118.7345268800386
 20
-156.4851941883092
 30
0.0
 10
118.7345268800386
 20
-156.4851941883092
 30
0.0
 10
118.7345268800386
 20
-156.6140407594576
 30
0.0
 10
118.7345268800386
 20
-156.6140407594576
 30
0.0
 10
118.7345268800386
 20
-156.6140407594576
 30
0.0
 10
119.8938015108252
 20
-156.6140407594576
 30
0.0
 10
119.8938015108252
 20
-156.6140407594576
 30
0.0
 10
119.8938015108252
 20
-156.6140407594576
 30
0.0
 10
119.8938015108252
 20
-156.4851941883092
 30
0.0
 10
119.8938015108252
 20
-156.4851941883092
 30
0.0
  0
SPLINE
  5
154
330
143
100
AcDbEntity
  8
レイヤー 1
100
AcDbSpline
210
0.0
220
0.0
230
1.0
 70
    11
 71
     3
 72
    32
 73
    28
 74
     0
 42
0.0000000001
 43
0.0000000001
 40
0.0
 40
0.0
 40
0.0
 40
0.0
 40
1.0
 40
1.0
 40
1.0
 40
2.0
 40
2.0
 40
2.0
 40
3.0
 40
3.0
 40
3.0
 40
4.0
 40
4.0
 40
4.0
 40
5.0
 40
5.0
 40
5.0
 40
6.0
 40
6.0
 40
6.0
 40
7.0
 40
7.0
 40
7.0
 40
8.0
 40
8.0
 40
8.0
 40
9.0
 40
9.0
 40
9.0
 40
9.0
 10
118.5653726917128
 20
-157.2510389146803
 30
0.0
 10
118.5653726917128
 20
-157.2510389146803
 30
0.0
 10
118.5653726917128
 20
-156.3518689930301
 30
0.0
 10
118.5653726917128
 20
-156.3518689930301
 30
0.0
 10
118.5653726917128
 20
-156.3518689930301
 30
0.0
 10
120.0633002086994
 20
-156.3518689930301
 30
0.0
 10
120.0633002086994
 20
-156.3518689930301
 30
0.0
 10
120.0633002086994
 20
-156.3518689930301
 30
0.0
 10
120.0633002086994
 20
-157.2510389146803
 30
0.0
 10
120.0633002086994
 20
-157.2510389146803
 30
0.0
 10
120.0633002086994
 20
-157.2510389146803
 30
0.0
 10
118.9188394884994
 20
-157.2510389146803
 30
0.0
 10
118.9188394884994
 20
-157.2510389146803
 30
0.0
 10
118.9188394884994
 20
-157.2510389146803
 30
0.0
 10
119.0246039198966
 20
-157.3609374606597
 30
0.0
 10
119.0246039198966
 20
-157.3609374606597
 30
0.0
 10
118.8595838461532
 20
-157.4560220960526
 30
0.0
 10
118.6945637724097
 20
-157.5173447956901
 30
0.0
 10
118.3982855606782
 20
-157.5683322088718
 30
0.0
 10
118.3982855606782
 20
-157.5683322088718
 30
0.0
 10
118.3328287464584
 20
-157.4160589884237
 30
0.0
 10
118.3328287464584
 20
-157.4160589884237
 30
0.0
 10
118.7114447402874
 20
-157.3630045179509
 30
0.0
 10
118.8340901395623
 20
-157.29548064644
 30
0.0
 10
118.9143608643686
 20
-157.2510389146803
 30
0.0
 10
118.9143608643686
 20
-157.2510389146803
 30
0.0
 10
118.5653726917128
 20
-157.2510389146803
 30
0.0
 10
118.5653726917128
 20
-157.2510389146803
 30
0.0
  0
SPLINE
  5
155
330
143
100
AcDbEntity
  8
レイヤー 1
100
AcDbSpline
210
0.0
220
0.0
230
1.0
 70
    11
 71
     3
 72
    50
 73
    46
 74
     0
 42
0.0000000001
 43
0.0000000001
 40
0.0
 40
0.0
 40
0.0
 40
0.0
 40
1.0
 40
1.0
 40
1.0
 40
2.0
 40
2.0
 40
2.0
 40
3.0
 40
3.0
 40
3.0
 40
4.0
 40
4.0
 40
4.0
 40
5.0
 40
5.0
 40
5.0
 40
6.0
 40
6.0
 40
6.0
 40
7.0
 40
7.0
 40
7.0
 40
8.0
 40
8.0
 40
8.0
 40
9.0
 40
9.0
 40
9.0
 40
10.0
 40
10.0
 40
10.0
 40
11.0
 40
11.0
 40
11.0
 40
12.0
 40
12.0
 40
12.0
 40
13.0
 40
13.0
 40
13.0
 40
14.0
 40
14.0
 40
14.0
 40
15.0
 40
15.0
 40
15.0
 40
15.0
 10
118.6501220406499
 20
-155.9053846181417
 30
0.0
 10
118.6501220406499
 20
-155.9053846181417
 30
0.0
 10
119.3015895969107
 20
-155.9053846181417
 30
0.0
 10
119.3015895969107
 20
-155.9053846181417
 30
0.0
 10
119.3015895969107
 20
-155.9053846181417
 30
0.0
 10
119.3015895969107
 20
-156.0304415842563
 30
0.0
 10
119.3015895969107
 20
-156.0304415842563
 30
0.0
 10
119.3015895969107
 20
-156.0304415842563
 30
0.0
 10
119.0246039198966
 20
-156.0304415842563
 30
0.0
 10
119.0246039198966
 20
-156.0304415842563
 30
0.0
 10
119.0246039198966
 20
-156.0304415842563
 30
0.0
 10
119.0246039198966
 20
-156.3053602039792
 30
0.0
 10
119.0246039198966
 20
-156.3053602039792
 30
0.0
 10
119.0246039198966
 20
-156.3053602039792
 30
0.0
 10
118.8637179607354
 20
-156.3053602039792
 30
0.0
 10
118.8637179607354
 20
-156.3053602039792
 30
0.0
 10
118.8637179607354
 20
-156.3053602039792
 30
0.0
 10
118.8637179607354
 20
-156.0304415842563
 30
0.0
 10
118.8637179607354
 20
-156.0304415842563
 30
0.0
 10
118.8637179607354
 20
-156.0304415842563
 30
0.0
 10
118.643576359228
 20
-156.0304415842563
 30
0.0
 10
118.643576359228
 20
-156.0304415842563
 30
0.0
 10
118.6332410727722
 20
-156.1000325130583
 30
0.0
 10
118.6077473661814
 20
-156.2946804079749
 30
0.0
 10
118.4534070884422
 20
-156.4448865711318
 30
0.0
 10
118.4534070884422
 20
-156.4448865711318
 30
0.0
 10
118.3307616891673
 20
-156.3349880251523
 30
0.0
 10
118.3307616891673
 20
-156.3349880251523
 30
0.0
 10
118.451340031151
 20
-156.2354247656286
 30
0.0
 10
118.4933701960711
 20
-156.0304415842563
 30
0.0
 10
118.4933701960711
 20
-155.9477592926103
 30
0.0
 10
118.4933701960711
 20
-155.9477592926103
 30
0.0
 10
118.4933701960711
 20
-155.662160876883
 30
0.0
 10
118.4933701960711
 20
-155.662160876883
 30
0.0
 10
118.9780951308457
 20
-155.662160876883
 30
0.0
 10
119.1324354085849
 20
-155.6156520878322
 30
0.0
 10
119.2275200439778
 20
-155.5880913239502
 30
0.0
 10
119.2275200439778
 20
-155.5880913239502
 30
0.0
 10
119.2805745144507
 20
-155.7276176911028
 30
0.0
 10
119.2805745144507
 20
-155.7276176911028
 30
0.0
 10
119.0711127089475
 20
-155.7765380469934
 30
0.0
 10
118.9081596924952
 20
-155.7868733334491
 30
0.0
 10
118.6501220406499
 20
-155.7913519575799
 30
0.0
 10
118.6501220406499
 20
-155.7913519575799
 30
0.0
 10
118.6501220406499
 20
-155.9053846181417
 30
0.0
 10
118.6501220406499
 20
-155.9053846181417
 30
0.0
  0
HATCH
  5
156
330
143
100
AcDbEntity
  8
レイヤー 1
 62
    12
420
 15007762
440
 33554687
100
AcDbHatch
 10
0.0
 20
0.0
 30
0.0
210
0.0
220
0.0
230
1.0
  2
SOLID
 70
     1
 71
     1
 91
        7
 92
        1
 93
        1
 72
     4
 94
        3
 73
     0
 74
     0
 95
       17
 96
       13
 40
0.0
 40
0.0
 40
0.0
 40
0.0
 40
1.0
 40
1.0
 40
1.0
 40
2.0
 40
2.0
 40
2.0
 40
3.0
 40
3.0
 40
3.0
 40
4.0
 40
4.0
 40
4.0
 40
4.0
 10
119.6698703042839
 20
-157.2572400865538
 10
119.8896673962428
 20
-157.3695501993729
 10
120.1563177868012
 20
-157.4074462497106
 10
120.2851643579495
 20
-157.4181260457149
 10
120.2851643579495
 20
-157.4181260457149
 10
120.2155734291475
 20
-157.5724663234541
 10
120.2155734291475
 20
-157.5724663234541
 10
120.0949950871637
 20
-157.5576524128675
 10
119.8324788111877
 20
-157.5173447956901
 10
119.568239987469
 20
-157.371617256664
 10
119.568239987469
 20
-157.371617256664
 10
119.6698703042839
 20
-157.2572400865538
 10
119.6698703042839
 20
-157.2572400865538
 97
        0
 97
        1
330
14F
 92
        1
 93
        1
 72
     4
 94
        3
 73
     0
 74
     0
 95
       50
 96
       46
 40
0.0
 40
0.0
 40
0.0
 40
0.0
 40
1.0
 40
1.0
 40
1.0
 40
2.0
 40
2.0
 40
2.0
 40
3.0
 40
3.0
 40
3.0
 40
4.0
 40
4.0
 40
4.0
 40
5.0
 40
5.0
 40
5.0
 40
6.0
 40
6.0
 40
6.0
 40
7.0
 40
7.0
 40
7.0
 40
8.0
 40
8.0
 40
8.0
 40
9.0
 40
9.0
 40
9.0
 40
10.0
 40
10.0
 40
10.0
 40
11.0
 40
11.0
 40
11.0
 40
12.0
 40
12.0
 40
12.0
 40
13.0
 40
13.0
 40
13.0
 40
14.0
 40
14.0
 40
14.0
 40
15.0
 40
15.0
 40
15.0
 40
15.0
 10
119.5575601914648
 20
-155.9053846181417
 10
119.5575601914648
 20
-155.9053846181417
 10
120.2937770966626
 20
-155.9053846181417
 10
120.2937770966626
 20
-155.9053846181417
 10
120.2937770966626
 20
-155.9053846181417
 10
120.2937770966626
 20
-156.0304415842563
 10
120.2937770966626
 20
-156.0304415842563
 10
120.2937770966626
 20
-156.0304415842563
 10
119.9637369491757
 20
-156.0304415842563
 10
119.9637369491757
 20
-156.0304415842563
 10
119.9637369491757
 20
-156.0304415842563
 10
119.9637369491757
 20
-156.3053602039792
 10
119.9637369491757
 20
-156.3053602039792
 10
119.9637369491757
 20
-156.3053602039792
 10
119.8073296141454
 20
-156.3053602039792
 10
119.8073296141454
 20
-156.3053602039792
 10
119.8073296141454
 20
-156.3053602039792
 10
119.8073296141454
 20
-156.0304415842563
 10
119.8073296141454
 20
-156.0304415842563
 10
119.8073296141454
 20
-156.0304415842563
 10
119.5427462808782
 20
-156.0304415842563
 10
119.5427462808782
 20
-156.0304415842563
 10
119.5172525742873
 20
-156.1592881554046
 10
119.4666096706542
 20
-156.2502386762152
 10
119.3694579779701
 20
-156.3329209678612
 10
119.3694579779701
 20
-156.3329209678612
 10
119.2464680691467
 20
-156.2250894791729
 10
119.2464680691467
 20
-156.2250894791729
 10
119.381860321717
 20
-156.1148464236449
 10
119.4052869710167
 20
-155.9773871137834
 10
119.4052869710167
 20
-155.9033175608505
 10
119.4052869710167
 20
-155.9033175608505
 10
119.4052869710167
 20
-155.6600938195919
 10
119.4052869710167
 20
-155.6600938195919
 10
119.8748534856563
 20
-155.6600938195919
 10
120.0419406166909
 20
-155.6197862024145
 10
120.1859456079743
 20
-155.5774115279459
 10
120.1859456079743
 20
-155.5774115279459
 10
120.2452012503206
 20
-155.7152153473559
 10
120.2452012503206
 20
-155.7152153473559
 10
119.97441674518
 20
-155.784806276158
 10
119.6591905082796
 20
-155.7892849002888
 10
119.5575601914648
 20
-155.7892849002888
 10
119.5575601914648
 20
-155.7892849002888
 10
119.5575601914648
 20
-155.9053846181417
 10
119.5575601914648
 20
-155.9053846181417
 97
        0
 97
        1
330
150
 92
        1
 93
        1
 72
     4
 94
        3
 73
     0
 74
     0
 95
       17
 96
       13
 40
0.0
 40
0.0
 40
0.0
 40
0.0
 40
1.0
 40
1.0
 40
1.0
 40
2.0
 40
2.0
 40
2.0
 40
3.0
 40
3.0
 40
3.0
 40
4.0
 40
4.0
 40
4.0
 40
4.0
 10
119.8938015108252
 20
-156.9757757854088
 10
119.8938015108252
 20
-156.9757757854088
 10
118.7345268800386
 20
-156.9757757854088
 10
118.7345268800386
 20
-156.9757757854088
 10
118.7345268800386
 20
-156.9757757854088
 10
118.7345268800386
 20
-157.11564666211
 10
118.7345268800386
 20
-157.11564666211
 10
118.7345268800386
 20
-157.11564666211
 10
119.8938015108252
 20
-157.11564666211
 10
119.8938015108252
 20
-157.11564666211
 10
119.8938015108252
 20
-157.11564666211
 10
119.8938015108252
 20
-156.9757757854088
 10
119.8938015108252
 20
-156.9757757854088
 97
        0
 97
        1
330
151
 92
        1
 93
        1
 72
     4
 94
        3
 73
     0
 74
     0
 95
       17
 96
       13
 40
0.0
 40
0.0
 40
0.0
 40
0.0
 40
1.0
 40
1.0
 40
1.0
 40
2.0
 40
2.0
 40
2.0
 40
3.0
 40
3.0
 40
3.0
 40
4.0
 40
4.0
 40
4.0
 40
4.0
 10
119.8938015108252
 20
-156.7242838149856
 10
119.8938015108252
 20
-156.7242838149856
 10
118.7345268800386
 20
-156.7242838149856
 10
118.7345268800386
 20
-156.7242838149856
 10
118.7345268800386
 20
-156.7242838149856
 10
118.7345268800386
 20
-156.8658772394293
 10
118.7345268800386
 20
-156.8658772394293
 10
118.7345268800386
 20
-156.8658772394293
 10
119.8938015108252
 20
-156.8658772394293
 10
119.8938015108252
 20
-156.8658772394293
 10
119.8938015108252
 20
-156.8658772394293
 10
119.8938015108252
 20
-156.7242838149856
 10
119.8938015108252
 20
-156.7242838149856
 97
        0
 97
        1
330
152
 92
        1
 93
        1
 72
     4
 94
        3
 73
     0
 74
     0
 95
       17
 96
       13
 40
0.0
 40
0.0
 40
0.0
 40
0.0
 40
1.0
 40
1.0
 40
1.0
 40
2.0
 40
2.0
 40
2.0
 40
3.0
 40
3.0
 40
3.0
 40
4.0
 40
4.0
 40
4.0
 40
4.0
 10
119.8938015108252
 20
-156.4851941883092
 10
119.8938015108252
 20
-156.4851941883092
 10
118.7345268800386
 20
-156.4851941883092
 10
118.7345268800386
 20
-156.4851941883092
 10
118.7345268800386
 20
-156.4851941883092
 10
118.7345268800386
 20
-156.6140407594576
 10
118.7345268800386
 20
-156.6140407594576
 10
118.7345268800386
 20
-156.6140407594576
 10
119.8938015108252
 20
-156.6140407594576
 10
119.8938015108252
 20
-156.6140407594576
 10
119.8938015108252
 20
-156.6140407594576
 10
119.8938015108252
 20
-156.4851941883092
 10
119.8938015108252
 20
-156.4851941883092
 97
        0
 97
        1
330
153
 92
        1
 93
        1
 72
     4
 94
        3
 73
     0
 74
     0
 95
       32
 96
       28
 40
0.0
 40
0.0
 40
0.0
 40
0.0
 40
1.0
 40
1.0
 40
1.0
 40
2.0
 40
2.0
 40
2.0
 40
3.0
 40
3.0
 40
3.0
 40
4.0
 40
4.0
 40
4.0
 40
5.0
 40
5.0
 40
5.0
 40
6.0
 40
6.0
 40
6.0
 40
7.0
 40
7.0
 40
7.0
 40
8.0
 40
8.0
 40
8.0
 40
9.0
 40
9.0
 40
9.0
 40
9.0
 10
118.5653726917128
 20
-157.2510389146803
 10
118.5653726917128
 20
-157.2510389146803
 10
118.5653726917128
 20
-156.3518689930301
 10
118.5653726917128
 20
-156.3518689930301
 10
118.5653726917128
 20
-156.3518689930301
 10
120.0633002086994
 20
-156.3518689930301
 10
120.0633002086994
 20
-156.3518689930301
 10
120.0633002086994
 20
-156.3518689930301
 10
120.0633002086994
 20
-157.2510389146803
 10
120.0633002086994
 20
-157.2510389146803
 10
120.0633002086994
 20
-157.2510389146803
 10
118.9188394884994
 20
-157.2510389146803
 10
118.9188394884994
 20
-157.2510389146803
 10
118.9188394884994
 20
-157.2510389146803
 10
119.0246039198966
 20
-157.3609374606597
 10
119.0246039198966
 20
-157.3609374606597
 10
118.8595838461532
 20
-157.4560220960526
 10
118.6945637724097
 20
-157.5173447956901
 10
118.3982855606782
 20
-157.5683322088718
 10
118.3982855606782
 20
-157.5683322088718
 10
118.3328287464584
 20
-157.4160589884237
 10
118.3328287464584
 20
-157.4160589884237
 10
118.7114447402874
 20
-157.3630045179509
 10
118.8340901395623
 20
-157.29548064644
 10
118.9143608643686
 20
-157.2510389146803
 10
118.9143608643686
 20
-157.2510389146803
 10
118.5653726917128
 20
-157.2510389146803
 10
118.5653726917128
 20
-157.2510389146803
 97
        0
 97
        1
330
154
 92
        1
 93
        1
 72
     4
 94
        3
 73
     0
 74
     0
 95
       50
 96
       46
 40
0.0
 40
0.0
 40
0.0
 40
0.0
 40
1.0
 40
1.0
 40
1.0
 40
2.0
 40
2.0
 40
2.0
 40
3.0
 40
3.0
 40
3.0
 40
4.0
 40
4.0
 40
4.0
 40
5.0
 40
5.0
 40
5.0
 40
6.0
 40
6.0
 40
6.0
 40
7.0
 40
7.0
 40
7.0
 40
8.0
 40
8.0
 40
8.0
 40
9.0
 40
9.0
 40
9.0
 40
10.0
 40
10.0
 40
10.0
 40
11.0
 40
11.0
 40
11.0
 40
12.0
 40
12.0
 40
12.0
 40
13.0
 40
13.0
 40
13.0
 40
14.0
 40
14.0
 40
14.0
 40
15.0
 40
15.0
 40
15.0
 40
15.0
 10
118.6501220406499
 20
-155.9053846181417
 10
118.6501220406499
 20
-155.9053846181417
 10
119.3015895969107
 20
-155.9053846181417
 10
119.3015895969107
 20
-155.9053846181417
 10
119.3015895969107
 20
-155.9053846181417
 10
119.3015895969107
 20
-156.0304415842563
 10
119.3015895969107
 20
-156.0304415842563
 10
119.3015895969107
 20
-156.0304415842563
 10
119.0246039198966
 20
-156.0304415842563
 10
119.0246039198966
 20
-156.0304415842563
 10
119.0246039198966
 20
-156.0304415842563
 10
119.0246039198966
 20
-156.3053602039792
 10
119.0246039198966
 20
-156.3053602039792
 10
119.0246039198966
 20
-156.3053602039792
 10
118.8637179607354
 20
-156.3053602039792
 10
118.8637179607354
 20
-156.3053602039792
 10
118.8637179607354
 20
-156.3053602039792
 10
118.8637179607354
 20
-156.0304415842563
 10
118.8637179607354
 20
-156.0304415842563
 10
118.8637179607354
 20
-156.0304415842563
 10
118.643576359228
 20
-156.0304415842563
 10
118.643576359228
 20
-156.0304415842563
 10
118.6332410727722
 20
-156.1000325130583
 10
118.6077473661814
 20
-156.2946804079749
 10
118.4534070884422
 20
-156.4448865711318
 10
118.4534070884422
 20
-156.4448865711318
 10
118.3307616891673
 20
-156.3349880251523
 10
118.3307616891673
 20
-156.3349880251523
 10
118.451340031151
 20
-156.2354247656286
 10
118.4933701960711
 20
-156.0304415842563
 10
118.4933701960711
 20
-155.9477592926103
 10
118.4933701960711
 20
-155.9477592926103
 10
118.4933701960711
 20
-155.662160876883
 10
118.4933701960711
 20
-155.662160876883
 10
118.9780951308457
 20
-155.662160876883
 10
119.1324354085849
 20
-155.6156520878322
 10
119.2275200439778
 20
-155.5880913239502
 10
119.2275200439778
 20
-155.5880913239502
 10
119.2805745144507
 20
-155.7276176911028
 10
119.2805745144507
 20
-155.7276176911028
 10
119.0711127089475
 20
-155.7765380469934
 10
118.9081596924952
 20
-155.7868733334491
 10
118.6501220406499
 20
-155.7913519575799
 10
118.6501220406499
 20
-155.7913519575799
 10
118.6501220406499
 20
-155.9053846181417
 10
118.6501220406499
 20
-155.9053846181417
 97
        0
 97
        1
330
155
 75
     2
 76
     1
 98
        1
 10
0.0
 20
0.0
450
        0
451
        0
460
0.0
461
0.0
452
        0
462
0.0
453
        0
470

  0
ENDBLK
  5
146
330
143
100
AcDbEntity
  8
0
100
AcDbBlockEnd
  0
ENDSEC
  0
SECTION
  2
ENTITIES
  0
LINE
  5
79
330
70
100
AcDbEntity
  8
レイヤー 1
 62
    18
420
        0
370
    25
100
AcDbLine
 10
113.7643417104486
 20
-153.1585872491581
 30
0.0
 11
103.7649264099997
 21
-153.1585872491581
 31
0.0
  0
LINE
  5
7A
330
70
100
AcDbEntity
  8
レイヤー 1
 62
    18
420
        0
370
    25
100
AcDbLine
 10
83.76306252169593
 20
-146.6583744730054
 30
0.0
 11
83.76306252169593
 21
-147.1585780839912
 31
0.0
  0
LINE
  5
7B
330
70
100
AcDbEntity
  8
レイヤー 1
 62
    18
420
        0
370
    25
100
AcDbLine
 10
104.7006352942392
 20
-147.1585780839912
 30
0.0
 11
83.76306252169593
 21
-147.1585780839912
 31
0.0
  0
LINE
  5
7C
330
70
100
AcDbEntity
  8
レイヤー 1
 62
    18
420
        0
370
    25
100
AcDbLine
 10
83.76306252169593
 20
-146.6583744730054
 30
0.0
 11
84.27705974378978
 21
-147.0400800284653
 31
0.0
  0
LINE
  5
7D
330
70
100
AcDbEntity
  8
レイヤー 1
 62
    18
420
        0
370
    25
100
AcDbLine
 10
84.27705974378978
 20
-147.0400800284653
 30
0.0
 11
84.76248196589038
 21
-146.6225322507921
 31
0.0
  0
LINE
  5
7E
330
70
100
AcDbEntity
  8
レイヤー 1
 62
    18
420
        0
370
    25
100
AcDbLine
 10
85.27647918798423
 20
-147.0049433618076
 30
0.0
 11
85.76207779897405
 21
-146.5867253063564
 31
0.0
  0
LINE
  5
7F
330
70
100
AcDbEntity
  8
レイヤー 1
 62
    18
420
        0
370
    25
100
AcDbLine
 10
84.76248196589038
 20
-146.6225322507921
 30
0.0
 11
85.27647918798423
 21
-147.0049433618076
 31
0.0
  0
LINE
  5
80
330
70
100
AcDbEntity
  8
レイヤー 1
 62
    18
420
        0
370
    25
100
AcDbLine
 10
85.76207779897405
 20
-146.5867253063564
 30
0.0
 11
86.27607502106757
 21
-146.9691011395943
 31
0.0
  0
LINE
  5
81
330
70
100
AcDbEntity
  8
レイヤー 1
 62
    18
420
        0
370
    25
100
AcDbLine
 10
86.27607502106757
 20
-146.9691011395943
 30
0.0
 11
86.76114446539074
 21
-146.5515533619208
 31
0.0
  0
LINE
  5
82
330
70
100
AcDbEntity
  8
レイヤー 1
 62
    18
420
        0
370
    25
100
AcDbLine
 10
86.76114446539074
 20
-146.5515533619208
 30
0.0
 11
87.27517696526243
 21
-146.9332941951589
 31
0.0
  0
LINE
  5
83
330
70
100
AcDbEntity
  8
レイヤー 1
 62
    18
420
        0
370
    25
100
AcDbLine
 10
87.27517696526243
 20
-146.9332941951589
 30
0.0
 11
87.76091668736297
 21
-146.5157464174854
 31
0.0
  0
LINE
  5
84
330
70
100
AcDbEntity
  8
レイヤー 1
 62
    18
420
        0
370
    25
100
AcDbLine
 10
87.76091668736297
 20
-146.5157464174854
 30
0.0
 11
88.27491390945713
 21
-146.8974519729453
 31
0.0
  0
LINE
  5
85
330
70
100
AcDbEntity
  8
レイヤー 1
 62
    18
420
        0
370
    25
100
AcDbLine
 10
88.27491390945713
 20
-146.8974519729453
 30
0.0
 11
88.75998335378032
 21
-146.4799041952722
 31
0.0
  0
LINE
  5
86
330
70
100
AcDbEntity
  8
レイヤー 1
 62
    18
420
        0
370
    25
100
AcDbLine
 10
88.75998335378032
 20
-146.4799041952722
 30
0.0
 11
89.27419224254022
 21
-146.8616097507321
 31
0.0
  0
LINE
  5
87
330
70
100
AcDbEntity
  8
レイヤー 1
 62
    18
420
        0
370
    25
100
AcDbLine
 10
89.27419224254022
 20
-146.8616097507321
 30
0.0
 11
89.75993196464107
 21
-146.4440972508368
 31
0.0
  0
LINE
  5
88
330
70
100
AcDbEntity
  8
レイヤー 1
 62
    18
420
        0
370
    25
100
AcDbLine
 10
89.75993196464107
 20
-146.4440972508368
 30
0.0
 11
90.27325890895724
 21
-146.8264730840744
 31
0.0
  0
LINE
  5
89
330
70
100
AcDbEntity
  8
レイヤー 1
 62
    18
420
        0
370
    25
100
AcDbLine
 10
90.27325890895724
 20
-146.8264730840744
 30
0.0
 11
90.75903390883594
 21
-146.4082550286235
 31
0.0
  0
LINE
  5
8A
330
70
100
AcDbEntity
  8
レイヤー 1
 62
    18
420
        0
370
    25
100
AcDbLine
 10
91.27303113092947
 20
-146.790666139639
 30
0.0
 11
91.75810057525264
 21
-146.3731183619655
 31
0.0
  0
LINE
  5
8B
330
70
100
AcDbEntity
  8
レイヤー 1
 62
    18
420
        0
370
    25
100
AcDbLine
 10
90.75903390883594
 20
-146.4082550286235
 30
0.0
 11
91.27303113092947
 21
-146.790666139639
 31
0.0
  0
LINE
  5
8C
330
70
100
AcDbEntity
  8
レイヤー 1
 62
    18
420
        0
370
    25
100
AcDbLine
 10
91.75810057525264
 20
-146.3731183619655
 30
0.0
 11
92.27209779734648
 21
-146.7548239174257
 31
0.0
  0
LINE
  5
8D
330
70
100
AcDbEntity
  8
レイヤー 1
 62
    18
420
        0
370
    25
100
AcDbLine
 10
92.27209779734648
 20
-146.7548239174257
 30
0.0
 11
92.75787279722486
 21
-146.3372761397522
 31
0.0
  0
LINE
  5
8E
330
70
100
AcDbEntity
  8
レイヤー 1
 62
    18
420
        0
370
    25
100
AcDbLine
 10
93.2718700193187
 20
-146.71901697299
 30
0.0
 11
93.75693946364188
 21
-146.3014691953168
 31
0.0
  0
LINE
  5
8F
330
70
100
AcDbEntity
  8
レイヤー 1
 62
    18
420
        0
370
    25
100
AcDbLine
 10
92.75787279722486
 20
-146.3372761397522
 30
0.0
 11
93.2718700193187
 21
-146.71901697299
 31
0.0
  0
LINE
  5
90
330
70
100
AcDbEntity
  8
レイヤー 1
 62
    18
420
        0
370
    25
100
AcDbLine
 10
94.27093668573572
 20
-146.6831747507767
 30
0.0
 11
94.7567116856141
 21
-146.2656269731036
 31
0.0
  0
LINE
  5
91
330
70
100
AcDbEntity
  8
レイヤー 1
 62
    18
420
        0
370
    25
100
AcDbLine
 10
93.75693946364188
 20
-146.3014691953168
 30
0.0
 11
94.27093668573572
 21
-146.6831747507767
 31
0.0
  0
LINE
  5
92
330
70
100
AcDbEntity
  8
レイヤー 1
 62
    18
420
        0
370
    25
100
AcDbLine
 10
94.7567116856141
 20
-146.2656269731036
 30
0.0
 11
95.27070801559387
 21
-146.648038084119
 31
0.0
  0
LINE
  5
93
330
70
100
AcDbEntity
  8
レイヤー 1
 62
    18
420
        0
370
    25
100
AcDbLine
 10
95.27070801559387
 20
-146.648038084119
 30
0.0
 11
95.75577744766285
 21
-146.2297847508903
 31
0.0
  0
LINE
  5
94
330
70
100
AcDbEntity
  8
レイヤー 1
 62
    18
420
        0
370
    25
100
AcDbLine
 10
95.75577744766285
 20
-146.2297847508903
 30
0.0
 11
96.26977465677223
 21
-146.6121958619057
 31
0.0
  0
LINE
  5
95
330
70
100
AcDbEntity
  8
レイヤー 1
 62
    18
420
        0
370
    25
100
AcDbLine
 10
96.26977465677223
 20
-146.6121958619057
 30
0.0
 11
96.75484408884152
 21
-146.1946480842323
 31
0.0
  0
LINE
  5
96
330
70
100
AcDbEntity
  8
レイヤー 1
 62
    18
420
        0
370
    25
100
AcDbLine
 10
96.75484408884152
 20
-146.1946480842323
 30
0.0
 11
97.26887657572746
 21
-146.5763889174704
 31
0.0
  0
LINE
  5
97
330
70
100
AcDbEntity
  8
レイヤー 1
 62
    18
420
        0
370
    25
100
AcDbLine
 10
97.26887657572746
 20
-146.5763889174704
 30
0.0
 11
97.75461628555744
 21
-146.1588411397969
 31
0.0
  0
LINE
  5
98
330
70
100
AcDbEntity
  8
レイヤー 1
 62
    18
420
        0
370
    25
100
AcDbLine
 10
97.75461628555744
 20
-146.1588411397969
 30
0.0
 11
98.26864877244338
 21
-146.5405466952571
 31
0.0
  0
LINE
  5
99
330
70
100
AcDbEntity
  8
レイヤー 1
 62
    18
420
        0
370
    25
100
AcDbLine
 10
98.26864877244338
 20
-146.5405466952571
 30
0.0
 11
98.75371820451267
 21
-146.1229989175836
 31
0.0
  0
LINE
  5
9A
330
70
100
AcDbEntity
  8
レイヤー 1
 62
    18
420
        0
370
    25
100
AcDbLine
 10
98.75371820451267
 20
-146.1229989175836
 30
0.0
 11
99.26771541362141
 21
-146.5047044730439
 31
0.0
  0
LINE
  5
9B
330
70
100
AcDbEntity
  8
レイヤー 1
 62
    18
420
        0
370
    25
100
AcDbLine
 10
99.26771541362141
 20
-146.5047044730439
 30
0.0
 11
99.75345512345169
 21
-146.0871566953704
 31
0.0
  0
LINE
  5
9C
330
70
100
AcDbEntity
  8
レイヤー 1
 62
    18
420
        0
370
    25
100
AcDbLine
 10
99.75345512345169
 20
-146.0871566953704
 30
0.0
 11
100.2674876103376
 21
-146.4695678063858
 31
0.0
  0
LINE
  5
9D
330
70
100
AcDbEntity
  8
レイヤー 1
 62
    18
420
        0
370
    25
100
AcDbLine
 10
100.2674876103376
 20
-146.4695678063858
 30
0.0
 11
100.7525570424069
 21
-146.0513497509349
 31
0.0
  0
LINE
  5
9E
330
70
100
AcDbEntity
  8
レイヤー 1
 62
    18
420
        0
370
    25
100
AcDbLine
 10
100.7525570424069
 20
-146.0513497509349
 30
0.0
 11
101.266554251516
 21
-146.4337608619504
 31
0.0
  0
LINE
  5
9F
330
70
100
AcDbEntity
  8
レイヤー 1
 62
    18
420
        0
370
    25
100
AcDbLine
 10
101.266554251516
 20
-146.4337608619504
 30
0.0
 11
101.7523292391228
 21
-146.0162130842769
 31
0.0
  0
LINE
  5
A0
330
70
100
AcDbEntity
  8
レイヤー 1
 62
    18
420
        0
370
    25
100
AcDbLine
 10
101.7523292391228
 20
-146.0162130842769
 30
0.0
 11
102.2663264482319
 21
-146.3979186397372
 31
0.0
  0
LINE
  5
A1
330
70
100
AcDbEntity
  8
レイヤー 1
 62
    18
420
        0
370
    25
100
AcDbLine
 10
102.2663264482319
 20
-146.3979186397372
 30
0.0
 11
102.7513958803012
 21
-145.9803708620637
 31
0.0
  0
LINE
  5
A2
330
70
100
AcDbEntity
  8
レイヤー 1
 62
    18
420
        0
370
    25
100
AcDbLine
 10
102.7513958803012
 20
-145.9803708620637
 30
0.0
 11
103.2653930894102
 21
-146.3620764175239
 31
0.0
  0
LINE
  5
A3
330
70
100
AcDbEntity
  8
レイヤー 1
 62
    18
420
        0
370
    25
100
AcDbLine
 10
103.2653930894102
 20
-146.3620764175239
 30
0.0
 11
103.751168077017
 21
-145.9445286398504
 31
0.0
  0
LINE
  5
A4
330
70
100
AcDbEntity
  8
レイヤー 1
 62
    18
420
        0
370
    25
100
AcDbLine
 10
103.8251652862363
 20
-145.8963039176403
 30
0.0
 11
104.7646986067153
 21
-145.8963039176403
 31
0.0
  0
LINE
  5
A5
330
70
100
AcDbEntity
  8
レイヤー 1
 62
    18
420
        0
370
    25
100
AcDbLine
 10
104.7646986067153
 20
-145.8963039176403
 30
0.0
 11
104.7646986067153
 21
-152.1581094716307
 31
0.0
  0
LINE
  5
A6
330
70
100
AcDbEntity
  8
レイヤー 1
 62
    18
420
        0
370
    25
100
AcDbLine
 10
103.7649264099997
 20
-147.1585780839912
 30
0.0
 11
103.7649264099997
 21
-153.1585872491581
 31
0.0
  0
LINE
  5
A7
330
70
100
AcDbEntity
  8
レイヤー 1
 62
    18
420
        0
370
    25
100
AcDbLine
 10
112.7645695137327
 20
-152.1581094716307
 30
0.0
 11
104.7646986067153
 21
-152.1581094716307
 31
0.0
  0
LINE
  5
A8
330
70
100
AcDbEntity
  8
レイヤー 1
 62
    18
420
        0
370
    25
100
AcDbLine
 10
123.7716592329185
 20
-146.3014691953168
 30
0.0
 11
123.2583323015701
 21
-146.6831747507767
 31
0.0
  0
LINE
  5
A9
330
70
100
AcDbEntity
  8
レイヤー 1
 62
    18
420
        0
370
    25
100
AcDbLine
 10
128.7691091054229
 20
-146.4799041952722
 30
0.0
 11
128.2550766185363
 21
-146.8616097507321
 31
0.0
  0
LINE
  5
AA
330
70
100
AcDbEntity
  8
レイヤー 1
 62
    18
420
        0
370
    25
100
AcDbLine
 10
124.2573989427484
 20
-146.71901697299
 30
0.0
 11
123.7716592329185
 21
-146.3014691953168
 31
0.0
  0
LINE
  5
AB
330
70
100
AcDbEntity
  8
レイヤー 1
 62
    18
420
        0
370
    25
100
AcDbLine
 10
125.2564655839268
 20
-146.7548239174257
 30
0.0
 11
124.7713961518575
 21
-146.3372761397522
 31
0.0
  0
LINE
  5
AC
330
70
100
AcDbEntity
  8
レイヤー 1
 62
    18
420
        0
370
    25
100
AcDbLine
 10
123.2583323015701
 20
-146.6831747507767
 30
0.0
 11
122.7725573139632
 21
-146.2656269731036
 31
0.0
  0
LINE
  5
AD
330
70
100
AcDbEntity
  8
レイヤー 1
 62
    18
420
        0
370
    25
100
AcDbLine
 10
124.7713961518575
 20
-146.3372761397522
 30
0.0
 11
124.2573989427484
 21
-146.71901697299
 31
0.0
  0
LINE
  5
AE
330
70
100
AcDbEntity
  8
レイヤー 1
 62
    18
420
        0
370
    25
100
AcDbLine
 10
132.7660812256739
 20
-146.6225322507921
 30
0.0
 11
132.2520840165648
 21
-147.0049433618076
 31
0.0
  0
LINE
  5
AF
330
70
100
AcDbEntity
  8
レイヤー 1
 62
    18
420
        0
370
    25
100
AcDbLine
 10
125.7704980708127
 20
-146.3731183619655
 30
0.0
 11
125.2564655839268
 21
-146.7548239174257
 31
0.0
  0
LINE
  5
B0
330
70
100
AcDbEntity
  8
レイヤー 1
 62
    18
420
        0
370
    25
100
AcDbLine
 10
126.7702702675286
 20
-146.4082550286235
 30
0.0
 11
126.2562377806427
 21
-146.790666139639
 31
0.0
  0
LINE
  5
B1
330
70
100
AcDbEntity
  8
レイヤー 1
 62
    18
420
        0
370
    25
100
AcDbLine
 10
112.7645695137327
 20
-145.8963039176403
 30
0.0
 11
112.7645695137327
 21
-152.1581094716307
 31
0.0
  0
LINE
  5
B2
330
70
100
AcDbEntity
  8
レイヤー 1
 62
    18
420
        0
370
    25
100
AcDbLine
 10
126.2562377806427
 20
-146.790666139639
 30
0.0
 11
125.7704980708127
 21
-146.3731183619655
 31
0.0
  0
LINE
  5
B3
330
70
100
AcDbEntity
  8
レイヤー 1
 62
    18
420
        0
370
    25
100
AcDbLine
 10
127.2553396995979
 20
-146.8264730840744
 30
0.0
 11
126.7702702675286
 21
-146.4082550286235
 31
0.0
  0
LINE
  5
B4
330
70
100
AcDbEntity
  8
レイヤー 1
 62
    18
420
        0
370
    25
100
AcDbLine
 10
132.2520840165648
 20
-147.0049433618076
 30
0.0
 11
131.7670145844962
 21
-146.5867253063564
 31
0.0
  0
LINE
  5
B5
330
70
100
AcDbEntity
  8
レイヤー 1
 62
    18
420
        0
370
    25
100
AcDbLine
 10
127.769336908707
 20
-146.4440972508368
 30
0.0
 11
127.2553396995979
 21
-146.8264730840744
 31
0.0
  0
LINE
  5
B6
330
70
100
AcDbEntity
  8
レイヤー 1
 62
    18
420
        0
370
    25
100
AcDbLine
 10
128.2550766185363
 20
-146.8616097507321
 30
0.0
 11
127.769336908707
 21
-146.4440972508368
 31
0.0
  0
LINE
  5
B7
330
70
100
AcDbEntity
  8
レイヤー 1
 62
    18
420
        0
370
    25
100
AcDbLine
 10
133.2518562132807
 20
-147.0400800284653
 30
0.0
 11
132.7660812256739
 21
-146.6225322507921
 31
0.0
  0
LINE
  5
B8
330
70
100
AcDbEntity
  8
レイヤー 1
 62
    18
420
        0
370
    25
100
AcDbLine
 10
129.7681757466012
 20
-146.5157464174854
 30
0.0
 11
129.2541785374922
 21
-146.8974519729453
 31
0.0
  0
LINE
  5
B9
330
70
100
AcDbEntity
  8
レイヤー 1
 62
    18
420
        0
370
    25
100
AcDbLine
 10
130.7672423877796
 20
-146.5515533619208
 30
0.0
 11
130.2532451786705
 21
-146.9332941951589
 31
0.0
  0
LINE
  5
BA
330
70
100
AcDbEntity
  8
レイヤー 1
 62
    18
420
        0
370
    25
100
AcDbLine
 10
130.2532451786705
 20
-146.9332941951589
 30
0.0
 11
129.7681757466012
 21
-146.5157464174854
 31
0.0
  0
LINE
  5
BB
330
70
100
AcDbEntity
  8
レイヤー 1
 62
    18
420
        0
370
    25
100
AcDbLine
 10
133.7658534223898
 20
-146.6583744730054
 30
0.0
 11
133.2518562132807
 21
-147.0400800284653
 31
0.0
  0
LINE
  5
BC
330
70
100
AcDbEntity
  8
レイヤー 1
 62
    18
420
        0
370
    25
100
AcDbLine
 10
129.2541785374922
 20
-146.8974519729453
 30
0.0
 11
128.7691091054229
 21
-146.4799041952722
 31
0.0
  0
LINE
  5
BD
330
70
100
AcDbEntity
  8
レイヤー 1
 62
    18
420
        0
370
    25
100
AcDbLine
 10
131.7670145844962
 20
-146.5867253063564
 30
0.0
 11
131.2530173753864
 21
-146.9691011395943
 31
0.0
  0
LINE
  5
BE
330
70
100
AcDbEntity
  8
レイヤー 1
 62
    18
420
        0
370
    25
100
AcDbLine
 10
131.2530173753864
 20
-146.9691011395943
 30
0.0
 11
130.7672423877796
 21
-146.5515533619208
 31
0.0
  0
LINE
  5
BF
330
70
100
AcDbEntity
  8
レイヤー 1
 62
    18
420
        0
370
    25
100
AcDbLine
 10
133.7658534223898
 20
-146.6583744730054
 30
0.0
 11
133.7658534223898
 21
-147.1585780839912
 31
0.0
  0
LINE
  5
C0
330
70
100
AcDbEntity
  8
レイヤー 1
 62
    18
420
        0
370
    25
100
AcDbLine
 10
112.875482844237
 20
-147.1585780839912
 30
0.0
 11
133.7658534223898
 21
-147.1585780839912
 31
0.0
  0
LINE
  5
C1
330
70
100
AcDbEntity
  8
レイヤー 1
 62
    18
420
        0
370
    25
100
AcDbLine
 10
122.7725573139632
 20
-146.2656269731036
 30
0.0
 11
122.2585601048542
 21
-146.648038084119
 31
0.0
  0
LINE
  5
C2
330
70
100
AcDbEntity
  8
レイヤー 1
 62
    18
420
        0
370
    25
100
AcDbLine
 10
122.2585601048542
 20
-146.648038084119
 30
0.0
 11
121.7734906727855
 21
-146.2297847508903
 31
0.0
  0
LINE
  5
C3
330
70
100
AcDbEntity
  8
レイヤー 1
 62
    18
420
        0
370
    25
100
AcDbLine
 10
121.7734906727855
 20
-146.2297847508903
 30
0.0
 11
121.2594934636758
 21
-146.6121958619057
 31
0.0
  0
LINE
  5
C4
330
70
100
AcDbEntity
  8
レイヤー 1
 62
    18
420
        0
370
    25
100
AcDbLine
 10
121.2594934636758
 20
-146.6121958619057
 30
0.0
 11
120.773718476069
 21
-146.1946480842323
 31
0.0
  0
LINE
  5
C5
330
70
100
AcDbEntity
  8
レイヤー 1
 62
    18
420
        0
370
    25
100
AcDbLine
 10
120.773718476069
 20
-146.1946480842323
 30
0.0
 11
120.2597212669599
 21
-146.5763889174704
 31
0.0
  0
LINE
  5
C6
330
70
100
AcDbEntity
  8
レイヤー 1
 62
    18
420
        0
370
    25
100
AcDbLine
 10
120.2597212669599
 20
-146.5763889174704
 30
0.0
 11
119.7746518348906
 21
-146.1588411397969
 31
0.0
  0
LINE
  5
C7
330
70
100
AcDbEntity
  8
レイヤー 1
 62
    18
420
        0
370
    25
100
AcDbLine
 10
119.7746518348906
 20
-146.1588411397969
 30
0.0
 11
119.2606193480047
 21
-146.5405466952571
 31
0.0
  0
LINE
  5
C8
330
70
100
AcDbEntity
  8
レイヤー 1
 62
    18
420
        0
370
    25
100
AcDbLine
 10
119.2606193480047
 20
-146.5405466952571
 30
0.0
 11
118.7748796381747
 21
-146.1229989175836
 31
0.0
  0
LINE
  5
C9
330
70
100
AcDbEntity
  8
レイヤー 1
 62
    18
420
        0
370
    25
100
AcDbLine
 10
118.7748796381747
 20
-146.1229989175836
 30
0.0
 11
118.260882429065
 21
-146.5047044730439
 31
0.0
  0
LINE
  5
CA
330
70
100
AcDbEntity
  8
レイヤー 1
 62
    18
420
        0
370
    25
100
AcDbLine
 10
118.260882429065
 20
-146.5047044730439
 30
0.0
 11
117.7758129969963
 21
-146.0871566953704
 31
0.0
  0
LINE
  5
CB
330
70
100
AcDbEntity
  8
レイヤー 1
 62
    18
420
        0
370
    25
100
AcDbLine
 10
117.7758129969963
 20
-146.0871566953704
 30
0.0
 11
117.2617805101104
 21
-146.4695678063858
 31
0.0
  0
LINE
  5
CC
330
70
100
AcDbEntity
  8
レイヤー 1
 62
    18
420
        0
370
    25
100
AcDbLine
 10
117.2617805101104
 20
-146.4695678063858
 30
0.0
 11
116.7767110780411
 21
-146.0513497509349
 31
0.0
  0
LINE
  5
CD
330
70
100
AcDbEntity
  8
レイヤー 1
 62
    18
420
        0
370
    25
100
AcDbLine
 10
116.7767110780411
 20
-146.0513497509349
 30
0.0
 11
116.262713868932
 21
-146.4337608619504
 31
0.0
  0
LINE
  5
CE
330
70
100
AcDbEntity
  8
レイヤー 1
 62
    18
420
        0
370
    25
100
AcDbLine
 10
116.262713868932
 20
-146.4337608619504
 30
0.0
 11
115.7769388813252
 21
-146.0162130842769
 31
0.0
  0
LINE
  5
CF
330
70
100
AcDbEntity
  8
レイヤー 1
 62
    18
420
        0
370
    25
100
AcDbLine
 10
115.7769388813252
 20
-146.0162130842769
 30
0.0
 11
115.2629416722162
 21
-146.3979186397372
 31
0.0
  0
LINE
  5
D0
330
70
100
AcDbEntity
  8
レイヤー 1
 62
    18
420
        0
370
    25
100
AcDbLine
 10
115.2629416722162
 20
-146.3979186397372
 30
0.0
 11
114.7778722401469
 21
-145.9803708620637
 31
0.0
  0
LINE
  5
D1
330
70
100
AcDbEntity
  8
レイヤー 1
 62
    18
420
        0
370
    25
100
AcDbLine
 10
114.7778722401469
 20
-145.9803708620637
 30
0.0
 11
114.2638750310378
 21
-146.3620764175239
 31
0.0
  0
LINE
  5
D2
330
70
100
AcDbEntity
  8
レイヤー 1
 62
    18
420
        0
370
    25
100
AcDbLine
 10
114.2638750310378
 20
-146.3620764175239
 30
0.0
 11
113.7781000434309
 21
-145.9445286398504
 31
0.0
  0
LINE
  5
D3
330
70
100
AcDbEntity
  8
レイヤー 1
 62
    18
420
        0
370
    25
100
AcDbLine
 10
113.7041028342117
 20
-145.8963039176403
 30
0.0
 11
112.7645695137327
 21
-145.8963039176403
 31
0.0
  0
LINE
  5
D4
330
70
100
AcDbEntity
  8
レイヤー 1
 62
    18
420
        0
370
    25
100
AcDbLine
 10
113.7643417104486
 20
-147.1585780839912
 30
0.0
 11
113.7643417104486
 21
-153.1585872491581
 31
0.0
  0
SPLINE
  5
D5
330
70
100
AcDbEntity
  8
レイヤー 1
 62
    18
420
        0
370
     9
100
AcDbSpline
210
0.0
220
0.0
230
1.0
 70
     9
 71
     3
 72
    17
 73
    13
 74
     0
 42
0.0000000001
 43
0.0000000001
 40
0.0
 40
0.0
 40
0.0
 40
0.0
 40
1.0
 40
1.0
 40
1.0
 40
2.0
 40
2.0
 40
2.0
 40
3.0
 40
3.0
 40
3.0
 40
4.0
 40
4.0
 40
4.0
 40
4.0
 10
83.86296918833789
 20
-141.8965447519737
 30
0.0
 10
83.86296918833789
 20
-141.8407353075429
 30
0.0
 10
83.81816641057117
 20
-141.7959678075543
 30
0.0
 10
83.76306252169593
 20
-141.7959678075543
 30
0.0
 10
83.70792335504317
 20
-141.7959678075543
 30
0.0
 10
83.6631558550543
 20
-141.8407353075429
 30
0.0
 10
83.6631558550543
 20
-141.8965447519737
 30
0.0
 10
83.6631558550543
 20
-141.9516839186264
 30
0.0
 10
83.70792335504317
 20
-141.9964514186153
 30
0.0
 10
83.76306252169593
 20
-141.9964514186153
 30
0.0
 10
83.81816641057117
 20
-141.9964514186153
 30
0.0
 10
83.86296918833789
 20
-141.9516839186264
 30
0.0
 10
83.86296918833789
 20
-141.8965447519737
 30
0.0
  0
CIRCLE
  5
D6
330
70
100
AcDbEntity
  8
レイヤー 1
 62
    18
420
        0
370
     9
100
AcDbCircle
 10
79.76330335602913
 20
-146.6583744730054
 30
0.0
 40
0.0999066666416778
  0
CIRCLE
  5
D7
330
70
100
AcDbEntity
  8
レイヤー 1
 62
    18
420
        0
370
     9
100
AcDbCircle
 10
79.76330335602913
 20
-147.1585780839912
 30
0.0
 40
0.0999066666416778
  0
CIRCLE
  5
D8
330
70
100
AcDbEntity
  8
レイヤー 1
 62
    18
420
        0
370
     9
100
AcDbCircle
 10
79.76330335602913
 20
-153.1585872491581
 30
0.0
 40
0.0999066666416778
  0
SPLINE
  5
D9
330
70
100
AcDbEntity
  8
レイヤー 1
 62
    18
420
        0
370
     9
100
AcDbSpline
210
0.0
220
0.0
230
1.0
 70
     9
 71
     3
 72
    17
 73
    13
 74
     0
 42
0.0000000001
 43
0.0000000001
 40
0.0
 40
0.0
 40
0.0
 40
0.0
 40
1.0
 40
1.0
 40
1.0
 40
2.0
 40
2.0
 40
2.0
 40
3.0
 40
3.0
 40
3.0
 40
4.0
 40
4.0
 40
4.0
 40
4.0
 10
104.8646052708331
 20
-141.8965447519737
 30
0.0
 10
104.8646052708331
 20
-141.8407353075429
 30
0.0
 10
104.8198377719752
 20
-141.7959678075543
 30
0.0
 10
104.7646986067153
 20
-141.7959678075543
 30
0.0
 10
104.7095947192322
 20
-141.7959678075543
 30
0.0
 10
104.6647919425975
 20
-141.8407353075429
 30
0.0
 10
104.6647919425975
 20
-141.8965447519737
 30
0.0
 10
104.6647919425975
 20
-141.9516839186264
 30
0.0
 10
104.7095947192322
 20
-141.9964514186153
 30
0.0
 10
104.7646986067153
 20
-141.9964514186153
 30
0.0
 10
104.8198377719752
 20
-141.9964514186153
 30
0.0
 10
104.8646052708331
 20
-141.9516839186264
 30
0.0
 10
104.8646052708331
 20
-141.8965447519737
 30
0.0
  0
SPLINE
  5
DA
330
70
100
AcDbEntity
  8
レイヤー 1
 62
    18
420
        0
370
     9
100
AcDbSpline
210
0.0
220
0.0
230
1.0
 70
     9
 71
     3
 72
    17
 73
    13
 74
     0
 42
0.0000000001
 43
0.0000000001
 40
0.0
 40
0.0
 40
0.0
 40
0.0
 40
1.0
 40
1.0
 40
1.0
 40
2.0
 40
2.0
 40
2.0
 40
3.0
 40
3.0
 40
3.0
 40
4.0
 40
4.0
 40
4.0
 40
4.0
 10
133.965668620256
 20
-141.8965447519737
 30
0.0
 10
133.965668620256
 20
-141.8407353075429
 30
0.0
 10
133.9208992517676
 20
-141.7959678075543
 30
0.0
 10
133.8657600865076
 20
-141.7959678075543
 30
0.0
 10
133.809950643487
 20
-141.7959678075543
 30
0.0
 10
133.7651831446291
 20
-141.8407353075429
 30
0.0
 10
133.7651831446291
 20
-141.8965447519737
 30
0.0
 10
133.7651831446291
 20
-141.9516839186264
 30
0.0
 10
133.809950643487
 20
-141.9964514186153
 30
0.0
 10
133.8657600865076
 20
-141.9964514186153
 30
0.0
 10
133.9208992517676
 20
-141.9964514186153
 30
0.0
 10
133.965668620256
 20
-141.9516839186264
 30
0.0
 10
133.965668620256
 20
-141.8965447519737
 30
0.0
  0
SPLINE
  5
DB
330
70
100
AcDbEntity
  8
レイヤー 1
 62
    18
420
        0
370
     9
100
AcDbSpline
210
0.0
220
0.0
230
1.0
 70
     9
 71
     3
 72
    17
 73
    13
 74
     0
 42
0.0000000001
 43
0.0000000001
 40
0.0
 40
0.0
 40
0.0
 40
0.0
 40
1.0
 40
1.0
 40
1.0
 40
2.0
 40
2.0
 40
2.0
 40
3.0
 40
3.0
 40
3.0
 40
4.0
 40
4.0
 40
4.0
 40
4.0
 10
112.9643828419684
 20
-141.8965447519737
 30
0.0
 10
112.9643828419684
 20
-141.8407353075429
 30
0.0
 10
112.9195800653336
 20
-141.7959678075543
 30
0.0
 10
112.8644761778505
 20
-141.7959678075543
 30
0.0
 10
112.8093370125906
 20
-141.7959678075543
 30
0.0
 10
112.7645695137327
 20
-141.8407353075429
 30
0.0
 10
112.7645695137327
 20
-141.8965447519737
 30
0.0
 10
112.7645695137327
 20
-141.9516839186264
 30
0.0
 10
112.8093370125906
 20
-141.9964514186153
 30
0.0
 10
112.8644761778505
 20
-141.9964514186153
 30
0.0
 10
112.9195800653336
 20
-141.9964514186153
 30
0.0
 10
112.9643828419684
 20
-141.9516839186264
 30
0.0
 10
112.9643828419684
 20
-141.8965447519737
 30
0.0
  0
LINE
  5
DC
330
70
100
AcDbEntity
  8
レイヤー 1
 62
    18
420
        0
370
     9
100
AcDbLine
 10
79.76330335602904
 20
-146.6583744730054
 30
0.0
 11
79.76330335602904
 21
-141.4004686409865
 31
0.0
  0
LINE
  5
DD
330
70
100
AcDbEntity
  8
レイヤー 1
 62
    18
420
        0
370
     9
100
AcDbLine
 10
79.76330335602904
 20
-146.6583744730054
 30
0.0
 11
79.76330335602904
 21
-147.1585780839912
 31
0.0
  0
LINE
  5
DE
330
70
100
AcDbEntity
  8
レイヤー 1
 62
    18
420
        0
370
     9
100
AcDbLine
 10
81.22334474455307
 20
-146.6583744730054
 30
0.0
 11
78.76317835627907
 21
-146.6583744730054
 31
0.0
  0
LINE
  5
DF
330
70
100
AcDbEntity
  8
レイヤー 1
 62
    18
420
        0
370
     9
100
AcDbLine
 10
81.22334474455307
 20
-147.1585780839912
 30
0.0
 11
78.76317835627907
 21
-147.1585780839912
 31
0.0
  0
INSERT
  5
E1
330
70
100
AcDbEntity
  8
レイヤー 1
100
AcDbBlockReference
  2
Block_0
 10
0.0
 20
0.0
 30
0.0
  0
LINE
  5
EF
330
70
100
AcDbEntity
  8
レイヤー 1
 62
    18
420
        0
370
     9
100
AcDbLine
 10
83.76306252169593
 20
-141.8965447519737
 30
0.0
 11
104.7646986067153
 21
-141.8965447519737
 31
0.0
  0
LINE
  5
F0
330
70
100
AcDbEntity
  8
レイヤー 1
 62
    18
420
        0
370
     9
100
AcDbLine
 10
83.76306252169593
 20
-144.1186566958625
 30
0.0
 11
83.76306252169593
 21
-140.8961022522237
 31
0.0
  0
INSERT
  5
F2
330
70
100
AcDbEntity
  8
レイヤー 1
100
AcDbBlockReference
  2
Block_2
 10
0.0
 20
0.0
 30
0.0
  0
LINE
  5
FD
330
70
100
AcDbEntity
  8
レイヤー 1
 62
    18
420
        0
370
     9
100
AcDbLine
 10
79.76330335602904
 20
-147.1585780839912
 30
0.0
 11
79.76330335602904
 21
-153.1585872491581
 31
0.0
  0
LINE
  5
FE
330
70
100
AcDbEntity
  8
レイヤー 1
 62
    18
420
        0
370
     9
100
AcDbLine
 10
101.2252086970152
 20
-153.1585872491581
 30
0.0
 11
78.76317835627907
 21
-153.1585872491581
 31
0.0
  0
INSERT
  5
100
330
70
100
AcDbEntity
  8
レイヤー 1
100
AcDbBlockReference
  2
Block_4
 10
0.0
 20
0.0
 30
0.0
  0
LINE
  5
106
330
70
100
AcDbEntity
  8
レイヤー 1
 62
    18
420
        0
370
     9
100
AcDbLine
 10
133.8657600865076
 20
-141.8965447519737
 30
0.0
 11
112.8644761778505
 21
-141.8965447519737
 31
0.0
  0
LINE
  5
107
330
70
100
AcDbEntity
  8
レイヤー 1
 62
    18
420
        0
370
     9
100
AcDbLine
 10
133.8657600865076
 20
-144.1186566958625
 30
0.0
 11
133.8657600865076
 21
-140.8961022522237
 31
0.0
  0
INSERT
  5
109
330
70
100
AcDbEntity
  8
レイヤー 1
100
AcDbBlockReference
  2
Block_5
 10
0.0
 20
0.0
 30
0.0
  0
LINE
  5
114
330
70
100
AcDbEntity
  8
レイヤー 1
 62
    18
420
        0
370
     9
100
AcDbLine
 10
104.7646986067153
 20
-141.8965447519737
 30
0.0
 11
112.7645695137327
 21
-141.8965447519737
 31
0.0
  0
LINE
  5
115
330
70
100
AcDbEntity
  8
レイヤー 1
 62
    18
420
        0
370
     9
100
AcDbLine
 10
104.7646986067153
 20
-143.3565861404974
 30
0.0
 11
104.7646986067153
 21
-140.8961022522237
 31
0.0
  0
LINE
  5
116
330
70
100
AcDbEntity
  8
レイヤー 1
 62
    18
420
        0
370
     9
100
AcDbLine
 10
112.8644761778505
 20
-143.3565861404974
 30
0.0
 11
112.8644761778505
 21
-140.8961022522237
 31
0.0
  0
INSERT
  5
118
330
70
100
AcDbEntity
  8
レイヤー 1
100
AcDbBlockReference
  2
Block_7
 10
0.0
 20
0.0
 30
0.0
  0
SPLINE
  5
11F
330
70
100
AcDbEntity
  8
レイヤー 1
 62
    18
420
        0
370
     9
100
AcDbSpline
210
0.0
220
0.0
230
1.0
 70
     9
 71
     3
 72
    17
 73
    13
 74
     0
 42
0.0000000001
 43
0.0000000001
 40
0.0
 40
0.0
 40
0.0
 40
0.0
 40
1.0
 40
1.0
 40
1.0
 40
2.0
 40
2.0
 40
2.0
 40
3.0
 40
3.0
 40
3.0
 40
4.0
 40
4.0
 40
4.0
 40
4.0
 10
104.0488066805345
 20
-157.2720114147967
 30
0.0
 10
104.0488066805345
 20
-157.2169075259212
 30
0.0
 10
103.9929972375142
 20
-157.1721047481545
 30
0.0
 10
103.9248052948094
 20
-157.1721047481545
 30
0.0
 10
103.8559077965672
 20
-157.1721047481545
 30
0.0
 10
103.8007686313072
 20
-157.2169075259212
 30
0.0
 10
103.8007686313072
 20
-157.2720114147967
 30
0.0
 10
103.8007686313072
 20
-157.3271505814492
 30
0.0
 10
103.8559077965672
 20
-157.3719180814378
 30
0.0
 10
103.9248052948094
 20
-157.3719180814378
 30
0.0
 10
103.9929972375142
 20
-157.3719180814378
 30
0.0
 10
104.0488066805345
 20
-157.3271505814492
 30
0.0
 10
104.0488066805345
 20
-157.2720114147967
 30
0.0
  0
SPLINE
  5
120
330
70
100
AcDbEntity
  8
レイヤー 1
 62
    18
420
        0
370
     9
100
AcDbSpline
210
0.0
220
0.0
230
1.0
 70
     9
 71
     3
 72
    17
 73
    13
 74
     0
 42
0.0000000001
 43
0.0000000001
 40
0.0
 40
0.0
 40
0.0
 40
0.0
 40
1.0
 40
1.0
 40
1.0
 40
2.0
 40
2.0
 40
2.0
 40
3.0
 40
3.0
 40
3.0
 40
4.0
 40
4.0
 40
4.0
 40
4.0
 10
114.0488936252357
 20
-157.2720114147967
 30
0.0
 10
114.0488936252357
 20
-157.2169075259212
 30
0.0
 10
113.9930828157241
 20
-157.1721047481545
 30
0.0
 10
113.9241853174818
 20
-157.1721047481545
 30
0.0
 10
113.8552878192395
 20
-157.1721047481545
 30
0.0
 10
113.8001486539796
 20
-157.2169075259212
 30
0.0
 10
113.8001486539796
 20
-157.2720114147967
 30
0.0
 10
113.8001486539796
 20
-157.3271505814492
 30
0.0
 10
113.8552878192395
 20
-157.3719180814378
 30
0.0
 10
113.9241853174818
 20
-157.3719180814378
 30
0.0
 10
113.9930828157241
 20
-157.3719180814378
 30
0.0
 10
114.0488936252357
 20
-157.3271505814492
 30
0.0
 10
114.0488936252357
 20
-157.2720114147967
 30
0.0
  0
LINE
  5
121
330
70
100
AcDbEntity
  8
レイヤー 1
 62
    18
420
        0
370
     9
100
AcDbLine
 10
113.9241853174818
 20
-157.2720114147967
 30
0.0
 11
103.9248052948094
 21
-157.2720114147967
 31
0.0
  0
LINE
  5
122
330
70
100
AcDbEntity
  8
レイヤー 1
 62
    18
420
        0
370
     9
100
AcDbLine
 10
113.9241853174818
 20
-155.8119700262724
 30
0.0
 11
113.9241853174818
 21
-158.2717836367686
 31
0.0
  0
LINE
  5
123
330
70
100
AcDbEntity
  8
レイヤー 1
 62
    18
420
        0
370
     9
100
AcDbLine
 10
103.9248052948094
 20
-155.8119700262724
 30
0.0
 11
103.9248052948094
 21
-158.2717836367686
 31
0.0
  0
INSERT
  5
125
330
70
100
AcDbEntity
  8
レイヤー 1
100
AcDbBlockReference
  2
Block_8
 10
0.0
 20
0.0
 30
0.0
  0
LINE
  5
131
330
70
100
AcDbEntity
  8
レイヤー 1
 62
    18
420
        0
370
     9
100
AcDbLine
 10
111.7361870399696
 20
-150.3039800276495
 30
0.0
 11
118.7362857502704
 21
-150.3039800276495
 31
0.0
  0
INSERT
  5
133
330
70
100
AcDbEntity
  8
レイヤー 1
100
AcDbBlockReference
  2
Block_10
 10
0.0
 20
0.0
 30
0.0
  0
INSERT
  5
139
330
70
100
AcDbEntity
  8
レイヤー 1
100
AcDbBlockReference
  2
Block_11
 10
0.0
 20
0.0
 30
0.0
  0
INSERT
  5
140
330
70
100
AcDbEntity
  8
レイヤー 1
100
AcDbBlockReference
  2
Block_12
 10
0.0
 20
0.0
 30
0.0
  0
ENDSEC
  0
SECTION
  2
OBJECTS
  0
DICTIONARY
  5
C
330
0
100
AcDbDictionary
281
     1
  3
ACAD_COLOR
350
63
  3
ACAD_DETAILVIEWSTYLE
350
6A
  3
ACAD_GROUP
350
D
  3
ACAD_LAYOUT
350
62
  3
ACAD_MATERIAL
350
10
  3
ACAD_MLEADERSTYLE
350
66
  3
ACAD_MLINESTYLE
350
5F
  3
ACAD_PLOTSETTINGS
350
61
  3
ACAD_PLOTSTYLENAME
350
E
  3
ACAD_SCALELIST
350
42
  3
ACAD_SECTIONVIEWSTYLE
350
68
  3
ACAD_TABLESTYLE
350
64
  3
ACAD_VISUALSTYLE
350
29
  3
ACDB_RECOMPOSE_DATA
350
15F
  3
AcDbVariableDictionary
350
157
  0
DICTIONARY
  5
63
102
{ACAD_REACTORS
330
C
102
}
330
C
100
AcDbDictionary
281
     1
  0
DICTIONARY
  5
6A
102
{ACAD_REACTORS
330
C
102
}
330
C
100
AcDbDictionary
281
     1
  3
Imperial24
350
6B
  0
DICTIONARY
  5
D
102
{ACAD_REACTORS
330
C
102
}
330
C
100
AcDbDictionary
281
     1
  0
DICTIONARY
  5
62
102
{ACAD_REACTORS
330
C
102
}
330
C
100
AcDbDictionary
281
     1
  3
Layout1
350
6F
  3
Layout2
350
77
  3
Model
350
73
  0
DICTIONARY
  5
10
102
{ACAD_REACTORS
330
C
102
}
330
C
100
AcDbDictionary
281
     1
  3
ByBlock
350
19
  3
ByLayer
350
11
  3
Global
350
21
  0
DICTIONARY
  5
66
102
{ACAD_REACTORS
330
C
102
}
330
C
100
AcDbDictionary
281
     1
  3
Standard
350
67
  0
DICTIONARY
  5
5F
102
{ACAD_REACTORS
330
C
102
}
330
C
100
AcDbDictionary
281
     1
  3
Standard
350
60
  0
DICTIONARY
  5
61
102
{ACAD_REACTORS
330
C
102
}
330
C
100
AcDbDictionary
281
     1
  0
ACDBDICTIONARYWDFLT
  5
E
102
{ACAD_REACTORS
330
C
102
}
330
C
100
AcDbDictionary
281
     1
  3
Normal
350
F
100
AcDbDictionaryWithDefault
340
F
  0
DICTIONARY
  5
42
102
{ACAD_REACTORS
330
C
102
}
330
C
100
AcDbDictionary
281
     1
  3
A0
350
43
  3
A1
350
44
  3
A2
350
45
  3
A3
350
46
  3
A4
350
47
  3
A5
350
48
  3
A6
350
49
  3
A7
350
4A
  3
A8
350
4B
  3
A9
350
4C
  3
B0
350
4D
  3
B1
350
4E
  3
B2
350
4F
  3
B3
350
50
  3
B4
350
51
  3
B5
350
52
  3
B6
350
53
  0
DICTIONARY
  5
68
102
{ACAD_REACTORS
330
C
102
}
330
C
100
AcDbDictionary
281
     1
  3
Imperial24
350
69
  0
DICTIONARY
  5
64
102
{ACAD_REACTORS
330
C
102
}
330
C
100
AcDbDictionary
281
     1
  3
Standard
350
65
  0
DICTIONARY
  5
29
102
{ACAD_REACTORS
330
C
102
}
330
C
100
AcDbDictionary
281
     1
  3
2dWireframe
350
2F
  3
Basic
350
2E
  3
Brighten
350
35
  3
ColorChange
350
39
  3
Conceptual
350
32
  3
Dim
350
34
  3
EdgeColorOff
350
41
  3
Facepattern
350
38
  3
Flat
350
2A
  3
FlatWithEdges
350
2B
  3
Gouraud
350
2C
  3
GouraudWithEdges
350
2D
  3
Hidden
350
31
  3
JitterOff
350
3F
  3
Linepattern
350
37
  3
OverhangOff
350
40
  3
Realistic
350
33
  3
Shaded
350
3E
  3
Shaded with edges
350
3D
  3
Shades of Gray
350
3A
  3
Sketchy
350
3B
  3
Thicken
350
36
  3
Wireframe
350
30
  3
X-Ray
350
3C
  0
XRECORD
  5
15F
102
{ACAD_REACTORS
330
C
102
}
330
C
100
AcDbXrecord
280
     1
 90
        1
330
65
  0
DICTIONARY
  5
157
102
{ACAD_REACTORS
330
C
102
}
330
C
100
AcDbDictionary
281
     1
  3
CANNOSCALE
350
15C
  3
CMLEADERSTYLE
350
159
  3
CTABLESTYLE
350
158
  3
CVIEWDETAILSTYLE
350
15A
  3
CVIEWSECTIONSTYLE
350
15B
  0
ACDBDETAILVIEWSTYLE
  5
6B
102
{ACAD_XDICTIONARY
360
194
102
}
102
{ACAD_REACTORS
330
6A
102
}
330
6A
100
AcDbModelDocViewStyle
 70
     0
  3
Imperial24
290
     0
100
AcDbDetailViewStyle
 70
     0
 71
     0
 90
        3
 71
     1
340
55
 62
   256
 40
0.24
340
0
 62
   256
 40
0.24
300

 40
0.36
280
     3
 71
     2
340
5D
 90
       25
 62
   256
 71
     3
340
55
 62
   256
 40
0.24
 90
        1
 40
0.75
 90
        1
300
%<\AcVar ViewType \f "%tc1">% %<\AcVar ViewDetailId>%\PSCALE %<\AcVar ViewScale \f "%sn">%
 71
     4
340
5D
 90
       25
 62
   256
340
5D
 90
       25
 62
   256
280
     0
  0
LAYOUT
  5
6F
102
{ACAD_REACTORS
330
62
102
}
330
62
100
AcDbPlotSettings
  1

  2

  4

  6

 40
0.0
 41
0.0
 42
0.0
 43
0.0
 44
0.0
 45
0.0
 46
0.0
 47
0.0
 48
0.0
 49
0.0
140
0.0
141
0.0
142
1.0
143
1.0
 70
   688
 72
     0
 73
     0
 74
     5
  7

 75
    16
147
1.0
 76
     0
 77
     2
 78
   300
148
0.0
149
0.0
100
AcDbLayout
  1
Layout1
 70
     1
 71
     1
 10
0.0
 20
0.0
 11
12.0
 21
9.0
 12
0.0
 22
0.0
 32
0.0
 14
0.0
 24
0.0
 34
0.0
 15
0.0
 25
0.0
 35
0.0
146
0.0
 13
0.0
 23
0.0
 33
0.0
 16
1.0
 26
0.0
 36
0.0
 17
0.0
 27
1.0
 37
0.0
 76
     0
330
6C
  0
LAYOUT
  5
77
102
{ACAD_REACTORS
330
62
102
}
330
62
100
AcDbPlotSettings
  1

  2

  4

  6

 40
0.0
 41
0.0
 42
0.0
 43
0.0
 44
0.0
 45
0.0
 46
0.0
 47
0.0
 48
0.0
 49
0.0
140
0.0
141
0.0
142
1.0
143
1.0
 70
   688
 72
     0
 73
     0
 74
     5
  7

 75
    16
147
1.0
 76
     0
 77
     2
 78
   300
148
0.0
149
0.0
100
AcDbLayout
  1
Layout2
 70
     1
 71
     2
 10
0.0
 20
0.0
 11
12.0
 21
9.0
 12
0.0
 22
0.0
 32
0.0
 14
0.0
 24
0.0
 34
0.0
 15
0.0
 25
0.0
 35
0.0
146
0.0
 13
0.0
 23
0.0
 33
0.0
 16
1.0
 26
0.0
 36
0.0
 17
0.0
 27
1.0
 37
0.0
 76
     0
330
74
  0
LAYOUT
  5
73
102
{ACAD_REACTORS
330
62
102
}
330
62
100
AcDbPlotSettings
  1

  2

  4

  6

 40
0.0
 41
0.0
 42
0.0
 43
0.0
 44
0.0
 45
0.0
 46
0.0
 47
0.0
 48
0.0
 49
0.0
140
0.0
141
0.0
142
1.0
143
1.0
 70
  1712
 72
     0
 73
     0
 74
     0
  7

 75
     0
147
1.0
 76
     0
 77
     2
 78
   300
148
0.0
149
0.0
100
AcDbLayout
  1
Model
 70
     1
 71
     0
 10
0.0
 20
0.0
 11
12.0
 21
9.0
 12
0.0
 22
0.0
 32
0.0
 14
0.0
 24
0.0
 34
0.0
 15
0.0
 25
0.0
 35
0.0
146
0.0
 13
0.0
 23
0.0
 33
0.0
 16
1.0
 26
0.0
 36
0.0
 17
0.0
 27
1.0
 37
0.0
 76
     0
330
70
  0
MATERIAL
  5
19
102
{ACAD_XDICTIONARY
360
1A
102
}
102
{ACAD_REACTORS
330
10
102
}
330
10
100
AcDbMaterial
  1
ByBlock
 72
     0
 43
0.0208333333333333
 43
0.0
 43
0.0
 43
0.0
 43
0.0
 43
0.0208333333333333
 43
0.0
 43
0.0
 43
0.0
 43
0.0
 43
1.0
 43
0.0
 43
0.0
 43
0.0
 43
0.0
 43
1.0
 77
     0
 47
0.0208333333333333
 47
0.0
 47
0.0
 47
0.0
 47
0.0
 47
0.0208333333333333
 47
0.0
 47
0.0
 47
0.0
 47
0.0
 47
1.0
 47
0.0
 47
0.0
 47
0.0
 47
0.0
 47
1.0
171
     0
 49
0.0208333333333333
 49
0.0
 49
0.0
 49
0.0
 49
0.0
 49
0.0208333333333333
 49
0.0
 49
0.0
 49
0.0
 49
0.0
 49
1.0
 49
0.0
 49
0.0
 49
0.0
 49
0.0
 49
1.0
175
     0
142
0.0208333333333333
142
0.0
142
0.0
142
0.0
142
0.0
142
0.0208333333333333
142
0.0
142
0.0
142
0.0
142
0.0
142
1.0
142
0.0
142
0.0
142
0.0
142
0.0
142
1.0
179
     0
144
0.0208333333333333
144
0.0
144
0.0
144
0.0
144
0.0
144
0.0208333333333333
144
0.0
144
0.0
144
0.0
144
0.0
144
1.0
144
0.0
144
0.0
144
0.0
144
0.0
144
1.0
147
0.0208333333333333
147
0.0
147
0.0
147
0.0
147
0.0
147
0.0208333333333333
147
0.0
147
0.0
147
0.0
147
0.0
147
1.0
147
0.0
147
0.0
147
0.0
147
0.0
147
1.0
  0
MATERIAL
  5
11
102
{ACAD_XDICTIONARY
360
12
102
}
102
{ACAD_REACTORS
330
10
102
}
330
10
100
AcDbMaterial
  1
ByLayer
 72
     0
 43
0.0208333333333333
 43
0.0
 43
0.0
 43
0.0
 43
0.0
 43
0.0208333333333333
 43
0.0
 43
0.0
 43
0.0
 43
0.0
 43
1.0
 43
0.0
 43
0.0
 43
0.0
 43
0.0
 43
1.0
 77
     0
 47
0.0208333333333333
 47
0.0
 47
0.0
 47
0.0
 47
0.0
 47
0.0208333333333333
 47
0.0
 47
0.0
 47
0.0
 47
0.0
 47
1.0
 47
0.0
 47
0.0
 47
0.0
 47
0.0
 47
1.0
171
     0
 49
0.0208333333333333
 49
0.0
 49
0.0
 49
0.0
 49
0.0
 49
0.0208333333333333
 49
0.0
 49
0.0
 49
0.0
 49
0.0
 49
1.0
 49
0.0
 49
0.0
 49
0.0
 49
0.0
 49
1.0
175
     0
142
0.0208333333333333
142
0.0
142
0.0
142
0.0
142
0.0
142
0.0208333333333333
142
0.0
142
0.0
142
0.0
142
0.0
142
1.0
142
0.0
142
0.0
142
0.0
142
0.0
142
1.0
179
     0
144
0.0208333333333333
144
0.0
144
0.0
144
0.0
144
0.0
144
0.0208333333333333
144
0.0
144
0.0
144
0.0
144
0.0
144
1.0
144
0.0
144
0.0
144
0.0
144
0.0
144
1.0
147
0.0208333333333333
147
0.0
147
0.0
147
0.0
147
0.0
147
0.0208333333333333
147
0.0
147
0.0
147
0.0
147
0.0
147
1.0
147
0.0
147
0.0
147
0.0
147
0.0
147
1.0
  0
MATERIAL
  5
21
102
{ACAD_XDICTIONARY
360
22
102
}
102
{ACAD_REACTORS
330
10
102
}
330
10
100
AcDbMaterial
  1
Global
 72
     0
 43
0.0208333333333333
 43
0.0
 43
0.0
 43
0.0
 43
0.0
 43
0.0208333333333333
 43
0.0
 43
0.0
 43
0.0
 43
0.0
 43
1.0
 43
0.0
 43
0.0
 43
0.0
 43
0.0
 43
1.0
 77
     0
 47
0.0208333333333333
 47
0.0
 47
0.0
 47
0.0
 47
0.0
 47
0.0208333333333333
 47
0.0
 47
0.0
 47
0.0
 47
0.0
 47
1.0
 47
0.0
 47
0.0
 47
0.0
 47
0.0
 47
1.0
171
     0
 49
0.0208333333333333
 49
0.0
 49
0.0
 49
0.0
 49
0.0
 49
0.0208333333333333
 49
0.0
 49
0.0
 49
0.0
 49
0.0
 49
1.0
 49
0.0
 49
0.0
 49
0.0
 49
0.0
 49
1.0
175
     0
142
0.0208333333333333
142
0.0
142
0.0
142
0.0
142
0.0
142
0.0208333333333333
142
0.0
142
0.0
142
0.0
142
0.0
142
1.0
142
0.0
142
0.0
142
0.0
142
0.0
142
1.0
179
     0
144
0.0208333333333333
144
0.0
144
0.0
144
0.0
144
0.0
144
0.0208333333333333
144
0.0
144
0.0
144
0.0
144
0.0
144
1.0
144
0.0
144
0.0
144
0.0
144
0.0
144
1.0
147
0.0208333333333333
147
0.0
147
0.0
147
0.0
147
0.0
147
0.0208333333333333
147
0.0
147
0.0
147
0.0
147
0.0
147
1.0
147
0.0
147
0.0
147
0.0
147
0.0
147
1.0
  0
MLEADERSTYLE
  5
67
102
{ACAD_XDICTIONARY
360
190
102
}
102
{ACAD_REACTORS
330
66
102
}
330
66
100
AcDbMLeaderStyle
179
     2
170
     2
171
     1
172
     0
 90
        2
 40
0.0
 41
0.0
173
     1
 91
-1056964608
340
5B
 92
       -2
290
     1
 42
0.09
291
     1
 43
0.36
  3
Standard
 44
0.18
300

342
55
174
     1
178
     6
175
     1
176
     0
 93
-1056964608
 45
0.18
292
     0
297
     0
 46
0.18
 94
-1056964608
 47
1.0
 49
1.0
140
1.0
293
     1
141
0.0
294
     1
177
     0
142
1.0
295
     0
296
     0
143
0.125
271
     0
272
     9
273
     9
  0
MLINESTYLE
  5
60
102
{ACAD_REACTORS
330
5F
102
}
330
5F
100
AcDbMlineStyle
  2
STANDARD
 70
     0
  3

 62
   256
 51
90.0
 52
90.0
 71
     2
 49
0.5
 62
   256
  6
BYLAYER
 49
-0.5
 62
   256
  6
BYLAYER
  0
ACDBPLACEHOLDER
  5
F
102
{ACAD_REACTORS
330
E
102
}
330
E
  0
SCALE
  5
43
102
{ACAD_REACTORS
330
42
102
}
330
42
100
AcDbScale
 70
     0
300
1:1
140
1.0
141
1.0
290
     1
  0
SCALE
  5
44
102
{ACAD_REACTORS
330
42
102
}
330
42
100
AcDbScale
 70
     0
300
1/128" = 1'-0"
140
0.0078125
141
12.0
290
     0
  0
SCALE
  5
45
102
{ACAD_REACTORS
330
42
102
}
330
42
100
AcDbScale
 70
     0
300
1/64" = 1'-0"
140
0.015625
141
12.0
290
     0
  0
SCALE
  5
46
102
{ACAD_REACTORS
330
42
102
}
330
42
100
AcDbScale
 70
     0
300
1/32" = 1'-0"
140
0.03125
141
12.0
290
     0
  0
SCALE
  5
47
102
{ACAD_REACTORS
330
42
102
}
330
42
100
AcDbScale
 70
     0
300
1/16" = 1'-0"
140
0.0625
141
12.0
290
     0
  0
SCALE
  5
48
102
{ACAD_REACTORS
330
42
102
}
330
42
100
AcDbScale
 70
     0
300
3/32" = 1'-0"
140
0.09375
141
12.0
290
     0
  0
SCALE
  5
49
102
{ACAD_REACTORS
330
42
102
}
330
42
100
AcDbScale
 70
     0
300
1/8" = 1'-0"
140
0.125
141
12.0
290
     0
  0
SCALE
  5
4A
102
{ACAD_REACTORS
330
42
102
}
330
42
100
AcDbScale
 70
     0
300
3/16" = 1'-0"
140
0.1875
141
12.0
290
     0
  0
SCALE
  5
4B
102
{ACAD_REACTORS
330
42
102
}
330
42
100
AcDbScale
 70
     0
300
1/4" = 1'-0"
140
0.25
141
12.0
290
     0
  0
SCALE
  5
4C
102
{ACAD_REACTORS
330
42
102
}
330
42
100
AcDbScale
 70
     0
300
3/8" = 1'-0"
140
0.375
141
12.0
290
     0
  0
SCALE
  5
4D
102
{ACAD_REACTORS
330
42
102
}
330
42
100
AcDbScale
 70
     0
300
1/2" = 1'-0"
140
0.5
141
12.0
290
     0
  0
SCALE
  5
4E
102
{ACAD_REACTORS
330
42
102
}
330
42
100
AcDbScale
 70
     0
300
3/4" = 1'-0"
140
0.75
141
12.0
290
     0
  0
SCALE
  5
4F
102
{ACAD_REACTORS
330
42
102
}
330
42
100
AcDbScale
 70
     0
300
1" = 1'-0"
140
1.0
141
12.0
290
     0
  0
SCALE
  5
50
102
{ACAD_REACTORS
330
42
102
}
330
42
100
AcDbScale
 70
     0
300
1-1/2" = 1'-0"
140
1.5
141
12.0
290
     0
  0
SCALE
  5
51
102
{ACAD_REACTORS
330
42
102
}
330
42
100
AcDbScale
 70
     0
300
3" = 1'-0"
140
3.0
141
12.0
290
     0
  0
SCALE
  5
52
102
{ACAD_REACTORS
330
42
102
}
330
42
100
AcDbScale
 70
     0
300
6" = 1'-0"
140
6.0
141
12.0
290
     0
  0
SCALE
  5
53
102
{ACAD_REACTORS
330
42
102
}
330
42
100
AcDbScale
 70
     0
300
1'-0" = 1'-0"
140
12.0
141
12.0
290
     0
  0
ACDBSECTIONVIEWSTYLE
  5
69
102
{ACAD_XDICTIONARY
360
192
102
}
102
{ACAD_REACTORS
330
68
102
}
330
68
100
AcDbModelDocViewStyle
 70
     0
  3
Imperial24
290
     0
100
AcDbSectionViewStyle
 70
     0
 71
     0
 90
       78
 71
     1
340
55
 62
   256
 40
0.24
340
0
340
0
 62
   256
 40
0.24
300
I, O, Q, S, X, Z
 40
0.48
 90
        3
 40
0.18
 90
        1
 71
     2
340
5D
 90
       25
 62
   256
340
5D
 90
       50
 62
   256
 40
0.24
 40
0.0
 40
0.24
 71
     3
340
55
 62
   256
 40
0.24
 90
        1
 40
0.75
 90
        1
300
%<\AcVar ViewType \f "%tc1">% %<\AcVar ViewSectionStartId>%-%<\AcVar ViewSectionEndId>%\PSCALE %<\AcVar ViewScale \f "%sn">%
 71
     4
 62
   256
 62
   257
300
ANSI31
 40
1.0
 90
        0
290
     0
290
     0
 90
        6
 40
0.0
 40
1.570796326794896
 40
0.2617993877991494
 40
1.308996938995747
 40
-0.2617993877991494
 40
1.832595714594046
  0
TABLESTYLE
  5
65
102
{ACAD_XDICTIONARY
360
15D
102
}
102
{ACAD_REACTORS
330
64
102
}
330
64
100
AcDbTableStyle
280
     0
  3
Standard
 70
     0
 71
     0
 40
0.06
 41
0.06
280
     0
281
     0
  7
Standard
140
0.18
170
     2
 62
     0
 63
     7
283
     0
 90
      512
 91
        0
  1

274
    -2
284
     1
 64
     0
275
    -2
285
     1
 65
     0
276
    -2
286
     1
 66
     0
277
    -2
287
     1
 67
     0
278
    -2
288
     1
 68
     0
279
    -2
289
     1
 69
     0
  7
Standard
140
0.25
170
     5
 62
     0
 63
     7
283
     0
 90
      512
 91
        0
  1

274
    -2
284
     1
 64
     0
275
    -2
285
     1
 65
     0
276
    -2
286
     1
 66
     0
277
    -2
287
     1
 67
     0
278
    -2
288
     1
 68
     0
279
    -2
289
     1
 69
     0
  7
Standard
140
0.18
170
     5
 62
     0
 63
     7
283
     0
 90
      512
 91
        0
  1

274
    -2
284
     1
 64
     0
275
    -2
285
     1
 65
     0
276
    -2
286
     1
 66
     0
277
    -2
287
     1
 67
     0
278
    -2
288
     1
 68
     0
279
    -2
289
     1
 69
     0
  0
VISUALSTYLE
  5
2F
102
{ACAD_XDICTIONARY
360
16A
102
}
102
{ACAD_REACTORS
330
29
102
}
330
29
100
AcDbVisualStyle
  2
2dWireframe
 70
     4
177
     2
291
     0
 71
     0
176
     1
 72
     2
176
     1
 73
     0
176
     1
 90
        0
176
     1
 40
0.6
176
     1
 41
30.0
176
     1
 63
     7
421
 16777215
176
     1
 74
     1
176
     1
 91
        4
176
     1
 64
     7
176
     1
 65
   257
176
     1
 75
     1
176
     1
175
     1
176
     1
 42
1.0
176
     1
 92
        0
176
     1
 66
   257
176
     1
 43
1.0
176
     1
 76
     1
176
     1
 77
     6
176
     1
 78
     2
176
     1
 67
     7
176
     1
 79
     5
176
     1
170
     0
176
     1
171
     0
176
     1
290
     0
176
     1
 93
        1
176
     1
 44
0.0
176
     1
173
     0
176
     1
1001
ACAD
1000
AcDbSavedByObjectVersion
1070
     0
  0
VISUALSTYLE
  5
2E
102
{ACAD_XDICTIONARY
360
168
102
}
102
{ACAD_REACTORS
330
29
102
}
330
29
100
AcDbVisualStyle
  2
Basic
 70
     7
177
     2
291
     1
 71
     1
176
     1
 72
     0
176
     1
 73
     1
176
     1
 90
        0
176
     1
 40
0.6
176
     1
 41
30.0
176
     1
 63
     7
421
 16777215
176
     1
 74
     0
176
     1
 91
        4
176
     1
 64
     7
176
     1
 65
   257
176
     1
 75
     1
176
     1
175
     1
176
     1
 42
1.0
176
     1
 92
        8
176
     1
 66
     7
176
     1
 43
1.0
176
     1
 76
     1
176
     1
 77
     6
176
     1
 78
     2
176
     1
 67
     7
176
     1
 79
     5
176
     1
170
     0
176
     1
171
     0
176
     1
290
     0
176
     1
 93
        1
176
     1
 44
0.0
176
     1
173
     0
176
     1
1001
ACAD
1000
AcDbSavedByObjectVersion
1070
     0
  0
VISUALSTYLE
  5
35
102
{ACAD_XDICTIONARY
360
176
102
}
102
{ACAD_REACTORS
330
29
102
}
330
29
100
AcDbVisualStyle
  2
Brighten
 70
    12
177
     2
291
     1
 71
     2
176
     1
 72
     2
176
     1
 73
     0
176
     1
 90
        0
176
     1
 40
0.6
176
     1
 41
30.0
176
     1
 63
     7
421
 16777215
176
     1
 74
     1
176
     1
 91
        4
176
     1
 64
     7
176
     1
 65
   257
176
     1
 75
     1
176
     1
175
     1
176
     1
 42
1.0
176
     1
 92
        8
176
     1
 66
     7
176
     1
 43
1.0
176
     1
 76
     1
176
     1
 77
     6
176
     1
 78
     2
176
     1
 67
     7
176
     1
 79
     5
176
     1
170
     0
176
     1
171
     0
176
     1
290
     0
176
     1
 93
        1
176
     1
 44
50.0
176
     1
173
     0
176
     1
1001
ACAD
1000
AcDbSavedByObjectVersion
1070
     0
  0
VISUALSTYLE
  5
39
102
{ACAD_XDICTIONARY
360
17E
102
}
102
{ACAD_REACTORS
330
29
102
}
330
29
100
AcDbVisualStyle
  2
ColorChange
 70
    16
177
     2
291
     1
 71
     2
176
     1
 72
     2
176
     1
 73
     3
176
     1
 90
        0
176
     1
 40
0.6
176
     1
 41
30.0
176
     1
 63
     8
421
  8421504
176
     1
 74
     1
176
     1
 91
        4
176
     1
 64
     7
176
     1
 65
   257
176
     1
 75
     1
176
     1
175
     1
176
     1
 42
1.0
176
     1
 92
        8
176
     1
 66
     8
424
  8421504
176
     1
 43
1.0
176
     1
 76
     1
176
     1
 77
     6
176
     1
 78
     2
176
     1
 67
     7
176
     1
 79
     5
176
     1
170
     0
176
     1
171
     0
176
     1
290
     0
176
     1
 93
        1
176
     1
 44
0.0
176
     1
173
     0
176
     1
1001
ACAD
1000
AcDbSavedByObjectVersion
1070
     0
  0
VISUALSTYLE
  5
32
102
{ACAD_XDICTIONARY
360
170
102
}
102
{ACAD_REACTORS
330
29
102
}
330
29
100
AcDbVisualStyle
  2
Conceptual
 70
     9
177
     2
291
     0
 71
     3
176
     1
 72
     2
176
     1
 73
     0
176
     1
 90
        0
176
     1
 40
0.6
176
     1
 41
30.0
176
     1
 63
     7
421
 16777215
176
     1
 74
     2
176
     1
 91
        2
176
     1
 64
     7
176
     1
 65
   257
176
     1
 75
     1
176
     1
175
     1
176
     1
 42
179.0
176
     1
 92
        8
176
     1
 66
     7
176
     1
 43
1.0
176
     1
 76
     1
176
     1
 77
     6
176
     1
 78
     2
176
     1
 67
     7
176
     1
 79
     3
176
     1
170
     0
176
     1
171
     0
176
     1
290
     0
176
     1
 93
        1
176
     1
 44
0.0
176
     1
173
     0
176
     1
1001
ACAD
1000
AcDbSavedByObjectVersion
1070
     0
  0
VISUALSTYLE
  5
34
102
{ACAD_XDICTIONARY
360
174
102
}
102
{ACAD_REACTORS
330
29
102
}
330
29
100
AcDbVisualStyle
  2
Dim
 70
    11
177
     2
291
     1
 71
     2
176
     1
 72
     2
176
     1
 73
     0
176
     1
 90
        0
176
     1
 40
0.6
176
     1
 41
30.0
176
     1
 63
     7
421
 16777215
176
     1
 74
     1
176
     1
 91
        4
176
     1
 64
     7
176
     1
 65
   257
176
     1
 75
     1
176
     1
175
     1
176
     1
 42
1.0
176
     1
 92
        8
176
     1
 66
     7
176
     1
 43
1.0
176
     1
 76
     1
176
     1
 77
     6
176
     1
 78
     2
176
     1
 67
     7
176
     1
 79
     5
176
     1
170
     0
176
     1
171
     0
176
     1
290
     0
176
     1
 93
        1
176
     1
 44
-50.0
176
     1
173
     0
176
     1
1001
ACAD
1000
AcDbSavedByObjectVersion
1070
     0
  0
VISUALSTYLE
  5
41
102
{ACAD_XDICTIONARY
360
18E
102
}
102
{ACAD_REACTORS
330
29
102
}
330
29
100
AcDbVisualStyle
  2
EdgeColorOff
 70
    22
177
     2
291
     1
 71
     2
176
     0
 72
     2
176
     0
 73
     0
176
     0
 90
        0
176
     0
 40
0.6
176
     0
 41
30.0
176
     0
 63
     7
421
 16777215
176
     0
 74
     1
176
     0
 91
        4
176
     0
 64
     7
176
     0
 65
   257
176
     0
 75
     1
176
     0
175
     1
176
     0
 42
1.0
176
     0
 92
        8
176
     2
 66
     7
176
     0
 43
1.0
176
     0
 76
     1
176
     0
 77
     6
176
     0
 78
     2
176
     0
 67
     7
176
     0
 79
     5
176
     0
170
     0
176
     0
171
     0
176
     0
290
     0
176
     0
 93
        1
176
     0
 44
0.0
176
     0
173
     0
176
     0
1001
ACAD
1000
AcDbSavedByObjectVersion
1070
     0
  0
VISUALSTYLE
  5
38
102
{ACAD_XDICTIONARY
360
17C
102
}
102
{ACAD_REACTORS
330
29
102
}
330
29
100
AcDbVisualStyle
  2
Facepattern
 70
    15
177
     2
291
     1
 71
     2
176
     1
 72
     2
176
     1
 73
     0
176
     1
 90
        0
176
     1
 40
0.6
176
     1
 41
30.0
176
     1
 63
     7
421
 16777215
176
     1
 74
     1
176
     1
 91
        4
176
     1
 64
     7
176
     1
 65
   257
176
     1
 75
     1
176
     1
175
     1
176
     1
 42
1.0
176
     1
 92
        8
176
     1
 66
     7
176
     1
 43
1.0
176
     1
 76
     1
176
     1
 77
     6
176
     1
 78
     2
176
     1
 67
     7
176
     1
 79
     5
176
     1
170
     0
176
     1
171
     0
176
     1
290
     0
176
     1
 93
        1
176
     1
 44
0.0
176
     1
173
     0
176
     1
1001
ACAD
1000
AcDbSavedByObjectVersion
1070
     0
  0
VISUALSTYLE
  5
2A
102
{ACAD_XDICTIONARY
360
160
102
}
102
{ACAD_REACTORS
330
29
102
}
330
29
100
AcDbVisualStyle
  2
Flat
 70
     0
177
     2
291
     1
 71
     2
176
     1
 72
     1
176
     1
 73
     1
176
     1
 90
        2
176
     1
 40
0.6
176
     1
 41
30.0
176
     1
 63
     7
421
 16777215
176
     1
 74
     0
176
     1
 91
        0
176
     1
 64
     7
176
     1
 65
   257
176
     1
 75
     1
176
     1
175
     1
176
     1
 42
1.0
176
     1
 92
        8
176
     1
 66
     7
176
     1
 43
1.0
176
     1
 76
     1
176
     1
 77
     6
176
     1
 78
     2
176
     1
 67
     7
176
     1
 79
     5
176
     1
170
     0
176
     1
171
     0
176
     1
290
     0
176
     1
 93
       13
176
     1
 44
0.0
176
     1
173
     0
176
     1
1001
ACAD
1000
AcDbSavedByObjectVersion
1070
     0
  0
VISUALSTYLE
  5
2B
102
{ACAD_XDICTIONARY
360
162
102
}
102
{ACAD_REACTORS
330
29
102
}
330
29
100
AcDbVisualStyle
  2
FlatWithEdges
 70
     1
177
     2
291
     1
 71
     2
176
     1
 72
     1
176
     1
 73
     1
176
     1
 90
        2
176
     1
 40
0.6
176
     1
 41
30.0
176
     1
 63
     7
421
 16777215
176
     1
 74
     1
176
     1
 91
        0
176
     1
 64
     7
176
     1
 65
   257
176
     1
 75
     1
176
     1
175
     1
176
     1
 42
1.0
176
     1
 92
        0
176
     1
 66
   257
176
     1
 43
1.0
176
     1
 76
     1
176
     1
 77
     6
176
     1
 78
     2
176
     1
 67
     7
176
     1
 79
     5
176
     1
170
     0
176
     1
171
     0
176
     1
290
     0
176
     1
 93
       13
176
     1
 44
0.0
176
     1
173
     0
176
     1
1001
ACAD
1000
AcDbSavedByObjectVersion
1070
     0
  0
VISUALSTYLE
  5
2C
102
{ACAD_XDICTIONARY
360
164
102
}
102
{ACAD_REACTORS
330
29
102
}
330
29
100
AcDbVisualStyle
  2
Gouraud
 70
     2
177
     2
291
     1
 71
     2
176
     1
 72
     2
176
     1
 73
     1
176
     1
 90
        2
176
     1
 40
0.6
176
     1
 41
30.0
176
     1
 63
     7
421
 16777215
176
     1
 74
     0
176
     1
 91
        0
176
     1
 64
     7
176
     1
 65
   257
176
     1
 75
     1
176
     1
175
     1
176
     1
 42
1.0
176
     1
 92
        0
176
     1
 66
     7
176
     1
 43
1.0
176
     1
 76
     1
176
     1
 77
     6
176
     1
 78
     2
176
     1
 67
     7
176
     1
 79
     5
176
     1
170
     0
176
     1
171
     0
176
     1
290
     0
176
     1
 93
       13
176
     1
 44
0.0
176
     1
173
     0
176
     1
1001
ACAD
1000
AcDbSavedByObjectVersion
1070
     0
  0
VISUALSTYLE
  5
2D
102
{ACAD_XDICTIONARY
360
166
102
}
102
{ACAD_REACTORS
330
29
102
}
330
29
100
AcDbVisualStyle
  2
GouraudWithEdges
 70
     3
177
     2
291
     1
 71
     2
176
     1
 72
     2
176
     1
 73
     1
176
     1
 90
        2
176
     1
 40
0.6
176
     1
 41
30.0
176
     1
 63
     7
421
 16777215
176
     1
 74
     1
176
     1
 91
        0
176
     1
 64
     7
176
     1
 65
   257
176
     1
 75
     1
176
     1
175
     1
176
     1
 42
1.0
176
     1
 92
        0
176
     1
 66
   257
176
     1
 43
1.0
176
     1
 76
     1
176
     1
 77
     6
176
     1
 78
     2
176
     1
 67
     7
176
     1
 79
     5
176
     1
170
     0
176
     1
171
     0
176
     1
290
     0
176
     1
 93
       13
176
     1
 44
0.0
176
     1
173
     0
176
     1
1001
ACAD
1000
AcDbSavedByObjectVersion
1070
     0
  0
VISUALSTYLE
  5
31
102
{ACAD_XDICTIONARY
360
16E
102
}
102
{ACAD_REACTORS
330
29
102
}
330
29
100
AcDbVisualStyle
  2
Hidden
 70
     6
177
     2
291
     0
 71
     1
176
     1
 72
     2
176
     1
 73
     2
176
     1
 90
        0
176
     1
 40
0.6
176
     1
 41
30.0
176
     1
 63
     7
421
 16777215
176
     1
 74
     2
176
     1
 91
        2
176
     1
 64
     7
176
     1
 65
   257
176
     1
 75
     2
176
     1
175
     1
176
     1
 42
40.0
176
     1
 92
        0
176
     1
 66
   257
176
     1
 43
1.0
176
     1
 76
     1
176
     1
 77
     6
176
     1
 78
     2
176
     1
 67
     7
176
     1
 79
     3
176
     1
170
     0
176
     1
171
     0
176
     1
290
     0
176
     1
 93
        1
176
     1
 44
0.0
176
     1
173
     0
176
     1
1001
ACAD
1000
AcDbSavedByObjectVersion
1070
     0
  0
VISUALSTYLE
  5
3F
102
{ACAD_XDICTIONARY
360
18A
102
}
102
{ACAD_REACTORS
330
29
102
}
330
29
100
AcDbVisualStyle
  2
JitterOff
 70
    20
177
     2
291
     1
 71
     2
176
     0
 72
     2
176
     0
 73
     0
176
     0
 90
        0
176
     0
 40
0.6
176
     0
 41
30.0
176
     0
 63
     7
421
 16777215
176
     0
 74
     1
176
     0
 91
        4
176
     0
 64
     7
176
     0
 65
   257
176
     0
 75
     1
176
     0
175
     1
176
     0
 42
1.0
176
     0
 92
       10
176
     2
 66
     7
176
     0
 43
1.0
176
     0
 76
     1
176
     0
 77
     6
176
     0
 78
     2
176
     0
 67
     7
176
     0
 79
     5
176
     0
170
     0
176
     0
171
     0
176
     0
290
     0
176
     0
 93
        1
176
     0
 44
0.0
176
     0
173
     0
176
     0
1001
ACAD
1000
AcDbSavedByObjectVersion
1070
     0
  0
VISUALSTYLE
  5
37
102
{ACAD_XDICTIONARY
360
17A
102
}
102
{ACAD_REACTORS
330
29
102
}
330
29
100
AcDbVisualStyle
  2
Linepattern
 70
    14
177
     2
291
     1
 71
     2
176
     1
 72
     2
176
     1
 73
     0
176
     1
 90
        0
176
     1
 40
0.6
176
     1
 41
30.0
176
     1
 63
     7
421
 16777215
176
     1
 74
     1
176
     1
 91
        4
176
     1
 64
     7
176
     1
 65
   257
176
     1
 75
     7
176
     1
175
     7
176
     1
 42
1.0
176
     1
 92
        8
176
     1
 66
     7
176
     1
 43
1.0
176
     1
 76
     1
176
     1
 77
     6
176
     1
 78
     2
176
     1
 67
     7
176
     1
 79
     5
176
     1
170
     0
176
     1
171
     0
176
     1
290
     0
176
     1
 93
        1
176
     1
 44
0.0
176
     1
173
     0
176
     1
1001
ACAD
1000
AcDbSavedByObjectVersion
1070
     0
  0
VISUALSTYLE
  5
40
102
{ACAD_XDICTIONARY
360
18C
102
}
102
{ACAD_REACTORS
330
29
102
}
330
29
100
AcDbVisualStyle
  2
OverhangOff
 70
    21
177
     2
291
     1
 71
     2
176
     0
 72
     2
176
     0
 73
     0
176
     0
 90
        0
176
     0
 40
0.6
176
     0
 41
30.0
176
     0
 63
     7
421
 16777215
176
     0
 74
     1
176
     0
 91
        4
176
     0
 64
     7
176
     0
 65
   257
176
     0
 75
     1
176
     0
175
     1
176
     0
 42
1.0
176
     0
 92
        9
176
     2
 66
     7
176
     0
 43
1.0
176
     0
 76
     1
176
     0
 77
     6
176
     0
 78
     2
176
     0
 67
     7
176
     0
 79
     5
176
     0
170
     0
176
     0
171
     0
176
     0
290
     0
176
     0
 93
        1
176
     0
 44
0.0
176
     0
173
     0
176
     0
1001
ACAD
1000
AcDbSavedByObjectVersion
1070
     0
  0
VISUALSTYLE
  5
33
102
{ACAD_XDICTIONARY
360
172
102
}
102
{ACAD_REACTORS
330
29
102
}
330
29
100
AcDbVisualStyle
  2
Realistic
 70
     8
177
     2
291
     0
 71
     2
176
     1
 72
     3
176
     1
 73
     0
176
     1
 90
        2
176
     1
 40
0.6
176
     1
 41
30.0
176
     1
 63
     7
421
 16777215
176
     1
 74
     0
176
     1
 91
        0
176
     1
 64
     7
176
     1
 65
   257
176
     1
 75
     1
176
     1
175
     1
176
     1
 42
1.0
176
     1
 92
        8
176
     1
 66
   257
176
     1
 43
1.0
176
     1
 76
     1
176
     1
 77
     6
176
     1
 78
     2
176
     1
 67
     7
176
     1
 79
     3
176
     1
170
     0
176
     1
171
     0
176
     1
290
     0
176
     1
 93
       13
176
     1
 44
0.0
176
     1
173
     0
176
     1
1001
ACAD
1000
AcDbSavedByObjectVersion
1070
     0
  0
VISUALSTYLE
  5
3E
102
{ACAD_XDICTIONARY
360
188
102
}
102
{ACAD_REACTORS
330
29
102
}
330
29
100
AcDbVisualStyle
  2
Shaded
 70
    27
177
     2
291
     0
 71
     2
176
     1
 72
     2
176
     1
 73
     1
176
     1
 90
        2
176
     1
 40
0.6
176
     1
 41
30.0
176
     1
 63
     7
421
 16777215
176
     1
 74
     0
176
     1
 91
        4
176
     1
 64
     7
176
     1
 65
   257
176
     1
 75
     1
176
     1
175
     1
176
     1
 42
1.0
176
     1
 92
        8
176
     1
 66
   257
176
     1
 43
1.0
176
     1
 76
     1
176
     1
 77
     6
176
     1
 78
     2
176
     1
 67
     8
425
  7895160
176
     1
 79
     3
176
     1
170
     0
176
     1
171
     0
176
     1
290
     0
176
     1
 93
        5
176
     1
 44
0.0
176
     1
173
     0
176
     1
1001
ACAD
1000
AcDbSavedByObjectVersion
1070
     0
  0
VISUALSTYLE
  5
3D
102
{ACAD_XDICTIONARY
360
186
102
}
102
{ACAD_REACTORS
330
29
102
}
330
29
100
AcDbVisualStyle
  2
Shaded with edges
 70
    26
177
     2
291
     0
 71
     2
176
     1
 72
     2
176
     1
 73
     1
176
     1
 90
        2
176
     1
 40
0.6
176
     1
 41
30.0
176
     1
 63
     7
421
 16777215
176
     1
 74
     1
176
     1
 91
        2
176
     1
 64
     7
176
     1
 65
   257
176
     1
 75
     2
176
     1
175
     1
176
     1
 42
1.0
176
     1
 92
        8
176
     1
 66
   257
176
     1
 43
1.0
176
     1
 76
     1
176
     1
 77
     6
176
     1
 78
     2
176
     1
 67
     7
176
     1
 79
     3
176
     1
170
     0
176
     1
171
     0
176
     1
290
     0
176
     1
 93
        5
176
     1
 44
0.0
176
     1
173
     0
176
     1
1001
ACAD
1000
AcDbSavedByObjectVersion
1070
     0
  0
VISUALSTYLE
  5
3A
102
{ACAD_XDICTIONARY
360
180
102
}
102
{ACAD_REACTORS
330
29
102
}
330
29
100
AcDbVisualStyle
  2
Shades of Gray
 70
    23
177
     2
291
     0
 71
     2
176
     1
 72
     2
176
     1
 73
     3
176
     1
 90
        0
176
     1
 40
0.6
176
     1
 41
30.0
176
     1
 63
     7
421
 16777215
176
     1
 74
     2
176
     1
 91
        2
176
     1
 64
     7
176
     1
 65
     7
176
     1
 75
     1
176
     1
175
     1
176
     1
 42
40.0
176
     1
 92
        8
176
     1
 66
     7
176
     1
 43
1.0
176
     1
 76
     1
176
     1
 77
     6
176
     1
 78
     2
176
     1
 67
     7
176
     1
 79
     3
176
     1
170
     0
176
     1
171
     0
176
     1
290
     0
176
     1
 93
        1
176
     1
 44
0.0
176
     1
173
     0
176
     1
1001
ACAD
1000
AcDbSavedByObjectVersion
1070
     0
  0
VISUALSTYLE
  5
3B
102
{ACAD_XDICTIONARY
360
182
102
}
102
{ACAD_REACTORS
330
29
102
}
330
29
100
AcDbVisualStyle
  2
Sketchy
 70
    24
177
     2
291
     0
 71
     1
176
     1
 72
     2
176
     1
 73
     2
176
     1
 90
        0
176
     1
 40
0.6
176
     1
 41
30.0
176
     1
 63
     7
421
 16777215
176
     1
 74
     2
176
     1
 91
        2
176
     1
 64
     7
176
     1
 65
     7
176
     1
 75
     1
176
     1
175
     1
176
     1
 42
40.0
176
     1
 92
       11
176
     1
 66
     7
176
     1
 43
1.0
176
     1
 76
     1
176
     1
 77
     6
176
     1
 78
     2
176
     1
 67
     7
176
     1
 79
     6
176
     1
170
     0
176
     1
171
     0
176
     1
290
     0
176
     1
 93
        1
176
     1
 44
0.0
176
     1
173
     0
176
     1
1001
ACAD
1000
AcDbSavedByObjectVersion
1070
     0
  0
VISUALSTYLE
  5
36
102
{ACAD_XDICTIONARY
360
178
102
}
102
{ACAD_REACTORS
330
29
102
}
330
29
100
AcDbVisualStyle
  2
Thicken
 70
    13
177
     2
291
     1
 71
     2
176
     1
 72
     2
176
     1
 73
     0
176
     1
 90
        0
176
     1
 40
0.6
176
     1
 41
30.0
176
     1
 63
     7
421
 16777215
176
     1
 74
     1
176
     1
 91
        4
176
     1
 64
     7
176
     1
 65
   257
176
     1
 75
     1
176
     1
175
     1
176
     1
 42
1.0
176
     1
 92
       12
176
     1
 66
     7
176
     1
 43
1.0
176
     1
 76
     1
176
     1
 77
     6
176
     1
 78
     2
176
     1
 67
     7
176
     1
 79
     5
176
     1
170
     0
176
     1
171
     0
176
     1
290
     0
176
     1
 93
        1
176
     1
 44
0.0
176
     1
173
     0
176
     1
1001
ACAD
1000
AcDbSavedByObjectVersion
1070
     0
  0
VISUALSTYLE
  5
30
102
{ACAD_XDICTIONARY
360
16C
102
}
102
{ACAD_REACTORS
330
29
102
}
330
29
100
AcDbVisualStyle
  2
Wireframe
 70
     5
177
     2
291
     0
 71
     0
176
     1
 72
     2
176
     1
 73
     0
176
     1
 90
        0
176
     1
 40
0.6
176
     1
 41
30.0
176
     1
 63
     7
421
 16777215
176
     1
 74
     1
176
     1
 91
        4
176
     1
 64
     7
176
     1
 65
   257
176
     1
 75
     1
176
     1
175
     1
176
     1
 42
1.0
176
     1
 92
        0
176
     1
 66
   257
176
     1
 43
1.0
176
     1
 76
     1
176
     1
 77
     6
176
     1
 78
     2
176
     1
 67
     7
176
     1
 79
     3
176
     1
170
     0
176
     1
171
     0
176
     1
290
     0
176
     1
 93
        1
176
     1
 44
0.0
176
     1
173
     0
176
     1
1001
ACAD
1000
AcDbSavedByObjectVersion
1070
     0
  0
VISUALSTYLE
  5
3C
102
{ACAD_XDICTIONARY
360
184
102
}
102
{ACAD_REACTORS
330
29
102
}
330
29
100
AcDbVisualStyle
  2
X-Ray
 70
    25
177
     2
291
     0
 71
     2
176
     1
 72
     2
176
     1
 73
     1
176
     1
 90
        1
176
     1
 40
0.5
176
     1
 41
30.0
176
     1
 63
     7
421
 16777215
176
     1
 74
     1
176
     1
 91
        0
176
     1
 64
     7
176
     1
 65
   257
176
     1
 75
     1
176
     1
175
     1
176
     1
 42
1.0
176
     1
 92
        8
176
     1
 66
     7
176
     1
 43
1.0
176
     1
 76
     1
176
     1
 77
     6
176
     1
 78
     2
176
     1
 67
     7
176
     1
 79
     3
176
     1
170
     0
176
     1
171
     0
176
     1
290
     0
176
     1
 93
       13
176
     1
 44
0.0
176
     1
173
     0
176
     1
1001
ACAD
1000
AcDbSavedByObjectVersion
1070
     0
  0
DICTIONARYVAR
  5
15C
102
{ACAD_REACTORS
330
157
102
}
330
157
100
DictionaryVariables
280
     0
  1
1:1
  0
DICTIONARYVAR
  5
159
102
{ACAD_REACTORS
330
157
102
}
330
157
100
DictionaryVariables
280
     0
  1
STANDARD
  0
DICTIONARYVAR
  5
158
102
{ACAD_REACTORS
330
157
102
}
330
157
100
DictionaryVariables
280
     0
  1
STANDARD
  0
DICTIONARYVAR
  5
15A
102
{ACAD_REACTORS
330
157
102
}
330
157
100
DictionaryVariables
280
     0
  1
Imperial24
  0
DICTIONARYVAR
  5
15B
102
{ACAD_REACTORS
330
157
102
}
330
157
100
DictionaryVariables
280
     0
  1
Imperial24
  0
DICTIONARY
  5
194
330
6B
100
AcDbDictionary
280
     1
281
     1
  3
ACAD_XREC_ROUNDTRIP
360
195
  0
DICTIONARY
  5
1A
330
19
100
AcDbDictionary
280
     1
281
     1
  3
BUMPTILE
360
1C
  3
DIFFUSETILE
360
1B
  3
OPACITYTILE
360
1F
  3
REFLECTIONTILE
360
1E
  3
REFRACTIONTILE
360
20
  3
SPECULARTILE
360
1D
  0
DICTIONARY
  5
12
330
11
100
AcDbDictionary
280
     1
281
     1
  3
BUMPTILE
360
14
  3
DIFFUSETILE
360
13
  3
OPACITYTILE
360
17
  3
REFLECTIONTILE
360
16
  3
REFRACTIONTILE
360
18
  3
SPECULARTILE
360
15
  0
DICTIONARY
  5
22
330
21
100
AcDbDictionary
280
     1
281
     1
  3
BUMPTILE
360
24
  3
DIFFUSETILE
360
23
  3
OPACITYTILE
360
27
  3
REFLECTIONTILE
360
26
  3
REFRACTIONTILE
360
28
  3
SPECULARTILE
360
25
  0
DICTIONARY
  5
190
330
67
100
AcDbDictionary
280
     1
281
     1
  3
ACAD_XREC_ROUNDTRIP
360
191
  0
DICTIONARY
  5
192
330
69
100
AcDbDictionary
280
     1
281
     1
  3
ACAD_XREC_ROUNDTRIP
360
193
  0
DICTIONARY
  5
15D
330
65
100
AcDbDictionary
280
     1
281
     1
  3
ACAD_ROUNDTRIP_2008_TABLESTYLE_CELLSTYLEMAP
360
15E
  0
DICTIONARY
  5
16A
330
2F
100
AcDbDictionary
280
     1
281
     1
  3
ACAD_XREC_ROUNDTRIP
360
16B
  0
DICTIONARY
  5
168
330
2E
100
AcDbDictionary
280
     1
281
     1
  3
ACAD_XREC_ROUNDTRIP
360
169
  0
DICTIONARY
  5
176
330
35
100
AcDbDictionary
280
     1
281
     1
  3
ACAD_XREC_ROUNDTRIP
360
177
  0
DICTIONARY
  5
17E
330
39
100
AcDbDictionary
280
     1
281
     1
  3
ACAD_XREC_ROUNDTRIP
360
17F
  0
DICTIONARY
  5
170
330
32
100
AcDbDictionary
280
     1
281
     1
  3
ACAD_XREC_ROUNDTRIP
360
171
  0
DICTIONARY
  5
174
330
34
100
AcDbDictionary
280
     1
281
     1
  3
ACAD_XREC_ROUNDTRIP
360
175
  0
DICTIONARY
  5
18E
330
41
100
AcDbDictionary
280
     1
281
     1
  3
ACAD_XREC_ROUNDTRIP
360
18F
  0
DICTIONARY
  5
17C
330
38
100
AcDbDictionary
280
     1
281
     1
  3
ACAD_XREC_ROUNDTRIP
360
17D
  0
DICTIONARY
  5
160
330
2A
100
AcDbDictionary
280
     1
281
     1
  3
ACAD_XREC_ROUNDTRIP
360
161
  0
DICTIONARY
  5
162
330
2B
100
AcDbDictionary
280
     1
281
     1
  3
ACAD_XREC_ROUNDTRIP
360
163
  0
DICTIONARY
  5
164
330
2C
100
AcDbDictionary
280
     1
281
     1
  3
ACAD_XREC_ROUNDTRIP
360
165
  0
DICTIONARY
  5
166
330
2D
100
AcDbDictionary
280
     1
281
     1
  3
ACAD_XREC_ROUNDTRIP
360
167
  0
DICTIONARY
  5
16E
330
31
100
AcDbDictionary
280
     1
281
     1
  3
ACAD_XREC_ROUNDTRIP
360
16F
  0
DICTIONARY
  5
18A
330
3F
100
AcDbDictionary
280
     1
281
     1
  3
ACAD_XREC_ROUNDTRIP
360
18B
  0
DICTIONARY
  5
17A
330
37
100
AcDbDictionary
280
     1
281
     1
  3
ACAD_XREC_ROUNDTRIP
360
17B
  0
DICTIONARY
  5
18C
330
40
100
AcDbDictionary
280
     1
281
     1
  3
ACAD_XREC_ROUNDTRIP
360
18D
  0
DICTIONARY
  5
172
330
33
100
AcDbDictionary
280
     1
281
     1
  3
ACAD_XREC_ROUNDTRIP
360
173
  0
DICTIONARY
  5
188
330
3E
100
AcDbDictionary
280
     1
281
     1
  3
ACAD_XREC_ROUNDTRIP
360
189
  0
DICTIONARY
  5
186
330
3D
100
AcDbDictionary
280
     1
281
     1
  3
ACAD_XREC_ROUNDTRIP
360
187
  0
DICTIONARY
  5
180
330
3A
100
AcDbDictionary
280
     1
281
     1
  3
ACAD_XREC_ROUNDTRIP
360
181
  0
DICTIONARY
  5
182
330
3B
100
AcDbDictionary
280
     1
281
     1
  3
ACAD_XREC_ROUNDTRIP
360
183
  0
DICTIONARY
  5
178
330
36
100
AcDbDictionary
280
     1
281
     1
  3
ACAD_XREC_ROUNDTRIP
360
179
  0
DICTIONARY
  5
16C
330
30
100
AcDbDictionary
280
     1
281
     1
  3
ACAD_XREC_ROUNDTRIP
360
16D
  0
DICTIONARY
  5
184
330
3C
100
AcDbDictionary
280
     1
281
     1
  3
ACAD_XREC_ROUNDTRIP
360
185
  0
XRECORD
  5
195
102
{ACAD_REACTORS
330
194
102
}
330
194
100
AcDbXrecord
280
     1
102
DISPLAYNAME
  1
Imperial24
102
FLAGS
 90
        0
  0
XRECORD
  5
1C
102
{ACAD_REACTORS
330
1A
102
}
330
1A
100
AcDbXrecord
280
     1
270
     1
271
     1
  0
XRECORD
  5
1B
102
{ACAD_REACTORS
330
1A
102
}
330
1A
100
AcDbXrecord
280
     1
270
     1
271
     1
  0
XRECORD
  5
1F
102
{ACAD_REACTORS
330
1A
102
}
330
1A
100
AcDbXrecord
280
     1
270
     1
271
     1
  0
XRECORD
  5
1E
102
{ACAD_REACTORS
330
1A
102
}
330
1A
100
AcDbXrecord
280
     1
270
     1
271
     1
  0
XRECORD
  5
20
102
{ACAD_REACTORS
330
1A
102
}
330
1A
100
AcDbXrecord
280
     1
270
     1
271
     1
  0
XRECORD
  5
1D
102
{ACAD_REACTORS
330
1A
102
}
330
1A
100
AcDbXrecord
280
     1
270
     1
271
     1
  0
XRECORD
  5
14
102
{ACAD_REACTORS
330
12
102
}
330
12
100
AcDbXrecord
280
     1
270
     1
271
     1
  0
XRECORD
  5
13
102
{ACAD_REACTORS
330
12
102
}
330
12
100
AcDbXrecord
280
     1
270
     1
271
     1
  0
XRECORD
  5
17
102
{ACAD_REACTORS
330
12
102
}
330
12
100
AcDbXrecord
280
     1
270
     1
271
     1
  0
XRECORD
  5
16
102
{ACAD_REACTORS
330
12
102
}
330
12
100
AcDbXrecord
280
     1
270
     1
271
     1
  0
XRECORD
  5
18
102
{ACAD_REACTORS
330
12
102
}
330
12
100
AcDbXrecord
280
     1
270
     1
271
     1
  0
XRECORD
  5
15
102
{ACAD_REACTORS
330
12
102
}
330
12
100
AcDbXrecord
280
     1
270
     1
271
     1
  0
XRECORD
  5
24
102
{ACAD_REACTORS
330
22
102
}
330
22
100
AcDbXrecord
280
     1
270
     1
271
     1
  0
XRECORD
  5
23
102
{ACAD_REACTORS
330
22
102
}
330
22
100
AcDbXrecord
280
     1
270
     1
271
     1
  0
XRECORD
  5
27
102
{ACAD_REACTORS
330
22
102
}
330
22
100
AcDbXrecord
280
     1
270
     1
271
     1
  0
XRECORD
  5
26
102
{ACAD_REACTORS
330
22
102
}
330
22
100
AcDbXrecord
280
     1
270
     1
271
     1
  0
XRECORD
  5
28
102
{ACAD_REACTORS
330
22
102
}
330
22
100
AcDbXrecord
280
     1
270
     1
271
     1
  0
XRECORD
  5
25
102
{ACAD_REACTORS
330
22
102
}
330
22
100
AcDbXrecord
280
     1
270
     1
271
     1
  0
XRECORD
  5
191
102
{ACAD_REACTORS
330
190
102
}
330
190
100
AcDbXrecord
280
     1
102
ACAD_ROUNDTRIP_2012_MLEADER_STYLE
298
     1
  0
XRECORD
  5
193
102
{ACAD_REACTORS
330
192
102
}
330
192
100
AcDbXrecord
280
     1
102
DISPLAYNAME
  1
Imperial24
102
FLAGS
 90
        0
  0
CELLSTYLEMAP
  5
15E
102
{ACAD_REACTORS
330
15D
102
}
330
15D
100
AcDbCellStyleMap
 90
        3
300
CELLSTYLE
  1
TABLEFORMAT_BEGIN
 90
        5
170
     1
 91
        0
 92
    32768
 62
   257
 93
        1
300
CONTENTFORMAT
  1
CONTENTFORMAT_BEGIN
 90
        0
 91
        0
 92
      512
 93
        0
300

 40
0.0
140
1.0
 94
        5
 62
     0
340
55
144
0.25
309
CONTENTFORMAT_END
171
     0
 94
        0
309
TABLEFORMAT_END
  1
CELLSTYLE_BEGIN
 90
        1
 91
        1
300
_TITLE
309
CELLSTYLE_END
300
CELLSTYLE
  1
TABLEFORMAT_BEGIN
 90
        5
170
     1
 91
        0
 92
        0
 62
   257
 93
        1
300
CONTENTFORMAT
  1
CONTENTFORMAT_BEGIN
 90
        0
 91
        0
 92
      512
 93
        0
300

 40
0.0
140
1.0
 94
        5
 62
     0
340
55
144
0.18
309
CONTENTFORMAT_END
171
     0
 94
        0
309
TABLEFORMAT_END
  1
CELLSTYLE_BEGIN
 90
        2
 91
        1
300
_HEADER
309
CELLSTYLE_END
300
CELLSTYLE
  1
TABLEFORMAT_BEGIN
 90
        5
170
     1
 91
        0
 92
        0
 62
   257
 93
        1
300
CONTENTFORMAT
  1
CONTENTFORMAT_BEGIN
 90
        0
 91
        0
 92
      512
 93
        0
300

 40
0.0
140
1.0
 94
        2
 62
     0
340
55
144
0.18
309
CONTENTFORMAT_END
171
     0
 94
        0
309
TABLEFORMAT_END
  1
CELLSTYLE_BEGIN
 90
        3
 91
        2
300
_DATA
309
CELLSTYLE_END
  0
XRECORD
  5
16B
102
{ACAD_REACTORS
330
16A
102
}
330
16A
100
AcDbXrecord
280
     1
102
RTVSPost2010Prop28
280
     1
102
RTVSPost2010PropOp28
 70
     1
102
RTVSPost2010Prop29
280
     1
102
RTVSPost2010PropOp29
 70
     1
102
RTVSPost2010Prop30
280
     0
102
RTVSPost2010PropOp30
 70
     1
102
RTVSPost2010Prop31
280
     0
102
RTVSPost2010PropOp31
 70
     1
102
RTVSPost2010Prop32
280
     0
102
RTVSPost2010PropOp32
 70
     1
102
RTVSPost2010Prop33
280
     0
102
RTVSPost2010PropOp33
 70
     1
102
RTVSPost2010Prop34
280
     0
102
RTVSPost2010PropOp34
 70
     1
102
RTVSPost2010Prop35
280
     0
102
RTVSPost2010PropOp35
 70
     1
102
RTVSPost2010Prop36
280
     0
102
RTVSPost2010PropOp36
 70
     1
102
RTVSPost2010Prop37
 90
       50
102
RTVSPost2010PropOp37
 70
     1
102
RTVSPost2010Prop38
140
0.0
102
RTVSPost2010PropOp38
 70
     1
102
RTVSPost2010Prop39
140
1.0
102
RTVSPost2010PropOp39
 70
     1
102
RTVSPost2010Prop40
 90
        0
102
RTVSPost2010PropOp40
 70
     1
102
RTVSPost2010Prop41ColorIndex
 90
       18
102
RTVSPost2010Prop41ColorRGB
 90
        0
102
RTVSPost2010PropOp41
 70
     1
102
RTVSPost2010Prop42
 90
       50
102
RTVSPost2010PropOp42
 70
     1
102
RTVSPost2010Prop43
 90
        3
102
RTVSPost2010PropOp43
 70
     1
102
RTVSPost2010Prop44ColorIndex
 90
        5
102
RTVSPost2010Prop44ColorRGB
 90
      255
102
RTVSPost2010PropOp44
 70
     1
102
RTVSPost2010Prop45
280
     0
102
RTVSPost2010PropOp45
 70
     1
102
RTVSPost2010Prop46
 90
       50
102
RTVSPost2010PropOp46
 70
     1
102
RTVSPost2010Prop47
 90
       50
102
RTVSPost2010PropOp47
 70
     1
102
RTVSPost2010Prop48
 90
       50
102
RTVSPost2010PropOp48
 70
     1
102
RTVSPost2010Prop49
280
     0
102
RTVSPost2010PropOp49
 70
     1
102
RTVSPost2010Prop50
 90
       50
102
RTVSPost2010PropOp50
 70
     1
102
RTVSPost2010Prop51ColorIndex
 90
      256
102
RTVSPost2010Prop51ColorRGB
 90
-16777216
102
RTVSPost2010PropOp51
 70
     0
102
RTVSPost2010Prop52
140
1.0
102
RTVSPost2010PropOp52
 70
     0
102
RTVSPost2010Prop53
 90
        2
102
RTVSPost2010PropOp53
 70
     1
102
RTVSPost2010Prop54
  1
strokes_ogs.tif
102
RTVSPost2010PropOp54
 70
     1
102
RTVSPost2010Prop55
280
     0
102
RTVSPost2010PropOp55
 70
     1
102
RTVSPost2010Prop56
140
1.0
102
RTVSPost2010PropOp56
 70
     1
102
RTVSPost2010Prop57
140
1.0
102
RTVSPost2010PropOp57
 70
     1
  0
XRECORD
  5
169
102
{ACAD_REACTORS
330
168
102
}
330
168
100
AcDbXrecord
280
     1
102
RTVSPost2010Prop28
280
     0
102
RTVSPost2010PropOp28
 70
     1
102
RTVSPost2010Prop29
280
     1
102
RTVSPost2010PropOp29
 70
     1
102
RTVSPost2010Prop30
280
     1
102
RTVSPost2010PropOp30
 70
     1
102
RTVSPost2010Prop31
280
     0
102
RTVSPost2010PropOp31
 70
     1
102
RTVSPost2010Prop32
280
     0
102
RTVSPost2010PropOp32
 70
     1
102
RTVSPost2010Prop33
280
     0
102
RTVSPost2010PropOp33
 70
     1
102
RTVSPost2010Prop34
280
     0
102
RTVSPost2010PropOp34
 70
     1
102
RTVSPost2010Prop35
280
     0
102
RTVSPost2010PropOp35
 70
     1
102
RTVSPost2010Prop36
280
     0
102
RTVSPost2010PropOp36
 70
     1
102
RTVSPost2010Prop37
 90
       50
102
RTVSPost2010PropOp37
 70
     1
102
RTVSPost2010Prop38
140
0.0
102
RTVSPost2010PropOp38
 70
     1
102
RTVSPost2010Prop39
140
1.0
102
RTVSPost2010PropOp39
 70
     1
102
RTVSPost2010Prop40
 90
        0
102
RTVSPost2010PropOp40
 70
     1
102
RTVSPost2010Prop41ColorIndex
 90
       18
102
RTVSPost2010Prop41ColorRGB
 90
        0
102
RTVSPost2010PropOp41
 70
     1
102
RTVSPost2010Prop42
 90
       50
102
RTVSPost2010PropOp42
 70
     1
102
RTVSPost2010Prop43
 90
        3
102
RTVSPost2010PropOp43
 70
     1
102
RTVSPost2010Prop44ColorIndex
 90
        5
102
RTVSPost2010Prop44ColorRGB
 90
      255
102
RTVSPost2010PropOp44
 70
     1
102
RTVSPost2010Prop45
280
     0
102
RTVSPost2010PropOp45
 70
     1
102
RTVSPost2010Prop46
 90
       50
102
RTVSPost2010PropOp46
 70
     1
102
RTVSPost2010Prop47
 90
       50
102
RTVSPost2010PropOp47
 70
     1
102
RTVSPost2010Prop48
 90
       50
102
RTVSPost2010PropOp48
 70
     1
102
RTVSPost2010Prop49
280
     0
102
RTVSPost2010PropOp49
 70
     1
102
RTVSPost2010Prop50
 90
       50
102
RTVSPost2010PropOp50
 70
     1
102
RTVSPost2010Prop51ColorIndex
 90
      256
102
RTVSPost2010Prop51ColorRGB
 90
-16777216
102
RTVSPost2010PropOp51
 70
     0
102
RTVSPost2010Prop52
140
1.0
102
RTVSPost2010PropOp52
 70
     0
102
RTVSPost2010Prop53
 90
        2
102
RTVSPost2010PropOp53
 70
     1
102
RTVSPost2010Prop54
  1
strokes_ogs.tif
102
RTVSPost2010PropOp54
 70
     1
102
RTVSPost2010Prop55
280
     0
102
RTVSPost2010PropOp55
 70
     1
102
RTVSPost2010Prop56
140
1.0
102
RTVSPost2010PropOp56
 70
     1
102
RTVSPost2010Prop57
140
1.0
102
RTVSPost2010PropOp57
 70
     1
  0
XRECORD
  5
177
102
{ACAD_REACTORS
330
176
102
}
330
176
100
AcDbXrecord
280
     1
102
RTVSPost2010Prop28
280
     0
102
RTVSPost2010PropOp28
 70
     1
102
RTVSPost2010Prop29
280
     1
102
RTVSPost2010PropOp29
 70
     1
102
RTVSPost2010Prop30
280
     1
102
RTVSPost2010PropOp30
 70
     1
102
RTVSPost2010Prop31
280
     0
102
RTVSPost2010PropOp31
 70
     1
102
RTVSPost2010Prop32
280
     0
102
RTVSPost2010PropOp32
 70
     1
102
RTVSPost2010Prop33
280
     0
102
RTVSPost2010PropOp33
 70
     1
102
RTVSPost2010Prop34
280
     0
102
RTVSPost2010PropOp34
 70
     1
102
RTVSPost2010Prop35
280
     0
102
RTVSPost2010PropOp35
 70
     1
102
RTVSPost2010Prop36
280
     0
102
RTVSPost2010PropOp36
 70
     1
102
RTVSPost2010Prop37
 90
       50
102
RTVSPost2010PropOp37
 70
     1
102
RTVSPost2010Prop38
140
0.0
102
RTVSPost2010PropOp38
 70
     1
102
RTVSPost2010Prop39
140
1.0
102
RTVSPost2010PropOp39
 70
     1
102
RTVSPost2010Prop40
 90
        0
102
RTVSPost2010PropOp40
 70
     1
102
RTVSPost2010Prop41ColorIndex
 90
       18
102
RTVSPost2010Prop41ColorRGB
 90
        0
102
RTVSPost2010PropOp41
 70
     1
102
RTVSPost2010Prop42
 90
       50
102
RTVSPost2010PropOp42
 70
     1
102
RTVSPost2010Prop43
 90
        3
102
RTVSPost2010PropOp43
 70
     1
102
RTVSPost2010Prop44ColorIndex
 90
        5
102
RTVSPost2010Prop44ColorRGB
 90
      255
102
RTVSPost2010PropOp44
 70
     1
102
RTVSPost2010Prop45
280
     0
102
RTVSPost2010PropOp45
 70
     1
102
RTVSPost2010Prop46
 90
       50
102
RTVSPost2010PropOp46
 70
     1
102
RTVSPost2010Prop47
 90
       50
102
RTVSPost2010PropOp47
 70
     1
102
RTVSPost2010Prop48
 90
       50
102
RTVSPost2010PropOp48
 70
     1
102
RTVSPost2010Prop49
280
     0
102
RTVSPost2010PropOp49
 70
     1
102
RTVSPost2010Prop50
 90
       50
102
RTVSPost2010PropOp50
 70
     1
102
RTVSPost2010Prop51ColorIndex
 90
      256
102
RTVSPost2010Prop51ColorRGB
 90
-16777216
102
RTVSPost2010PropOp51
 70
     0
102
RTVSPost2010Prop52
140
1.0
102
RTVSPost2010PropOp52
 70
     0
102
RTVSPost2010Prop53
 90
        2
102
RTVSPost2010PropOp53
 70
     1
102
RTVSPost2010Prop54
  1
strokes_ogs.tif
102
RTVSPost2010PropOp54
 70
     1
102
RTVSPost2010Prop55
280
     0
102
RTVSPost2010PropOp55
 70
     1
102
RTVSPost2010Prop56
140
1.0
102
RTVSPost2010PropOp56
 70
     1
102
RTVSPost2010Prop57
140
1.0
102
RTVSPost2010PropOp57
 70
     1
  0
XRECORD
  5
17F
102
{ACAD_REACTORS
330
17E
102
}
330
17E
100
AcDbXrecord
280
     1
102
RTVSPost2010Prop28
280
     0
102
RTVSPost2010PropOp28
 70
     1
102
RTVSPost2010Prop29
280
     1
102
RTVSPost2010PropOp29
 70
     1
102
RTVSPost2010Prop30
280
     1
102
RTVSPost2010PropOp30
 70
     1
102
RTVSPost2010Prop31
280
     0
102
RTVSPost2010PropOp31
 70
     1
102
RTVSPost2010Prop32
280
     0
102
RTVSPost2010PropOp32
 70
     1
102
RTVSPost2010Prop33
280
     0
102
RTVSPost2010PropOp33
 70
     1
102
RTVSPost2010Prop34
280
     0
102
RTVSPost2010PropOp34
 70
     1
102
RTVSPost2010Prop35
280
     0
102
RTVSPost2010PropOp35
 70
     1
102
RTVSPost2010Prop36
280
     0
102
RTVSPost2010PropOp36
 70
     1
102
RTVSPost2010Prop37
 90
       50
102
RTVSPost2010PropOp37
 70
     1
102
RTVSPost2010Prop38
140
0.0
102
RTVSPost2010PropOp38
 70
     1
102
RTVSPost2010Prop39
140
1.0
102
RTVSPost2010PropOp39
 70
     1
102
RTVSPost2010Prop40
 90
        0
102
RTVSPost2010PropOp40
 70
     1
102
RTVSPost2010Prop41ColorIndex
 90
       18
102
RTVSPost2010Prop41ColorRGB
 90
        0
102
RTVSPost2010PropOp41
 70
     1
102
RTVSPost2010Prop42
 90
       50
102
RTVSPost2010PropOp42
 70
     1
102
RTVSPost2010Prop43
 90
        3
102
RTVSPost2010PropOp43
 70
     1
102
RTVSPost2010Prop44ColorIndex
 90
        5
102
RTVSPost2010Prop44ColorRGB
 90
      255
102
RTVSPost2010PropOp44
 70
     1
102
RTVSPost2010Prop45
280
     0
102
RTVSPost2010PropOp45
 70
     1
102
RTVSPost2010Prop46
 90
       50
102
RTVSPost2010PropOp46
 70
     1
102
RTVSPost2010Prop47
 90
       50
102
RTVSPost2010PropOp47
 70
     1
102
RTVSPost2010Prop48
 90
       50
102
RTVSPost2010PropOp48
 70
     1
102
RTVSPost2010Prop49
280
     0
102
RTVSPost2010PropOp49
 70
     1
102
RTVSPost2010Prop50
 90
       50
102
RTVSPost2010PropOp50
 70
     1
102
RTVSPost2010Prop51ColorIndex
 90
      256
102
RTVSPost2010Prop51ColorRGB
 90
-16777216
102
RTVSPost2010PropOp51
 70
     0
102
RTVSPost2010Prop52
140
1.0
102
RTVSPost2010PropOp52
 70
     0
102
RTVSPost2010Prop53
 90
        2
102
RTVSPost2010PropOp53
 70
     1
102
RTVSPost2010Prop54
  1
strokes_ogs.tif
102
RTVSPost2010PropOp54
 70
     1
102
RTVSPost2010Prop55
280
     0
102
RTVSPost2010PropOp55
 70
     1
102
RTVSPost2010Prop56
140
1.0
102
RTVSPost2010PropOp56
 70
     1
102
RTVSPost2010Prop57
140
1.0
102
RTVSPost2010PropOp57
 70
     1
  0
XRECORD
  5
171
102
{ACAD_REACTORS
330
170
102
}
330
170
100
AcDbXrecord
280
     1
102
RTVSPost2010Prop28
280
     0
102
RTVSPost2010PropOp28
 70
     1
102
RTVSPost2010Prop29
280
     1
102
RTVSPost2010PropOp29
 70
     1
102
RTVSPost2010Prop30
280
     1
102
RTVSPost2010PropOp30
 70
     1
102
RTVSPost2010Prop31
280
     0
102
RTVSPost2010PropOp31
 70
     1
102
RTVSPost2010Prop32
280
     0
102
RTVSPost2010PropOp32
 70
     1
102
RTVSPost2010Prop33
280
     0
102
RTVSPost2010PropOp33
 70
     1
102
RTVSPost2010Prop34
280
     0
102
RTVSPost2010PropOp34
 70
     1
102
RTVSPost2010Prop35
280
     0
102
RTVSPost2010PropOp35
 70
     1
102
RTVSPost2010Prop36
280
     0
102
RTVSPost2010PropOp36
 70
     1
102
RTVSPost2010Prop37
 90
       50
102
RTVSPost2010PropOp37
 70
     1
102
RTVSPost2010Prop38
140
0.0
102
RTVSPost2010PropOp38
 70
     1
102
RTVSPost2010Prop39
140
1.0
102
RTVSPost2010PropOp39
 70
     1
102
RTVSPost2010Prop40
 90
        0
102
RTVSPost2010PropOp40
 70
     1
102
RTVSPost2010Prop41ColorIndex
 90
       18
102
RTVSPost2010Prop41ColorRGB
 90
        0
102
RTVSPost2010PropOp41
 70
     1
102
RTVSPost2010Prop42
 90
       50
102
RTVSPost2010PropOp42
 70
     1
102
RTVSPost2010Prop43
 90
        3
102
RTVSPost2010PropOp43
 70
     1
102
RTVSPost2010Prop44ColorIndex
 90
        5
102
RTVSPost2010Prop44ColorRGB
 90
      255
102
RTVSPost2010PropOp44
 70
     1
102
RTVSPost2010Prop45
280
     0
102
RTVSPost2010PropOp45
 70
     1
102
RTVSPost2010Prop46
 90
       50
102
RTVSPost2010PropOp46
 70
     1
102
RTVSPost2010Prop47
 90
       50
102
RTVSPost2010PropOp47
 70
     1
102
RTVSPost2010Prop48
 90
       50
102
RTVSPost2010PropOp48
 70
     1
102
RTVSPost2010Prop49
280
     0
102
RTVSPost2010PropOp49
 70
     1
102
RTVSPost2010Prop50
 90
       50
102
RTVSPost2010PropOp50
 70
     1
102
RTVSPost2010Prop51ColorIndex
 90
      256
102
RTVSPost2010Prop51ColorRGB
 90
-16777216
102
RTVSPost2010PropOp51
 70
     0
102
RTVSPost2010Prop52
140
1.0
102
RTVSPost2010PropOp52
 70
     0
102
RTVSPost2010Prop53
 90
        2
102
RTVSPost2010PropOp53
 70
     1
102
RTVSPost2010Prop54
  1
strokes_ogs.tif
102
RTVSPost2010PropOp54
 70
     1
102
RTVSPost2010Prop55
280
     0
102
RTVSPost2010PropOp55
 70
     1
102
RTVSPost2010Prop56
140
1.0
102
RTVSPost2010PropOp56
 70
     1
102
RTVSPost2010Prop57
140
1.0
102
RTVSPost2010PropOp57
 70
     1
  0
XRECORD
  5
175
102
{ACAD_REACTORS
330
174
102
}
330
174
100
AcDbXrecord
280
     1
102
RTVSPost2010Prop28
280
     0
102
RTVSPost2010PropOp28
 70
     1
102
RTVSPost2010Prop29
280
     1
102
RTVSPost2010PropOp29
 70
     1
102
RTVSPost2010Prop30
280
     1
102
RTVSPost2010PropOp30
 70
     1
102
RTVSPost2010Prop31
280
     0
102
RTVSPost2010PropOp31
 70
     1
102
RTVSPost2010Prop32
280
     0
102
RTVSPost2010PropOp32
 70
     1
102
RTVSPost2010Prop33
280
     0
102
RTVSPost2010PropOp33
 70
     1
102
RTVSPost2010Prop34
280
     0
102
RTVSPost2010PropOp34
 70
     1
102
RTVSPost2010Prop35
280
     0
102
RTVSPost2010PropOp35
 70
     1
102
RTVSPost2010Prop36
280
     0
102
RTVSPost2010PropOp36
 70
     1
102
RTVSPost2010Prop37
 90
       50
102
RTVSPost2010PropOp37
 70
     1
102
RTVSPost2010Prop38
140
0.0
102
RTVSPost2010PropOp38
 70
     1
102
RTVSPost2010Prop39
140
1.0
102
RTVSPost2010PropOp39
 70
     1
102
RTVSPost2010Prop40
 90
        0
102
RTVSPost2010PropOp40
 70
     1
102
RTVSPost2010Prop41ColorIndex
 90
       18
102
RTVSPost2010Prop41ColorRGB
 90
        0
102
RTVSPost2010PropOp41
 70
     1
102
RTVSPost2010Prop42
 90
       50
102
RTVSPost2010PropOp42
 70
     1
102
RTVSPost2010Prop43
 90
        3
102
RTVSPost2010PropOp43
 70
     1
102
RTVSPost2010Prop44ColorIndex
 90
        5
102
RTVSPost2010Prop44ColorRGB
 90
      255
102
RTVSPost2010PropOp44
 70
     1
102
RTVSPost2010Prop45
280
     0
102
RTVSPost2010PropOp45
 70
     1
102
RTVSPost2010Prop46
 90
       50
102
RTVSPost2010PropOp46
 70
     1
102
RTVSPost2010Prop47
 90
       50
102
RTVSPost2010PropOp47
 70
     1
102
RTVSPost2010Prop48
 90
       50
102
RTVSPost2010PropOp48
 70
     1
102
RTVSPost2010Prop49
280
     0
102
RTVSPost2010PropOp49
 70
     1
102
RTVSPost2010Prop50
 90
       50
102
RTVSPost2010PropOp50
 70
     1
102
RTVSPost2010Prop51ColorIndex
 90
      256
102
RTVSPost2010Prop51ColorRGB
 90
-16777216
102
RTVSPost2010PropOp51
 70
     0
102
RTVSPost2010Prop52
140
1.0
102
RTVSPost2010PropOp52
 70
     0
102
RTVSPost2010Prop53
 90
        2
102
RTVSPost2010PropOp53
 70
     1
102
RTVSPost2010Prop54
  1
strokes_ogs.tif
102
RTVSPost2010PropOp54
 70
     1
102
RTVSPost2010Prop55
280
     0
102
RTVSPost2010PropOp55
 70
     1
102
RTVSPost2010Prop56
140
1.0
102
RTVSPost2010PropOp56
 70
     1
102
RTVSPost2010Prop57
140
1.0
102
RTVSPost2010PropOp57
 70
     1
  0
XRECORD
  5
18F
102
{ACAD_REACTORS
330
18E
102
}
330
18E
100
AcDbXrecord
280
     1
102
RTVSPost2010Prop28
280
     0
102
RTVSPost2010PropOp28
 70
     0
102
RTVSPost2010Prop29
280
     1
102
RTVSPost2010PropOp29
 70
     0
102
RTVSPost2010Prop30
280
     1
102
RTVSPost2010PropOp30
 70
     0
102
RTVSPost2010Prop31
280
     0
102
RTVSPost2010PropOp31
 70
     0
102
RTVSPost2010Prop32
280
     0
102
RTVSPost2010PropOp32
 70
     0
102
RTVSPost2010Prop33
280
     0
102
RTVSPost2010PropOp33
 70
     0
102
RTVSPost2010Prop34
280
     0
102
RTVSPost2010PropOp34
 70
     0
102
RTVSPost2010Prop35
280
     0
102
RTVSPost2010PropOp35
 70
     0
102
RTVSPost2010Prop36
280
     0
102
RTVSPost2010PropOp36
 70
     0
102
RTVSPost2010Prop37
 90
       50
102
RTVSPost2010PropOp37
 70
     0
102
RTVSPost2010Prop38
140
0.0
102
RTVSPost2010PropOp38
 70
     0
102
RTVSPost2010Prop39
140
1.0
102
RTVSPost2010PropOp39
 70
     0
102
RTVSPost2010Prop40
 90
        0
102
RTVSPost2010PropOp40
 70
     0
102
RTVSPost2010Prop41ColorIndex
 90
       18
102
RTVSPost2010Prop41ColorRGB
 90
        0
102
RTVSPost2010PropOp41
 70
     0
102
RTVSPost2010Prop42
 90
       50
102
RTVSPost2010PropOp42
 70
     0
102
RTVSPost2010Prop43
 90
        3
102
RTVSPost2010PropOp43
 70
     0
102
RTVSPost2010Prop44ColorIndex
 90
        5
102
RTVSPost2010Prop44ColorRGB
 90
      255
102
RTVSPost2010PropOp44
 70
     0
102
RTVSPost2010Prop45
280
     0
102
RTVSPost2010PropOp45
 70
     0
102
RTVSPost2010Prop46
 90
       50
102
RTVSPost2010PropOp46
 70
     0
102
RTVSPost2010Prop47
 90
       50
102
RTVSPost2010PropOp47
 70
     0
102
RTVSPost2010Prop48
 90
       50
102
RTVSPost2010PropOp48
 70
     0
102
RTVSPost2010Prop49
280
     0
102
RTVSPost2010PropOp49
 70
     0
102
RTVSPost2010Prop50
 90
       50
102
RTVSPost2010PropOp50
 70
     0
102
RTVSPost2010Prop51ColorIndex
 90
      256
102
RTVSPost2010Prop51ColorRGB
 90
-16777216
102
RTVSPost2010PropOp51
 70
     0
102
RTVSPost2010Prop52
140
1.0
102
RTVSPost2010PropOp52
 70
     0
102
RTVSPost2010Prop53
 90
        2
102
RTVSPost2010PropOp53
 70
     0
102
RTVSPost2010Prop54
  1
strokes_ogs.tif
102
RTVSPost2010PropOp54
 70
     0
102
RTVSPost2010Prop55
280
     0
102
RTVSPost2010PropOp55
 70
     0
102
RTVSPost2010Prop56
140
1.0
102
RTVSPost2010PropOp56
 70
     0
102
RTVSPost2010Prop57
140
1.0
102
RTVSPost2010PropOp57
 70
     0
  0
XRECORD
  5
17D
102
{ACAD_REACTORS
330
17C
102
}
330
17C
100
AcDbXrecord
280
     1
102
RTVSPost2010Prop28
280
     0
102
RTVSPost2010PropOp28
 70
     1
102
RTVSPost2010Prop29
280
     1
102
RTVSPost2010PropOp29
 70
     1
102
RTVSPost2010Prop30
280
     1
102
RTVSPost2010PropOp30
 70
     1
102
RTVSPost2010Prop31
280
     0
102
RTVSPost2010PropOp31
 70
     1
102
RTVSPost2010Prop32
280
     0
102
RTVSPost2010PropOp32
 70
     1
102
RTVSPost2010Prop33
280
     0
102
RTVSPost2010PropOp33
 70
     1
102
RTVSPost2010Prop34
280
     0
102
RTVSPost2010PropOp34
 70
     1
102
RTVSPost2010Prop35
280
     0
102
RTVSPost2010PropOp35
 70
     1
102
RTVSPost2010Prop36
280
     0
102
RTVSPost2010PropOp36
 70
     1
102
RTVSPost2010Prop37
 90
       50
102
RTVSPost2010PropOp37
 70
     1
102
RTVSPost2010Prop38
140
0.0
102
RTVSPost2010PropOp38
 70
     1
102
RTVSPost2010Prop39
140
1.0
102
RTVSPost2010PropOp39
 70
     1
102
RTVSPost2010Prop40
 90
        0
102
RTVSPost2010PropOp40
 70
     1
102
RTVSPost2010Prop41ColorIndex
 90
       18
102
RTVSPost2010Prop41ColorRGB
 90
        0
102
RTVSPost2010PropOp41
 70
     1
102
RTVSPost2010Prop42
 90
       50
102
RTVSPost2010PropOp42
 70
     1
102
RTVSPost2010Prop43
 90
        3
102
RTVSPost2010PropOp43
 70
     1
102
RTVSPost2010Prop44ColorIndex
 90
        5
102
RTVSPost2010Prop44ColorRGB
 90
      255
102
RTVSPost2010PropOp44
 70
     1
102
RTVSPost2010Prop45
280
     0
102
RTVSPost2010PropOp45
 70
     1
102
RTVSPost2010Prop46
 90
       50
102
RTVSPost2010PropOp46
 70
     1
102
RTVSPost2010Prop47
 90
       50
102
RTVSPost2010PropOp47
 70
     1
102
RTVSPost2010Prop48
 90
       50
102
RTVSPost2010PropOp48
 70
     1
102
RTVSPost2010Prop49
280
     0
102
RTVSPost2010PropOp49
 70
     1
102
RTVSPost2010Prop50
 90
       50
102
RTVSPost2010PropOp50
 70
     1
102
RTVSPost2010Prop51ColorIndex
 90
      256
102
RTVSPost2010Prop51ColorRGB
 90
-16777216
102
RTVSPost2010PropOp51
 70
     0
102
RTVSPost2010Prop52
140
1.0
102
RTVSPost2010PropOp52
 70
     0
102
RTVSPost2010Prop53
 90
        2
102
RTVSPost2010PropOp53
 70
     1
102
RTVSPost2010Prop54
  1
strokes_ogs.tif
102
RTVSPost2010PropOp54
 70
     1
102
RTVSPost2010Prop55
280
     0
102
RTVSPost2010PropOp55
 70
     1
102
RTVSPost2010Prop56
140
1.0
102
RTVSPost2010PropOp56
 70
     1
102
RTVSPost2010Prop57
140
1.0
102
RTVSPost2010PropOp57
 70
     1
  0
XRECORD
  5
161
102
{ACAD_REACTORS
330
160
102
}
330
160
100
AcDbXrecord
280
     1
102
RTVSPost2010Prop28
280
     0
102
RTVSPost2010PropOp28
 70
     1
102
RTVSPost2010Prop29
280
     1
102
RTVSPost2010PropOp29
 70
     1
102
RTVSPost2010Prop30
280
     1
102
RTVSPost2010PropOp30
 70
     1
102
RTVSPost2010Prop31
280
     0
102
RTVSPost2010PropOp31
 70
     1
102
RTVSPost2010Prop32
280
     0
102
RTVSPost2010PropOp32
 70
     1
102
RTVSPost2010Prop33
280
     0
102
RTVSPost2010PropOp33
 70
     1
102
RTVSPost2010Prop34
280
     0
102
RTVSPost2010PropOp34
 70
     1
102
RTVSPost2010Prop35
280
     0
102
RTVSPost2010PropOp35
 70
     1
102
RTVSPost2010Prop36
280
     0
102
RTVSPost2010PropOp36
 70
     1
102
RTVSPost2010Prop37
 90
       50
102
RTVSPost2010PropOp37
 70
     1
102
RTVSPost2010Prop38
140
0.0
102
RTVSPost2010PropOp38
 70
     1
102
RTVSPost2010Prop39
140
1.0
102
RTVSPost2010PropOp39
 70
     1
102
RTVSPost2010Prop40
 90
        0
102
RTVSPost2010PropOp40
 70
     1
102
RTVSPost2010Prop41ColorIndex
 90
       18
102
RTVSPost2010Prop41ColorRGB
 90
        0
102
RTVSPost2010PropOp41
 70
     1
102
RTVSPost2010Prop42
 90
       50
102
RTVSPost2010PropOp42
 70
     1
102
RTVSPost2010Prop43
 90
        3
102
RTVSPost2010PropOp43
 70
     1
102
RTVSPost2010Prop44ColorIndex
 90
        5
102
RTVSPost2010Prop44ColorRGB
 90
      255
102
RTVSPost2010PropOp44
 70
     1
102
RTVSPost2010Prop45
280
     0
102
RTVSPost2010PropOp45
 70
     1
102
RTVSPost2010Prop46
 90
       50
102
RTVSPost2010PropOp46
 70
     1
102
RTVSPost2010Prop47
 90
       50
102
RTVSPost2010PropOp47
 70
     1
102
RTVSPost2010Prop48
 90
       50
102
RTVSPost2010PropOp48
 70
     1
102
RTVSPost2010Prop49
280
     0
102
RTVSPost2010PropOp49
 70
     1
102
RTVSPost2010Prop50
 90
       50
102
RTVSPost2010PropOp50
 70
     1
102
RTVSPost2010Prop51ColorIndex
 90
      256
102
RTVSPost2010Prop51ColorRGB
 90
-16777216
102
RTVSPost2010PropOp51
 70
     0
102
RTVSPost2010Prop52
140
1.0
102
RTVSPost2010PropOp52
 70
     0
102
RTVSPost2010Prop53
 90
        2
102
RTVSPost2010PropOp53
 70
     1
102
RTVSPost2010Prop54
  1
strokes_ogs.tif
102
RTVSPost2010PropOp54
 70
     1
102
RTVSPost2010Prop55
280
     0
102
RTVSPost2010PropOp55
 70
     1
102
RTVSPost2010Prop56
140
1.0
102
RTVSPost2010PropOp56
 70
     1
102
RTVSPost2010Prop57
140
1.0
102
RTVSPost2010PropOp57
 70
     1
  0
XRECORD
  5
163
102
{ACAD_REACTORS
330
162
102
}
330
162
100
AcDbXrecord
280
     1
102
RTVSPost2010Prop28
280
     0
102
RTVSPost2010PropOp28
 70
     1
102
RTVSPost2010Prop29
280
     1
102
RTVSPost2010PropOp29
 70
     1
102
RTVSPost2010Prop30
280
     1
102
RTVSPost2010PropOp30
 70
     1
102
RTVSPost2010Prop31
280
     0
102
RTVSPost2010PropOp31
 70
     1
102
RTVSPost2010Prop32
280
     0
102
RTVSPost2010PropOp32
 70
     1
102
RTVSPost2010Prop33
280
     0
102
RTVSPost2010PropOp33
 70
     1
102
RTVSPost2010Prop34
280
     0
102
RTVSPost2010PropOp34
 70
     1
102
RTVSPost2010Prop35
280
     0
102
RTVSPost2010PropOp35
 70
     1
102
RTVSPost2010Prop36
280
     0
102
RTVSPost2010PropOp36
 70
     1
102
RTVSPost2010Prop37
 90
       50
102
RTVSPost2010PropOp37
 70
     1
102
RTVSPost2010Prop38
140
0.0
102
RTVSPost2010PropOp38
 70
     1
102
RTVSPost2010Prop39
140
1.0
102
RTVSPost2010PropOp39
 70
     1
102
RTVSPost2010Prop40
 90
        0
102
RTVSPost2010PropOp40
 70
     1
102
RTVSPost2010Prop41ColorIndex
 90
       18
102
RTVSPost2010Prop41ColorRGB
 90
        0
102
RTVSPost2010PropOp41
 70
     1
102
RTVSPost2010Prop42
 90
       50
102
RTVSPost2010PropOp42
 70
     1
102
RTVSPost2010Prop43
 90
        3
102
RTVSPost2010PropOp43
 70
     1
102
RTVSPost2010Prop44ColorIndex
 90
        5
102
RTVSPost2010Prop44ColorRGB
 90
      255
102
RTVSPost2010PropOp44
 70
     1
102
RTVSPost2010Prop45
280
     0
102
RTVSPost2010PropOp45
 70
     1
102
RTVSPost2010Prop46
 90
       50
102
RTVSPost2010PropOp46
 70
     1
102
RTVSPost2010Prop47
 90
       50
102
RTVSPost2010PropOp47
 70
     1
102
RTVSPost2010Prop48
 90
       50
102
RTVSPost2010PropOp48
 70
     1
102
RTVSPost2010Prop49
280
     0
102
RTVSPost2010PropOp49
 70
     1
102
RTVSPost2010Prop50
 90
       50
102
RTVSPost2010PropOp50
 70
     1
102
RTVSPost2010Prop51ColorIndex
 90
      256
102
RTVSPost2010Prop51ColorRGB
 90
-16777216
102
RTVSPost2010PropOp51
 70
     0
102
RTVSPost2010Prop52
140
1.0
102
RTVSPost2010PropOp52
 70
     0
102
RTVSPost2010Prop53
 90
        2
102
RTVSPost2010PropOp53
 70
     1
102
RTVSPost2010Prop54
  1
strokes_ogs.tif
102
RTVSPost2010PropOp54
 70
     1
102
RTVSPost2010Prop55
280
     0
102
RTVSPost2010PropOp55
 70
     1
102
RTVSPost2010Prop56
140
1.0
102
RTVSPost2010PropOp56
 70
     1
102
RTVSPost2010Prop57
140
1.0
102
RTVSPost2010PropOp57
 70
     1
  0
XRECORD
  5
165
102
{ACAD_REACTORS
330
164
102
}
330
164
100
AcDbXrecord
280
     1
102
RTVSPost2010Prop28
280
     0
102
RTVSPost2010PropOp28
 70
     1
102
RTVSPost2010Prop29
280
     1
102
RTVSPost2010PropOp29
 70
     1
102
RTVSPost2010Prop30
280
     1
102
RTVSPost2010PropOp30
 70
     1
102
RTVSPost2010Prop31
280
     0
102
RTVSPost2010PropOp31
 70
     1
102
RTVSPost2010Prop32
280
     0
102
RTVSPost2010PropOp32
 70
     1
102
RTVSPost2010Prop33
280
     0
102
RTVSPost2010PropOp33
 70
     1
102
RTVSPost2010Prop34
280
     0
102
RTVSPost2010PropOp34
 70
     1
102
RTVSPost2010Prop35
280
     0
102
RTVSPost2010PropOp35
 70
     1
102
RTVSPost2010Prop36
280
     0
102
RTVSPost2010PropOp36
 70
     1
102
RTVSPost2010Prop37
 90
       50
102
RTVSPost2010PropOp37
 70
     1
102
RTVSPost2010Prop38
140
0.0
102
RTVSPost2010PropOp38
 70
     1
102
RTVSPost2010Prop39
140
1.0
102
RTVSPost2010PropOp39
 70
     1
102
RTVSPost2010Prop40
 90
        0
102
RTVSPost2010PropOp40
 70
     1
102
RTVSPost2010Prop41ColorIndex
 90
       18
102
RTVSPost2010Prop41ColorRGB
 90
        0
102
RTVSPost2010PropOp41
 70
     1
102
RTVSPost2010Prop42
 90
       50
102
RTVSPost2010PropOp42
 70
     1
102
RTVSPost2010Prop43
 90
        3
102
RTVSPost2010PropOp43
 70
     1
102
RTVSPost2010Prop44ColorIndex
 90
        5
102
RTVSPost2010Prop44ColorRGB
 90
      255
102
RTVSPost2010PropOp44
 70
     1
102
RTVSPost2010Prop45
280
     0
102
RTVSPost2010PropOp45
 70
     1
102
RTVSPost2010Prop46
 90
       50
102
RTVSPost2010PropOp46
 70
     1
102
RTVSPost2010Prop47
 90
       50
102
RTVSPost2010PropOp47
 70
     1
102
RTVSPost2010Prop48
 90
       50
102
RTVSPost2010PropOp48
 70
     1
102
RTVSPost2010Prop49
280
     0
102
RTVSPost2010PropOp49
 70
     1
102
RTVSPost2010Prop50
 90
       50
102
RTVSPost2010PropOp50
 70
     1
102
RTVSPost2010Prop51ColorIndex
 90
      256
102
RTVSPost2010Prop51ColorRGB
 90
-16777216
102
RTVSPost2010PropOp51
 70
     0
102
RTVSPost2010Prop52
140
1.0
102
RTVSPost2010PropOp52
 70
     0
102
RTVSPost2010Prop53
 90
        2
102
RTVSPost2010PropOp53
 70
     1
102
RTVSPost2010Prop54
  1
strokes_ogs.tif
102
RTVSPost2010PropOp54
 70
     1
102
RTVSPost2010Prop55
280
     0
102
RTVSPost2010PropOp55
 70
     1
102
RTVSPost2010Prop56
140
1.0
102
RTVSPost2010PropOp56
 70
     1
102
RTVSPost2010Prop57
140
1.0
102
RTVSPost2010PropOp57
 70
     1
  0
XRECORD
  5
167
102
{ACAD_REACTORS
330
166
102
}
330
166
100
AcDbXrecord
280
     1
102
RTVSPost2010Prop28
280
     0
102
RTVSPost2010PropOp28
 70
     1
102
RTVSPost2010Prop29
280
     1
102
RTVSPost2010PropOp29
 70
     1
102
RTVSPost2010Prop30
280
     1
102
RTVSPost2010PropOp30
 70
     1
102
RTVSPost2010Prop31
280
     0
102
RTVSPost2010PropOp31
 70
     1
102
RTVSPost2010Prop32
280
     0
102
RTVSPost2010PropOp32
 70
     1
102
RTVSPost2010Prop33
280
     0
102
RTVSPost2010PropOp33
 70
     1
102
RTVSPost2010Prop34
280
     0
102
RTVSPost2010PropOp34
 70
     1
102
RTVSPost2010Prop35
280
     0
102
RTVSPost2010PropOp35
 70
     1
102
RTVSPost2010Prop36
280
     0
102
RTVSPost2010PropOp36
 70
     1
102
RTVSPost2010Prop37
 90
       50
102
RTVSPost2010PropOp37
 70
     1
102
RTVSPost2010Prop38
140
0.0
102
RTVSPost2010PropOp38
 70
     1
102
RTVSPost2010Prop39
140
1.0
102
RTVSPost2010PropOp39
 70
     1
102
RTVSPost2010Prop40
 90
        0
102
RTVSPost2010PropOp40
 70
     1
102
RTVSPost2010Prop41ColorIndex
 90
       18
102
RTVSPost2010Prop41ColorRGB
 90
        0
102
RTVSPost2010PropOp41
 70
     1
102
RTVSPost2010Prop42
 90
       50
102
RTVSPost2010PropOp42
 70
     1
102
RTVSPost2010Prop43
 90
        3
102
RTVSPost2010PropOp43
 70
     1
102
RTVSPost2010Prop44ColorIndex
 90
        5
102
RTVSPost2010Prop44ColorRGB
 90
      255
102
RTVSPost2010PropOp44
 70
     1
102
RTVSPost2010Prop45
280
     0
102
RTVSPost2010PropOp45
 70
     1
102
RTVSPost2010Prop46
 90
       50
102
RTVSPost2010PropOp46
 70
     1
102
RTVSPost2010Prop47
 90
       50
102
RTVSPost2010PropOp47
 70
     1
102
RTVSPost2010Prop48
 90
       50
102
RTVSPost2010PropOp48
 70
     1
102
RTVSPost2010Prop49
280
     0
102
RTVSPost2010PropOp49
 70
     1
102
RTVSPost2010Prop50
 90
       50
102
RTVSPost2010PropOp50
 70
     1
102
RTVSPost2010Prop51ColorIndex
 90
      256
102
RTVSPost2010Prop51ColorRGB
 90
-16777216
102
RTVSPost2010PropOp51
 70
     0
102
RTVSPost2010Prop52
140
1.0
102
RTVSPost2010PropOp52
 70
     0
102
RTVSPost2010Prop53
 90
        2
102
RTVSPost2010PropOp53
 70
     1
102
RTVSPost2010Prop54
  1
strokes_ogs.tif
102
RTVSPost2010PropOp54
 70
     1
102
RTVSPost2010Prop55
280
     0
102
RTVSPost2010PropOp55
 70
     1
102
RTVSPost2010Prop56
140
1.0
102
RTVSPost2010PropOp56
 70
     1
102
RTVSPost2010Prop57
140
1.0
102
RTVSPost2010PropOp57
 70
     1
  0
XRECORD
  5
16F
102
{ACAD_REACTORS
330
16E
102
}
330
16E
100
AcDbXrecord
280
     1
102
RTVSPost2010Prop28
280
     0
102
RTVSPost2010PropOp28
 70
     1
102
RTVSPost2010Prop29
280
     1
102
RTVSPost2010PropOp29
 70
     1
102
RTVSPost2010Prop30
280
     1
102
RTVSPost2010PropOp30
 70
     1
102
RTVSPost2010Prop31
280
     0
102
RTVSPost2010PropOp31
 70
     1
102
RTVSPost2010Prop32
280
     0
102
RTVSPost2010PropOp32
 70
     1
102
RTVSPost2010Prop33
280
     0
102
RTVSPost2010PropOp33
 70
     1
102
RTVSPost2010Prop34
280
     0
102
RTVSPost2010PropOp34
 70
     1
102
RTVSPost2010Prop35
280
     0
102
RTVSPost2010PropOp35
 70
     1
102
RTVSPost2010Prop36
280
     0
102
RTVSPost2010PropOp36
 70
     1
102
RTVSPost2010Prop37
 90
       50
102
RTVSPost2010PropOp37
 70
     1
102
RTVSPost2010Prop38
140
0.0
102
RTVSPost2010PropOp38
 70
     1
102
RTVSPost2010Prop39
140
1.0
102
RTVSPost2010PropOp39
 70
     1
102
RTVSPost2010Prop40
 90
        0
102
RTVSPost2010PropOp40
 70
     1
102
RTVSPost2010Prop41ColorIndex
 90
       18
102
RTVSPost2010Prop41ColorRGB
 90
        0
102
RTVSPost2010PropOp41
 70
     1
102
RTVSPost2010Prop42
 90
       50
102
RTVSPost2010PropOp42
 70
     1
102
RTVSPost2010Prop43
 90
        3
102
RTVSPost2010PropOp43
 70
     1
102
RTVSPost2010Prop44ColorIndex
 90
        5
102
RTVSPost2010Prop44ColorRGB
 90
      255
102
RTVSPost2010PropOp44
 70
     1
102
RTVSPost2010Prop45
280
     0
102
RTVSPost2010PropOp45
 70
     1
102
RTVSPost2010Prop46
 90
       50
102
RTVSPost2010PropOp46
 70
     1
102
RTVSPost2010Prop47
 90
       50
102
RTVSPost2010PropOp47
 70
     1
102
RTVSPost2010Prop48
 90
       50
102
RTVSPost2010PropOp48
 70
     1
102
RTVSPost2010Prop49
280
     0
102
RTVSPost2010PropOp49
 70
     1
102
RTVSPost2010Prop50
 90
       50
102
RTVSPost2010PropOp50
 70
     1
102
RTVSPost2010Prop51ColorIndex
 90
      256
102
RTVSPost2010Prop51ColorRGB
 90
-16777216
102
RTVSPost2010PropOp51
 70
     0
102
RTVSPost2010Prop52
140
1.0
102
RTVSPost2010PropOp52
 70
     0
102
RTVSPost2010Prop53
 90
        2
102
RTVSPost2010PropOp53
 70
     1
102
RTVSPost2010Prop54
  1
strokes_ogs.tif
102
RTVSPost2010PropOp54
 70
     1
102
RTVSPost2010Prop55
280
     0
102
RTVSPost2010PropOp55
 70
     1
102
RTVSPost2010Prop56
140
1.0
102
RTVSPost2010PropOp56
 70
     1
102
RTVSPost2010Prop57
140
1.0
102
RTVSPost2010PropOp57
 70
     1
  0
XRECORD
  5
18B
102
{ACAD_REACTORS
330
18A
102
}
330
18A
100
AcDbXrecord
280
     1
102
RTVSPost2010Prop28
280
     0
102
RTVSPost2010PropOp28
 70
     0
102
RTVSPost2010Prop29
280
     1
102
RTVSPost2010PropOp29
 70
     0
102
RTVSPost2010Prop30
280
     1
102
RTVSPost2010PropOp30
 70
     0
102
RTVSPost2010Prop31
280
     0
102
RTVSPost2010PropOp31
 70
     0
102
RTVSPost2010Prop32
280
     0
102
RTVSPost2010PropOp32
 70
     0
102
RTVSPost2010Prop33
280
     0
102
RTVSPost2010PropOp33
 70
     0
102
RTVSPost2010Prop34
280
     0
102
RTVSPost2010PropOp34
 70
     0
102
RTVSPost2010Prop35
280
     0
102
RTVSPost2010PropOp35
 70
     0
102
RTVSPost2010Prop36
280
     0
102
RTVSPost2010PropOp36
 70
     0
102
RTVSPost2010Prop37
 90
       50
102
RTVSPost2010PropOp37
 70
     0
102
RTVSPost2010Prop38
140
0.0
102
RTVSPost2010PropOp38
 70
     0
102
RTVSPost2010Prop39
140
1.0
102
RTVSPost2010PropOp39
 70
     0
102
RTVSPost2010Prop40
 90
        0
102
RTVSPost2010PropOp40
 70
     0
102
RTVSPost2010Prop41ColorIndex
 90
       18
102
RTVSPost2010Prop41ColorRGB
 90
        0
102
RTVSPost2010PropOp41
 70
     0
102
RTVSPost2010Prop42
 90
       50
102
RTVSPost2010PropOp42
 70
     0
102
RTVSPost2010Prop43
 90
        3
102
RTVSPost2010PropOp43
 70
     0
102
RTVSPost2010Prop44ColorIndex
 90
        5
102
RTVSPost2010Prop44ColorRGB
 90
      255
102
RTVSPost2010PropOp44
 70
     0
102
RTVSPost2010Prop45
280
     0
102
RTVSPost2010PropOp45
 70
     0
102
RTVSPost2010Prop46
 90
       50
102
RTVSPost2010PropOp46
 70
     0
102
RTVSPost2010Prop47
 90
       50
102
RTVSPost2010PropOp47
 70
     0
102
RTVSPost2010Prop48
 90
       50
102
RTVSPost2010PropOp48
 70
     0
102
RTVSPost2010Prop49
280
     0
102
RTVSPost2010PropOp49
 70
     0
102
RTVSPost2010Prop50
 90
       50
102
RTVSPost2010PropOp50
 70
     0
102
RTVSPost2010Prop51ColorIndex
 90
      256
102
RTVSPost2010Prop51ColorRGB
 90
-16777216
102
RTVSPost2010PropOp51
 70
     0
102
RTVSPost2010Prop52
140
1.0
102
RTVSPost2010PropOp52
 70
     0
102
RTVSPost2010Prop53
 90
        2
102
RTVSPost2010PropOp53
 70
     0
102
RTVSPost2010Prop54
  1
strokes_ogs.tif
102
RTVSPost2010PropOp54
 70
     0
102
RTVSPost2010Prop55
280
     0
102
RTVSPost2010PropOp55
 70
     0
102
RTVSPost2010Prop56
140
1.0
102
RTVSPost2010PropOp56
 70
     0
102
RTVSPost2010Prop57
140
1.0
102
RTVSPost2010PropOp57
 70
     0
  0
XRECORD
  5
17B
102
{ACAD_REACTORS
330
17A
102
}
330
17A
100
AcDbXrecord
280
     1
102
RTVSPost2010Prop28
280
     0
102
RTVSPost2010PropOp28
 70
     1
102
RTVSPost2010Prop29
280
     1
102
RTVSPost2010PropOp29
 70
     1
102
RTVSPost2010Prop30
280
     1
102
RTVSPost2010PropOp30
 70
     1
102
RTVSPost2010Prop31
280
     0
102
RTVSPost2010PropOp31
 70
     1
102
RTVSPost2010Prop32
280
     0
102
RTVSPost2010PropOp32
 70
     1
102
RTVSPost2010Prop33
280
     0
102
RTVSPost2010PropOp33
 70
     1
102
RTVSPost2010Prop34
280
     0
102
RTVSPost2010PropOp34
 70
     1
102
RTVSPost2010Prop35
280
     0
102
RTVSPost2010PropOp35
 70
     1
102
RTVSPost2010Prop36
280
     0
102
RTVSPost2010PropOp36
 70
     1
102
RTVSPost2010Prop37
 90
       50
102
RTVSPost2010PropOp37
 70
     1
102
RTVSPost2010Prop38
140
0.0
102
RTVSPost2010PropOp38
 70
     1
102
RTVSPost2010Prop39
140
1.0
102
RTVSPost2010PropOp39
 70
     1
102
RTVSPost2010Prop40
 90
        0
102
RTVSPost2010PropOp40
 70
     1
102
RTVSPost2010Prop41ColorIndex
 90
       18
102
RTVSPost2010Prop41ColorRGB
 90
        0
102
RTVSPost2010PropOp41
 70
     1
102
RTVSPost2010Prop42
 90
       50
102
RTVSPost2010PropOp42
 70
     1
102
RTVSPost2010Prop43
 90
        3
102
RTVSPost2010PropOp43
 70
     1
102
RTVSPost2010Prop44ColorIndex
 90
        5
102
RTVSPost2010Prop44ColorRGB
 90
      255
102
RTVSPost2010PropOp44
 70
     1
102
RTVSPost2010Prop45
280
     0
102
RTVSPost2010PropOp45
 70
     1
102
RTVSPost2010Prop46
 90
       50
102
RTVSPost2010PropOp46
 70
     1
102
RTVSPost2010Prop47
 90
       50
102
RTVSPost2010PropOp47
 70
     1
102
RTVSPost2010Prop48
 90
       50
102
RTVSPost2010PropOp48
 70
     1
102
RTVSPost2010Prop49
280
     0
102
RTVSPost2010PropOp49
 70
     1
102
RTVSPost2010Prop50
 90
       50
102
RTVSPost2010PropOp50
 70
     1
102
RTVSPost2010Prop51ColorIndex
 90
      256
102
RTVSPost2010Prop51ColorRGB
 90
-16777216
102
RTVSPost2010PropOp51
 70
     0
102
RTVSPost2010Prop52
140
1.0
102
RTVSPost2010PropOp52
 70
     0
102
RTVSPost2010Prop53
 90
        2
102
RTVSPost2010PropOp53
 70
     1
102
RTVSPost2010Prop54
  1
strokes_ogs.tif
102
RTVSPost2010PropOp54
 70
     1
102
RTVSPost2010Prop55
280
     0
102
RTVSPost2010PropOp55
 70
     1
102
RTVSPost2010Prop56
140
1.0
102
RTVSPost2010PropOp56
 70
     1
102
RTVSPost2010Prop57
140
1.0
102
RTVSPost2010PropOp57
 70
     1
  0
XRECORD
  5
18D
102
{ACAD_REACTORS
330
18C
102
}
330
18C
100
AcDbXrecord
280
     1
102
RTVSPost2010Prop28
280
     0
102
RTVSPost2010PropOp28
 70
     0
102
RTVSPost2010Prop29
280
     1
102
RTVSPost2010PropOp29
 70
     0
102
RTVSPost2010Prop30
280
     1
102
RTVSPost2010PropOp30
 70
     0
102
RTVSPost2010Prop31
280
     0
102
RTVSPost2010PropOp31
 70
     0
102
RTVSPost2010Prop32
280
     0
102
RTVSPost2010PropOp32
 70
     0
102
RTVSPost2010Prop33
280
     0
102
RTVSPost2010PropOp33
 70
     0
102
RTVSPost2010Prop34
280
     0
102
RTVSPost2010PropOp34
 70
     0
102
RTVSPost2010Prop35
280
     0
102
RTVSPost2010PropOp35
 70
     0
102
RTVSPost2010Prop36
280
     0
102
RTVSPost2010PropOp36
 70
     0
102
RTVSPost2010Prop37
 90
       50
102
RTVSPost2010PropOp37
 70
     0
102
RTVSPost2010Prop38
140
0.0
102
RTVSPost2010PropOp38
 70
     0
102
RTVSPost2010Prop39
140
1.0
102
RTVSPost2010PropOp39
 70
     0
102
RTVSPost2010Prop40
 90
        0
102
RTVSPost2010PropOp40
 70
     0
102
RTVSPost2010Prop41ColorIndex
 90
       18
102
RTVSPost2010Prop41ColorRGB
 90
        0
102
RTVSPost2010PropOp41
 70
     0
102
RTVSPost2010Prop42
 90
       50
102
RTVSPost2010PropOp42
 70
     0
102
RTVSPost2010Prop43
 90
        3
102
RTVSPost2010PropOp43
 70
     0
102
RTVSPost2010Prop44ColorIndex
 90
        5
102
RTVSPost2010Prop44ColorRGB
 90
      255
102
RTVSPost2010PropOp44
 70
     0
102
RTVSPost2010Prop45
280
     0
102
RTVSPost2010PropOp45
 70
     0
102
RTVSPost2010Prop46
 90
       50
102
RTVSPost2010PropOp46
 70
     0
102
RTVSPost2010Prop47
 90
       50
102
RTVSPost2010PropOp47
 70
     0
102
RTVSPost2010Prop48
 90
       50
102
RTVSPost2010PropOp48
 70
     0
102
RTVSPost2010Prop49
280
     0
102
RTVSPost2010PropOp49
 70
     0
102
RTVSPost2010Prop50
 90
       50
102
RTVSPost2010PropOp50
 70
     0
102
RTVSPost2010Prop51ColorIndex
 90
      256
102
RTVSPost2010Prop51ColorRGB
 90
-16777216
102
RTVSPost2010PropOp51
 70
     0
102
RTVSPost2010Prop52
140
1.0
102
RTVSPost2010PropOp52
 70
     0
102
RTVSPost2010Prop53
 90
        2
102
RTVSPost2010PropOp53
 70
     0
102
RTVSPost2010Prop54
  1
strokes_ogs.tif
102
RTVSPost2010PropOp54
 70
     0
102
RTVSPost2010Prop55
280
     0
102
RTVSPost2010PropOp55
 70
     0
102
RTVSPost2010Prop56
140
1.0
102
RTVSPost2010PropOp56
 70
     0
102
RTVSPost2010Prop57
140
1.0
102
RTVSPost2010PropOp57
 70
     0
  0
XRECORD
  5
173
102
{ACAD_REACTORS
330
172
102
}
330
172
100
AcDbXrecord
280
     1
102
RTVSPost2010Prop28
280
     0
102
RTVSPost2010PropOp28
 70
     1
102
RTVSPost2010Prop29
280
     1
102
RTVSPost2010PropOp29
 70
     1
102
RTVSPost2010Prop30
280
     1
102
RTVSPost2010PropOp30
 70
     1
102
RTVSPost2010Prop31
280
     0
102
RTVSPost2010PropOp31
 70
     1
102
RTVSPost2010Prop32
280
     0
102
RTVSPost2010PropOp32
 70
     1
102
RTVSPost2010Prop33
280
     0
102
RTVSPost2010PropOp33
 70
     1
102
RTVSPost2010Prop34
280
     0
102
RTVSPost2010PropOp34
 70
     1
102
RTVSPost2010Prop35
280
     0
102
RTVSPost2010PropOp35
 70
     1
102
RTVSPost2010Prop36
280
     0
102
RTVSPost2010PropOp36
 70
     1
102
RTVSPost2010Prop37
 90
       50
102
RTVSPost2010PropOp37
 70
     1
102
RTVSPost2010Prop38
140
0.0
102
RTVSPost2010PropOp38
 70
     1
102
RTVSPost2010Prop39
140
1.0
102
RTVSPost2010PropOp39
 70
     1
102
RTVSPost2010Prop40
 90
        0
102
RTVSPost2010PropOp40
 70
     1
102
RTVSPost2010Prop41ColorIndex
 90
       18
102
RTVSPost2010Prop41ColorRGB
 90
        0
102
RTVSPost2010PropOp41
 70
     1
102
RTVSPost2010Prop42
 90
       50
102
RTVSPost2010PropOp42
 70
     1
102
RTVSPost2010Prop43
 90
        3
102
RTVSPost2010PropOp43
 70
     1
102
RTVSPost2010Prop44ColorIndex
 90
        5
102
RTVSPost2010Prop44ColorRGB
 90
      255
102
RTVSPost2010PropOp44
 70
     1
102
RTVSPost2010Prop45
280
     0
102
RTVSPost2010PropOp45
 70
     1
102
RTVSPost2010Prop46
 90
       50
102
RTVSPost2010PropOp46
 70
     1
102
RTVSPost2010Prop47
 90
       50
102
RTVSPost2010PropOp47
 70
     1
102
RTVSPost2010Prop48
 90
       50
102
RTVSPost2010PropOp48
 70
     1
102
RTVSPost2010Prop49
280
     0
102
RTVSPost2010PropOp49
 70
     1
102
RTVSPost2010Prop50
 90
       50
102
RTVSPost2010PropOp50
 70
     1
102
RTVSPost2010Prop51ColorIndex
 90
      256
102
RTVSPost2010Prop51ColorRGB
 90
-16777216
102
RTVSPost2010PropOp51
 70
     0
102
RTVSPost2010Prop52
140
1.0
102
RTVSPost2010PropOp52
 70
     0
102
RTVSPost2010Prop53
 90
        2
102
RTVSPost2010PropOp53
 70
     1
102
RTVSPost2010Prop54
  1
strokes_ogs.tif
102
RTVSPost2010PropOp54
 70
     1
102
RTVSPost2010Prop55
280
     0
102
RTVSPost2010PropOp55
 70
     1
102
RTVSPost2010Prop56
140
1.0
102
RTVSPost2010PropOp56
 70
     1
102
RTVSPost2010Prop57
140
1.0
102
RTVSPost2010PropOp57
 70
     1
  0
XRECORD
  5
189
102
{ACAD_REACTORS
330
188
102
}
330
188
100
AcDbXrecord
280
     1
102
RTVSPost2010Prop28
280
     0
102
RTVSPost2010PropOp28
 70
     1
102
RTVSPost2010Prop29
280
     1
102
RTVSPost2010PropOp29
 70
     1
102
RTVSPost2010Prop30
280
     1
102
RTVSPost2010PropOp30
 70
     1
102
RTVSPost2010Prop31
280
     0
102
RTVSPost2010PropOp31
 70
     1
102
RTVSPost2010Prop32
280
     0
102
RTVSPost2010PropOp32
 70
     1
102
RTVSPost2010Prop33
280
     0
102
RTVSPost2010PropOp33
 70
     1
102
RTVSPost2010Prop34
280
     0
102
RTVSPost2010PropOp34
 70
     1
102
RTVSPost2010Prop35
280
     0
102
RTVSPost2010PropOp35
 70
     1
102
RTVSPost2010Prop36
280
     0
102
RTVSPost2010PropOp36
 70
     1
102
RTVSPost2010Prop37
 90
       50
102
RTVSPost2010PropOp37
 70
     1
102
RTVSPost2010Prop38
140
0.0
102
RTVSPost2010PropOp38
 70
     1
102
RTVSPost2010Prop39
140
1.0
102
RTVSPost2010PropOp39
 70
     1
102
RTVSPost2010Prop40
 90
        0
102
RTVSPost2010PropOp40
 70
     1
102
RTVSPost2010Prop41ColorIndex
 90
       18
102
RTVSPost2010Prop41ColorRGB
 90
        0
102
RTVSPost2010PropOp41
 70
     1
102
RTVSPost2010Prop42
 90
       50
102
RTVSPost2010PropOp42
 70
     1
102
RTVSPost2010Prop43
 90
        3
102
RTVSPost2010PropOp43
 70
     1
102
RTVSPost2010Prop44ColorIndex
 90
        5
102
RTVSPost2010Prop44ColorRGB
 90
      255
102
RTVSPost2010PropOp44
 70
     1
102
RTVSPost2010Prop45
280
     0
102
RTVSPost2010PropOp45
 70
     1
102
RTVSPost2010Prop46
 90
       50
102
RTVSPost2010PropOp46
 70
     1
102
RTVSPost2010Prop47
 90
       50
102
RTVSPost2010PropOp47
 70
     1
102
RTVSPost2010Prop48
 90
       50
102
RTVSPost2010PropOp48
 70
     1
102
RTVSPost2010Prop49
280
     0
102
RTVSPost2010PropOp49
 70
     1
102
RTVSPost2010Prop50
 90
       50
102
RTVSPost2010PropOp50
 70
     1
102
RTVSPost2010Prop51ColorIndex
 90
      256
102
RTVSPost2010Prop51ColorRGB
 90
-16777216
102
RTVSPost2010PropOp51
 70
     0
102
RTVSPost2010Prop52
140
1.0
102
RTVSPost2010PropOp52
 70
     0
102
RTVSPost2010Prop53
 90
        2
102
RTVSPost2010PropOp53
 70
     1
102
RTVSPost2010Prop54
  1
strokes_ogs.tif
102
RTVSPost2010PropOp54
 70
     1
102
RTVSPost2010Prop55
280
     0
102
RTVSPost2010PropOp55
 70
     1
102
RTVSPost2010Prop56
140
1.0
102
RTVSPost2010PropOp56
 70
     1
102
RTVSPost2010Prop57
140
1.0
102
RTVSPost2010PropOp57
 70
     1
  0
XRECORD
  5
187
102
{ACAD_REACTORS
330
186
102
}
330
186
100
AcDbXrecord
280
     1
102
RTVSPost2010Prop28
280
     0
102
RTVSPost2010PropOp28
 70
     1
102
RTVSPost2010Prop29
280
     1
102
RTVSPost2010PropOp29
 70
     1
102
RTVSPost2010Prop30
280
     1
102
RTVSPost2010PropOp30
 70
     1
102
RTVSPost2010Prop31
280
     0
102
RTVSPost2010PropOp31
 70
     1
102
RTVSPost2010Prop32
280
     0
102
RTVSPost2010PropOp32
 70
     1
102
RTVSPost2010Prop33
280
     0
102
RTVSPost2010PropOp33
 70
     1
102
RTVSPost2010Prop34
280
     0
102
RTVSPost2010PropOp34
 70
     1
102
RTVSPost2010Prop35
280
     0
102
RTVSPost2010PropOp35
 70
     1
102
RTVSPost2010Prop36
280
     0
102
RTVSPost2010PropOp36
 70
     1
102
RTVSPost2010Prop37
 90
       50
102
RTVSPost2010PropOp37
 70
     1
102
RTVSPost2010Prop38
140
0.0
102
RTVSPost2010PropOp38
 70
     1
102
RTVSPost2010Prop39
140
1.0
102
RTVSPost2010PropOp39
 70
     1
102
RTVSPost2010Prop40
 90
        0
102
RTVSPost2010PropOp40
 70
     1
102
RTVSPost2010Prop41ColorIndex
 90
       18
102
RTVSPost2010Prop41ColorRGB
 90
        0
102
RTVSPost2010PropOp41
 70
     1
102
RTVSPost2010Prop42
 90
       50
102
RTVSPost2010PropOp42
 70
     1
102
RTVSPost2010Prop43
 90
        3
102
RTVSPost2010PropOp43
 70
     1
102
RTVSPost2010Prop44ColorIndex
 90
        5
102
RTVSPost2010Prop44ColorRGB
 90
      255
102
RTVSPost2010PropOp44
 70
     1
102
RTVSPost2010Prop45
280
     0
102
RTVSPost2010PropOp45
 70
     1
102
RTVSPost2010Prop46
 90
       50
102
RTVSPost2010PropOp46
 70
     1
102
RTVSPost2010Prop47
 90
       50
102
RTVSPost2010PropOp47
 70
     1
102
RTVSPost2010Prop48
 90
       50
102
RTVSPost2010PropOp48
 70
     1
102
RTVSPost2010Prop49
280
     0
102
RTVSPost2010PropOp49
 70
     1
102
RTVSPost2010Prop50
 90
       50
102
RTVSPost2010PropOp50
 70
     1
102
RTVSPost2010Prop51ColorIndex
 90
      256
102
RTVSPost2010Prop51ColorRGB
 90
-16777216
102
RTVSPost2010PropOp51
 70
     0
102
RTVSPost2010Prop52
140
1.0
102
RTVSPost2010PropOp52
 70
     0
102
RTVSPost2010Prop53
 90
        2
102
RTVSPost2010PropOp53
 70
     1
102
RTVSPost2010Prop54
  1
strokes_ogs.tif
102
RTVSPost2010PropOp54
 70
     1
102
RTVSPost2010Prop55
280
     0
102
RTVSPost2010PropOp55
 70
     1
102
RTVSPost2010Prop56
140
1.0
102
RTVSPost2010PropOp56
 70
     1
102
RTVSPost2010Prop57
140
1.0
102
RTVSPost2010PropOp57
 70
     1
  0
XRECORD
  5
181
102
{ACAD_REACTORS
330
180
102
}
330
180
100
AcDbXrecord
280
     1
102
RTVSPost2010Prop28
280
     0
102
RTVSPost2010PropOp28
 70
     1
102
RTVSPost2010Prop29
280
     1
102
RTVSPost2010PropOp29
 70
     1
102
RTVSPost2010Prop30
280
     1
102
RTVSPost2010PropOp30
 70
     1
102
RTVSPost2010Prop31
280
     0
102
RTVSPost2010PropOp31
 70
     1
102
RTVSPost2010Prop32
280
     0
102
RTVSPost2010PropOp32
 70
     1
102
RTVSPost2010Prop33
280
     0
102
RTVSPost2010PropOp33
 70
     1
102
RTVSPost2010Prop34
280
     0
102
RTVSPost2010PropOp34
 70
     1
102
RTVSPost2010Prop35
280
     0
102
RTVSPost2010PropOp35
 70
     1
102
RTVSPost2010Prop36
280
     0
102
RTVSPost2010PropOp36
 70
     1
102
RTVSPost2010Prop37
 90
       50
102
RTVSPost2010PropOp37
 70
     1
102
RTVSPost2010Prop38
140
0.0
102
RTVSPost2010PropOp38
 70
     1
102
RTVSPost2010Prop39
140
1.0
102
RTVSPost2010PropOp39
 70
     1
102
RTVSPost2010Prop40
 90
        0
102
RTVSPost2010PropOp40
 70
     1
102
RTVSPost2010Prop41ColorIndex
 90
       18
102
RTVSPost2010Prop41ColorRGB
 90
        0
102
RTVSPost2010PropOp41
 70
     1
102
RTVSPost2010Prop42
 90
       50
102
RTVSPost2010PropOp42
 70
     1
102
RTVSPost2010Prop43
 90
        3
102
RTVSPost2010PropOp43
 70
     1
102
RTVSPost2010Prop44ColorIndex
 90
        5
102
RTVSPost2010Prop44ColorRGB
 90
      255
102
RTVSPost2010PropOp44
 70
     1
102
RTVSPost2010Prop45
280
     0
102
RTVSPost2010PropOp45
 70
     1
102
RTVSPost2010Prop46
 90
       50
102
RTVSPost2010PropOp46
 70
     1
102
RTVSPost2010Prop47
 90
       50
102
RTVSPost2010PropOp47
 70
     1
102
RTVSPost2010Prop48
 90
       50
102
RTVSPost2010PropOp48
 70
     1
102
RTVSPost2010Prop49
280
     0
102
RTVSPost2010PropOp49
 70
     1
102
RTVSPost2010Prop50
 90
       50
102
RTVSPost2010PropOp50
 70
     1
102
RTVSPost2010Prop51ColorIndex
 90
      256
102
RTVSPost2010Prop51ColorRGB
 90
-16777216
102
RTVSPost2010PropOp51
 70
     0
102
RTVSPost2010Prop52
140
1.0
102
RTVSPost2010PropOp52
 70
     0
102
RTVSPost2010Prop53
 90
        2
102
RTVSPost2010PropOp53
 70
     1
102
RTVSPost2010Prop54
  1
strokes_ogs.tif
102
RTVSPost2010PropOp54
 70
     1
102
RTVSPost2010Prop55
280
     0
102
RTVSPost2010PropOp55
 70
     1
102
RTVSPost2010Prop56
140
1.0
102
RTVSPost2010PropOp56
 70
     1
102
RTVSPost2010Prop57
140
1.0
102
RTVSPost2010PropOp57
 70
     1
  0
XRECORD
  5
183
102
{ACAD_REACTORS
330
182
102
}
330
182
100
AcDbXrecord
280
     1
102
RTVSPost2010Prop28
280
     0
102
RTVSPost2010PropOp28
 70
     1
102
RTVSPost2010Prop29
280
     1
102
RTVSPost2010PropOp29
 70
     1
102
RTVSPost2010Prop30
280
     1
102
RTVSPost2010PropOp30
 70
     1
102
RTVSPost2010Prop31
280
     0
102
RTVSPost2010PropOp31
 70
     1
102
RTVSPost2010Prop32
280
     0
102
RTVSPost2010PropOp32
 70
     1
102
RTVSPost2010Prop33
280
     0
102
RTVSPost2010PropOp33
 70
     1
102
RTVSPost2010Prop34
280
     0
102
RTVSPost2010PropOp34
 70
     1
102
RTVSPost2010Prop35
280
     0
102
RTVSPost2010PropOp35
 70
     1
102
RTVSPost2010Prop36
280
     0
102
RTVSPost2010PropOp36
 70
     1
102
RTVSPost2010Prop37
 90
       50
102
RTVSPost2010PropOp37
 70
     1
102
RTVSPost2010Prop38
140
0.0
102
RTVSPost2010PropOp38
 70
     1
102
RTVSPost2010Prop39
140
1.0
102
RTVSPost2010PropOp39
 70
     1
102
RTVSPost2010Prop40
 90
        0
102
RTVSPost2010PropOp40
 70
     1
102
RTVSPost2010Prop41ColorIndex
 90
       18
102
RTVSPost2010Prop41ColorRGB
 90
        0
102
RTVSPost2010PropOp41
 70
     1
102
RTVSPost2010Prop42
 90
       50
102
RTVSPost2010PropOp42
 70
     1
102
RTVSPost2010Prop43
 90
        3
102
RTVSPost2010PropOp43
 70
     1
102
RTVSPost2010Prop44ColorIndex
 90
        5
102
RTVSPost2010Prop44ColorRGB
 90
      255
102
RTVSPost2010PropOp44
 70
     1
102
RTVSPost2010Prop45
280
     0
102
RTVSPost2010PropOp45
 70
     1
102
RTVSPost2010Prop46
 90
       50
102
RTVSPost2010PropOp46
 70
     1
102
RTVSPost2010Prop47
 90
       50
102
RTVSPost2010PropOp47
 70
     1
102
RTVSPost2010Prop48
 90
       50
102
RTVSPost2010PropOp48
 70
     1
102
RTVSPost2010Prop49
280
     0
102
RTVSPost2010PropOp49
 70
     1
102
RTVSPost2010Prop50
 90
       50
102
RTVSPost2010PropOp50
 70
     1
102
RTVSPost2010Prop51ColorIndex
 90
      256
102
RTVSPost2010Prop51ColorRGB
 90
-16777216
102
RTVSPost2010PropOp51
 70
     0
102
RTVSPost2010Prop52
140
1.0
102
RTVSPost2010PropOp52
 70
     0
102
RTVSPost2010Prop53
 90
        2
102
RTVSPost2010PropOp53
 70
     1
102
RTVSPost2010Prop54
  1
strokes_ogs.tif
102
RTVSPost2010PropOp54
 70
     1
102
RTVSPost2010Prop55
280
     0
102
RTVSPost2010PropOp55
 70
     1
102
RTVSPost2010Prop56
140
1.0
102
RTVSPost2010PropOp56
 70
     1
102
RTVSPost2010Prop57
140
1.0
102
RTVSPost2010PropOp57
 70
     1
  0
XRECORD
  5
179
102
{ACAD_REACTORS
330
178
102
}
330
178
100
AcDbXrecord
280
     1
102
RTVSPost2010Prop28
280
     0
102
RTVSPost2010PropOp28
 70
     1
102
RTVSPost2010Prop29
280
     1
102
RTVSPost2010PropOp29
 70
     1
102
RTVSPost2010Prop30
280
     1
102
RTVSPost2010PropOp30
 70
     1
102
RTVSPost2010Prop31
280
     0
102
RTVSPost2010PropOp31
 70
     1
102
RTVSPost2010Prop32
280
     0
102
RTVSPost2010PropOp32
 70
     1
102
RTVSPost2010Prop33
280
     0
102
RTVSPost2010PropOp33
 70
     1
102
RTVSPost2010Prop34
280
     0
102
RTVSPost2010PropOp34
 70
     1
102
RTVSPost2010Prop35
280
     0
102
RTVSPost2010PropOp35
 70
     1
102
RTVSPost2010Prop36
280
     0
102
RTVSPost2010PropOp36
 70
     1
102
RTVSPost2010Prop37
 90
       50
102
RTVSPost2010PropOp37
 70
     1
102
RTVSPost2010Prop38
140
0.0
102
RTVSPost2010PropOp38
 70
     1
102
RTVSPost2010Prop39
140
1.0
102
RTVSPost2010PropOp39
 70
     1
102
RTVSPost2010Prop40
 90
        0
102
RTVSPost2010PropOp40
 70
     1
102
RTVSPost2010Prop41ColorIndex
 90
       18
102
RTVSPost2010Prop41ColorRGB
 90
        0
102
RTVSPost2010PropOp41
 70
     1
102
RTVSPost2010Prop42
 90
       50
102
RTVSPost2010PropOp42
 70
     1
102
RTVSPost2010Prop43
 90
        3
102
RTVSPost2010PropOp43
 70
     1
102
RTVSPost2010Prop44ColorIndex
 90
        5
102
RTVSPost2010Prop44ColorRGB
 90
      255
102
RTVSPost2010PropOp44
 70
     1
102
RTVSPost2010Prop45
280
     0
102
RTVSPost2010PropOp45
 70
     1
102
RTVSPost2010Prop46
 90
       50
102
RTVSPost2010PropOp46
 70
     1
102
RTVSPost2010Prop47
 90
       50
102
RTVSPost2010PropOp47
 70
     1
102
RTVSPost2010Prop48
 90
       50
102
RTVSPost2010PropOp48
 70
     1
102
RTVSPost2010Prop49
280
     0
102
RTVSPost2010PropOp49
 70
     1
102
RTVSPost2010Prop50
 90
       50
102
RTVSPost2010PropOp50
 70
     1
102
RTVSPost2010Prop51ColorIndex
 90
      256
102
RTVSPost2010Prop51ColorRGB
 90
-16777216
102
RTVSPost2010PropOp51
 70
     0
102
RTVSPost2010Prop52
140
1.0
102
RTVSPost2010PropOp52
 70
     0
102
RTVSPost2010Prop53
 90
        2
102
RTVSPost2010PropOp53
 70
     1
102
RTVSPost2010Prop54
  1
strokes_ogs.tif
102
RTVSPost2010PropOp54
 70
     1
102
RTVSPost2010Prop55
280
     0
102
RTVSPost2010PropOp55
 70
     1
102
RTVSPost2010Prop56
140
1.0
102
RTVSPost2010PropOp56
 70
     1
102
RTVSPost2010Prop57
140
1.0
102
RTVSPost2010PropOp57
 70
     1
  0
XRECORD
  5
16D
102
{ACAD_REACTORS
330
16C
102
}
330
16C
100
AcDbXrecord
280
     1
102
RTVSPost2010Prop28
280
     0
102
RTVSPost2010PropOp28
 70
     1
102
RTVSPost2010Prop29
280
     1
102
RTVSPost2010PropOp29
 70
     1
102
RTVSPost2010Prop30
280
     1
102
RTVSPost2010PropOp30
 70
     1
102
RTVSPost2010Prop31
280
     0
102
RTVSPost2010PropOp31
 70
     1
102
RTVSPost2010Prop32
280
     0
102
RTVSPost2010PropOp32
 70
     1
102
RTVSPost2010Prop33
280
     0
102
RTVSPost2010PropOp33
 70
     1
102
RTVSPost2010Prop34
280
     0
102
RTVSPost2010PropOp34
 70
     1
102
RTVSPost2010Prop35
280
     0
102
RTVSPost2010PropOp35
 70
     1
102
RTVSPost2010Prop36
280
     0
102
RTVSPost2010PropOp36
 70
     1
102
RTVSPost2010Prop37
 90
       50
102
RTVSPost2010PropOp37
 70
     1
102
RTVSPost2010Prop38
140
0.0
102
RTVSPost2010PropOp38
 70
     1
102
RTVSPost2010Prop39
140
1.0
102
RTVSPost2010PropOp39
 70
     1
102
RTVSPost2010Prop40
 90
        0
102
RTVSPost2010PropOp40
 70
     1
102
RTVSPost2010Prop41ColorIndex
 90
       18
102
RTVSPost2010Prop41ColorRGB
 90
        0
102
RTVSPost2010PropOp41
 70
     1
102
RTVSPost2010Prop42
 90
       50
102
RTVSPost2010PropOp42
 70
     1
102
RTVSPost2010Prop43
 90
        3
102
RTVSPost2010PropOp43
 70
     1
102
RTVSPost2010Prop44ColorIndex
 90
        5
102
RTVSPost2010Prop44ColorRGB
 90
      255
102
RTVSPost2010PropOp44
 70
     1
102
RTVSPost2010Prop45
280
     0
102
RTVSPost2010PropOp45
 70
     1
102
RTVSPost2010Prop46
 90
       50
102
RTVSPost2010PropOp46
 70
     1
102
RTVSPost2010Prop47
 90
       50
102
RTVSPost2010PropOp47
 70
     1
102
RTVSPost2010Prop48
 90
       50
102
RTVSPost2010PropOp48
 70
     1
102
RTVSPost2010Prop49
280
     0
102
RTVSPost2010PropOp49
 70
     1
102
RTVSPost2010Prop50
 90
       50
102
RTVSPost2010PropOp50
 70
     1
102
RTVSPost2010Prop51ColorIndex
 90
      256
102
RTVSPost2010Prop51ColorRGB
 90
-16777216
102
RTVSPost2010PropOp51
 70
     0
102
RTVSPost2010Prop52
140
1.0
102
RTVSPost2010PropOp52
 70
     0
102
RTVSPost2010Prop53
 90
        2
102
RTVSPost2010PropOp53
 70
     1
102
RTVSPost2010Prop54
  1
strokes_ogs.tif
102
RTVSPost2010PropOp54
 70
     1
102
RTVSPost2010Prop55
280
     0
102
RTVSPost2010PropOp55
 70
     1
102
RTVSPost2010Prop56
140
1.0
102
RTVSPost2010PropOp56
 70
     1
102
RTVSPost2010Prop57
140
1.0
102
RTVSPost2010PropOp57
 70
     1
  0
XRECORD
  5
185
102
{ACAD_REACTORS
330
184
102
}
330
184
100
AcDbXrecord
280
     1
102
RTVSPost2010Prop28
280
     0
102
RTVSPost2010PropOp28
 70
     1
102
RTVSPost2010Prop29
280
     1
102
RTVSPost2010PropOp29
 70
     1
102
RTVSPost2010Prop30
280
     1
102
RTVSPost2010PropOp30
 70
     1
102
RTVSPost2010Prop31
280
     0
102
RTVSPost2010PropOp31
 70
     1
102
RTVSPost2010Prop32
280
     0
102
RTVSPost2010PropOp32
 70
     1
102
RTVSPost2010Prop33
280
     0
102
RTVSPost2010PropOp33
 70
     1
102
RTVSPost2010Prop34
280
     0
102
RTVSPost2010PropOp34
 70
     1
102
RTVSPost2010Prop35
280
     0
102
RTVSPost2010PropOp35
 70
     1
102
RTVSPost2010Prop36
280
     0
102
RTVSPost2010PropOp36
 70
     1
102
RTVSPost2010Prop37
 90
       50
102
RTVSPost2010PropOp37
 70
     1
102
RTVSPost2010Prop38
140
0.0
102
RTVSPost2010PropOp38
 70
     1
102
RTVSPost2010Prop39
140
1.0
102
RTVSPost2010PropOp39
 70
     1
102
RTVSPost2010Prop40
 90
        0
102
RTVSPost2010PropOp40
 70
     1
102
RTVSPost2010Prop41ColorIndex
 90
       18
102
RTVSPost2010Prop41ColorRGB
 90
        0
102
RTVSPost2010PropOp41
 70
     1
102
RTVSPost2010Prop42
 90
       50
102
RTVSPost2010PropOp42
 70
     1
102
RTVSPost2010Prop43
 90
        3
102
RTVSPost2010PropOp43
 70
     1
102
RTVSPost2010Prop44ColorIndex
 90
        5
102
RTVSPost2010Prop44ColorRGB
 90
      255
102
RTVSPost2010PropOp44
 70
     1
102
RTVSPost2010Prop45
280
     0
102
RTVSPost2010PropOp45
 70
     1
102
RTVSPost2010Prop46
 90
       50
102
RTVSPost2010PropOp46
 70
     1
102
RTVSPost2010Prop47
 90
       50
102
RTVSPost2010PropOp47
 70
     1
102
RTVSPost2010Prop48
 90
       50
102
RTVSPost2010PropOp48
 70
     1
102
RTVSPost2010Prop49
280
     0
102
RTVSPost2010PropOp49
 70
     1
102
RTVSPost2010Prop50
 90
       50
102
RTVSPost2010PropOp50
 70
     1
102
RTVSPost2010Prop51ColorIndex
 90
      256
102
RTVSPost2010Prop51ColorRGB
 90
-16777216
102
RTVSPost2010PropOp51
 70
     0
102
RTVSPost2010Prop52
140
1.0
102
RTVSPost2010PropOp52
 70
     0
102
RTVSPost2010Prop53
 90
        2
102
RTVSPost2010PropOp53
 70
     1
102
RTVSPost2010Prop54
  1
strokes_ogs.tif
102
RTVSPost2010PropOp54
 70
     1
102
RTVSPost2010Prop55
280
     0
102
RTVSPost2010PropOp55
 70
     1
102
RTVSPost2010Prop56
140
1.0
102
RTVSPost2010PropOp56
 70
     1
102
RTVSPost2010Prop57
140
1.0
102
RTVSPost2010PropOp57
 70
     1
  0
ENDSEC
  0
EOF
