  0
SECTION
  2
HEADER
  9
$ACADVER
  1
AC1024
  9
$ACADMAINTVER
 70
   226
  9
$DWGCODEPAGE
  3
ANSI_932
  9
$INSBASE
 10
0.0
 20
0.0
 30
0.0
  9
$EXTMIN
 10
1.000000000000000E+20
 20
1.000000000000000E+20
 30
1.000000000000000E+20
  9
$EXTMAX
 10
-1.000000000000000E+20
 20
-1.000000000000000E+20
 30
-1.000000000000000E+20
  9
$LIMMIN
 10
0.0
 20
0.0
  9
$LIMMAX
 10
12.0
 20
9.0
  9
$ORTHOMODE
 70
     0
  9
$REGENMODE
 70
     1
  9
$FILLMODE
 70
     1
  9
$QTEXTMODE
 70
     0
  9
$MIRRTEXT
 70
     0
  9
$LTSCALE
 40
1.0
  9
$ATTMODE
 70
     1
  9
$TEXTSIZE
 40
0.2
  9
$TRACEWID
 40
0.05
  9
$TEXTSTYLE
  7
Standard
  9
$CLAYER
  8
0
  9
$CELTYPE
  6
ByLayer
  9
$CECOLOR
 62
   256
  9
$CELTSCALE
 40
1.0
  9
$DISPSILH
 70
     0
  9
$DIMSCALE
 40
1.0
  9
$DIMASZ
 40
0.18
  9
$DIMEXO
 40
0.0625
  9
$DIMDLI
 40
0.38
  9
$DIMRND
 40
0.0
  9
$DIMDLE
 40
0.0
  9
$DIMEXE
 40
0.18
  9
$DIMTP
 40
0.0
  9
$DIMTM
 40
0.0
  9
$DIMTXT
 40
0.18
  9
$DIMCEN
 40
0.09
  9
$DIMTSZ
 40
0.0
  9
$DIMTOL
 70
     0
  9
$DIMLIM
 70
     0
  9
$DIMTIH
 70
     1
  9
$DIMTOH
 70
     1
  9
$DIMSE1
 70
     0
  9
$DIMSE2
 70
     0
  9
$DIMTAD
 70
     0
  9
$DIMZIN
 70
     0
  9
$DIMBLK
  1

  9
$DIMASO
 70
     1
  9
$DIMSHO
 70
     1
  9
$DIMPOST
  1

  9
$DIMAPOST
  1

  9
$DIMALT
 70
     0
  9
$DIMALTD
 70
     2
  9
$DIMALTF
 40
25.4
  9
$DIMLFAC
 40
1.0
  9
$DIMTOFL
 70
     0
  9
$DIMTVP
 40
0.0
  9
$DIMTIX
 70
     0
  9
$DIMSOXD
 70
     0
  9
$DIMSAH
 70
     0
  9
$DIMBLK1
  1

  9
$DIMBLK2
  1

  9
$DIMSTYLE
  2
Standard
  9
$DIMCLRD
 70
     0
  9
$DIMCLRE
 70
     0
  9
$DIMCLRT
 70
     0
  9
$DIMTFAC
 40
1.0
  9
$DIMGAP
 40
0.09
  9
$DIMJUST
 70
     0
  9
$DIMSD1
 70
     0
  9
$DIMSD2
 70
     0
  9
$DIMTOLJ
 70
     1
  9
$DIMTZIN
 70
     0
  9
$DIMALTZ
 70
     0
  9
$DIMALTTZ
 70
     0
  9
$DIMUPT
 70
     0
  9
$DIMDEC
 70
     4
  9
$DIMTDEC
 70
     4
  9
$DIMALTU
 70
     2
  9
$DIMALTTD
 70
     2
  9
$DIMTXSTY
  7
Standard
  9
$DIMAUNIT
 70
     0
  9
$DIMADEC
 70
     0
  9
$DIMALTRND
 40
0.0
  9
$DIMAZIN
 70
     0
  9
$DIMDSEP
 70
    46
  9
$DIMATFIT
 70
     3
  9
$DIMFRAC
 70
     0
  9
$DIMLDRBLK
  1

  9
$DIMLUNIT
 70
     2
  9
$DIMLWD
 70
    -2
  9
$DIMLWE
 70
    -2
  9
$DIMTMOVE
 70
     0
  9
$DIMFXL
 40
1.0
  9
$DIMFXLON
 70
     0
  9
$DIMJOGANG
 40
0.7853981633974483
  9
$DIMTFILL
 70
     0
  9
$DIMTFILLCLR
 70
     0
  9
$DIMARCSYM
 70
     0
  9
$DIMLTYPE
  6

  9
$DIMLTEX1
  6

  9
$DIMLTEX2
  6

  9
$DIMTXTDIRECTION
 70
     0
  9
$LUNITS
 70
     2
  9
$LUPREC
 70
     4
  9
$SKETCHINC
 40
0.1
  9
$FILLETRAD
 40
0.0
  9
$AUNITS
 70
     0
  9
$AUPREC
 70
     0
  9
$MENU
  1
.
  9
$ELEVATION
 40
0.0
  9
$PELEVATION
 40
0.0
  9
$THICKNESS
 40
0.0
  9
$LIMCHECK
 70
     0
  9
$CHAMFERA
 40
0.0
  9
$CHAMFERB
 40
0.0
  9
$CHAMFERC
 40
0.0
  9
$CHAMFERD
 40
0.0
  9
$SKPOLY
 70
     0
  9
$TDCREATE
 40
2459569.503912037
  9
$TDUCREATE
 40
2459569.128912037
  9
$TDUPDATE
 40
2459569.503912037
  9
$TDUUPDATE
 40
2459569.128912037
  9
$TDINDWG
 40
0.0000000000
  9
$TDUSRTIMER
 40
0.0000000000
  9
$USRTIMER
 70
     1
  9
$ANGBASE
 50
0.0
  9
$ANGDIR
 70
     0
  9
$PDMODE
 70
     0
  9
$PDSIZE
 40
0.0
  9
$PLINEWID
 40
0.0
  9
$SPLFRAME
 70
     0
  9
$SPLINETYPE
 70
     6
  9
$SPLINESEGS
 70
     8
  9
$HANDSEED
  5
1BA
  9
$SURFTAB1
 70
     6
  9
$SURFTAB2
 70
     6
  9
$SURFTYPE
 70
     6
  9
$SURFU
 70
     6
  9
$SURFV
 70
     6
  9
$UCSBASE
  2

  9
$UCSNAME
  2

  9
$UCSORG
 10
0.0
 20
0.0
 30
0.0
  9
$UCSXDIR
 10
1.0
 20
0.0
 30
0.0
  9
$UCSYDIR
 10
0.0
 20
1.0
 30
0.0
  9
$UCSORTHOREF
  2

  9
$UCSORTHOVIEW
 70
     0
  9
$UCSORGTOP
 10
0.0
 20
0.0
 30
0.0
  9
$UCSORGBOTTOM
 10
0.0
 20
0.0
 30
0.0
  9
$UCSORGLEFT
 10
0.0
 20
0.0
 30
0.0
  9
$UCSORGRIGHT
 10
0.0
 20
0.0
 30
0.0
  9
$UCSORGFRONT
 10
0.0
 20
0.0
 30
0.0
  9
$UCSORGBACK
 10
0.0
 20
0.0
 30
0.0
  9
$PUCSBASE
  2

  9
$PUCSNAME
  2

  9
$PUCSORG
 10
0.0
 20
0.0
 30
0.0
  9
$PUCSXDIR
 10
1.0
 20
0.0
 30
0.0
  9
$PUCSYDIR
 10
0.0
 20
1.0
 30
0.0
  9
$PUCSORTHOREF
  2

  9
$PUCSORTHOVIEW
 70
     0
  9
$PUCSORGTOP
 10
0.0
 20
0.0
 30
0.0
  9
$PUCSORGBOTTOM
 10
0.0
 20
0.0
 30
0.0
  9
$PUCSORGLEFT
 10
0.0
 20
0.0
 30
0.0
  9
$PUCSORGRIGHT
 10
0.0
 20
0.0
 30
0.0
  9
$PUCSORGFRONT
 10
0.0
 20
0.0
 30
0.0
  9
$PUCSORGBACK
 10
0.0
 20
0.0
 30
0.0
  9
$USERI1
 70
     0
  9
$USERI2
 70
     0
  9
$USERI3
 70
     0
  9
$USERI4
 70
     0
  9
$USERI5
 70
     0
  9
$USERR1
 40
0.0
  9
$USERR2
 40
0.0
  9
$USERR3
 40
0.0
  9
$USERR4
 40
0.0
  9
$USERR5
 40
0.0
  9
$WORLDVIEW
 70
     1
  9
$SHADEDGE
 70
     3
  9
$SHADEDIF
 70
    70
  9
$TILEMODE
 70
     1
  9
$MAXACTVP
 70
    64
  9
$PINSBASE
 10
0.0
 20
0.0
 30
0.0
  9
$PLIMCHECK
 70
     0
  9
$PEXTMIN
 10
1.000000000000000E+20
 20
1.000000000000000E+20
 30
1.000000000000000E+20
  9
$PEXTMAX
 10
-1.000000000000000E+20
 20
-1.000000000000000E+20
 30
-1.000000000000000E+20
  9
$PLIMMIN
 10
0.0
 20
0.0
  9
$PLIMMAX
 10
12.0
 20
9.0
  9
$UNITMODE
 70
     0
  9
$VISRETAIN
 70
     1
  9
$PLINEGEN
 70
     0
  9
$PSLTSCALE
 70
     1
  9
$TREEDEPTH
 70
  3020
  9
$CMLSTYLE
  2
Standard
  9
$CMLJUST
 70
     0
  9
$CMLSCALE
 40
1.0
  9
$PROXYGRAPHICS
 70
     1
  9
$MEASUREMENT
 70
     0
  9
$CELWEIGHT
370
    -1
  9
$ENDCAPS
280
     0
  9
$JOINSTYLE
280
     0
  9
$LWDISPLAY
290
     1
  9
$INSUNITS
 70
     4
  9
$HYPERLINKBASE
  1

  9
$STYLESHEET
  1

  9
$XEDIT
290
     1
  9
$CEPSNTYPE
380
     0
  9
$PSTYLEMODE
290
     1
  9
$FINGERPRINTGUID
  2
{AC959144-5C89-634D-9835-4FD8D8963B2B}
  9
$VERSIONGUID
  2
{B8CB406E-42C2-5C4D-8C35-019680DDA4CC}
  9
$EXTNAMES
290
     1
  9
$PSVPSCALE
 40
0.0
  9
$OLESTARTUP
290
     0
  9
$SORTENTS
280
   127
  9
$INDEXCTL
280
     0
  9
$HIDETEXT
280
     1
  9
$XCLIPFRAME
280
     2
  9
$HALOGAP
280
     0
  9
$OBSCOLOR
 70
   257
  9
$OBSLTYPE
280
     0
  9
$INTERSECTIONDISPLAY
280
     0
  9
$INTERSECTIONCOLOR
 70
   257
  9
$DIMASSOC
280
     2
  9
$PROJECTNAME
  1

  9
$CAMERADISPLAY
290
     0
  9
$LENSLENGTH
 40
50.0
  9
$CAMERAHEIGHT
 40
0.0
  9
$STEPSPERSEC
 40
2.0
  9
$STEPSIZE
 40
6.0
  9
$3DDWFPREC
 40
2.0
  9
$PSOLWIDTH
 40
0.25
  9
$PSOLHEIGHT
 40
4.0
  9
$LOFTANG1
 40
1.570796326794896
  9
$LOFTANG2
 40
1.570796326794896
  9
$LOFTMAG1
 40
0.0
  9
$LOFTMAG2
 40
0.0
  9
$LOFTPARAM
 70
     7
  9
$LOFTNORMALS
280
     1
  9
$LATITUDE
 40
37.795
  9
$LONGITUDE
 40
-122.394
  9
$NORTHDIRECTION
 40
0.0
  9
$TIMEZONE
 70
 -8000
  9
$LIGHTGLYPHDISPLAY
280
     1
  9
$TILEMODELIGHTSYNCH
280
     1
  9
$CMATERIAL
347
11
  9
$SOLIDHIST
280
     0
  9
$SHOWHIST
280
     1
  9
$DWFFRAME
280
     2
  9
$DGNFRAME
280
     0
  9
$REALWORLDSCALE
290
     1
  9
$INTERFERECOLOR
 62
     1
  9
$INTERFEREOBJVS
345
33
  9
$INTERFEREVPVS
346
30
  9
$CSHADOW
280
     0
  9
$SHADOWPLANELOCATION
 40
0.0
  0
ENDSEC
  0
SECTION
  2
CLASSES
  0
CLASS
  1
ACDBDICTIONARYWDFLT
  2
AcDbDictionaryWithDefault
  3
ObjectDBX Classes
 90
        0
 91
        1
280
     0
281
     0
  0
CLASS
  1
MATERIAL
  2
AcDbMaterial
  3
ObjectDBX Classes
 90
     1153
 91
        3
280
     0
281
     0
  0
CLASS
  1
VISUALSTYLE
  2
AcDbVisualStyle
  3
ObjectDBX Classes
 90
     4095
 91
       24
280
     0
281
     0
  0
CLASS
  1
SCALE
  2
AcDbScale
  3
ObjectDBX Classes
 90
     1153
 91
       17
280
     0
281
     0
  0
CLASS
  1
TABLESTYLE
  2
AcDbTableStyle
  3
ObjectDBX Classes
 90
     4095
 91
        1
280
     0
281
     0
  0
CLASS
  1
MLEADERSTYLE
  2
AcDbMLeaderStyle
  3
ACDB_MLEADERSTYLE_CLASS
 90
     4095
 91
        1
280
     0
281
     0
  0
CLASS
  1
ACDBSECTIONVIEWSTYLE
  2
AcDbSectionViewStyle
  3
ObjectDBX Classes
 90
     1025
 91
        1
280
     0
281
     0
  0
CLASS
  1
ACDBDETAILVIEWSTYLE
  2
AcDbDetailViewStyle
  3
ObjectDBX Classes
 90
     1025
 91
        1
280
     0
281
     0
  0
CLASS
  1
DICTIONARYVAR
  2
AcDbDictionaryVar
  3
ObjectDBX Classes
 90
        0
 91
        5
280
     0
281
     0
  0
CLASS
  1
CELLSTYLEMAP
  2
AcDbCellStyleMap
  3
ObjectDBX Classes
 90
     1152
 91
        1
280
     0
281
     0
  0
ENDSEC
  0
SECTION
  2
TABLES
  0
TABLE
  2
VPORT
  5
8
330
0
100
AcDbSymbolTable
 70
     1
  0
VPORT
  5
57
330
8
100
AcDbSymbolTableRecord
100
AcDbViewportTableRecord
  2
*Active
 70
     0
 10
0.0
 20
0.0
 11
1.0
 21
1.0
 12
0.0
 22
0.0
 13
0.0
 23
0.0
 14
1.0
 24
1.0
 15
0.0
 25
0.0
 16
0.0
 26
0.0
 36
1.0
 17
104.9999999737534
 27
-148.4999999628701
 37
0.0
 40
302.939999924255
 41
0.7070707070707534
 42
50.0
 43
0.0
 44
0.0
 50
0.0
 51
0.0
 71
     0
 72
   100
 73
     1
 74
     0
 75
     1
 76
     0
 77
     0
 78
     0
281
     0
 65
     1
110
0.0
120
0.0
130
0.0
111
1.0
121
0.0
131
0.0
112
0.0
122
1.0
132
0.0
 79
     0
146
0.0
 60
     3
 61
     5
292
     1
282
     1
141
0.0
142
0.0
 63
   250
421
  3355443
  0
ENDTAB
  0
TABLE
  2
LTYPE
  5
5
330
0
100
AcDbSymbolTable
 70
     2
  0
LTYPE
  5
5B
330
5
100
AcDbSymbolTableRecord
100
AcDbLinetypeTableRecord
  2
ByBlock
 70
     0
  3

 72
    65
 73
     0
 40
0.0
  0
LTYPE
  5
5C
330
5
100
AcDbSymbolTableRecord
100
AcDbLinetypeTableRecord
  2
ByLayer
 70
     0
  3

 72
    65
 73
     0
 40
0.0
  0
LTYPE
  5
5D
330
5
100
AcDbSymbolTableRecord
100
AcDbLinetypeTableRecord
  2
Continuous
 70
     0
  3
Solid line
 72
    65
 73
     0
 40
0.0
  0
LTYPE
  5
17A
330
5
100
AcDbSymbolTableRecord
100
AcDbLinetypeTableRecord
  2
AI-Linetype-0
 70
     0
  3
Adobe Illustrator Linetype No. 0
 72
    65
 73
     2
 40
1.411111110758333
 49
0.7055555553791667
 74
     0
 49
-0.7055555553791667
 74
     0
  0
ENDTAB
  0
TABLE
  2
LAYER
  5
2
330
0
100
AcDbSymbolTable
 70
     2
  0
LAYER
  5
54
330
2
100
AcDbSymbolTableRecord
100
AcDbLayerTableRecord
  2
0
 70
     0
 62
     7
  6
Continuous
370
    -3
390
F
347
21
  0
LAYER
  5
78
330
2
100
AcDbSymbolTableRecord
100
AcDbLayerTableRecord
  2
レイヤー 1
 70
     0
 62
     7
  6
Continuous
370
     0
390
F
347
21
  0
ENDTAB
  0
TABLE
  2
STYLE
  5
3
330
0
100
AcDbSymbolTable
 70
     2
  0
STYLE
  5
55
330
3
100
AcDbSymbolTableRecord
100
AcDbTextStyleTableRecord
  2
Standard
 70
     0
 40
0.0
 41
1.0
 50
0.0
 71
     0
 42
0.2
  3
txt
  4

  0
STYLE
  5
5A
330
3
100
AcDbSymbolTableRecord
100
AcDbTextStyleTableRecord
  2
Annotative
 70
     0
 40
0.0
 41
1.0
 50
0.0
 71
     0
 42
0.2
  3
txt
  4

1001
AcadAnnotative
1000
AnnotativeData
1002
{
1070
     1
1070
     1
1002
}
  0
ENDTAB
  0
TABLE
  2
VIEW
  5
6
330
0
100
AcDbSymbolTable
 70
     0
  0
ENDTAB
  0
TABLE
  2
UCS
  5
7
330
0
100
AcDbSymbolTable
 70
     0
  0
ENDTAB
  0
TABLE
  2
APPID
  5
9
330
0
100
AcDbSymbolTable
 70
     2
  0
APPID
  5
56
330
9
100
AcDbSymbolTableRecord
100
AcDbRegAppTableRecord
  2
ACAD
 70
     0
  0
APPID
  5
5E
330
9
100
AcDbSymbolTableRecord
100
AcDbRegAppTableRecord
  2
AcadAnnotative
 70
     0
  0
ENDTAB
  0
TABLE
  2
DIMSTYLE
  5
A
330
0
100
AcDbSymbolTable
 70
     2
100
AcDbDimStyleTable
 71
     0
  0
DIMSTYLE
105
58
330
A
100
AcDbSymbolTableRecord
100
AcDbDimStyleTableRecord
  2
Standard
 70
     0
340
55
  0
DIMSTYLE
105
59
330
A
100
AcDbSymbolTableRecord
100
AcDbDimStyleTableRecord
  2
Annotative
 70
     0
340
55
1001
AcadAnnotative
1000
AnnotativeData
1002
{
1070
     1
1070
     1
1002
}
  0
ENDTAB
  0
TABLE
  2
BLOCK_RECORD
  5
1
330
0
100
AcDbSymbolTable
 70
    16
  0
BLOCK_RECORD
  5
70
330
1
100
AcDbSymbolTableRecord
100
AcDbBlockTableRecord
  2
*Model_Space
340
73
 70
     0
280
     1
281
     0
  0
BLOCK_RECORD
  5
6C
330
1
100
AcDbSymbolTableRecord
100
AcDbBlockTableRecord
  2
*Paper_Space
340
6F
 70
     0
280
     1
281
     0
  0
BLOCK_RECORD
  5
74
330
1
100
AcDbSymbolTableRecord
100
AcDbBlockTableRecord
  2
*Paper_Space0
340
77
 70
     0
280
     1
281
     0
  0
BLOCK_RECORD
  5
E0
330
1
100
AcDbSymbolTableRecord
100
AcDbBlockTableRecord
  2
Block_0
340
0
102
{BLKREFS
331
E1
102
}
 70
     0
280
     1
281
     0
  0
BLOCK_RECORD
  5
E4
330
1
100
AcDbSymbolTableRecord
100
AcDbBlockTableRecord
  2
Block_1
340
0
102
{BLKREFS
331
E5
102
}
 70
     0
280
     1
281
     0
  0
BLOCK_RECORD
  5
F1
330
1
100
AcDbSymbolTableRecord
100
AcDbBlockTableRecord
  2
Block_2
340
0
102
{BLKREFS
331
F2
102
}
 70
     0
280
     1
281
     0
  0
BLOCK_RECORD
  5
F5
330
1
100
AcDbSymbolTableRecord
100
AcDbBlockTableRecord
  2
Block_3
340
0
102
{BLKREFS
331
F6
102
}
 70
     0
280
     1
281
     0
  0
BLOCK_RECORD
  5
FF
330
1
100
AcDbSymbolTableRecord
100
AcDbBlockTableRecord
  2
Block_4
340
0
102
{BLKREFS
331
100
102
}
 70
     0
280
     1
281
     0
  0
BLOCK_RECORD
  5
108
330
1
100
AcDbSymbolTableRecord
100
AcDbBlockTableRecord
  2
Block_5
340
0
102
{BLKREFS
331
109
102
}
 70
     0
280
     1
281
     0
  0
BLOCK_RECORD
  5
10C
330
1
100
AcDbSymbolTableRecord
100
AcDbBlockTableRecord
  2
Block_6
340
0
102
{BLKREFS
331
10D
102
}
 70
     0
280
     1
281
     0
  0
BLOCK_RECORD
  5
117
330
1
100
AcDbSymbolTableRecord
100
AcDbBlockTableRecord
  2
Block_7
340
0
102
{BLKREFS
331
118
102
}
 70
     0
280
     1
281
     0
  0
BLOCK_RECORD
  5
123
330
1
100
AcDbSymbolTableRecord
100
AcDbBlockTableRecord
  2
Block_8
340
0
102
{BLKREFS
331
124
102
}
 70
     0
280
     1
281
     0
  0
BLOCK_RECORD
  5
12C
330
1
100
AcDbSymbolTableRecord
100
AcDbBlockTableRecord
  2
Block_9
340
0
102
{BLKREFS
331
12D
102
}
 70
     0
280
     1
281
     0
  0
BLOCK_RECORD
  5
132
330
1
100
AcDbSymbolTableRecord
100
AcDbBlockTableRecord
  2
Block_10
340
0
102
{BLKREFS
331
133
102
}
 70
     0
280
     1
281
     0
  0
BLOCK_RECORD
  5
139
330
1
100
AcDbSymbolTableRecord
100
AcDbBlockTableRecord
  2
Block_11
340
0
102
{BLKREFS
331
13A
102
}
 70
     0
280
     1
281
     0
  0
BLOCK_RECORD
  5
13D
330
1
100
AcDbSymbolTableRecord
100
AcDbBlockTableRecord
  2
Block_12
340
0
102
{BLKREFS
331
13E
102
}
 70
     0
280
     1
281
     0
  0
BLOCK_RECORD
  5
152
330
1
100
AcDbSymbolTableRecord
100
AcDbBlockTableRecord
  2
Block_13
340
0
102
{BLKREFS
331
153
102
}
 70
     0
280
     1
281
     0
  0
BLOCK_RECORD
  5
156
330
1
100
AcDbSymbolTableRecord
100
AcDbBlockTableRecord
  2
Block_14
340
0
102
{BLKREFS
331
157
102
}
 70
     0
280
     1
281
     0
  0
ENDTAB
  0
ENDSEC
  0
SECTION
  2
BLOCKS
  0
BLOCK
  5
71
330
70
100
AcDbEntity
  8
0
100
AcDbBlockBegin
  2
*Model_Space
 70
     0
 10
0.0
 20
0.0
 30
0.0
  3
*Model_Space
  1

  0
ENDBLK
  5
72
330
70
100
AcDbEntity
  8
0
100
AcDbBlockEnd
  0
BLOCK
  5
6D
330
6C
100
AcDbEntity
 67
     1
  8
0
100
AcDbBlockBegin
  2
*Paper_Space
 70
     0
 10
0.0
 20
0.0
 30
0.0
  3
*Paper_Space
  1

  0
ENDBLK
  5
6E
330
6C
100
AcDbEntity
 67
     1
  8
0
100
AcDbBlockEnd
  0
BLOCK
  5
75
330
74
100
AcDbEntity
 67
     1
  8
0
100
AcDbBlockBegin
  2
*Paper_Space0
 70
     0
 10
0.0
 20
0.0
 30
0.0
  3
*Paper_Space0
  1

  0
ENDBLK
  5
76
330
74
100
AcDbEntity
 67
     1
  8
0
100
AcDbBlockEnd
  0
BLOCK
  5
E2
330
E0
100
AcDbEntity
  8
0
100
AcDbBlockBegin
  2
Block_0
 70
     0
 10
0.0
 20
0.0
 30
0.0
  3
Block_0
  1

  0
INSERT
  5
E5
330
E0
100
AcDbEntity
  8
レイヤー 1
100
AcDbBlockReference
  2
Block_1
 10
0.0
 20
0.0
 30
0.0
  0
ENDBLK
  5
E3
330
E0
100
AcDbEntity
  8
0
100
AcDbBlockEnd
  0
BLOCK
  5
E6
330
E4
100
AcDbEntity
  8
0
100
AcDbBlockBegin
  2
Block_1
 70
     0
 10
0.0
 20
0.0
 30
0.0
  3
Block_1
  1

  0
SPLINE
  5
E8
330
E4
100
AcDbEntity
  8
レイヤー 1
100
AcDbSpline
210
0.0
220
0.0
230
1.0
 70
     9
 71
     3
 72
    17
 73
    13
 74
     0
 42
0.0000000001
 43
0.0000000001
 40
0.0
 40
0.0
 40
0.0
 40
0.0
 40
1.0
 40
1.0
 40
1.0
 40
2.0
 40
2.0
 40
2.0
 40
3.0
 40
3.0
 40
3.0
 40
4.0
 40
4.0
 40
4.0
 40
4.0
 10
77.74426403221323
 20
-147.8119940494185
 30
0.0
 10
77.74426403221323
 20
-148.0617634720991
 30
0.0
 10
78.02762313587504
 20
-148.10827226115
 30
0.0
 10
78.37247719394856
 20
-148.10827226115
 30
0.0
 10
78.69200980020547
 20
-148.10827226115
 30
0.0
 10
79.00086261045813
 20
-148.0720987585549
 30
0.0
 10
79.00086261045813
 20
-147.8119940494185
 30
0.0
 10
79.00086261045813
 20
-147.5642916840291
 30
0.0
 10
78.71939830931321
 20
-147.515715837687
 30
0.0
 10
78.37247719394856
 20
-147.515715837687
 30
0.0
 10
78.05311684246589
 20
-147.515715837687
 30
0.0
 10
77.74426403221323
 20
-147.5539563975733
 30
0.0
 10
77.74426403221323
 20
-147.8119940494185
 30
0.0
  0
SPLINE
  5
E9
330
E4
100
AcDbEntity
  8
レイヤー 1
100
AcDbSpline
210
0.0
220
0.0
230
1.0
 70
     9
 71
     3
 72
    29
 73
    25
 74
     0
 42
0.0000000001
 43
0.0000000001
 40
0.0
 40
0.0
 40
0.0
 40
0.0
 40
1.0
 40
1.0
 40
1.0
 40
2.0
 40
2.0
 40
2.0
 40
3.0
 40
3.0
 40
3.0
 40
4.0
 40
4.0
 40
4.0
 40
5.0
 40
5.0
 40
5.0
 40
6.0
 40
6.0
 40
6.0
 40
7.0
 40
7.0
 40
7.0
 40
8.0
 40
8.0
 40
8.0
 40
8.0
 10
78.96692841992841
 20
-147.4140855208722
 30
0.0
 10
79.1763902254316
 20
-147.522261519109
 30
0.0
 10
79.19551050537474
 20
-147.6955498220171
 30
0.0
 10
79.19551050537474
 20
-147.8119940494185
 30
0.0
 10
79.19551050537474
 20
-147.9728800085797
 30
0.0
 10
79.14900171632386
 20
-148.1144734330235
 30
0.0
 10
78.96692841992841
 20
-148.2095580684163
 30
0.0
 10
78.77245277978605
 20
-148.3132554425224
 30
0.0
 10
78.53543021040088
 20
-148.3325479772398
 30
0.0
 10
78.37247719394856
 20
-148.3325479772398
 30
0.0
 10
78.22864445743937
 20
-148.3325479772398
 30
0.0
 10
77.97698023224187
 20
-148.3153224998135
 30
0.0
 10
77.77802596796869
 20
-148.2095580684163
 30
0.0
 10
77.57493758911322
 20
-148.101726579728
 30
0.0
 10
77.55168319458778
 20
-147.9408406205669
 30
0.0
 10
77.55168319458778
 20
-147.8119940494185
 30
0.0
 10
77.55168319458778
 20
-147.6531751475485
 30
0.0
 10
77.5961249263475
 20
-147.5095146658136
 30
0.0
 10
77.77802596796869
 20
-147.4140855208722
 30
0.0
 10
77.97060680559416
 20
-147.314866770897
 30
0.0
 10
78.19901663626622
 20
-147.2914401215972
 30
0.0
 10
78.37247719394856
 20
-147.2914401215972
 30
0.0
 10
78.54387069433973
 20
-147.2914401215972
 30
0.0
 10
78.77451983707721
 20
-147.3127997136058
 30
0.0
 10
78.96692841992841
 20
-147.4140855208722
 30
0.0
  0
HATCH
  5
EA
330
E4
100
AcDbEntity
  8
レイヤー 1
 62
    18
420
        0
440
 33554687
100
AcDbHatch
 10
0.0
 20
0.0
 30
0.0
210
0.0
220
0.0
230
1.0
  2
SOLID
 70
     1
 71
     1
 91
        2
 92
        1
 93
        1
 72
     4
 94
        3
 73
     0
 74
     0
 95
       17
 96
       13
 40
0.0
 40
0.0
 40
0.0
 40
0.0
 40
1.0
 40
1.0
 40
1.0
 40
2.0
 40
2.0
 40
2.0
 40
3.0
 40
3.0
 40
3.0
 40
4.0
 40
4.0
 40
4.0
 40
4.0
 10
77.74426403221323
 20
-147.8119940494185
 10
77.74426403221323
 20
-148.0617634720991
 10
78.02762313587504
 20
-148.10827226115
 10
78.37247719394856
 20
-148.10827226115
 10
78.69200980020547
 20
-148.10827226115
 10
79.00086261045813
 20
-148.0720987585549
 10
79.00086261045813
 20
-147.8119940494185
 10
79.00086261045813
 20
-147.5642916840291
 10
78.71939830931321
 20
-147.515715837687
 10
78.37247719394856
 20
-147.515715837687
 10
78.05311684246589
 20
-147.515715837687
 10
77.74426403221323
 20
-147.5539563975733
 10
77.74426403221323
 20
-147.8119940494185
 97
        0
 97
        1
330
E8
 92
        1
 93
        1
 72
     4
 94
        3
 73
     0
 74
     0
 95
       29
 96
       25
 40
0.0
 40
0.0
 40
0.0
 40
0.0
 40
1.0
 40
1.0
 40
1.0
 40
2.0
 40
2.0
 40
2.0
 40
3.0
 40
3.0
 40
3.0
 40
4.0
 40
4.0
 40
4.0
 40
5.0
 40
5.0
 40
5.0
 40
6.0
 40
6.0
 40
6.0
 40
7.0
 40
7.0
 40
7.0
 40
8.0
 40
8.0
 40
8.0
 40
8.0
 10
78.96692841992841
 20
-147.4140855208722
 10
79.1763902254316
 20
-147.522261519109
 10
79.19551050537474
 20
-147.6955498220171
 10
79.19551050537474
 20
-147.8119940494185
 10
79.19551050537474
 20
-147.9728800085797
 10
79.14900171632386
 20
-148.1144734330235
 10
78.96692841992841
 20
-148.2095580684163
 10
78.77245277978605
 20
-148.3132554425224
 10
78.53543021040088
 20
-148.3325479772398
 10
78.37247719394856
 20
-148.3325479772398
 10
78.22864445743937
 20
-148.3325479772398
 10
77.97698023224187
 20
-148.3153224998135
 10
77.77802596796869
 20
-148.2095580684163
 10
77.57493758911322
 20
-148.101726579728
 10
77.55168319458778
 20
-147.9408406205669
 10
77.55168319458778
 20
-147.8119940494185
 10
77.55168319458778
 20
-147.6531751475485
 10
77.5961249263475
 20
-147.5095146658136
 10
77.77802596796869
 20
-147.4140855208722
 10
77.97060680559416
 20
-147.314866770897
 10
78.19901663626622
 20
-147.2914401215972
 10
78.37247719394856
 20
-147.2914401215972
 10
78.54387069433973
 20
-147.2914401215972
 10
78.77451983707721
 20
-147.3127997136058
 10
78.96692841992841
 20
-147.4140855208722
 97
        0
 97
        1
330
E9
 75
     2
 76
     1
 98
        1
 10
0.0
 20
0.0
450
        0
451
        0
460
0.0
461
0.0
452
        0
462
0.0
453
        0
470

  0
SPLINE
  5
EB
330
E4
100
AcDbEntity
  8
レイヤー 1
100
AcDbSpline
210
0.0
220
0.0
230
1.0
 70
    11
 71
     3
 72
    17
 73
    13
 74
     0
 42
0.0000000001
 43
0.0000000001
 40
0.0
 40
0.0
 40
0.0
 40
0.0
 40
1.0
 40
1.0
 40
1.0
 40
2.0
 40
2.0
 40
2.0
 40
3.0
 40
3.0
 40
3.0
 40
4.0
 40
4.0
 40
4.0
 40
4.0
 10
79.14469534696729
 20
-147.0750881251236
 30
0.0
 10
79.14469534696729
 20
-147.0750881251236
 30
0.0
 10
78.89303112176979
 20
-147.0750881251236
 30
0.0
 10
78.89303112176979
 20
-147.0750881251236
 30
0.0
 10
78.89303112176979
 20
-147.0750881251236
 30
0.0
 10
78.89303112176979
 20
-146.8232516451518
 30
0.0
 10
78.89303112176979
 20
-146.8232516451518
 30
0.0
 10
78.89303112176979
 20
-146.8232516451518
 30
0.0
 10
79.14469534696729
 20
-146.8232516451518
 30
0.0
 10
79.14469534696729
 20
-146.8232516451518
 30
0.0
 10
79.14469534696729
 20
-146.8232516451518
 30
0.0
 10
79.14469534696729
 20
-147.0750881251236
 30
0.0
 10
79.14469534696729
 20
-147.0750881251236
 30
0.0
  0
HATCH
  5
EC
330
E4
100
AcDbEntity
  8
レイヤー 1
 62
    18
420
        0
440
 33554687
100
AcDbHatch
 10
0.0
 20
0.0
 30
0.0
210
0.0
220
0.0
230
1.0
  2
SOLID
 70
     1
 71
     1
 91
        1
 92
        1
 93
        1
 72
     4
 94
        3
 73
     0
 74
     0
 95
       17
 96
       13
 40
0.0
 40
0.0
 40
0.0
 40
0.0
 40
1.0
 40
1.0
 40
1.0
 40
2.0
 40
2.0
 40
2.0
 40
3.0
 40
3.0
 40
3.0
 40
4.0
 40
4.0
 40
4.0
 40
4.0
 10
79.14469534696729
 20
-147.0750881251236
 10
79.14469534696729
 20
-147.0750881251236
 10
78.89303112176979
 20
-147.0750881251236
 10
78.89303112176979
 20
-147.0750881251236
 10
78.89303112176979
 20
-147.0750881251236
 10
78.89303112176979
 20
-146.8232516451518
 10
78.89303112176979
 20
-146.8232516451518
 10
78.89303112176979
 20
-146.8232516451518
 10
79.14469534696729
 20
-146.8232516451518
 10
79.14469534696729
 20
-146.8232516451518
 10
79.14469534696729
 20
-146.8232516451518
 10
79.14469534696729
 20
-147.0750881251236
 10
79.14469534696729
 20
-147.0750881251236
 97
        0
 97
        1
330
EB
 75
     2
 76
     1
 98
        1
 10
0.0
 20
0.0
450
        0
451
        0
460
0.0
461
0.0
452
        0
462
0.0
453
        0
470

  0
SPLINE
  5
ED
330
E4
100
AcDbEntity
  8
レイヤー 1
100
AcDbSpline
210
0.0
220
0.0
230
1.0
 70
     9
 71
     3
 72
    53
 73
    49
 74
     0
 42
0.0000000001
 43
0.0000000001
 40
0.0
 40
0.0
 40
0.0
 40
0.0
 40
1.0
 40
1.0
 40
1.0
 40
2.0
 40
2.0
 40
2.0
 40
3.0
 40
3.0
 40
3.0
 40
4.0
 40
4.0
 40
4.0
 40
5.0
 40
5.0
 40
5.0
 40
6.0
 40
6.0
 40
6.0
 40
7.0
 40
7.0
 40
7.0
 40
8.0
 40
8.0
 40
8.0
 40
9.0
 40
9.0
 40
9.0
 40
10.0
 40
10.0
 40
10.0
 40
11.0
 40
11.0
 40
11.0
 40
12.0
 40
12.0
 40
12.0
 40
13.0
 40
13.0
 40
13.0
 40
14.0
 40
14.0
 40
14.0
 40
15.0
 40
15.0
 40
15.0
 40
16.0
 40
16.0
 40
16.0
 40
16.0
 10
79.19551050537474
 20
-146.1059827651228
 30
0.0
 10
79.19551050537474
 20
-146.184186432638
 30
0.0
 10
79.17862953749701
 20
-146.2858167494528
 30
0.0
 10
79.11506752579416
 20
-146.3874470662677
 30
0.0
 10
79.00499672504043
 20
-146.5607353691758
 30
0.0
 10
78.87391084182667
 20
-146.5820949611843
 30
0.0
 10
78.76607935313835
 20
-146.6010429863532
 30
0.0
 10
78.76607935313835
 20
-146.6010429863532
 30
0.0
 10
78.76607935313835
 20
-146.3788343275546
 30
0.0
 10
78.76607935313835
 20
-146.3788343275546
 30
0.0
 10
78.96486136263726
 20
-146.3240573093391
 30
0.0
 10
78.99448918381041
 20
-146.1969332859334
 30
0.0
 10
78.99448918381041
 20
-146.1039157078316
 30
0.0
 10
78.99448918381041
 20
-145.964389340679
 30
0.0
 10
78.89509817906095
 20
-145.812116120231
 30
0.0
 10
78.66238197903232
 20
-145.812116120231
 30
0.0
 10
78.40641138447826
 20
-145.812116120231
 30
0.0
 10
78.33664820090195
 20
-145.991950104561
 30
0.0
 10
78.33664820090195
 20
-146.1125284465448
 30
0.0
 10
78.33664820090195
 20
-146.1442233250091
 30
0.0
 10
78.33664820090195
 20
-146.2858167494528
 30
0.0
 10
78.46566702682456
 20
-146.3747002129723
 30
0.0
 10
78.46566702682456
 20
-146.3747002129723
 30
0.0
 10
78.44654674688142
 20
-146.55040008272
 30
0.0
 10
78.44654674688142
 20
-146.55040008272
 30
0.0
 10
78.44654674688142
 20
-146.55040008272
 30
0.0
 10
77.60043129570405
 20
-146.4298217407363
 30
0.0
 10
77.60043129570405
 20
-146.4298217407363
 30
0.0
 10
77.60043129570405
 20
-146.4298217407363
 30
0.0
 10
77.60043129570405
 20
-145.6512301610698
 30
0.0
 10
77.60043129570405
 20
-145.6512301610698
 30
0.0
 10
77.60043129570405
 20
-145.6512301610698
 30
0.0
 10
77.79507919062068
 20
-145.6512301610698
 30
0.0
 10
77.79507919062068
 20
-145.6512301610698
 30
0.0
 10
77.79507919062068
 20
-145.6512301610698
 30
0.0
 10
77.79507919062068
 20
-146.266868724284
 30
0.0
 10
77.79507919062068
 20
-146.266868724284
 30
0.0
 10
77.79507919062068
 20
-146.266868724284
 30
0.0
 10
78.21813691620936
 20
-146.3323255385037
 30
0.0
 10
78.21813691620936
 20
-146.3323255385037
 30
0.0
 10
78.18420272567966
 20
-146.2710028388663
 30
0.0
 10
78.14406736327649
 20
-146.1886650567688
 30
0.0
 10
78.14406736327649
 20
-146.0701537720762
 30
0.0
 10
78.14406736327649
 20
-145.8162502348133
 30
0.0
 10
78.33027477425424
 20
-145.5792276654281
 30
0.0
 10
78.64326169908919
 20
-145.5792276654281
 30
0.0
 10
78.96072724805496
 20
-145.5792276654281
 30
0.0
 10
79.19551050537474
 20
-145.8035033815179
 30
0.0
 10
79.19551050537474
 20
-146.1059827651228
 30
0.0
  0
HATCH
  5
EE
330
E4
100
AcDbEntity
  8
レイヤー 1
 62
    18
420
        0
440
 33554687
100
AcDbHatch
 10
0.0
 20
0.0
 30
0.0
210
0.0
220
0.0
230
1.0
  2
SOLID
 70
     1
 71
     1
 91
        1
 92
        1
 93
        1
 72
     4
 94
        3
 73
     0
 74
     0
 95
       53
 96
       49
 40
0.0
 40
0.0
 40
0.0
 40
0.0
 40
1.0
 40
1.0
 40
1.0
 40
2.0
 40
2.0
 40
2.0
 40
3.0
 40
3.0
 40
3.0
 40
4.0
 40
4.0
 40
4.0
 40
5.0
 40
5.0
 40
5.0
 40
6.0
 40
6.0
 40
6.0
 40
7.0
 40
7.0
 40
7.0
 40
8.0
 40
8.0
 40
8.0
 40
9.0
 40
9.0
 40
9.0
 40
10.0
 40
10.0
 40
10.0
 40
11.0
 40
11.0
 40
11.0
 40
12.0
 40
12.0
 40
12.0
 40
13.0
 40
13.0
 40
13.0
 40
14.0
 40
14.0
 40
14.0
 40
15.0
 40
15.0
 40
15.0
 40
16.0
 40
16.0
 40
16.0
 40
16.0
 10
79.19551050537474
 20
-146.1059827651228
 10
79.19551050537474
 20
-146.184186432638
 10
79.17862953749701
 20
-146.2858167494528
 10
79.11506752579416
 20
-146.3874470662677
 10
79.00499672504043
 20
-146.5607353691758
 10
78.87391084182667
 20
-146.5820949611843
 10
78.76607935313835
 20
-146.6010429863532
 10
78.76607935313835
 20
-146.6010429863532
 10
78.76607935313835
 20
-146.3788343275546
 10
78.76607935313835
 20
-146.3788343275546
 10
78.96486136263726
 20
-146.3240573093391
 10
78.99448918381041
 20
-146.1969332859334
 10
78.99448918381041
 20
-146.1039157078316
 10
78.99448918381041
 20
-145.964389340679
 10
78.89509817906095
 20
-145.812116120231
 10
78.66238197903232
 20
-145.812116120231
 10
78.40641138447826
 20
-145.812116120231
 10
78.33664820090195
 20
-145.991950104561
 10
78.33664820090195
 20
-146.1125284465448
 10
78.33664820090195
 20
-146.1442233250091
 10
78.33664820090195
 20
-146.2858167494528
 10
78.46566702682456
 20
-146.3747002129723
 10
78.46566702682456
 20
-146.3747002129723
 10
78.44654674688142
 20
-146.55040008272
 10
78.44654674688142
 20
-146.55040008272
 10
78.44654674688142
 20
-146.55040008272
 10
77.60043129570405
 20
-146.4298217407363
 10
77.60043129570405
 20
-146.4298217407363
 10
77.60043129570405
 20
-146.4298217407363
 10
77.60043129570405
 20
-145.6512301610698
 10
77.60043129570405
 20
-145.6512301610698
 10
77.60043129570405
 20
-145.6512301610698
 10
77.79507919062068
 20
-145.6512301610698
 10
77.79507919062068
 20
-145.6512301610698
 10
77.79507919062068
 20
-145.6512301610698
 10
77.79507919062068
 20
-146.266868724284
 10
77.79507919062068
 20
-146.266868724284
 10
77.79507919062068
 20
-146.266868724284
 10
78.21813691620936
 20
-146.3323255385037
 10
78.21813691620936
 20
-146.3323255385037
 10
78.18420272567966
 20
-146.2710028388663
 10
78.14406736327649
 20
-146.1886650567688
 10
78.14406736327649
 20
-146.0701537720762
 10
78.14406736327649
 20
-145.8162502348133
 10
78.33027477425424
 20
-145.5792276654281
 10
78.64326169908919
 20
-145.5792276654281
 10
78.96072724805496
 20
-145.5792276654281
 10
79.19551050537474
 20
-145.8035033815179
 10
79.19551050537474
 20
-146.1059827651228
 97
        0
 97
        1
330
ED
 75
     2
 76
     1
 98
        1
 10
0.0
 20
0.0
450
        0
451
        0
460
0.0
461
0.0
452
        0
462
0.0
453
        0
470

  0
ENDBLK
  5
E7
330
E4
100
AcDbEntity
  8
0
100
AcDbBlockEnd
  0
BLOCK
  5
F3
330
F1
100
AcDbEntity
  8
0
100
AcDbBlockBegin
  2
Block_2
 70
     0
 10
0.0
 20
0.0
 30
0.0
  3
Block_2
  1

  0
INSERT
  5
F6
330
F1
100
AcDbEntity
  8
レイヤー 1
100
AcDbBlockReference
  2
Block_3
 10
0.0
 20
0.0
 30
0.0
  0
ENDBLK
  5
F4
330
F1
100
AcDbEntity
  8
0
100
AcDbBlockEnd
  0
BLOCK
  5
F7
330
F5
100
AcDbEntity
  8
0
100
AcDbBlockBegin
  2
Block_3
 70
     0
 10
0.0
 20
0.0
 30
0.0
  3
Block_3
  1

  0
SPLINE
  5
F9
330
F5
100
AcDbEntity
  8
レイヤー 1
100
AcDbSpline
210
0.0
220
0.0
230
1.0
 70
     9
 71
     3
 72
    44
 73
    40
 74
     0
 42
0.0000000001
 43
0.0000000001
 40
0.0
 40
0.0
 40
0.0
 40
0.0
 40
1.0
 40
1.0
 40
1.0
 40
2.0
 40
2.0
 40
2.0
 40
3.0
 40
3.0
 40
3.0
 40
4.0
 40
4.0
 40
4.0
 40
5.0
 40
5.0
 40
5.0
 40
6.0
 40
6.0
 40
6.0
 40
7.0
 40
7.0
 40
7.0
 40
8.0
 40
8.0
 40
8.0
 40
9.0
 40
9.0
 40
9.0
 40
10.0
 40
10.0
 40
10.0
 40
11.0
 40
11.0
 40
11.0
 40
12.0
 40
12.0
 40
12.0
 40
13.0
 40
13.0
 40
13.0
 40
13.0
 10
94.51791718557192
 20
-140.599686651048
 30
0.0
 10
94.30001489612987
 20
-140.7583332981437
 30
0.0
 10
94.20682506325386
 20
-140.8324028510766
 30
0.0
 10
94.15824921691182
 20
-140.9762355875858
 30
0.0
 10
94.15824921691182
 20
-140.9762355875858
 30
0.0
 10
94.93666854180402
 20
-140.9762355875858
 30
0.0
 10
94.93666854180402
 20
-140.9762355875858
 30
0.0
 10
94.93666854180402
 20
-140.9762355875858
 30
0.0
 10
94.93666854180402
 20
-141.1813910237324
 30
0.0
 10
94.93666854180402
 20
-141.1813910237324
 30
0.0
 10
94.93666854180402
 20
-141.1813910237324
 30
0.0
 10
93.90865204900547
 20
-141.1813910237324
 30
0.0
 10
93.90865204900547
 20
-141.1813910237324
 30
0.0
 10
93.94034692746977
 20
-140.8237901123635
 30
0.0
 10
94.00580374168951
 20
-140.7455864448483
 30
0.0
 10
94.39096541694047
 20
-140.4472411758257
 30
0.0
 10
94.64693601149452
 20
-140.2484591663267
 30
0.0
 10
94.71239282571426
 20
-140.1807630400416
 30
0.0
 10
94.71239282571426
 20
-140.0433037301801
 30
0.0
 10
94.71239282571426
 20
-139.9247924454875
 30
0.0
 10
94.6405625848468
 20
-139.7935343074995
 30
0.0
 10
94.44384763263904
 20
-139.7935343074995
 30
0.0
 10
94.18357066872841
 20
-139.7935343074995
 30
0.0
 10
94.17513018478954
 20
-140.024183450237
 30
0.0
 10
94.170823815433
 20
-140.1406276776384
 30
0.0
 10
94.170823815433
 20
-140.1406276776384
 30
0.0
 10
93.94672035411749
 20
-140.1406276776384
 30
0.0
 10
93.94672035411749
 20
-140.1406276776384
 30
0.0
 10
93.95516083805636
 20
-140.013675909007
 30
0.0
 10
93.96566837928636
 20
-139.9015380509621
 30
0.0
 10
94.04611135886694
 20
-139.7830267662695
 30
0.0
 10
94.15600990484641
 20
-139.6223130618826
 30
0.0
 10
94.34221731582416
 20
-139.5883788713529
 30
0.0
 10
94.45866154322562
 20
-139.5883788713529
 30
0.0
 10
94.73581947501397
 20
-139.5883788713529
 30
0.0
 10
94.94304196845174
 20
-139.7725192250395
 30
0.0
 10
94.94304196845174
 20
-140.0453707874713
 30
0.0
 10
94.94304196845174
 20
-140.2737806181433
 30
0.0
 10
94.82676999582457
 20
-140.3733438776671
 30
0.0
 10
94.51791718557192
 20
-140.599686651048
 30
0.0
  0
HATCH
  5
FA
330
F5
100
AcDbEntity
  8
レイヤー 1
 62
    18
420
        0
440
 33554687
100
AcDbHatch
 10
0.0
 20
0.0
 30
0.0
210
0.0
220
0.0
230
1.0
  2
SOLID
 70
     1
 71
     1
 91
        1
 92
        1
 93
        1
 72
     4
 94
        3
 73
     0
 74
     0
 95
       44
 96
       40
 40
0.0
 40
0.0
 40
0.0
 40
0.0
 40
1.0
 40
1.0
 40
1.0
 40
2.0
 40
2.0
 40
2.0
 40
3.0
 40
3.0
 40
3.0
 40
4.0
 40
4.0
 40
4.0
 40
5.0
 40
5.0
 40
5.0
 40
6.0
 40
6.0
 40
6.0
 40
7.0
 40
7.0
 40
7.0
 40
8.0
 40
8.0
 40
8.0
 40
9.0
 40
9.0
 40
9.0
 40
10.0
 40
10.0
 40
10.0
 40
11.0
 40
11.0
 40
11.0
 40
12.0
 40
12.0
 40
12.0
 40
13.0
 40
13.0
 40
13.0
 40
13.0
 10
94.51791718557192
 20
-140.599686651048
 10
94.30001489612987
 20
-140.7583332981437
 10
94.20682506325386
 20
-140.8324028510766
 10
94.15824921691182
 20
-140.9762355875858
 10
94.15824921691182
 20
-140.9762355875858
 10
94.93666854180402
 20
-140.9762355875858
 10
94.93666854180402
 20
-140.9762355875858
 10
94.93666854180402
 20
-140.9762355875858
 10
94.93666854180402
 20
-141.1813910237324
 10
94.93666854180402
 20
-141.1813910237324
 10
94.93666854180402
 20
-141.1813910237324
 10
93.90865204900547
 20
-141.1813910237324
 10
93.90865204900547
 20
-141.1813910237324
 10
93.94034692746977
 20
-140.8237901123635
 10
94.00580374168951
 20
-140.7455864448483
 10
94.39096541694047
 20
-140.4472411758257
 10
94.64693601149452
 20
-140.2484591663267
 10
94.71239282571426
 20
-140.1807630400416
 10
94.71239282571426
 20
-140.0433037301801
 10
94.71239282571426
 20
-139.9247924454875
 10
94.6405625848468
 20
-139.7935343074995
 10
94.44384763263904
 20
-139.7935343074995
 10
94.18357066872841
 20
-139.7935343074995
 10
94.17513018478954
 20
-140.024183450237
 10
94.170823815433
 20
-140.1406276776384
 10
94.170823815433
 20
-140.1406276776384
 10
93.94672035411749
 20
-140.1406276776384
 10
93.94672035411749
 20
-140.1406276776384
 10
93.95516083805636
 20
-140.013675909007
 10
93.96566837928636
 20
-139.9015380509621
 10
94.04611135886694
 20
-139.7830267662695
 10
94.15600990484641
 20
-139.6223130618826
 10
94.34221731582416
 20
-139.5883788713529
 10
94.45866154322562
 20
-139.5883788713529
 10
94.73581947501397
 20
-139.5883788713529
 10
94.94304196845174
 20
-139.7725192250395
 10
94.94304196845174
 20
-140.0453707874713
 10
94.94304196845174
 20
-140.2737806181433
 10
94.82676999582457
 20
-140.3733438776671
 10
94.51791718557192
 20
-140.599686651048
 97
        0
 97
        1
330
F9
 75
     2
 76
     1
 98
        1
 10
0.0
 20
0.0
450
        0
451
        0
460
0.0
461
0.0
452
        0
462
0.0
453
        0
470

  0
SPLINE
  5
FB
330
F5
100
AcDbEntity
  8
レイヤー 1
100
AcDbSpline
210
0.0
220
0.0
230
1.0
 70
    11
 71
     3
 72
    26
 73
    22
 74
     0
 42
0.0000000001
 43
0.0000000001
 40
0.0
 40
0.0
 40
0.0
 40
0.0
 40
1.0
 40
1.0
 40
1.0
 40
2.0
 40
2.0
 40
2.0
 40
3.0
 40
3.0
 40
3.0
 40
4.0
 40
4.0
 40
4.0
 40
5.0
 40
5.0
 40
5.0
 40
6.0
 40
6.0
 40
6.0
 40
7.0
 40
7.0
 40
7.0
 40
7.0
 10
95.55299612411522
 20
-141.1813910237324
 30
0.0
 10
95.55299612411522
 20
-141.1813910237324
 30
0.0
 10
95.55299612411522
 20
-140.0770656659356
 30
0.0
 10
95.55299612411522
 20
-140.0770656659356
 30
0.0
 10
95.55299612411522
 20
-140.0770656659356
 30
0.0
 10
95.2229559766283
 20
-140.0770656659356
 30
0.0
 10
95.2229559766283
 20
-140.0770656659356
 30
0.0
 10
95.2229559766283
 20
-140.0770656659356
 30
0.0
 10
95.2229559766283
 20
-139.9289265600699
 30
0.0
 10
95.2229559766283
 20
-139.9289265600699
 30
0.0
 10
95.55506318140638
 20
-139.9142849042575
 30
0.0
 10
95.60157197045723
 20
-139.7513318878052
 30
0.0
 10
95.63119979163039
 20
-139.6371269724692
 30
0.0
 10
95.63119979163039
 20
-139.6371269724692
 30
0.0
 10
95.77727184020499
 20
-139.6371269724692
 30
0.0
 10
95.77727184020499
 20
-139.6371269724692
 30
0.0
 10
95.77727184020499
 20
-139.6371269724692
 30
0.0
 10
95.77727184020499
 20
-141.1813910237324
 30
0.0
 10
95.77727184020499
 20
-141.1813910237324
 30
0.0
 10
95.77727184020499
 20
-141.1813910237324
 30
0.0
 10
95.55299612411522
 20
-141.1813910237324
 30
0.0
 10
95.55299612411522
 20
-141.1813910237324
 30
0.0
  0
HATCH
  5
FC
330
F5
100
AcDbEntity
  8
レイヤー 1
 62
    18
420
        0
440
 33554687
100
AcDbHatch
 10
0.0
 20
0.0
 30
0.0
210
0.0
220
0.0
230
1.0
  2
SOLID
 70
     1
 71
     1
 91
        1
 92
        1
 93
        1
 72
     4
 94
        3
 73
     0
 74
     0
 95
       26
 96
       22
 40
0.0
 40
0.0
 40
0.0
 40
0.0
 40
1.0
 40
1.0
 40
1.0
 40
2.0
 40
2.0
 40
2.0
 40
3.0
 40
3.0
 40
3.0
 40
4.0
 40
4.0
 40
4.0
 40
5.0
 40
5.0
 40
5.0
 40
6.0
 40
6.0
 40
6.0
 40
7.0
 40
7.0
 40
7.0
 40
7.0
 10
95.55299612411522
 20
-141.1813910237324
 10
95.55299612411522
 20
-141.1813910237324
 10
95.55299612411522
 20
-140.0770656659356
 10
95.55299612411522
 20
-140.0770656659356
 10
95.55299612411522
 20
-140.0770656659356
 10
95.2229559766283
 20
-140.0770656659356
 10
95.2229559766283
 20
-140.0770656659356
 10
95.2229559766283
 20
-140.0770656659356
 10
95.2229559766283
 20
-139.9289265600699
 10
95.2229559766283
 20
-139.9289265600699
 10
95.55506318140638
 20
-139.9142849042575
 10
95.60157197045723
 20
-139.7513318878052
 10
95.63119979163039
 20
-139.6371269724692
 10
95.63119979163039
 20
-139.6371269724692
 10
95.77727184020499
 20
-139.6371269724692
 10
95.77727184020499
 20
-139.6371269724692
 10
95.77727184020499
 20
-139.6371269724692
 10
95.77727184020499
 20
-141.1813910237324
 10
95.77727184020499
 20
-141.1813910237324
 10
95.77727184020499
 20
-141.1813910237324
 10
95.55299612411522
 20
-141.1813910237324
 10
95.55299612411522
 20
-141.1813910237324
 97
        0
 97
        1
330
FB
 75
     2
 76
     1
 98
        1
 10
0.0
 20
0.0
450
        0
451
        0
460
0.0
461
0.0
452
        0
462
0.0
453
        0
470

  0
ENDBLK
  5
F8
330
F5
100
AcDbEntity
  8
0
100
AcDbBlockEnd
  0
BLOCK
  5
101
330
FF
100
AcDbEntity
  8
0
100
AcDbBlockBegin
  2
Block_4
 70
     0
 10
0.0
 20
0.0
 30
0.0
  3
Block_4
  1

  0
SPLINE
  5
103
330
FF
100
AcDbEntity
  8
レイヤー 1
100
AcDbSpline
210
0.0
220
0.0
230
1.0
 70
     9
 71
     3
 72
    17
 73
    13
 74
     0
 42
0.0000000001
 43
0.0000000001
 40
0.0
 40
0.0
 40
0.0
 40
0.0
 40
1.0
 40
1.0
 40
1.0
 40
2.0
 40
2.0
 40
2.0
 40
3.0
 40
3.0
 40
3.0
 40
4.0
 40
4.0
 40
4.0
 40
4.0
 10
79.06700844377493
 20
-150.1345051707997
 30
0.0
 10
79.06700844377493
 20
-150.3966769372272
 30
0.0
 10
79.27853730656926
 20
-150.4345729875649
 30
0.0
 10
79.39480927919643
 20
-150.4345729875649
 30
0.0
 10
79.57033689416991
 20
-150.4345729875649
 30
0.0
 10
79.73328991062223
 20
-150.339488352172
 30
0.0
 10
79.73328991062223
 20
-150.1555202532597
 30
0.0
 10
79.73328991062223
 20
-150.034941911276
 30
0.0
 10
79.67403426827594
 20
-149.8592420415282
 30
0.0
 10
79.38843585254872
 20
-149.8592420415282
 30
0.0
 10
79.16416013645896
 20
-149.8592420415282
 30
0.0
 10
79.06700844377493
 20
-149.9987684086808
 30
0.0
 10
79.06700844377493
 20
-150.1345051707997
 30
0.0
  0
SPLINE
  5
104
330
FF
100
AcDbEntity
  8
レイヤー 1
100
AcDbSpline
210
0.0
220
0.0
230
1.0
 70
     9
 71
     3
 72
    32
 73
    28
 74
     0
 42
0.0000000001
 43
0.0000000001
 40
0.0
 40
0.0
 40
0.0
 40
0.0
 40
1.0
 40
1.0
 40
1.0
 40
2.0
 40
2.0
 40
2.0
 40
3.0
 40
3.0
 40
3.0
 40
4.0
 40
4.0
 40
4.0
 40
5.0
 40
5.0
 40
5.0
 40
6.0
 40
6.0
 40
6.0
 40
7.0
 40
7.0
 40
7.0
 40
8.0
 40
8.0
 40
8.0
 40
9.0
 40
9.0
 40
9.0
 40
9.0
 10
79.9258707482477
 20
-150.1513861386774
 30
0.0
 10
79.9258707482477
 20
-150.6674614423678
 30
0.0
 10
79.371554884671
 20
-150.676074181081
 30
0.0
 10
79.15795896458551
 20
-150.676074181081
 30
0.0
 10
78.92730982184804
 20
-150.676074181081
 30
0.0
 10
78.27997638016959
 20
-150.6567816463635
 30
0.0
 10
78.27997638016959
 20
-150.1131455787912
 30
0.0
 10
78.27997638016959
 20
-149.9398572758831
 30
0.0
 10
78.34973956374589
 20
-149.6942219677848
 30
0.0
 10
78.68184676852398
 20
-149.656325917447
 30
0.0
 10
78.68184676852398
 20
-149.656325917447
 30
0.0
 10
78.68184676852398
 20
-149.8699218375325
 30
0.0
 10
78.68184676852398
 20
-149.8699218375325
 30
0.0
 10
78.62483043824309
 20
-149.8806016335368
 30
0.0
 10
78.47669133237736
 20
-149.9122965120011
 30
0.0
 10
78.47669133237736
 20
-150.1152126360823
 30
0.0
 10
78.47669133237736
 20
-150.4073567332315
 30
0.0
 10
78.80466442257314
 20
-150.4473198408604
 30
0.0
 10
79.00981985871976
 20
-150.4600666941558
 30
0.0
 10
78.93161619120459
 20
-150.3670491160541
 30
0.0
 10
78.87236054885829
 20
-150.2991807349946
 30
0.0
 10
78.87236054885829
 20
-150.1172796933734
 30
0.0
 10
78.87236054885829
 20
-149.9374457090434
 30
0.0
 10
78.98019203754661
 20
-149.6349663254385
 30
0.0
 10
79.38636879525758
 20
-149.6349663254385
 30
0.0
 10
79.70572914674024
 20
-149.6349663254385
 30
0.0
 10
79.9258707482477
 20
-149.8340928444859
 30
0.0
 10
79.9258707482477
 20
-150.1513861386774
 30
0.0
  0
HATCH
  5
105
330
FF
100
AcDbEntity
  8
レイヤー 1
 62
    18
420
        0
440
 33554687
100
AcDbHatch
 10
0.0
 20
0.0
 30
0.0
210
0.0
220
0.0
230
1.0
  2
SOLID
 70
     1
 71
     1
 91
        2
 92
        1
 93
        1
 72
     4
 94
        3
 73
     0
 74
     0
 95
       17
 96
       13
 40
0.0
 40
0.0
 40
0.0
 40
0.0
 40
1.0
 40
1.0
 40
1.0
 40
2.0
 40
2.0
 40
2.0
 40
3.0
 40
3.0
 40
3.0
 40
4.0
 40
4.0
 40
4.0
 40
4.0
 10
79.06700844377493
 20
-150.1345051707997
 10
79.06700844377493
 20
-150.3966769372272
 10
79.27853730656926
 20
-150.4345729875649
 10
79.39480927919643
 20
-150.4345729875649
 10
79.57033689416991
 20
-150.4345729875649
 10
79.73328991062223
 20
-150.339488352172
 10
79.73328991062223
 20
-150.1555202532597
 10
79.73328991062223
 20
-150.034941911276
 10
79.67403426827594
 20
-149.8592420415282
 10
79.38843585254872
 20
-149.8592420415282
 10
79.16416013645896
 20
-149.8592420415282
 10
79.06700844377493
 20
-149.9987684086808
 10
79.06700844377493
 20
-150.1345051707997
 97
        0
 97
        1
330
103
 92
        1
 93
        1
 72
     4
 94
        3
 73
     0
 74
     0
 95
       32
 96
       28
 40
0.0
 40
0.0
 40
0.0
 40
0.0
 40
1.0
 40
1.0
 40
1.0
 40
2.0
 40
2.0
 40
2.0
 40
3.0
 40
3.0
 40
3.0
 40
4.0
 40
4.0
 40
4.0
 40
5.0
 40
5.0
 40
5.0
 40
6.0
 40
6.0
 40
6.0
 40
7.0
 40
7.0
 40
7.0
 40
8.0
 40
8.0
 40
8.0
 40
9.0
 40
9.0
 40
9.0
 40
9.0
 10
79.9258707482477
 20
-150.1513861386774
 10
79.9258707482477
 20
-150.6674614423678
 10
79.371554884671
 20
-150.676074181081
 10
79.15795896458551
 20
-150.676074181081
 10
78.92730982184804
 20
-150.676074181081
 10
78.27997638016959
 20
-150.6567816463635
 10
78.27997638016959
 20
-150.1131455787912
 10
78.27997638016959
 20
-149.9398572758831
 10
78.34973956374589
 20
-149.6942219677848
 10
78.68184676852398
 20
-149.656325917447
 10
78.68184676852398
 20
-149.656325917447
 10
78.68184676852398
 20
-149.8699218375325
 10
78.68184676852398
 20
-149.8699218375325
 10
78.62483043824309
 20
-149.8806016335368
 10
78.47669133237736
 20
-149.9122965120011
 10
78.47669133237736
 20
-150.1152126360823
 10
78.47669133237736
 20
-150.4073567332315
 10
78.80466442257314
 20
-150.4473198408604
 10
79.00981985871976
 20
-150.4600666941558
 10
78.93161619120459
 20
-150.3670491160541
 10
78.87236054885829
 20
-150.2991807349946
 10
78.87236054885829
 20
-150.1172796933734
 10
78.87236054885829
 20
-149.9374457090434
 10
78.98019203754661
 20
-149.6349663254385
 10
79.38636879525758
 20
-149.6349663254385
 10
79.70572914674024
 20
-149.6349663254385
 10
79.9258707482477
 20
-149.8340928444859
 10
79.9258707482477
 20
-150.1513861386774
 97
        0
 97
        1
330
104
 75
     2
 76
     1
 98
        1
 10
0.0
 20
0.0
450
        0
451
        0
460
0.0
461
0.0
452
        0
462
0.0
453
        0
470

  0
ENDBLK
  5
102
330
FF
100
AcDbEntity
  8
0
100
AcDbBlockEnd
  0
BLOCK
  5
10A
330
108
100
AcDbEntity
  8
0
100
AcDbBlockBegin
  2
Block_5
 70
     0
 10
0.0
 20
0.0
 30
0.0
  3
Block_5
  1

  0
INSERT
  5
10D
330
108
100
AcDbEntity
  8
レイヤー 1
100
AcDbBlockReference
  2
Block_6
 10
0.0
 20
0.0
 30
0.0
  0
ENDBLK
  5
10B
330
108
100
AcDbEntity
  8
0
100
AcDbBlockEnd
  0
BLOCK
  5
10E
330
10C
100
AcDbEntity
  8
0
100
AcDbBlockBegin
  2
Block_6
 70
     0
 10
0.0
 20
0.0
 30
0.0
  3
Block_6
  1

  0
SPLINE
  5
110
330
10C
100
AcDbEntity
  8
レイヤー 1
100
AcDbSpline
210
0.0
220
0.0
230
1.0
 70
     9
 71
     3
 72
    44
 73
    40
 74
     0
 42
0.0000000001
 43
0.0000000001
 40
0.0
 40
0.0
 40
0.0
 40
0.0
 40
1.0
 40
1.0
 40
1.0
 40
2.0
 40
2.0
 40
2.0
 40
3.0
 40
3.0
 40
3.0
 40
4.0
 40
4.0
 40
4.0
 40
5.0
 40
5.0
 40
5.0
 40
6.0
 40
6.0
 40
6.0
 40
7.0
 40
7.0
 40
7.0
 40
8.0
 40
8.0
 40
8.0
 40
9.0
 40
9.0
 40
9.0
 40
10.0
 40
10.0
 40
10.0
 40
11.0
 40
11.0
 40
11.0
 40
12.0
 40
12.0
 40
12.0
 40
13.0
 40
13.0
 40
13.0
 40
13.0
 10
121.6191053298383
 20
-140.599686651048
 30
0.0
 10
121.4013752951705
 20
-140.7583332981437
 30
0.0
 10
121.3083577170687
 20
-140.8324028510766
 30
0.0
 10
121.2594373611782
 20
-140.9762355875858
 30
0.0
 10
121.2594373611782
 20
-140.9762355875858
 30
0.0
 10
122.0380289408447
 20
-140.9762355875858
 30
0.0
 10
122.0380289408447
 20
-140.9762355875858
 30
0.0
 10
122.0380289408447
 20
-140.9762355875858
 30
0.0
 10
122.0380289408447
 20
-141.1813910237324
 30
0.0
 10
122.0380289408447
 20
-141.1813910237324
 30
0.0
 10
122.0380289408447
 20
-141.1813910237324
 30
0.0
 10
121.0100124480461
 20
-141.1813910237324
 30
0.0
 10
121.0100124480461
 20
-141.1813910237324
 30
0.0
 10
121.0417073265104
 20
-140.8237901123635
 30
0.0
 10
121.1071641407301
 20
-140.7455864448483
 30
0.0
 10
121.4923258159811
 20
-140.4472411758257
 30
0.0
 10
121.7482964105351
 20
-140.2484591663267
 30
0.0
 10
121.8137532247549
 20
-140.1807630400416
 30
0.0
 10
121.8137532247549
 20
-140.0433037301801
 30
0.0
 10
121.8137532247549
 20
-139.9247924454875
 30
0.0
 10
121.7417507291131
 20
-139.7935343074995
 30
0.0
 10
121.5450357769054
 20
-139.7935343074995
 30
0.0
 10
121.284931067769
 20
-139.7935343074995
 30
0.0
 10
121.2766628386044
 20
-140.024183450237
 30
0.0
 10
121.2721842144736
 20
-140.1406276776384
 30
0.0
 10
121.2721842144736
 20
-140.1406276776384
 30
0.0
 10
121.0479084983838
 20
-140.1406276776384
 30
0.0
 10
121.0479084983838
 20
-140.1406276776384
 30
0.0
 10
121.056521237097
 20
-140.013675909007
 30
0.0
 10
121.0672010331012
 20
-139.9015380509621
 30
0.0
 10
121.1474717579076
 20
-139.7830267662695
 30
0.0
 10
121.257370303887
 20
-139.6223130618826
 30
0.0
 10
121.443749969639
 20
-139.5883788713529
 30
0.0
 10
121.559849687492
 20
-139.5883788713529
 30
0.0
 10
121.8371798740546
 20
-139.5883788713529
 30
0.0
 10
122.0445746222666
 20
-139.7725192250395
 30
0.0
 10
122.0445746222666
 20
-140.0453707874713
 30
0.0
 10
122.0445746222666
 20
-140.2737806181433
 30
0.0
 10
121.9281303948652
 20
-140.3733438776671
 30
0.0
 10
121.6191053298383
 20
-140.599686651048
 30
0.0
  0
HATCH
  5
111
330
10C
100
AcDbEntity
  8
レイヤー 1
 62
    18
420
        0
440
 33554687
100
AcDbHatch
 10
0.0
 20
0.0
 30
0.0
210
0.0
220
0.0
230
1.0
  2
SOLID
 70
     1
 71
     1
 91
        1
 92
        1
 93
        1
 72
     4
 94
        3
 73
     0
 74
     0
 95
       44
 96
       40
 40
0.0
 40
0.0
 40
0.0
 40
0.0
 40
1.0
 40
1.0
 40
1.0
 40
2.0
 40
2.0
 40
2.0
 40
3.0
 40
3.0
 40
3.0
 40
4.0
 40
4.0
 40
4.0
 40
5.0
 40
5.0
 40
5.0
 40
6.0
 40
6.0
 40
6.0
 40
7.0
 40
7.0
 40
7.0
 40
8.0
 40
8.0
 40
8.0
 40
9.0
 40
9.0
 40
9.0
 40
10.0
 40
10.0
 40
10.0
 40
11.0
 40
11.0
 40
11.0
 40
12.0
 40
12.0
 40
12.0
 40
13.0
 40
13.0
 40
13.0
 40
13.0
 10
121.6191053298383
 20
-140.599686651048
 10
121.4013752951705
 20
-140.7583332981437
 10
121.3083577170687
 20
-140.8324028510766
 10
121.2594373611782
 20
-140.9762355875858
 10
121.2594373611782
 20
-140.9762355875858
 10
122.0380289408447
 20
-140.9762355875858
 10
122.0380289408447
 20
-140.9762355875858
 10
122.0380289408447
 20
-140.9762355875858
 10
122.0380289408447
 20
-141.1813910237324
 10
122.0380289408447
 20
-141.1813910237324
 10
122.0380289408447
 20
-141.1813910237324
 10
121.0100124480461
 20
-141.1813910237324
 10
121.0100124480461
 20
-141.1813910237324
 10
121.0417073265104
 20
-140.8237901123635
 10
121.1071641407301
 20
-140.7455864448483
 10
121.4923258159811
 20
-140.4472411758257
 10
121.7482964105351
 20
-140.2484591663267
 10
121.8137532247549
 20
-140.1807630400416
 10
121.8137532247549
 20
-140.0433037301801
 10
121.8137532247549
 20
-139.9247924454875
 10
121.7417507291131
 20
-139.7935343074995
 10
121.5450357769054
 20
-139.7935343074995
 10
121.284931067769
 20
-139.7935343074995
 10
121.2766628386044
 20
-140.024183450237
 10
121.2721842144736
 20
-140.1406276776384
 10
121.2721842144736
 20
-140.1406276776384
 10
121.0479084983838
 20
-140.1406276776384
 10
121.0479084983838
 20
-140.1406276776384
 10
121.056521237097
 20
-140.013675909007
 10
121.0672010331012
 20
-139.9015380509621
 10
121.1474717579076
 20
-139.7830267662695
 10
121.257370303887
 20
-139.6223130618826
 10
121.443749969639
 20
-139.5883788713529
 10
121.559849687492
 20
-139.5883788713529
 10
121.8371798740546
 20
-139.5883788713529
 10
122.0445746222666
 20
-139.7725192250395
 10
122.0445746222666
 20
-140.0453707874713
 10
122.0445746222666
 20
-140.2737806181433
 10
121.9281303948652
 20
-140.3733438776671
 10
121.6191053298383
 20
-140.599686651048
 97
        0
 97
        1
330
110
 75
     2
 76
     1
 98
        1
 10
0.0
 20
0.0
450
        0
451
        0
460
0.0
461
0.0
452
        0
462
0.0
453
        0
470

  0
SPLINE
  5
112
330
10C
100
AcDbEntity
  8
レイヤー 1
100
AcDbSpline
210
0.0
220
0.0
230
1.0
 70
    11
 71
     3
 72
    26
 73
    22
 74
     0
 42
0.0000000001
 43
0.0000000001
 40
0.0
 40
0.0
 40
0.0
 40
0.0
 40
1.0
 40
1.0
 40
1.0
 40
2.0
 40
2.0
 40
2.0
 40
3.0
 40
3.0
 40
3.0
 40
4.0
 40
4.0
 40
4.0
 40
5.0
 40
5.0
 40
5.0
 40
6.0
 40
6.0
 40
6.0
 40
7.0
 40
7.0
 40
7.0
 40
7.0
 10
122.6543565231558
 20
-141.1813910237324
 30
0.0
 10
122.6543565231558
 20
-141.1813910237324
 30
0.0
 10
122.6543565231558
 20
-140.0770656659356
 30
0.0
 10
122.6543565231558
 20
-140.0770656659356
 30
0.0
 10
122.6543565231558
 20
-140.0770656659356
 30
0.0
 10
122.3243163756689
 20
-140.0770656659356
 30
0.0
 10
122.3243163756689
 20
-140.0770656659356
 30
0.0
 10
122.3243163756689
 20
-140.0770656659356
 30
0.0
 10
122.3243163756689
 20
-139.9289265600699
 30
0.0
 10
122.3243163756689
 20
-139.9289265600699
 30
0.0
 10
122.656423580447
 20
-139.9142849042575
 30
0.0
 10
122.7029323694979
 20
-139.7513318878052
 30
0.0
 10
122.732560190671
 20
-139.6371269724692
 30
0.0
 10
122.732560190671
 20
-139.6371269724692
 30
0.0
 10
122.8786322392456
 20
-139.6371269724692
 30
0.0
 10
122.8786322392456
 20
-139.6371269724692
 30
0.0
 10
122.8786322392456
 20
-139.6371269724692
 30
0.0
 10
122.8786322392456
 20
-141.1813910237324
 30
0.0
 10
122.8786322392456
 20
-141.1813910237324
 30
0.0
 10
122.8786322392456
 20
-141.1813910237324
 30
0.0
 10
122.6543565231558
 20
-141.1813910237324
 30
0.0
 10
122.6543565231558
 20
-141.1813910237324
 30
0.0
  0
HATCH
  5
113
330
10C
100
AcDbEntity
  8
レイヤー 1
 62
    18
420
        0
440
 33554687
100
AcDbHatch
 10
0.0
 20
0.0
 30
0.0
210
0.0
220
0.0
230
1.0
  2
SOLID
 70
     1
 71
     1
 91
        1
 92
        1
 93
        1
 72
     4
 94
        3
 73
     0
 74
     0
 95
       26
 96
       22
 40
0.0
 40
0.0
 40
0.0
 40
0.0
 40
1.0
 40
1.0
 40
1.0
 40
2.0
 40
2.0
 40
2.0
 40
3.0
 40
3.0
 40
3.0
 40
4.0
 40
4.0
 40
4.0
 40
5.0
 40
5.0
 40
5.0
 40
6.0
 40
6.0
 40
6.0
 40
7.0
 40
7.0
 40
7.0
 40
7.0
 10
122.6543565231558
 20
-141.1813910237324
 10
122.6543565231558
 20
-141.1813910237324
 10
122.6543565231558
 20
-140.0770656659356
 10
122.6543565231558
 20
-140.0770656659356
 10
122.6543565231558
 20
-140.0770656659356
 10
122.3243163756689
 20
-140.0770656659356
 10
122.3243163756689
 20
-140.0770656659356
 10
122.3243163756689
 20
-140.0770656659356
 10
122.3243163756689
 20
-139.9289265600699
 10
122.3243163756689
 20
-139.9289265600699
 10
122.656423580447
 20
-139.9142849042575
 10
122.7029323694979
 20
-139.7513318878052
 10
122.732560190671
 20
-139.6371269724692
 10
122.732560190671
 20
-139.6371269724692
 10
122.8786322392456
 20
-139.6371269724692
 10
122.8786322392456
 20
-139.6371269724692
 10
122.8786322392456
 20
-139.6371269724692
 10
122.8786322392456
 20
-141.1813910237324
 10
122.8786322392456
 20
-141.1813910237324
 10
122.8786322392456
 20
-141.1813910237324
 10
122.6543565231558
 20
-141.1813910237324
 10
122.6543565231558
 20
-141.1813910237324
 97
        0
 97
        1
330
112
 75
     2
 76
     1
 98
        1
 10
0.0
 20
0.0
450
        0
451
        0
460
0.0
461
0.0
452
        0
462
0.0
453
        0
470

  0
ENDBLK
  5
10F
330
10C
100
AcDbEntity
  8
0
100
AcDbBlockEnd
  0
BLOCK
  5
119
330
117
100
AcDbEntity
  8
0
100
AcDbBlockBegin
  2
Block_7
 70
     0
 10
0.0
 20
0.0
 30
0.0
  3
Block_7
  1

  0
SPLINE
  5
11B
330
117
100
AcDbEntity
  8
レイヤー 1
100
AcDbSpline
210
0.0
220
0.0
230
1.0
 70
     9
 71
     3
 72
    17
 73
    13
 74
     0
 42
0.0000000001
 43
0.0000000001
 40
0.0
 40
0.0
 40
0.0
 40
0.0
 40
1.0
 40
1.0
 40
1.0
 40
2.0
 40
2.0
 40
2.0
 40
3.0
 40
3.0
 40
3.0
 40
4.0
 40
4.0
 40
4.0
 40
4.0
 10
108.6107692870834
 20
-140.3740328967641
 30
0.0
 10
108.3482530111074
 20
-140.3740328967641
 30
0.0
 10
108.3103569607696
 20
-140.5855617595585
 30
0.0
 10
108.3103569607696
 20
-140.7018337321856
 30
0.0
 10
108.3103569607696
 20
-140.8775336019334
 30
0.0
 10
108.4054415961625
 20
-141.0403143636114
 30
0.0
 10
108.5894096950749
 20
-141.0403143636114
 30
0.0
 10
108.7099880370586
 20
-141.0403143636114
 30
0.0
 10
108.8856879068063
 20
-140.9810587212651
 30
0.0
 10
108.8856879068063
 20
-140.6954603055379
 30
0.0
 10
108.8856879068063
 20
-140.4713568442224
 30
0.0
 10
108.7458170301052
 20
-140.3740328967641
 30
0.0
 10
108.6107692870834
 20
-140.3740328967641
 30
0.0
  0
SPLINE
  5
11C
330
117
100
AcDbEntity
  8
レイヤー 1
100
AcDbSpline
210
0.0
220
0.0
230
1.0
 70
     9
 71
     3
 72
    32
 73
    28
 74
     0
 42
0.0000000001
 43
0.0000000001
 40
0.0
 40
0.0
 40
0.0
 40
0.0
 40
1.0
 40
1.0
 40
1.0
 40
2.0
 40
2.0
 40
2.0
 40
3.0
 40
3.0
 40
3.0
 40
4.0
 40
4.0
 40
4.0
 40
5.0
 40
5.0
 40
5.0
 40
6.0
 40
6.0
 40
6.0
 40
7.0
 40
7.0
 40
7.0
 40
8.0
 40
8.0
 40
8.0
 40
9.0
 40
9.0
 40
9.0
 40
9.0
 10
108.5935438096572
 20
-141.2328952012369
 30
0.0
 10
108.0774685059667
 20
-141.2328952012369
 30
0.0
 10
108.0692002768021
 20
-140.6785793376602
 30
0.0
 10
108.0692002768021
 20
-140.4649834175747
 30
0.0
 10
108.0692002768021
 20
-140.2343342748372
 30
0.0
 10
108.088148301971
 20
-139.5870008331588
 30
0.0
 10
108.6317843695434
 20
-139.5870008331588
 30
0.0
 10
108.8050726724515
 20
-139.5870008331588
 30
0.0
 10
109.0507079805498
 20
-139.6567640167351
 30
0.0
 10
109.0886040308876
 20
-139.9888712215132
 30
0.0
 10
109.0886040308876
 20
-139.9888712215132
 30
0.0
 10
108.8750081108021
 20
-139.9888712215132
 30
0.0
 10
108.8750081108021
 20
-139.9888712215132
 30
0.0
 10
108.8643283147978
 20
-139.9318548912323
 30
0.0
 10
108.8326334363335
 20
-139.7837157853666
 30
0.0
 10
108.6297173122523
 20
-139.7837157853666
 30
0.0
 10
108.3375732151031
 20
-139.7837157853666
 30
0.0
 10
108.2976101074742
 20
-140.1116888755623
 30
0.0
 10
108.2848632541788
 20
-140.316844311709
 30
0.0
 10
108.3778808322805
 20
-140.2386406441938
 30
0.0
 10
108.4457492133399
 20
-140.1793850018475
 30
0.0
 10
108.6276502549611
 20
-140.1793850018475
 30
0.0
 10
108.8074842392912
 20
-140.1793850018475
 30
0.0
 10
109.1099636228961
 20
-140.2872164905358
 30
0.0
 10
109.1099636228961
 20
-140.6933932482468
 30
0.0
 10
109.1099636228961
 20
-141.0129258545037
 30
0.0
 10
108.9108371038487
 20
-141.2328952012369
 30
0.0
 10
108.5935438096572
 20
-141.2328952012369
 30
0.0
  0
HATCH
  5
11D
330
117
100
AcDbEntity
  8
レイヤー 1
 62
    18
420
        0
440
 33554687
100
AcDbHatch
 10
0.0
 20
0.0
 30
0.0
210
0.0
220
0.0
230
1.0
  2
SOLID
 70
     1
 71
     1
 91
        2
 92
        1
 93
        1
 72
     4
 94
        3
 73
     0
 74
     0
 95
       17
 96
       13
 40
0.0
 40
0.0
 40
0.0
 40
0.0
 40
1.0
 40
1.0
 40
1.0
 40
2.0
 40
2.0
 40
2.0
 40
3.0
 40
3.0
 40
3.0
 40
4.0
 40
4.0
 40
4.0
 40
4.0
 10
108.6107692870834
 20
-140.3740328967641
 10
108.3482530111074
 20
-140.3740328967641
 10
108.3103569607696
 20
-140.5855617595585
 10
108.3103569607696
 20
-140.7018337321856
 10
108.3103569607696
 20
-140.8775336019334
 10
108.4054415961625
 20
-141.0403143636114
 10
108.5894096950749
 20
-141.0403143636114
 10
108.7099880370586
 20
-141.0403143636114
 10
108.8856879068063
 20
-140.9810587212651
 10
108.8856879068063
 20
-140.6954603055379
 10
108.8856879068063
 20
-140.4713568442224
 10
108.7458170301052
 20
-140.3740328967641
 10
108.6107692870834
 20
-140.3740328967641
 97
        0
 97
        1
330
11B
 92
        1
 93
        1
 72
     4
 94
        3
 73
     0
 74
     0
 95
       32
 96
       28
 40
0.0
 40
0.0
 40
0.0
 40
0.0
 40
1.0
 40
1.0
 40
1.0
 40
2.0
 40
2.0
 40
2.0
 40
3.0
 40
3.0
 40
3.0
 40
4.0
 40
4.0
 40
4.0
 40
5.0
 40
5.0
 40
5.0
 40
6.0
 40
6.0
 40
6.0
 40
7.0
 40
7.0
 40
7.0
 40
8.0
 40
8.0
 40
8.0
 40
9.0
 40
9.0
 40
9.0
 40
9.0
 10
108.5935438096572
 20
-141.2328952012369
 10
108.0774685059667
 20
-141.2328952012369
 10
108.0692002768021
 20
-140.6785793376602
 10
108.0692002768021
 20
-140.4649834175747
 10
108.0692002768021
 20
-140.2343342748372
 10
108.088148301971
 20
-139.5870008331588
 10
108.6317843695434
 20
-139.5870008331588
 10
108.8050726724515
 20
-139.5870008331588
 10
109.0507079805498
 20
-139.6567640167351
 10
109.0886040308876
 20
-139.9888712215132
 10
109.0886040308876
 20
-139.9888712215132
 10
108.8750081108021
 20
-139.9888712215132
 10
108.8750081108021
 20
-139.9888712215132
 10
108.8643283147978
 20
-139.9318548912323
 10
108.8326334363335
 20
-139.7837157853666
 10
108.6297173122523
 20
-139.7837157853666
 10
108.3375732151031
 20
-139.7837157853666
 10
108.2976101074742
 20
-140.1116888755623
 10
108.2848632541788
 20
-140.316844311709
 10
108.3778808322805
 20
-140.2386406441938
 10
108.4457492133399
 20
-140.1793850018475
 10
108.6276502549611
 20
-140.1793850018475
 10
108.8074842392912
 20
-140.1793850018475
 10
109.1099636228961
 20
-140.2872164905358
 10
109.1099636228961
 20
-140.6933932482468
 10
109.1099636228961
 20
-141.0129258545037
 10
108.9108371038487
 20
-141.2328952012369
 10
108.5935438096572
 20
-141.2328952012369
 97
        0
 97
        1
330
11C
 75
     2
 76
     1
 98
        1
 10
0.0
 20
0.0
450
        0
451
        0
460
0.0
461
0.0
452
        0
462
0.0
453
        0
470

  0
ENDBLK
  5
11A
330
117
100
AcDbEntity
  8
0
100
AcDbBlockEnd
  0
BLOCK
  5
125
330
123
100
AcDbEntity
  8
0
100
AcDbBlockBegin
  2
Block_8
 70
     0
 10
0.0
 20
0.0
 30
0.0
  3
Block_8
  1

  0
SPLINE
  5
127
330
123
100
AcDbEntity
  8
レイヤー 1
100
AcDbSpline
210
0.0
220
0.0
230
1.0
 70
     9
 71
     3
 72
    17
 73
    13
 74
     0
 42
0.0000000001
 43
0.0000000001
 40
0.0
 40
0.0
 40
0.0
 40
0.0
 40
1.0
 40
1.0
 40
1.0
 40
2.0
 40
2.0
 40
2.0
 40
3.0
 40
3.0
 40
3.0
 40
4.0
 40
4.0
 40
4.0
 40
4.0
 10
108.749606635139
 20
-155.1567653691969
 30
0.0
 10
108.5845865613955
 20
-155.1567653691969
 30
0.0
 10
108.4998372124583
 20
-155.2518500045898
 30
0.0
 10
108.4998372124583
 20
-155.3872422571601
 30
0.0
 10
108.4998372124583
 20
-155.509887656435
 30
0.0
 10
108.5718397081001
 20
-155.6283989411276
 30
0.0
 10
108.749606635139
 20
-155.6283989411276
 30
0.0
 10
108.9273735621778
 20
-155.6283989411276
 30
0.0
 10
108.9993760578196
 20
-155.509887656435
 30
0.0
 10
108.9993760578196
 20
-155.3872422571601
 30
0.0
 10
108.9993760578196
 20
-155.2518500045898
 30
0.0
 10
108.9125596515913
 20
-155.1567653691969
 30
0.0
 10
108.749606635139
 20
-155.1567653691969
 30
0.0
  0
SPLINE
  5
128
330
123
100
AcDbEntity
  8
レイヤー 1
100
AcDbSpline
210
0.0
220
0.0
230
1.0
 70
     9
 71
     3
 72
    17
 73
    13
 74
     0
 42
0.0000000001
 43
0.0000000001
 40
0.0
 40
0.0
 40
0.0
 40
0.0
 40
1.0
 40
1.0
 40
1.0
 40
2.0
 40
2.0
 40
2.0
 40
3.0
 40
3.0
 40
3.0
 40
4.0
 40
4.0
 40
4.0
 40
4.0
 10
108.749606635139
 20
-155.8168456641707
 30
0.0
 10
108.6059461534041
 20
-155.8168456641707
 30
0.0
 10
108.4533284234075
 20
-155.9036620703991
 30
0.0
 10
108.4533284234075
 20
-156.1065781944803
 30
0.0
 10
108.4533284234075
 20
-156.3119058854011
 30
0.0
 10
108.5804524468132
 20
-156.4131916926675
 30
0.0
 10
108.749606635139
 20
-156.4131916926675
 30
0.0
 10
108.9356417913424
 20
-156.4131916926675
 30
0.0
 10
109.0458848468704
 20
-156.2905462933926
 30
0.0
 10
109.0458848468704
 20
-156.1127793663537
 30
0.0
 10
109.0458848468704
 20
-155.8909152171036
 30
0.0
 10
108.8829318304181
 20
-155.8168456641707
 30
0.0
 10
108.749606635139
 20
-155.8168456641707
 30
0.0
  0
SPLINE
  5
129
330
123
100
AcDbEntity
  8
レイヤー 1
100
AcDbSpline
210
0.0
220
0.0
230
1.0
 70
     9
 71
     3
 72
    29
 73
    25
 74
     0
 42
0.0000000001
 43
0.0000000001
 40
0.0
 40
0.0
 40
0.0
 40
0.0
 40
1.0
 40
1.0
 40
1.0
 40
2.0
 40
2.0
 40
2.0
 40
3.0
 40
3.0
 40
3.0
 40
4.0
 40
4.0
 40
4.0
 40
5.0
 40
5.0
 40
5.0
 40
6.0
 40
6.0
 40
6.0
 40
7.0
 40
7.0
 40
7.0
 40
8.0
 40
8.0
 40
8.0
 40
8.0
 10
108.749606635139
 20
-156.6078395875841
 30
0.0
 10
108.4829562445806
 20
-156.6078395875841
 30
0.0
 10
108.2290527073177
 20
-156.4703802777227
 30
0.0
 10
108.2290527073177
 20
-156.1213921050669
 30
0.0
 10
108.2290527073177
 20
-155.8654215105128
 30
0.0
 10
108.37099064131
 20
-155.7703368751199
 30
0.0
 10
108.4767550727072
 20
-155.7090141754825
 30
0.0
 10
108.3520426161411
 20
-155.6497585331362
 30
0.0
 10
108.2759060059171
 20
-155.5353813630259
 30
0.0
 10
108.2759060059171
 20
-155.3744954038647
 30
0.0
 10
108.2759060059171
 20
-155.0995767841418
 30
0.0
 10
108.474688015416
 20
-154.9641845315714
 30
0.0
 10
108.749606635139
 20
-154.9641845315714
 30
0.0
 10
109.033137993575
 20
-154.9641845315714
 30
0.0
 10
109.2236517739094
 20
-155.1081895228549
 30
0.0
 10
109.2236517739094
 20
-155.3744954038647
 30
0.0
 10
109.2236517739094
 20
-155.5353813630259
 30
0.0
 10
109.1451035968457
 20
-155.6497585331362
 30
0.0
 10
109.0203911402796
 20
-155.7090141754825
 30
0.0
 10
109.1092746037991
 20
-155.7596570791156
 30
0.0
 10
109.2680935056691
 20
-155.8547417145085
 30
0.0
 10
109.2680935056691
 20
-156.1172579904845
 30
0.0
 10
109.2680935056691
 20
-156.4917398697312
 30
0.0
 10
108.9886962618153
 20
-156.6078395875841
 30
0.0
 10
108.749606635139
 20
-156.6078395875841
 30
0.0
  0
HATCH
  5
12A
330
123
100
AcDbEntity
  8
レイヤー 1
 62
    18
420
        0
440
 33554687
100
AcDbHatch
 10
0.0
 20
0.0
 30
0.0
210
0.0
220
0.0
230
1.0
  2
SOLID
 70
     1
 71
     1
 91
        3
 92
        1
 93
        1
 72
     4
 94
        3
 73
     0
 74
     0
 95
       17
 96
       13
 40
0.0
 40
0.0
 40
0.0
 40
0.0
 40
1.0
 40
1.0
 40
1.0
 40
2.0
 40
2.0
 40
2.0
 40
3.0
 40
3.0
 40
3.0
 40
4.0
 40
4.0
 40
4.0
 40
4.0
 10
108.749606635139
 20
-155.1567653691969
 10
108.5845865613955
 20
-155.1567653691969
 10
108.4998372124583
 20
-155.2518500045898
 10
108.4998372124583
 20
-155.3872422571601
 10
108.4998372124583
 20
-155.509887656435
 10
108.5718397081001
 20
-155.6283989411276
 10
108.749606635139
 20
-155.6283989411276
 10
108.9273735621778
 20
-155.6283989411276
 10
108.9993760578196
 20
-155.509887656435
 10
108.9993760578196
 20
-155.3872422571601
 10
108.9993760578196
 20
-155.2518500045898
 10
108.9125596515913
 20
-155.1567653691969
 10
108.749606635139
 20
-155.1567653691969
 97
        0
 97
        1
330
127
 92
        1
 93
        1
 72
     4
 94
        3
 73
     0
 74
     0
 95
       17
 96
       13
 40
0.0
 40
0.0
 40
0.0
 40
0.0
 40
1.0
 40
1.0
 40
1.0
 40
2.0
 40
2.0
 40
2.0
 40
3.0
 40
3.0
 40
3.0
 40
4.0
 40
4.0
 40
4.0
 40
4.0
 10
108.749606635139
 20
-155.8168456641707
 10
108.6059461534041
 20
-155.8168456641707
 10
108.4533284234075
 20
-155.9036620703991
 10
108.4533284234075
 20
-156.1065781944803
 10
108.4533284234075
 20
-156.3119058854011
 10
108.5804524468132
 20
-156.4131916926675
 10
108.749606635139
 20
-156.4131916926675
 10
108.9356417913424
 20
-156.4131916926675
 10
109.0458848468704
 20
-156.2905462933926
 10
109.0458848468704
 20
-156.1127793663537
 10
109.0458848468704
 20
-155.8909152171036
 10
108.8829318304181
 20
-155.8168456641707
 10
108.749606635139
 20
-155.8168456641707
 97
        0
 97
        1
330
128
 92
        1
 93
        1
 72
     4
 94
        3
 73
     0
 74
     0
 95
       29
 96
       25
 40
0.0
 40
0.0
 40
0.0
 40
0.0
 40
1.0
 40
1.0
 40
1.0
 40
2.0
 40
2.0
 40
2.0
 40
3.0
 40
3.0
 40
3.0
 40
4.0
 40
4.0
 40
4.0
 40
5.0
 40
5.0
 40
5.0
 40
6.0
 40
6.0
 40
6.0
 40
7.0
 40
7.0
 40
7.0
 40
8.0
 40
8.0
 40
8.0
 40
8.0
 10
108.749606635139
 20
-156.6078395875841
 10
108.4829562445806
 20
-156.6078395875841
 10
108.2290527073177
 20
-156.4703802777227
 10
108.2290527073177
 20
-156.1213921050669
 10
108.2290527073177
 20
-155.8654215105128
 10
108.37099064131
 20
-155.7703368751199
 10
108.4767550727072
 20
-155.7090141754825
 10
108.3520426161411
 20
-155.6497585331362
 10
108.2759060059171
 20
-155.5353813630259
 10
108.2759060059171
 20
-155.3744954038647
 10
108.2759060059171
 20
-155.0995767841418
 10
108.474688015416
 20
-154.9641845315714
 10
108.749606635139
 20
-154.9641845315714
 10
109.033137993575
 20
-154.9641845315714
 10
109.2236517739094
 20
-155.1081895228549
 10
109.2236517739094
 20
-155.3744954038647
 10
109.2236517739094
 20
-155.5353813630259
 10
109.1451035968457
 20
-155.6497585331362
 10
109.0203911402796
 20
-155.7090141754825
 10
109.1092746037991
 20
-155.7596570791156
 10
109.2680935056691
 20
-155.8547417145085
 10
109.2680935056691
 20
-156.1172579904845
 10
109.2680935056691
 20
-156.4917398697312
 10
108.9886962618153
 20
-156.6078395875841
 10
108.749606635139
 20
-156.6078395875841
 97
        0
 97
        1
330
129
 75
     2
 76
     1
 98
        1
 10
0.0
 20
0.0
450
        0
451
        0
460
0.0
461
0.0
452
        0
462
0.0
453
        0
470

  0
ENDBLK
  5
126
330
123
100
AcDbEntity
  8
0
100
AcDbBlockEnd
  0
BLOCK
  5
12E
330
12C
100
AcDbEntity
  8
0
100
AcDbBlockBegin
  2
Block_9
 70
     0
 10
0.0
 20
0.0
 30
0.0
  3
Block_9
  1

  0
SPLINE
  5
130
330
12C
100
AcDbEntity
  8
レイヤー 1
100
AcDbSpline
210
0.0
220
0.0
230
1.0
 70
    11
 71
     3
 72
    26
 73
    22
 74
     0
 42
0.0000000001
 43
0.0000000001
 40
0.0
 40
0.0
 40
0.0
 40
0.0
 40
1.0
 40
1.0
 40
1.0
 40
2.0
 40
2.0
 40
2.0
 40
3.0
 40
3.0
 40
3.0
 40
4.0
 40
4.0
 40
4.0
 40
5.0
 40
5.0
 40
5.0
 40
6.0
 40
6.0
 40
6.0
 40
7.0
 40
7.0
 40
7.0
 40
7.0
 10
114.5215196111265
 20
-149.5343695372692
 30
0.0
 10
114.5215196111265
 20
-149.5343695372692
 30
0.0
 10
114.5215196111265
 20
-148.4302164342466
 30
0.0
 10
114.5215196111265
 20
-148.4302164342466
 30
0.0
 10
114.5215196111265
 20
-148.4302164342466
 30
0.0
 10
114.1914794636396
 20
-148.4302164342466
 30
0.0
 10
114.1914794636396
 20
-148.4302164342466
 30
0.0
 10
114.1914794636396
 20
-148.4302164342466
 30
0.0
 10
114.1914794636396
 20
-148.2820773283808
 30
0.0
 10
114.1914794636396
 20
-148.2820773283808
 30
0.0
 10
114.5235866684177
 20
-148.2674356725685
 30
0.0
 10
114.5700954574686
 20
-148.1044826561162
 30
0.0
 10
114.5997232786417
 20
-147.9902777407802
 30
0.0
 10
114.5997232786417
 20
-147.9902777407802
 30
0.0
 10
114.7457953272163
 20
-147.9902777407802
 30
0.0
 10
114.7457953272163
 20
-147.9902777407802
 30
0.0
 10
114.7457953272163
 20
-147.9902777407802
 30
0.0
 10
114.7457953272163
 20
-149.5343695372692
 30
0.0
 10
114.7457953272163
 20
-149.5343695372692
 30
0.0
 10
114.7457953272163
 20
-149.5343695372692
 30
0.0
 10
114.5215196111265
 20
-149.5343695372692
 30
0.0
 10
114.5215196111265
 20
-149.5343695372692
 30
0.0
  0
HATCH
  5
131
330
12C
100
AcDbEntity
  8
レイヤー 1
 62
    18
420
        0
440
 33554687
100
AcDbHatch
 10
0.0
 20
0.0
 30
0.0
210
0.0
220
0.0
230
1.0
  2
SOLID
 70
     1
 71
     1
 91
        1
 92
        1
 93
        1
 72
     4
 94
        3
 73
     0
 74
     0
 95
       26
 96
       22
 40
0.0
 40
0.0
 40
0.0
 40
0.0
 40
1.0
 40
1.0
 40
1.0
 40
2.0
 40
2.0
 40
2.0
 40
3.0
 40
3.0
 40
3.0
 40
4.0
 40
4.0
 40
4.0
 40
5.0
 40
5.0
 40
5.0
 40
6.0
 40
6.0
 40
6.0
 40
7.0
 40
7.0
 40
7.0
 40
7.0
 10
114.5215196111265
 20
-149.5343695372692
 10
114.5215196111265
 20
-149.5343695372692
 10
114.5215196111265
 20
-148.4302164342466
 10
114.5215196111265
 20
-148.4302164342466
 10
114.5215196111265
 20
-148.4302164342466
 10
114.1914794636396
 20
-148.4302164342466
 10
114.1914794636396
 20
-148.4302164342466
 10
114.1914794636396
 20
-148.4302164342466
 10
114.1914794636396
 20
-148.2820773283808
 10
114.1914794636396
 20
-148.2820773283808
 10
114.5235866684177
 20
-148.2674356725685
 10
114.5700954574686
 20
-148.1044826561162
 10
114.5997232786417
 20
-147.9902777407802
 10
114.5997232786417
 20
-147.9902777407802
 10
114.7457953272163
 20
-147.9902777407802
 10
114.7457953272163
 20
-147.9902777407802
 10
114.7457953272163
 20
-147.9902777407802
 10
114.7457953272163
 20
-149.5343695372692
 10
114.7457953272163
 20
-149.5343695372692
 10
114.7457953272163
 20
-149.5343695372692
 10
114.5215196111265
 20
-149.5343695372692
 10
114.5215196111265
 20
-149.5343695372692
 97
        0
 97
        1
330
130
 75
     2
 76
     1
 98
        1
 10
0.0
 20
0.0
450
        0
451
        0
460
0.0
461
0.0
452
        0
462
0.0
453
        0
470

  0
ENDBLK
  5
12F
330
12C
100
AcDbEntity
  8
0
100
AcDbBlockEnd
  0
BLOCK
  5
134
330
132
100
AcDbEntity
  8
0
100
AcDbBlockBegin
  2
Block_10
 70
     0
 10
0.0
 20
0.0
 30
0.0
  3
Block_10
  1

  0
LWPOLYLINE
  5
136
330
132
100
AcDbEntity
  8
レイヤー 1
 62
   250
420
  2299925
370
     9
100
AcDbPolyline
 90
        4
 70
     1
 43
0.0
 10
113.0450731520583
 20
-152.8877950270038
 10
113.6069775821673
 20
-152.8809158603388
 10
112.716425382665
 20
-152.5653208604178
 10
113.020625652682
 20
-153.4796503046331
  0
HATCH
  5
137
330
132
100
AcDbEntity
  8
レイヤー 1
 62
   250
420
  2299925
440
 33554687
100
AcDbHatch
 10
0.0
 20
0.0
 30
0.0
210
0.0
220
0.0
230
1.0
  2
SOLID
 70
     1
 71
     1
 91
        1
 92
        1
 93
        4
 72
     1
 10
113.0450731520583
 20
-152.8877950270038
 11
113.6069775821673
 21
-152.8809158603388
 72
     1
 10
113.6069775821673
 20
-152.8809158603388
 11
112.716425382665
 21
-152.5653208604178
 72
     1
 10
112.716425382665
 20
-152.5653208604178
 11
113.020625652682
 21
-153.4796503046331
 72
     1
 10
113.020625652682
 20
-153.4796503046331
 11
113.0450731520583
 21
-152.8877950270038
 97
        1
330
136
 75
     2
 76
     1
 98
        1
 10
0.0
 20
0.0
450
        0
451
        0
460
0.0
461
0.0
452
        0
462
0.0
453
        0
470

  0
LINE
  5
138
330
132
100
AcDbEntity
  8
レイヤー 1
 62
   250
420
  2299925
370
     9
100
AcDbLine
 10
113.0450731520583
 20
-152.8877950270038
 30
0.0
 11
115.4494300351625
 21
-155.2773000264065
 31
0.0
  0
ENDBLK
  5
135
330
132
100
AcDbEntity
  8
0
100
AcDbBlockEnd
  0
BLOCK
  5
13B
330
139
100
AcDbEntity
  8
0
100
AcDbBlockBegin
  2
Block_11
 70
     0
 10
0.0
 20
0.0
 30
0.0
  3
Block_11
  1

  0
INSERT
  5
13E
330
139
100
AcDbEntity
  8
レイヤー 1
100
AcDbBlockReference
  2
Block_12
 10
0.0
 20
0.0
 30
0.0
  0
ENDBLK
  5
13C
330
139
100
AcDbEntity
  8
0
100
AcDbBlockEnd
  0
BLOCK
  5
13F
330
13D
100
AcDbEntity
  8
0
100
AcDbBlockBegin
  2
Block_12
 70
     0
 10
0.0
 20
0.0
 30
0.0
  3
Block_12
  1

  0
SPLINE
  5
141
330
13D
100
AcDbEntity
  8
レイヤー 1
100
AcDbSpline
210
0.0
220
0.0
230
1.0
 70
     9
 71
     3
 72
    38
 73
    34
 74
     0
 42
0.0000000001
 43
0.0000000001
 40
0.0
 40
0.0
 40
0.0
 40
0.0
 40
1.0
 40
1.0
 40
1.0
 40
2.0
 40
2.0
 40
2.0
 40
3.0
 40
3.0
 40
3.0
 40
4.0
 40
4.0
 40
4.0
 40
5.0
 40
5.0
 40
5.0
 40
6.0
 40
6.0
 40
6.0
 40
7.0
 40
7.0
 40
7.0
 40
8.0
 40
8.0
 40
8.0
 40
9.0
 40
9.0
 40
9.0
 40
10.0
 40
10.0
 40
10.0
 40
11.0
 40
11.0
 40
11.0
 40
11.0
 10
115.9812065682269
 20
-156.3587591840006
 30
0.0
 10
116.0742241463287
 20
-156.2361137847257
 30
0.0
 10
116.1992811124432
 20
-156.0562798003956
 30
0.0
 10
116.2943657478361
 20
-155.6077283682161
 30
0.0
 10
116.2943657478361
 20
-155.6077283682161
 30
0.0
 10
116.4614528788707
 20
-155.6270209029335
 30
0.0
 10
116.4614528788707
 20
-155.6270209029335
 30
0.0
 10
116.4359591722799
 20
-155.7475992449172
 30
0.0
 10
116.4128770325287
 20
-155.8385497657278
 30
0.0
 10
116.3746364726424
 20
-155.9463812544162
 30
0.0
 10
116.3746364726424
 20
-155.9463812544162
 30
0.0
 10
117.003021889152
 20
-155.9463812544162
 30
0.0
 10
117.003021889152
 20
-155.9463812544162
 30
0.0
 10
117.003021889152
 20
-155.9463812544162
 30
0.0
 10
117.003021889152
 20
-156.0986544748642
 30
0.0
 10
117.003021889152
 20
-156.0986544748642
 30
0.0
 10
116.9692599533965
 20
-156.2405924088565
 30
0.0
 10
116.8738308084551
 20
-156.4986300607017
 30
0.0
 10
116.7997612555223
 20
-156.6171413453943
 30
0.0
 10
116.7997612555223
 20
-156.6171413453943
 30
0.0
 10
116.6474880350742
 20
-156.5385931683306
 30
0.0
 10
116.6474880350742
 20
-156.5385931683306
 30
0.0
 10
116.7429171800156
 20
-156.4032009157603
 30
0.0
 10
116.8083739942354
 20
-156.2150987022656
 30
0.0
 10
116.8359347581174
 20
-156.1048556467377
 30
0.0
 10
116.8359347581174
 20
-156.1048556467377
 30
0.0
 10
116.3174478875873
 20
-156.1048556467377
 30
0.0
 10
116.3174478875873
 20
-156.1048556467377
 30
0.0
 10
116.2182291376121
 20
-156.3463568402537
 30
0.0
 10
116.1441595846792
 20
-156.4348957942246
 30
0.0
 10
116.1059190247929
 20
-156.4793375259843
 30
0.0
 10
116.1059190247929
 20
-156.4793375259843
 30
0.0
 10
115.9812065682269
 20
-156.3587591840006
 30
0.0
 10
115.9812065682269
 20
-156.3587591840006
 30
0.0
  0
SPLINE
  5
142
330
13D
100
AcDbEntity
  8
レイヤー 1
100
AcDbSpline
210
0.0
220
0.0
230
1.0
 70
     9
 71
     3
 72
    38
 73
    34
 74
     0
 42
0.0000000001
 43
0.0000000001
 40
0.0
 40
0.0
 40
0.0
 40
0.0
 40
1.0
 40
1.0
 40
1.0
 40
2.0
 40
2.0
 40
2.0
 40
3.0
 40
3.0
 40
3.0
 40
4.0
 40
4.0
 40
4.0
 40
5.0
 40
5.0
 40
5.0
 40
6.0
 40
6.0
 40
6.0
 40
7.0
 40
7.0
 40
7.0
 40
8.0
 40
8.0
 40
8.0
 40
9.0
 40
9.0
 40
9.0
 40
10.0
 40
10.0
 40
10.0
 40
11.0
 40
11.0
 40
11.0
 40
11.0
 10
115.8668293981166
 20
-157.4315619181074
 30
0.0
 10
115.9495116897626
 20
-157.3785074476345
 30
0.0
 10
116.1145317635061
 20
-157.2706759589462
 30
0.0
 10
116.2202961949033
 20
-157.0632812107342
 30
0.0
 10
116.368435300769
 20
-156.7714816231335
 30
0.0
 10
116.368435300769
 20
-156.5451388497526
 30
0.0
 10
116.368435300769
 20
-156.4603895008154
 30
0.0
 10
116.368435300769
 20
-156.4603895008154
 30
0.0
 10
116.368435300769
 20
-156.2257784982699
 30
0.0
 10
116.368435300769
 20
-156.2257784982699
 30
0.0
 10
116.368435300769
 20
-156.2257784982699
 30
0.0
 10
116.5334553745124
 20
-156.2257784982699
 30
0.0
 10
116.5334553745124
 20
-156.2257784982699
 30
0.0
 10
116.5334553745124
 20
-156.2257784982699
 30
0.0
 10
116.5334553745124
 20
-156.4521212716508
 30
0.0
 10
116.5334553745124
 20
-156.4521212716508
 30
0.0
 10
116.5334553745124
 20
-156.6509032811498
 30
0.0
 10
116.5989121887322
 20
-156.8879258505349
 30
0.0
 10
116.7005425055471
 20
-157.061214153443
 30
0.0
 10
116.8169867329485
 20
-157.2599961629419
 30
0.0
 10
116.9458333040969
 20
-157.3595594224657
 30
0.0
 10
117.030582653034
 20
-157.4208821221031
 30
0.0
 10
117.030582653034
 20
-157.4208821221031
 30
0.0
 10
116.9227511643457
 20
-157.57108828526
 30
0.0
 10
116.9227511643457
 20
-157.57108828526
 30
0.0
 10
116.7449842373068
 20
-157.4418972045631
 30
0.0
 10
116.5462022278079
 20
-157.2028075778868
 30
0.0
 10
116.4676540507442
 20
-156.8496852906487
 30
0.0
 10
116.4021972365244
 20
-157.088774917325
 30
0.0
 10
116.3005669197096
 20
-157.3574923651745
 30
0.0
 10
115.9918863642312
 20
-157.5669541706777
 30
0.0
 10
115.9918863642312
 20
-157.5669541706777
 30
0.0
 10
115.8668293981166
 20
-157.4315619181074
 30
0.0
 10
115.8668293981166
 20
-157.4315619181074
 30
0.0
  0
SPLINE
  5
143
330
13D
100
AcDbEntity
  8
レイヤー 1
100
AcDbSpline
210
0.0
220
0.0
230
1.0
 70
    11
 71
     3
 72
    17
 73
    13
 74
     0
 42
0.0000000001
 43
0.0000000001
 40
0.0
 40
0.0
 40
0.0
 40
0.0
 40
1.0
 40
1.0
 40
1.0
 40
2.0
 40
2.0
 40
2.0
 40
3.0
 40
3.0
 40
3.0
 40
4.0
 40
4.0
 40
4.0
 40
4.0
 10
115.8247992331966
 20
-156.5430717924614
 30
0.0
 10
115.8247992331966
 20
-156.5430717924614
 30
0.0
 10
115.6132703704022
 20
-156.5430717924614
 30
0.0
 10
115.6132703704022
 20
-156.5430717924614
 30
0.0
 10
115.6132703704022
 20
-156.5430717924614
 30
0.0
 10
115.6132703704022
 20
-156.750122031125
 30
0.0
 10
115.6132703704022
 20
-156.750122031125
 30
0.0
 10
115.6132703704022
 20
-156.750122031125
 30
0.0
 10
115.8247992331966
 20
-156.750122031125
 30
0.0
 10
115.8247992331966
 20
-156.750122031125
 30
0.0
 10
115.8247992331966
 20
-156.750122031125
 30
0.0
 10
115.8247992331966
 20
-156.5430717924614
 30
0.0
 10
115.8247992331966
 20
-156.5430717924614
 30
0.0
  0
SPLINE
  5
144
330
13D
100
AcDbEntity
  8
レイヤー 1
100
AcDbSpline
210
0.0
220
0.0
230
1.0
 70
    11
 71
     3
 72
    17
 73
    13
 74
     0
 42
0.0000000001
 43
0.0000000001
 40
0.0
 40
0.0
 40
0.0
 40
0.0
 40
1.0
 40
1.0
 40
1.0
 40
2.0
 40
2.0
 40
2.0
 40
3.0
 40
3.0
 40
3.0
 40
4.0
 40
4.0
 40
4.0
 40
4.0
 10
115.8247992331966
 20
-156.2171657595568
 30
0.0
 10
115.8247992331966
 20
-156.2171657595568
 30
0.0
 10
115.6132703704022
 20
-156.2171657595568
 30
0.0
 10
115.6132703704022
 20
-156.2171657595568
 30
0.0
 10
115.6132703704022
 20
-156.2171657595568
 30
0.0
 10
115.6132703704022
 20
-156.420081883638
 30
0.0
 10
115.6132703704022
 20
-156.420081883638
 30
0.0
 10
115.6132703704022
 20
-156.420081883638
 30
0.0
 10
115.8247992331966
 20
-156.420081883638
 30
0.0
 10
115.8247992331966
 20
-156.420081883638
 30
0.0
 10
115.8247992331966
 20
-156.420081883638
 30
0.0
 10
115.8247992331966
 20
-156.2171657595568
 30
0.0
 10
115.8247992331966
 20
-156.2171657595568
 30
0.0
  0
SPLINE
  5
145
330
13D
100
AcDbEntity
  8
レイヤー 1
100
AcDbSpline
210
0.0
220
0.0
230
1.0
 70
    11
 71
     3
 72
    17
 73
    13
 74
     0
 42
0.0000000001
 43
0.0000000001
 40
0.0
 40
0.0
 40
0.0
 40
0.0
 40
1.0
 40
1.0
 40
1.0
 40
2.0
 40
2.0
 40
2.0
 40
3.0
 40
3.0
 40
3.0
 40
4.0
 40
4.0
 40
4.0
 40
4.0
 10
115.4585855831145
 20
-156.5430717924614
 30
0.0
 10
115.4585855831145
 20
-156.5430717924614
 30
0.0
 10
115.251535344451
 20
-156.5430717924614
 30
0.0
 10
115.251535344451
 20
-156.5430717924614
 30
0.0
 10
115.251535344451
 20
-156.5430717924614
 30
0.0
 10
115.251535344451
 20
-156.750122031125
 30
0.0
 10
115.251535344451
 20
-156.750122031125
 30
0.0
 10
115.251535344451
 20
-156.750122031125
 30
0.0
 10
115.4585855831145
 20
-156.750122031125
 30
0.0
 10
115.4585855831145
 20
-156.750122031125
 30
0.0
 10
115.4585855831145
 20
-156.750122031125
 30
0.0
 10
115.4585855831145
 20
-156.5430717924614
 30
0.0
 10
115.4585855831145
 20
-156.5430717924614
 30
0.0
  0
SPLINE
  5
146
330
13D
100
AcDbEntity
  8
レイヤー 1
100
AcDbSpline
210
0.0
220
0.0
230
1.0
 70
    11
 71
     3
 72
    17
 73
    13
 74
     0
 42
0.0000000001
 43
0.0000000001
 40
0.0
 40
0.0
 40
0.0
 40
0.0
 40
1.0
 40
1.0
 40
1.0
 40
2.0
 40
2.0
 40
2.0
 40
3.0
 40
3.0
 40
3.0
 40
4.0
 40
4.0
 40
4.0
 40
4.0
 10
115.4585855831145
 20
-156.2171657595568
 30
0.0
 10
115.4585855831145
 20
-156.2171657595568
 30
0.0
 10
115.251535344451
 20
-156.2171657595568
 30
0.0
 10
115.251535344451
 20
-156.2171657595568
 30
0.0
 10
115.251535344451
 20
-156.2171657595568
 30
0.0
 10
115.251535344451
 20
-156.420081883638
 30
0.0
 10
115.251535344451
 20
-156.420081883638
 30
0.0
 10
115.251535344451
 20
-156.420081883638
 30
0.0
 10
115.4585855831145
 20
-156.420081883638
 30
0.0
 10
115.4585855831145
 20
-156.420081883638
 30
0.0
 10
115.4585855831145
 20
-156.420081883638
 30
0.0
 10
115.4585855831145
 20
-156.2171657595568
 30
0.0
 10
115.4585855831145
 20
-156.2171657595568
 30
0.0
  0
SPLINE
  5
147
330
13D
100
AcDbEntity
  8
レイヤー 1
100
AcDbSpline
210
0.0
220
0.0
230
1.0
 70
    11
 71
     3
 72
    89
 73
    85
 74
     0
 42
0.0000000001
 43
0.0000000001
 40
0.0
 40
0.0
 40
0.0
 40
0.0
 40
1.0
 40
1.0
 40
1.0
 40
2.0
 40
2.0
 40
2.0
 40
3.0
 40
3.0
 40
3.0
 40
4.0
 40
4.0
 40
4.0
 40
5.0
 40
5.0
 40
5.0
 40
6.0
 40
6.0
 40
6.0
 40
7.0
 40
7.0
 40
7.0
 40
8.0
 40
8.0
 40
8.0
 40
9.0
 40
9.0
 40
9.0
 40
10.0
 40
10.0
 40
10.0
 40
11.0
 40
11.0
 40
11.0
 40
12.0
 40
12.0
 40
12.0
 40
13.0
 40
13.0
 40
13.0
 40
14.0
 40
14.0
 40
14.0
 40
15.0
 40
15.0
 40
15.0
 40
16.0
 40
16.0
 40
16.0
 40
17.0
 40
17.0
 40
17.0
 40
18.0
 40
18.0
 40
18.0
 40
19.0
 40
19.0
 40
19.0
 40
20.0
 40
20.0
 40
20.0
 40
21.0
 40
21.0
 40
21.0
 40
22.0
 40
22.0
 40
22.0
 40
23.0
 40
23.0
 40
23.0
 40
24.0
 40
24.0
 40
24.0
 40
25.0
 40
25.0
 40
25.0
 40
26.0
 40
26.0
 40
26.0
 40
27.0
 40
27.0
 40
27.0
 40
28.0
 40
28.0
 40
28.0
 40
28.0
 10
115.4585855831145
 20
-155.7686143273773
 30
0.0
 10
115.4585855831145
 20
-155.7686143273773
 30
0.0
 10
115.4585855831145
 20
-155.6077283682161
 30
0.0
 10
115.4585855831145
 20
-155.6077283682161
 30
0.0
 10
115.4585855831145
 20
-155.6077283682161
 30
0.0
 10
115.6132703704022
 20
-155.6077283682161
 30
0.0
 10
115.6132703704022
 20
-155.6077283682161
 30
0.0
 10
115.6132703704022
 20
-155.6077283682161
 30
0.0
 10
115.6132703704022
 20
-155.7686143273773
 30
0.0
 10
115.6132703704022
 20
-155.7686143273773
 30
0.0
 10
115.6132703704022
 20
-155.7686143273773
 30
0.0
 10
116.0067002748178
 20
-155.7686143273773
 30
0.0
 10
116.0067002748178
 20
-155.7686143273773
 30
0.0
 10
116.0067002748178
 20
-155.7686143273773
 30
0.0
 10
116.0067002748178
 20
-155.9229546051165
 30
0.0
 10
116.0067002748178
 20
-155.9229546051165
 30
0.0
 10
116.0067002748178
 20
-155.9229546051165
 30
0.0
 10
115.6132703704022
 20
-155.9229546051165
 30
0.0
 10
115.6132703704022
 20
-155.9229546051165
 30
0.0
 10
115.6132703704022
 20
-155.9229546051165
 30
0.0
 10
115.6132703704022
 20
-156.0776393924042
 30
0.0
 10
115.6132703704022
 20
-156.0776393924042
 30
0.0
 10
115.6132703704022
 20
-156.0776393924042
 30
0.0
 10
115.9684597149315
 20
-156.0776393924042
 30
0.0
 10
115.9684597149315
 20
-156.0776393924042
 30
0.0
 10
115.9684597149315
 20
-156.0776393924042
 30
0.0
 10
115.9684597149315
 20
-156.8899929078261
 30
0.0
 10
115.9684597149315
 20
-156.8899929078261
 30
0.0
 10
115.9684597149315
 20
-156.8899929078261
 30
0.0
 10
115.6132703704022
 20
-156.8899929078261
 30
0.0
 10
115.6132703704022
 20
-156.8899929078261
 30
0.0
 10
115.6132703704022
 20
-156.8899929078261
 30
0.0
 10
115.6132703704022
 20
-157.0591470961519
 30
0.0
 10
115.6132703704022
 20
-157.0591470961519
 30
0.0
 10
115.6132703704022
 20
-157.0591470961519
 30
0.0
 10
116.0215141854043
 20
-157.0591470961519
 30
0.0
 10
116.0215141854043
 20
-157.0591470961519
 30
0.0
 10
116.0215141854043
 20
-157.0591470961519
 30
0.0
 10
116.0215141854043
 20
-157.213487373891
 30
0.0
 10
116.0215141854043
 20
-157.213487373891
 30
0.0
 10
116.0215141854043
 20
-157.213487373891
 30
0.0
 10
115.6132703704022
 20
-157.213487373891
 30
0.0
 10
115.6132703704022
 20
-157.213487373891
 30
0.0
 10
115.6132703704022
 20
-157.213487373891
 30
0.0
 10
115.6132703704022
 20
-157.5669541706777
 30
0.0
 10
115.6132703704022
 20
-157.5669541706777
 30
0.0
 10
115.6132703704022
 20
-157.5669541706777
 30
0.0
 10
115.4585855831145
 20
-157.5669541706777
 30
0.0
 10
115.4585855831145
 20
-157.5669541706777
 30
0.0
 10
115.4585855831145
 20
-157.5669541706777
 30
0.0
 10
115.4585855831145
 20
-157.213487373891
 30
0.0
 10
115.4585855831145
 20
-157.213487373891
 30
0.0
 10
115.4585855831145
 20
-157.213487373891
 30
0.0
 10
115.0482747108213
 20
-157.213487373891
 30
0.0
 10
115.0482747108213
 20
-157.213487373891
 30
0.0
 10
115.0482747108213
 20
-157.213487373891
 30
0.0
 10
115.0482747108213
 20
-157.0591470961519
 30
0.0
 10
115.0482747108213
 20
-157.0591470961519
 30
0.0
 10
115.0482747108213
 20
-157.0591470961519
 30
0.0
 10
115.4585855831145
 20
-157.0591470961519
 30
0.0
 10
115.4585855831145
 20
-157.0591470961519
 30
0.0
 10
115.4585855831145
 20
-157.0591470961519
 30
0.0
 10
115.4585855831145
 20
-156.8899929078261
 30
0.0
 10
115.4585855831145
 20
-156.8899929078261
 30
0.0
 10
115.4585855831145
 20
-156.8899929078261
 30
0.0
 10
115.1095974104587
 20
-156.8899929078261
 30
0.0
 10
115.1095974104587
 20
-156.8899929078261
 30
0.0
 10
115.1095974104587
 20
-156.8899929078261
 30
0.0
 10
115.1095974104587
 20
-156.0776393924042
 30
0.0
 10
115.1095974104587
 20
-156.0776393924042
 30
0.0
 10
115.1095974104587
 20
-156.0776393924042
 30
0.0
 10
115.4585855831145
 20
-156.0776393924042
 30
0.0
 10
115.4585855831145
 20
-156.0776393924042
 30
0.0
 10
115.4585855831145
 20
-156.0776393924042
 30
0.0
 10
115.4585855831145
 20
-155.9229546051165
 30
0.0
 10
115.4585855831145
 20
-155.9229546051165
 30
0.0
 10
115.4585855831145
 20
-155.9229546051165
 30
0.0
 10
115.0692897932813
 20
-155.9229546051165
 30
0.0
 10
115.0692897932813
 20
-155.9229546051165
 30
0.0
 10
115.0692897932813
 20
-155.9229546051165
 30
0.0
 10
115.0692897932813
 20
-155.7686143273773
 30
0.0
 10
115.0692897932813
 20
-155.7686143273773
 30
0.0
 10
115.0692897932813
 20
-155.7686143273773
 30
0.0
 10
115.4585855831145
 20
-155.7686143273773
 30
0.0
 10
115.4585855831145
 20
-155.7686143273773
 30
0.0
  0
HATCH
  5
148
330
13D
100
AcDbEntity
  8
レイヤー 1
 62
    12
420
 15007762
440
 33554687
100
AcDbHatch
 10
0.0
 20
0.0
 30
0.0
210
0.0
220
0.0
230
1.0
  2
SOLID
 70
     1
 71
     1
 91
        7
 92
        1
 93
        1
 72
     4
 94
        3
 73
     0
 74
     0
 95
       38
 96
       34
 40
0.0
 40
0.0
 40
0.0
 40
0.0
 40
1.0
 40
1.0
 40
1.0
 40
2.0
 40
2.0
 40
2.0
 40
3.0
 40
3.0
 40
3.0
 40
4.0
 40
4.0
 40
4.0
 40
5.0
 40
5.0
 40
5.0
 40
6.0
 40
6.0
 40
6.0
 40
7.0
 40
7.0
 40
7.0
 40
8.0
 40
8.0
 40
8.0
 40
9.0
 40
9.0
 40
9.0
 40
10.0
 40
10.0
 40
10.0
 40
11.0
 40
11.0
 40
11.0
 40
11.0
 10
115.9812065682269
 20
-156.3587591840006
 10
116.0742241463287
 20
-156.2361137847257
 10
116.1992811124432
 20
-156.0562798003956
 10
116.2943657478361
 20
-155.6077283682161
 10
116.2943657478361
 20
-155.6077283682161
 10
116.4614528788707
 20
-155.6270209029335
 10
116.4614528788707
 20
-155.6270209029335
 10
116.4359591722799
 20
-155.7475992449172
 10
116.4128770325287
 20
-155.8385497657278
 10
116.3746364726424
 20
-155.9463812544162
 10
116.3746364726424
 20
-155.9463812544162
 10
117.003021889152
 20
-155.9463812544162
 10
117.003021889152
 20
-155.9463812544162
 10
117.003021889152
 20
-155.9463812544162
 10
117.003021889152
 20
-156.0986544748642
 10
117.003021889152
 20
-156.0986544748642
 10
116.9692599533965
 20
-156.2405924088565
 10
116.8738308084551
 20
-156.4986300607017
 10
116.7997612555223
 20
-156.6171413453943
 10
116.7997612555223
 20
-156.6171413453943
 10
116.6474880350742
 20
-156.5385931683306
 10
116.6474880350742
 20
-156.5385931683306
 10
116.7429171800156
 20
-156.4032009157603
 10
116.8083739942354
 20
-156.2150987022656
 10
116.8359347581174
 20
-156.1048556467377
 10
116.8359347581174
 20
-156.1048556467377
 10
116.3174478875873
 20
-156.1048556467377
 10
116.3174478875873
 20
-156.1048556467377
 10
116.2182291376121
 20
-156.3463568402537
 10
116.1441595846792
 20
-156.4348957942246
 10
116.1059190247929
 20
-156.4793375259843
 10
116.1059190247929
 20
-156.4793375259843
 10
115.9812065682269
 20
-156.3587591840006
 10
115.9812065682269
 20
-156.3587591840006
 97
        0
 97
        1
330
141
 92
        1
 93
        1
 72
     4
 94
        3
 73
     0
 74
     0
 95
       38
 96
       34
 40
0.0
 40
0.0
 40
0.0
 40
0.0
 40
1.0
 40
1.0
 40
1.0
 40
2.0
 40
2.0
 40
2.0
 40
3.0
 40
3.0
 40
3.0
 40
4.0
 40
4.0
 40
4.0
 40
5.0
 40
5.0
 40
5.0
 40
6.0
 40
6.0
 40
6.0
 40
7.0
 40
7.0
 40
7.0
 40
8.0
 40
8.0
 40
8.0
 40
9.0
 40
9.0
 40
9.0
 40
10.0
 40
10.0
 40
10.0
 40
11.0
 40
11.0
 40
11.0
 40
11.0
 10
115.8668293981166
 20
-157.4315619181074
 10
115.9495116897626
 20
-157.3785074476345
 10
116.1145317635061
 20
-157.2706759589462
 10
116.2202961949033
 20
-157.0632812107342
 10
116.368435300769
 20
-156.7714816231335
 10
116.368435300769
 20
-156.5451388497526
 10
116.368435300769
 20
-156.4603895008154
 10
116.368435300769
 20
-156.4603895008154
 10
116.368435300769
 20
-156.2257784982699
 10
116.368435300769
 20
-156.2257784982699
 10
116.368435300769
 20
-156.2257784982699
 10
116.5334553745124
 20
-156.2257784982699
 10
116.5334553745124
 20
-156.2257784982699
 10
116.5334553745124
 20
-156.2257784982699
 10
116.5334553745124
 20
-156.4521212716508
 10
116.5334553745124
 20
-156.4521212716508
 10
116.5334553745124
 20
-156.6509032811498
 10
116.5989121887322
 20
-156.8879258505349
 10
116.7005425055471
 20
-157.061214153443
 10
116.8169867329485
 20
-157.2599961629419
 10
116.9458333040969
 20
-157.3595594224657
 10
117.030582653034
 20
-157.4208821221031
 10
117.030582653034
 20
-157.4208821221031
 10
116.9227511643457
 20
-157.57108828526
 10
116.9227511643457
 20
-157.57108828526
 10
116.7449842373068
 20
-157.4418972045631
 10
116.5462022278079
 20
-157.2028075778868
 10
116.4676540507442
 20
-156.8496852906487
 10
116.4021972365244
 20
-157.088774917325
 10
116.3005669197096
 20
-157.3574923651745
 10
115.9918863642312
 20
-157.5669541706777
 10
115.9918863642312
 20
-157.5669541706777
 10
115.8668293981166
 20
-157.4315619181074
 10
115.8668293981166
 20
-157.4315619181074
 97
        0
 97
        1
330
142
 92
        1
 93
        1
 72
     4
 94
        3
 73
     0
 74
     0
 95
       17
 96
       13
 40
0.0
 40
0.0
 40
0.0
 40
0.0
 40
1.0
 40
1.0
 40
1.0
 40
2.0
 40
2.0
 40
2.0
 40
3.0
 40
3.0
 40
3.0
 40
4.0
 40
4.0
 40
4.0
 40
4.0
 10
115.8247992331966
 20
-156.5430717924614
 10
115.8247992331966
 20
-156.5430717924614
 10
115.6132703704022
 20
-156.5430717924614
 10
115.6132703704022
 20
-156.5430717924614
 10
115.6132703704022
 20
-156.5430717924614
 10
115.6132703704022
 20
-156.750122031125
 10
115.6132703704022
 20
-156.750122031125
 10
115.6132703704022
 20
-156.750122031125
 10
115.8247992331966
 20
-156.750122031125
 10
115.8247992331966
 20
-156.750122031125
 10
115.8247992331966
 20
-156.750122031125
 10
115.8247992331966
 20
-156.5430717924614
 10
115.8247992331966
 20
-156.5430717924614
 97
        0
 97
        1
330
143
 92
        1
 93
        1
 72
     4
 94
        3
 73
     0
 74
     0
 95
       17
 96
       13
 40
0.0
 40
0.0
 40
0.0
 40
0.0
 40
1.0
 40
1.0
 40
1.0
 40
2.0
 40
2.0
 40
2.0
 40
3.0
 40
3.0
 40
3.0
 40
4.0
 40
4.0
 40
4.0
 40
4.0
 10
115.8247992331966
 20
-156.2171657595568
 10
115.8247992331966
 20
-156.2171657595568
 10
115.6132703704022
 20
-156.2171657595568
 10
115.6132703704022
 20
-156.2171657595568
 10
115.6132703704022
 20
-156.2171657595568
 10
115.6132703704022
 20
-156.420081883638
 10
115.6132703704022
 20
-156.420081883638
 10
115.6132703704022
 20
-156.420081883638
 10
115.8247992331966
 20
-156.420081883638
 10
115.8247992331966
 20
-156.420081883638
 10
115.8247992331966
 20
-156.420081883638
 10
115.8247992331966
 20
-156.2171657595568
 10
115.8247992331966
 20
-156.2171657595568
 97
        0
 97
        1
330
144
 92
        1
 93
        1
 72
     4
 94
        3
 73
     0
 74
     0
 95
       17
 96
       13
 40
0.0
 40
0.0
 40
0.0
 40
0.0
 40
1.0
 40
1.0
 40
1.0
 40
2.0
 40
2.0
 40
2.0
 40
3.0
 40
3.0
 40
3.0
 40
4.0
 40
4.0
 40
4.0
 40
4.0
 10
115.4585855831145
 20
-156.5430717924614
 10
115.4585855831145
 20
-156.5430717924614
 10
115.251535344451
 20
-156.5430717924614
 10
115.251535344451
 20
-156.5430717924614
 10
115.251535344451
 20
-156.5430717924614
 10
115.251535344451
 20
-156.750122031125
 10
115.251535344451
 20
-156.750122031125
 10
115.251535344451
 20
-156.750122031125
 10
115.4585855831145
 20
-156.750122031125
 10
115.4585855831145
 20
-156.750122031125
 10
115.4585855831145
 20
-156.750122031125
 10
115.4585855831145
 20
-156.5430717924614
 10
115.4585855831145
 20
-156.5430717924614
 97
        0
 97
        1
330
145
 92
        1
 93
        1
 72
     4
 94
        3
 73
     0
 74
     0
 95
       17
 96
       13
 40
0.0
 40
0.0
 40
0.0
 40
0.0
 40
1.0
 40
1.0
 40
1.0
 40
2.0
 40
2.0
 40
2.0
 40
3.0
 40
3.0
 40
3.0
 40
4.0
 40
4.0
 40
4.0
 40
4.0
 10
115.4585855831145
 20
-156.2171657595568
 10
115.4585855831145
 20
-156.2171657595568
 10
115.251535344451
 20
-156.2171657595568
 10
115.251535344451
 20
-156.2171657595568
 10
115.251535344451
 20
-156.2171657595568
 10
115.251535344451
 20
-156.420081883638
 10
115.251535344451
 20
-156.420081883638
 10
115.251535344451
 20
-156.420081883638
 10
115.4585855831145
 20
-156.420081883638
 10
115.4585855831145
 20
-156.420081883638
 10
115.4585855831145
 20
-156.420081883638
 10
115.4585855831145
 20
-156.2171657595568
 10
115.4585855831145
 20
-156.2171657595568
 97
        0
 97
        1
330
146
 92
        1
 93
        1
 72
     4
 94
        3
 73
     0
 74
     0
 95
       89
 96
       85
 40
0.0
 40
0.0
 40
0.0
 40
0.0
 40
1.0
 40
1.0
 40
1.0
 40
2.0
 40
2.0
 40
2.0
 40
3.0
 40
3.0
 40
3.0
 40
4.0
 40
4.0
 40
4.0
 40
5.0
 40
5.0
 40
5.0
 40
6.0
 40
6.0
 40
6.0
 40
7.0
 40
7.0
 40
7.0
 40
8.0
 40
8.0
 40
8.0
 40
9.0
 40
9.0
 40
9.0
 40
10.0
 40
10.0
 40
10.0
 40
11.0
 40
11.0
 40
11.0
 40
12.0
 40
12.0
 40
12.0
 40
13.0
 40
13.0
 40
13.0
 40
14.0
 40
14.0
 40
14.0
 40
15.0
 40
15.0
 40
15.0
 40
16.0
 40
16.0
 40
16.0
 40
17.0
 40
17.0
 40
17.0
 40
18.0
 40
18.0
 40
18.0
 40
19.0
 40
19.0
 40
19.0
 40
20.0
 40
20.0
 40
20.0
 40
21.0
 40
21.0
 40
21.0
 40
22.0
 40
22.0
 40
22.0
 40
23.0
 40
23.0
 40
23.0
 40
24.0
 40
24.0
 40
24.0
 40
25.0
 40
25.0
 40
25.0
 40
26.0
 40
26.0
 40
26.0
 40
27.0
 40
27.0
 40
27.0
 40
28.0
 40
28.0
 40
28.0
 40
28.0
 10
115.4585855831145
 20
-155.7686143273773
 10
115.4585855831145
 20
-155.7686143273773
 10
115.4585855831145
 20
-155.6077283682161
 10
115.4585855831145
 20
-155.6077283682161
 10
115.4585855831145
 20
-155.6077283682161
 10
115.6132703704022
 20
-155.6077283682161
 10
115.6132703704022
 20
-155.6077283682161
 10
115.6132703704022
 20
-155.6077283682161
 10
115.6132703704022
 20
-155.7686143273773
 10
115.6132703704022
 20
-155.7686143273773
 10
115.6132703704022
 20
-155.7686143273773
 10
116.0067002748178
 20
-155.7686143273773
 10
116.0067002748178
 20
-155.7686143273773
 10
116.0067002748178
 20
-155.7686143273773
 10
116.0067002748178
 20
-155.9229546051165
 10
116.0067002748178
 20
-155.9229546051165
 10
116.0067002748178
 20
-155.9229546051165
 10
115.6132703704022
 20
-155.9229546051165
 10
115.6132703704022
 20
-155.9229546051165
 10
115.6132703704022
 20
-155.9229546051165
 10
115.6132703704022
 20
-156.0776393924042
 10
115.6132703704022
 20
-156.0776393924042
 10
115.6132703704022
 20
-156.0776393924042
 10
115.9684597149315
 20
-156.0776393924042
 10
115.9684597149315
 20
-156.0776393924042
 10
115.9684597149315
 20
-156.0776393924042
 10
115.9684597149315
 20
-156.8899929078261
 10
115.9684597149315
 20
-156.8899929078261
 10
115.9684597149315
 20
-156.8899929078261
 10
115.6132703704022
 20
-156.8899929078261
 10
115.6132703704022
 20
-156.8899929078261
 10
115.6132703704022
 20
-156.8899929078261
 10
115.6132703704022
 20
-157.0591470961519
 10
115.6132703704022
 20
-157.0591470961519
 10
115.6132703704022
 20
-157.0591470961519
 10
116.0215141854043
 20
-157.0591470961519
 10
116.0215141854043
 20
-157.0591470961519
 10
116.0215141854043
 20
-157.0591470961519
 10
116.0215141854043
 20
-157.213487373891
 10
116.0215141854043
 20
-157.213487373891
 10
116.0215141854043
 20
-157.213487373891
 10
115.6132703704022
 20
-157.213487373891
 10
115.6132703704022
 20
-157.213487373891
 10
115.6132703704022
 20
-157.213487373891
 10
115.6132703704022
 20
-157.5669541706777
 10
115.6132703704022
 20
-157.5669541706777
 10
115.6132703704022
 20
-157.5669541706777
 10
115.4585855831145
 20
-157.5669541706777
 10
115.4585855831145
 20
-157.5669541706777
 10
115.4585855831145
 20
-157.5669541706777
 10
115.4585855831145
 20
-157.213487373891
 10
115.4585855831145
 20
-157.213487373891
 10
115.4585855831145
 20
-157.213487373891
 10
115.0482747108213
 20
-157.213487373891
 10
115.0482747108213
 20
-157.213487373891
 10
115.0482747108213
 20
-157.213487373891
 10
115.0482747108213
 20
-157.0591470961519
 10
115.0482747108213
 20
-157.0591470961519
 10
115.0482747108213
 20
-157.0591470961519
 10
115.4585855831145
 20
-157.0591470961519
 10
115.4585855831145
 20
-157.0591470961519
 10
115.4585855831145
 20
-157.0591470961519
 10
115.4585855831145
 20
-156.8899929078261
 10
115.4585855831145
 20
-156.8899929078261
 10
115.4585855831145
 20
-156.8899929078261
 10
115.1095974104587
 20
-156.8899929078261
 10
115.1095974104587
 20
-156.8899929078261
 10
115.1095974104587
 20
-156.8899929078261
 10
115.1095974104587
 20
-156.0776393924042
 10
115.1095974104587
 20
-156.0776393924042
 10
115.1095974104587
 20
-156.0776393924042
 10
115.4585855831145
 20
-156.0776393924042
 10
115.4585855831145
 20
-156.0776393924042
 10
115.4585855831145
 20
-156.0776393924042
 10
115.4585855831145
 20
-155.9229546051165
 10
115.4585855831145
 20
-155.9229546051165
 10
115.4585855831145
 20
-155.9229546051165
 10
115.0692897932813
 20
-155.9229546051165
 10
115.0692897932813
 20
-155.9229546051165
 10
115.0692897932813
 20
-155.9229546051165
 10
115.0692897932813
 20
-155.7686143273773
 10
115.0692897932813
 20
-155.7686143273773
 10
115.0692897932813
 20
-155.7686143273773
 10
115.4585855831145
 20
-155.7686143273773
 10
115.4585855831145
 20
-155.7686143273773
 97
        0
 97
        1
330
147
 75
     2
 76
     1
 98
        1
 10
0.0
 20
0.0
450
        0
451
        0
460
0.0
461
0.0
452
        0
462
0.0
453
        0
470

  0
SPLINE
  5
149
330
13D
100
AcDbEntity
  8
レイヤー 1
100
AcDbSpline
210
0.0
220
0.0
230
1.0
 70
     9
 71
     3
 72
    17
 73
    13
 74
     0
 42
0.0000000001
 43
0.0000000001
 40
0.0
 40
0.0
 40
0.0
 40
0.0
 40
1.0
 40
1.0
 40
1.0
 40
2.0
 40
2.0
 40
2.0
 40
3.0
 40
3.0
 40
3.0
 40
4.0
 40
4.0
 40
4.0
 40
4.0
 10
118.4957817629108
 20
-157.2579291056508
 30
0.0
 10
118.7155788548697
 20
-157.3702392184699
 30
0.0
 10
118.982229245428
 20
-157.4081352688077
 30
0.0
 10
119.1110758165764
 20
-157.418815064812
 30
0.0
 10
119.1110758165764
 20
-157.418815064812
 30
0.0
 10
119.0414848877743
 20
-157.5731553425511
 30
0.0
 10
119.0414848877743
 20
-157.5731553425511
 30
0.0
 10
118.9209065457906
 20
-157.5583414319646
 30
0.0
 10
118.6583902698145
 20
-157.5180338147871
 30
0.0
 10
118.3941514460959
 20
-157.3723062757611
 30
0.0
 10
118.3941514460959
 20
-157.3723062757611
 30
0.0
 10
118.4957817629108
 20
-157.2579291056508
 30
0.0
 10
118.4957817629108
 20
-157.2579291056508
 30
0.0
  0
SPLINE
  5
14A
330
13D
100
AcDbEntity
  8
レイヤー 1
100
AcDbSpline
210
0.0
220
0.0
230
1.0
 70
    11
 71
     3
 72
    50
 73
    46
 74
     0
 42
0.0000000001
 43
0.0000000001
 40
0.0
 40
0.0
 40
0.0
 40
0.0
 40
1.0
 40
1.0
 40
1.0
 40
2.0
 40
2.0
 40
2.0
 40
3.0
 40
3.0
 40
3.0
 40
4.0
 40
4.0
 40
4.0
 40
5.0
 40
5.0
 40
5.0
 40
6.0
 40
6.0
 40
6.0
 40
7.0
 40
7.0
 40
7.0
 40
8.0
 40
8.0
 40
8.0
 40
9.0
 40
9.0
 40
9.0
 40
10.0
 40
10.0
 40
10.0
 40
11.0
 40
11.0
 40
11.0
 40
12.0
 40
12.0
 40
12.0
 40
13.0
 40
13.0
 40
13.0
 40
14.0
 40
14.0
 40
14.0
 40
15.0
 40
15.0
 40
15.0
 40
15.0
 10
118.3834716500916
 20
-155.9060736372387
 30
0.0
 10
118.3834716500916
 20
-155.9060736372387
 30
0.0
 10
119.1196885552895
 20
-155.9060736372387
 30
0.0
 10
119.1196885552895
 20
-155.9060736372387
 30
0.0
 10
119.1196885552895
 20
-155.9060736372387
 30
0.0
 10
119.1196885552895
 20
-156.0311306033533
 30
0.0
 10
119.1196885552895
 20
-156.0311306033533
 30
0.0
 10
119.1196885552895
 20
-156.0311306033533
 30
0.0
 10
118.7896484078026
 20
-156.0311306033533
 30
0.0
 10
118.7896484078026
 20
-156.0311306033533
 30
0.0
 10
118.7896484078026
 20
-156.0311306033533
 30
0.0
 10
118.7896484078026
 20
-156.3060492230763
 30
0.0
 10
118.7896484078026
 20
-156.3060492230763
 30
0.0
 10
118.7896484078026
 20
-156.3060492230763
 30
0.0
 10
118.6332410727722
 20
-156.3060492230763
 30
0.0
 10
118.6332410727722
 20
-156.3060492230763
 30
0.0
 10
118.6332410727722
 20
-156.3060492230763
 30
0.0
 10
118.6332410727722
 20
-156.0311306033533
 30
0.0
 10
118.6332410727722
 20
-156.0311306033533
 30
0.0
 10
118.6332410727722
 20
-156.0311306033533
 30
0.0
 10
118.368657739505
 20
-156.0311306033533
 30
0.0
 10
118.368657739505
 20
-156.0311306033533
 30
0.0
 10
118.3431640329142
 20
-156.1599771745016
 30
0.0
 10
118.292521129281
 20
-156.2509276953123
 30
0.0
 10
118.195369436597
 20
-156.3336099869582
 30
0.0
 10
118.195369436597
 20
-156.3336099869582
 30
0.0
 10
118.0723795277736
 20
-156.2257784982699
 30
0.0
 10
118.0723795277736
 20
-156.2257784982699
 30
0.0
 10
118.2077717803439
 20
-156.1155354427419
 30
0.0
 10
118.2311984296436
 20
-155.9780761328805
 30
0.0
 10
118.2311984296436
 20
-155.9040065799476
 30
0.0
 10
118.2311984296436
 20
-155.9040065799476
 30
0.0
 10
118.2311984296436
 20
-155.660782838689
 30
0.0
 10
118.2311984296436
 20
-155.660782838689
 30
0.0
 10
118.7007649442831
 20
-155.660782838689
 30
0.0
 10
118.8678520753178
 20
-155.6204752215115
 30
0.0
 10
119.0118570666012
 20
-155.578100547043
 30
0.0
 10
119.0118570666012
 20
-155.578100547043
 30
0.0
 10
119.0711127089475
 20
-155.7159043664529
 30
0.0
 10
119.0711127089475
 20
-155.7159043664529
 30
0.0
 10
118.8003282038069
 20
-155.785495295255
 30
0.0
 10
118.4851019669065
 20
-155.7899739193858
 30
0.0
 10
118.3834716500916
 20
-155.7899739193858
 30
0.0
 10
118.3834716500916
 20
-155.7899739193858
 30
0.0
 10
118.3834716500916
 20
-155.9060736372387
 30
0.0
 10
118.3834716500916
 20
-155.9060736372387
 30
0.0
  0
SPLINE
  5
14B
330
13D
100
AcDbEntity
  8
レイヤー 1
100
AcDbSpline
210
0.0
220
0.0
230
1.0
 70
    11
 71
     3
 72
    17
 73
    13
 74
     0
 42
0.0000000001
 43
0.0000000001
 40
0.0
 40
0.0
 40
0.0
 40
0.0
 40
1.0
 40
1.0
 40
1.0
 40
2.0
 40
2.0
 40
2.0
 40
3.0
 40
3.0
 40
3.0
 40
4.0
 40
4.0
 40
4.0
 40
4.0
 10
118.719712969452
 20
-156.9764648045059
 30
0.0
 10
118.719712969452
 20
-156.9764648045059
 30
0.0
 10
117.5604383386654
 20
-156.9764648045059
 30
0.0
 10
117.5604383386654
 20
-156.9764648045059
 30
0.0
 10
117.5604383386654
 20
-156.9764648045059
 30
0.0
 10
117.5604383386654
 20
-157.116335681207
 30
0.0
 10
117.5604383386654
 20
-157.116335681207
 30
0.0
 10
117.5604383386654
 20
-157.116335681207
 30
0.0
 10
118.719712969452
 20
-157.116335681207
 30
0.0
 10
118.719712969452
 20
-157.116335681207
 30
0.0
 10
118.719712969452
 20
-157.116335681207
 30
0.0
 10
118.719712969452
 20
-156.9764648045059
 30
0.0
 10
118.719712969452
 20
-156.9764648045059
 30
0.0
  0
SPLINE
  5
14C
330
13D
100
AcDbEntity
  8
レイヤー 1
100
AcDbSpline
210
0.0
220
0.0
230
1.0
 70
    11
 71
     3
 72
    17
 73
    13
 74
     0
 42
0.0000000001
 43
0.0000000001
 40
0.0
 40
0.0
 40
0.0
 40
0.0
 40
1.0
 40
1.0
 40
1.0
 40
2.0
 40
2.0
 40
2.0
 40
3.0
 40
3.0
 40
3.0
 40
4.0
 40
4.0
 40
4.0
 40
4.0
 10
118.719712969452
 20
-156.7249728340826
 30
0.0
 10
118.719712969452
 20
-156.7249728340826
 30
0.0
 10
117.5604383386654
 20
-156.7249728340826
 30
0.0
 10
117.5604383386654
 20
-156.7249728340826
 30
0.0
 10
117.5604383386654
 20
-156.7249728340826
 30
0.0
 10
117.5604383386654
 20
-156.8665662585264
 30
0.0
 10
117.5604383386654
 20
-156.8665662585264
 30
0.0
 10
117.5604383386654
 20
-156.8665662585264
 30
0.0
 10
118.719712969452
 20
-156.8665662585264
 30
0.0
 10
118.719712969452
 20
-156.8665662585264
 30
0.0
 10
118.719712969452
 20
-156.8665662585264
 30
0.0
 10
118.719712969452
 20
-156.7249728340826
 30
0.0
 10
118.719712969452
 20
-156.7249728340826
 30
0.0
  0
SPLINE
  5
14D
330
13D
100
AcDbEntity
  8
レイヤー 1
100
AcDbSpline
210
0.0
220
0.0
230
1.0
 70
    11
 71
     3
 72
    17
 73
    13
 74
     0
 42
0.0000000001
 43
0.0000000001
 40
0.0
 40
0.0
 40
0.0
 40
0.0
 40
1.0
 40
1.0
 40
1.0
 40
2.0
 40
2.0
 40
2.0
 40
3.0
 40
3.0
 40
3.0
 40
4.0
 40
4.0
 40
4.0
 40
4.0
 10
118.719712969452
 20
-156.4858832074063
 30
0.0
 10
118.719712969452
 20
-156.4858832074063
 30
0.0
 10
117.5604383386654
 20
-156.4858832074063
 30
0.0
 10
117.5604383386654
 20
-156.4858832074063
 30
0.0
 10
117.5604383386654
 20
-156.4858832074063
 30
0.0
 10
117.5604383386654
 20
-156.6147297785546
 30
0.0
 10
117.5604383386654
 20
-156.6147297785546
 30
0.0
 10
117.5604383386654
 20
-156.6147297785546
 30
0.0
 10
118.719712969452
 20
-156.6147297785546
 30
0.0
 10
118.719712969452
 20
-156.6147297785546
 30
0.0
 10
118.719712969452
 20
-156.6147297785546
 30
0.0
 10
118.719712969452
 20
-156.4858832074063
 30
0.0
 10
118.719712969452
 20
-156.4858832074063
 30
0.0
  0
SPLINE
  5
14E
330
13D
100
AcDbEntity
  8
レイヤー 1
100
AcDbSpline
210
0.0
220
0.0
230
1.0
 70
    11
 71
     3
 72
    32
 73
    28
 74
     0
 42
0.0000000001
 43
0.0000000001
 40
0.0
 40
0.0
 40
0.0
 40
0.0
 40
1.0
 40
1.0
 40
1.0
 40
2.0
 40
2.0
 40
2.0
 40
3.0
 40
3.0
 40
3.0
 40
4.0
 40
4.0
 40
4.0
 40
5.0
 40
5.0
 40
5.0
 40
6.0
 40
6.0
 40
6.0
 40
7.0
 40
7.0
 40
7.0
 40
8.0
 40
8.0
 40
8.0
 40
9.0
 40
9.0
 40
9.0
 40
9.0
 10
117.3912841503397
 20
-157.2517279337773
 30
0.0
 10
117.3912841503397
 20
-157.2517279337773
 30
0.0
 10
117.3912841503397
 20
-156.3525580121271
 30
0.0
 10
117.3912841503397
 20
-156.3525580121271
 30
0.0
 10
117.3912841503397
 20
-156.3525580121271
 30
0.0
 10
118.8892116673263
 20
-156.3525580121271
 30
0.0
 10
118.8892116673263
 20
-156.3525580121271
 30
0.0
 10
118.8892116673263
 20
-156.3525580121271
 30
0.0
 10
118.8892116673263
 20
-157.2517279337773
 30
0.0
 10
118.8892116673263
 20
-157.2517279337773
 30
0.0
 10
118.8892116673263
 20
-157.2517279337773
 30
0.0
 10
117.7447509471263
 20
-157.2517279337773
 30
0.0
 10
117.7447509471263
 20
-157.2517279337773
 30
0.0
 10
117.7447509471263
 20
-157.2517279337773
 30
0.0
 10
117.8505153785235
 20
-157.3616264797568
 30
0.0
 10
117.8505153785235
 20
-157.3616264797568
 30
0.0
 10
117.68549530478
 20
-157.4567111151497
 30
0.0
 10
117.5204752310365
 20
-157.5180338147871
 30
0.0
 10
117.224197019305
 20
-157.5690212279688
 30
0.0
 10
117.224197019305
 20
-157.5690212279688
 30
0.0
 10
117.1587402050853
 20
-157.4167480075208
 30
0.0
 10
117.1587402050853
 20
-157.4167480075208
 30
0.0
 10
117.5373561989143
 20
-157.363693537048
 30
0.0
 10
117.6600015981891
 20
-157.2961696655371
 30
0.0
 10
117.7402723229955
 20
-157.2517279337773
 30
0.0
 10
117.7402723229955
 20
-157.2517279337773
 30
0.0
 10
117.3912841503397
 20
-157.2517279337773
 30
0.0
 10
117.3912841503397
 20
-157.2517279337773
 30
0.0
  0
SPLINE
  5
14F
330
13D
100
AcDbEntity
  8
レイヤー 1
100
AcDbSpline
210
0.0
220
0.0
230
1.0
 70
    11
 71
     3
 72
    50
 73
    46
 74
     0
 42
0.0000000001
 43
0.0000000001
 40
0.0
 40
0.0
 40
0.0
 40
0.0
 40
1.0
 40
1.0
 40
1.0
 40
2.0
 40
2.0
 40
2.0
 40
3.0
 40
3.0
 40
3.0
 40
4.0
 40
4.0
 40
4.0
 40
5.0
 40
5.0
 40
5.0
 40
6.0
 40
6.0
 40
6.0
 40
7.0
 40
7.0
 40
7.0
 40
8.0
 40
8.0
 40
8.0
 40
9.0
 40
9.0
 40
9.0
 40
10.0
 40
10.0
 40
10.0
 40
11.0
 40
11.0
 40
11.0
 40
12.0
 40
12.0
 40
12.0
 40
13.0
 40
13.0
 40
13.0
 40
14.0
 40
14.0
 40
14.0
 40
15.0
 40
15.0
 40
15.0
 40
15.0
 10
117.4760334992768
 20
-155.9060736372387
 30
0.0
 10
117.4760334992768
 20
-155.9060736372387
 30
0.0
 10
118.1275010555375
 20
-155.9060736372387
 30
0.0
 10
118.1275010555375
 20
-155.9060736372387
 30
0.0
 10
118.1275010555375
 20
-155.9060736372387
 30
0.0
 10
118.1275010555375
 20
-156.0311306033533
 30
0.0
 10
118.1275010555375
 20
-156.0311306033533
 30
0.0
 10
118.1275010555375
 20
-156.0311306033533
 30
0.0
 10
117.8505153785235
 20
-156.0311306033533
 30
0.0
 10
117.8505153785235
 20
-156.0311306033533
 30
0.0
 10
117.8505153785235
 20
-156.0311306033533
 30
0.0
 10
117.8505153785235
 20
-156.3060492230763
 30
0.0
 10
117.8505153785235
 20
-156.3060492230763
 30
0.0
 10
117.8505153785235
 20
-156.3060492230763
 30
0.0
 10
117.6896294193623
 20
-156.3060492230763
 30
0.0
 10
117.6896294193623
 20
-156.3060492230763
 30
0.0
 10
117.6896294193623
 20
-156.3060492230763
 30
0.0
 10
117.6896294193623
 20
-156.0311306033533
 30
0.0
 10
117.6896294193623
 20
-156.0311306033533
 30
0.0
 10
117.6896294193623
 20
-156.0311306033533
 30
0.0
 10
117.4694878178548
 20
-156.0311306033533
 30
0.0
 10
117.4694878178548
 20
-156.0311306033533
 30
0.0
 10
117.4591525313991
 20
-156.1007215321553
 30
0.0
 10
117.4336588248082
 20
-156.295369427072
 30
0.0
 10
117.2793185470691
 20
-156.4455755902289
 30
0.0
 10
117.2793185470691
 20
-156.4455755902289
 30
0.0
 10
117.1566731477941
 20
-156.3356770442494
 30
0.0
 10
117.1566731477941
 20
-156.3356770442494
 30
0.0
 10
117.2772514897779
 20
-156.2361137847257
 30
0.0
 10
117.3192816546979
 20
-156.0311306033533
 30
0.0
 10
117.3192816546979
 20
-155.9484483117073
 30
0.0
 10
117.3192816546979
 20
-155.9484483117073
 30
0.0
 10
117.3192816546979
 20
-155.6628498959801
 30
0.0
 10
117.3192816546979
 20
-155.6628498959801
 30
0.0
 10
117.8040065894726
 20
-155.6628498959801
 30
0.0
 10
117.9583468672118
 20
-155.6163411069293
 30
0.0
 10
118.0534315026047
 20
-155.5887803430472
 30
0.0
 10
118.0534315026047
 20
-155.5887803430472
 30
0.0
 10
118.1064859730775
 20
-155.7283067101999
 30
0.0
 10
118.1064859730775
 20
-155.7283067101999
 30
0.0
 10
117.8970241675743
 20
-155.7772270660904
 30
0.0
 10
117.734071151122
 20
-155.7875623525461
 30
0.0
 10
117.4760334992768
 20
-155.792040976677
 30
0.0
 10
117.4760334992768
 20
-155.792040976677
 30
0.0
 10
117.4760334992768
 20
-155.9060736372387
 30
0.0
 10
117.4760334992768
 20
-155.9060736372387
 30
0.0
  0
HATCH
  5
150
330
13D
100
AcDbEntity
  8
レイヤー 1
 62
    12
420
 15007762
440
 33554687
100
AcDbHatch
 10
0.0
 20
0.0
 30
0.0
210
0.0
220
0.0
230
1.0
  2
SOLID
 70
     1
 71
     1
 91
        7
 92
        1
 93
        1
 72
     4
 94
        3
 73
     0
 74
     0
 95
       17
 96
       13
 40
0.0
 40
0.0
 40
0.0
 40
0.0
 40
1.0
 40
1.0
 40
1.0
 40
2.0
 40
2.0
 40
2.0
 40
3.0
 40
3.0
 40
3.0
 40
4.0
 40
4.0
 40
4.0
 40
4.0
 10
118.4957817629108
 20
-157.2579291056508
 10
118.7155788548697
 20
-157.3702392184699
 10
118.982229245428
 20
-157.4081352688077
 10
119.1110758165764
 20
-157.418815064812
 10
119.1110758165764
 20
-157.418815064812
 10
119.0414848877743
 20
-157.5731553425511
 10
119.0414848877743
 20
-157.5731553425511
 10
118.9209065457906
 20
-157.5583414319646
 10
118.6583902698145
 20
-157.5180338147871
 10
118.3941514460959
 20
-157.3723062757611
 10
118.3941514460959
 20
-157.3723062757611
 10
118.4957817629108
 20
-157.2579291056508
 10
118.4957817629108
 20
-157.2579291056508
 97
        0
 97
        1
330
149
 92
        1
 93
        1
 72
     4
 94
        3
 73
     0
 74
     0
 95
       50
 96
       46
 40
0.0
 40
0.0
 40
0.0
 40
0.0
 40
1.0
 40
1.0
 40
1.0
 40
2.0
 40
2.0
 40
2.0
 40
3.0
 40
3.0
 40
3.0
 40
4.0
 40
4.0
 40
4.0
 40
5.0
 40
5.0
 40
5.0
 40
6.0
 40
6.0
 40
6.0
 40
7.0
 40
7.0
 40
7.0
 40
8.0
 40
8.0
 40
8.0
 40
9.0
 40
9.0
 40
9.0
 40
10.0
 40
10.0
 40
10.0
 40
11.0
 40
11.0
 40
11.0
 40
12.0
 40
12.0
 40
12.0
 40
13.0
 40
13.0
 40
13.0
 40
14.0
 40
14.0
 40
14.0
 40
15.0
 40
15.0
 40
15.0
 40
15.0
 10
118.3834716500916
 20
-155.9060736372387
 10
118.3834716500916
 20
-155.9060736372387
 10
119.1196885552895
 20
-155.9060736372387
 10
119.1196885552895
 20
-155.9060736372387
 10
119.1196885552895
 20
-155.9060736372387
 10
119.1196885552895
 20
-156.0311306033533
 10
119.1196885552895
 20
-156.0311306033533
 10
119.1196885552895
 20
-156.0311306033533
 10
118.7896484078026
 20
-156.0311306033533
 10
118.7896484078026
 20
-156.0311306033533
 10
118.7896484078026
 20
-156.0311306033533
 10
118.7896484078026
 20
-156.3060492230763
 10
118.7896484078026
 20
-156.3060492230763
 10
118.7896484078026
 20
-156.3060492230763
 10
118.6332410727722
 20
-156.3060492230763
 10
118.6332410727722
 20
-156.3060492230763
 10
118.6332410727722
 20
-156.3060492230763
 10
118.6332410727722
 20
-156.0311306033533
 10
118.6332410727722
 20
-156.0311306033533
 10
118.6332410727722
 20
-156.0311306033533
 10
118.368657739505
 20
-156.0311306033533
 10
118.368657739505
 20
-156.0311306033533
 10
118.3431640329142
 20
-156.1599771745016
 10
118.292521129281
 20
-156.2509276953123
 10
118.195369436597
 20
-156.3336099869582
 10
118.195369436597
 20
-156.3336099869582
 10
118.0723795277736
 20
-156.2257784982699
 10
118.0723795277736
 20
-156.2257784982699
 10
118.2077717803439
 20
-156.1155354427419
 10
118.2311984296436
 20
-155.9780761328805
 10
118.2311984296436
 20
-155.9040065799476
 10
118.2311984296436
 20
-155.9040065799476
 10
118.2311984296436
 20
-155.660782838689
 10
118.2311984296436
 20
-155.660782838689
 10
118.7007649442831
 20
-155.660782838689
 10
118.8678520753178
 20
-155.6204752215115
 10
119.0118570666012
 20
-155.578100547043
 10
119.0118570666012
 20
-155.578100547043
 10
119.0711127089475
 20
-155.7159043664529
 10
119.0711127089475
 20
-155.7159043664529
 10
118.8003282038069
 20
-155.785495295255
 10
118.4851019669065
 20
-155.7899739193858
 10
118.3834716500916
 20
-155.7899739193858
 10
118.3834716500916
 20
-155.7899739193858
 10
118.3834716500916
 20
-155.9060736372387
 10
118.3834716500916
 20
-155.9060736372387
 97
        0
 97
        1
330
14A
 92
        1
 93
        1
 72
     4
 94
        3
 73
     0
 74
     0
 95
       17
 96
       13
 40
0.0
 40
0.0
 40
0.0
 40
0.0
 40
1.0
 40
1.0
 40
1.0
 40
2.0
 40
2.0
 40
2.0
 40
3.0
 40
3.0
 40
3.0
 40
4.0
 40
4.0
 40
4.0
 40
4.0
 10
118.719712969452
 20
-156.9764648045059
 10
118.719712969452
 20
-156.9764648045059
 10
117.5604383386654
 20
-156.9764648045059
 10
117.5604383386654
 20
-156.9764648045059
 10
117.5604383386654
 20
-156.9764648045059
 10
117.5604383386654
 20
-157.116335681207
 10
117.5604383386654
 20
-157.116335681207
 10
117.5604383386654
 20
-157.116335681207
 10
118.719712969452
 20
-157.116335681207
 10
118.719712969452
 20
-157.116335681207
 10
118.719712969452
 20
-157.116335681207
 10
118.719712969452
 20
-156.9764648045059
 10
118.719712969452
 20
-156.9764648045059
 97
        0
 97
        1
330
14B
 92
        1
 93
        1
 72
     4
 94
        3
 73
     0
 74
     0
 95
       17
 96
       13
 40
0.0
 40
0.0
 40
0.0
 40
0.0
 40
1.0
 40
1.0
 40
1.0
 40
2.0
 40
2.0
 40
2.0
 40
3.0
 40
3.0
 40
3.0
 40
4.0
 40
4.0
 40
4.0
 40
4.0
 10
118.719712969452
 20
-156.7249728340826
 10
118.719712969452
 20
-156.7249728340826
 10
117.5604383386654
 20
-156.7249728340826
 10
117.5604383386654
 20
-156.7249728340826
 10
117.5604383386654
 20
-156.7249728340826
 10
117.5604383386654
 20
-156.8665662585264
 10
117.5604383386654
 20
-156.8665662585264
 10
117.5604383386654
 20
-156.8665662585264
 10
118.719712969452
 20
-156.8665662585264
 10
118.719712969452
 20
-156.8665662585264
 10
118.719712969452
 20
-156.8665662585264
 10
118.719712969452
 20
-156.7249728340826
 10
118.719712969452
 20
-156.7249728340826
 97
        0
 97
        1
330
14C
 92
        1
 93
        1
 72
     4
 94
        3
 73
     0
 74
     0
 95
       17
 96
       13
 40
0.0
 40
0.0
 40
0.0
 40
0.0
 40
1.0
 40
1.0
 40
1.0
 40
2.0
 40
2.0
 40
2.0
 40
3.0
 40
3.0
 40
3.0
 40
4.0
 40
4.0
 40
4.0
 40
4.0
 10
118.719712969452
 20
-156.4858832074063
 10
118.719712969452
 20
-156.4858832074063
 10
117.5604383386654
 20
-156.4858832074063
 10
117.5604383386654
 20
-156.4858832074063
 10
117.5604383386654
 20
-156.4858832074063
 10
117.5604383386654
 20
-156.6147297785546
 10
117.5604383386654
 20
-156.6147297785546
 10
117.5604383386654
 20
-156.6147297785546
 10
118.719712969452
 20
-156.6147297785546
 10
118.719712969452
 20
-156.6147297785546
 10
118.719712969452
 20
-156.6147297785546
 10
118.719712969452
 20
-156.4858832074063
 10
118.719712969452
 20
-156.4858832074063
 97
        0
 97
        1
330
14D
 92
        1
 93
        1
 72
     4
 94
        3
 73
     0
 74
     0
 95
       32
 96
       28
 40
0.0
 40
0.0
 40
0.0
 40
0.0
 40
1.0
 40
1.0
 40
1.0
 40
2.0
 40
2.0
 40
2.0
 40
3.0
 40
3.0
 40
3.0
 40
4.0
 40
4.0
 40
4.0
 40
5.0
 40
5.0
 40
5.0
 40
6.0
 40
6.0
 40
6.0
 40
7.0
 40
7.0
 40
7.0
 40
8.0
 40
8.0
 40
8.0
 40
9.0
 40
9.0
 40
9.0
 40
9.0
 10
117.3912841503397
 20
-157.2517279337773
 10
117.3912841503397
 20
-157.2517279337773
 10
117.3912841503397
 20
-156.3525580121271
 10
117.3912841503397
 20
-156.3525580121271
 10
117.3912841503397
 20
-156.3525580121271
 10
118.8892116673263
 20
-156.3525580121271
 10
118.8892116673263
 20
-156.3525580121271
 10
118.8892116673263
 20
-156.3525580121271
 10
118.8892116673263
 20
-157.2517279337773
 10
118.8892116673263
 20
-157.2517279337773
 10
118.8892116673263
 20
-157.2517279337773
 10
117.7447509471263
 20
-157.2517279337773
 10
117.7447509471263
 20
-157.2517279337773
 10
117.7447509471263
 20
-157.2517279337773
 10
117.8505153785235
 20
-157.3616264797568
 10
117.8505153785235
 20
-157.3616264797568
 10
117.68549530478
 20
-157.4567111151497
 10
117.5204752310365
 20
-157.5180338147871
 10
117.224197019305
 20
-157.5690212279688
 10
117.224197019305
 20
-157.5690212279688
 10
117.1587402050853
 20
-157.4167480075208
 10
117.1587402050853
 20
-157.4167480075208
 10
117.5373561989143
 20
-157.363693537048
 10
117.6600015981891
 20
-157.2961696655371
 10
117.7402723229955
 20
-157.2517279337773
 10
117.7402723229955
 20
-157.2517279337773
 10
117.3912841503397
 20
-157.2517279337773
 10
117.3912841503397
 20
-157.2517279337773
 97
        0
 97
        1
330
14E
 92
        1
 93
        1
 72
     4
 94
        3
 73
     0
 74
     0
 95
       50
 96
       46
 40
0.0
 40
0.0
 40
0.0
 40
0.0
 40
1.0
 40
1.0
 40
1.0
 40
2.0
 40
2.0
 40
2.0
 40
3.0
 40
3.0
 40
3.0
 40
4.0
 40
4.0
 40
4.0
 40
5.0
 40
5.0
 40
5.0
 40
6.0
 40
6.0
 40
6.0
 40
7.0
 40
7.0
 40
7.0
 40
8.0
 40
8.0
 40
8.0
 40
9.0
 40
9.0
 40
9.0
 40
10.0
 40
10.0
 40
10.0
 40
11.0
 40
11.0
 40
11.0
 40
12.0
 40
12.0
 40
12.0
 40
13.0
 40
13.0
 40
13.0
 40
14.0
 40
14.0
 40
14.0
 40
15.0
 40
15.0
 40
15.0
 40
15.0
 10
117.4760334992768
 20
-155.9060736372387
 10
117.4760334992768
 20
-155.9060736372387
 10
118.1275010555375
 20
-155.9060736372387
 10
118.1275010555375
 20
-155.9060736372387
 10
118.1275010555375
 20
-155.9060736372387
 10
118.1275010555375
 20
-156.0311306033533
 10
118.1275010555375
 20
-156.0311306033533
 10
118.1275010555375
 20
-156.0311306033533
 10
117.8505153785235
 20
-156.0311306033533
 10
117.8505153785235
 20
-156.0311306033533
 10
117.8505153785235
 20
-156.0311306033533
 10
117.8505153785235
 20
-156.3060492230763
 10
117.8505153785235
 20
-156.3060492230763
 10
117.8505153785235
 20
-156.3060492230763
 10
117.6896294193623
 20
-156.3060492230763
 10
117.6896294193623
 20
-156.3060492230763
 10
117.6896294193623
 20
-156.3060492230763
 10
117.6896294193623
 20
-156.0311306033533
 10
117.6896294193623
 20
-156.0311306033533
 10
117.6896294193623
 20
-156.0311306033533
 10
117.4694878178548
 20
-156.0311306033533
 10
117.4694878178548
 20
-156.0311306033533
 10
117.4591525313991
 20
-156.1007215321553
 10
117.4336588248082
 20
-156.295369427072
 10
117.2793185470691
 20
-156.4455755902289
 10
117.2793185470691
 20
-156.4455755902289
 10
117.1566731477941
 20
-156.3356770442494
 10
117.1566731477941
 20
-156.3356770442494
 10
117.2772514897779
 20
-156.2361137847257
 10
117.3192816546979
 20
-156.0311306033533
 10
117.3192816546979
 20
-155.9484483117073
 10
117.3192816546979
 20
-155.9484483117073
 10
117.3192816546979
 20
-155.6628498959801
 10
117.3192816546979
 20
-155.6628498959801
 10
117.8040065894726
 20
-155.6628498959801
 10
117.9583468672118
 20
-155.6163411069293
 10
118.0534315026047
 20
-155.5887803430472
 10
118.0534315026047
 20
-155.5887803430472
 10
118.1064859730775
 20
-155.7283067101999
 10
118.1064859730775
 20
-155.7283067101999
 10
117.8970241675743
 20
-155.7772270660904
 10
117.734071151122
 20
-155.7875623525461
 10
117.4760334992768
 20
-155.792040976677
 10
117.4760334992768
 20
-155.792040976677
 10
117.4760334992768
 20
-155.9060736372387
 10
117.4760334992768
 20
-155.9060736372387
 97
        0
 97
        1
330
14F
 75
     2
 76
     1
 98
        1
 10
0.0
 20
0.0
450
        0
451
        0
460
0.0
461
0.0
452
        0
462
0.0
453
        0
470

  0
ENDBLK
  5
140
330
13D
100
AcDbEntity
  8
0
100
AcDbBlockEnd
  0
BLOCK
  5
154
330
152
100
AcDbEntity
  8
0
100
AcDbBlockBegin
  2
Block_13
 70
     0
 10
0.0
 20
0.0
 30
0.0
  3
Block_13
  1

  0
INSERT
  5
157
330
152
100
AcDbEntity
  8
レイヤー 1
100
AcDbBlockReference
  2
Block_14
 10
0.0
 20
0.0
 30
0.0
  0
ENDBLK
  5
155
330
152
100
AcDbEntity
  8
0
100
AcDbBlockEnd
  0
BLOCK
  5
158
330
156
100
AcDbEntity
  8
0
100
AcDbBlockBegin
  2
Block_14
 70
     0
 10
0.0
 20
0.0
 30
0.0
  3
Block_14
  1

  0
SPLINE
  5
15A
330
156
100
AcDbEntity
  8
レイヤー 1
100
AcDbSpline
210
0.0
220
0.0
230
1.0
 70
     9
 71
     3
 72
    59
 73
    55
 74
     0
 42
0.0000000001
 43
0.0000000001
 40
0.0
 40
0.0
 40
0.0
 40
0.0
 40
1.0
 40
1.0
 40
1.0
 40
2.0
 40
2.0
 40
2.0
 40
3.0
 40
3.0
 40
3.0
 40
4.0
 40
4.0
 40
4.0
 40
5.0
 40
5.0
 40
5.0
 40
6.0
 40
6.0
 40
6.0
 40
7.0
 40
7.0
 40
7.0
 40
8.0
 40
8.0
 40
8.0
 40
9.0
 40
9.0
 40
9.0
 40
10.0
 40
10.0
 40
10.0
 40
11.0
 40
11.0
 40
11.0
 40
12.0
 40
12.0
 40
12.0
 40
13.0
 40
13.0
 40
13.0
 40
14.0
 40
14.0
 40
14.0
 40
15.0
 40
15.0
 40
15.0
 40
16.0
 40
16.0
 40
16.0
 40
17.0
 40
17.0
 40
17.0
 40
18.0
 40
18.0
 40
18.0
 40
18.0
 10
123.1828341705932
 20
-149.1895154791957
 30
0.0
 10
123.0367621220186
 20
-149.6759629617129
 30
0.0
 10
122.8183430682537
 20
-150.1985839468253
 30
0.0
 10
122.2939995353987
 20
-150.5158772410169
 30
0.0
 10
122.2939995353987
 20
-150.5158772410169
 30
0.0
 10
122.1293239712038
 20
-150.3636040205688
 30
0.0
 10
122.1293239712038
 20
-150.3636040205688
 30
0.0
 10
122.2702283765505
 20
-150.2936685822182
 30
0.0
 10
122.4848578252816
 20
-150.1837700362388
 30
0.0
 10
122.7053439363375
 20
-149.8537298887518
 30
0.0
 10
122.9127386845496
 20
-149.5405707091426
 30
0.0
 10
122.9626925690857
 20
-149.2846001145886
 30
0.0
 10
122.9868082374824
 20
-149.1578206007314
 30
0.0
 10
122.9868082374824
 20
-149.1578206007314
 30
0.0
 10
122.4200900301589
 20
-149.1578206007314
 30
0.0
 10
122.4200900301589
 20
-149.1578206007314
 30
0.0
 10
122.3294840188968
 20
-149.318362050344
 30
0.0
 10
122.2237195874996
 20
-149.4854491813786
 30
0.0
 10
122.0552544182709
 20
-149.6570149365441
 30
0.0
 10
122.0552544182709
 20
-149.6570149365441
 30
0.0
 10
121.9033257073714
 20
-149.5343695372692
 30
0.0
 10
121.9033257073714
 20
-149.5343695372692
 30
0.0
 10
121.9553466491986
 20
-149.4878607482183
 30
0.0
 10
122.084882239444
 20
-149.3755506353991
 30
0.0
 10
122.229231740276
 20
-149.1261257222671
 30
0.0
 10
122.2960665926899
 20
-149.0076144375745
 30
0.0
 10
122.3866726039519
 20
-148.8382879944744
 30
0.0
 10
122.409065724606
 20
-148.7156425951996
 30
0.0
 10
122.409065724606
 20
-148.7156425951996
 30
0.0
 10
122.6109483200417
 20
-148.8171006572402
 30
0.0
 10
122.6109483200417
 20
-148.8171006572402
 30
0.0
 10
122.6236951733371
 20
-148.8234740838879
 30
0.0
 10
122.6367865361811
 20
-148.8319145678267
 30
0.0
 10
122.6367865361811
 20
-148.8467284784133
 30
0.0
 10
122.6367865361811
 20
-148.8679158156476
 30
0.0
 10
122.6143934155269
 20
-148.8804904141687
 30
0.0
 10
122.6071587150079
 20
-148.8825574714599
 30
0.0
 10
122.5830430466112
 20
-148.891170210173
 30
0.0
 10
122.5758083460921
 20
-148.8891031528819
 30
0.0
 10
122.553415225438
 20
-148.9142523499242
 30
0.0
 10
122.5310221047839
 20
-148.939746056515
 30
0.0
 10
122.5330891620751
 20
-148.9483587952282
 30
0.0
 10
122.5051838886445
 20
-149.0010687561525
 30
0.0
 10
122.5051838886445
 20
-149.0010687561525
 30
0.0
 10
122.7976724953422
 20
-149.0010687561525
 30
0.0
 10
122.7976724953422
 20
-149.0010687561525
 30
0.0
 10
123.021948211432
 20
-149.0010687561525
 30
0.0
 10
123.0498534848625
 20
-148.9883219028571
 30
0.0
 10
123.0998073693986
 20
-148.9586940816839
 30
0.0
 10
123.0998073693986
 20
-148.9586940816839
 30
0.0
 10
123.236577660163
 20
-149.1237141554274
 30
0.0
 10
123.236577660163
 20
-149.1237141554274
 30
0.0
 10
123.2069498389899
 20
-149.1598876580225
 30
0.0
 10
123.2052272912473
 20
-149.1619547153137
 30
0.0
 10
123.1828341705932
 20
-149.1895154791957
 30
0.0
  0
HATCH
  5
15B
330
156
100
AcDbEntity
  8
レイヤー 1
 62
   250
420
  2299925
440
 33554687
100
AcDbHatch
 10
0.0
 20
0.0
 30
0.0
210
0.0
220
0.0
230
1.0
  2
SOLID
 70
     1
 71
     1
 91
        1
 92
        1
 93
        1
 72
     4
 94
        3
 73
     0
 74
     0
 95
       59
 96
       55
 40
0.0
 40
0.0
 40
0.0
 40
0.0
 40
1.0
 40
1.0
 40
1.0
 40
2.0
 40
2.0
 40
2.0
 40
3.0
 40
3.0
 40
3.0
 40
4.0
 40
4.0
 40
4.0
 40
5.0
 40
5.0
 40
5.0
 40
6.0
 40
6.0
 40
6.0
 40
7.0
 40
7.0
 40
7.0
 40
8.0
 40
8.0
 40
8.0
 40
9.0
 40
9.0
 40
9.0
 40
10.0
 40
10.0
 40
10.0
 40
11.0
 40
11.0
 40
11.0
 40
12.0
 40
12.0
 40
12.0
 40
13.0
 40
13.0
 40
13.0
 40
14.0
 40
14.0
 40
14.0
 40
15.0
 40
15.0
 40
15.0
 40
16.0
 40
16.0
 40
16.0
 40
17.0
 40
17.0
 40
17.0
 40
18.0
 40
18.0
 40
18.0
 40
18.0
 10
123.1828341705932
 20
-149.1895154791957
 10
123.0367621220186
 20
-149.6759629617129
 10
122.8183430682537
 20
-150.1985839468253
 10
122.2939995353987
 20
-150.5158772410169
 10
122.2939995353987
 20
-150.5158772410169
 10
122.1293239712038
 20
-150.3636040205688
 10
122.1293239712038
 20
-150.3636040205688
 10
122.2702283765505
 20
-150.2936685822182
 10
122.4848578252816
 20
-150.1837700362388
 10
122.7053439363375
 20
-149.8537298887518
 10
122.9127386845496
 20
-149.5405707091426
 10
122.9626925690857
 20
-149.2846001145886
 10
122.9868082374824
 20
-149.1578206007314
 10
122.9868082374824
 20
-149.1578206007314
 10
122.4200900301589
 20
-149.1578206007314
 10
122.4200900301589
 20
-149.1578206007314
 10
122.3294840188968
 20
-149.318362050344
 10
122.2237195874996
 20
-149.4854491813786
 10
122.0552544182709
 20
-149.6570149365441
 10
122.0552544182709
 20
-149.6570149365441
 10
121.9033257073714
 20
-149.5343695372692
 10
121.9033257073714
 20
-149.5343695372692
 10
121.9553466491986
 20
-149.4878607482183
 10
122.084882239444
 20
-149.3755506353991
 10
122.229231740276
 20
-149.1261257222671
 10
122.2960665926899
 20
-149.0076144375745
 10
122.3866726039519
 20
-148.8382879944744
 10
122.409065724606
 20
-148.7156425951996
 10
122.409065724606
 20
-148.7156425951996
 10
122.6109483200417
 20
-148.8171006572402
 10
122.6109483200417
 20
-148.8171006572402
 10
122.6236951733371
 20
-148.8234740838879
 10
122.6367865361811
 20
-148.8319145678267
 10
122.6367865361811
 20
-148.8467284784133
 10
122.6367865361811
 20
-148.8679158156476
 10
122.6143934155269
 20
-148.8804904141687
 10
122.6071587150079
 20
-148.8825574714599
 10
122.5830430466112
 20
-148.891170210173
 10
122.5758083460921
 20
-148.8891031528819
 10
122.553415225438
 20
-148.9142523499242
 10
122.5310221047839
 20
-148.939746056515
 10
122.5330891620751
 20
-148.9483587952282
 10
122.5051838886445
 20
-149.0010687561525
 10
122.5051838886445
 20
-149.0010687561525
 10
122.7976724953422
 20
-149.0010687561525
 10
122.7976724953422
 20
-149.0010687561525
 10
123.021948211432
 20
-149.0010687561525
 10
123.0498534848625
 20
-148.9883219028571
 10
123.0998073693986
 20
-148.9586940816839
 10
123.0998073693986
 20
-148.9586940816839
 10
123.236577660163
 20
-149.1237141554274
 10
123.236577660163
 20
-149.1237141554274
 10
123.2069498389899
 20
-149.1598876580225
 10
123.2052272912473
 20
-149.1619547153137
 10
123.1828341705932
 20
-149.1895154791957
 97
        0
 97
        1
330
15A
 75
     2
 76
     1
 98
        1
 10
0.0
 20
0.0
450
        0
451
        0
460
0.0
461
0.0
452
        0
462
0.0
453
        0
470

  0
SPLINE
  5
15C
330
156
100
AcDbEntity
  8
レイヤー 1
100
AcDbSpline
210
0.0
220
0.0
230
1.0
 70
    11
 71
     3
 72
    17
 73
    13
 74
     0
 42
0.0000000001
 43
0.0000000001
 40
0.0
 40
0.0
 40
0.0
 40
0.0
 40
1.0
 40
1.0
 40
1.0
 40
2.0
 40
2.0
 40
2.0
 40
3.0
 40
3.0
 40
3.0
 40
4.0
 40
4.0
 40
4.0
 40
4.0
 10
124.621850554782
 20
-149.0985649583851
 30
0.0
 10
124.621850554782
 20
-149.0985649583851
 30
0.0
 10
123.7106227989334
 20
-149.0985649583851
 30
0.0
 10
123.7106227989334
 20
-149.0985649583851
 30
0.0
 10
123.7106227989334
 20
-149.0985649583851
 30
0.0
 10
123.7106227989334
 20
-149.987055084031
 30
0.0
 10
123.7106227989334
 20
-149.987055084031
 30
0.0
 10
123.7106227989334
 20
-149.987055084031
 30
0.0
 10
124.621850554782
 20
-149.987055084031
 30
0.0
 10
124.621850554782
 20
-149.987055084031
 30
0.0
 10
124.621850554782
 20
-149.987055084031
 30
0.0
 10
124.621850554782
 20
-149.0985649583851
 30
0.0
 10
124.621850554782
 20
-149.0985649583851
 30
0.0
  0
SPLINE
  5
15D
330
156
100
AcDbEntity
  8
レイヤー 1
100
AcDbSpline
210
0.0
220
0.0
230
1.0
 70
     9
 71
     3
 72
    53
 73
    49
 74
     0
 42
0.0000000001
 43
0.0000000001
 40
0.0
 40
0.0
 40
0.0
 40
0.0
 40
1.0
 40
1.0
 40
1.0
 40
2.0
 40
2.0
 40
2.0
 40
3.0
 40
3.0
 40
3.0
 40
4.0
 40
4.0
 40
4.0
 40
5.0
 40
5.0
 40
5.0
 40
6.0
 40
6.0
 40
6.0
 40
7.0
 40
7.0
 40
7.0
 40
8.0
 40
8.0
 40
8.0
 40
9.0
 40
9.0
 40
9.0
 40
10.0
 40
10.0
 40
10.0
 40
11.0
 40
11.0
 40
11.0
 40
12.0
 40
12.0
 40
12.0
 40
13.0
 40
13.0
 40
13.0
 40
14.0
 40
14.0
 40
14.0
 40
15.0
 40
15.0
 40
15.0
 40
16.0
 40
16.0
 40
16.0
 40
16.0
 10
124.6015244914191
 20
-150.3022813209313
 30
0.0
 10
124.6087591919381
 20
-150.2578395891716
 30
0.0
 10
124.6087591919381
 20
-150.2492268504585
 30
0.0
 10
124.6142713447145
 20
-150.1751572975256
 30
0.0
 10
124.6142713447145
 20
-150.1751572975256
 30
0.0
 10
123.7126898562246
 20
-150.1751572975256
 30
0.0
 10
123.7126898562246
 20
-150.1751572975256
 30
0.0
 10
123.7126898562246
 20
-150.2068521759899
 30
0.0
 10
123.7126898562246
 20
-150.2619737037539
 30
0.0
 10
123.7161349517098
 20
-150.2978026968005
 30
0.0
 10
123.7161349517098
 20
-150.2978026968005
 30
0.0
 10
123.5052951080126
 20
-150.2978026968005
 30
0.0
 10
123.5052951080126
 20
-150.2978026968005
 30
0.0
 10
123.5108072607889
 20
-150.243025678585
 30
0.0
 10
123.5201090185991
 20
-150.1520751577745
 30
0.0
 10
123.5201090185991
 20
-150.0228840770776
 30
0.0
 10
123.5218315663417
 20
-149.8179008957052
 30
0.0
 10
123.5218315663417
 20
-149.7944742464055
 30
0.0
 10
123.5218315663417
 20
-149.7710475971058
 30
0.0
 10
123.5218315663417
 20
-149.7710475971058
 30
0.0
 10
123.5218315663417
 20
-149.3311089036394
 30
0.0
 10
123.5218315663417
 20
-149.3311089036394
 30
0.0
 10
123.5218315663417
 20
-149.2656520894197
 30
0.0
 10
123.5163194135654
 20
-148.9418131138062
 30
0.0
 10
123.5125298085316
 20
-148.8870360955907
 30
0.0
 10
123.621739335414
 20
-148.8994384393376
 30
0.0
 10
123.8532497520228
 20
-148.9039170634685
 30
0.0
 10
123.9683159412301
 20
-148.9039170634685
 30
0.0
 10
123.9683159412301
 20
-148.9039170634685
 30
0.0
 10
124.3662244697765
 20
-148.9039170634685
 30
0.0
 10
124.3662244697765
 20
-148.9039170634685
 30
0.0
 10
124.497827117313
 20
-148.9039170634685
 30
0.0
 10
124.6938530504237
 20
-148.9018500061773
 30
0.0
 10
124.8216660929265
 20
-148.8932372674642
 30
0.0
 10
124.8144313924075
 20
-149.0031358134436
 30
0.0
 10
124.8106417873737
 20
-149.2529052361243
 30
0.0
 10
124.8106417873737
 20
-149.3714165208168
 30
0.0
 10
124.8106417873737
 20
-149.3714165208168
 30
0.0
 10
124.8106417873737
 20
-149.7903401318232
 30
0.0
 10
124.8106417873737
 20
-149.7903401318232
 30
0.0
 10
124.8106417873737
 20
-149.8327148062918
 30
0.0
 10
124.8161539401501
 20
-150.014615847913
 30
0.0
 10
124.8161539401501
 20
-150.0525118982507
 30
0.0
 10
124.8182209974413
 20
-150.2027180614076
 30
0.0
 10
124.8254556979603
 20
-150.2533609650408
 30
0.0
 10
124.8330349080278
 20
-150.3022813209313
 30
0.0
 10
124.8330349080278
 20
-150.3022813209313
 30
0.0
 10
124.6015244914191
 20
-150.3022813209313
 30
0.0
 10
124.6015244914191
 20
-150.3022813209313
 30
0.0
  0
HATCH
  5
15E
330
156
100
AcDbEntity
  8
レイヤー 1
 62
   250
420
  2299925
440
 33554687
100
AcDbHatch
 10
0.0
 20
0.0
 30
0.0
210
0.0
220
0.0
230
1.0
  2
SOLID
 70
     1
 71
     1
 91
        2
 92
        1
 93
        1
 72
     4
 94
        3
 73
     0
 74
     0
 95
       17
 96
       13
 40
0.0
 40
0.0
 40
0.0
 40
0.0
 40
1.0
 40
1.0
 40
1.0
 40
2.0
 40
2.0
 40
2.0
 40
3.0
 40
3.0
 40
3.0
 40
4.0
 40
4.0
 40
4.0
 40
4.0
 10
124.621850554782
 20
-149.0985649583851
 10
124.621850554782
 20
-149.0985649583851
 10
123.7106227989334
 20
-149.0985649583851
 10
123.7106227989334
 20
-149.0985649583851
 10
123.7106227989334
 20
-149.0985649583851
 10
123.7106227989334
 20
-149.987055084031
 10
123.7106227989334
 20
-149.987055084031
 10
123.7106227989334
 20
-149.987055084031
 10
124.621850554782
 20
-149.987055084031
 10
124.621850554782
 20
-149.987055084031
 10
124.621850554782
 20
-149.987055084031
 10
124.621850554782
 20
-149.0985649583851
 10
124.621850554782
 20
-149.0985649583851
 97
        0
 97
        1
330
15C
 92
        1
 93
        1
 72
     4
 94
        3
 73
     0
 74
     0
 95
       53
 96
       49
 40
0.0
 40
0.0
 40
0.0
 40
0.0
 40
1.0
 40
1.0
 40
1.0
 40
2.0
 40
2.0
 40
2.0
 40
3.0
 40
3.0
 40
3.0
 40
4.0
 40
4.0
 40
4.0
 40
5.0
 40
5.0
 40
5.0
 40
6.0
 40
6.0
 40
6.0
 40
7.0
 40
7.0
 40
7.0
 40
8.0
 40
8.0
 40
8.0
 40
9.0
 40
9.0
 40
9.0
 40
10.0
 40
10.0
 40
10.0
 40
11.0
 40
11.0
 40
11.0
 40
12.0
 40
12.0
 40
12.0
 40
13.0
 40
13.0
 40
13.0
 40
14.0
 40
14.0
 40
14.0
 40
15.0
 40
15.0
 40
15.0
 40
16.0
 40
16.0
 40
16.0
 40
16.0
 10
124.6015244914191
 20
-150.3022813209313
 10
124.6087591919381
 20
-150.2578395891716
 10
124.6087591919381
 20
-150.2492268504585
 10
124.6142713447145
 20
-150.1751572975256
 10
124.6142713447145
 20
-150.1751572975256
 10
123.7126898562246
 20
-150.1751572975256
 10
123.7126898562246
 20
-150.1751572975256
 10
123.7126898562246
 20
-150.2068521759899
 10
123.7126898562246
 20
-150.2619737037539
 10
123.7161349517098
 20
-150.2978026968005
 10
123.7161349517098
 20
-150.2978026968005
 10
123.5052951080126
 20
-150.2978026968005
 10
123.5052951080126
 20
-150.2978026968005
 10
123.5108072607889
 20
-150.243025678585
 10
123.5201090185991
 20
-150.1520751577745
 10
123.5201090185991
 20
-150.0228840770776
 10
123.5218315663417
 20
-149.8179008957052
 10
123.5218315663417
 20
-149.7944742464055
 10
123.5218315663417
 20
-149.7710475971058
 10
123.5218315663417
 20
-149.7710475971058
 10
123.5218315663417
 20
-149.3311089036394
 10
123.5218315663417
 20
-149.3311089036394
 10
123.5218315663417
 20
-149.2656520894197
 10
123.5163194135654
 20
-148.9418131138062
 10
123.5125298085316
 20
-148.8870360955907
 10
123.621739335414
 20
-148.8994384393376
 10
123.8532497520228
 20
-148.9039170634685
 10
123.9683159412301
 20
-148.9039170634685
 10
123.9683159412301
 20
-148.9039170634685
 10
124.3662244697765
 20
-148.9039170634685
 10
124.3662244697765
 20
-148.9039170634685
 10
124.497827117313
 20
-148.9039170634685
 10
124.6938530504237
 20
-148.9018500061773
 10
124.8216660929265
 20
-148.8932372674642
 10
124.8144313924075
 20
-149.0031358134436
 10
124.8106417873737
 20
-149.2529052361243
 10
124.8106417873737
 20
-149.3714165208168
 10
124.8106417873737
 20
-149.3714165208168
 10
124.8106417873737
 20
-149.7903401318232
 10
124.8106417873737
 20
-149.7903401318232
 10
124.8106417873737
 20
-149.8327148062918
 10
124.8161539401501
 20
-150.014615847913
 10
124.8161539401501
 20
-150.0525118982507
 10
124.8182209974413
 20
-150.2027180614076
 10
124.8254556979603
 20
-150.2533609650408
 10
124.8330349080278
 20
-150.3022813209313
 10
124.8330349080278
 20
-150.3022813209313
 10
124.6015244914191
 20
-150.3022813209313
 10
124.6015244914191
 20
-150.3022813209313
 97
        0
 97
        1
330
15D
 75
     2
 76
     1
 98
        1
 10
0.0
 20
0.0
450
        0
451
        0
460
0.0
461
0.0
452
        0
462
0.0
453
        0
470

  0
SPLINE
  5
15F
330
156
100
AcDbEntity
  8
レイヤー 1
100
AcDbSpline
210
0.0
220
0.0
230
1.0
 70
     9
 71
     3
 72
    56
 73
    52
 74
     0
 42
0.0000000001
 43
0.0000000001
 40
0.0
 40
0.0
 40
0.0
 40
0.0
 40
1.0
 40
1.0
 40
1.0
 40
2.0
 40
2.0
 40
2.0
 40
3.0
 40
3.0
 40
3.0
 40
4.0
 40
4.0
 40
4.0
 40
5.0
 40
5.0
 40
5.0
 40
6.0
 40
6.0
 40
6.0
 40
7.0
 40
7.0
 40
7.0
 40
8.0
 40
8.0
 40
8.0
 40
9.0
 40
9.0
 40
9.0
 40
10.0
 40
10.0
 40
10.0
 40
11.0
 40
11.0
 40
11.0
 40
12.0
 40
12.0
 40
12.0
 40
13.0
 40
13.0
 40
13.0
 40
14.0
 40
14.0
 40
14.0
 40
15.0
 40
15.0
 40
15.0
 40
16.0
 40
16.0
 40
16.0
 40
17.0
 40
17.0
 40
17.0
 40
17.0
 10
126.3626573034787
 20
-150.3677381351511
 30
0.0
 10
126.19419213425
 20
-150.0590575796727
 30
0.0
 10
125.9685383799662
 20
-149.8537298887518
 30
0.0
 10
125.8886121647084
 20
-149.7882730745321
 30
0.0
 10
125.6312635319602
 20
-150.1265814511836
 30
0.0
 10
125.3777045042458
 20
-150.2788546716317
 30
0.0
 10
125.2037271822407
 20
-150.3718722497334
 30
0.0
 10
125.2037271822407
 20
-150.3718722497334
 30
0.0
 10
125.0645453246366
 20
-150.1837700362388
 30
0.0
 10
125.0645453246366
 20
-150.1837700362388
 30
0.0
 10
125.1554958454472
 20
-150.1475965336436
 30
0.0
 10
125.3425645302963
 20
-150.0714599234196
 30
0.0
 10
125.5461696734746
 20
-149.8854247672161
 30
0.0
 10
125.7776800900833
 20
-149.6738959044218
 30
0.0
 10
125.9406331065357
 20
-149.3862304314034
 30
0.0
 10
126.0481200856754
 20
-149.0730712517942
 30
0.0
 10
126.0481200856754
 20
-149.0730712517942
 30
0.0
 10
125.718424447737
 20
-149.0730712517942
 30
0.0
 10
125.718424447737
 20
-149.0730712517942
 30
0.0
 10
125.5850992524579
 20
-149.0730712517942
 30
0.0
 10
125.4018201726426
 20
-149.0772053663765
 30
0.0
 10
125.270217525106
 20
-149.0964979010939
 30
0.0
 10
125.270217525106
 20
-149.0964979010939
 30
0.0
 10
125.270217525106
 20
-148.8849690382996
 30
0.0
 10
125.270217525106
 20
-148.8849690382996
 30
0.0
 10
125.3294731674523
 20
-148.891170210173
 30
0.0
 10
125.5571939790274
 20
-148.9018500061773
 30
0.0
 10
125.6333305892514
 20
-148.9018500061773
 30
0.0
 10
125.6333305892514
 20
-148.9018500061773
 30
0.0
 10
125.9054931325861
 20
-148.9018500061773
 30
0.0
 10
125.9054931325861
 20
-148.9018500061773
 30
0.0
 10
126.0870496646588
 20
-148.9018500061773
 30
0.0
 10
126.1073757280217
 20
-148.8953043247553
 30
0.0
 10
126.1277017913847
 20
-148.891170210173
 30
0.0
 10
126.166631370368
 20
-148.8849690382996
 30
0.0
 10
126.1997042870264
 20
-148.8594753317087
 30
0.0
 10
126.2183078026468
 20
-148.842594363831
 30
0.0
 10
126.2183078026468
 20
-148.842594363831
 30
0.0
 10
126.3554226029597
 20
-149.0158826667391
 30
0.0
 10
126.3554226029597
 20
-149.0158826667391
 30
0.0
 10
126.3202826290102
 20
-149.0434434306211
 30
0.0
 10
126.3089138139089
 20
-149.0541232266253
 30
0.0
 10
126.2665391394403
 20
-149.089952219672
 30
0.0
 10
126.1535400075241
 20
-149.3376545850614
 30
0.0
 10
126.083260059625
 20
-149.4878607482183
 30
0.0
 10
125.9923095388144
 20
-149.6335882872443
 30
0.0
 10
126.2665391394403
 20
-149.8516628314607
 30
0.0
 10
126.4663546775848
 20
-150.1372612471879
 30
0.0
 10
126.5128634666357
 20
-150.2154649147031
 30
0.0
 10
126.5128634666357
 20
-150.2154649147031
 30
0.0
 10
126.3626573034787
 20
-150.3677381351511
 30
0.0
 10
126.3626573034787
 20
-150.3677381351511
 30
0.0
  0
HATCH
  5
160
330
156
100
AcDbEntity
  8
レイヤー 1
 62
   250
420
  2299925
440
 33554687
100
AcDbHatch
 10
0.0
 20
0.0
 30
0.0
210
0.0
220
0.0
230
1.0
  2
SOLID
 70
     1
 71
     1
 91
        1
 92
        1
 93
        1
 72
     4
 94
        3
 73
     0
 74
     0
 95
       56
 96
       52
 40
0.0
 40
0.0
 40
0.0
 40
0.0
 40
1.0
 40
1.0
 40
1.0
 40
2.0
 40
2.0
 40
2.0
 40
3.0
 40
3.0
 40
3.0
 40
4.0
 40
4.0
 40
4.0
 40
5.0
 40
5.0
 40
5.0
 40
6.0
 40
6.0
 40
6.0
 40
7.0
 40
7.0
 40
7.0
 40
8.0
 40
8.0
 40
8.0
 40
9.0
 40
9.0
 40
9.0
 40
10.0
 40
10.0
 40
10.0
 40
11.0
 40
11.0
 40
11.0
 40
12.0
 40
12.0
 40
12.0
 40
13.0
 40
13.0
 40
13.0
 40
14.0
 40
14.0
 40
14.0
 40
15.0
 40
15.0
 40
15.0
 40
16.0
 40
16.0
 40
16.0
 40
17.0
 40
17.0
 40
17.0
 40
17.0
 10
126.3626573034787
 20
-150.3677381351511
 10
126.19419213425
 20
-150.0590575796727
 10
125.9685383799662
 20
-149.8537298887518
 10
125.8886121647084
 20
-149.7882730745321
 10
125.6312635319602
 20
-150.1265814511836
 10
125.3777045042458
 20
-150.2788546716317
 10
125.2037271822407
 20
-150.3718722497334
 10
125.2037271822407
 20
-150.3718722497334
 10
125.0645453246366
 20
-150.1837700362388
 10
125.0645453246366
 20
-150.1837700362388
 10
125.1554958454472
 20
-150.1475965336436
 10
125.3425645302963
 20
-150.0714599234196
 10
125.5461696734746
 20
-149.8854247672161
 10
125.7776800900833
 20
-149.6738959044218
 10
125.9406331065357
 20
-149.3862304314034
 10
126.0481200856754
 20
-149.0730712517942
 10
126.0481200856754
 20
-149.0730712517942
 10
125.718424447737
 20
-149.0730712517942
 10
125.718424447737
 20
-149.0730712517942
 10
125.5850992524579
 20
-149.0730712517942
 10
125.4018201726426
 20
-149.0772053663765
 10
125.270217525106
 20
-149.0964979010939
 10
125.270217525106
 20
-149.0964979010939
 10
125.270217525106
 20
-148.8849690382996
 10
125.270217525106
 20
-148.8849690382996
 10
125.3294731674523
 20
-148.891170210173
 10
125.5571939790274
 20
-148.9018500061773
 10
125.6333305892514
 20
-148.9018500061773
 10
125.6333305892514
 20
-148.9018500061773
 10
125.9054931325861
 20
-148.9018500061773
 10
125.9054931325861
 20
-148.9018500061773
 10
126.0870496646588
 20
-148.9018500061773
 10
126.1073757280217
 20
-148.8953043247553
 10
126.1277017913847
 20
-148.891170210173
 10
126.166631370368
 20
-148.8849690382996
 10
126.1997042870264
 20
-148.8594753317087
 10
126.2183078026468
 20
-148.842594363831
 10
126.2183078026468
 20
-148.842594363831
 10
126.3554226029597
 20
-149.0158826667391
 10
126.3554226029597
 20
-149.0158826667391
 10
126.3202826290102
 20
-149.0434434306211
 10
126.3089138139089
 20
-149.0541232266253
 10
126.2665391394403
 20
-149.089952219672
 10
126.1535400075241
 20
-149.3376545850614
 10
126.083260059625
 20
-149.4878607482183
 10
125.9923095388144
 20
-149.6335882872443
 10
126.2665391394403
 20
-149.8516628314607
 10
126.4663546775848
 20
-150.1372612471879
 10
126.5128634666357
 20
-150.2154649147031
 10
126.5128634666357
 20
-150.2154649147031
 10
126.3626573034787
 20
-150.3677381351511
 10
126.3626573034787
 20
-150.3677381351511
 97
        0
 97
        1
330
15F
 75
     2
 76
     1
 98
        1
 10
0.0
 20
0.0
450
        0
451
        0
460
0.0
461
0.0
452
        0
462
0.0
453
        0
470

  0
SPLINE
  5
161
330
156
100
AcDbEntity
  8
レイヤー 1
100
AcDbSpline
210
0.0
220
0.0
230
1.0
 70
    11
 71
     3
 72
    17
 73
    13
 74
     0
 42
0.0000000001
 43
0.0000000001
 40
0.0
 40
0.0
 40
0.0
 40
0.0
 40
1.0
 40
1.0
 40
1.0
 40
2.0
 40
2.0
 40
2.0
 40
3.0
 40
3.0
 40
3.0
 40
4.0
 40
4.0
 40
4.0
 40
4.0
 10
128.0111354931708
 20
-149.3903645459857
 30
0.0
 10
128.0111354931708
 20
-149.3903645459857
 30
0.0
 10
127.6094373595907
 20
-149.3903645459857
 30
0.0
 10
127.6094373595907
 20
-149.3903645459857
 30
0.0
 10
127.6094373595907
 20
-149.3903645459857
 30
0.0
 10
127.6094373595907
 20
-149.6993896110126
 30
0.0
 10
127.6094373595907
 20
-149.6993896110126
 30
0.0
 10
127.6094373595907
 20
-149.6993896110126
 30
0.0
 10
128.0111354931708
 20
-149.6993896110126
 30
0.0
 10
128.0111354931708
 20
-149.6993896110126
 30
0.0
 10
128.0111354931708
 20
-149.6993896110126
 30
0.0
 10
128.0111354931708
 20
-149.3903645459857
 30
0.0
 10
128.0111354931708
 20
-149.3903645459857
 30
0.0
  0
SPLINE
  5
162
330
156
100
AcDbEntity
  8
レイヤー 1
100
AcDbSpline
210
0.0
220
0.0
230
1.0
 70
    11
 71
     3
 72
    17
 73
    13
 74
     0
 42
0.0000000001
 43
0.0000000001
 40
0.0
 40
0.0
 40
0.0
 40
0.0
 40
1.0
 40
1.0
 40
1.0
 40
2.0
 40
2.0
 40
2.0
 40
3.0
 40
3.0
 40
3.0
 40
4.0
 40
4.0
 40
4.0
 40
4.0
 10
128.0111354931708
 20
-148.918730974055
 30
0.0
 10
128.0111354931708
 20
-148.918730974055
 30
0.0
 10
127.6094373595907
 20
-148.918730974055
 30
0.0
 10
127.6094373595907
 20
-148.918730974055
 30
0.0
 10
127.6094373595907
 20
-148.918730974055
 30
0.0
 10
127.6094373595907
 20
-149.2232774149511
 30
0.0
 10
127.6094373595907
 20
-149.2232774149511
 30
0.0
 10
127.6094373595907
 20
-149.2232774149511
 30
0.0
 10
128.0111354931708
 20
-149.2232774149511
 30
0.0
 10
128.0111354931708
 20
-149.2232774149511
 30
0.0
 10
128.0111354931708
 20
-149.2232774149511
 30
0.0
 10
128.0111354931708
 20
-148.918730974055
 30
0.0
 10
128.0111354931708
 20
-148.918730974055
 30
0.0
  0
SPLINE
  5
163
330
156
100
AcDbEntity
  8
レイヤー 1
100
AcDbSpline
210
0.0
220
0.0
230
1.0
 70
    11
 71
     3
 72
    17
 73
    13
 74
     0
 42
0.0000000001
 43
0.0000000001
 40
0.0
 40
0.0
 40
0.0
 40
0.0
 40
1.0
 40
1.0
 40
1.0
 40
2.0
 40
2.0
 40
2.0
 40
3.0
 40
3.0
 40
3.0
 40
4.0
 40
4.0
 40
4.0
 40
4.0
 10
127.4426947381046
 20
-149.3903645459857
 30
0.0
 10
127.4426947381046
 20
-149.3903645459857
 30
0.0
 10
127.0592556105963
 20
-149.3903645459857
 30
0.0
 10
127.0592556105963
 20
-149.3903645459857
 30
0.0
 10
127.0592556105963
 20
-149.3903645459857
 30
0.0
 10
127.0592556105963
 20
-149.6993896110126
 30
0.0
 10
127.0592556105963
 20
-149.6993896110126
 30
0.0
 10
127.0592556105963
 20
-149.6993896110126
 30
0.0
 10
127.4426947381046
 20
-149.6993896110126
 30
0.0
 10
127.4426947381046
 20
-149.6993896110126
 30
0.0
 10
127.4426947381046
 20
-149.6993896110126
 30
0.0
 10
127.4426947381046
 20
-149.3903645459857
 30
0.0
 10
127.4426947381046
 20
-149.3903645459857
 30
0.0
  0
SPLINE
  5
164
330
156
100
AcDbEntity
  8
レイヤー 1
100
AcDbSpline
210
0.0
220
0.0
230
1.0
 70
    11
 71
     3
 72
    17
 73
    13
 74
     0
 42
0.0000000001
 43
0.0000000001
 40
0.0
 40
0.0
 40
0.0
 40
0.0
 40
1.0
 40
1.0
 40
1.0
 40
2.0
 40
2.0
 40
2.0
 40
3.0
 40
3.0
 40
3.0
 40
4.0
 40
4.0
 40
4.0
 40
4.0
 10
127.4426947381046
 20
-148.918730974055
 30
0.0
 10
127.4426947381046
 20
-148.918730974055
 30
0.0
 10
127.0592556105963
 20
-148.918730974055
 30
0.0
 10
127.0592556105963
 20
-148.918730974055
 30
0.0
 10
127.0592556105963
 20
-148.918730974055
 30
0.0
 10
127.0592556105963
 20
-149.2232774149511
 30
0.0
 10
127.0592556105963
 20
-149.2232774149511
 30
0.0
 10
127.0592556105963
 20
-149.2232774149511
 30
0.0
 10
127.4426947381046
 20
-149.2232774149511
 30
0.0
 10
127.4426947381046
 20
-149.2232774149511
 30
0.0
 10
127.4426947381046
 20
-149.2232774149511
 30
0.0
 10
127.4426947381046
 20
-148.918730974055
 30
0.0
 10
127.4426947381046
 20
-148.918730974055
 30
0.0
  0
SPLINE
  5
165
330
156
100
AcDbEntity
  8
レイヤー 1
100
AcDbSpline
210
0.0
220
0.0
230
1.0
 70
     9
 71
     3
 72
    77
 73
    73
 74
     0
 42
0.0000000001
 43
0.0000000001
 40
0.0
 40
0.0
 40
0.0
 40
0.0
 40
1.0
 40
1.0
 40
1.0
 40
2.0
 40
2.0
 40
2.0
 40
3.0
 40
3.0
 40
3.0
 40
4.0
 40
4.0
 40
4.0
 40
5.0
 40
5.0
 40
5.0
 40
6.0
 40
6.0
 40
6.0
 40
7.0
 40
7.0
 40
7.0
 40
8.0
 40
8.0
 40
8.0
 40
9.0
 40
9.0
 40
9.0
 40
10.0
 40
10.0
 40
10.0
 40
11.0
 40
11.0
 40
11.0
 40
12.0
 40
12.0
 40
12.0
 40
13.0
 40
13.0
 40
13.0
 40
14.0
 40
14.0
 40
14.0
 40
15.0
 40
15.0
 40
15.0
 40
16.0
 40
16.0
 40
16.0
 40
17.0
 40
17.0
 40
17.0
 40
18.0
 40
18.0
 40
18.0
 40
19.0
 40
19.0
 40
19.0
 40
20.0
 40
20.0
 40
20.0
 40
21.0
 40
21.0
 40
21.0
 40
22.0
 40
22.0
 40
22.0
 40
23.0
 40
23.0
 40
23.0
 40
24.0
 40
24.0
 40
24.0
 40
24.0
 10
128.1296467778634
 20
-150.5051974450126
 30
0.0
 10
128.0889946511375
 20
-150.5306911516034
 30
0.0
 10
127.979785124255
 20
-150.5434380048988
 30
0.0
 10
127.9112277240986
 20
-150.5434380048988
 30
0.0
 10
127.8998589089972
 20
-150.5434380048988
 30
0.0
 10
127.8778102978916
 20
-150.5434380048988
 30
0.0
 10
127.8481824767185
 20
-150.538959380768
 30
0.0
 10
127.8481824767185
 20
-150.538959380768
 30
0.0
 10
127.7630886182328
 20
-150.3126166073871
 30
0.0
 10
127.7630886182328
 20
-150.3126166073871
 30
0.0
 10
127.7889268343722
 20
-150.3191622888091
 30
0.0
 10
127.8388807189083
 20
-150.3274305179737
 30
0.0
 10
127.9408555452717
 20
-150.3274305179737
 30
0.0
 10
128.0094129454282
 20
-150.3274305179737
 30
0.0
 10
128.0111354931708
 20
-150.2854003530536
 30
0.0
 10
128.0111354931708
 20
-150.2282117679985
 30
0.0
 10
128.0111354931708
 20
-150.2282117679985
 30
0.0
 10
128.0111354931708
 20
-149.8792235953427
 30
0.0
 10
128.0111354931708
 20
-149.8792235953427
 30
0.0
 10
128.0111354931708
 20
-149.8792235953427
 30
0.0
 10
127.6094373595907
 20
-149.8792235953427
 30
0.0
 10
127.6094373595907
 20
-149.8792235953427
 30
0.0
 10
127.6111599073333
 20
-150.0166829052041
 30
0.0
 10
127.6128824550759
 20
-150.2154649147031
 30
0.0
 10
127.6187391174008
 20
-150.3487901099822
 30
0.0
 10
127.6204616651435
 20
-150.3763508738642
 30
0.0
 10
127.6204616651435
 20
-150.4207926056239
 30
0.0
 10
127.6314859706963
 20
-150.4821153052614
 30
0.0
 10
127.6314859706963
 20
-150.4821153052614
 30
0.0
 10
127.4203016174505
 20
-150.4821153052614
 30
0.0
 10
127.4203016174505
 20
-150.4821153052614
 30
0.0
 10
127.4426947381046
 20
-150.3570583391468
 30
0.0
 10
127.4426947381046
 20
-150.0166829052041
 30
0.0
 10
127.4426947381046
 20
-149.8792235953427
 30
0.0
 10
127.4426947381046
 20
-149.8792235953427
 30
0.0
 10
127.055810515111
 20
-149.8792235953427
 30
0.0
 10
127.055810515111
 20
-149.8792235953427
 30
0.0
 10
127.0351399421995
 20
-150.0862738340062
 30
0.0
 10
126.9779513571444
 20
-150.3549912818557
 30
0.0
 10
126.8056965828819
 20
-150.538959380768
 30
0.0
 10
126.8056965828819
 20
-150.538959380768
 30
0.0
 10
126.6410210186869
 20
-150.4163139814931
 30
0.0
 10
126.6410210186869
 20
-150.4163139814931
 30
0.0
 10
126.862885167937
 20
-150.1965168895342
 30
0.0
 10
126.8907904413676
 20
-149.8644096847561
 30
0.0
 10
126.8907904413676
 20
-149.532302479978
 30
0.0
 10
126.8907904413676
 20
-149.532302479978
 30
0.0
 10
126.8907904413676
 20
-149.0964979010939
 30
0.0
 10
126.8907904413676
 20
-149.0964979010939
 30
0.0
 10
126.8907904413676
 20
-149.0603243984988
 30
0.0
 10
126.8890678936249
 20
-148.8277804532444
 30
0.0
 10
126.8814886835574
 20
-148.7261501364296
 30
0.0
 10
127.0037895732837
 20
-148.7368299324338
 30
0.0
 10
127.2149739265296
 20
-148.7368299324338
 30
0.0
 10
127.3407199117412
 20
-148.7368299324338
 30
0.0
 10
127.3407199117412
 20
-148.7368299324338
 30
0.0
 10
127.7427625548698
 20
-148.7368299324338
 30
0.0
 10
127.7427625548698
 20
-148.7368299324338
 30
0.0
 10
127.7555094081653
 20
-148.7368299324338
 30
0.0
 10
128.0610893777069
 20
-148.7368299324338
 30
0.0
 10
128.1999267257625
 20
-148.7261501364296
 30
0.0
 10
128.1982041780199
 20
-148.7790323521281
 30
0.0
 10
128.1926920252435
 20
-148.939746056515
 30
0.0
 10
128.1926920252435
 20
-148.9907334696968
 30
0.0
 10
128.1926920252435
 20
-148.9907334696968
 30
0.0
 10
128.1926920252435
 20
-149.5977592941978
 30
0.0
 10
128.1926920252435
 20
-149.5977592941978
 30
0.0
 10
128.1926920252435
 20
-149.6167073193666
 30
0.0
 10
128.2019937830536
 20
-150.1879041508211
 30
0.0
 10
128.2019937830536
 20
-150.3002142636402
 30
0.0
 10
128.2019937830536
 20
-150.3570583391468
 30
0.0
 10
128.2019937830536
 20
-150.4586886559617
 30
0.0
 10
128.1296467778634
 20
-150.5051974450126
 30
0.0
  0
HATCH
  5
166
330
156
100
AcDbEntity
  8
レイヤー 1
 62
   250
420
  2299925
440
 33554687
100
AcDbHatch
 10
0.0
 20
0.0
 30
0.0
210
0.0
220
0.0
230
1.0
  2
SOLID
 70
     1
 71
     1
 91
        5
 92
        1
 93
        1
 72
     4
 94
        3
 73
     0
 74
     0
 95
       17
 96
       13
 40
0.0
 40
0.0
 40
0.0
 40
0.0
 40
1.0
 40
1.0
 40
1.0
 40
2.0
 40
2.0
 40
2.0
 40
3.0
 40
3.0
 40
3.0
 40
4.0
 40
4.0
 40
4.0
 40
4.0
 10
128.0111354931708
 20
-149.3903645459857
 10
128.0111354931708
 20
-149.3903645459857
 10
127.6094373595907
 20
-149.3903645459857
 10
127.6094373595907
 20
-149.3903645459857
 10
127.6094373595907
 20
-149.3903645459857
 10
127.6094373595907
 20
-149.6993896110126
 10
127.6094373595907
 20
-149.6993896110126
 10
127.6094373595907
 20
-149.6993896110126
 10
128.0111354931708
 20
-149.6993896110126
 10
128.0111354931708
 20
-149.6993896110126
 10
128.0111354931708
 20
-149.6993896110126
 10
128.0111354931708
 20
-149.3903645459857
 10
128.0111354931708
 20
-149.3903645459857
 97
        0
 97
        1
330
161
 92
        1
 93
        1
 72
     4
 94
        3
 73
     0
 74
     0
 95
       17
 96
       13
 40
0.0
 40
0.0
 40
0.0
 40
0.0
 40
1.0
 40
1.0
 40
1.0
 40
2.0
 40
2.0
 40
2.0
 40
3.0
 40
3.0
 40
3.0
 40
4.0
 40
4.0
 40
4.0
 40
4.0
 10
128.0111354931708
 20
-148.918730974055
 10
128.0111354931708
 20
-148.918730974055
 10
127.6094373595907
 20
-148.918730974055
 10
127.6094373595907
 20
-148.918730974055
 10
127.6094373595907
 20
-148.918730974055
 10
127.6094373595907
 20
-149.2232774149511
 10
127.6094373595907
 20
-149.2232774149511
 10
127.6094373595907
 20
-149.2232774149511
 10
128.0111354931708
 20
-149.2232774149511
 10
128.0111354931708
 20
-149.2232774149511
 10
128.0111354931708
 20
-149.2232774149511
 10
128.0111354931708
 20
-148.918730974055
 10
128.0111354931708
 20
-148.918730974055
 97
        0
 97
        1
330
162
 92
        1
 93
        1
 72
     4
 94
        3
 73
     0
 74
     0
 95
       17
 96
       13
 40
0.0
 40
0.0
 40
0.0
 40
0.0
 40
1.0
 40
1.0
 40
1.0
 40
2.0
 40
2.0
 40
2.0
 40
3.0
 40
3.0
 40
3.0
 40
4.0
 40
4.0
 40
4.0
 40
4.0
 10
127.4426947381046
 20
-149.3903645459857
 10
127.4426947381046
 20
-149.3903645459857
 10
127.0592556105963
 20
-149.3903645459857
 10
127.0592556105963
 20
-149.3903645459857
 10
127.0592556105963
 20
-149.3903645459857
 10
127.0592556105963
 20
-149.6993896110126
 10
127.0592556105963
 20
-149.6993896110126
 10
127.0592556105963
 20
-149.6993896110126
 10
127.4426947381046
 20
-149.6993896110126
 10
127.4426947381046
 20
-149.6993896110126
 10
127.4426947381046
 20
-149.6993896110126
 10
127.4426947381046
 20
-149.3903645459857
 10
127.4426947381046
 20
-149.3903645459857
 97
        0
 97
        1
330
163
 92
        1
 93
        1
 72
     4
 94
        3
 73
     0
 74
     0
 95
       17
 96
       13
 40
0.0
 40
0.0
 40
0.0
 40
0.0
 40
1.0
 40
1.0
 40
1.0
 40
2.0
 40
2.0
 40
2.0
 40
3.0
 40
3.0
 40
3.0
 40
4.0
 40
4.0
 40
4.0
 40
4.0
 10
127.4426947381046
 20
-148.918730974055
 10
127.4426947381046
 20
-148.918730974055
 10
127.0592556105963
 20
-148.918730974055
 10
127.0592556105963
 20
-148.918730974055
 10
127.0592556105963
 20
-148.918730974055
 10
127.0592556105963
 20
-149.2232774149511
 10
127.0592556105963
 20
-149.2232774149511
 10
127.0592556105963
 20
-149.2232774149511
 10
127.4426947381046
 20
-149.2232774149511
 10
127.4426947381046
 20
-149.2232774149511
 10
127.4426947381046
 20
-149.2232774149511
 10
127.4426947381046
 20
-148.918730974055
 10
127.4426947381046
 20
-148.918730974055
 97
        0
 97
        1
330
164
 92
        1
 93
        1
 72
     4
 94
        3
 73
     0
 74
     0
 95
       77
 96
       73
 40
0.0
 40
0.0
 40
0.0
 40
0.0
 40
1.0
 40
1.0
 40
1.0
 40
2.0
 40
2.0
 40
2.0
 40
3.0
 40
3.0
 40
3.0
 40
4.0
 40
4.0
 40
4.0
 40
5.0
 40
5.0
 40
5.0
 40
6.0
 40
6.0
 40
6.0
 40
7.0
 40
7.0
 40
7.0
 40
8.0
 40
8.0
 40
8.0
 40
9.0
 40
9.0
 40
9.0
 40
10.0
 40
10.0
 40
10.0
 40
11.0
 40
11.0
 40
11.0
 40
12.0
 40
12.0
 40
12.0
 40
13.0
 40
13.0
 40
13.0
 40
14.0
 40
14.0
 40
14.0
 40
15.0
 40
15.0
 40
15.0
 40
16.0
 40
16.0
 40
16.0
 40
17.0
 40
17.0
 40
17.0
 40
18.0
 40
18.0
 40
18.0
 40
19.0
 40
19.0
 40
19.0
 40
20.0
 40
20.0
 40
20.0
 40
21.0
 40
21.0
 40
21.0
 40
22.0
 40
22.0
 40
22.0
 40
23.0
 40
23.0
 40
23.0
 40
24.0
 40
24.0
 40
24.0
 40
24.0
 10
128.1296467778634
 20
-150.5051974450126
 10
128.0889946511375
 20
-150.5306911516034
 10
127.979785124255
 20
-150.5434380048988
 10
127.9112277240986
 20
-150.5434380048988
 10
127.8998589089972
 20
-150.5434380048988
 10
127.8778102978916
 20
-150.5434380048988
 10
127.8481824767185
 20
-150.538959380768
 10
127.8481824767185
 20
-150.538959380768
 10
127.7630886182328
 20
-150.3126166073871
 10
127.7630886182328
 20
-150.3126166073871
 10
127.7889268343722
 20
-150.3191622888091
 10
127.8388807189083
 20
-150.3274305179737
 10
127.9408555452717
 20
-150.3274305179737
 10
128.0094129454282
 20
-150.3274305179737
 10
128.0111354931708
 20
-150.2854003530536
 10
128.0111354931708
 20
-150.2282117679985
 10
128.0111354931708
 20
-150.2282117679985
 10
128.0111354931708
 20
-149.8792235953427
 10
128.0111354931708
 20
-149.8792235953427
 10
128.0111354931708
 20
-149.8792235953427
 10
127.6094373595907
 20
-149.8792235953427
 10
127.6094373595907
 20
-149.8792235953427
 10
127.6111599073333
 20
-150.0166829052041
 10
127.6128824550759
 20
-150.2154649147031
 10
127.6187391174008
 20
-150.3487901099822
 10
127.6204616651435
 20
-150.3763508738642
 10
127.6204616651435
 20
-150.4207926056239
 10
127.6314859706963
 20
-150.4821153052614
 10
127.6314859706963
 20
-150.4821153052614
 10
127.4203016174505
 20
-150.4821153052614
 10
127.4203016174505
 20
-150.4821153052614
 10
127.4426947381046
 20
-150.3570583391468
 10
127.4426947381046
 20
-150.0166829052041
 10
127.4426947381046
 20
-149.8792235953427
 10
127.4426947381046
 20
-149.8792235953427
 10
127.055810515111
 20
-149.8792235953427
 10
127.055810515111
 20
-149.8792235953427
 10
127.0351399421995
 20
-150.0862738340062
 10
126.9779513571444
 20
-150.3549912818557
 10
126.8056965828819
 20
-150.538959380768
 10
126.8056965828819
 20
-150.538959380768
 10
126.6410210186869
 20
-150.4163139814931
 10
126.6410210186869
 20
-150.4163139814931
 10
126.862885167937
 20
-150.1965168895342
 10
126.8907904413676
 20
-149.8644096847561
 10
126.8907904413676
 20
-149.532302479978
 10
126.8907904413676
 20
-149.532302479978
 10
126.8907904413676
 20
-149.0964979010939
 10
126.8907904413676
 20
-149.0964979010939
 10
126.8907904413676
 20
-149.0603243984988
 10
126.8890678936249
 20
-148.8277804532444
 10
126.8814886835574
 20
-148.7261501364296
 10
127.0037895732837
 20
-148.7368299324338
 10
127.2149739265296
 20
-148.7368299324338
 10
127.3407199117412
 20
-148.7368299324338
 10
127.3407199117412
 20
-148.7368299324338
 10
127.7427625548698
 20
-148.7368299324338
 10
127.7427625548698
 20
-148.7368299324338
 10
127.7555094081653
 20
-148.7368299324338
 10
128.0610893777069
 20
-148.7368299324338
 10
128.1999267257625
 20
-148.7261501364296
 10
128.1982041780199
 20
-148.7790323521281
 10
128.1926920252435
 20
-148.939746056515
 10
128.1926920252435
 20
-148.9907334696968
 10
128.1926920252435
 20
-148.9907334696968
 10
128.1926920252435
 20
-149.5977592941978
 10
128.1926920252435
 20
-149.5977592941978
 10
128.1926920252435
 20
-149.6167073193666
 10
128.2019937830536
 20
-150.1879041508211
 10
128.2019937830536
 20
-150.3002142636402
 10
128.2019937830536
 20
-150.3570583391468
 10
128.2019937830536
 20
-150.4586886559617
 10
128.1296467778634
 20
-150.5051974450126
 97
        0
 97
        1
330
165
 75
     2
 76
     1
 98
        1
 10
0.0
 20
0.0
450
        0
451
        0
460
0.0
461
0.0
452
        0
462
0.0
453
        0
470

  0
SPLINE
  5
167
330
156
100
AcDbEntity
  8
レイヤー 1
100
AcDbSpline
210
0.0
220
0.0
230
1.0
 70
     9
 71
     3
 72
    17
 73
    13
 74
     0
 42
0.0000000001
 43
0.0000000001
 40
0.0
 40
0.0
 40
0.0
 40
0.0
 40
1.0
 40
1.0
 40
1.0
 40
2.0
 40
2.0
 40
2.0
 40
3.0
 40
3.0
 40
3.0
 40
4.0
 40
4.0
 40
4.0
 40
4.0
 10
123.3516438493704
 20
-151.2662190377042
 30
0.0
 10
123.3034125125769
 20
-151.2662190377042
 30
0.0
 10
123.2644829335936
 20
-151.310660769464
 30
0.0
 10
123.2644829335936
 20
-151.365782297228
 30
0.0
 10
123.2644829335936
 20
-151.4226263727346
 30
0.0
 10
123.3034125125769
 20
-151.4715467286252
 30
0.0
 10
123.3554334544042
 20
-151.4715467286252
 30
0.0
 10
123.4071098866829
 20
-151.4715467286252
 30
0.0
 10
123.4422498606325
 20
-151.4205593154435
 30
0.0
 10
123.4422498606325
 20
-151.3678493545191
 30
0.0
 10
123.4422498606325
 20
-151.310660769464
 30
0.0
 10
123.4015977339065
 20
-151.2662190377042
 30
0.0
 10
123.3516438493704
 20
-151.2662190377042
 30
0.0
  0
SPLINE
  5
168
330
156
100
AcDbEntity
  8
レイヤー 1
100
AcDbSpline
210
0.0
220
0.0
230
1.0
 70
     9
 71
     3
 72
    17
 73
    13
 74
     0
 42
0.0000000001
 43
0.0000000001
 40
0.0
 40
0.0
 40
0.0
 40
0.0
 40
1.0
 40
1.0
 40
1.0
 40
2.0
 40
2.0
 40
2.0
 40
3.0
 40
3.0
 40
3.0
 40
4.0
 40
4.0
 40
4.0
 40
4.0
 10
123.353366397113
 20
-151.5962591851912
 30
0.0
 10
123.242434322488
 20
-151.5962591851912
 30
0.0
 10
123.1535508589685
 20
-151.4946288683763
 30
0.0
 10
123.1535508589685
 20
-151.3678493545191
 30
0.0
 10
123.1535508589685
 20
-151.2407253311134
 30
0.0
 10
123.242434322488
 20
-151.1370279570074
 30
0.0
 10
123.353366397113
 20
-151.1370279570074
 30
0.0
 10
123.4646429812866
 20
-151.1370279570074
 30
0.0
 10
123.5552489925487
 20
-151.2407253311134
 30
0.0
 10
123.5552489925487
 20
-151.3678493545191
 30
0.0
 10
123.5552489925487
 20
-151.4946288683763
 30
0.0
 10
123.4646429812866
 20
-151.5962591851912
 30
0.0
 10
123.353366397113
 20
-151.5962591851912
 30
0.0
  0
SPLINE
  5
169
330
156
100
AcDbEntity
  8
レイヤー 1
100
AcDbSpline
210
0.0
220
0.0
230
1.0
 70
     9
 71
     3
 72
    44
 73
    40
 74
     0
 42
0.0000000001
 43
0.0000000001
 40
0.0
 40
0.0
 40
0.0
 40
0.0
 40
1.0
 40
1.0
 40
1.0
 40
2.0
 40
2.0
 40
2.0
 40
3.0
 40
3.0
 40
3.0
 40
4.0
 40
4.0
 40
4.0
 40
5.0
 40
5.0
 40
5.0
 40
6.0
 40
6.0
 40
6.0
 40
7.0
 40
7.0
 40
7.0
 40
8.0
 40
8.0
 40
8.0
 40
9.0
 40
9.0
 40
9.0
 40
10.0
 40
10.0
 40
10.0
 40
11.0
 40
11.0
 40
11.0
 40
12.0
 40
12.0
 40
12.0
 40
13.0
 40
13.0
 40
13.0
 40
13.0
 10
123.1700873172977
 20
-151.7950411946901
 30
0.0
 10
123.0719020959681
 20
-152.1633219020633
 30
0.0
 10
123.0274603642084
 20
-152.3217962943848
 30
0.0
 10
122.8552055899459
 20
-152.5715657170654
 30
0.0
 10
122.6943196307847
 20
-152.8020426050287
 30
0.0
 10
122.4869248825727
 20
-152.9880777612321
 30
0.0
 10
122.24232310312
 20
-153.0814398488824
 30
0.0
 10
122.24232310312
 20
-153.0814398488824
 30
0.0
 10
122.0738579338912
 20
-152.9016058645524
 30
0.0
 10
122.0738579338912
 20
-152.9016058645524
 30
0.0
 10
122.6350639884384
 20
-152.7493326441043
 30
0.0
 10
122.9237629901024
 20
-152.1929497232365
 30
0.0
 10
122.9795735369634
 20
-151.7526665202215
 30
0.0
 10
122.9795735369634
 20
-151.7526665202215
 30
0.0
 10
122.3091579555338
 20
-151.7526665202215
 30
0.0
 10
122.3091579555338
 20
-151.7526665202215
 30
0.0
 10
122.2275091925334
 20
-151.7526665202215
 30
0.0
 10
122.0666232333722
 20
-151.7571451443524
 30
0.0
 10
121.9295084330593
 20
-151.7760931695212
 30
0.0
 10
121.9295084330593
 20
-151.7760931695212
 30
0.0
 10
121.9295084330593
 20
-151.5559515680138
 30
0.0
 10
121.9295084330593
 20
-151.5559515680138
 30
0.0
 10
122.0053005337348
 20
-151.5773111600223
 30
0.0
 10
122.2257866447908
 20
-151.5773111600223
 30
0.0
 10
122.312603051019
 20
-151.5773111600223
 30
0.0
 10
122.312603051019
 20
-151.5773111600223
 30
0.0
 10
122.690530025751
 20
-151.5773111600223
 30
0.0
 10
122.690530025751
 20
-151.5773111600223
 30
0.0
 10
122.7273925474431
 20
-151.5773111600223
 30
0.0
 10
122.9330647479125
 20
-151.5748995931826
 30
0.0
 10
122.9664821741195
 20
-151.5686984213092
 30
0.0
 10
123.0033446958116
 20
-151.5624972494357
 30
0.0
 10
123.0054117531028
 20
-151.5604301921446
 30
0.0
 10
123.0591552426727
 20
-151.5201225749672
 30
0.0
 10
123.0591552426727
 20
-151.5201225749672
 30
0.0
 10
123.2238308068676
 20
-151.6744628527064
 30
0.0
 10
123.2238308068676
 20
-151.6744628527064
 30
0.0
 10
123.1979925907283
 20
-151.7040906738795
 30
0.0
 10
123.1849012278843
 20
-151.7357855523438
 30
0.0
 10
123.1700873172977
 20
-151.7950411946901
 30
0.0
  0
HATCH
  5
16A
330
156
100
AcDbEntity
  8
レイヤー 1
 62
   250
420
  2299925
440
 33554687
100
AcDbHatch
 10
0.0
 20
0.0
 30
0.0
210
0.0
220
0.0
230
1.0
  2
SOLID
 70
     1
 71
     1
 91
        3
 92
        1
 93
        1
 72
     4
 94
        3
 73
     0
 74
     0
 95
       17
 96
       13
 40
0.0
 40
0.0
 40
0.0
 40
0.0
 40
1.0
 40
1.0
 40
1.0
 40
2.0
 40
2.0
 40
2.0
 40
3.0
 40
3.0
 40
3.0
 40
4.0
 40
4.0
 40
4.0
 40
4.0
 10
123.3516438493704
 20
-151.2662190377042
 10
123.3034125125769
 20
-151.2662190377042
 10
123.2644829335936
 20
-151.310660769464
 10
123.2644829335936
 20
-151.365782297228
 10
123.2644829335936
 20
-151.4226263727346
 10
123.3034125125769
 20
-151.4715467286252
 10
123.3554334544042
 20
-151.4715467286252
 10
123.4071098866829
 20
-151.4715467286252
 10
123.4422498606325
 20
-151.4205593154435
 10
123.4422498606325
 20
-151.3678493545191
 10
123.4422498606325
 20
-151.310660769464
 10
123.4015977339065
 20
-151.2662190377042
 10
123.3516438493704
 20
-151.2662190377042
 97
        0
 97
        1
330
167
 92
        1
 93
        1
 72
     4
 94
        3
 73
     0
 74
     0
 95
       17
 96
       13
 40
0.0
 40
0.0
 40
0.0
 40
0.0
 40
1.0
 40
1.0
 40
1.0
 40
2.0
 40
2.0
 40
2.0
 40
3.0
 40
3.0
 40
3.0
 40
4.0
 40
4.0
 40
4.0
 40
4.0
 10
123.353366397113
 20
-151.5962591851912
 10
123.242434322488
 20
-151.5962591851912
 10
123.1535508589685
 20
-151.4946288683763
 10
123.1535508589685
 20
-151.3678493545191
 10
123.1535508589685
 20
-151.2407253311134
 10
123.242434322488
 20
-151.1370279570074
 10
123.353366397113
 20
-151.1370279570074
 10
123.4646429812866
 20
-151.1370279570074
 10
123.5552489925487
 20
-151.2407253311134
 10
123.5552489925487
 20
-151.3678493545191
 10
123.5552489925487
 20
-151.4946288683763
 10
123.4646429812866
 20
-151.5962591851912
 10
123.353366397113
 20
-151.5962591851912
 97
        0
 97
        1
330
168
 92
        1
 93
        1
 72
     4
 94
        3
 73
     0
 74
     0
 95
       44
 96
       40
 40
0.0
 40
0.0
 40
0.0
 40
0.0
 40
1.0
 40
1.0
 40
1.0
 40
2.0
 40
2.0
 40
2.0
 40
3.0
 40
3.0
 40
3.0
 40
4.0
 40
4.0
 40
4.0
 40
5.0
 40
5.0
 40
5.0
 40
6.0
 40
6.0
 40
6.0
 40
7.0
 40
7.0
 40
7.0
 40
8.0
 40
8.0
 40
8.0
 40
9.0
 40
9.0
 40
9.0
 40
10.0
 40
10.0
 40
10.0
 40
11.0
 40
11.0
 40
11.0
 40
12.0
 40
12.0
 40
12.0
 40
13.0
 40
13.0
 40
13.0
 40
13.0
 10
123.1700873172977
 20
-151.7950411946901
 10
123.0719020959681
 20
-152.1633219020633
 10
123.0274603642084
 20
-152.3217962943848
 10
122.8552055899459
 20
-152.5715657170654
 10
122.6943196307847
 20
-152.8020426050287
 10
122.4869248825727
 20
-152.9880777612321
 10
122.24232310312
 20
-153.0814398488824
 10
122.24232310312
 20
-153.0814398488824
 10
122.0738579338912
 20
-152.9016058645524
 10
122.0738579338912
 20
-152.9016058645524
 10
122.6350639884384
 20
-152.7493326441043
 10
122.9237629901024
 20
-152.1929497232365
 10
122.9795735369634
 20
-151.7526665202215
 10
122.9795735369634
 20
-151.7526665202215
 10
122.3091579555338
 20
-151.7526665202215
 10
122.3091579555338
 20
-151.7526665202215
 10
122.2275091925334
 20
-151.7526665202215
 10
122.0666232333722
 20
-151.7571451443524
 10
121.9295084330593
 20
-151.7760931695212
 10
121.9295084330593
 20
-151.7760931695212
 10
121.9295084330593
 20
-151.5559515680138
 10
121.9295084330593
 20
-151.5559515680138
 10
122.0053005337348
 20
-151.5773111600223
 10
122.2257866447908
 20
-151.5773111600223
 10
122.312603051019
 20
-151.5773111600223
 10
122.312603051019
 20
-151.5773111600223
 10
122.690530025751
 20
-151.5773111600223
 10
122.690530025751
 20
-151.5773111600223
 10
122.7273925474431
 20
-151.5773111600223
 10
122.9330647479125
 20
-151.5748995931826
 10
122.9664821741195
 20
-151.5686984213092
 10
123.0033446958116
 20
-151.5624972494357
 10
123.0054117531028
 20
-151.5604301921446
 10
123.0591552426727
 20
-151.5201225749672
 10
123.0591552426727
 20
-151.5201225749672
 10
123.2238308068676
 20
-151.6744628527064
 10
123.2238308068676
 20
-151.6744628527064
 10
123.1979925907283
 20
-151.7040906738795
 10
123.1849012278843
 20
-151.7357855523438
 10
123.1700873172977
 20
-151.7950411946901
 97
        0
 97
        1
330
169
 75
     2
 76
     1
 98
        1
 10
0.0
 20
0.0
450
        0
451
        0
460
0.0
461
0.0
452
        0
462
0.0
453
        0
470

  0
SPLINE
  5
16B
330
156
100
AcDbEntity
  8
レイヤー 1
100
AcDbSpline
210
0.0
220
0.0
230
1.0
 70
     9
 71
     3
 72
    29
 73
    25
 74
     0
 42
0.0000000001
 43
0.0000000001
 40
0.0
 40
0.0
 40
0.0
 40
0.0
 40
1.0
 40
1.0
 40
1.0
 40
2.0
 40
2.0
 40
2.0
 40
3.0
 40
3.0
 40
3.0
 40
4.0
 40
4.0
 40
4.0
 40
5.0
 40
5.0
 40
5.0
 40
6.0
 40
6.0
 40
6.0
 40
7.0
 40
7.0
 40
7.0
 40
8.0
 40
8.0
 40
8.0
 40
8.0
 10
124.4943820218278
 20
-151.4777479004986
 30
0.0
 10
124.4943820218278
 20
-151.4777479004986
 30
0.0
 10
124.1963812623537
 20
-151.4777479004986
 30
0.0
 10
124.1963812623537
 20
-151.4777479004986
 30
0.0
 10
124.0964734932814
 20
-151.4777479004986
 30
0.0
 10
123.994498666918
 20
-151.4818820150809
 30
0.0
 10
123.8945908978458
 20
-151.4966959256675
 30
0.0
 10
123.8945908978458
 20
-151.4966959256675
 30
0.0
 10
123.8945908978458
 20
-151.2872341201643
 30
0.0
 10
123.8945908978458
 20
-151.2872341201643
 30
0.0
 10
123.9982882719518
 20
-151.3020480307509
 30
0.0
 10
124.1502169828513
 20
-151.3065266548817
 30
0.0
 10
124.1963812623537
 20
-151.3065266548817
 30
0.0
 10
124.1963812623537
 20
-151.3065266548817
 30
0.0
 10
124.4943820218278
 20
-151.3065266548817
 30
0.0
 10
124.4943820218278
 20
-151.3065266548817
 30
0.0
 10
124.5963568481912
 20
-151.3065266548817
 30
0.0
 10
124.697987165006
 20
-151.3020480307509
 30
0.0
 10
124.7999619913694
 20
-151.2872341201643
 30
0.0
 10
124.7999619913694
 20
-151.2872341201643
 30
0.0
 10
124.7999619913694
 20
-151.4966959256675
 30
0.0
 10
124.7999619913694
 20
-151.4966959256675
 30
0.0
 10
124.6683593438329
 20
-151.4777479004986
 30
0.0
 10
124.5074733846717
 20
-151.4777479004986
 30
0.0
 10
124.4943820218278
 20
-151.4777479004986
 30
0.0
  0
SPLINE
  5
16C
330
156
100
AcDbEntity
  8
レイヤー 1
100
AcDbSpline
210
0.0
220
0.0
230
1.0
 70
     9
 71
     3
 72
    50
 73
    46
 74
     0
 42
0.0000000001
 43
0.0000000001
 40
0.0
 40
0.0
 40
0.0
 40
0.0
 40
1.0
 40
1.0
 40
1.0
 40
2.0
 40
2.0
 40
2.0
 40
3.0
 40
3.0
 40
3.0
 40
4.0
 40
4.0
 40
4.0
 40
5.0
 40
5.0
 40
5.0
 40
6.0
 40
6.0
 40
6.0
 40
7.0
 40
7.0
 40
7.0
 40
8.0
 40
8.0
 40
8.0
 40
9.0
 40
9.0
 40
9.0
 40
10.0
 40
10.0
 40
10.0
 40
11.0
 40
11.0
 40
11.0
 40
12.0
 40
12.0
 40
12.0
 40
13.0
 40
13.0
 40
13.0
 40
14.0
 40
14.0
 40
14.0
 40
15.0
 40
15.0
 40
15.0
 40
15.0
 10
124.9260524861296
 20
-152.104066259717
 30
0.0
 10
124.8574950859731
 20
-152.2814886772074
 30
0.0
 10
124.7389838012805
 20
-152.4888834254194
 30
0.0
 10
124.6184054592968
 20
-152.6287543021206
 30
0.0
 10
124.470266353431
 20
-152.7999755477375
 30
0.0
 10
124.3279839098902
 20
-152.8888590112569
 30
0.0
 10
124.0482421564879
 20
-153.0304524357007
 30
0.0
 10
124.0482421564879
 20
-153.0304524357007
 30
0.0
 10
123.9001030506222
 20
-152.8423502222061
 30
0.0
 10
123.9001030506222
 20
-152.8423502222061
 30
0.0
 10
124.0630560670745
 20
-152.8189235729064
 30
0.0
 10
124.2129177206829
 20
-152.7321071666781
 30
0.0
 10
124.346242915962
 20
-152.6263427352809
 30
0.0
 10
124.5760307848282
 20
-152.4444416936597
 30
0.0
 10
124.7427734063143
 20
-152.1312825140505
 30
0.0
 10
124.7851480807829
 20
-151.9493814724293
 30
0.0
 10
124.7851480807829
 20
-151.9493814724293
 30
0.0
 10
124.1981038100963
 20
-151.9493814724293
 30
0.0
 10
124.1981038100963
 20
-151.9493814724293
 30
0.0
 10
124.0592664620407
 20
-151.9493814724293
 30
0.0
 10
123.8036403770352
 20
-151.9579942111424
 30
0.0
 10
123.670315181756
 20
-151.9748751790202
 30
0.0
 10
123.670315181756
 20
-151.9748751790202
 30
0.0
 10
123.670315181756
 20
-151.7464653483481
 30
0.0
 10
123.670315181756
 20
-151.7464653483481
 30
0.0
 10
123.6999430029292
 20
-151.7526665202215
 30
0.0
 10
123.7223361235833
 20
-151.7592122016435
 30
0.0
 10
123.7685004030856
 20
-151.7633463162258
 30
0.0
 10
123.8573838666051
 20
-151.7695474880992
 30
0.0
 10
124.0296386408676
 20
-151.771959054939
 30
0.0
 10
124.1037081938004
 20
-151.771959054939
 30
0.0
 10
124.1037081938004
 20
-151.771959054939
 30
0.0
 10
124.546402963655
 20
-151.771959054939
 30
0.0
 10
124.546402963655
 20
-151.771959054939
 30
0.0
 10
124.6056586060013
 20
-151.771959054939
 30
0.0
 10
124.7334716485041
 20
-151.7674804308081
 30
0.0
 10
124.7868706285255
 20
-151.7612792589346
 30
0.0
 10
124.8499158759056
 20
-151.7526665202215
 30
0.0
 10
124.8740315443023
 20
-151.737852609635
 30
0.0
 10
124.9036593654754
 20
-151.7147704698838
 30
0.0
 10
124.9036593654754
 20
-151.7147704698838
 30
0.0
 10
125.0480088663074
 20
-151.8818576009184
 30
0.0
 10
125.0480088663074
 20
-151.8818576009184
 30
0.0
 10
124.9870306762185
 20
-151.9493814724293
 30
0.0
 10
124.9463785494925
 20
-152.0530788465353
 30
0.0
 10
124.9260524861296
 20
-152.104066259717
 30
0.0
  0
HATCH
  5
16D
330
156
100
AcDbEntity
  8
レイヤー 1
 62
   250
420
  2299925
440
 33554687
100
AcDbHatch
 10
0.0
 20
0.0
 30
0.0
210
0.0
220
0.0
230
1.0
  2
SOLID
 70
     1
 71
     1
 91
        2
 92
        1
 93
        1
 72
     4
 94
        3
 73
     0
 74
     0
 95
       29
 96
       25
 40
0.0
 40
0.0
 40
0.0
 40
0.0
 40
1.0
 40
1.0
 40
1.0
 40
2.0
 40
2.0
 40
2.0
 40
3.0
 40
3.0
 40
3.0
 40
4.0
 40
4.0
 40
4.0
 40
5.0
 40
5.0
 40
5.0
 40
6.0
 40
6.0
 40
6.0
 40
7.0
 40
7.0
 40
7.0
 40
8.0
 40
8.0
 40
8.0
 40
8.0
 10
124.4943820218278
 20
-151.4777479004986
 10
124.4943820218278
 20
-151.4777479004986
 10
124.1963812623537
 20
-151.4777479004986
 10
124.1963812623537
 20
-151.4777479004986
 10
124.0964734932814
 20
-151.4777479004986
 10
123.994498666918
 20
-151.4818820150809
 10
123.8945908978458
 20
-151.4966959256675
 10
123.8945908978458
 20
-151.4966959256675
 10
123.8945908978458
 20
-151.2872341201643
 10
123.8945908978458
 20
-151.2872341201643
 10
123.9982882719518
 20
-151.3020480307509
 10
124.1502169828513
 20
-151.3065266548817
 10
124.1963812623537
 20
-151.3065266548817
 10
124.1963812623537
 20
-151.3065266548817
 10
124.4943820218278
 20
-151.3065266548817
 10
124.4943820218278
 20
-151.3065266548817
 10
124.5963568481912
 20
-151.3065266548817
 10
124.697987165006
 20
-151.3020480307509
 10
124.7999619913694
 20
-151.2872341201643
 10
124.7999619913694
 20
-151.2872341201643
 10
124.7999619913694
 20
-151.4966959256675
 10
124.7999619913694
 20
-151.4966959256675
 10
124.6683593438329
 20
-151.4777479004986
 10
124.5074733846717
 20
-151.4777479004986
 10
124.4943820218278
 20
-151.4777479004986
 97
        0
 97
        1
330
16B
 92
        1
 93
        1
 72
     4
 94
        3
 73
     0
 74
     0
 95
       50
 96
       46
 40
0.0
 40
0.0
 40
0.0
 40
0.0
 40
1.0
 40
1.0
 40
1.0
 40
2.0
 40
2.0
 40
2.0
 40
3.0
 40
3.0
 40
3.0
 40
4.0
 40
4.0
 40
4.0
 40
5.0
 40
5.0
 40
5.0
 40
6.0
 40
6.0
 40
6.0
 40
7.0
 40
7.0
 40
7.0
 40
8.0
 40
8.0
 40
8.0
 40
9.0
 40
9.0
 40
9.0
 40
10.0
 40
10.0
 40
10.0
 40
11.0
 40
11.0
 40
11.0
 40
12.0
 40
12.0
 40
12.0
 40
13.0
 40
13.0
 40
13.0
 40
14.0
 40
14.0
 40
14.0
 40
15.0
 40
15.0
 40
15.0
 40
15.0
 10
124.9260524861296
 20
-152.104066259717
 10
124.8574950859731
 20
-152.2814886772074
 10
124.7389838012805
 20
-152.4888834254194
 10
124.6184054592968
 20
-152.6287543021206
 10
124.470266353431
 20
-152.7999755477375
 10
124.3279839098902
 20
-152.8888590112569
 10
124.0482421564879
 20
-153.0304524357007
 10
124.0482421564879
 20
-153.0304524357007
 10
123.9001030506222
 20
-152.8423502222061
 10
123.9001030506222
 20
-152.8423502222061
 10
124.0630560670745
 20
-152.8189235729064
 10
124.2129177206829
 20
-152.7321071666781
 10
124.346242915962
 20
-152.6263427352809
 10
124.5760307848282
 20
-152.4444416936597
 10
124.7427734063143
 20
-152.1312825140505
 10
124.7851480807829
 20
-151.9493814724293
 10
124.7851480807829
 20
-151.9493814724293
 10
124.1981038100963
 20
-151.9493814724293
 10
124.1981038100963
 20
-151.9493814724293
 10
124.0592664620407
 20
-151.9493814724293
 10
123.8036403770352
 20
-151.9579942111424
 10
123.670315181756
 20
-151.9748751790202
 10
123.670315181756
 20
-151.9748751790202
 10
123.670315181756
 20
-151.7464653483481
 10
123.670315181756
 20
-151.7464653483481
 10
123.6999430029292
 20
-151.7526665202215
 10
123.7223361235833
 20
-151.7592122016435
 10
123.7685004030856
 20
-151.7633463162258
 10
123.8573838666051
 20
-151.7695474880992
 10
124.0296386408676
 20
-151.771959054939
 10
124.1037081938004
 20
-151.771959054939
 10
124.1037081938004
 20
-151.771959054939
 10
124.546402963655
 20
-151.771959054939
 10
124.546402963655
 20
-151.771959054939
 10
124.6056586060013
 20
-151.771959054939
 10
124.7334716485041
 20
-151.7674804308081
 10
124.7868706285255
 20
-151.7612792589346
 10
124.8499158759056
 20
-151.7526665202215
 10
124.8740315443023
 20
-151.737852609635
 10
124.9036593654754
 20
-151.7147704698838
 10
124.9036593654754
 20
-151.7147704698838
 10
125.0480088663074
 20
-151.8818576009184
 10
125.0480088663074
 20
-151.8818576009184
 10
124.9870306762185
 20
-151.9493814724293
 10
124.9463785494925
 20
-152.0530788465353
 10
124.9260524861296
 20
-152.104066259717
 97
        0
 97
        1
330
16C
 75
     2
 76
     1
 98
        1
 10
0.0
 20
0.0
450
        0
451
        0
460
0.0
461
0.0
452
        0
462
0.0
453
        0
470

  0
SPLINE
  5
16E
330
156
100
AcDbEntity
  8
レイヤー 1
100
AcDbSpline
210
0.0
220
0.0
230
1.0
 70
     9
 71
     3
 72
    50
 73
    46
 74
     0
 42
0.0000000001
 43
0.0000000001
 40
0.0
 40
0.0
 40
0.0
 40
0.0
 40
1.0
 40
1.0
 40
1.0
 40
2.0
 40
2.0
 40
2.0
 40
3.0
 40
3.0
 40
3.0
 40
4.0
 40
4.0
 40
4.0
 40
5.0
 40
5.0
 40
5.0
 40
6.0
 40
6.0
 40
6.0
 40
7.0
 40
7.0
 40
7.0
 40
8.0
 40
8.0
 40
8.0
 40
9.0
 40
9.0
 40
9.0
 40
10.0
 40
10.0
 40
10.0
 40
11.0
 40
11.0
 40
11.0
 40
12.0
 40
12.0
 40
12.0
 40
13.0
 40
13.0
 40
13.0
 40
14.0
 40
14.0
 40
14.0
 40
15.0
 40
15.0
 40
15.0
 40
15.0
 10
126.4239800031162
 20
-151.462933989912
 30
0.0
 10
126.2407009233009
 20
-151.6765299099975
 30
0.0
 10
126.1780001854694
 20
-151.7485324056392
 30
0.0
 10
126.0536322384518
 20
-151.8670436903318
 30
0.0
 10
126.0536322384518
 20
-151.8670436903318
 30
0.0
 10
126.0536322384518
 20
-152.434106407204
 30
0.0
 10
126.0536322384518
 20
-152.434106407204
 30
0.0
 10
126.0536322384518
 20
-152.5843125703609
 30
0.0
 10
126.0594889007768
 20
-152.6032605955297
 30
0.0
 10
126.062933996262
 20
-152.7810275225686
 30
0.0
 10
126.0650010535532
 20
-152.9119411510081
 30
0.0
 10
126.0705132063296
 20
-152.9608615068987
 30
0.0
 10
126.076025359106
 20
-153.020117149245
 30
0.0
 10
126.076025359106
 20
-153.020117149245
 30
0.0
 10
125.8779323687041
 20
-153.020117149245
 30
0.0
 10
125.8779323687041
 20
-153.020117149245
 30
0.0
 10
125.8817219737379
 20
-152.9756754174852
 30
0.0
 10
125.8851670692231
 20
-152.9288221188858
 30
0.0
 10
125.8851670692231
 20
-152.9205538897212
 30
0.0
 10
125.8851670692231
 20
-152.8402831649149
 30
0.0
 10
125.8889566742569
 20
-152.4888834254194
 30
0.0
 10
125.8889566742569
 20
-152.4168809297777
 30
0.0
 10
125.8889566742569
 20
-152.4168809297777
 30
0.0
 10
125.8889566742569
 20
-152.0107041720667
 30
0.0
 10
125.8889566742569
 20
-152.0107041720667
 30
0.0
 10
125.7297932628384
 20
-152.1357611381813
 30
0.0
 10
125.5592610363185
 20
-152.2456596841608
 30
0.0
 10
125.3814941092796
 20
-152.3324760903891
 30
0.0
 10
125.3814941092796
 20
-152.3324760903891
 30
0.0
 10
125.2037271822407
 20
-152.1695230739368
 30
0.0
 10
125.2037271822407
 20
-152.1695230739368
 30
0.0
 10
125.3112141613805
 20
-152.1336940808902
 30
0.0
 10
125.5351453679217
 20
-152.0596245279573
 30
0.0
 10
125.8369357324296
 20
-151.8036539334032
 30
0.0
 10
126.0260714745699
 20
-151.6448350315332
 30
0.0
 10
126.1945366437986
 20
-151.4567328180386
 30
0.0
 10
126.3278618390778
 20
-151.2365912165311
 30
0.0
 10
126.3278618390778
 20
-151.2365912165311
 30
0.0
 10
126.4963270083065
 20
-151.3805962078146
 30
0.0
 10
126.4963270083065
 20
-151.3805962078146
 30
0.0
 10
126.5073513138593
 20
-151.3909314942703
 30
0.0
 10
126.5149305239268
 20
-151.4057454048569
 30
0.0
 10
126.5149305239268
 20
-151.4184922581523
 30
0.0
 10
126.5149305239268
 20
-151.4587998753297
 30
0.0
 10
126.4815130977199
 20
-151.4587998753297
 30
0.0
 10
126.4239800031162
 20
-151.462933989912
 30
0.0
  0
HATCH
  5
16F
330
156
100
AcDbEntity
  8
レイヤー 1
 62
   250
420
  2299925
440
 33554687
100
AcDbHatch
 10
0.0
 20
0.0
 30
0.0
210
0.0
220
0.0
230
1.0
  2
SOLID
 70
     1
 71
     1
 91
        1
 92
        1
 93
        1
 72
     4
 94
        3
 73
     0
 74
     0
 95
       50
 96
       46
 40
0.0
 40
0.0
 40
0.0
 40
0.0
 40
1.0
 40
1.0
 40
1.0
 40
2.0
 40
2.0
 40
2.0
 40
3.0
 40
3.0
 40
3.0
 40
4.0
 40
4.0
 40
4.0
 40
5.0
 40
5.0
 40
5.0
 40
6.0
 40
6.0
 40
6.0
 40
7.0
 40
7.0
 40
7.0
 40
8.0
 40
8.0
 40
8.0
 40
9.0
 40
9.0
 40
9.0
 40
10.0
 40
10.0
 40
10.0
 40
11.0
 40
11.0
 40
11.0
 40
12.0
 40
12.0
 40
12.0
 40
13.0
 40
13.0
 40
13.0
 40
14.0
 40
14.0
 40
14.0
 40
15.0
 40
15.0
 40
15.0
 40
15.0
 10
126.4239800031162
 20
-151.462933989912
 10
126.2407009233009
 20
-151.6765299099975
 10
126.1780001854694
 20
-151.7485324056392
 10
126.0536322384518
 20
-151.8670436903318
 10
126.0536322384518
 20
-151.8670436903318
 10
126.0536322384518
 20
-152.434106407204
 10
126.0536322384518
 20
-152.434106407204
 10
126.0536322384518
 20
-152.5843125703609
 10
126.0594889007768
 20
-152.6032605955297
 10
126.062933996262
 20
-152.7810275225686
 10
126.0650010535532
 20
-152.9119411510081
 10
126.0705132063296
 20
-152.9608615068987
 10
126.076025359106
 20
-153.020117149245
 10
126.076025359106
 20
-153.020117149245
 10
125.8779323687041
 20
-153.020117149245
 10
125.8779323687041
 20
-153.020117149245
 10
125.8817219737379
 20
-152.9756754174852
 10
125.8851670692231
 20
-152.9288221188858
 10
125.8851670692231
 20
-152.9205538897212
 10
125.8851670692231
 20
-152.8402831649149
 10
125.8889566742569
 20
-152.4888834254194
 10
125.8889566742569
 20
-152.4168809297777
 10
125.8889566742569
 20
-152.4168809297777
 10
125.8889566742569
 20
-152.0107041720667
 10
125.8889566742569
 20
-152.0107041720667
 10
125.7297932628384
 20
-152.1357611381813
 10
125.5592610363185
 20
-152.2456596841608
 10
125.3814941092796
 20
-152.3324760903891
 10
125.3814941092796
 20
-152.3324760903891
 10
125.2037271822407
 20
-152.1695230739368
 10
125.2037271822407
 20
-152.1695230739368
 10
125.3112141613805
 20
-152.1336940808902
 10
125.5351453679217
 20
-152.0596245279573
 10
125.8369357324296
 20
-151.8036539334032
 10
126.0260714745699
 20
-151.6448350315332
 10
126.1945366437986
 20
-151.4567328180386
 10
126.3278618390778
 20
-151.2365912165311
 10
126.3278618390778
 20
-151.2365912165311
 10
126.4963270083065
 20
-151.3805962078146
 10
126.4963270083065
 20
-151.3805962078146
 10
126.5073513138593
 20
-151.3909314942703
 10
126.5149305239268
 20
-151.4057454048569
 10
126.5149305239268
 20
-151.4184922581523
 10
126.5149305239268
 20
-151.4587998753297
 10
126.4815130977199
 20
-151.4587998753297
 10
126.4239800031162
 20
-151.462933989912
 97
        0
 97
        1
330
16E
 75
     2
 76
     1
 98
        1
 10
0.0
 20
0.0
450
        0
451
        0
460
0.0
461
0.0
452
        0
462
0.0
453
        0
470

  0
SPLINE
  5
170
330
156
100
AcDbEntity
  8
レイヤー 1
100
AcDbSpline
210
0.0
220
0.0
230
1.0
 70
     9
 71
     3
 72
    50
 73
    46
 74
     0
 42
0.0000000001
 43
0.0000000001
 40
0.0
 40
0.0
 40
0.0
 40
0.0
 40
1.0
 40
1.0
 40
1.0
 40
2.0
 40
2.0
 40
2.0
 40
3.0
 40
3.0
 40
3.0
 40
4.0
 40
4.0
 40
4.0
 40
5.0
 40
5.0
 40
5.0
 40
6.0
 40
6.0
 40
6.0
 40
7.0
 40
7.0
 40
7.0
 40
8.0
 40
8.0
 40
8.0
 40
9.0
 40
9.0
 40
9.0
 40
10.0
 40
10.0
 40
10.0
 40
11.0
 40
11.0
 40
11.0
 40
12.0
 40
12.0
 40
12.0
 40
13.0
 40
13.0
 40
13.0
 40
14.0
 40
14.0
 40
14.0
 40
15.0
 40
15.0
 40
15.0
 40
15.0
 10
127.9201849723602
 20
-151.9896890896067
 30
0.0
 10
127.8667859923388
 20
-152.0616915852484
 30
0.0
 10
127.6387206712153
 20
-152.3789848794399
 30
0.0
 10
127.5887667866792
 20
-152.4423746363686
 30
0.0
 10
127.662836339612
 20
-152.5398708386011
 30
0.0
 10
127.7072780713718
 20
-152.6032605955297
 30
0.0
 10
127.7648111659754
 20
-152.6942111163403
 30
0.0
 10
127.7648111659754
 20
-152.6942111163403
 30
0.0
 10
127.6035806972658
 20
-152.8316704262018
 30
0.0
 10
127.6035806972658
 20
-152.8316704262018
 30
0.0
 10
127.4850694125732
 20
-152.6201415634074
 30
0.0
 10
127.3352077589648
 20
-152.3958658473177
 30
0.0
 10
127.0778591262166
 20
-152.1970838378187
 30
0.0
 10
127.0778591262166
 20
-152.1970838378187
 30
0.0
 10
127.207394716462
 20
-152.0427435600796
 30
0.0
 10
127.207394716462
 20
-152.0427435600796
 30
0.0
 10
127.303857390049
 20
-152.1230142848859
 30
0.0
 10
127.3944634013111
 20
-152.2118977484053
 30
0.0
 10
127.4795572597968
 20
-152.3069823837982
 30
0.0
 10
127.5388129021431
 20
-152.2308457735742
 30
0.0
 10
127.7165798291819
 20
-151.9876220323156
 30
0.0
 10
127.8333685661319
 20
-151.7592122016435
 30
0.0
 10
127.8333685661319
 20
-151.7592122016435
 30
0.0
 10
127.2446017477027
 20
-151.7592122016435
 30
0.0
 10
127.2446017477027
 20
-151.7592122016435
 30
0.0
 10
127.1350477112718
 20
-151.7592122016435
 30
0.0
 10
126.9149061097643
 20
-151.7674804308081
 30
0.0
 10
126.731627029949
 20
-151.7781602268124
 30
0.0
 10
126.731627029949
 20
-151.7781602268124
 30
0.0
 10
126.731627029949
 20
-151.5580186253049
 30
0.0
 10
126.731627029949
 20
-151.5580186253049
 30
0.0
 10
126.8925129891102
 20
-151.5773111600223
 30
0.0
 10
127.0723469734402
 20
-151.5814452746046
 30
0.0
 10
127.2370225376352
 20
-151.5814452746046
 30
0.0
 10
127.2370225376352
 20
-151.5814452746046
 30
0.0
 10
127.6776502501986
 20
-151.5814452746046
 30
0.0
 10
127.6776502501986
 20
-151.5814452746046
 30
0.0
 10
127.9739284619301
 20
-151.5814452746046
 30
0.0
 10
128.0128580409134
 20
-151.566631364018
 30
0.0
 10
128.0852050461037
 20
-151.5263237468406
 30
0.0
 10
128.0852050461037
 20
-151.5263237468406
 30
0.0
 10
128.2312770946783
 20
-151.6851426487106
 30
0.0
 10
128.2312770946783
 20
-151.6851426487106
 30
0.0
 10
128.0979518993991
 20
-151.7571451443524
 30
0.0
 10
127.9722059141875
 20
-151.9197536512562
 30
0.0
 10
127.9201849723602
 20
-151.9896890896067
 30
0.0
  0
HATCH
  5
171
330
156
100
AcDbEntity
  8
レイヤー 1
 62
   250
420
  2299925
440
 33554687
100
AcDbHatch
 10
0.0
 20
0.0
 30
0.0
210
0.0
220
0.0
230
1.0
  2
SOLID
 70
     1
 71
     1
 91
        1
 92
        1
 93
        1
 72
     4
 94
        3
 73
     0
 74
     0
 95
       50
 96
       46
 40
0.0
 40
0.0
 40
0.0
 40
0.0
 40
1.0
 40
1.0
 40
1.0
 40
2.0
 40
2.0
 40
2.0
 40
3.0
 40
3.0
 40
3.0
 40
4.0
 40
4.0
 40
4.0
 40
5.0
 40
5.0
 40
5.0
 40
6.0
 40
6.0
 40
6.0
 40
7.0
 40
7.0
 40
7.0
 40
8.0
 40
8.0
 40
8.0
 40
9.0
 40
9.0
 40
9.0
 40
10.0
 40
10.0
 40
10.0
 40
11.0
 40
11.0
 40
11.0
 40
12.0
 40
12.0
 40
12.0
 40
13.0
 40
13.0
 40
13.0
 40
14.0
 40
14.0
 40
14.0
 40
15.0
 40
15.0
 40
15.0
 40
15.0
 10
127.9201849723602
 20
-151.9896890896067
 10
127.8667859923388
 20
-152.0616915852484
 10
127.6387206712153
 20
-152.3789848794399
 10
127.5887667866792
 20
-152.4423746363686
 10
127.662836339612
 20
-152.5398708386011
 10
127.7072780713718
 20
-152.6032605955297
 10
127.7648111659754
 20
-152.6942111163403
 10
127.7648111659754
 20
-152.6942111163403
 10
127.6035806972658
 20
-152.8316704262018
 10
127.6035806972658
 20
-152.8316704262018
 10
127.4850694125732
 20
-152.6201415634074
 10
127.3352077589648
 20
-152.3958658473177
 10
127.0778591262166
 20
-152.1970838378187
 10
127.0778591262166
 20
-152.1970838378187
 10
127.207394716462
 20
-152.0427435600796
 10
127.207394716462
 20
-152.0427435600796
 10
127.303857390049
 20
-152.1230142848859
 10
127.3944634013111
 20
-152.2118977484053
 10
127.4795572597968
 20
-152.3069823837982
 10
127.5388129021431
 20
-152.2308457735742
 10
127.7165798291819
 20
-151.9876220323156
 10
127.8333685661319
 20
-151.7592122016435
 10
127.8333685661319
 20
-151.7592122016435
 10
127.2446017477027
 20
-151.7592122016435
 10
127.2446017477027
 20
-151.7592122016435
 10
127.1350477112718
 20
-151.7592122016435
 10
126.9149061097643
 20
-151.7674804308081
 10
126.731627029949
 20
-151.7781602268124
 10
126.731627029949
 20
-151.7781602268124
 10
126.731627029949
 20
-151.5580186253049
 10
126.731627029949
 20
-151.5580186253049
 10
126.8925129891102
 20
-151.5773111600223
 10
127.0723469734402
 20
-151.5814452746046
 10
127.2370225376352
 20
-151.5814452746046
 10
127.2370225376352
 20
-151.5814452746046
 10
127.6776502501986
 20
-151.5814452746046
 10
127.6776502501986
 20
-151.5814452746046
 10
127.9739284619301
 20
-151.5814452746046
 10
128.0128580409134
 20
-151.566631364018
 10
128.0852050461037
 20
-151.5263237468406
 10
128.0852050461037
 20
-151.5263237468406
 10
128.2312770946783
 20
-151.6851426487106
 10
128.2312770946783
 20
-151.6851426487106
 10
128.0979518993991
 20
-151.7571451443524
 10
127.9722059141875
 20
-151.9197536512562
 10
127.9201849723602
 20
-151.9896890896067
 97
        0
 97
        1
330
170
 75
     2
 76
     1
 98
        1
 10
0.0
 20
0.0
450
        0
451
        0
460
0.0
461
0.0
452
        0
462
0.0
453
        0
470

  0
SPLINE
  5
172
330
156
100
AcDbEntity
  8
レイヤー 1
100
AcDbSpline
210
0.0
220
0.0
230
1.0
 70
     9
 71
     3
 72
    29
 73
    25
 74
     0
 42
0.0000000001
 43
0.0000000001
 40
0.0
 40
0.0
 40
0.0
 40
0.0
 40
1.0
 40
1.0
 40
1.0
 40
2.0
 40
2.0
 40
2.0
 40
3.0
 40
3.0
 40
3.0
 40
4.0
 40
4.0
 40
4.0
 40
5.0
 40
5.0
 40
5.0
 40
6.0
 40
6.0
 40
6.0
 40
7.0
 40
7.0
 40
7.0
 40
8.0
 40
8.0
 40
8.0
 40
8.0
 10
129.3426648982199
 20
-152.2329128308654
 30
0.0
 10
129.3426648982199
 20
-152.2329128308654
 30
0.0
 10
128.9185736439856
 20
-152.2329128308654
 30
0.0
 10
128.9185736439856
 20
-152.2329128308654
 30
0.0
 10
128.8944579755889
 20
-152.2329128308654
 30
0.0
 10
128.6164387699292
 20
-152.2329128308654
 30
0.0
 10
128.4314371423713
 20
-152.2584065374562
 30
0.0
 10
128.4314371423713
 20
-152.2584065374562
 30
0.0
 10
128.4314371423713
 20
-152.027929649493
 30
0.0
 10
128.4314371423713
 20
-152.027929649493
 30
0.0
 10
128.5702744904268
 20
-152.0510117892442
 30
0.0
 10
128.7370171119129
 20
-152.0530788465353
 30
0.0
 10
128.9185736439856
 20
-152.0530788465353
 30
0.0
 10
128.9185736439856
 20
-152.0530788465353
 30
0.0
 10
129.3426648982199
 20
-152.0530788465353
 30
0.0
 10
129.3426648982199
 20
-152.0530788465353
 30
0.0
 10
129.5052734051237
 20
-152.0530788465353
 30
0.0
 10
129.6685709311245
 20
-152.0510117892442
 30
0.0
 10
129.8294568902857
 20
-152.027929649493
 30
0.0
 10
129.8294568902857
 20
-152.027929649493
 30
0.0
 10
129.8294568902857
 20
-152.2584065374562
 30
0.0
 10
129.8294568902857
 20
-152.2584065374562
 30
0.0
 10
129.6685709311245
 20
-152.2349798881565
 30
0.0
 10
129.4518744251023
 20
-152.2329128308654
 30
0.0
 10
129.3426648982199
 20
-152.2329128308654
 30
0.0
  0
HATCH
  5
173
330
156
100
AcDbEntity
  8
レイヤー 1
 62
   250
420
  2299925
440
 33554687
100
AcDbHatch
 10
0.0
 20
0.0
 30
0.0
210
0.0
220
0.0
230
1.0
  2
SOLID
 70
     1
 71
     1
 91
        1
 92
        1
 93
        1
 72
     4
 94
        3
 73
     0
 74
     0
 95
       29
 96
       25
 40
0.0
 40
0.0
 40
0.0
 40
0.0
 40
1.0
 40
1.0
 40
1.0
 40
2.0
 40
2.0
 40
2.0
 40
3.0
 40
3.0
 40
3.0
 40
4.0
 40
4.0
 40
4.0
 40
5.0
 40
5.0
 40
5.0
 40
6.0
 40
6.0
 40
6.0
 40
7.0
 40
7.0
 40
7.0
 40
8.0
 40
8.0
 40
8.0
 40
8.0
 10
129.3426648982199
 20
-152.2329128308654
 10
129.3426648982199
 20
-152.2329128308654
 10
128.9185736439856
 20
-152.2329128308654
 10
128.9185736439856
 20
-152.2329128308654
 10
128.8944579755889
 20
-152.2329128308654
 10
128.6164387699292
 20
-152.2329128308654
 10
128.4314371423713
 20
-152.2584065374562
 10
128.4314371423713
 20
-152.2584065374562
 10
128.4314371423713
 20
-152.027929649493
 10
128.4314371423713
 20
-152.027929649493
 10
128.5702744904268
 20
-152.0510117892442
 10
128.7370171119129
 20
-152.0530788465353
 10
128.9185736439856
 20
-152.0530788465353
 10
128.9185736439856
 20
-152.0530788465353
 10
129.3426648982199
 20
-152.0530788465353
 10
129.3426648982199
 20
-152.0530788465353
 10
129.5052734051237
 20
-152.0530788465353
 10
129.6685709311245
 20
-152.0510117892442
 10
129.8294568902857
 20
-152.027929649493
 10
129.8294568902857
 20
-152.027929649493
 10
129.8294568902857
 20
-152.2584065374562
 10
129.8294568902857
 20
-152.2584065374562
 10
129.6685709311245
 20
-152.2349798881565
 10
129.4518744251023
 20
-152.2329128308654
 10
129.3426648982199
 20
-152.2329128308654
 97
        0
 97
        1
330
172
 75
     2
 76
     1
 98
        1
 10
0.0
 20
0.0
450
        0
451
        0
460
0.0
461
0.0
452
        0
462
0.0
453
        0
470

  0
SPLINE
  5
174
330
156
100
AcDbEntity
  8
レイヤー 1
100
AcDbSpline
210
0.0
220
0.0
230
1.0
 70
     9
 71
     3
 72
    20
 73
    16
 74
     0
 42
0.0000000001
 43
0.0000000001
 40
0.0
 40
0.0
 40
0.0
 40
0.0
 40
1.0
 40
1.0
 40
1.0
 40
2.0
 40
2.0
 40
2.0
 40
3.0
 40
3.0
 40
3.0
 40
4.0
 40
4.0
 40
4.0
 40
5.0
 40
5.0
 40
5.0
 40
5.0
 10
130.9184515731731
 20
-152.5843125703609
 30
0.0
 10
130.8777994464472
 20
-152.406545643322
 30
0.0
 10
130.7927055879615
 20
-152.2646077093297
 30
0.0
 10
130.6704046982352
 20
-152.1547091633502
 30
0.0
 10
130.6704046982352
 20
-152.1547091633502
 30
0.0
 10
130.8113091035819
 20
-152.0403319932399
 30
0.0
 10
130.8113091035819
 20
-152.0403319932399
 30
0.0
 10
130.8647080836032
 20
-152.0827066677085
 30
0.0
 10
130.9001925671013
 20
-152.1164686034639
 30
0.0
 10
130.9666829099666
 20
-152.2246446017008
 30
0.0
 10
131.0369628578657
 20
-152.3407443195537
 30
0.0
 10
131.0555663734861
 20
-152.3937987900265
 30
0.0
 10
131.0779594941402
 20
-152.4592556042463
 30
0.0
 10
131.0779594941402
 20
-152.4592556042463
 30
0.0
 10
130.9184515731731
 20
-152.5843125703609
 30
0.0
 10
130.9184515731731
 20
-152.5843125703609
 30
0.0
  0
SPLINE
  5
175
330
156
100
AcDbEntity
  8
レイヤー 1
100
AcDbSpline
210
0.0
220
0.0
230
1.0
 70
     9
 71
     3
 72
    77
 73
    73
 74
     0
 42
0.0000000001
 43
0.0000000001
 40
0.0
 40
0.0
 40
0.0
 40
0.0
 40
1.0
 40
1.0
 40
1.0
 40
2.0
 40
2.0
 40
2.0
 40
3.0
 40
3.0
 40
3.0
 40
4.0
 40
4.0
 40
4.0
 40
5.0
 40
5.0
 40
5.0
 40
6.0
 40
6.0
 40
6.0
 40
7.0
 40
7.0
 40
7.0
 40
8.0
 40
8.0
 40
8.0
 40
9.0
 40
9.0
 40
9.0
 40
10.0
 40
10.0
 40
10.0
 40
11.0
 40
11.0
 40
11.0
 40
12.0
 40
12.0
 40
12.0
 40
13.0
 40
13.0
 40
13.0
 40
14.0
 40
14.0
 40
14.0
 40
15.0
 40
15.0
 40
15.0
 40
16.0
 40
16.0
 40
16.0
 40
17.0
 40
17.0
 40
17.0
 40
18.0
 40
18.0
 40
18.0
 40
19.0
 40
19.0
 40
19.0
 40
20.0
 40
20.0
 40
20.0
 40
21.0
 40
21.0
 40
21.0
 40
22.0
 40
22.0
 40
22.0
 40
23.0
 40
23.0
 40
23.0
 40
24.0
 40
24.0
 40
24.0
 40
24.0
 10
131.5926567596365
 20
-151.8584309516187
 30
0.0
 10
131.5316785695476
 20
-151.8542968370364
 30
0.0
 10
131.4724229272013
 20
-151.8542968370364
 30
0.0
 10
131.413167284855
 20
-151.8542968370364
 30
0.0
 10
131.413167284855
 20
-151.8542968370364
 30
0.0
 10
131.413167284855
 20
-152.6287543021206
 30
0.0
 10
131.413167284855
 20
-152.6287543021206
 30
0.0
 10
131.413167284855
 20
-152.8929931258393
 30
0.0
 10
131.4111002275639
 20
-152.9226209470124
 30
0.0
 10
131.4055880747875
 20
-152.9522487681856
 30
0.0
 10
131.3759602536143
 20
-153.0855739634647
 30
0.0
 10
131.2870767900949
 20
-153.0938421926293
 30
0.0
 10
131.1334255314527
 20
-153.0938421926293
 30
0.0
 10
131.0982855575032
 20
-153.0938421926293
 30
0.0
 10
131.0834716469166
 20
-153.0938421926293
 30
0.0
 10
131.0483316729671
 20
-153.089708078047
 30
0.0
 10
131.0483316729671
 20
-153.089708078047
 30
0.0
 10
130.9391221460846
 20
-152.8485513940795
 30
0.0
 10
130.9391221460846
 20
-152.8485513940795
 30
0.0
 10
131.0407524628995
 20
-152.8802462725438
 30
0.0
 10
131.1130994680897
 20
-152.8802462725438
 30
0.0
 10
131.1334255314527
 20
-152.8802462725438
 30
0.0
 10
131.1944037215416
 20
-152.8802462725438
 30
0.0
 10
131.2240315427148
 20
-152.8633653046661
 30
0.0
 10
131.2278211477486
 20
-152.8061767196109
 30
0.0
 10
131.2278211477486
 20
-152.7934298663155
 30
0.0
 10
131.2295436954912
 20
-152.6962781736315
 30
0.0
 10
131.2295436954912
 20
-152.6390895885763
 30
0.0
 10
131.2295436954912
 20
-152.6390895885763
 30
0.0
 10
131.2295436954912
 20
-151.8522297797453
 30
0.0
 10
131.2295436954912
 20
-151.8522297797453
 30
0.0
 10
131.2295436954912
 20
-151.8522297797453
 30
0.0
 10
130.972195062743
 20
-151.8522297797453
 30
0.0
 10
130.972195062743
 20
-151.8522297797453
 30
0.0
 10
130.8443820202403
 20
-151.8522297797453
 30
0.0
 10
130.7165689777375
 20
-151.8584309516187
 30
0.0
 10
130.5908229925259
 20
-151.8711778049141
 30
0.0
 10
130.5908229925259
 20
-151.8711778049141
 30
0.0
 10
130.5908229925259
 20
-151.6637830567021
 30
0.0
 10
130.5908229925259
 20
-151.6637830567021
 30
0.0
 10
130.7224256400624
 20
-151.6765299099975
 30
0.0
 10
130.9129394203968
 20
-151.6810085341283
 30
0.0
 10
130.972195062743
 20
-151.6810085341283
 30
0.0
 10
130.972195062743
 20
-151.6810085341283
 30
0.0
 10
131.2295436954912
 20
-151.6810085341283
 30
0.0
 10
131.2295436954912
 20
-151.6810085341283
 30
0.0
 10
131.2278211477486
 20
-151.4122910862789
 30
0.0
 10
131.2278211477486
 20
-151.3361544760548
 30
0.0
 10
131.220241937681
 20
-151.1880153701891
 30
0.0
 10
131.220241937681
 20
-151.1880153701891
 30
0.0
 10
131.4462402015134
 20
-151.2259114205269
 30
0.0
 10
131.4462402015134
 20
-151.2259114205269
 30
0.0
 10
131.4593315643574
 20
-151.227978477818
 30
0.0
 10
131.4724229272013
 20
-151.23452415924
 30
0.0
 10
131.4724229272013
 20
-151.2555392417
 30
0.0
 10
131.4724229272013
 20
-151.2748317764174
 30
0.0
 10
131.4665662648764
 20
-151.2768988337086
 30
0.0
 10
131.4166123803403
 20
-151.310660769464
 30
0.0
 10
131.413167284855
 20
-151.3888644369792
 30
0.0
 10
131.413167284855
 20
-151.4036783475657
 30
0.0
 10
131.413167284855
 20
-151.6810085341283
 30
0.0
 10
131.5685410912398
 20
-151.6765299099975
 30
0.0
 10
131.585077549569
 20
-151.6765299099975
 30
0.0
 10
131.6147053707422
 20
-151.6723957954152
 30
0.0
 10
131.6591471025019
 20
-151.6682616808329
 30
0.0
 10
131.6629367075356
 20
-151.6661946235418
 30
0.0
 10
131.701866286519
 20
-151.6637830567021
 30
0.0
 10
131.701866286519
 20
-151.6637830567021
 30
0.0
 10
131.701866286519
 20
-151.8711778049141
 30
0.0
 10
131.701866286519
 20
-151.8711778049141
 30
0.0
 10
131.6760280703796
 20
-151.869110747623
 30
0.0
 10
131.6277967335861
 20
-151.8604980089099
 30
0.0
 10
131.5926567596365
 20
-151.8584309516187
 30
0.0
  0
SPLINE
  5
176
330
156
100
AcDbEntity
  8
レイヤー 1
100
AcDbSpline
210
0.0
220
0.0
230
1.0
 70
     9
 71
     3
 72
    53
 73
    49
 74
     0
 42
0.0000000001
 43
0.0000000001
 40
0.0
 40
0.0
 40
0.0
 40
0.0
 40
1.0
 40
1.0
 40
1.0
 40
2.0
 40
2.0
 40
2.0
 40
3.0
 40
3.0
 40
3.0
 40
4.0
 40
4.0
 40
4.0
 40
5.0
 40
5.0
 40
5.0
 40
6.0
 40
6.0
 40
6.0
 40
7.0
 40
7.0
 40
7.0
 40
8.0
 40
8.0
 40
8.0
 40
9.0
 40
9.0
 40
9.0
 40
10.0
 40
10.0
 40
10.0
 40
11.0
 40
11.0
 40
11.0
 40
12.0
 40
12.0
 40
12.0
 40
13.0
 40
13.0
 40
13.0
 40
14.0
 40
14.0
 40
14.0
 40
15.0
 40
15.0
 40
15.0
 40
16.0
 40
16.0
 40
16.0
 40
16.0
 10
130.5853108397495
 20
-151.359236615806
 30
0.0
 10
130.5260551974032
 20
-151.511509836254
 30
0.0
 10
130.4888481661625
 20
-151.5897135037692
 30
0.0
 10
130.4557752495041
 20
-151.6575818848286
 30
0.0
 10
130.4926377711963
 20
-151.6785969672887
 30
0.0
 10
130.49642737623
 20
-151.6810085341283
 30
0.0
 10
130.49642737623
 20
-151.6958224447149
 30
0.0
 10
130.49642737623
 20
-151.7082247884618
 30
0.0
 10
130.4667995550569
 20
-151.7423312337658
 30
0.0
 10
130.4574977972467
 20
-151.7505994629304
 30
0.0
 10
130.4557752495041
 20
-151.9473144151382
 30
0.0
 10
130.4557752495041
 20
-151.9686740071467
 30
0.0
 10
130.4557752495041
 20
-152.1019992024259
 30
0.0
 10
130.4537081922129
 20
-152.1144015461728
 30
0.0
 10
130.4537081922129
 20
-152.1292154567593
 30
0.0
 10
130.4537081922129
 20
-152.1440293673459
 30
0.0
 10
130.4537081922129
 20
-152.1440293673459
 30
0.0
 10
130.4537081922129
 20
-152.6793972057537
 30
0.0
 10
130.4537081922129
 20
-152.6793972057537
 30
0.0
 10
130.4537081922129
 20
-152.7513997013955
 30
0.0
 10
130.4574977972467
 20
-152.986010703941
 30
0.0
 10
130.4650770073143
 20
-153.096253759469
 30
0.0
 10
130.4650770073143
 20
-153.096253759469
 30
0.0
 10
130.2518255967773
 20
-153.096253759469
 30
0.0
 10
130.2518255967773
 20
-153.096253759469
 30
0.0
 10
130.2721516601403
 20
-152.937434857599
 30
0.0
 10
130.2780083224652
 20
-152.6962781736315
 30
0.0
 10
130.2780083224652
 20
-152.6752630911714
 30
0.0
 10
130.2780083224652
 20
-152.6752630911714
 30
0.0
 10
130.2780083224652
 20
-151.9579942111424
 30
0.0
 10
130.2780083224652
 20
-151.9579942111424
 30
0.0
 10
130.198426616756
 20
-152.0723713812527
 30
0.0
 10
130.144683127186
 20
-152.1312825140505
 30
0.0
 10
130.1074760959453
 20
-152.1736571885191
 30
0.0
 10
130.1074760959453
 20
-152.1736571885191
 30
0.0
 10
129.9407334744593
 20
-152.0361978786576
 30
0.0
 10
129.9407334744593
 20
-152.0361978786576
 30
0.0
 10
130.1870578016546
 20
-151.8205349012809
 30
0.0
 10
130.3555229708833
 20
-151.511509836254
 30
0.0
 10
130.4537081922129
 20
-151.1752685168937
 30
0.0
 10
130.4537081922129
 20
-151.1752685168937
 30
0.0
 10
130.6462890298384
 20
-151.289645687004
 30
0.0
 10
130.6462890298384
 20
-151.289645687004
 30
0.0
 10
130.6573133353912
 20
-151.2958468588774
 30
0.0
 10
130.6648925454587
 20
-151.2999809734597
 30
0.0
 10
130.6648925454587
 20
-151.3147948840463
 30
0.0
 10
130.6648925454587
 20
-151.3402885906371
 30
0.0
 10
130.6500786348722
 20
-151.3444227052194
 30
0.0
 10
130.5853108397495
 20
-151.359236615806
 30
0.0
  0
HATCH
  5
177
330
156
100
AcDbEntity
  8
レイヤー 1
 62
   250
420
  2299925
440
 33554687
100
AcDbHatch
 10
0.0
 20
0.0
 30
0.0
210
0.0
220
0.0
230
1.0
  2
SOLID
 70
     1
 71
     1
 91
        3
 92
        1
 93
        1
 72
     4
 94
        3
 73
     0
 74
     0
 95
       20
 96
       16
 40
0.0
 40
0.0
 40
0.0
 40
0.0
 40
1.0
 40
1.0
 40
1.0
 40
2.0
 40
2.0
 40
2.0
 40
3.0
 40
3.0
 40
3.0
 40
4.0
 40
4.0
 40
4.0
 40
5.0
 40
5.0
 40
5.0
 40
5.0
 10
130.9184515731731
 20
-152.5843125703609
 10
130.8777994464472
 20
-152.406545643322
 10
130.7927055879615
 20
-152.2646077093297
 10
130.6704046982352
 20
-152.1547091633502
 10
130.6704046982352
 20
-152.1547091633502
 10
130.8113091035819
 20
-152.0403319932399
 10
130.8113091035819
 20
-152.0403319932399
 10
130.8647080836032
 20
-152.0827066677085
 10
130.9001925671013
 20
-152.1164686034639
 10
130.9666829099666
 20
-152.2246446017008
 10
131.0369628578657
 20
-152.3407443195537
 10
131.0555663734861
 20
-152.3937987900265
 10
131.0779594941402
 20
-152.4592556042463
 10
131.0779594941402
 20
-152.4592556042463
 10
130.9184515731731
 20
-152.5843125703609
 10
130.9184515731731
 20
-152.5843125703609
 97
        0
 97
        1
330
174
 92
        1
 93
        1
 72
     4
 94
        3
 73
     0
 74
     0
 95
       77
 96
       73
 40
0.0
 40
0.0
 40
0.0
 40
0.0
 40
1.0
 40
1.0
 40
1.0
 40
2.0
 40
2.0
 40
2.0
 40
3.0
 40
3.0
 40
3.0
 40
4.0
 40
4.0
 40
4.0
 40
5.0
 40
5.0
 40
5.0
 40
6.0
 40
6.0
 40
6.0
 40
7.0
 40
7.0
 40
7.0
 40
8.0
 40
8.0
 40
8.0
 40
9.0
 40
9.0
 40
9.0
 40
10.0
 40
10.0
 40
10.0
 40
11.0
 40
11.0
 40
11.0
 40
12.0
 40
12.0
 40
12.0
 40
13.0
 40
13.0
 40
13.0
 40
14.0
 40
14.0
 40
14.0
 40
15.0
 40
15.0
 40
15.0
 40
16.0
 40
16.0
 40
16.0
 40
17.0
 40
17.0
 40
17.0
 40
18.0
 40
18.0
 40
18.0
 40
19.0
 40
19.0
 40
19.0
 40
20.0
 40
20.0
 40
20.0
 40
21.0
 40
21.0
 40
21.0
 40
22.0
 40
22.0
 40
22.0
 40
23.0
 40
23.0
 40
23.0
 40
24.0
 40
24.0
 40
24.0
 40
24.0
 10
131.5926567596365
 20
-151.8584309516187
 10
131.5316785695476
 20
-151.8542968370364
 10
131.4724229272013
 20
-151.8542968370364
 10
131.413167284855
 20
-151.8542968370364
 10
131.413167284855
 20
-151.8542968370364
 10
131.413167284855
 20
-152.6287543021206
 10
131.413167284855
 20
-152.6287543021206
 10
131.413167284855
 20
-152.8929931258393
 10
131.4111002275639
 20
-152.9226209470124
 10
131.4055880747875
 20
-152.9522487681856
 10
131.3759602536143
 20
-153.0855739634647
 10
131.2870767900949
 20
-153.0938421926293
 10
131.1334255314527
 20
-153.0938421926293
 10
131.0982855575032
 20
-153.0938421926293
 10
131.0834716469166
 20
-153.0938421926293
 10
131.0483316729671
 20
-153.089708078047
 10
131.0483316729671
 20
-153.089708078047
 10
130.9391221460846
 20
-152.8485513940795
 10
130.9391221460846
 20
-152.8485513940795
 10
131.0407524628995
 20
-152.8802462725438
 10
131.1130994680897
 20
-152.8802462725438
 10
131.1334255314527
 20
-152.8802462725438
 10
131.1944037215416
 20
-152.8802462725438
 10
131.2240315427148
 20
-152.8633653046661
 10
131.2278211477486
 20
-152.8061767196109
 10
131.2278211477486
 20
-152.7934298663155
 10
131.2295436954912
 20
-152.6962781736315
 10
131.2295436954912
 20
-152.6390895885763
 10
131.2295436954912
 20
-152.6390895885763
 10
131.2295436954912
 20
-151.8522297797453
 10
131.2295436954912
 20
-151.8522297797453
 10
131.2295436954912
 20
-151.8522297797453
 10
130.972195062743
 20
-151.8522297797453
 10
130.972195062743
 20
-151.8522297797453
 10
130.8443820202403
 20
-151.8522297797453
 10
130.7165689777375
 20
-151.8584309516187
 10
130.5908229925259
 20
-151.8711778049141
 10
130.5908229925259
 20
-151.8711778049141
 10
130.5908229925259
 20
-151.6637830567021
 10
130.5908229925259
 20
-151.6637830567021
 10
130.7224256400624
 20
-151.6765299099975
 10
130.9129394203968
 20
-151.6810085341283
 10
130.972195062743
 20
-151.6810085341283
 10
130.972195062743
 20
-151.6810085341283
 10
131.2295436954912
 20
-151.6810085341283
 10
131.2295436954912
 20
-151.6810085341283
 10
131.2278211477486
 20
-151.4122910862789
 10
131.2278211477486
 20
-151.3361544760548
 10
131.220241937681
 20
-151.1880153701891
 10
131.220241937681
 20
-151.1880153701891
 10
131.4462402015134
 20
-151.2259114205269
 10
131.4462402015134
 20
-151.2259114205269
 10
131.4593315643574
 20
-151.227978477818
 10
131.4724229272013
 20
-151.23452415924
 10
131.4724229272013
 20
-151.2555392417
 10
131.4724229272013
 20
-151.2748317764174
 10
131.4665662648764
 20
-151.2768988337086
 10
131.4166123803403
 20
-151.310660769464
 10
131.413167284855
 20
-151.3888644369792
 10
131.413167284855
 20
-151.4036783475657
 10
131.413167284855
 20
-151.6810085341283
 10
131.5685410912398
 20
-151.6765299099975
 10
131.585077549569
 20
-151.6765299099975
 10
131.6147053707422
 20
-151.6723957954152
 10
131.6591471025019
 20
-151.6682616808329
 10
131.6629367075356
 20
-151.6661946235418
 10
131.701866286519
 20
-151.6637830567021
 10
131.701866286519
 20
-151.6637830567021
 10
131.701866286519
 20
-151.8711778049141
 10
131.701866286519
 20
-151.8711778049141
 10
131.6760280703796
 20
-151.869110747623
 10
131.6277967335861
 20
-151.8604980089099
 10
131.5926567596365
 20
-151.8584309516187
 97
        0
 97
        1
330
175
 92
        1
 93
        1
 72
     4
 94
        3
 73
     0
 74
     0
 95
       53
 96
       49
 40
0.0
 40
0.0
 40
0.0
 40
0.0
 40
1.0
 40
1.0
 40
1.0
 40
2.0
 40
2.0
 40
2.0
 40
3.0
 40
3.0
 40
3.0
 40
4.0
 40
4.0
 40
4.0
 40
5.0
 40
5.0
 40
5.0
 40
6.0
 40
6.0
 40
6.0
 40
7.0
 40
7.0
 40
7.0
 40
8.0
 40
8.0
 40
8.0
 40
9.0
 40
9.0
 40
9.0
 40
10.0
 40
10.0
 40
10.0
 40
11.0
 40
11.0
 40
11.0
 40
12.0
 40
12.0
 40
12.0
 40
13.0
 40
13.0
 40
13.0
 40
14.0
 40
14.0
 40
14.0
 40
15.0
 40
15.0
 40
15.0
 40
16.0
 40
16.0
 40
16.0
 40
16.0
 10
130.5853108397495
 20
-151.359236615806
 10
130.5260551974032
 20
-151.511509836254
 10
130.4888481661625
 20
-151.5897135037692
 10
130.4557752495041
 20
-151.6575818848286
 10
130.4926377711963
 20
-151.6785969672887
 10
130.49642737623
 20
-151.6810085341283
 10
130.49642737623
 20
-151.6958224447149
 10
130.49642737623
 20
-151.7082247884618
 10
130.4667995550569
 20
-151.7423312337658
 10
130.4574977972467
 20
-151.7505994629304
 10
130.4557752495041
 20
-151.9473144151382
 10
130.4557752495041
 20
-151.9686740071467
 10
130.4557752495041
 20
-152.1019992024259
 10
130.4537081922129
 20
-152.1144015461728
 10
130.4537081922129
 20
-152.1292154567593
 10
130.4537081922129
 20
-152.1440293673459
 10
130.4537081922129
 20
-152.1440293673459
 10
130.4537081922129
 20
-152.6793972057537
 10
130.4537081922129
 20
-152.6793972057537
 10
130.4537081922129
 20
-152.7513997013955
 10
130.4574977972467
 20
-152.986010703941
 10
130.4650770073143
 20
-153.096253759469
 10
130.4650770073143
 20
-153.096253759469
 10
130.2518255967773
 20
-153.096253759469
 10
130.2518255967773
 20
-153.096253759469
 10
130.2721516601403
 20
-152.937434857599
 10
130.2780083224652
 20
-152.6962781736315
 10
130.2780083224652
 20
-152.6752630911714
 10
130.2780083224652
 20
-152.6752630911714
 10
130.2780083224652
 20
-151.9579942111424
 10
130.2780083224652
 20
-151.9579942111424
 10
130.198426616756
 20
-152.0723713812527
 10
130.144683127186
 20
-152.1312825140505
 10
130.1074760959453
 20
-152.1736571885191
 10
130.1074760959453
 20
-152.1736571885191
 10
129.9407334744593
 20
-152.0361978786576
 10
129.9407334744593
 20
-152.0361978786576
 10
130.1870578016546
 20
-151.8205349012809
 10
130.3555229708833
 20
-151.511509836254
 10
130.4537081922129
 20
-151.1752685168937
 10
130.4537081922129
 20
-151.1752685168937
 10
130.6462890298384
 20
-151.289645687004
 10
130.6462890298384
 20
-151.289645687004
 10
130.6573133353912
 20
-151.2958468588774
 10
130.6648925454587
 20
-151.2999809734597
 10
130.6648925454587
 20
-151.3147948840463
 10
130.6648925454587
 20
-151.3402885906371
 10
130.6500786348722
 20
-151.3444227052194
 10
130.5853108397495
 20
-151.359236615806
 97
        0
 97
        1
330
176
 75
     2
 76
     1
 98
        1
 10
0.0
 20
0.0
450
        0
451
        0
460
0.0
461
0.0
452
        0
462
0.0
453
        0
470

  0
ENDBLK
  5
159
330
156
100
AcDbEntity
  8
0
100
AcDbBlockEnd
  0
ENDSEC
  0
SECTION
  2
ENTITIES
  0
LINE
  5
79
330
70
100
AcDbEntity
  8
レイヤー 1
 62
    18
420
        0
370
    25
100
AcDbLine
 10
112.5903426081038
 20
-153.1578816936026
 30
0.0
 11
104.5901189233177
 21
-153.1578816936026
 31
0.0
  0
LINE
  5
7A
330
70
100
AcDbEntity
  8
レイヤー 1
 62
    18
420
        0
370
    25
100
AcDbLine
 10
84.58860721137655
 20
-146.6576689174502
 30
0.0
 11
84.58860721137655
 21
-147.1579078062139
 31
0.0
  0
LINE
  5
7B
330
70
100
AcDbEntity
  8
レイヤー 1
 62
    18
420
        0
370
    25
100
AcDbLine
 10
105.5258266772236
 20
-147.1579078062139
 30
0.0
 11
84.58860721137655
 21
-147.1579078062139
 31
0.0
  0
LINE
  5
7C
330
70
100
AcDbEntity
  8
レイヤー 1
 62
    18
420
        0
370
    25
100
AcDbLine
 10
84.58860721137655
 20
-146.6576689174502
 30
0.0
 11
85.10260442048595
 21
-147.0397625284657
 31
0.0
  0
LINE
  5
7D
330
70
100
AcDbEntity
  8
レイヤー 1
 62
    18
420
        0
370
    25
100
AcDbLine
 10
85.10260442048595
 20
-147.0397625284657
 30
0.0
 11
85.58802663032368
 21
-146.6222147507922
 31
0.0
  0
LINE
  5
7E
330
70
100
AcDbEntity
  8
レイヤー 1
 62
    18
420
        0
370
    25
100
AcDbLine
 10
86.10202383943274
 20
-147.0042730840302
 30
0.0
 11
86.58762243815553
 21
-146.586372528579
 31
0.0
  0
LINE
  5
7F
330
70
100
AcDbEntity
  8
レイヤー 1
 62
    18
420
        0
370
    25
100
AcDbLine
 10
85.58802663032368
 20
-146.6222147507922
 30
0.0
 11
86.10202383943274
 21
-147.0042730840302
 31
0.0
  0
LINE
  5
80
330
70
100
AcDbEntity
  8
レイヤー 1
 62
    18
420
        0
370
    25
100
AcDbLine
 10
86.58762243815553
 20
-146.586372528579
 30
0.0
 11
87.10161964726427
 21
-146.968430861817
 31
0.0
  0
LINE
  5
81
330
70
100
AcDbEntity
  8
レイヤー 1
 62
    18
420
        0
370
    25
100
AcDbLine
 10
87.10161964726427
 20
-146.968430861817
 30
0.0
 11
87.58668907933357
 21
-146.5508830841435
 31
0.0
  0
LINE
  5
82
330
70
100
AcDbEntity
  8
レイヤー 1
 62
    18
420
        0
370
    25
100
AcDbLine
 10
87.58668907933357
 20
-146.5508830841435
 30
0.0
 11
88.10068628844261
 21
-146.9325886396037
 31
0.0
  0
LINE
  5
83
330
70
100
AcDbEntity
  8
レイヤー 1
 62
    18
420
        0
370
    25
100
AcDbLine
 10
88.10068628844261
 20
-146.9325886396037
 30
0.0
 11
88.58646127604947
 21
-146.5150408619302
 31
0.0
  0
LINE
  5
84
330
70
100
AcDbEntity
  8
レイヤー 1
 62
    18
420
        0
370
    25
100
AcDbLine
 10
88.58646127604947
 20
-146.5150408619302
 30
0.0
 11
89.10045848515853
 21
-146.896781695168
 31
0.0
  0
LINE
  5
85
330
70
100
AcDbEntity
  8
レイヤー 1
 62
    18
420
        0
370
    25
100
AcDbLine
 10
89.10045848515853
 20
-146.896781695168
 30
0.0
 11
89.58552791722782
 21
-146.4792339174945
 31
0.0
  0
LINE
  5
86
330
70
100
AcDbEntity
  8
レイヤー 1
 62
    18
420
        0
370
    25
100
AcDbLine
 10
89.58552791722782
 20
-146.4792339174945
 30
0.0
 11
90.09956040411408
 21
-146.8612922507325
 31
0.0
  0
LINE
  5
87
330
70
100
AcDbEntity
  8
レイヤー 1
 62
    18
420
        0
370
    25
100
AcDbLine
 10
90.09956040411408
 20
-146.8612922507325
 30
0.0
 11
90.58530011394372
 21
-146.443744473059
 31
0.0
  0
LINE
  5
88
330
70
100
AcDbEntity
  8
レイヤー 1
 62
    18
420
        0
370
    25
100
AcDbLine
 10
90.58530011394372
 20
-146.443744473059
 30
0.0
 11
91.09862704529211
 21
-146.825802806297
 31
0.0
  0
LINE
  5
89
330
70
100
AcDbEntity
  8
レイヤー 1
 62
    18
420
        0
370
    25
100
AcDbLine
 10
91.09862704529211
 20
-146.825802806297
 30
0.0
 11
91.58436675512209
 21
-146.4079022508458
 31
0.0
  0
LINE
  5
8A
330
70
100
AcDbEntity
  8
レイヤー 1
 62
    18
420
        0
370
    25
100
AcDbLine
 10
92.09839924200803
 20
-146.7899605840838
 30
0.0
 11
92.5834686740773
 21
-146.3724480841878
 31
0.0
  0
LINE
  5
8B
330
70
100
AcDbEntity
  8
レイヤー 1
 62
    18
420
        0
370
    25
100
AcDbLine
 10
91.58436675512209
 20
-146.4079022508458
 30
0.0
 11
92.09839924200803
 21
-146.7899605840838
 31
0.0
  0
LINE
  5
8C
330
70
100
AcDbEntity
  8
レイヤー 1
 62
    18
420
        0
370
    25
100
AcDbLine
 10
92.5834686740773
 20
-146.3724480841878
 30
0.0
 11
93.09746588318636
 21
-146.754153639648
 31
0.0
  0
LINE
  5
8D
330
70
100
AcDbEntity
  8
レイヤー 1
 62
    18
420
        0
370
    25
100
AcDbLine
 10
93.09746588318636
 20
-146.754153639648
 30
0.0
 11
93.58324087079322
 21
-146.3366058619745
 31
0.0
  0
LINE
  5
8E
330
70
100
AcDbEntity
  8
レイヤー 1
 62
    18
420
        0
370
    25
100
AcDbLine
 10
94.09723807990229
 20
-146.7183114174348
 30
0.0
 11
94.58213353895636
 21
-146.3007636397613
 31
0.0
  0
LINE
  5
8F
330
70
100
AcDbEntity
  8
レイヤー 1
 62
    18
420
        0
370
    25
100
AcDbLine
 10
93.58324087079322
 20
-146.3366058619745
 30
0.0
 11
94.09723807990229
 21
-146.7183114174348
 31
0.0
  0
LINE
  5
90
330
70
100
AcDbEntity
  8
レイヤー 1
 62
    18
420
        0
370
    25
100
AcDbLine
 10
95.09613076104988
 20
-146.6828219729993
 30
0.0
 11
95.5819057609286
 21
-146.2652741953258
 31
0.0
  0
LINE
  5
91
330
70
100
AcDbEntity
  8
レイヤー 1
 62
    18
420
        0
370
    25
100
AcDbLine
 10
94.58213353895636
 20
-146.3007636397613
 30
0.0
 11
95.09613076104988
 21
-146.6828219729993
 31
0.0
  0
LINE
  5
92
330
70
100
AcDbEntity
  8
レイヤー 1
 62
    18
420
        0
370
    25
100
AcDbLine
 10
95.5819057609286
 20
-146.2652741953258
 30
0.0
 11
96.09590298302212
 21
-146.6473325285638
 31
0.0
  0
LINE
  5
93
330
70
100
AcDbEntity
  8
レイヤー 1
 62
    18
420
        0
370
    25
100
AcDbLine
 10
96.09590298302212
 20
-146.6473325285638
 30
0.0
 11
96.58097242734529
 21
-146.22946725089
 31
0.0
  0
LINE
  5
94
330
70
100
AcDbEntity
  8
レイヤー 1
 62
    18
420
        0
370
    25
100
AcDbLine
 10
96.58097242734529
 20
-146.22946725089
 30
0.0
 11
97.09500244786738
 21
-146.6115255841281
 31
0.0
  0
LINE
  5
95
330
70
100
AcDbEntity
  8
レイヤー 1
 62
    18
420
        0
370
    25
100
AcDbLine
 10
97.09500244786738
 20
-146.6115255841281
 30
0.0
 11
97.58007187993669
 21
-146.1939778064546
 31
0.0
  0
LINE
  5
96
330
70
100
AcDbEntity
  8
レイヤー 1
 62
    18
420
        0
370
    25
100
AcDbLine
 10
97.58007187993669
 20
-146.1939778064546
 30
0.0
 11
98.09406908904575
 21
-146.5756833619148
 31
0.0
  0
LINE
  5
97
330
70
100
AcDbEntity
  8
レイヤー 1
 62
    18
420
        0
370
    25
100
AcDbLine
 10
98.09406908904575
 20
-146.5756833619148
 30
0.0
 11
98.57981131573453
 21
-146.1581355842413
 31
0.0
  0
LINE
  5
98
330
70
100
AcDbEntity
  8
レイヤー 1
 62
    18
420
        0
370
    25
100
AcDbLine
 10
98.57981131573453
 20
-146.1581355842413
 30
0.0
 11
99.09384128576197
 21
-146.5398764174791
 31
0.0
  0
LINE
  5
99
330
70
100
AcDbEntity
  8
レイヤー 1
 62
    18
420
        0
370
    25
100
AcDbLine
 10
99.09384128576197
 20
-146.5398764174791
 30
0.0
 11
99.57891071783095
 21
-146.1223286398062
 31
0.0
  0
LINE
  5
9A
330
70
100
AcDbEntity
  8
レイヤー 1
 62
    18
420
        0
370
    25
100
AcDbLine
 10
99.57891071783095
 20
-146.1223286398062
 30
0.0
 11
100.09290792694
 21
-146.5043869730436
 31
0.0
  0
LINE
  5
9B
330
70
100
AcDbEntity
  8
レイヤー 1
 62
    18
420
        0
370
    25
100
AcDbLine
 10
100.09290792694
 20
-146.5043869730436
 30
0.0
 11
100.5786829145468
 21
-146.0868391953708
 31
0.0
  0
LINE
  5
9C
330
70
100
AcDbEntity
  8
レイヤー 1
 62
    18
420
        0
370
    25
100
AcDbLine
 10
100.5786829145468
 20
-146.0868391953708
 30
0.0
 11
101.0926801236559
 21
-146.4688975286081
 31
0.0
  0
LINE
  5
9D
330
70
100
AcDbEntity
  8
レイヤー 1
 62
    18
420
        0
370
    25
100
AcDbLine
 10
101.0926801236559
 20
-146.4688975286081
 30
0.0
 11
101.5777495557252
 21
-146.0509969731569
 31
0.0
  0
LINE
  5
9E
330
70
100
AcDbEntity
  8
レイヤー 1
 62
    18
420
        0
370
    25
100
AcDbLine
 10
101.5777495557252
 20
-146.0509969731569
 30
0.0
 11
102.0917467648343
 21
-146.4330553063949
 31
0.0
  0
LINE
  5
9F
330
70
100
AcDbEntity
  8
レイヤー 1
 62
    18
420
        0
370
    25
100
AcDbLine
 10
102.0917467648343
 20
-146.4330553063949
 30
0.0
 11
102.5775217524411
 21
-146.0155075287214
 31
0.0
  0
LINE
  5
A0
330
70
100
AcDbEntity
  8
レイヤー 1
 62
    18
420
        0
370
    25
100
AcDbLine
 10
102.5775217524411
 20
-146.0155075287214
 30
0.0
 11
103.0915189615501
 21
-146.3972483619598
 31
0.0
  0
LINE
  5
A1
330
70
100
AcDbEntity
  8
レイヤー 1
 62
    18
420
        0
370
    25
100
AcDbLine
 10
103.0915189615501
 20
-146.3972483619598
 30
0.0
 11
103.5765883936194
 21
-145.9797005842863
 31
0.0
  0
LINE
  5
A2
330
70
100
AcDbEntity
  8
レイヤー 1
 62
    18
420
        0
370
    25
100
AcDbLine
 10
103.5765883936194
 20
-145.9797005842863
 30
0.0
 11
104.0905856027285
 21
-146.3614061397465
 31
0.0
  0
LINE
  5
A3
330
70
100
AcDbEntity
  8
レイヤー 1
 62
    18
420
        0
370
    25
100
AcDbLine
 10
104.0905856027285
 20
-146.3614061397465
 30
0.0
 11
104.5763605903353
 21
-145.9438583620731
 31
0.0
  0
LINE
  5
A4
330
70
100
AcDbEntity
  8
レイヤー 1
 62
    18
420
        0
370
    25
100
AcDbLine
 10
104.6503577995534
 20
-145.8956336398625
 30
0.0
 11
105.5898911200336
 21
-145.8956336398625
 31
0.0
  0
LINE
  5
A5
330
70
100
AcDbEntity
  8
レイヤー 1
 62
    18
420
        0
370
    25
100
AcDbLine
 10
105.5898911200336
 20
-145.8956336398625
 30
0.0
 11
105.5898911200336
 21
-152.1577919716304
 31
0.0
  0
LINE
  5
A6
330
70
100
AcDbEntity
  8
レイヤー 1
 62
    18
420
        0
370
    25
100
AcDbLine
 10
104.5901189233177
 20
-147.1579078062139
 30
0.0
 11
104.5901189233177
 21
-153.1578816936026
 31
0.0
  0
LINE
  5
A7
330
70
100
AcDbEntity
  8
レイヤー 1
 62
    18
420
        0
370
    25
100
AcDbLine
 10
111.590570411388
 20
-152.1577919716304
 30
0.0
 11
105.5898911200336
 21
-152.1577919716304
 31
0.0
  0
LINE
  5
A8
330
70
100
AcDbEntity
  8
レイヤー 1
 62
    18
420
        0
370
    25
100
AcDbLine
 10
122.5976601305737
 20
-146.3007636397613
 30
0.0
 11
122.0843363098582
 21
-146.6828219729993
 31
0.0
  0
LINE
  5
A9
330
70
100
AcDbEntity
  8
レイヤー 1
 62
    18
420
        0
370
    25
100
AcDbLine
 10
127.5951100030781
 20
-146.4792339174945
 30
0.0
 11
127.0811127939691
 21
-146.8612922507325
 31
0.0
  0
LINE
  5
AA
330
70
100
AcDbEntity
  8
レイヤー 1
 62
    18
420
        0
370
    25
100
AcDbLine
 10
123.0834029762752
 20
-146.7183114174348
 30
0.0
 11
122.5976601305737
 21
-146.3007636397613
 31
0.0
  0
LINE
  5
AB
330
70
100
AcDbEntity
  8
レイヤー 1
 62
    18
420
        0
370
    25
100
AcDbLine
 10
124.0825017593589
 20
-146.754153639648
 30
0.0
 11
123.5974323272896
 21
-146.3366058619745
 31
0.0
  0
LINE
  5
AC
330
70
100
AcDbEntity
  8
レイヤー 1
 62
    18
420
        0
370
    25
100
AcDbLine
 10
122.0843363098582
 20
-146.6828219729993
 30
0.0
 11
121.5985613099801
 21
-146.2652741953258
 31
0.0
  0
LINE
  5
AD
330
70
100
AcDbEntity
  8
レイヤー 1
 62
    18
420
        0
370
    25
100
AcDbLine
 10
123.5974323272896
 20
-146.3366058619745
 30
0.0
 11
123.0834029762752
 21
-146.7183114174348
 31
0.0
  0
LINE
  5
AE
330
70
100
AcDbEntity
  8
レイヤー 1
 62
    18
420
        0
370
    25
100
AcDbLine
 10
131.592117401106
 20
-146.6222147507922
 30
0.0
 11
131.07808491422
 21
-147.0042730840302
 31
0.0
  0
LINE
  5
AF
330
70
100
AcDbEntity
  8
レイヤー 1
 62
    18
420
        0
370
    25
100
AcDbLine
 10
124.596498968468
 20
-146.3724480841878
 30
0.0
 11
124.0825017593589
 21
-146.754153639648
 31
0.0
  0
LINE
  5
B0
330
70
100
AcDbEntity
  8
レイヤー 1
 62
    18
420
        0
370
    25
100
AcDbLine
 10
125.5962711651839
 20
-146.4079022508458
 30
0.0
 11
125.0822418646648
 21
-146.7899605840838
 31
0.0
  0
LINE
  5
B1
330
70
100
AcDbEntity
  8
レイヤー 1
 62
    18
420
        0
370
    25
100
AcDbLine
 10
111.590570411388
 20
-145.8956336398625
 30
0.0
 11
111.590570411388
 21
-152.1577919716304
 31
0.0
  0
LINE
  5
B2
330
70
100
AcDbEntity
  8
レイヤー 1
 62
    18
420
        0
370
    25
100
AcDbLine
 10
125.0822418646648
 20
-146.7899605840838
 30
0.0
 11
124.596498968468
 21
-146.3724480841878
 31
0.0
  0
LINE
  5
B3
330
70
100
AcDbEntity
  8
レイヤー 1
 62
    18
420
        0
370
    25
100
AcDbLine
 10
126.0813405972532
 20
-146.825802806297
 30
0.0
 11
125.5962711651839
 21
-146.4079022508458
 31
0.0
  0
LINE
  5
B4
330
70
100
AcDbEntity
  8
レイヤー 1
 62
    18
420
        0
370
    25
100
AcDbLine
 10
131.07808491422
 20
-147.0042730840302
 30
0.0
 11
130.5930154821508
 21
-146.586372528579
 31
0.0
  0
LINE
  5
B5
330
70
100
AcDbEntity
  8
レイヤー 1
 62
    18
420
        0
370
    25
100
AcDbLine
 10
126.5953378063622
 20
-146.443744473059
 30
0.0
 11
126.0813405972532
 21
-146.825802806297
 31
0.0
  0
LINE
  5
B6
330
70
100
AcDbEntity
  8
レイヤー 1
 62
    18
420
        0
370
    25
100
AcDbLine
 10
127.0811127939691
 20
-146.8612922507325
 30
0.0
 11
126.5953378063622
 21
-146.443744473059
 31
0.0
  0
LINE
  5
B7
330
70
100
AcDbEntity
  8
レイヤー 1
 62
    18
420
        0
370
    25
100
AcDbLine
 10
132.077857110936
 20
-147.0397625284657
 30
0.0
 11
131.592117401106
 21
-146.6222147507922
 31
0.0
  0
LINE
  5
B8
330
70
100
AcDbEntity
  8
レイヤー 1
 62
    18
420
        0
370
    25
100
AcDbLine
 10
128.5941766442565
 20
-146.5150408619302
 30
0.0
 11
128.0801794351474
 21
-146.896781695168
 31
0.0
  0
LINE
  5
B9
330
70
100
AcDbEntity
  8
レイヤー 1
 62
    18
420
        0
370
    25
100
AcDbLine
 10
129.5932432854348
 20
-146.5508830841435
 30
0.0
 11
129.0792460763258
 21
-146.9325886396037
 31
0.0
  0
LINE
  5
BA
330
70
100
AcDbEntity
  8
レイヤー 1
 62
    18
420
        0
370
    25
100
AcDbLine
 10
129.0792460763258
 20
-146.9325886396037
 30
0.0
 11
128.5941766442565
 21
-146.5150408619302
 31
0.0
  0
LINE
  5
BB
330
70
100
AcDbEntity
  8
レイヤー 1
 62
    18
420
        0
370
    25
100
AcDbLine
 10
132.591854320045
 20
-146.6576689174502
 30
0.0
 11
132.077857110936
 21
-147.0397625284657
 31
0.0
  0
LINE
  5
BC
330
70
100
AcDbEntity
  8
レイヤー 1
 62
    18
420
        0
370
    25
100
AcDbLine
 10
128.0801794351474
 20
-146.896781695168
 30
0.0
 11
127.5951100030781
 21
-146.4792339174945
 31
0.0
  0
LINE
  5
BD
330
70
100
AcDbEntity
  8
レイヤー 1
 62
    18
420
        0
370
    25
100
AcDbLine
 10
130.5930154821508
 20
-146.586372528579
 30
0.0
 11
130.0790182730417
 21
-146.968430861817
 31
0.0
  0
LINE
  5
BE
330
70
100
AcDbEntity
  8
レイヤー 1
 62
    18
420
        0
370
    25
100
AcDbLine
 10
130.0790182730417
 20
-146.968430861817
 30
0.0
 11
129.5932432854348
 21
-146.5508830841435
 31
0.0
  0
LINE
  5
BF
330
70
100
AcDbEntity
  8
レイヤー 1
 62
    18
420
        0
370
    25
100
AcDbLine
 10
132.591854320045
 20
-146.6576689174502
 30
0.0
 11
132.591854320045
 21
-147.1579078062139
 31
0.0
  0
LINE
  5
C0
330
70
100
AcDbEntity
  8
レイヤー 1
 62
    18
420
        0
370
    25
100
AcDbLine
 10
111.700813464131
 20
-147.1579078062139
 30
0.0
 11
132.591854320045
 21
-147.1579078062139
 31
0.0
  0
LINE
  5
C1
330
70
100
AcDbEntity
  8
レイヤー 1
 62
    18
420
        0
370
    25
100
AcDbLine
 10
121.5985613099801
 20
-146.2652741953258
 30
0.0
 11
121.0845640878863
 21
-146.6473325285638
 31
0.0
  0
LINE
  5
C2
330
70
100
AcDbEntity
  8
レイヤー 1
 62
    18
420
        0
370
    25
100
AcDbLine
 10
121.0845640878863
 20
-146.6473325285638
 30
0.0
 11
120.5994946435631
 21
-146.22946725089
 31
0.0
  0
LINE
  5
C3
330
70
100
AcDbEntity
  8
レイヤー 1
 62
    18
420
        0
370
    25
100
AcDbLine
 10
120.5994946435631
 20
-146.22946725089
 30
0.0
 11
120.0854974214693
 21
-146.6115255841281
 31
0.0
  0
LINE
  5
C4
330
70
100
AcDbEntity
  8
レイヤー 1
 62
    18
420
        0
370
    25
100
AcDbLine
 10
120.0854974214693
 20
-146.6115255841281
 30
0.0
 11
119.5997224215906
 21
-146.1939778064546
 31
0.0
  0
LINE
  5
C5
330
70
100
AcDbEntity
  8
レイヤー 1
 62
    18
420
        0
370
    25
100
AcDbLine
 10
119.5997224215906
 20
-146.1939778064546
 30
0.0
 11
119.0857251994967
 21
-146.5756833619148
 31
0.0
  0
LINE
  5
C6
330
70
100
AcDbEntity
  8
レイヤー 1
 62
    18
420
        0
370
    25
100
AcDbLine
 10
119.0857251994967
 20
-146.5756833619148
 30
0.0
 11
118.6006557551736
 21
-146.1581355842413
 31
0.0
  0
LINE
  5
C7
330
70
100
AcDbEntity
  8
レイヤー 1
 62
    18
420
        0
370
    25
100
AcDbLine
 10
118.6006557551736
 20
-146.1581355842413
 30
0.0
 11
118.0866585330797
 21
-146.5398764174791
 31
0.0
  0
LINE
  5
C8
330
70
100
AcDbEntity
  8
レイヤー 1
 62
    18
420
        0
370
    25
100
AcDbLine
 10
118.0866585330797
 20
-146.5398764174791
 30
0.0
 11
117.6008835332017
 21
-146.1223286398062
 31
0.0
  0
LINE
  5
C9
330
70
100
AcDbEntity
  8
レイヤー 1
 62
    18
420
        0
370
    25
100
AcDbLine
 10
117.6008835332017
 20
-146.1223286398062
 30
0.0
 11
117.0868863111078
 21
-146.5043869730436
 31
0.0
  0
LINE
  5
CA
330
70
100
AcDbEntity
  8
レイヤー 1
 62
    18
420
        0
370
    25
100
AcDbLine
 10
117.0868863111078
 20
-146.5043869730436
 30
0.0
 11
116.6018168667847
 21
-146.0868391953708
 31
0.0
  0
LINE
  5
CB
330
70
100
AcDbEntity
  8
レイヤー 1
 62
    18
420
        0
370
    25
100
AcDbLine
 10
116.6018168667847
 20
-146.0868391953708
 30
0.0
 11
116.0877814077656
 21
-146.4688975286081
 31
0.0
  0
LINE
  5
CC
330
70
100
AcDbEntity
  8
レイヤー 1
 62
    18
420
        0
370
    25
100
AcDbLine
 10
116.0877814077656
 20
-146.4688975286081
 30
0.0
 11
115.6027119756964
 21
-146.0509969731569
 31
0.0
  0
LINE
  5
CD
330
70
100
AcDbEntity
  8
レイヤー 1
 62
    18
420
        0
370
    25
100
AcDbLine
 10
115.6027119756964
 20
-146.0509969731569
 30
0.0
 11
115.0887147665873
 21
-146.4330553063949
 31
0.0
  0
LINE
  5
CE
330
70
100
AcDbEntity
  8
レイヤー 1
 62
    18
420
        0
370
    25
100
AcDbLine
 10
115.0887147665873
 20
-146.4330553063949
 30
0.0
 11
114.6029779783951
 21
-146.0155075287214
 31
0.0
  0
LINE
  5
CF
330
70
100
AcDbEntity
  8
レイヤー 1
 62
    18
420
        0
370
    25
100
AcDbLine
 10
114.6029779783951
 20
-146.0155075287214
 30
0.0
 11
114.0889425698714
 21
-146.3972483619598
 31
0.0
  0
LINE
  5
D0
330
70
100
AcDbEntity
  8
レイヤー 1
 62
    18
420
        0
370
    25
100
AcDbLine
 10
114.0889425698714
 20
-146.3972483619598
 30
0.0
 11
113.6038731378021
 21
-145.9797005842863
 31
0.0
  0
LINE
  5
D1
330
70
100
AcDbEntity
  8
レイヤー 1
 62
    18
420
        0
370
    25
100
AcDbLine
 10
113.6038731378021
 20
-145.9797005842863
 30
0.0
 11
113.089875928693
 21
-146.3614061397465
 31
0.0
  0
LINE
  5
D2
330
70
100
AcDbEntity
  8
レイヤー 1
 62
    18
420
        0
370
    25
100
AcDbLine
 10
113.089875928693
 20
-146.3614061397465
 30
0.0
 11
112.6041009410862
 21
-145.9438583620731
 31
0.0
  0
LINE
  5
D3
330
70
100
AcDbEntity
  8
レイヤー 1
 62
    18
420
        0
370
    25
100
AcDbLine
 10
112.5301037318682
 20
-145.8956336398625
 30
0.0
 11
111.590570411388
 21
-145.8956336398625
 31
0.0
  0
LINE
  5
D4
330
70
100
AcDbEntity
  8
レイヤー 1
 62
    18
420
        0
370
    25
100
AcDbLine
 10
112.5903426081038
 20
-147.1579078062139
 30
0.0
 11
112.5903426081038
 21
-153.1578816936026
 31
0.0
  0
SPLINE
  5
D5
330
70
100
AcDbEntity
  8
レイヤー 1
 62
    18
420
        0
370
     9
100
AcDbSpline
210
0.0
220
0.0
230
1.0
 70
     9
 71
     3
 72
    17
 73
    13
 74
     0
 42
0.0000000001
 43
0.0000000001
 40
0.0
 40
0.0
 40
0.0
 40
0.0
 40
1.0
 40
1.0
 40
1.0
 40
2.0
 40
2.0
 40
2.0
 40
3.0
 40
3.0
 40
3.0
 40
4.0
 40
4.0
 40
4.0
 40
4.0
 10
84.6885138754944
 20
-141.8958744741963
 30
0.0
 10
84.6885138754944
 20
-141.840417807543
 30
0.0
 10
84.64371109885963
 20
-141.7956150297763
 30
0.0
 10
84.58860721137655
 20
-141.7956150297763
 30
0.0
 10
84.5334680461166
 20
-141.7956150297763
 30
0.0
 10
84.48870054725871
 20
-141.840417807543
 30
0.0
 10
84.48870054725871
 20
-141.8958744741963
 30
0.0
 10
84.48870054725871
 20
-141.9509783630712
 30
0.0
 10
84.5334680461166
 20
-141.9957811408379
 30
0.0
 10
84.58860721137655
 20
-141.9957811408379
 30
0.0
 10
84.64371109885963
 20
-141.9957811408379
 30
0.0
 10
84.6885138754944
 20
-141.9509783630712
 30
0.0
 10
84.6885138754944
 20
-141.8958744741963
 30
0.0
  0
SPLINE
  5
D6
330
70
100
AcDbEntity
  8
レイヤー 1
 62
    18
420
        0
370
     9
100
AcDbSpline
210
0.0
220
0.0
230
1.0
 70
     9
 71
     3
 72
    17
 73
    13
 74
     0
 42
0.0000000001
 43
0.0000000001
 40
0.0
 40
0.0
 40
0.0
 40
0.0
 40
1.0
 40
1.0
 40
1.0
 40
2.0
 40
2.0
 40
2.0
 40
3.0
 40
3.0
 40
3.0
 40
4.0
 40
4.0
 40
4.0
 40
4.0
 10
80.68875481087008
 20
-146.6576689174502
 30
0.0
 10
80.68875481087008
 20
-146.6025650285749
 30
0.0
 10
80.64395203423531
 20
-146.5577622508085
 30
0.0
 10
80.5888502091213
 20
-146.5577622508085
 30
0.0
 10
80.5337089814923
 20
-146.5577622508085
 30
0.0
 10
80.48894148263441
 20
-146.6025650285749
 30
0.0
 10
80.48894148263441
 20
-146.6576689174502
 30
0.0
 10
80.48894148263441
 20
-146.7128080841029
 30
0.0
 10
80.5337089814923
 20
-146.7575755840918
 30
0.0
 10
80.5888502091213
 20
-146.7575755840918
 30
0.0
 10
80.64395203423531
 20
-146.7575755840918
 30
0.0
 10
80.68875481087008
 20
-146.7128080841029
 30
0.0
 10
80.68875481087008
 20
-146.6576689174502
 30
0.0
  0
SPLINE
  5
D7
330
70
100
AcDbEntity
  8
レイヤー 1
 62
    18
420
        0
370
     9
100
AcDbSpline
210
0.0
220
0.0
230
1.0
 70
     9
 71
     3
 72
    17
 73
    13
 74
     0
 42
0.0000000001
 43
0.0000000001
 40
0.0
 40
0.0
 40
0.0
 40
0.0
 40
1.0
 40
1.0
 40
1.0
 40
2.0
 40
2.0
 40
2.0
 40
3.0
 40
3.0
 40
3.0
 40
4.0
 40
4.0
 40
4.0
 40
4.0
 10
80.68875481087008
 20
-147.1579078062139
 30
0.0
 10
80.68875481087008
 20
-147.102803917339
 30
0.0
 10
80.64395203423531
 20
-147.0580011395723
 30
0.0
 10
80.5888502091213
 20
-147.0580011395723
 30
0.0
 10
80.5337089814923
 20
-147.0580011395723
 30
0.0
 10
80.48894148263441
 20
-147.102803917339
 30
0.0
 10
80.48894148263441
 20
-147.1579078062139
 30
0.0
 10
80.48894148263441
 20
-147.213046972867
 30
0.0
 10
80.5337089814923
 20
-147.2578144728555
 30
0.0
 10
80.5888502091213
 20
-147.2578144728555
 30
0.0
 10
80.64395203423531
 20
-147.2578144728555
 30
0.0
 10
80.68875481087008
 20
-147.213046972867
 30
0.0
 10
80.68875481087008
 20
-147.1579078062139
 30
0.0
  0
SPLINE
  5
D8
330
70
100
AcDbEntity
  8
レイヤー 1
 62
    18
420
        0
370
     9
100
AcDbSpline
210
0.0
220
0.0
230
1.0
 70
     9
 71
     3
 72
    17
 73
    13
 74
     0
 42
0.0000000001
 43
0.0000000001
 40
0.0
 40
0.0
 40
0.0
 40
0.0
 40
1.0
 40
1.0
 40
1.0
 40
2.0
 40
2.0
 40
2.0
 40
3.0
 40
3.0
 40
3.0
 40
4.0
 40
4.0
 40
4.0
 40
4.0
 10
80.68875481087008
 20
-153.1578816936026
 30
0.0
 10
80.68875481087008
 20
-153.1027778047277
 30
0.0
 10
80.64395203423531
 20
-153.0579750269609
 30
0.0
 10
80.5888502091213
 20
-153.0579750269609
 30
0.0
 10
80.5337089814923
 20
-153.0579750269609
 30
0.0
 10
80.48894148263441
 20
-153.1027778047277
 30
0.0
 10
80.48894148263441
 20
-153.1578816936026
 30
0.0
 10
80.48894148263441
 20
-153.2130208602556
 30
0.0
 10
80.5337089814923
 20
-153.2577883602442
 30
0.0
 10
80.5888502091213
 20
-153.2577883602442
 30
0.0
 10
80.64395203423531
 20
-153.2577883602442
 30
0.0
 10
80.68875481087008
 20
-153.2130208602556
 30
0.0
 10
80.68875481087008
 20
-153.1578816936026
 30
0.0
  0
SPLINE
  5
D9
330
70
100
AcDbEntity
  8
レイヤー 1
 62
    18
420
        0
370
     9
100
AcDbSpline
210
0.0
220
0.0
230
1.0
 70
     9
 71
     3
 72
    17
 73
    13
 74
     0
 42
0.0000000001
 43
0.0000000001
 40
0.0
 40
0.0
 40
0.0
 40
0.0
 40
1.0
 40
1.0
 40
1.0
 40
2.0
 40
2.0
 40
2.0
 40
3.0
 40
3.0
 40
3.0
 40
4.0
 40
4.0
 40
4.0
 40
4.0
 10
105.6897977841514
 20
-141.8958744741963
 30
0.0
 10
105.6897977841514
 20
-141.840417807543
 30
0.0
 10
105.6450302852935
 20
-141.7956150297763
 30
0.0
 10
105.5898911200336
 20
-141.7956150297763
 30
0.0
 10
105.5347872325505
 20
-141.7956150297763
 30
0.0
 10
105.4899844559157
 20
-141.840417807543
 30
0.0
 10
105.4899844559157
 20
-141.8958744741963
 30
0.0
 10
105.4899844559157
 20
-141.9509783630712
 30
0.0
 10
105.5347872325505
 20
-141.9957811408379
 30
0.0
 10
105.5898911200336
 20
-141.9957811408379
 30
0.0
 10
105.6450302852935
 20
-141.9957811408379
 30
0.0
 10
105.6897977841514
 20
-141.9509783630712
 30
0.0
 10
105.6897977841514
 20
-141.8958744741963
 30
0.0
  0
SPLINE
  5
DA
330
70
100
AcDbEntity
  8
レイヤー 1
 62
    18
420
        0
370
     9
100
AcDbSpline
210
0.0
220
0.0
230
1.0
 70
     9
 71
     3
 72
    17
 73
    13
 74
     0
 42
0.0000000001
 43
0.0000000001
 40
0.0
 40
0.0
 40
0.0
 40
0.0
 40
1.0
 40
1.0
 40
1.0
 40
2.0
 40
2.0
 40
2.0
 40
3.0
 40
3.0
 40
3.0
 40
4.0
 40
4.0
 40
4.0
 40
4.0
 10
132.7917029260575
 20
-141.8958744741963
 30
0.0
 10
132.7917029260575
 20
-141.840417807543
 30
0.0
 10
132.7469001494228
 20
-141.7956150297763
 30
0.0
 10
132.6917962619397
 20
-141.7956150297763
 30
0.0
 10
132.6359515411422
 20
-141.7956150297763
 30
0.0
 10
132.5911840422843
 20
-141.840417807543
 30
0.0
 10
132.5911840422843
 20
-141.8958744741963
 30
0.0
 10
132.5911840422843
 20
-141.9509783630712
 30
0.0
 10
132.6359515411422
 20
-141.9957811408379
 30
0.0
 10
132.6917962619397
 20
-141.9957811408379
 30
0.0
 10
132.7469001494228
 20
-141.9957811408379
 30
0.0
 10
132.7917029260575
 20
-141.9509783630712
 30
0.0
 10
132.7917029260575
 20
-141.8958744741963
 30
0.0
  0
SPLINE
  5
DB
330
70
100
AcDbEntity
  8
レイヤー 1
 62
    18
420
        0
370
     9
100
AcDbSpline
210
0.0
220
0.0
230
1.0
 70
     9
 71
     3
 72
    17
 73
    13
 74
     0
 42
0.0000000001
 43
0.0000000001
 40
0.0
 40
0.0
 40
0.0
 40
0.0
 40
1.0
 40
1.0
 40
1.0
 40
2.0
 40
2.0
 40
2.0
 40
3.0
 40
3.0
 40
3.0
 40
4.0
 40
4.0
 40
4.0
 40
4.0
 10
111.7903837396236
 20
-141.8958744741963
 30
0.0
 10
111.7903837396236
 20
-141.840417807543
 30
0.0
 10
111.7456162407657
 20
-141.7956150297763
 30
0.0
 10
111.6904770755058
 20
-141.7956150297763
 30
0.0
 10
111.6353731880227
 20
-141.7956150297763
 30
0.0
 10
111.590570411388
 20
-141.840417807543
 30
0.0
 10
111.590570411388
 20
-141.8958744741963
 30
0.0
 10
111.590570411388
 20
-141.9509783630712
 30
0.0
 10
111.6353731880227
 20
-141.9957811408379
 30
0.0
 10
111.6904770755058
 20
-141.9957811408379
 30
0.0
 10
111.7456162407657
 20
-141.9957811408379
 30
0.0
 10
111.7903837396236
 20
-141.9509783630712
 30
0.0
 10
111.7903837396236
 20
-141.8958744741963
 30
0.0
  0
LINE
  5
DC
330
70
100
AcDbEntity
  8
レイヤー 1
 62
    18
420
        0
370
     9
100
AcDbLine
 10
80.5888502091213
 20
-146.6576689174502
 30
0.0
 11
80.5888502091213
 21
-141.3997630854313
 31
0.0
  0
LINE
  5
DD
330
70
100
AcDbEntity
  8
レイヤー 1
 62
    18
420
        0
370
     9
100
AcDbLine
 10
80.5888502091213
 20
-146.6576689174502
 30
0.0
 11
80.5888502091213
 21
-147.1579078062139
 31
0.0
  0
LINE
  5
DE
330
70
100
AcDbEntity
  8
レイヤー 1
 62
    18
420
        0
370
     9
100
AcDbLine
 10
82.0488894983927
 20
-146.6576689174502
 30
0.0
 11
79.58872520937132
 21
-146.6576689174502
 31
0.0
  0
LINE
  5
DF
330
70
100
AcDbEntity
  8
レイヤー 1
 62
    18
420
        0
370
     9
100
AcDbLine
 10
82.0488894983927
 20
-147.1579078062139
 30
0.0
 11
79.58872520937132
 21
-147.1579078062139
 31
0.0
  0
INSERT
  5
E1
330
70
100
AcDbEntity
  8
レイヤー 1
100
AcDbBlockReference
  2
Block_0
 10
0.0
 20
0.0
 30
0.0
  0
LINE
  5
EF
330
70
100
AcDbEntity
  8
レイヤー 1
 62
    18
420
        0
370
     9
100
AcDbLine
 10
84.58860721137655
 20
-141.8958744741963
 30
0.0
 11
105.5898911200336
 21
-141.8958744741963
 31
0.0
  0
LINE
  5
F0
330
70
100
AcDbEntity
  8
レイヤー 1
 62
    18
420
        0
370
     9
100
AcDbLine
 10
84.58860721137655
 20
-144.117951140307
 30
0.0
 11
84.58860721137655
 21
-140.895749474446
 31
0.0
  0
INSERT
  5
F2
330
70
100
AcDbEntity
  8
レイヤー 1
100
AcDbBlockReference
  2
Block_2
 10
0.0
 20
0.0
 30
0.0
  0
LINE
  5
FD
330
70
100
AcDbEntity
  8
レイヤー 1
 62
    18
420
        0
370
     9
100
AcDbLine
 10
80.5888502091213
 20
-147.1579078062139
 30
0.0
 11
80.5888502091213
 21
-153.1578816936026
 31
0.0
  0
LINE
  5
FE
330
70
100
AcDbEntity
  8
レイヤー 1
 62
    18
420
        0
370
     9
100
AcDbLine
 10
102.0504012103335
 20
-153.1578816936026
 30
0.0
 11
79.58872520937132
 21
-153.1578816936026
 31
0.0
  0
INSERT
  5
100
330
70
100
AcDbEntity
  8
レイヤー 1
100
AcDbBlockReference
  2
Block_4
 10
0.0
 20
0.0
 30
0.0
  0
LINE
  5
106
330
70
100
AcDbEntity
  8
レイヤー 1
 62
    18
420
        0
370
     9
100
AcDbLine
 10
132.6917962619397
 20
-141.8958744741963
 30
0.0
 11
111.6904770755058
 21
-141.8958744741963
 31
0.0
  0
LINE
  5
107
330
70
100
AcDbEntity
  8
レイヤー 1
 62
    18
420
        0
370
     9
100
AcDbLine
 10
132.6917962619397
 20
-144.117951140307
 30
0.0
 11
132.6917962619397
 21
-140.895749474446
 31
0.0
  0
INSERT
  5
109
330
70
100
AcDbEntity
  8
レイヤー 1
100
AcDbBlockReference
  2
Block_5
 10
0.0
 20
0.0
 30
0.0
  0
LINE
  5
114
330
70
100
AcDbEntity
  8
レイヤー 1
 62
    18
420
        0
370
     9
100
AcDbLine
 10
105.5898911200336
 20
-141.8958744741963
 30
0.0
 11
111.590570411388
 21
-141.8958744741963
 31
0.0
  0
LINE
  5
115
330
70
100
AcDbEntity
  8
レイヤー 1
 62
    18
420
        0
370
     9
100
AcDbLine
 10
105.5898911200336
 20
-143.35591586272
 30
0.0
 11
105.5898911200336
 21
-140.895749474446
 31
0.0
  0
LINE
  5
116
330
70
100
AcDbEntity
  8
レイヤー 1
 62
    18
420
        0
370
     9
100
AcDbLine
 10
111.6904770755058
 20
-143.35591586272
 30
0.0
 11
111.6904770755058
 21
-140.895749474446
 31
0.0
  0
INSERT
  5
118
330
70
100
AcDbEntity
  8
レイヤー 1
100
AcDbBlockReference
  2
Block_7
 10
0.0
 20
0.0
 30
0.0
  0
SPLINE
  5
11E
330
70
100
AcDbEntity
  8
レイヤー 1
 62
    18
420
        0
370
     9
100
AcDbSpline
210
0.0
220
0.0
230
1.0
 70
     9
 71
     3
 72
    17
 73
    13
 74
     0
 42
0.0000000001
 43
0.0000000001
 40
0.0
 40
0.0
 40
0.0
 40
0.0
 40
1.0
 40
1.0
 40
1.0
 40
2.0
 40
2.0
 40
2.0
 40
3.0
 40
3.0
 40
3.0
 40
4.0
 40
4.0
 40
4.0
 40
4.0
 10
104.8739991938531
 20
-157.2713411370187
 30
0.0
 10
104.8739991938531
 20
-157.2162019703657
 30
0.0
 10
104.8181897508324
 20
-157.1714344703771
 30
0.0
 10
104.7499978081277
 20
-157.1714344703771
 30
0.0
 10
104.6811029808756
 20
-157.1714344703771
 30
0.0
 10
104.6259611446255
 20
-157.2162019703657
 30
0.0
 10
104.6259611446255
 20
-157.2713411370187
 30
0.0
 10
104.6259611446255
 20
-157.3264450258936
 30
0.0
 10
104.6811029808756
 20
-157.3712478036604
 30
0.0
 10
104.7499978081277
 20
-157.3712478036604
 30
0.0
 10
104.8181897508324
 20
-157.3712478036604
 30
0.0
 10
104.8739991938531
 20
-157.3264450258936
 30
0.0
 10
104.8739991938531
 20
-157.2713411370187
 30
0.0
  0
SPLINE
  5
11F
330
70
100
AcDbEntity
  8
レイヤー 1
 62
    18
420
        0
370
     9
100
AcDbSpline
210
0.0
220
0.0
230
1.0
 70
     9
 71
     3
 72
    17
 73
    13
 74
     0
 42
0.0000000001
 43
0.0000000001
 40
0.0
 40
0.0
 40
0.0
 40
0.0
 40
1.0
 40
1.0
 40
1.0
 40
2.0
 40
2.0
 40
2.0
 40
3.0
 40
3.0
 40
3.0
 40
4.0
 40
4.0
 40
4.0
 40
4.0
 10
112.8748931563999
 20
-157.2713411370187
 30
0.0
 10
112.8748931563999
 20
-157.2162019703657
 30
0.0
 10
112.8190837133793
 20
-157.1714344703771
 30
0.0
 10
112.7501890899699
 20
-157.1714344703771
 30
0.0
 10
112.6812887168948
 20
-157.1714344703771
 30
0.0
 10
112.6261495516348
 20
-157.2162019703657
 30
0.0
 10
112.6261495516348
 20
-157.2713411370187
 30
0.0
 10
112.6261495516348
 20
-157.3264450258936
 30
0.0
 10
112.6812887168948
 20
-157.3712478036604
 30
0.0
 10
112.7501890899699
 20
-157.3712478036604
 30
0.0
 10
112.8190837133793
 20
-157.3712478036604
 30
0.0
 10
112.8748931563999
 20
-157.3264450258936
 30
0.0
 10
112.8748931563999
 20
-157.2713411370187
 30
0.0
  0
LINE
  5
120
330
70
100
AcDbEntity
  8
レイヤー 1
 62
    18
420
        0
370
     9
100
AcDbLine
 10
112.7501890899699
 20
-157.2713411370187
 30
0.0
 11
104.7499978081277
 21
-157.2713411370187
 31
0.0
  0
LINE
  5
121
330
70
100
AcDbEntity
  8
レイヤー 1
 62
    18
420
        0
370
     9
100
AcDbLine
 10
112.7501890899699
 20
-155.811299748495
 30
0.0
 11
112.7501890899699
 21
-158.2714308589909
 31
0.0
  0
LINE
  5
122
330
70
100
AcDbEntity
  8
レイヤー 1
 62
    18
420
        0
370
     9
100
AcDbLine
 10
104.7499978081277
 20
-155.811299748495
 30
0.0
 11
104.7499978081277
 21
-158.2714308589909
 31
0.0
  0
INSERT
  5
124
330
70
100
AcDbEntity
  8
レイヤー 1
100
AcDbBlockReference
  2
Block_8
 10
0.0
 20
0.0
 30
0.0
  0
LINE
  5
12B
330
70
100
AcDbEntity
  8
レイヤー 1
 62
    18
420
        0
370
     9
100
AcDbLine
 10
110.5618704376323
 20
-150.3032744720939
 30
0.0
 11
117.5622866479257
 21
-150.3032744720939
 31
0.0
  0
INSERT
  5
12D
330
70
100
AcDbEntity
  8
レイヤー 1
100
AcDbBlockReference
  2
Block_9
 10
0.0
 20
0.0
 30
0.0
  0
INSERT
  5
133
330
70
100
AcDbEntity
  8
レイヤー 1
100
AcDbBlockReference
  2
Block_10
 10
0.0
 20
0.0
 30
0.0
  0
INSERT
  5
13A
330
70
100
AcDbEntity
  8
レイヤー 1
100
AcDbBlockReference
  2
Block_11
 10
0.0
 20
0.0
 30
0.0
  0
LINE
  5
151
330
70
100
AcDbEntity
  8
レイヤー 1
 62
    18
420
        0
370
    25
100
AcDbLine
 10
111.590570411388
 20
-145.8956336398625
 30
0.0
 11
111.590570411388
 21
-152.1577919716304
 31
0.0
  0
INSERT
  5
153
330
70
100
AcDbEntity
  8
レイヤー 1
100
AcDbBlockReference
  2
Block_13
 10
0.0
 20
0.0
 30
0.0
  0
LWPOLYLINE
  5
178
330
70
100
AcDbEntity
  8
レイヤー 1
 62
   250
420
  2299925
370
     9
100
AcDbPolyline
 90
        3
 70
     0
 43
0.0
 10
115.6492433633981
 20
-145.4594944733047
 10
121.8232070947761
 20
-153.5726778046103
 10
132.4657715454839
 20
-153.5726778046103
  0
LWPOLYLINE
  5
179
330
70
100
AcDbEntity
  8
レイヤー 1
  6
AI-Linetype-0
 62
   154
420
    23468
370
    25
100
AcDbPolyline
 90
        6
 70
     0
 43
0.0
 10
85.01268354134866
 20
-146.047222250936
 10
106.2906488799336
 20
-145.2245091955862
 10
106.2906488799336
 20
-151.4329394718114
 10
110.8905182070256
 20
-151.4329394718114
 10
110.8905182070256
 20
-145.2831055844599
 10
132.1688032197268
 20
-145.9886611398391
  0
ENDSEC
  0
SECTION
  2
OBJECTS
  0
DICTIONARY
  5
C
330
0
100
AcDbDictionary
281
     1
  3
ACAD_COLOR
350
63
  3
ACAD_DETAILVIEWSTYLE
350
6A
  3
ACAD_GROUP
350
D
  3
ACAD_LAYOUT
350
62
  3
ACAD_MATERIAL
350
10
  3
ACAD_MLEADERSTYLE
350
66
  3
ACAD_MLINESTYLE
350
5F
  3
ACAD_PLOTSETTINGS
350
61
  3
ACAD_PLOTSTYLENAME
350
E
  3
ACAD_SCALELIST
350
42
  3
ACAD_SECTIONVIEWSTYLE
350
68
  3
ACAD_TABLESTYLE
350
64
  3
ACAD_VISUALSTYLE
350
29
  3
ACDB_RECOMPOSE_DATA
350
183
  3
AcDbVariableDictionary
350
17B
  0
DICTIONARY
  5
63
102
{ACAD_REACTORS
330
C
102
}
330
C
100
AcDbDictionary
281
     1
  0
DICTIONARY
  5
6A
102
{ACAD_REACTORS
330
C
102
}
330
C
100
AcDbDictionary
281
     1
  3
Imperial24
350
6B
  0
DICTIONARY
  5
D
102
{ACAD_REACTORS
330
C
102
}
330
C
100
AcDbDictionary
281
     1
  0
DICTIONARY
  5
62
102
{ACAD_REACTORS
330
C
102
}
330
C
100
AcDbDictionary
281
     1
  3
Layout1
350
6F
  3
Layout2
350
77
  3
Model
350
73
  0
DICTIONARY
  5
10
102
{ACAD_REACTORS
330
C
102
}
330
C
100
AcDbDictionary
281
     1
  3
ByBlock
350
19
  3
ByLayer
350
11
  3
Global
350
21
  0
DICTIONARY
  5
66
102
{ACAD_REACTORS
330
C
102
}
330
C
100
AcDbDictionary
281
     1
  3
Standard
350
67
  0
DICTIONARY
  5
5F
102
{ACAD_REACTORS
330
C
102
}
330
C
100
AcDbDictionary
281
     1
  3
Standard
350
60
  0
DICTIONARY
  5
61
102
{ACAD_REACTORS
330
C
102
}
330
C
100
AcDbDictionary
281
     1
  0
ACDBDICTIONARYWDFLT
  5
E
102
{ACAD_REACTORS
330
C
102
}
330
C
100
AcDbDictionary
281
     1
  3
Normal
350
F
100
AcDbDictionaryWithDefault
340
F
  0
DICTIONARY
  5
42
102
{ACAD_REACTORS
330
C
102
}
330
C
100
AcDbDictionary
281
     1
  3
A0
350
43
  3
A1
350
44
  3
A2
350
45
  3
A3
350
46
  3
A4
350
47
  3
A5
350
48
  3
A6
350
49
  3
A7
350
4A
  3
A8
350
4B
  3
A9
350
4C
  3
B0
350
4D
  3
B1
350
4E
  3
B2
350
4F
  3
B3
350
50
  3
B4
350
51
  3
B5
350
52
  3
B6
350
53
  0
DICTIONARY
  5
68
102
{ACAD_REACTORS
330
C
102
}
330
C
100
AcDbDictionary
281
     1
  3
Imperial24
350
69
  0
DICTIONARY
  5
64
102
{ACAD_REACTORS
330
C
102
}
330
C
100
AcDbDictionary
281
     1
  3
Standard
350
65
  0
DICTIONARY
  5
29
102
{ACAD_REACTORS
330
C
102
}
330
C
100
AcDbDictionary
281
     1
  3
2dWireframe
350
2F
  3
Basic
350
2E
  3
Brighten
350
35
  3
ColorChange
350
39
  3
Conceptual
350
32
  3
Dim
350
34
  3
EdgeColorOff
350
41
  3
Facepattern
350
38
  3
Flat
350
2A
  3
FlatWithEdges
350
2B
  3
Gouraud
350
2C
  3
GouraudWithEdges
350
2D
  3
Hidden
350
31
  3
JitterOff
350
3F
  3
Linepattern
350
37
  3
OverhangOff
350
40
  3
Realistic
350
33
  3
Shaded
350
3E
  3
Shaded with edges
350
3D
  3
Shades of Gray
350
3A
  3
Sketchy
350
3B
  3
Thicken
350
36
  3
Wireframe
350
30
  3
X-Ray
350
3C
  0
XRECORD
  5
183
102
{ACAD_REACTORS
330
C
102
}
330
C
100
AcDbXrecord
280
     1
 90
        1
330
65
  0
DICTIONARY
  5
17B
102
{ACAD_REACTORS
330
C
102
}
330
C
100
AcDbDictionary
281
     1
  3
CANNOSCALE
350
180
  3
CMLEADERSTYLE
350
17D
  3
CTABLESTYLE
350
17C
  3
CVIEWDETAILSTYLE
350
17E
  3
CVIEWSECTIONSTYLE
350
17F
  0
ACDBDETAILVIEWSTYLE
  5
6B
102
{ACAD_XDICTIONARY
360
1B8
102
}
102
{ACAD_REACTORS
330
6A
102
}
330
6A
100
AcDbModelDocViewStyle
 70
     0
  3
Imperial24
290
     0
100
AcDbDetailViewStyle
 70
     0
 71
     0
 90
        3
 71
     1
340
55
 62
   256
 40
0.24
340
0
 62
   256
 40
0.24
300

 40
0.36
280
     3
 71
     2
340
5D
 90
       25
 62
   256
 71
     3
340
55
 62
   256
 40
0.24
 90
        1
 40
0.75
 90
        1
300
%<\AcVar ViewType \f "%tc1">% %<\AcVar ViewDetailId>%\PSCALE %<\AcVar ViewScale \f "%sn">%
 71
     4
340
5D
 90
       25
 62
   256
340
5D
 90
       25
 62
   256
280
     0
  0
LAYOUT
  5
6F
102
{ACAD_REACTORS
330
62
102
}
330
62
100
AcDbPlotSettings
  1

  2

  4

  6

 40
0.0
 41
0.0
 42
0.0
 43
0.0
 44
0.0
 45
0.0
 46
0.0
 47
0.0
 48
0.0
 49
0.0
140
0.0
141
0.0
142
1.0
143
1.0
 70
   688
 72
     0
 73
     0
 74
     5
  7

 75
    16
147
1.0
 76
     0
 77
     2
 78
   300
148
0.0
149
0.0
100
AcDbLayout
  1
Layout1
 70
     1
 71
     1
 10
0.0
 20
0.0
 11
12.0
 21
9.0
 12
0.0
 22
0.0
 32
0.0
 14
0.0
 24
0.0
 34
0.0
 15
0.0
 25
0.0
 35
0.0
146
0.0
 13
0.0
 23
0.0
 33
0.0
 16
1.0
 26
0.0
 36
0.0
 17
0.0
 27
1.0
 37
0.0
 76
     0
330
6C
  0
LAYOUT
  5
77
102
{ACAD_REACTORS
330
62
102
}
330
62
100
AcDbPlotSettings
  1

  2

  4

  6

 40
0.0
 41
0.0
 42
0.0
 43
0.0
 44
0.0
 45
0.0
 46
0.0
 47
0.0
 48
0.0
 49
0.0
140
0.0
141
0.0
142
1.0
143
1.0
 70
   688
 72
     0
 73
     0
 74
     5
  7

 75
    16
147
1.0
 76
     0
 77
     2
 78
   300
148
0.0
149
0.0
100
AcDbLayout
  1
Layout2
 70
     1
 71
     2
 10
0.0
 20
0.0
 11
12.0
 21
9.0
 12
0.0
 22
0.0
 32
0.0
 14
0.0
 24
0.0
 34
0.0
 15
0.0
 25
0.0
 35
0.0
146
0.0
 13
0.0
 23
0.0
 33
0.0
 16
1.0
 26
0.0
 36
0.0
 17
0.0
 27
1.0
 37
0.0
 76
     0
330
74
  0
LAYOUT
  5
73
102
{ACAD_REACTORS
330
62
102
}
330
62
100
AcDbPlotSettings
  1

  2

  4

  6

 40
0.0
 41
0.0
 42
0.0
 43
0.0
 44
0.0
 45
0.0
 46
0.0
 47
0.0
 48
0.0
 49
0.0
140
0.0
141
0.0
142
1.0
143
1.0
 70
  1712
 72
     0
 73
     0
 74
     0
  7

 75
     0
147
1.0
 76
     0
 77
     2
 78
   300
148
0.0
149
0.0
100
AcDbLayout
  1
Model
 70
     1
 71
     0
 10
0.0
 20
0.0
 11
12.0
 21
9.0
 12
0.0
 22
0.0
 32
0.0
 14
0.0
 24
0.0
 34
0.0
 15
0.0
 25
0.0
 35
0.0
146
0.0
 13
0.0
 23
0.0
 33
0.0
 16
1.0
 26
0.0
 36
0.0
 17
0.0
 27
1.0
 37
0.0
 76
     0
330
70
  0
MATERIAL
  5
19
102
{ACAD_XDICTIONARY
360
1A
102
}
102
{ACAD_REACTORS
330
10
102
}
330
10
100
AcDbMaterial
  1
ByBlock
 72
     0
 43
0.0208333333333333
 43
0.0
 43
0.0
 43
0.0
 43
0.0
 43
0.0208333333333333
 43
0.0
 43
0.0
 43
0.0
 43
0.0
 43
1.0
 43
0.0
 43
0.0
 43
0.0
 43
0.0
 43
1.0
 77
     0
 47
0.0208333333333333
 47
0.0
 47
0.0
 47
0.0
 47
0.0
 47
0.0208333333333333
 47
0.0
 47
0.0
 47
0.0
 47
0.0
 47
1.0
 47
0.0
 47
0.0
 47
0.0
 47
0.0
 47
1.0
171
     0
 49
0.0208333333333333
 49
0.0
 49
0.0
 49
0.0
 49
0.0
 49
0.0208333333333333
 49
0.0
 49
0.0
 49
0.0
 49
0.0
 49
1.0
 49
0.0
 49
0.0
 49
0.0
 49
0.0
 49
1.0
175
     0
142
0.0208333333333333
142
0.0
142
0.0
142
0.0
142
0.0
142
0.0208333333333333
142
0.0
142
0.0
142
0.0
142
0.0
142
1.0
142
0.0
142
0.0
142
0.0
142
0.0
142
1.0
179
     0
144
0.0208333333333333
144
0.0
144
0.0
144
0.0
144
0.0
144
0.0208333333333333
144
0.0
144
0.0
144
0.0
144
0.0
144
1.0
144
0.0
144
0.0
144
0.0
144
0.0
144
1.0
147
0.0208333333333333
147
0.0
147
0.0
147
0.0
147
0.0
147
0.0208333333333333
147
0.0
147
0.0
147
0.0
147
0.0
147
1.0
147
0.0
147
0.0
147
0.0
147
0.0
147
1.0
  0
MATERIAL
  5
11
102
{ACAD_XDICTIONARY
360
12
102
}
102
{ACAD_REACTORS
330
10
102
}
330
10
100
AcDbMaterial
  1
ByLayer
 72
     0
 43
0.0208333333333333
 43
0.0
 43
0.0
 43
0.0
 43
0.0
 43
0.0208333333333333
 43
0.0
 43
0.0
 43
0.0
 43
0.0
 43
1.0
 43
0.0
 43
0.0
 43
0.0
 43
0.0
 43
1.0
 77
     0
 47
0.0208333333333333
 47
0.0
 47
0.0
 47
0.0
 47
0.0
 47
0.0208333333333333
 47
0.0
 47
0.0
 47
0.0
 47
0.0
 47
1.0
 47
0.0
 47
0.0
 47
0.0
 47
0.0
 47
1.0
171
     0
 49
0.0208333333333333
 49
0.0
 49
0.0
 49
0.0
 49
0.0
 49
0.0208333333333333
 49
0.0
 49
0.0
 49
0.0
 49
0.0
 49
1.0
 49
0.0
 49
0.0
 49
0.0
 49
0.0
 49
1.0
175
     0
142
0.0208333333333333
142
0.0
142
0.0
142
0.0
142
0.0
142
0.0208333333333333
142
0.0
142
0.0
142
0.0
142
0.0
142
1.0
142
0.0
142
0.0
142
0.0
142
0.0
142
1.0
179
     0
144
0.0208333333333333
144
0.0
144
0.0
144
0.0
144
0.0
144
0.0208333333333333
144
0.0
144
0.0
144
0.0
144
0.0
144
1.0
144
0.0
144
0.0
144
0.0
144
0.0
144
1.0
147
0.0208333333333333
147
0.0
147
0.0
147
0.0
147
0.0
147
0.0208333333333333
147
0.0
147
0.0
147
0.0
147
0.0
147
1.0
147
0.0
147
0.0
147
0.0
147
0.0
147
1.0
  0
MATERIAL
  5
21
102
{ACAD_XDICTIONARY
360
22
102
}
102
{ACAD_REACTORS
330
10
102
}
330
10
100
AcDbMaterial
  1
Global
 72
     0
 43
0.0208333333333333
 43
0.0
 43
0.0
 43
0.0
 43
0.0
 43
0.0208333333333333
 43
0.0
 43
0.0
 43
0.0
 43
0.0
 43
1.0
 43
0.0
 43
0.0
 43
0.0
 43
0.0
 43
1.0
 77
     0
 47
0.0208333333333333
 47
0.0
 47
0.0
 47
0.0
 47
0.0
 47
0.0208333333333333
 47
0.0
 47
0.0
 47
0.0
 47
0.0
 47
1.0
 47
0.0
 47
0.0
 47
0.0
 47
0.0
 47
1.0
171
     0
 49
0.0208333333333333
 49
0.0
 49
0.0
 49
0.0
 49
0.0
 49
0.0208333333333333
 49
0.0
 49
0.0
 49
0.0
 49
0.0
 49
1.0
 49
0.0
 49
0.0
 49
0.0
 49
0.0
 49
1.0
175
     0
142
0.0208333333333333
142
0.0
142
0.0
142
0.0
142
0.0
142
0.0208333333333333
142
0.0
142
0.0
142
0.0
142
0.0
142
1.0
142
0.0
142
0.0
142
0.0
142
0.0
142
1.0
179
     0
144
0.0208333333333333
144
0.0
144
0.0
144
0.0
144
0.0
144
0.0208333333333333
144
0.0
144
0.0
144
0.0
144
0.0
144
1.0
144
0.0
144
0.0
144
0.0
144
0.0
144
1.0
147
0.0208333333333333
147
0.0
147
0.0
147
0.0
147
0.0
147
0.0208333333333333
147
0.0
147
0.0
147
0.0
147
0.0
147
1.0
147
0.0
147
0.0
147
0.0
147
0.0
147
1.0
  0
MLEADERSTYLE
  5
67
102
{ACAD_XDICTIONARY
360
1B4
102
}
102
{ACAD_REACTORS
330
66
102
}
330
66
100
AcDbMLeaderStyle
179
     2
170
     2
171
     1
172
     0
 90
        2
 40
0.0
 41
0.0
173
     1
 91
-1056964608
340
5B
 92
       -2
290
     1
 42
0.09
291
     1
 43
0.36
  3
Standard
 44
0.18
300

342
55
174
     1
178
     6
175
     1
176
     0
 93
-1056964608
 45
0.18
292
     0
297
     0
 46
0.18
 94
-1056964608
 47
1.0
 49
1.0
140
1.0
293
     1
141
0.0
294
     1
177
     0
142
1.0
295
     0
296
     0
143
0.125
271
     0
272
     9
273
     9
  0
MLINESTYLE
  5
60
102
{ACAD_REACTORS
330
5F
102
}
330
5F
100
AcDbMlineStyle
  2
STANDARD
 70
     0
  3

 62
   256
 51
90.0
 52
90.0
 71
     2
 49
0.5
 62
   256
  6
BYLAYER
 49
-0.5
 62
   256
  6
BYLAYER
  0
ACDBPLACEHOLDER
  5
F
102
{ACAD_REACTORS
330
E
102
}
330
E
  0
SCALE
  5
43
102
{ACAD_REACTORS
330
42
102
}
330
42
100
AcDbScale
 70
     0
300
1:1
140
1.0
141
1.0
290
     1
  0
SCALE
  5
44
102
{ACAD_REACTORS
330
42
102
}
330
42
100
AcDbScale
 70
     0
300
1/128" = 1'-0"
140
0.0078125
141
12.0
290
     0
  0
SCALE
  5
45
102
{ACAD_REACTORS
330
42
102
}
330
42
100
AcDbScale
 70
     0
300
1/64" = 1'-0"
140
0.015625
141
12.0
290
     0
  0
SCALE
  5
46
102
{ACAD_REACTORS
330
42
102
}
330
42
100
AcDbScale
 70
     0
300
1/32" = 1'-0"
140
0.03125
141
12.0
290
     0
  0
SCALE
  5
47
102
{ACAD_REACTORS
330
42
102
}
330
42
100
AcDbScale
 70
     0
300
1/16" = 1'-0"
140
0.0625
141
12.0
290
     0
  0
SCALE
  5
48
102
{ACAD_REACTORS
330
42
102
}
330
42
100
AcDbScale
 70
     0
300
3/32" = 1'-0"
140
0.09375
141
12.0
290
     0
  0
SCALE
  5
49
102
{ACAD_REACTORS
330
42
102
}
330
42
100
AcDbScale
 70
     0
300
1/8" = 1'-0"
140
0.125
141
12.0
290
     0
  0
SCALE
  5
4A
102
{ACAD_REACTORS
330
42
102
}
330
42
100
AcDbScale
 70
     0
300
3/16" = 1'-0"
140
0.1875
141
12.0
290
     0
  0
SCALE
  5
4B
102
{ACAD_REACTORS
330
42
102
}
330
42
100
AcDbScale
 70
     0
300
1/4" = 1'-0"
140
0.25
141
12.0
290
     0
  0
SCALE
  5
4C
102
{ACAD_REACTORS
330
42
102
}
330
42
100
AcDbScale
 70
     0
300
3/8" = 1'-0"
140
0.375
141
12.0
290
     0
  0
SCALE
  5
4D
102
{ACAD_REACTORS
330
42
102
}
330
42
100
AcDbScale
 70
     0
300
1/2" = 1'-0"
140
0.5
141
12.0
290
     0
  0
SCALE
  5
4E
102
{ACAD_REACTORS
330
42
102
}
330
42
100
AcDbScale
 70
     0
300
3/4" = 1'-0"
140
0.75
141
12.0
290
     0
  0
SCALE
  5
4F
102
{ACAD_REACTORS
330
42
102
}
330
42
100
AcDbScale
 70
     0
300
1" = 1'-0"
140
1.0
141
12.0
290
     0
  0
SCALE
  5
50
102
{ACAD_REACTORS
330
42
102
}
330
42
100
AcDbScale
 70
     0
300
1-1/2" = 1'-0"
140
1.5
141
12.0
290
     0
  0
SCALE
  5
51
102
{ACAD_REACTORS
330
42
102
}
330
42
100
AcDbScale
 70
     0
300
3" = 1'-0"
140
3.0
141
12.0
290
     0
  0
SCALE
  5
52
102
{ACAD_REACTORS
330
42
102
}
330
42
100
AcDbScale
 70
     0
300
6" = 1'-0"
140
6.0
141
12.0
290
     0
  0
SCALE
  5
53
102
{ACAD_REACTORS
330
42
102
}
330
42
100
AcDbScale
 70
     0
300
1'-0" = 1'-0"
140
12.0
141
12.0
290
     0
  0
ACDBSECTIONVIEWSTYLE
  5
69
102
{ACAD_XDICTIONARY
360
1B6
102
}
102
{ACAD_REACTORS
330
68
102
}
330
68
100
AcDbModelDocViewStyle
 70
     0
  3
Imperial24
290
     0
100
AcDbSectionViewStyle
 70
     0
 71
     0
 90
       78
 71
     1
340
55
 62
   256
 40
0.24
340
0
340
0
 62
   256
 40
0.24
300
I, O, Q, S, X, Z
 40
0.48
 90
        3
 40
0.18
 90
        1
 71
     2
340
5D
 90
       25
 62
   256
340
5D
 90
       50
 62
   256
 40
0.24
 40
0.0
 40
0.24
 71
     3
340
55
 62
   256
 40
0.24
 90
        1
 40
0.75
 90
        1
300
%<\AcVar ViewType \f "%tc1">% %<\AcVar ViewSectionStartId>%-%<\AcVar ViewSectionEndId>%\PSCALE %<\AcVar ViewScale \f "%sn">%
 71
     4
 62
   256
 62
   257
300
ANSI31
 40
1.0
 90
        0
290
     0
290
     0
 90
        6
 40
0.0
 40
1.570796326794896
 40
0.2617993877991494
 40
1.308996938995747
 40
-0.2617993877991494
 40
1.832595714594046
  0
TABLESTYLE
  5
65
102
{ACAD_XDICTIONARY
360
181
102
}
102
{ACAD_REACTORS
330
64
102
}
330
64
100
AcDbTableStyle
280
     0
  3
Standard
 70
     0
 71
     0
 40
0.06
 41
0.06
280
     0
281
     0
  7
Standard
140
0.18
170
     2
 62
     0
 63
     7
283
     0
 90
      512
 91
        0
  1

274
    -2
284
     1
 64
     0
275
    -2
285
     1
 65
     0
276
    -2
286
     1
 66
     0
277
    -2
287
     1
 67
     0
278
    -2
288
     1
 68
     0
279
    -2
289
     1
 69
     0
  7
Standard
140
0.25
170
     5
 62
     0
 63
     7
283
     0
 90
      512
 91
        0
  1

274
    -2
284
     1
 64
     0
275
    -2
285
     1
 65
     0
276
    -2
286
     1
 66
     0
277
    -2
287
     1
 67
     0
278
    -2
288
     1
 68
     0
279
    -2
289
     1
 69
     0
  7
Standard
140
0.18
170
     5
 62
     0
 63
     7
283
     0
 90
      512
 91
        0
  1

274
    -2
284
     1
 64
     0
275
    -2
285
     1
 65
     0
276
    -2
286
     1
 66
     0
277
    -2
287
     1
 67
     0
278
    -2
288
     1
 68
     0
279
    -2
289
     1
 69
     0
  0
VISUALSTYLE
  5
2F
102
{ACAD_XDICTIONARY
360
18E
102
}
102
{ACAD_REACTORS
330
29
102
}
330
29
100
AcDbVisualStyle
  2
2dWireframe
 70
     4
177
     2
291
     0
 71
     0
176
     1
 72
     2
176
     1
 73
     0
176
     1
 90
        0
176
     1
 40
0.6
176
     1
 41
30.0
176
     1
 63
     7
421
 16777215
176
     1
 74
     1
176
     1
 91
        4
176
     1
 64
     7
176
     1
 65
   257
176
     1
 75
     1
176
     1
175
     1
176
     1
 42
1.0
176
     1
 92
        0
176
     1
 66
   257
176
     1
 43
1.0
176
     1
 76
     1
176
     1
 77
     6
176
     1
 78
     2
176
     1
 67
     7
176
     1
 79
     5
176
     1
170
     0
176
     1
171
     0
176
     1
290
     0
176
     1
 93
        1
176
     1
 44
0.0
176
     1
173
     0
176
     1
1001
ACAD
1000
AcDbSavedByObjectVersion
1070
     0
  0
VISUALSTYLE
  5
2E
102
{ACAD_XDICTIONARY
360
18C
102
}
102
{ACAD_REACTORS
330
29
102
}
330
29
100
AcDbVisualStyle
  2
Basic
 70
     7
177
     2
291
     1
 71
     1
176
     1
 72
     0
176
     1
 73
     1
176
     1
 90
        0
176
     1
 40
0.6
176
     1
 41
30.0
176
     1
 63
     7
421
 16777215
176
     1
 74
     0
176
     1
 91
        4
176
     1
 64
     7
176
     1
 65
   257
176
     1
 75
     1
176
     1
175
     1
176
     1
 42
1.0
176
     1
 92
        8
176
     1
 66
     7
176
     1
 43
1.0
176
     1
 76
     1
176
     1
 77
     6
176
     1
 78
     2
176
     1
 67
     7
176
     1
 79
     5
176
     1
170
     0
176
     1
171
     0
176
     1
290
     0
176
     1
 93
        1
176
     1
 44
0.0
176
     1
173
     0
176
     1
1001
ACAD
1000
AcDbSavedByObjectVersion
1070
     0
  0
VISUALSTYLE
  5
35
102
{ACAD_XDICTIONARY
360
19A
102
}
102
{ACAD_REACTORS
330
29
102
}
330
29
100
AcDbVisualStyle
  2
Brighten
 70
    12
177
     2
291
     1
 71
     2
176
     1
 72
     2
176
     1
 73
     0
176
     1
 90
        0
176
     1
 40
0.6
176
     1
 41
30.0
176
     1
 63
     7
421
 16777215
176
     1
 74
     1
176
     1
 91
        4
176
     1
 64
     7
176
     1
 65
   257
176
     1
 75
     1
176
     1
175
     1
176
     1
 42
1.0
176
     1
 92
        8
176
     1
 66
     7
176
     1
 43
1.0
176
     1
 76
     1
176
     1
 77
     6
176
     1
 78
     2
176
     1
 67
     7
176
     1
 79
     5
176
     1
170
     0
176
     1
171
     0
176
     1
290
     0
176
     1
 93
        1
176
     1
 44
50.0
176
     1
173
     0
176
     1
1001
ACAD
1000
AcDbSavedByObjectVersion
1070
     0
  0
VISUALSTYLE
  5
39
102
{ACAD_XDICTIONARY
360
1A2
102
}
102
{ACAD_REACTORS
330
29
102
}
330
29
100
AcDbVisualStyle
  2
ColorChange
 70
    16
177
     2
291
     1
 71
     2
176
     1
 72
     2
176
     1
 73
     3
176
     1
 90
        0
176
     1
 40
0.6
176
     1
 41
30.0
176
     1
 63
     8
421
  8421504
176
     1
 74
     1
176
     1
 91
        4
176
     1
 64
     7
176
     1
 65
   257
176
     1
 75
     1
176
     1
175
     1
176
     1
 42
1.0
176
     1
 92
        8
176
     1
 66
     8
424
  8421504
176
     1
 43
1.0
176
     1
 76
     1
176
     1
 77
     6
176
     1
 78
     2
176
     1
 67
     7
176
     1
 79
     5
176
     1
170
     0
176
     1
171
     0
176
     1
290
     0
176
     1
 93
        1
176
     1
 44
0.0
176
     1
173
     0
176
     1
1001
ACAD
1000
AcDbSavedByObjectVersion
1070
     0
  0
VISUALSTYLE
  5
32
102
{ACAD_XDICTIONARY
360
194
102
}
102
{ACAD_REACTORS
330
29
102
}
330
29
100
AcDbVisualStyle
  2
Conceptual
 70
     9
177
     2
291
     0
 71
     3
176
     1
 72
     2
176
     1
 73
     0
176
     1
 90
        0
176
     1
 40
0.6
176
     1
 41
30.0
176
     1
 63
     7
421
 16777215
176
     1
 74
     2
176
     1
 91
        2
176
     1
 64
     7
176
     1
 65
   257
176
     1
 75
     1
176
     1
175
     1
176
     1
 42
179.0
176
     1
 92
        8
176
     1
 66
     7
176
     1
 43
1.0
176
     1
 76
     1
176
     1
 77
     6
176
     1
 78
     2
176
     1
 67
     7
176
     1
 79
     3
176
     1
170
     0
176
     1
171
     0
176
     1
290
     0
176
     1
 93
        1
176
     1
 44
0.0
176
     1
173
     0
176
     1
1001
ACAD
1000
AcDbSavedByObjectVersion
1070
     0
  0
VISUALSTYLE
  5
34
102
{ACAD_XDICTIONARY
360
198
102
}
102
{ACAD_REACTORS
330
29
102
}
330
29
100
AcDbVisualStyle
  2
Dim
 70
    11
177
     2
291
     1
 71
     2
176
     1
 72
     2
176
     1
 73
     0
176
     1
 90
        0
176
     1
 40
0.6
176
     1
 41
30.0
176
     1
 63
     7
421
 16777215
176
     1
 74
     1
176
     1
 91
        4
176
     1
 64
     7
176
     1
 65
   257
176
     1
 75
     1
176
     1
175
     1
176
     1
 42
1.0
176
     1
 92
        8
176
     1
 66
     7
176
     1
 43
1.0
176
     1
 76
     1
176
     1
 77
     6
176
     1
 78
     2
176
     1
 67
     7
176
     1
 79
     5
176
     1
170
     0
176
     1
171
     0
176
     1
290
     0
176
     1
 93
        1
176
     1
 44
-50.0
176
     1
173
     0
176
     1
1001
ACAD
1000
AcDbSavedByObjectVersion
1070
     0
  0
VISUALSTYLE
  5
41
102
{ACAD_XDICTIONARY
360
1B2
102
}
102
{ACAD_REACTORS
330
29
102
}
330
29
100
AcDbVisualStyle
  2
EdgeColorOff
 70
    22
177
     2
291
     1
 71
     2
176
     0
 72
     2
176
     0
 73
     0
176
     0
 90
        0
176
     0
 40
0.6
176
     0
 41
30.0
176
     0
 63
     7
421
 16777215
176
     0
 74
     1
176
     0
 91
        4
176
     0
 64
     7
176
     0
 65
   257
176
     0
 75
     1
176
     0
175
     1
176
     0
 42
1.0
176
     0
 92
        8
176
     2
 66
     7
176
     0
 43
1.0
176
     0
 76
     1
176
     0
 77
     6
176
     0
 78
     2
176
     0
 67
     7
176
     0
 79
     5
176
     0
170
     0
176
     0
171
     0
176
     0
290
     0
176
     0
 93
        1
176
     0
 44
0.0
176
     0
173
     0
176
     0
1001
ACAD
1000
AcDbSavedByObjectVersion
1070
     0
  0
VISUALSTYLE
  5
38
102
{ACAD_XDICTIONARY
360
1A0
102
}
102
{ACAD_REACTORS
330
29
102
}
330
29
100
AcDbVisualStyle
  2
Facepattern
 70
    15
177
     2
291
     1
 71
     2
176
     1
 72
     2
176
     1
 73
     0
176
     1
 90
        0
176
     1
 40
0.6
176
     1
 41
30.0
176
     1
 63
     7
421
 16777215
176
     1
 74
     1
176
     1
 91
        4
176
     1
 64
     7
176
     1
 65
   257
176
     1
 75
     1
176
     1
175
     1
176
     1
 42
1.0
176
     1
 92
        8
176
     1
 66
     7
176
     1
 43
1.0
176
     1
 76
     1
176
     1
 77
     6
176
     1
 78
     2
176
     1
 67
     7
176
     1
 79
     5
176
     1
170
     0
176
     1
171
     0
176
     1
290
     0
176
     1
 93
        1
176
     1
 44
0.0
176
     1
173
     0
176
     1
1001
ACAD
1000
AcDbSavedByObjectVersion
1070
     0
  0
VISUALSTYLE
  5
2A
102
{ACAD_XDICTIONARY
360
184
102
}
102
{ACAD_REACTORS
330
29
102
}
330
29
100
AcDbVisualStyle
  2
Flat
 70
     0
177
     2
291
     1
 71
     2
176
     1
 72
     1
176
     1
 73
     1
176
     1
 90
        2
176
     1
 40
0.6
176
     1
 41
30.0
176
     1
 63
     7
421
 16777215
176
     1
 74
     0
176
     1
 91
        0
176
     1
 64
     7
176
     1
 65
   257
176
     1
 75
     1
176
     1
175
     1
176
     1
 42
1.0
176
     1
 92
        8
176
     1
 66
     7
176
     1
 43
1.0
176
     1
 76
     1
176
     1
 77
     6
176
     1
 78
     2
176
     1
 67
     7
176
     1
 79
     5
176
     1
170
     0
176
     1
171
     0
176
     1
290
     0
176
     1
 93
       13
176
     1
 44
0.0
176
     1
173
     0
176
     1
1001
ACAD
1000
AcDbSavedByObjectVersion
1070
     0
  0
VISUALSTYLE
  5
2B
102
{ACAD_XDICTIONARY
360
186
102
}
102
{ACAD_REACTORS
330
29
102
}
330
29
100
AcDbVisualStyle
  2
FlatWithEdges
 70
     1
177
     2
291
     1
 71
     2
176
     1
 72
     1
176
     1
 73
     1
176
     1
 90
        2
176
     1
 40
0.6
176
     1
 41
30.0
176
     1
 63
     7
421
 16777215
176
     1
 74
     1
176
     1
 91
        0
176
     1
 64
     7
176
     1
 65
   257
176
     1
 75
     1
176
     1
175
     1
176
     1
 42
1.0
176
     1
 92
        0
176
     1
 66
   257
176
     1
 43
1.0
176
     1
 76
     1
176
     1
 77
     6
176
     1
 78
     2
176
     1
 67
     7
176
     1
 79
     5
176
     1
170
     0
176
     1
171
     0
176
     1
290
     0
176
     1
 93
       13
176
     1
 44
0.0
176
     1
173
     0
176
     1
1001
ACAD
1000
AcDbSavedByObjectVersion
1070
     0
  0
VISUALSTYLE
  5
2C
102
{ACAD_XDICTIONARY
360
188
102
}
102
{ACAD_REACTORS
330
29
102
}
330
29
100
AcDbVisualStyle
  2
Gouraud
 70
     2
177
     2
291
     1
 71
     2
176
     1
 72
     2
176
     1
 73
     1
176
     1
 90
        2
176
     1
 40
0.6
176
     1
 41
30.0
176
     1
 63
     7
421
 16777215
176
     1
 74
     0
176
     1
 91
        0
176
     1
 64
     7
176
     1
 65
   257
176
     1
 75
     1
176
     1
175
     1
176
     1
 42
1.0
176
     1
 92
        0
176
     1
 66
     7
176
     1
 43
1.0
176
     1
 76
     1
176
     1
 77
     6
176
     1
 78
     2
176
     1
 67
     7
176
     1
 79
     5
176
     1
170
     0
176
     1
171
     0
176
     1
290
     0
176
     1
 93
       13
176
     1
 44
0.0
176
     1
173
     0
176
     1
1001
ACAD
1000
AcDbSavedByObjectVersion
1070
     0
  0
VISUALSTYLE
  5
2D
102
{ACAD_XDICTIONARY
360
18A
102
}
102
{ACAD_REACTORS
330
29
102
}
330
29
100
AcDbVisualStyle
  2
GouraudWithEdges
 70
     3
177
     2
291
     1
 71
     2
176
     1
 72
     2
176
     1
 73
     1
176
     1
 90
        2
176
     1
 40
0.6
176
     1
 41
30.0
176
     1
 63
     7
421
 16777215
176
     1
 74
     1
176
     1
 91
        0
176
     1
 64
     7
176
     1
 65
   257
176
     1
 75
     1
176
     1
175
     1
176
     1
 42
1.0
176
     1
 92
        0
176
     1
 66
   257
176
     1
 43
1.0
176
     1
 76
     1
176
     1
 77
     6
176
     1
 78
     2
176
     1
 67
     7
176
     1
 79
     5
176
     1
170
     0
176
     1
171
     0
176
     1
290
     0
176
     1
 93
       13
176
     1
 44
0.0
176
     1
173
     0
176
     1
1001
ACAD
1000
AcDbSavedByObjectVersion
1070
     0
  0
VISUALSTYLE
  5
31
102
{ACAD_XDICTIONARY
360
192
102
}
102
{ACAD_REACTORS
330
29
102
}
330
29
100
AcDbVisualStyle
  2
Hidden
 70
     6
177
     2
291
     0
 71
     1
176
     1
 72
     2
176
     1
 73
     2
176
     1
 90
        0
176
     1
 40
0.6
176
     1
 41
30.0
176
     1
 63
     7
421
 16777215
176
     1
 74
     2
176
     1
 91
        2
176
     1
 64
     7
176
     1
 65
   257
176
     1
 75
     2
176
     1
175
     1
176
     1
 42
40.0
176
     1
 92
        0
176
     1
 66
   257
176
     1
 43
1.0
176
     1
 76
     1
176
     1
 77
     6
176
     1
 78
     2
176
     1
 67
     7
176
     1
 79
     3
176
     1
170
     0
176
     1
171
     0
176
     1
290
     0
176
     1
 93
        1
176
     1
 44
0.0
176
     1
173
     0
176
     1
1001
ACAD
1000
AcDbSavedByObjectVersion
1070
     0
  0
VISUALSTYLE
  5
3F
102
{ACAD_XDICTIONARY
360
1AE
102
}
102
{ACAD_REACTORS
330
29
102
}
330
29
100
AcDbVisualStyle
  2
JitterOff
 70
    20
177
     2
291
     1
 71
     2
176
     0
 72
     2
176
     0
 73
     0
176
     0
 90
        0
176
     0
 40
0.6
176
     0
 41
30.0
176
     0
 63
     7
421
 16777215
176
     0
 74
     1
176
     0
 91
        4
176
     0
 64
     7
176
     0
 65
   257
176
     0
 75
     1
176
     0
175
     1
176
     0
 42
1.0
176
     0
 92
       10
176
     2
 66
     7
176
     0
 43
1.0
176
     0
 76
     1
176
     0
 77
     6
176
     0
 78
     2
176
     0
 67
     7
176
     0
 79
     5
176
     0
170
     0
176
     0
171
     0
176
     0
290
     0
176
     0
 93
        1
176
     0
 44
0.0
176
     0
173
     0
176
     0
1001
ACAD
1000
AcDbSavedByObjectVersion
1070
     0
  0
VISUALSTYLE
  5
37
102
{ACAD_XDICTIONARY
360
19E
102
}
102
{ACAD_REACTORS
330
29
102
}
330
29
100
AcDbVisualStyle
  2
Linepattern
 70
    14
177
     2
291
     1
 71
     2
176
     1
 72
     2
176
     1
 73
     0
176
     1
 90
        0
176
     1
 40
0.6
176
     1
 41
30.0
176
     1
 63
     7
421
 16777215
176
     1
 74
     1
176
     1
 91
        4
176
     1
 64
     7
176
     1
 65
   257
176
     1
 75
     7
176
     1
175
     7
176
     1
 42
1.0
176
     1
 92
        8
176
     1
 66
     7
176
     1
 43
1.0
176
     1
 76
     1
176
     1
 77
     6
176
     1
 78
     2
176
     1
 67
     7
176
     1
 79
     5
176
     1
170
     0
176
     1
171
     0
176
     1
290
     0
176
     1
 93
        1
176
     1
 44
0.0
176
     1
173
     0
176
     1
1001
ACAD
1000
AcDbSavedByObjectVersion
1070
     0
  0
VISUALSTYLE
  5
40
102
{ACAD_XDICTIONARY
360
1B0
102
}
102
{ACAD_REACTORS
330
29
102
}
330
29
100
AcDbVisualStyle
  2
OverhangOff
 70
    21
177
     2
291
     1
 71
     2
176
     0
 72
     2
176
     0
 73
     0
176
     0
 90
        0
176
     0
 40
0.6
176
     0
 41
30.0
176
     0
 63
     7
421
 16777215
176
     0
 74
     1
176
     0
 91
        4
176
     0
 64
     7
176
     0
 65
   257
176
     0
 75
     1
176
     0
175
     1
176
     0
 42
1.0
176
     0
 92
        9
176
     2
 66
     7
176
     0
 43
1.0
176
     0
 76
     1
176
     0
 77
     6
176
     0
 78
     2
176
     0
 67
     7
176
     0
 79
     5
176
     0
170
     0
176
     0
171
     0
176
     0
290
     0
176
     0
 93
        1
176
     0
 44
0.0
176
     0
173
     0
176
     0
1001
ACAD
1000
AcDbSavedByObjectVersion
1070
     0
  0
VISUALSTYLE
  5
33
102
{ACAD_XDICTIONARY
360
196
102
}
102
{ACAD_REACTORS
330
29
102
}
330
29
100
AcDbVisualStyle
  2
Realistic
 70
     8
177
     2
291
     0
 71
     2
176
     1
 72
     3
176
     1
 73
     0
176
     1
 90
        2
176
     1
 40
0.6
176
     1
 41
30.0
176
     1
 63
     7
421
 16777215
176
     1
 74
     0
176
     1
 91
        0
176
     1
 64
     7
176
     1
 65
   257
176
     1
 75
     1
176
     1
175
     1
176
     1
 42
1.0
176
     1
 92
        8
176
     1
 66
   257
176
     1
 43
1.0
176
     1
 76
     1
176
     1
 77
     6
176
     1
 78
     2
176
     1
 67
     7
176
     1
 79
     3
176
     1
170
     0
176
     1
171
     0
176
     1
290
     0
176
     1
 93
       13
176
     1
 44
0.0
176
     1
173
     0
176
     1
1001
ACAD
1000
AcDbSavedByObjectVersion
1070
     0
  0
VISUALSTYLE
  5
3E
102
{ACAD_XDICTIONARY
360
1AC
102
}
102
{ACAD_REACTORS
330
29
102
}
330
29
100
AcDbVisualStyle
  2
Shaded
 70
    27
177
     2
291
     0
 71
     2
176
     1
 72
     2
176
     1
 73
     1
176
     1
 90
        2
176
     1
 40
0.6
176
     1
 41
30.0
176
     1
 63
     7
421
 16777215
176
     1
 74
     0
176
     1
 91
        4
176
     1
 64
     7
176
     1
 65
   257
176
     1
 75
     1
176
     1
175
     1
176
     1
 42
1.0
176
     1
 92
        8
176
     1
 66
   257
176
     1
 43
1.0
176
     1
 76
     1
176
     1
 77
     6
176
     1
 78
     2
176
     1
 67
     8
425
  7895160
176
     1
 79
     3
176
     1
170
     0
176
     1
171
     0
176
     1
290
     0
176
     1
 93
        5
176
     1
 44
0.0
176
     1
173
     0
176
     1
1001
ACAD
1000
AcDbSavedByObjectVersion
1070
     0
  0
VISUALSTYLE
  5
3D
102
{ACAD_XDICTIONARY
360
1AA
102
}
102
{ACAD_REACTORS
330
29
102
}
330
29
100
AcDbVisualStyle
  2
Shaded with edges
 70
    26
177
     2
291
     0
 71
     2
176
     1
 72
     2
176
     1
 73
     1
176
     1
 90
        2
176
     1
 40
0.6
176
     1
 41
30.0
176
     1
 63
     7
421
 16777215
176
     1
 74
     1
176
     1
 91
        2
176
     1
 64
     7
176
     1
 65
   257
176
     1
 75
     2
176
     1
175
     1
176
     1
 42
1.0
176
     1
 92
        8
176
     1
 66
   257
176
     1
 43
1.0
176
     1
 76
     1
176
     1
 77
     6
176
     1
 78
     2
176
     1
 67
     7
176
     1
 79
     3
176
     1
170
     0
176
     1
171
     0
176
     1
290
     0
176
     1
 93
        5
176
     1
 44
0.0
176
     1
173
     0
176
     1
1001
ACAD
1000
AcDbSavedByObjectVersion
1070
     0
  0
VISUALSTYLE
  5
3A
102
{ACAD_XDICTIONARY
360
1A4
102
}
102
{ACAD_REACTORS
330
29
102
}
330
29
100
AcDbVisualStyle
  2
Shades of Gray
 70
    23
177
     2
291
     0
 71
     2
176
     1
 72
     2
176
     1
 73
     3
176
     1
 90
        0
176
     1
 40
0.6
176
     1
 41
30.0
176
     1
 63
     7
421
 16777215
176
     1
 74
     2
176
     1
 91
        2
176
     1
 64
     7
176
     1
 65
     7
176
     1
 75
     1
176
     1
175
     1
176
     1
 42
40.0
176
     1
 92
        8
176
     1
 66
     7
176
     1
 43
1.0
176
     1
 76
     1
176
     1
 77
     6
176
     1
 78
     2
176
     1
 67
     7
176
     1
 79
     3
176
     1
170
     0
176
     1
171
     0
176
     1
290
     0
176
     1
 93
        1
176
     1
 44
0.0
176
     1
173
     0
176
     1
1001
ACAD
1000
AcDbSavedByObjectVersion
1070
     0
  0
VISUALSTYLE
  5
3B
102
{ACAD_XDICTIONARY
360
1A6
102
}
102
{ACAD_REACTORS
330
29
102
}
330
29
100
AcDbVisualStyle
  2
Sketchy
 70
    24
177
     2
291
     0
 71
     1
176
     1
 72
     2
176
     1
 73
     2
176
     1
 90
        0
176
     1
 40
0.6
176
     1
 41
30.0
176
     1
 63
     7
421
 16777215
176
     1
 74
     2
176
     1
 91
        2
176
     1
 64
     7
176
     1
 65
     7
176
     1
 75
     1
176
     1
175
     1
176
     1
 42
40.0
176
     1
 92
       11
176
     1
 66
     7
176
     1
 43
1.0
176
     1
 76
     1
176
     1
 77
     6
176
     1
 78
     2
176
     1
 67
     7
176
     1
 79
     6
176
     1
170
     0
176
     1
171
     0
176
     1
290
     0
176
     1
 93
        1
176
     1
 44
0.0
176
     1
173
     0
176
     1
1001
ACAD
1000
AcDbSavedByObjectVersion
1070
     0
  0
VISUALSTYLE
  5
36
102
{ACAD_XDICTIONARY
360
19C
102
}
102
{ACAD_REACTORS
330
29
102
}
330
29
100
AcDbVisualStyle
  2
Thicken
 70
    13
177
     2
291
     1
 71
     2
176
     1
 72
     2
176
     1
 73
     0
176
     1
 90
        0
176
     1
 40
0.6
176
     1
 41
30.0
176
     1
 63
     7
421
 16777215
176
     1
 74
     1
176
     1
 91
        4
176
     1
 64
     7
176
     1
 65
   257
176
     1
 75
     1
176
     1
175
     1
176
     1
 42
1.0
176
     1
 92
       12
176
     1
 66
     7
176
     1
 43
1.0
176
     1
 76
     1
176
     1
 77
     6
176
     1
 78
     2
176
     1
 67
     7
176
     1
 79
     5
176
     1
170
     0
176
     1
171
     0
176
     1
290
     0
176
     1
 93
        1
176
     1
 44
0.0
176
     1
173
     0
176
     1
1001
ACAD
1000
AcDbSavedByObjectVersion
1070
     0
  0
VISUALSTYLE
  5
30
102
{ACAD_XDICTIONARY
360
190
102
}
102
{ACAD_REACTORS
330
29
102
}
330
29
100
AcDbVisualStyle
  2
Wireframe
 70
     5
177
     2
291
     0
 71
     0
176
     1
 72
     2
176
     1
 73
     0
176
     1
 90
        0
176
     1
 40
0.6
176
     1
 41
30.0
176
     1
 63
     7
421
 16777215
176
     1
 74
     1
176
     1
 91
        4
176
     1
 64
     7
176
     1
 65
   257
176
     1
 75
     1
176
     1
175
     1
176
     1
 42
1.0
176
     1
 92
        0
176
     1
 66
   257
176
     1
 43
1.0
176
     1
 76
     1
176
     1
 77
     6
176
     1
 78
     2
176
     1
 67
     7
176
     1
 79
     3
176
     1
170
     0
176
     1
171
     0
176
     1
290
     0
176
     1
 93
        1
176
     1
 44
0.0
176
     1
173
     0
176
     1
1001
ACAD
1000
AcDbSavedByObjectVersion
1070
     0
  0
VISUALSTYLE
  5
3C
102
{ACAD_XDICTIONARY
360
1A8
102
}
102
{ACAD_REACTORS
330
29
102
}
330
29
100
AcDbVisualStyle
  2
X-Ray
 70
    25
177
     2
291
     0
 71
     2
176
     1
 72
     2
176
     1
 73
     1
176
     1
 90
        1
176
     1
 40
0.5
176
     1
 41
30.0
176
     1
 63
     7
421
 16777215
176
     1
 74
     1
176
     1
 91
        0
176
     1
 64
     7
176
     1
 65
   257
176
     1
 75
     1
176
     1
175
     1
176
     1
 42
1.0
176
     1
 92
        8
176
     1
 66
     7
176
     1
 43
1.0
176
     1
 76
     1
176
     1
 77
     6
176
     1
 78
     2
176
     1
 67
     7
176
     1
 79
     3
176
     1
170
     0
176
     1
171
     0
176
     1
290
     0
176
     1
 93
       13
176
     1
 44
0.0
176
     1
173
     0
176
     1
1001
ACAD
1000
AcDbSavedByObjectVersion
1070
     0
  0
DICTIONARYVAR
  5
180
102
{ACAD_REACTORS
330
17B
102
}
330
17B
100
DictionaryVariables
280
     0
  1
1:1
  0
DICTIONARYVAR
  5
17D
102
{ACAD_REACTORS
330
17B
102
}
330
17B
100
DictionaryVariables
280
     0
  1
STANDARD
  0
DICTIONARYVAR
  5
17C
102
{ACAD_REACTORS
330
17B
102
}
330
17B
100
DictionaryVariables
280
     0
  1
STANDARD
  0
DICTIONARYVAR
  5
17E
102
{ACAD_REACTORS
330
17B
102
}
330
17B
100
DictionaryVariables
280
     0
  1
Imperial24
  0
DICTIONARYVAR
  5
17F
102
{ACAD_REACTORS
330
17B
102
}
330
17B
100
DictionaryVariables
280
     0
  1
Imperial24
  0
DICTIONARY
  5
1B8
330
6B
100
AcDbDictionary
280
     1
281
     1
  3
ACAD_XREC_ROUNDTRIP
360
1B9
  0
DICTIONARY
  5
1A
330
19
100
AcDbDictionary
280
     1
281
     1
  3
BUMPTILE
360
1C
  3
DIFFUSETILE
360
1B
  3
OPACITYTILE
360
1F
  3
REFLECTIONTILE
360
1E
  3
REFRACTIONTILE
360
20
  3
SPECULARTILE
360
1D
  0
DICTIONARY
  5
12
330
11
100
AcDbDictionary
280
     1
281
     1
  3
BUMPTILE
360
14
  3
DIFFUSETILE
360
13
  3
OPACITYTILE
360
17
  3
REFLECTIONTILE
360
16
  3
REFRACTIONTILE
360
18
  3
SPECULARTILE
360
15
  0
DICTIONARY
  5
22
330
21
100
AcDbDictionary
280
     1
281
     1
  3
BUMPTILE
360
24
  3
DIFFUSETILE
360
23
  3
OPACITYTILE
360
27
  3
REFLECTIONTILE
360
26
  3
REFRACTIONTILE
360
28
  3
SPECULARTILE
360
25
  0
DICTIONARY
  5
1B4
330
67
100
AcDbDictionary
280
     1
281
     1
  3
ACAD_XREC_ROUNDTRIP
360
1B5
  0
DICTIONARY
  5
1B6
330
69
100
AcDbDictionary
280
     1
281
     1
  3
ACAD_XREC_ROUNDTRIP
360
1B7
  0
DICTIONARY
  5
181
330
65
100
AcDbDictionary
280
     1
281
     1
  3
ACAD_ROUNDTRIP_2008_TABLESTYLE_CELLSTYLEMAP
360
182
  0
DICTIONARY
  5
18E
330
2F
100
AcDbDictionary
280
     1
281
     1
  3
ACAD_XREC_ROUNDTRIP
360
18F
  0
DICTIONARY
  5
18C
330
2E
100
AcDbDictionary
280
     1
281
     1
  3
ACAD_XREC_ROUNDTRIP
360
18D
  0
DICTIONARY
  5
19A
330
35
100
AcDbDictionary
280
     1
281
     1
  3
ACAD_XREC_ROUNDTRIP
360
19B
  0
DICTIONARY
  5
1A2
330
39
100
AcDbDictionary
280
     1
281
     1
  3
ACAD_XREC_ROUNDTRIP
360
1A3
  0
DICTIONARY
  5
194
330
32
100
AcDbDictionary
280
     1
281
     1
  3
ACAD_XREC_ROUNDTRIP
360
195
  0
DICTIONARY
  5
198
330
34
100
AcDbDictionary
280
     1
281
     1
  3
ACAD_XREC_ROUNDTRIP
360
199
  0
DICTIONARY
  5
1B2
330
41
100
AcDbDictionary
280
     1
281
     1
  3
ACAD_XREC_ROUNDTRIP
360
1B3
  0
DICTIONARY
  5
1A0
330
38
100
AcDbDictionary
280
     1
281
     1
  3
ACAD_XREC_ROUNDTRIP
360
1A1
  0
DICTIONARY
  5
184
330
2A
100
AcDbDictionary
280
     1
281
     1
  3
ACAD_XREC_ROUNDTRIP
360
185
  0
DICTIONARY
  5
186
330
2B
100
AcDbDictionary
280
     1
281
     1
  3
ACAD_XREC_ROUNDTRIP
360
187
  0
DICTIONARY
  5
188
330
2C
100
AcDbDictionary
280
     1
281
     1
  3
ACAD_XREC_ROUNDTRIP
360
189
  0
DICTIONARY
  5
18A
330
2D
100
AcDbDictionary
280
     1
281
     1
  3
ACAD_XREC_ROUNDTRIP
360
18B
  0
DICTIONARY
  5
192
330
31
100
AcDbDictionary
280
     1
281
     1
  3
ACAD_XREC_ROUNDTRIP
360
193
  0
DICTIONARY
  5
1AE
330
3F
100
AcDbDictionary
280
     1
281
     1
  3
ACAD_XREC_ROUNDTRIP
360
1AF
  0
DICTIONARY
  5
19E
330
37
100
AcDbDictionary
280
     1
281
     1
  3
ACAD_XREC_ROUNDTRIP
360
19F
  0
DICTIONARY
  5
1B0
330
40
100
AcDbDictionary
280
     1
281
     1
  3
ACAD_XREC_ROUNDTRIP
360
1B1
  0
DICTIONARY
  5
196
330
33
100
AcDbDictionary
280
     1
281
     1
  3
ACAD_XREC_ROUNDTRIP
360
197
  0
DICTIONARY
  5
1AC
330
3E
100
AcDbDictionary
280
     1
281
     1
  3
ACAD_XREC_ROUNDTRIP
360
1AD
  0
DICTIONARY
  5
1AA
330
3D
100
AcDbDictionary
280
     1
281
     1
  3
ACAD_XREC_ROUNDTRIP
360
1AB
  0
DICTIONARY
  5
1A4
330
3A
100
AcDbDictionary
280
     1
281
     1
  3
ACAD_XREC_ROUNDTRIP
360
1A5
  0
DICTIONARY
  5
1A6
330
3B
100
AcDbDictionary
280
     1
281
     1
  3
ACAD_XREC_ROUNDTRIP
360
1A7
  0
DICTIONARY
  5
19C
330
36
100
AcDbDictionary
280
     1
281
     1
  3
ACAD_XREC_ROUNDTRIP
360
19D
  0
DICTIONARY
  5
190
330
30
100
AcDbDictionary
280
     1
281
     1
  3
ACAD_XREC_ROUNDTRIP
360
191
  0
DICTIONARY
  5
1A8
330
3C
100
AcDbDictionary
280
     1
281
     1
  3
ACAD_XREC_ROUNDTRIP
360
1A9
  0
XRECORD
  5
1B9
102
{ACAD_REACTORS
330
1B8
102
}
330
1B8
100
AcDbXrecord
280
     1
102
DISPLAYNAME
  1
Imperial24
102
FLAGS
 90
        0
  0
XRECORD
  5
1C
102
{ACAD_REACTORS
330
1A
102
}
330
1A
100
AcDbXrecord
280
     1
270
     1
271
     1
  0
XRECORD
  5
1B
102
{ACAD_REACTORS
330
1A
102
}
330
1A
100
AcDbXrecord
280
     1
270
     1
271
     1
  0
XRECORD
  5
1F
102
{ACAD_REACTORS
330
1A
102
}
330
1A
100
AcDbXrecord
280
     1
270
     1
271
     1
  0
XRECORD
  5
1E
102
{ACAD_REACTORS
330
1A
102
}
330
1A
100
AcDbXrecord
280
     1
270
     1
271
     1
  0
XRECORD
  5
20
102
{ACAD_REACTORS
330
1A
102
}
330
1A
100
AcDbXrecord
280
     1
270
     1
271
     1
  0
XRECORD
  5
1D
102
{ACAD_REACTORS
330
1A
102
}
330
1A
100
AcDbXrecord
280
     1
270
     1
271
     1
  0
XRECORD
  5
14
102
{ACAD_REACTORS
330
12
102
}
330
12
100
AcDbXrecord
280
     1
270
     1
271
     1
  0
XRECORD
  5
13
102
{ACAD_REACTORS
330
12
102
}
330
12
100
AcDbXrecord
280
     1
270
     1
271
     1
  0
XRECORD
  5
17
102
{ACAD_REACTORS
330
12
102
}
330
12
100
AcDbXrecord
280
     1
270
     1
271
     1
  0
XRECORD
  5
16
102
{ACAD_REACTORS
330
12
102
}
330
12
100
AcDbXrecord
280
     1
270
     1
271
     1
  0
XRECORD
  5
18
102
{ACAD_REACTORS
330
12
102
}
330
12
100
AcDbXrecord
280
     1
270
     1
271
     1
  0
XRECORD
  5
15
102
{ACAD_REACTORS
330
12
102
}
330
12
100
AcDbXrecord
280
     1
270
     1
271
     1
  0
XRECORD
  5
24
102
{ACAD_REACTORS
330
22
102
}
330
22
100
AcDbXrecord
280
     1
270
     1
271
     1
  0
XRECORD
  5
23
102
{ACAD_REACTORS
330
22
102
}
330
22
100
AcDbXrecord
280
     1
270
     1
271
     1
  0
XRECORD
  5
27
102
{ACAD_REACTORS
330
22
102
}
330
22
100
AcDbXrecord
280
     1
270
     1
271
     1
  0
XRECORD
  5
26
102
{ACAD_REACTORS
330
22
102
}
330
22
100
AcDbXrecord
280
     1
270
     1
271
     1
  0
XRECORD
  5
28
102
{ACAD_REACTORS
330
22
102
}
330
22
100
AcDbXrecord
280
     1
270
     1
271
     1
  0
XRECORD
  5
25
102
{ACAD_REACTORS
330
22
102
}
330
22
100
AcDbXrecord
280
     1
270
     1
271
     1
  0
XRECORD
  5
1B5
102
{ACAD_REACTORS
330
1B4
102
}
330
1B4
100
AcDbXrecord
280
     1
102
ACAD_ROUNDTRIP_2012_MLEADER_STYLE
298
     1
  0
XRECORD
  5
1B7
102
{ACAD_REACTORS
330
1B6
102
}
330
1B6
100
AcDbXrecord
280
     1
102
DISPLAYNAME
  1
Imperial24
102
FLAGS
 90
        0
  0
CELLSTYLEMAP
  5
182
102
{ACAD_REACTORS
330
181
102
}
330
181
100
AcDbCellStyleMap
 90
        3
300
CELLSTYLE
  1
TABLEFORMAT_BEGIN
 90
        5
170
     1
 91
        0
 92
    32768
 62
   257
 93
        1
300
CONTENTFORMAT
  1
CONTENTFORMAT_BEGIN
 90
        0
 91
        0
 92
      512
 93
        0
300

 40
0.0
140
1.0
 94
        5
 62
     0
340
55
144
0.25
309
CONTENTFORMAT_END
171
     0
 94
        0
309
TABLEFORMAT_END
  1
CELLSTYLE_BEGIN
 90
        1
 91
        1
300
_TITLE
309
CELLSTYLE_END
300
CELLSTYLE
  1
TABLEFORMAT_BEGIN
 90
        5
170
     1
 91
        0
 92
        0
 62
   257
 93
        1
300
CONTENTFORMAT
  1
CONTENTFORMAT_BEGIN
 90
        0
 91
        0
 92
      512
 93
        0
300

 40
0.0
140
1.0
 94
        5
 62
     0
340
55
144
0.18
309
CONTENTFORMAT_END
171
     0
 94
        0
309
TABLEFORMAT_END
  1
CELLSTYLE_BEGIN
 90
        2
 91
        1
300
_HEADER
309
CELLSTYLE_END
300
CELLSTYLE
  1
TABLEFORMAT_BEGIN
 90
        5
170
     1
 91
        0
 92
        0
 62
   257
 93
        1
300
CONTENTFORMAT
  1
CONTENTFORMAT_BEGIN
 90
        0
 91
        0
 92
      512
 93
        0
300

 40
0.0
140
1.0
 94
        2
 62
     0
340
55
144
0.18
309
CONTENTFORMAT_END
171
     0
 94
        0
309
TABLEFORMAT_END
  1
CELLSTYLE_BEGIN
 90
        3
 91
        2
300
_DATA
309
CELLSTYLE_END
  0
XRECORD
  5
18F
102
{ACAD_REACTORS
330
18E
102
}
330
18E
100
AcDbXrecord
280
     1
102
RTVSPost2010Prop28
280
     1
102
RTVSPost2010PropOp28
 70
     1
102
RTVSPost2010Prop29
280
     1
102
RTVSPost2010PropOp29
 70
     1
102
RTVSPost2010Prop30
280
     0
102
RTVSPost2010PropOp30
 70
     1
102
RTVSPost2010Prop31
280
     0
102
RTVSPost2010PropOp31
 70
     1
102
RTVSPost2010Prop32
280
     0
102
RTVSPost2010PropOp32
 70
     1
102
RTVSPost2010Prop33
280
     0
102
RTVSPost2010PropOp33
 70
     1
102
RTVSPost2010Prop34
280
     0
102
RTVSPost2010PropOp34
 70
     1
102
RTVSPost2010Prop35
280
     0
102
RTVSPost2010PropOp35
 70
     1
102
RTVSPost2010Prop36
280
     0
102
RTVSPost2010PropOp36
 70
     1
102
RTVSPost2010Prop37
 90
       50
102
RTVSPost2010PropOp37
 70
     1
102
RTVSPost2010Prop38
140
0.0
102
RTVSPost2010PropOp38
 70
     1
102
RTVSPost2010Prop39
140
1.0
102
RTVSPost2010PropOp39
 70
     1
102
RTVSPost2010Prop40
 90
        0
102
RTVSPost2010PropOp40
 70
     1
102
RTVSPost2010Prop41ColorIndex
 90
       18
102
RTVSPost2010Prop41ColorRGB
 90
        0
102
RTVSPost2010PropOp41
 70
     1
102
RTVSPost2010Prop42
 90
       50
102
RTVSPost2010PropOp42
 70
     1
102
RTVSPost2010Prop43
 90
        3
102
RTVSPost2010PropOp43
 70
     1
102
RTVSPost2010Prop44ColorIndex
 90
        5
102
RTVSPost2010Prop44ColorRGB
 90
      255
102
RTVSPost2010PropOp44
 70
     1
102
RTVSPost2010Prop45
280
     0
102
RTVSPost2010PropOp45
 70
     1
102
RTVSPost2010Prop46
 90
       50
102
RTVSPost2010PropOp46
 70
     1
102
RTVSPost2010Prop47
 90
       50
102
RTVSPost2010PropOp47
 70
     1
102
RTVSPost2010Prop48
 90
       50
102
RTVSPost2010PropOp48
 70
     1
102
RTVSPost2010Prop49
280
     0
102
RTVSPost2010PropOp49
 70
     1
102
RTVSPost2010Prop50
 90
       50
102
RTVSPost2010PropOp50
 70
     1
102
RTVSPost2010Prop51ColorIndex
 90
      256
102
RTVSPost2010Prop51ColorRGB
 90
-16777216
102
RTVSPost2010PropOp51
 70
     0
102
RTVSPost2010Prop52
140
1.0
102
RTVSPost2010PropOp52
 70
     0
102
RTVSPost2010Prop53
 90
        2
102
RTVSPost2010PropOp53
 70
     1
102
RTVSPost2010Prop54
  1
strokes_ogs.tif
102
RTVSPost2010PropOp54
 70
     1
102
RTVSPost2010Prop55
280
     0
102
RTVSPost2010PropOp55
 70
     1
102
RTVSPost2010Prop56
140
1.0
102
RTVSPost2010PropOp56
 70
     1
102
RTVSPost2010Prop57
140
1.0
102
RTVSPost2010PropOp57
 70
     1
  0
XRECORD
  5
18D
102
{ACAD_REACTORS
330
18C
102
}
330
18C
100
AcDbXrecord
280
     1
102
RTVSPost2010Prop28
280
     0
102
RTVSPost2010PropOp28
 70
     1
102
RTVSPost2010Prop29
280
     1
102
RTVSPost2010PropOp29
 70
     1
102
RTVSPost2010Prop30
280
     1
102
RTVSPost2010PropOp30
 70
     1
102
RTVSPost2010Prop31
280
     0
102
RTVSPost2010PropOp31
 70
     1
102
RTVSPost2010Prop32
280
     0
102
RTVSPost2010PropOp32
 70
     1
102
RTVSPost2010Prop33
280
     0
102
RTVSPost2010PropOp33
 70
     1
102
RTVSPost2010Prop34
280
     0
102
RTVSPost2010PropOp34
 70
     1
102
RTVSPost2010Prop35
280
     0
102
RTVSPost2010PropOp35
 70
     1
102
RTVSPost2010Prop36
280
     0
102
RTVSPost2010PropOp36
 70
     1
102
RTVSPost2010Prop37
 90
       50
102
RTVSPost2010PropOp37
 70
     1
102
RTVSPost2010Prop38
140
0.0
102
RTVSPost2010PropOp38
 70
     1
102
RTVSPost2010Prop39
140
1.0
102
RTVSPost2010PropOp39
 70
     1
102
RTVSPost2010Prop40
 90
        0
102
RTVSPost2010PropOp40
 70
     1
102
RTVSPost2010Prop41ColorIndex
 90
       18
102
RTVSPost2010Prop41ColorRGB
 90
        0
102
RTVSPost2010PropOp41
 70
     1
102
RTVSPost2010Prop42
 90
       50
102
RTVSPost2010PropOp42
 70
     1
102
RTVSPost2010Prop43
 90
        3
102
RTVSPost2010PropOp43
 70
     1
102
RTVSPost2010Prop44ColorIndex
 90
        5
102
RTVSPost2010Prop44ColorRGB
 90
      255
102
RTVSPost2010PropOp44
 70
     1
102
RTVSPost2010Prop45
280
     0
102
RTVSPost2010PropOp45
 70
     1
102
RTVSPost2010Prop46
 90
       50
102
RTVSPost2010PropOp46
 70
     1
102
RTVSPost2010Prop47
 90
       50
102
RTVSPost2010PropOp47
 70
     1
102
RTVSPost2010Prop48
 90
       50
102
RTVSPost2010PropOp48
 70
     1
102
RTVSPost2010Prop49
280
     0
102
RTVSPost2010PropOp49
 70
     1
102
RTVSPost2010Prop50
 90
       50
102
RTVSPost2010PropOp50
 70
     1
102
RTVSPost2010Prop51ColorIndex
 90
      256
102
RTVSPost2010Prop51ColorRGB
 90
-16777216
102
RTVSPost2010PropOp51
 70
     0
102
RTVSPost2010Prop52
140
1.0
102
RTVSPost2010PropOp52
 70
     0
102
RTVSPost2010Prop53
 90
        2
102
RTVSPost2010PropOp53
 70
     1
102
RTVSPost2010Prop54
  1
strokes_ogs.tif
102
RTVSPost2010PropOp54
 70
     1
102
RTVSPost2010Prop55
280
     0
102
RTVSPost2010PropOp55
 70
     1
102
RTVSPost2010Prop56
140
1.0
102
RTVSPost2010PropOp56
 70
     1
102
RTVSPost2010Prop57
140
1.0
102
RTVSPost2010PropOp57
 70
     1
  0
XRECORD
  5
19B
102
{ACAD_REACTORS
330
19A
102
}
330
19A
100
AcDbXrecord
280
     1
102
RTVSPost2010Prop28
280
     0
102
RTVSPost2010PropOp28
 70
     1
102
RTVSPost2010Prop29
280
     1
102
RTVSPost2010PropOp29
 70
     1
102
RTVSPost2010Prop30
280
     1
102
RTVSPost2010PropOp30
 70
     1
102
RTVSPost2010Prop31
280
     0
102
RTVSPost2010PropOp31
 70
     1
102
RTVSPost2010Prop32
280
     0
102
RTVSPost2010PropOp32
 70
     1
102
RTVSPost2010Prop33
280
     0
102
RTVSPost2010PropOp33
 70
     1
102
RTVSPost2010Prop34
280
     0
102
RTVSPost2010PropOp34
 70
     1
102
RTVSPost2010Prop35
280
     0
102
RTVSPost2010PropOp35
 70
     1
102
RTVSPost2010Prop36
280
     0
102
RTVSPost2010PropOp36
 70
     1
102
RTVSPost2010Prop37
 90
       50
102
RTVSPost2010PropOp37
 70
     1
102
RTVSPost2010Prop38
140
0.0
102
RTVSPost2010PropOp38
 70
     1
102
RTVSPost2010Prop39
140
1.0
102
RTVSPost2010PropOp39
 70
     1
102
RTVSPost2010Prop40
 90
        0
102
RTVSPost2010PropOp40
 70
     1
102
RTVSPost2010Prop41ColorIndex
 90
       18
102
RTVSPost2010Prop41ColorRGB
 90
        0
102
RTVSPost2010PropOp41
 70
     1
102
RTVSPost2010Prop42
 90
       50
102
RTVSPost2010PropOp42
 70
     1
102
RTVSPost2010Prop43
 90
        3
102
RTVSPost2010PropOp43
 70
     1
102
RTVSPost2010Prop44ColorIndex
 90
        5
102
RTVSPost2010Prop44ColorRGB
 90
      255
102
RTVSPost2010PropOp44
 70
     1
102
RTVSPost2010Prop45
280
     0
102
RTVSPost2010PropOp45
 70
     1
102
RTVSPost2010Prop46
 90
       50
102
RTVSPost2010PropOp46
 70
     1
102
RTVSPost2010Prop47
 90
       50
102
RTVSPost2010PropOp47
 70
     1
102
RTVSPost2010Prop48
 90
       50
102
RTVSPost2010PropOp48
 70
     1
102
RTVSPost2010Prop49
280
     0
102
RTVSPost2010PropOp49
 70
     1
102
RTVSPost2010Prop50
 90
       50
102
RTVSPost2010PropOp50
 70
     1
102
RTVSPost2010Prop51ColorIndex
 90
      256
102
RTVSPost2010Prop51ColorRGB
 90
-16777216
102
RTVSPost2010PropOp51
 70
     0
102
RTVSPost2010Prop52
140
1.0
102
RTVSPost2010PropOp52
 70
     0
102
RTVSPost2010Prop53
 90
        2
102
RTVSPost2010PropOp53
 70
     1
102
RTVSPost2010Prop54
  1
strokes_ogs.tif
102
RTVSPost2010PropOp54
 70
     1
102
RTVSPost2010Prop55
280
     0
102
RTVSPost2010PropOp55
 70
     1
102
RTVSPost2010Prop56
140
1.0
102
RTVSPost2010PropOp56
 70
     1
102
RTVSPost2010Prop57
140
1.0
102
RTVSPost2010PropOp57
 70
     1
  0
XRECORD
  5
1A3
102
{ACAD_REACTORS
330
1A2
102
}
330
1A2
100
AcDbXrecord
280
     1
102
RTVSPost2010Prop28
280
     0
102
RTVSPost2010PropOp28
 70
     1
102
RTVSPost2010Prop29
280
     1
102
RTVSPost2010PropOp29
 70
     1
102
RTVSPost2010Prop30
280
     1
102
RTVSPost2010PropOp30
 70
     1
102
RTVSPost2010Prop31
280
     0
102
RTVSPost2010PropOp31
 70
     1
102
RTVSPost2010Prop32
280
     0
102
RTVSPost2010PropOp32
 70
     1
102
RTVSPost2010Prop33
280
     0
102
RTVSPost2010PropOp33
 70
     1
102
RTVSPost2010Prop34
280
     0
102
RTVSPost2010PropOp34
 70
     1
102
RTVSPost2010Prop35
280
     0
102
RTVSPost2010PropOp35
 70
     1
102
RTVSPost2010Prop36
280
     0
102
RTVSPost2010PropOp36
 70
     1
102
RTVSPost2010Prop37
 90
       50
102
RTVSPost2010PropOp37
 70
     1
102
RTVSPost2010Prop38
140
0.0
102
RTVSPost2010PropOp38
 70
     1
102
RTVSPost2010Prop39
140
1.0
102
RTVSPost2010PropOp39
 70
     1
102
RTVSPost2010Prop40
 90
        0
102
RTVSPost2010PropOp40
 70
     1
102
RTVSPost2010Prop41ColorIndex
 90
       18
102
RTVSPost2010Prop41ColorRGB
 90
        0
102
RTVSPost2010PropOp41
 70
     1
102
RTVSPost2010Prop42
 90
       50
102
RTVSPost2010PropOp42
 70
     1
102
RTVSPost2010Prop43
 90
        3
102
RTVSPost2010PropOp43
 70
     1
102
RTVSPost2010Prop44ColorIndex
 90
        5
102
RTVSPost2010Prop44ColorRGB
 90
      255
102
RTVSPost2010PropOp44
 70
     1
102
RTVSPost2010Prop45
280
     0
102
RTVSPost2010PropOp45
 70
     1
102
RTVSPost2010Prop46
 90
       50
102
RTVSPost2010PropOp46
 70
     1
102
RTVSPost2010Prop47
 90
       50
102
RTVSPost2010PropOp47
 70
     1
102
RTVSPost2010Prop48
 90
       50
102
RTVSPost2010PropOp48
 70
     1
102
RTVSPost2010Prop49
280
     0
102
RTVSPost2010PropOp49
 70
     1
102
RTVSPost2010Prop50
 90
       50
102
RTVSPost2010PropOp50
 70
     1
102
RTVSPost2010Prop51ColorIndex
 90
      256
102
RTVSPost2010Prop51ColorRGB
 90
-16777216
102
RTVSPost2010PropOp51
 70
     0
102
RTVSPost2010Prop52
140
1.0
102
RTVSPost2010PropOp52
 70
     0
102
RTVSPost2010Prop53
 90
        2
102
RTVSPost2010PropOp53
 70
     1
102
RTVSPost2010Prop54
  1
strokes_ogs.tif
102
RTVSPost2010PropOp54
 70
     1
102
RTVSPost2010Prop55
280
     0
102
RTVSPost2010PropOp55
 70
     1
102
RTVSPost2010Prop56
140
1.0
102
RTVSPost2010PropOp56
 70
     1
102
RTVSPost2010Prop57
140
1.0
102
RTVSPost2010PropOp57
 70
     1
  0
XRECORD
  5
195
102
{ACAD_REACTORS
330
194
102
}
330
194
100
AcDbXrecord
280
     1
102
RTVSPost2010Prop28
280
     0
102
RTVSPost2010PropOp28
 70
     1
102
RTVSPost2010Prop29
280
     1
102
RTVSPost2010PropOp29
 70
     1
102
RTVSPost2010Prop30
280
     1
102
RTVSPost2010PropOp30
 70
     1
102
RTVSPost2010Prop31
280
     0
102
RTVSPost2010PropOp31
 70
     1
102
RTVSPost2010Prop32
280
     0
102
RTVSPost2010PropOp32
 70
     1
102
RTVSPost2010Prop33
280
     0
102
RTVSPost2010PropOp33
 70
     1
102
RTVSPost2010Prop34
280
     0
102
RTVSPost2010PropOp34
 70
     1
102
RTVSPost2010Prop35
280
     0
102
RTVSPost2010PropOp35
 70
     1
102
RTVSPost2010Prop36
280
     0
102
RTVSPost2010PropOp36
 70
     1
102
RTVSPost2010Prop37
 90
       50
102
RTVSPost2010PropOp37
 70
     1
102
RTVSPost2010Prop38
140
0.0
102
RTVSPost2010PropOp38
 70
     1
102
RTVSPost2010Prop39
140
1.0
102
RTVSPost2010PropOp39
 70
     1
102
RTVSPost2010Prop40
 90
        0
102
RTVSPost2010PropOp40
 70
     1
102
RTVSPost2010Prop41ColorIndex
 90
       18
102
RTVSPost2010Prop41ColorRGB
 90
        0
102
RTVSPost2010PropOp41
 70
     1
102
RTVSPost2010Prop42
 90
       50
102
RTVSPost2010PropOp42
 70
     1
102
RTVSPost2010Prop43
 90
        3
102
RTVSPost2010PropOp43
 70
     1
102
RTVSPost2010Prop44ColorIndex
 90
        5
102
RTVSPost2010Prop44ColorRGB
 90
      255
102
RTVSPost2010PropOp44
 70
     1
102
RTVSPost2010Prop45
280
     0
102
RTVSPost2010PropOp45
 70
     1
102
RTVSPost2010Prop46
 90
       50
102
RTVSPost2010PropOp46
 70
     1
102
RTVSPost2010Prop47
 90
       50
102
RTVSPost2010PropOp47
 70
     1
102
RTVSPost2010Prop48
 90
       50
102
RTVSPost2010PropOp48
 70
     1
102
RTVSPost2010Prop49
280
     0
102
RTVSPost2010PropOp49
 70
     1
102
RTVSPost2010Prop50
 90
       50
102
RTVSPost2010PropOp50
 70
     1
102
RTVSPost2010Prop51ColorIndex
 90
      256
102
RTVSPost2010Prop51ColorRGB
 90
-16777216
102
RTVSPost2010PropOp51
 70
     0
102
RTVSPost2010Prop52
140
1.0
102
RTVSPost2010PropOp52
 70
     0
102
RTVSPost2010Prop53
 90
        2
102
RTVSPost2010PropOp53
 70
     1
102
RTVSPost2010Prop54
  1
strokes_ogs.tif
102
RTVSPost2010PropOp54
 70
     1
102
RTVSPost2010Prop55
280
     0
102
RTVSPost2010PropOp55
 70
     1
102
RTVSPost2010Prop56
140
1.0
102
RTVSPost2010PropOp56
 70
     1
102
RTVSPost2010Prop57
140
1.0
102
RTVSPost2010PropOp57
 70
     1
  0
XRECORD
  5
199
102
{ACAD_REACTORS
330
198
102
}
330
198
100
AcDbXrecord
280
     1
102
RTVSPost2010Prop28
280
     0
102
RTVSPost2010PropOp28
 70
     1
102
RTVSPost2010Prop29
280
     1
102
RTVSPost2010PropOp29
 70
     1
102
RTVSPost2010Prop30
280
     1
102
RTVSPost2010PropOp30
 70
     1
102
RTVSPost2010Prop31
280
     0
102
RTVSPost2010PropOp31
 70
     1
102
RTVSPost2010Prop32
280
     0
102
RTVSPost2010PropOp32
 70
     1
102
RTVSPost2010Prop33
280
     0
102
RTVSPost2010PropOp33
 70
     1
102
RTVSPost2010Prop34
280
     0
102
RTVSPost2010PropOp34
 70
     1
102
RTVSPost2010Prop35
280
     0
102
RTVSPost2010PropOp35
 70
     1
102
RTVSPost2010Prop36
280
     0
102
RTVSPost2010PropOp36
 70
     1
102
RTVSPost2010Prop37
 90
       50
102
RTVSPost2010PropOp37
 70
     1
102
RTVSPost2010Prop38
140
0.0
102
RTVSPost2010PropOp38
 70
     1
102
RTVSPost2010Prop39
140
1.0
102
RTVSPost2010PropOp39
 70
     1
102
RTVSPost2010Prop40
 90
        0
102
RTVSPost2010PropOp40
 70
     1
102
RTVSPost2010Prop41ColorIndex
 90
       18
102
RTVSPost2010Prop41ColorRGB
 90
        0
102
RTVSPost2010PropOp41
 70
     1
102
RTVSPost2010Prop42
 90
       50
102
RTVSPost2010PropOp42
 70
     1
102
RTVSPost2010Prop43
 90
        3
102
RTVSPost2010PropOp43
 70
     1
102
RTVSPost2010Prop44ColorIndex
 90
        5
102
RTVSPost2010Prop44ColorRGB
 90
      255
102
RTVSPost2010PropOp44
 70
     1
102
RTVSPost2010Prop45
280
     0
102
RTVSPost2010PropOp45
 70
     1
102
RTVSPost2010Prop46
 90
       50
102
RTVSPost2010PropOp46
 70
     1
102
RTVSPost2010Prop47
 90
       50
102
RTVSPost2010PropOp47
 70
     1
102
RTVSPost2010Prop48
 90
       50
102
RTVSPost2010PropOp48
 70
     1
102
RTVSPost2010Prop49
280
     0
102
RTVSPost2010PropOp49
 70
     1
102
RTVSPost2010Prop50
 90
       50
102
RTVSPost2010PropOp50
 70
     1
102
RTVSPost2010Prop51ColorIndex
 90
      256
102
RTVSPost2010Prop51ColorRGB
 90
-16777216
102
RTVSPost2010PropOp51
 70
     0
102
RTVSPost2010Prop52
140
1.0
102
RTVSPost2010PropOp52
 70
     0
102
RTVSPost2010Prop53
 90
        2
102
RTVSPost2010PropOp53
 70
     1
102
RTVSPost2010Prop54
  1
strokes_ogs.tif
102
RTVSPost2010PropOp54
 70
     1
102
RTVSPost2010Prop55
280
     0
102
RTVSPost2010PropOp55
 70
     1
102
RTVSPost2010Prop56
140
1.0
102
RTVSPost2010PropOp56
 70
     1
102
RTVSPost2010Prop57
140
1.0
102
RTVSPost2010PropOp57
 70
     1
  0
XRECORD
  5
1B3
102
{ACAD_REACTORS
330
1B2
102
}
330
1B2
100
AcDbXrecord
280
     1
102
RTVSPost2010Prop28
280
     0
102
RTVSPost2010PropOp28
 70
     0
102
RTVSPost2010Prop29
280
     1
102
RTVSPost2010PropOp29
 70
     0
102
RTVSPost2010Prop30
280
     1
102
RTVSPost2010PropOp30
 70
     0
102
RTVSPost2010Prop31
280
     0
102
RTVSPost2010PropOp31
 70
     0
102
RTVSPost2010Prop32
280
     0
102
RTVSPost2010PropOp32
 70
     0
102
RTVSPost2010Prop33
280
     0
102
RTVSPost2010PropOp33
 70
     0
102
RTVSPost2010Prop34
280
     0
102
RTVSPost2010PropOp34
 70
     0
102
RTVSPost2010Prop35
280
     0
102
RTVSPost2010PropOp35
 70
     0
102
RTVSPost2010Prop36
280
     0
102
RTVSPost2010PropOp36
 70
     0
102
RTVSPost2010Prop37
 90
       50
102
RTVSPost2010PropOp37
 70
     0
102
RTVSPost2010Prop38
140
0.0
102
RTVSPost2010PropOp38
 70
     0
102
RTVSPost2010Prop39
140
1.0
102
RTVSPost2010PropOp39
 70
     0
102
RTVSPost2010Prop40
 90
        0
102
RTVSPost2010PropOp40
 70
     0
102
RTVSPost2010Prop41ColorIndex
 90
       18
102
RTVSPost2010Prop41ColorRGB
 90
        0
102
RTVSPost2010PropOp41
 70
     0
102
RTVSPost2010Prop42
 90
       50
102
RTVSPost2010PropOp42
 70
     0
102
RTVSPost2010Prop43
 90
        3
102
RTVSPost2010PropOp43
 70
     0
102
RTVSPost2010Prop44ColorIndex
 90
        5
102
RTVSPost2010Prop44ColorRGB
 90
      255
102
RTVSPost2010PropOp44
 70
     0
102
RTVSPost2010Prop45
280
     0
102
RTVSPost2010PropOp45
 70
     0
102
RTVSPost2010Prop46
 90
       50
102
RTVSPost2010PropOp46
 70
     0
102
RTVSPost2010Prop47
 90
       50
102
RTVSPost2010PropOp47
 70
     0
102
RTVSPost2010Prop48
 90
       50
102
RTVSPost2010PropOp48
 70
     0
102
RTVSPost2010Prop49
280
     0
102
RTVSPost2010PropOp49
 70
     0
102
RTVSPost2010Prop50
 90
       50
102
RTVSPost2010PropOp50
 70
     0
102
RTVSPost2010Prop51ColorIndex
 90
      256
102
RTVSPost2010Prop51ColorRGB
 90
-16777216
102
RTVSPost2010PropOp51
 70
     0
102
RTVSPost2010Prop52
140
1.0
102
RTVSPost2010PropOp52
 70
     0
102
RTVSPost2010Prop53
 90
        2
102
RTVSPost2010PropOp53
 70
     0
102
RTVSPost2010Prop54
  1
strokes_ogs.tif
102
RTVSPost2010PropOp54
 70
     0
102
RTVSPost2010Prop55
280
     0
102
RTVSPost2010PropOp55
 70
     0
102
RTVSPost2010Prop56
140
1.0
102
RTVSPost2010PropOp56
 70
     0
102
RTVSPost2010Prop57
140
1.0
102
RTVSPost2010PropOp57
 70
     0
  0
XRECORD
  5
1A1
102
{ACAD_REACTORS
330
1A0
102
}
330
1A0
100
AcDbXrecord
280
     1
102
RTVSPost2010Prop28
280
     0
102
RTVSPost2010PropOp28
 70
     1
102
RTVSPost2010Prop29
280
     1
102
RTVSPost2010PropOp29
 70
     1
102
RTVSPost2010Prop30
280
     1
102
RTVSPost2010PropOp30
 70
     1
102
RTVSPost2010Prop31
280
     0
102
RTVSPost2010PropOp31
 70
     1
102
RTVSPost2010Prop32
280
     0
102
RTVSPost2010PropOp32
 70
     1
102
RTVSPost2010Prop33
280
     0
102
RTVSPost2010PropOp33
 70
     1
102
RTVSPost2010Prop34
280
     0
102
RTVSPost2010PropOp34
 70
     1
102
RTVSPost2010Prop35
280
     0
102
RTVSPost2010PropOp35
 70
     1
102
RTVSPost2010Prop36
280
     0
102
RTVSPost2010PropOp36
 70
     1
102
RTVSPost2010Prop37
 90
       50
102
RTVSPost2010PropOp37
 70
     1
102
RTVSPost2010Prop38
140
0.0
102
RTVSPost2010PropOp38
 70
     1
102
RTVSPost2010Prop39
140
1.0
102
RTVSPost2010PropOp39
 70
     1
102
RTVSPost2010Prop40
 90
        0
102
RTVSPost2010PropOp40
 70
     1
102
RTVSPost2010Prop41ColorIndex
 90
       18
102
RTVSPost2010Prop41ColorRGB
 90
        0
102
RTVSPost2010PropOp41
 70
     1
102
RTVSPost2010Prop42
 90
       50
102
RTVSPost2010PropOp42
 70
     1
102
RTVSPost2010Prop43
 90
        3
102
RTVSPost2010PropOp43
 70
     1
102
RTVSPost2010Prop44ColorIndex
 90
        5
102
RTVSPost2010Prop44ColorRGB
 90
      255
102
RTVSPost2010PropOp44
 70
     1
102
RTVSPost2010Prop45
280
     0
102
RTVSPost2010PropOp45
 70
     1
102
RTVSPost2010Prop46
 90
       50
102
RTVSPost2010PropOp46
 70
     1
102
RTVSPost2010Prop47
 90
       50
102
RTVSPost2010PropOp47
 70
     1
102
RTVSPost2010Prop48
 90
       50
102
RTVSPost2010PropOp48
 70
     1
102
RTVSPost2010Prop49
280
     0
102
RTVSPost2010PropOp49
 70
     1
102
RTVSPost2010Prop50
 90
       50
102
RTVSPost2010PropOp50
 70
     1
102
RTVSPost2010Prop51ColorIndex
 90
      256
102
RTVSPost2010Prop51ColorRGB
 90
-16777216
102
RTVSPost2010PropOp51
 70
     0
102
RTVSPost2010Prop52
140
1.0
102
RTVSPost2010PropOp52
 70
     0
102
RTVSPost2010Prop53
 90
        2
102
RTVSPost2010PropOp53
 70
     1
102
RTVSPost2010Prop54
  1
strokes_ogs.tif
102
RTVSPost2010PropOp54
 70
     1
102
RTVSPost2010Prop55
280
     0
102
RTVSPost2010PropOp55
 70
     1
102
RTVSPost2010Prop56
140
1.0
102
RTVSPost2010PropOp56
 70
     1
102
RTVSPost2010Prop57
140
1.0
102
RTVSPost2010PropOp57
 70
     1
  0
XRECORD
  5
185
102
{ACAD_REACTORS
330
184
102
}
330
184
100
AcDbXrecord
280
     1
102
RTVSPost2010Prop28
280
     0
102
RTVSPost2010PropOp28
 70
     1
102
RTVSPost2010Prop29
280
     1
102
RTVSPost2010PropOp29
 70
     1
102
RTVSPost2010Prop30
280
     1
102
RTVSPost2010PropOp30
 70
     1
102
RTVSPost2010Prop31
280
     0
102
RTVSPost2010PropOp31
 70
     1
102
RTVSPost2010Prop32
280
     0
102
RTVSPost2010PropOp32
 70
     1
102
RTVSPost2010Prop33
280
     0
102
RTVSPost2010PropOp33
 70
     1
102
RTVSPost2010Prop34
280
     0
102
RTVSPost2010PropOp34
 70
     1
102
RTVSPost2010Prop35
280
     0
102
RTVSPost2010PropOp35
 70
     1
102
RTVSPost2010Prop36
280
     0
102
RTVSPost2010PropOp36
 70
     1
102
RTVSPost2010Prop37
 90
       50
102
RTVSPost2010PropOp37
 70
     1
102
RTVSPost2010Prop38
140
0.0
102
RTVSPost2010PropOp38
 70
     1
102
RTVSPost2010Prop39
140
1.0
102
RTVSPost2010PropOp39
 70
     1
102
RTVSPost2010Prop40
 90
        0
102
RTVSPost2010PropOp40
 70
     1
102
RTVSPost2010Prop41ColorIndex
 90
       18
102
RTVSPost2010Prop41ColorRGB
 90
        0
102
RTVSPost2010PropOp41
 70
     1
102
RTVSPost2010Prop42
 90
       50
102
RTVSPost2010PropOp42
 70
     1
102
RTVSPost2010Prop43
 90
        3
102
RTVSPost2010PropOp43
 70
     1
102
RTVSPost2010Prop44ColorIndex
 90
        5
102
RTVSPost2010Prop44ColorRGB
 90
      255
102
RTVSPost2010PropOp44
 70
     1
102
RTVSPost2010Prop45
280
     0
102
RTVSPost2010PropOp45
 70
     1
102
RTVSPost2010Prop46
 90
       50
102
RTVSPost2010PropOp46
 70
     1
102
RTVSPost2010Prop47
 90
       50
102
RTVSPost2010PropOp47
 70
     1
102
RTVSPost2010Prop48
 90
       50
102
RTVSPost2010PropOp48
 70
     1
102
RTVSPost2010Prop49
280
     0
102
RTVSPost2010PropOp49
 70
     1
102
RTVSPost2010Prop50
 90
       50
102
RTVSPost2010PropOp50
 70
     1
102
RTVSPost2010Prop51ColorIndex
 90
      256
102
RTVSPost2010Prop51ColorRGB
 90
-16777216
102
RTVSPost2010PropOp51
 70
     0
102
RTVSPost2010Prop52
140
1.0
102
RTVSPost2010PropOp52
 70
     0
102
RTVSPost2010Prop53
 90
        2
102
RTVSPost2010PropOp53
 70
     1
102
RTVSPost2010Prop54
  1
strokes_ogs.tif
102
RTVSPost2010PropOp54
 70
     1
102
RTVSPost2010Prop55
280
     0
102
RTVSPost2010PropOp55
 70
     1
102
RTVSPost2010Prop56
140
1.0
102
RTVSPost2010PropOp56
 70
     1
102
RTVSPost2010Prop57
140
1.0
102
RTVSPost2010PropOp57
 70
     1
  0
XRECORD
  5
187
102
{ACAD_REACTORS
330
186
102
}
330
186
100
AcDbXrecord
280
     1
102
RTVSPost2010Prop28
280
     0
102
RTVSPost2010PropOp28
 70
     1
102
RTVSPost2010Prop29
280
     1
102
RTVSPost2010PropOp29
 70
     1
102
RTVSPost2010Prop30
280
     1
102
RTVSPost2010PropOp30
 70
     1
102
RTVSPost2010Prop31
280
     0
102
RTVSPost2010PropOp31
 70
     1
102
RTVSPost2010Prop32
280
     0
102
RTVSPost2010PropOp32
 70
     1
102
RTVSPost2010Prop33
280
     0
102
RTVSPost2010PropOp33
 70
     1
102
RTVSPost2010Prop34
280
     0
102
RTVSPost2010PropOp34
 70
     1
102
RTVSPost2010Prop35
280
     0
102
RTVSPost2010PropOp35
 70
     1
102
RTVSPost2010Prop36
280
     0
102
RTVSPost2010PropOp36
 70
     1
102
RTVSPost2010Prop37
 90
       50
102
RTVSPost2010PropOp37
 70
     1
102
RTVSPost2010Prop38
140
0.0
102
RTVSPost2010PropOp38
 70
     1
102
RTVSPost2010Prop39
140
1.0
102
RTVSPost2010PropOp39
 70
     1
102
RTVSPost2010Prop40
 90
        0
102
RTVSPost2010PropOp40
 70
     1
102
RTVSPost2010Prop41ColorIndex
 90
       18
102
RTVSPost2010Prop41ColorRGB
 90
        0
102
RTVSPost2010PropOp41
 70
     1
102
RTVSPost2010Prop42
 90
       50
102
RTVSPost2010PropOp42
 70
     1
102
RTVSPost2010Prop43
 90
        3
102
RTVSPost2010PropOp43
 70
     1
102
RTVSPost2010Prop44ColorIndex
 90
        5
102
RTVSPost2010Prop44ColorRGB
 90
      255
102
RTVSPost2010PropOp44
 70
     1
102
RTVSPost2010Prop45
280
     0
102
RTVSPost2010PropOp45
 70
     1
102
RTVSPost2010Prop46
 90
       50
102
RTVSPost2010PropOp46
 70
     1
102
RTVSPost2010Prop47
 90
       50
102
RTVSPost2010PropOp47
 70
     1
102
RTVSPost2010Prop48
 90
       50
102
RTVSPost2010PropOp48
 70
     1
102
RTVSPost2010Prop49
280
     0
102
RTVSPost2010PropOp49
 70
     1
102
RTVSPost2010Prop50
 90
       50
102
RTVSPost2010PropOp50
 70
     1
102
RTVSPost2010Prop51ColorIndex
 90
      256
102
RTVSPost2010Prop51ColorRGB
 90
-16777216
102
RTVSPost2010PropOp51
 70
     0
102
RTVSPost2010Prop52
140
1.0
102
RTVSPost2010PropOp52
 70
     0
102
RTVSPost2010Prop53
 90
        2
102
RTVSPost2010PropOp53
 70
     1
102
RTVSPost2010Prop54
  1
strokes_ogs.tif
102
RTVSPost2010PropOp54
 70
     1
102
RTVSPost2010Prop55
280
     0
102
RTVSPost2010PropOp55
 70
     1
102
RTVSPost2010Prop56
140
1.0
102
RTVSPost2010PropOp56
 70
     1
102
RTVSPost2010Prop57
140
1.0
102
RTVSPost2010PropOp57
 70
     1
  0
XRECORD
  5
189
102
{ACAD_REACTORS
330
188
102
}
330
188
100
AcDbXrecord
280
     1
102
RTVSPost2010Prop28
280
     0
102
RTVSPost2010PropOp28
 70
     1
102
RTVSPost2010Prop29
280
     1
102
RTVSPost2010PropOp29
 70
     1
102
RTVSPost2010Prop30
280
     1
102
RTVSPost2010PropOp30
 70
     1
102
RTVSPost2010Prop31
280
     0
102
RTVSPost2010PropOp31
 70
     1
102
RTVSPost2010Prop32
280
     0
102
RTVSPost2010PropOp32
 70
     1
102
RTVSPost2010Prop33
280
     0
102
RTVSPost2010PropOp33
 70
     1
102
RTVSPost2010Prop34
280
     0
102
RTVSPost2010PropOp34
 70
     1
102
RTVSPost2010Prop35
280
     0
102
RTVSPost2010PropOp35
 70
     1
102
RTVSPost2010Prop36
280
     0
102
RTVSPost2010PropOp36
 70
     1
102
RTVSPost2010Prop37
 90
       50
102
RTVSPost2010PropOp37
 70
     1
102
RTVSPost2010Prop38
140
0.0
102
RTVSPost2010PropOp38
 70
     1
102
RTVSPost2010Prop39
140
1.0
102
RTVSPost2010PropOp39
 70
     1
102
RTVSPost2010Prop40
 90
        0
102
RTVSPost2010PropOp40
 70
     1
102
RTVSPost2010Prop41ColorIndex
 90
       18
102
RTVSPost2010Prop41ColorRGB
 90
        0
102
RTVSPost2010PropOp41
 70
     1
102
RTVSPost2010Prop42
 90
       50
102
RTVSPost2010PropOp42
 70
     1
102
RTVSPost2010Prop43
 90
        3
102
RTVSPost2010PropOp43
 70
     1
102
RTVSPost2010Prop44ColorIndex
 90
        5
102
RTVSPost2010Prop44ColorRGB
 90
      255
102
RTVSPost2010PropOp44
 70
     1
102
RTVSPost2010Prop45
280
     0
102
RTVSPost2010PropOp45
 70
     1
102
RTVSPost2010Prop46
 90
       50
102
RTVSPost2010PropOp46
 70
     1
102
RTVSPost2010Prop47
 90
       50
102
RTVSPost2010PropOp47
 70
     1
102
RTVSPost2010Prop48
 90
       50
102
RTVSPost2010PropOp48
 70
     1
102
RTVSPost2010Prop49
280
     0
102
RTVSPost2010PropOp49
 70
     1
102
RTVSPost2010Prop50
 90
       50
102
RTVSPost2010PropOp50
 70
     1
102
RTVSPost2010Prop51ColorIndex
 90
      256
102
RTVSPost2010Prop51ColorRGB
 90
-16777216
102
RTVSPost2010PropOp51
 70
     0
102
RTVSPost2010Prop52
140
1.0
102
RTVSPost2010PropOp52
 70
     0
102
RTVSPost2010Prop53
 90
        2
102
RTVSPost2010PropOp53
 70
     1
102
RTVSPost2010Prop54
  1
strokes_ogs.tif
102
RTVSPost2010PropOp54
 70
     1
102
RTVSPost2010Prop55
280
     0
102
RTVSPost2010PropOp55
 70
     1
102
RTVSPost2010Prop56
140
1.0
102
RTVSPost2010PropOp56
 70
     1
102
RTVSPost2010Prop57
140
1.0
102
RTVSPost2010PropOp57
 70
     1
  0
XRECORD
  5
18B
102
{ACAD_REACTORS
330
18A
102
}
330
18A
100
AcDbXrecord
280
     1
102
RTVSPost2010Prop28
280
     0
102
RTVSPost2010PropOp28
 70
     1
102
RTVSPost2010Prop29
280
     1
102
RTVSPost2010PropOp29
 70
     1
102
RTVSPost2010Prop30
280
     1
102
RTVSPost2010PropOp30
 70
     1
102
RTVSPost2010Prop31
280
     0
102
RTVSPost2010PropOp31
 70
     1
102
RTVSPost2010Prop32
280
     0
102
RTVSPost2010PropOp32
 70
     1
102
RTVSPost2010Prop33
280
     0
102
RTVSPost2010PropOp33
 70
     1
102
RTVSPost2010Prop34
280
     0
102
RTVSPost2010PropOp34
 70
     1
102
RTVSPost2010Prop35
280
     0
102
RTVSPost2010PropOp35
 70
     1
102
RTVSPost2010Prop36
280
     0
102
RTVSPost2010PropOp36
 70
     1
102
RTVSPost2010Prop37
 90
       50
102
RTVSPost2010PropOp37
 70
     1
102
RTVSPost2010Prop38
140
0.0
102
RTVSPost2010PropOp38
 70
     1
102
RTVSPost2010Prop39
140
1.0
102
RTVSPost2010PropOp39
 70
     1
102
RTVSPost2010Prop40
 90
        0
102
RTVSPost2010PropOp40
 70
     1
102
RTVSPost2010Prop41ColorIndex
 90
       18
102
RTVSPost2010Prop41ColorRGB
 90
        0
102
RTVSPost2010PropOp41
 70
     1
102
RTVSPost2010Prop42
 90
       50
102
RTVSPost2010PropOp42
 70
     1
102
RTVSPost2010Prop43
 90
        3
102
RTVSPost2010PropOp43
 70
     1
102
RTVSPost2010Prop44ColorIndex
 90
        5
102
RTVSPost2010Prop44ColorRGB
 90
      255
102
RTVSPost2010PropOp44
 70
     1
102
RTVSPost2010Prop45
280
     0
102
RTVSPost2010PropOp45
 70
     1
102
RTVSPost2010Prop46
 90
       50
102
RTVSPost2010PropOp46
 70
     1
102
RTVSPost2010Prop47
 90
       50
102
RTVSPost2010PropOp47
 70
     1
102
RTVSPost2010Prop48
 90
       50
102
RTVSPost2010PropOp48
 70
     1
102
RTVSPost2010Prop49
280
     0
102
RTVSPost2010PropOp49
 70
     1
102
RTVSPost2010Prop50
 90
       50
102
RTVSPost2010PropOp50
 70
     1
102
RTVSPost2010Prop51ColorIndex
 90
      256
102
RTVSPost2010Prop51ColorRGB
 90
-16777216
102
RTVSPost2010PropOp51
 70
     0
102
RTVSPost2010Prop52
140
1.0
102
RTVSPost2010PropOp52
 70
     0
102
RTVSPost2010Prop53
 90
        2
102
RTVSPost2010PropOp53
 70
     1
102
RTVSPost2010Prop54
  1
strokes_ogs.tif
102
RTVSPost2010PropOp54
 70
     1
102
RTVSPost2010Prop55
280
     0
102
RTVSPost2010PropOp55
 70
     1
102
RTVSPost2010Prop56
140
1.0
102
RTVSPost2010PropOp56
 70
     1
102
RTVSPost2010Prop57
140
1.0
102
RTVSPost2010PropOp57
 70
     1
  0
XRECORD
  5
193
102
{ACAD_REACTORS
330
192
102
}
330
192
100
AcDbXrecord
280
     1
102
RTVSPost2010Prop28
280
     0
102
RTVSPost2010PropOp28
 70
     1
102
RTVSPost2010Prop29
280
     1
102
RTVSPost2010PropOp29
 70
     1
102
RTVSPost2010Prop30
280
     1
102
RTVSPost2010PropOp30
 70
     1
102
RTVSPost2010Prop31
280
     0
102
RTVSPost2010PropOp31
 70
     1
102
RTVSPost2010Prop32
280
     0
102
RTVSPost2010PropOp32
 70
     1
102
RTVSPost2010Prop33
280
     0
102
RTVSPost2010PropOp33
 70
     1
102
RTVSPost2010Prop34
280
     0
102
RTVSPost2010PropOp34
 70
     1
102
RTVSPost2010Prop35
280
     0
102
RTVSPost2010PropOp35
 70
     1
102
RTVSPost2010Prop36
280
     0
102
RTVSPost2010PropOp36
 70
     1
102
RTVSPost2010Prop37
 90
       50
102
RTVSPost2010PropOp37
 70
     1
102
RTVSPost2010Prop38
140
0.0
102
RTVSPost2010PropOp38
 70
     1
102
RTVSPost2010Prop39
140
1.0
102
RTVSPost2010PropOp39
 70
     1
102
RTVSPost2010Prop40
 90
        0
102
RTVSPost2010PropOp40
 70
     1
102
RTVSPost2010Prop41ColorIndex
 90
       18
102
RTVSPost2010Prop41ColorRGB
 90
        0
102
RTVSPost2010PropOp41
 70
     1
102
RTVSPost2010Prop42
 90
       50
102
RTVSPost2010PropOp42
 70
     1
102
RTVSPost2010Prop43
 90
        3
102
RTVSPost2010PropOp43
 70
     1
102
RTVSPost2010Prop44ColorIndex
 90
        5
102
RTVSPost2010Prop44ColorRGB
 90
      255
102
RTVSPost2010PropOp44
 70
     1
102
RTVSPost2010Prop45
280
     0
102
RTVSPost2010PropOp45
 70
     1
102
RTVSPost2010Prop46
 90
       50
102
RTVSPost2010PropOp46
 70
     1
102
RTVSPost2010Prop47
 90
       50
102
RTVSPost2010PropOp47
 70
     1
102
RTVSPost2010Prop48
 90
       50
102
RTVSPost2010PropOp48
 70
     1
102
RTVSPost2010Prop49
280
     0
102
RTVSPost2010PropOp49
 70
     1
102
RTVSPost2010Prop50
 90
       50
102
RTVSPost2010PropOp50
 70
     1
102
RTVSPost2010Prop51ColorIndex
 90
      256
102
RTVSPost2010Prop51ColorRGB
 90
-16777216
102
RTVSPost2010PropOp51
 70
     0
102
RTVSPost2010Prop52
140
1.0
102
RTVSPost2010PropOp52
 70
     0
102
RTVSPost2010Prop53
 90
        2
102
RTVSPost2010PropOp53
 70
     1
102
RTVSPost2010Prop54
  1
strokes_ogs.tif
102
RTVSPost2010PropOp54
 70
     1
102
RTVSPost2010Prop55
280
     0
102
RTVSPost2010PropOp55
 70
     1
102
RTVSPost2010Prop56
140
1.0
102
RTVSPost2010PropOp56
 70
     1
102
RTVSPost2010Prop57
140
1.0
102
RTVSPost2010PropOp57
 70
     1
  0
XRECORD
  5
1AF
102
{ACAD_REACTORS
330
1AE
102
}
330
1AE
100
AcDbXrecord
280
     1
102
RTVSPost2010Prop28
280
     0
102
RTVSPost2010PropOp28
 70
     0
102
RTVSPost2010Prop29
280
     1
102
RTVSPost2010PropOp29
 70
     0
102
RTVSPost2010Prop30
280
     1
102
RTVSPost2010PropOp30
 70
     0
102
RTVSPost2010Prop31
280
     0
102
RTVSPost2010PropOp31
 70
     0
102
RTVSPost2010Prop32
280
     0
102
RTVSPost2010PropOp32
 70
     0
102
RTVSPost2010Prop33
280
     0
102
RTVSPost2010PropOp33
 70
     0
102
RTVSPost2010Prop34
280
     0
102
RTVSPost2010PropOp34
 70
     0
102
RTVSPost2010Prop35
280
     0
102
RTVSPost2010PropOp35
 70
     0
102
RTVSPost2010Prop36
280
     0
102
RTVSPost2010PropOp36
 70
     0
102
RTVSPost2010Prop37
 90
       50
102
RTVSPost2010PropOp37
 70
     0
102
RTVSPost2010Prop38
140
0.0
102
RTVSPost2010PropOp38
 70
     0
102
RTVSPost2010Prop39
140
1.0
102
RTVSPost2010PropOp39
 70
     0
102
RTVSPost2010Prop40
 90
        0
102
RTVSPost2010PropOp40
 70
     0
102
RTVSPost2010Prop41ColorIndex
 90
       18
102
RTVSPost2010Prop41ColorRGB
 90
        0
102
RTVSPost2010PropOp41
 70
     0
102
RTVSPost2010Prop42
 90
       50
102
RTVSPost2010PropOp42
 70
     0
102
RTVSPost2010Prop43
 90
        3
102
RTVSPost2010PropOp43
 70
     0
102
RTVSPost2010Prop44ColorIndex
 90
        5
102
RTVSPost2010Prop44ColorRGB
 90
      255
102
RTVSPost2010PropOp44
 70
     0
102
RTVSPost2010Prop45
280
     0
102
RTVSPost2010PropOp45
 70
     0
102
RTVSPost2010Prop46
 90
       50
102
RTVSPost2010PropOp46
 70
     0
102
RTVSPost2010Prop47
 90
       50
102
RTVSPost2010PropOp47
 70
     0
102
RTVSPost2010Prop48
 90
       50
102
RTVSPost2010PropOp48
 70
     0
102
RTVSPost2010Prop49
280
     0
102
RTVSPost2010PropOp49
 70
     0
102
RTVSPost2010Prop50
 90
       50
102
RTVSPost2010PropOp50
 70
     0
102
RTVSPost2010Prop51ColorIndex
 90
      256
102
RTVSPost2010Prop51ColorRGB
 90
-16777216
102
RTVSPost2010PropOp51
 70
     0
102
RTVSPost2010Prop52
140
1.0
102
RTVSPost2010PropOp52
 70
     0
102
RTVSPost2010Prop53
 90
        2
102
RTVSPost2010PropOp53
 70
     0
102
RTVSPost2010Prop54
  1
strokes_ogs.tif
102
RTVSPost2010PropOp54
 70
     0
102
RTVSPost2010Prop55
280
     0
102
RTVSPost2010PropOp55
 70
     0
102
RTVSPost2010Prop56
140
1.0
102
RTVSPost2010PropOp56
 70
     0
102
RTVSPost2010Prop57
140
1.0
102
RTVSPost2010PropOp57
 70
     0
  0
XRECORD
  5
19F
102
{ACAD_REACTORS
330
19E
102
}
330
19E
100
AcDbXrecord
280
     1
102
RTVSPost2010Prop28
280
     0
102
RTVSPost2010PropOp28
 70
     1
102
RTVSPost2010Prop29
280
     1
102
RTVSPost2010PropOp29
 70
     1
102
RTVSPost2010Prop30
280
     1
102
RTVSPost2010PropOp30
 70
     1
102
RTVSPost2010Prop31
280
     0
102
RTVSPost2010PropOp31
 70
     1
102
RTVSPost2010Prop32
280
     0
102
RTVSPost2010PropOp32
 70
     1
102
RTVSPost2010Prop33
280
     0
102
RTVSPost2010PropOp33
 70
     1
102
RTVSPost2010Prop34
280
     0
102
RTVSPost2010PropOp34
 70
     1
102
RTVSPost2010Prop35
280
     0
102
RTVSPost2010PropOp35
 70
     1
102
RTVSPost2010Prop36
280
     0
102
RTVSPost2010PropOp36
 70
     1
102
RTVSPost2010Prop37
 90
       50
102
RTVSPost2010PropOp37
 70
     1
102
RTVSPost2010Prop38
140
0.0
102
RTVSPost2010PropOp38
 70
     1
102
RTVSPost2010Prop39
140
1.0
102
RTVSPost2010PropOp39
 70
     1
102
RTVSPost2010Prop40
 90
        0
102
RTVSPost2010PropOp40
 70
     1
102
RTVSPost2010Prop41ColorIndex
 90
       18
102
RTVSPost2010Prop41ColorRGB
 90
        0
102
RTVSPost2010PropOp41
 70
     1
102
RTVSPost2010Prop42
 90
       50
102
RTVSPost2010PropOp42
 70
     1
102
RTVSPost2010Prop43
 90
        3
102
RTVSPost2010PropOp43
 70
     1
102
RTVSPost2010Prop44ColorIndex
 90
        5
102
RTVSPost2010Prop44ColorRGB
 90
      255
102
RTVSPost2010PropOp44
 70
     1
102
RTVSPost2010Prop45
280
     0
102
RTVSPost2010PropOp45
 70
     1
102
RTVSPost2010Prop46
 90
       50
102
RTVSPost2010PropOp46
 70
     1
102
RTVSPost2010Prop47
 90
       50
102
RTVSPost2010PropOp47
 70
     1
102
RTVSPost2010Prop48
 90
       50
102
RTVSPost2010PropOp48
 70
     1
102
RTVSPost2010Prop49
280
     0
102
RTVSPost2010PropOp49
 70
     1
102
RTVSPost2010Prop50
 90
       50
102
RTVSPost2010PropOp50
 70
     1
102
RTVSPost2010Prop51ColorIndex
 90
      256
102
RTVSPost2010Prop51ColorRGB
 90
-16777216
102
RTVSPost2010PropOp51
 70
     0
102
RTVSPost2010Prop52
140
1.0
102
RTVSPost2010PropOp52
 70
     0
102
RTVSPost2010Prop53
 90
        2
102
RTVSPost2010PropOp53
 70
     1
102
RTVSPost2010Prop54
  1
strokes_ogs.tif
102
RTVSPost2010PropOp54
 70
     1
102
RTVSPost2010Prop55
280
     0
102
RTVSPost2010PropOp55
 70
     1
102
RTVSPost2010Prop56
140
1.0
102
RTVSPost2010PropOp56
 70
     1
102
RTVSPost2010Prop57
140
1.0
102
RTVSPost2010PropOp57
 70
     1
  0
XRECORD
  5
1B1
102
{ACAD_REACTORS
330
1B0
102
}
330
1B0
100
AcDbXrecord
280
     1
102
RTVSPost2010Prop28
280
     0
102
RTVSPost2010PropOp28
 70
     0
102
RTVSPost2010Prop29
280
     1
102
RTVSPost2010PropOp29
 70
     0
102
RTVSPost2010Prop30
280
     1
102
RTVSPost2010PropOp30
 70
     0
102
RTVSPost2010Prop31
280
     0
102
RTVSPost2010PropOp31
 70
     0
102
RTVSPost2010Prop32
280
     0
102
RTVSPost2010PropOp32
 70
     0
102
RTVSPost2010Prop33
280
     0
102
RTVSPost2010PropOp33
 70
     0
102
RTVSPost2010Prop34
280
     0
102
RTVSPost2010PropOp34
 70
     0
102
RTVSPost2010Prop35
280
     0
102
RTVSPost2010PropOp35
 70
     0
102
RTVSPost2010Prop36
280
     0
102
RTVSPost2010PropOp36
 70
     0
102
RTVSPost2010Prop37
 90
       50
102
RTVSPost2010PropOp37
 70
     0
102
RTVSPost2010Prop38
140
0.0
102
RTVSPost2010PropOp38
 70
     0
102
RTVSPost2010Prop39
140
1.0
102
RTVSPost2010PropOp39
 70
     0
102
RTVSPost2010Prop40
 90
        0
102
RTVSPost2010PropOp40
 70
     0
102
RTVSPost2010Prop41ColorIndex
 90
       18
102
RTVSPost2010Prop41ColorRGB
 90
        0
102
RTVSPost2010PropOp41
 70
     0
102
RTVSPost2010Prop42
 90
       50
102
RTVSPost2010PropOp42
 70
     0
102
RTVSPost2010Prop43
 90
        3
102
RTVSPost2010PropOp43
 70
     0
102
RTVSPost2010Prop44ColorIndex
 90
        5
102
RTVSPost2010Prop44ColorRGB
 90
      255
102
RTVSPost2010PropOp44
 70
     0
102
RTVSPost2010Prop45
280
     0
102
RTVSPost2010PropOp45
 70
     0
102
RTVSPost2010Prop46
 90
       50
102
RTVSPost2010PropOp46
 70
     0
102
RTVSPost2010Prop47
 90
       50
102
RTVSPost2010PropOp47
 70
     0
102
RTVSPost2010Prop48
 90
       50
102
RTVSPost2010PropOp48
 70
     0
102
RTVSPost2010Prop49
280
     0
102
RTVSPost2010PropOp49
 70
     0
102
RTVSPost2010Prop50
 90
       50
102
RTVSPost2010PropOp50
 70
     0
102
RTVSPost2010Prop51ColorIndex
 90
      256
102
RTVSPost2010Prop51ColorRGB
 90
-16777216
102
RTVSPost2010PropOp51
 70
     0
102
RTVSPost2010Prop52
140
1.0
102
RTVSPost2010PropOp52
 70
     0
102
RTVSPost2010Prop53
 90
        2
102
RTVSPost2010PropOp53
 70
     0
102
RTVSPost2010Prop54
  1
strokes_ogs.tif
102
RTVSPost2010PropOp54
 70
     0
102
RTVSPost2010Prop55
280
     0
102
RTVSPost2010PropOp55
 70
     0
102
RTVSPost2010Prop56
140
1.0
102
RTVSPost2010PropOp56
 70
     0
102
RTVSPost2010Prop57
140
1.0
102
RTVSPost2010PropOp57
 70
     0
  0
XRECORD
  5
197
102
{ACAD_REACTORS
330
196
102
}
330
196
100
AcDbXrecord
280
     1
102
RTVSPost2010Prop28
280
     0
102
RTVSPost2010PropOp28
 70
     1
102
RTVSPost2010Prop29
280
     1
102
RTVSPost2010PropOp29
 70
     1
102
RTVSPost2010Prop30
280
     1
102
RTVSPost2010PropOp30
 70
     1
102
RTVSPost2010Prop31
280
     0
102
RTVSPost2010PropOp31
 70
     1
102
RTVSPost2010Prop32
280
     0
102
RTVSPost2010PropOp32
 70
     1
102
RTVSPost2010Prop33
280
     0
102
RTVSPost2010PropOp33
 70
     1
102
RTVSPost2010Prop34
280
     0
102
RTVSPost2010PropOp34
 70
     1
102
RTVSPost2010Prop35
280
     0
102
RTVSPost2010PropOp35
 70
     1
102
RTVSPost2010Prop36
280
     0
102
RTVSPost2010PropOp36
 70
     1
102
RTVSPost2010Prop37
 90
       50
102
RTVSPost2010PropOp37
 70
     1
102
RTVSPost2010Prop38
140
0.0
102
RTVSPost2010PropOp38
 70
     1
102
RTVSPost2010Prop39
140
1.0
102
RTVSPost2010PropOp39
 70
     1
102
RTVSPost2010Prop40
 90
        0
102
RTVSPost2010PropOp40
 70
     1
102
RTVSPost2010Prop41ColorIndex
 90
       18
102
RTVSPost2010Prop41ColorRGB
 90
        0
102
RTVSPost2010PropOp41
 70
     1
102
RTVSPost2010Prop42
 90
       50
102
RTVSPost2010PropOp42
 70
     1
102
RTVSPost2010Prop43
 90
        3
102
RTVSPost2010PropOp43
 70
     1
102
RTVSPost2010Prop44ColorIndex
 90
        5
102
RTVSPost2010Prop44ColorRGB
 90
      255
102
RTVSPost2010PropOp44
 70
     1
102
RTVSPost2010Prop45
280
     0
102
RTVSPost2010PropOp45
 70
     1
102
RTVSPost2010Prop46
 90
       50
102
RTVSPost2010PropOp46
 70
     1
102
RTVSPost2010Prop47
 90
       50
102
RTVSPost2010PropOp47
 70
     1
102
RTVSPost2010Prop48
 90
       50
102
RTVSPost2010PropOp48
 70
     1
102
RTVSPost2010Prop49
280
     0
102
RTVSPost2010PropOp49
 70
     1
102
RTVSPost2010Prop50
 90
       50
102
RTVSPost2010PropOp50
 70
     1
102
RTVSPost2010Prop51ColorIndex
 90
      256
102
RTVSPost2010Prop51ColorRGB
 90
-16777216
102
RTVSPost2010PropOp51
 70
     0
102
RTVSPost2010Prop52
140
1.0
102
RTVSPost2010PropOp52
 70
     0
102
RTVSPost2010Prop53
 90
        2
102
RTVSPost2010PropOp53
 70
     1
102
RTVSPost2010Prop54
  1
strokes_ogs.tif
102
RTVSPost2010PropOp54
 70
     1
102
RTVSPost2010Prop55
280
     0
102
RTVSPost2010PropOp55
 70
     1
102
RTVSPost2010Prop56
140
1.0
102
RTVSPost2010PropOp56
 70
     1
102
RTVSPost2010Prop57
140
1.0
102
RTVSPost2010PropOp57
 70
     1
  0
XRECORD
  5
1AD
102
{ACAD_REACTORS
330
1AC
102
}
330
1AC
100
AcDbXrecord
280
     1
102
RTVSPost2010Prop28
280
     0
102
RTVSPost2010PropOp28
 70
     1
102
RTVSPost2010Prop29
280
     1
102
RTVSPost2010PropOp29
 70
     1
102
RTVSPost2010Prop30
280
     1
102
RTVSPost2010PropOp30
 70
     1
102
RTVSPost2010Prop31
280
     0
102
RTVSPost2010PropOp31
 70
     1
102
RTVSPost2010Prop32
280
     0
102
RTVSPost2010PropOp32
 70
     1
102
RTVSPost2010Prop33
280
     0
102
RTVSPost2010PropOp33
 70
     1
102
RTVSPost2010Prop34
280
     0
102
RTVSPost2010PropOp34
 70
     1
102
RTVSPost2010Prop35
280
     0
102
RTVSPost2010PropOp35
 70
     1
102
RTVSPost2010Prop36
280
     0
102
RTVSPost2010PropOp36
 70
     1
102
RTVSPost2010Prop37
 90
       50
102
RTVSPost2010PropOp37
 70
     1
102
RTVSPost2010Prop38
140
0.0
102
RTVSPost2010PropOp38
 70
     1
102
RTVSPost2010Prop39
140
1.0
102
RTVSPost2010PropOp39
 70
     1
102
RTVSPost2010Prop40
 90
        0
102
RTVSPost2010PropOp40
 70
     1
102
RTVSPost2010Prop41ColorIndex
 90
       18
102
RTVSPost2010Prop41ColorRGB
 90
        0
102
RTVSPost2010PropOp41
 70
     1
102
RTVSPost2010Prop42
 90
       50
102
RTVSPost2010PropOp42
 70
     1
102
RTVSPost2010Prop43
 90
        3
102
RTVSPost2010PropOp43
 70
     1
102
RTVSPost2010Prop44ColorIndex
 90
        5
102
RTVSPost2010Prop44ColorRGB
 90
      255
102
RTVSPost2010PropOp44
 70
     1
102
RTVSPost2010Prop45
280
     0
102
RTVSPost2010PropOp45
 70
     1
102
RTVSPost2010Prop46
 90
       50
102
RTVSPost2010PropOp46
 70
     1
102
RTVSPost2010Prop47
 90
       50
102
RTVSPost2010PropOp47
 70
     1
102
RTVSPost2010Prop48
 90
       50
102
RTVSPost2010PropOp48
 70
     1
102
RTVSPost2010Prop49
280
     0
102
RTVSPost2010PropOp49
 70
     1
102
RTVSPost2010Prop50
 90
       50
102
RTVSPost2010PropOp50
 70
     1
102
RTVSPost2010Prop51ColorIndex
 90
      256
102
RTVSPost2010Prop51ColorRGB
 90
-16777216
102
RTVSPost2010PropOp51
 70
     0
102
RTVSPost2010Prop52
140
1.0
102
RTVSPost2010PropOp52
 70
     0
102
RTVSPost2010Prop53
 90
        2
102
RTVSPost2010PropOp53
 70
     1
102
RTVSPost2010Prop54
  1
strokes_ogs.tif
102
RTVSPost2010PropOp54
 70
     1
102
RTVSPost2010Prop55
280
     0
102
RTVSPost2010PropOp55
 70
     1
102
RTVSPost2010Prop56
140
1.0
102
RTVSPost2010PropOp56
 70
     1
102
RTVSPost2010Prop57
140
1.0
102
RTVSPost2010PropOp57
 70
     1
  0
XRECORD
  5
1AB
102
{ACAD_REACTORS
330
1AA
102
}
330
1AA
100
AcDbXrecord
280
     1
102
RTVSPost2010Prop28
280
     0
102
RTVSPost2010PropOp28
 70
     1
102
RTVSPost2010Prop29
280
     1
102
RTVSPost2010PropOp29
 70
     1
102
RTVSPost2010Prop30
280
     1
102
RTVSPost2010PropOp30
 70
     1
102
RTVSPost2010Prop31
280
     0
102
RTVSPost2010PropOp31
 70
     1
102
RTVSPost2010Prop32
280
     0
102
RTVSPost2010PropOp32
 70
     1
102
RTVSPost2010Prop33
280
     0
102
RTVSPost2010PropOp33
 70
     1
102
RTVSPost2010Prop34
280
     0
102
RTVSPost2010PropOp34
 70
     1
102
RTVSPost2010Prop35
280
     0
102
RTVSPost2010PropOp35
 70
     1
102
RTVSPost2010Prop36
280
     0
102
RTVSPost2010PropOp36
 70
     1
102
RTVSPost2010Prop37
 90
       50
102
RTVSPost2010PropOp37
 70
     1
102
RTVSPost2010Prop38
140
0.0
102
RTVSPost2010PropOp38
 70
     1
102
RTVSPost2010Prop39
140
1.0
102
RTVSPost2010PropOp39
 70
     1
102
RTVSPost2010Prop40
 90
        0
102
RTVSPost2010PropOp40
 70
     1
102
RTVSPost2010Prop41ColorIndex
 90
       18
102
RTVSPost2010Prop41ColorRGB
 90
        0
102
RTVSPost2010PropOp41
 70
     1
102
RTVSPost2010Prop42
 90
       50
102
RTVSPost2010PropOp42
 70
     1
102
RTVSPost2010Prop43
 90
        3
102
RTVSPost2010PropOp43
 70
     1
102
RTVSPost2010Prop44ColorIndex
 90
        5
102
RTVSPost2010Prop44ColorRGB
 90
      255
102
RTVSPost2010PropOp44
 70
     1
102
RTVSPost2010Prop45
280
     0
102
RTVSPost2010PropOp45
 70
     1
102
RTVSPost2010Prop46
 90
       50
102
RTVSPost2010PropOp46
 70
     1
102
RTVSPost2010Prop47
 90
       50
102
RTVSPost2010PropOp47
 70
     1
102
RTVSPost2010Prop48
 90
       50
102
RTVSPost2010PropOp48
 70
     1
102
RTVSPost2010Prop49
280
     0
102
RTVSPost2010PropOp49
 70
     1
102
RTVSPost2010Prop50
 90
       50
102
RTVSPost2010PropOp50
 70
     1
102
RTVSPost2010Prop51ColorIndex
 90
      256
102
RTVSPost2010Prop51ColorRGB
 90
-16777216
102
RTVSPost2010PropOp51
 70
     0
102
RTVSPost2010Prop52
140
1.0
102
RTVSPost2010PropOp52
 70
     0
102
RTVSPost2010Prop53
 90
        2
102
RTVSPost2010PropOp53
 70
     1
102
RTVSPost2010Prop54
  1
strokes_ogs.tif
102
RTVSPost2010PropOp54
 70
     1
102
RTVSPost2010Prop55
280
     0
102
RTVSPost2010PropOp55
 70
     1
102
RTVSPost2010Prop56
140
1.0
102
RTVSPost2010PropOp56
 70
     1
102
RTVSPost2010Prop57
140
1.0
102
RTVSPost2010PropOp57
 70
     1
  0
XRECORD
  5
1A5
102
{ACAD_REACTORS
330
1A4
102
}
330
1A4
100
AcDbXrecord
280
     1
102
RTVSPost2010Prop28
280
     0
102
RTVSPost2010PropOp28
 70
     1
102
RTVSPost2010Prop29
280
     1
102
RTVSPost2010PropOp29
 70
     1
102
RTVSPost2010Prop30
280
     1
102
RTVSPost2010PropOp30
 70
     1
102
RTVSPost2010Prop31
280
     0
102
RTVSPost2010PropOp31
 70
     1
102
RTVSPost2010Prop32
280
     0
102
RTVSPost2010PropOp32
 70
     1
102
RTVSPost2010Prop33
280
     0
102
RTVSPost2010PropOp33
 70
     1
102
RTVSPost2010Prop34
280
     0
102
RTVSPost2010PropOp34
 70
     1
102
RTVSPost2010Prop35
280
     0
102
RTVSPost2010PropOp35
 70
     1
102
RTVSPost2010Prop36
280
     0
102
RTVSPost2010PropOp36
 70
     1
102
RTVSPost2010Prop37
 90
       50
102
RTVSPost2010PropOp37
 70
     1
102
RTVSPost2010Prop38
140
0.0
102
RTVSPost2010PropOp38
 70
     1
102
RTVSPost2010Prop39
140
1.0
102
RTVSPost2010PropOp39
 70
     1
102
RTVSPost2010Prop40
 90
        0
102
RTVSPost2010PropOp40
 70
     1
102
RTVSPost2010Prop41ColorIndex
 90
       18
102
RTVSPost2010Prop41ColorRGB
 90
        0
102
RTVSPost2010PropOp41
 70
     1
102
RTVSPost2010Prop42
 90
       50
102
RTVSPost2010PropOp42
 70
     1
102
RTVSPost2010Prop43
 90
        3
102
RTVSPost2010PropOp43
 70
     1
102
RTVSPost2010Prop44ColorIndex
 90
        5
102
RTVSPost2010Prop44ColorRGB
 90
      255
102
RTVSPost2010PropOp44
 70
     1
102
RTVSPost2010Prop45
280
     0
102
RTVSPost2010PropOp45
 70
     1
102
RTVSPost2010Prop46
 90
       50
102
RTVSPost2010PropOp46
 70
     1
102
RTVSPost2010Prop47
 90
       50
102
RTVSPost2010PropOp47
 70
     1
102
RTVSPost2010Prop48
 90
       50
102
RTVSPost2010PropOp48
 70
     1
102
RTVSPost2010Prop49
280
     0
102
RTVSPost2010PropOp49
 70
     1
102
RTVSPost2010Prop50
 90
       50
102
RTVSPost2010PropOp50
 70
     1
102
RTVSPost2010Prop51ColorIndex
 90
      256
102
RTVSPost2010Prop51ColorRGB
 90
-16777216
102
RTVSPost2010PropOp51
 70
     0
102
RTVSPost2010Prop52
140
1.0
102
RTVSPost2010PropOp52
 70
     0
102
RTVSPost2010Prop53
 90
        2
102
RTVSPost2010PropOp53
 70
     1
102
RTVSPost2010Prop54
  1
strokes_ogs.tif
102
RTVSPost2010PropOp54
 70
     1
102
RTVSPost2010Prop55
280
     0
102
RTVSPost2010PropOp55
 70
     1
102
RTVSPost2010Prop56
140
1.0
102
RTVSPost2010PropOp56
 70
     1
102
RTVSPost2010Prop57
140
1.0
102
RTVSPost2010PropOp57
 70
     1
  0
XRECORD
  5
1A7
102
{ACAD_REACTORS
330
1A6
102
}
330
1A6
100
AcDbXrecord
280
     1
102
RTVSPost2010Prop28
280
     0
102
RTVSPost2010PropOp28
 70
     1
102
RTVSPost2010Prop29
280
     1
102
RTVSPost2010PropOp29
 70
     1
102
RTVSPost2010Prop30
280
     1
102
RTVSPost2010PropOp30
 70
     1
102
RTVSPost2010Prop31
280
     0
102
RTVSPost2010PropOp31
 70
     1
102
RTVSPost2010Prop32
280
     0
102
RTVSPost2010PropOp32
 70
     1
102
RTVSPost2010Prop33
280
     0
102
RTVSPost2010PropOp33
 70
     1
102
RTVSPost2010Prop34
280
     0
102
RTVSPost2010PropOp34
 70
     1
102
RTVSPost2010Prop35
280
     0
102
RTVSPost2010PropOp35
 70
     1
102
RTVSPost2010Prop36
280
     0
102
RTVSPost2010PropOp36
 70
     1
102
RTVSPost2010Prop37
 90
       50
102
RTVSPost2010PropOp37
 70
     1
102
RTVSPost2010Prop38
140
0.0
102
RTVSPost2010PropOp38
 70
     1
102
RTVSPost2010Prop39
140
1.0
102
RTVSPost2010PropOp39
 70
     1
102
RTVSPost2010Prop40
 90
        0
102
RTVSPost2010PropOp40
 70
     1
102
RTVSPost2010Prop41ColorIndex
 90
       18
102
RTVSPost2010Prop41ColorRGB
 90
        0
102
RTVSPost2010PropOp41
 70
     1
102
RTVSPost2010Prop42
 90
       50
102
RTVSPost2010PropOp42
 70
     1
102
RTVSPost2010Prop43
 90
        3
102
RTVSPost2010PropOp43
 70
     1
102
RTVSPost2010Prop44ColorIndex
 90
        5
102
RTVSPost2010Prop44ColorRGB
 90
      255
102
RTVSPost2010PropOp44
 70
     1
102
RTVSPost2010Prop45
280
     0
102
RTVSPost2010PropOp45
 70
     1
102
RTVSPost2010Prop46
 90
       50
102
RTVSPost2010PropOp46
 70
     1
102
RTVSPost2010Prop47
 90
       50
102
RTVSPost2010PropOp47
 70
     1
102
RTVSPost2010Prop48
 90
       50
102
RTVSPost2010PropOp48
 70
     1
102
RTVSPost2010Prop49
280
     0
102
RTVSPost2010PropOp49
 70
     1
102
RTVSPost2010Prop50
 90
       50
102
RTVSPost2010PropOp50
 70
     1
102
RTVSPost2010Prop51ColorIndex
 90
      256
102
RTVSPost2010Prop51ColorRGB
 90
-16777216
102
RTVSPost2010PropOp51
 70
     0
102
RTVSPost2010Prop52
140
1.0
102
RTVSPost2010PropOp52
 70
     0
102
RTVSPost2010Prop53
 90
        2
102
RTVSPost2010PropOp53
 70
     1
102
RTVSPost2010Prop54
  1
strokes_ogs.tif
102
RTVSPost2010PropOp54
 70
     1
102
RTVSPost2010Prop55
280
     0
102
RTVSPost2010PropOp55
 70
     1
102
RTVSPost2010Prop56
140
1.0
102
RTVSPost2010PropOp56
 70
     1
102
RTVSPost2010Prop57
140
1.0
102
RTVSPost2010PropOp57
 70
     1
  0
XRECORD
  5
19D
102
{ACAD_REACTORS
330
19C
102
}
330
19C
100
AcDbXrecord
280
     1
102
RTVSPost2010Prop28
280
     0
102
RTVSPost2010PropOp28
 70
     1
102
RTVSPost2010Prop29
280
     1
102
RTVSPost2010PropOp29
 70
     1
102
RTVSPost2010Prop30
280
     1
102
RTVSPost2010PropOp30
 70
     1
102
RTVSPost2010Prop31
280
     0
102
RTVSPost2010PropOp31
 70
     1
102
RTVSPost2010Prop32
280
     0
102
RTVSPost2010PropOp32
 70
     1
102
RTVSPost2010Prop33
280
     0
102
RTVSPost2010PropOp33
 70
     1
102
RTVSPost2010Prop34
280
     0
102
RTVSPost2010PropOp34
 70
     1
102
RTVSPost2010Prop35
280
     0
102
RTVSPost2010PropOp35
 70
     1
102
RTVSPost2010Prop36
280
     0
102
RTVSPost2010PropOp36
 70
     1
102
RTVSPost2010Prop37
 90
       50
102
RTVSPost2010PropOp37
 70
     1
102
RTVSPost2010Prop38
140
0.0
102
RTVSPost2010PropOp38
 70
     1
102
RTVSPost2010Prop39
140
1.0
102
RTVSPost2010PropOp39
 70
     1
102
RTVSPost2010Prop40
 90
        0
102
RTVSPost2010PropOp40
 70
     1
102
RTVSPost2010Prop41ColorIndex
 90
       18
102
RTVSPost2010Prop41ColorRGB
 90
        0
102
RTVSPost2010PropOp41
 70
     1
102
RTVSPost2010Prop42
 90
       50
102
RTVSPost2010PropOp42
 70
     1
102
RTVSPost2010Prop43
 90
        3
102
RTVSPost2010PropOp43
 70
     1
102
RTVSPost2010Prop44ColorIndex
 90
        5
102
RTVSPost2010Prop44ColorRGB
 90
      255
102
RTVSPost2010PropOp44
 70
     1
102
RTVSPost2010Prop45
280
     0
102
RTVSPost2010PropOp45
 70
     1
102
RTVSPost2010Prop46
 90
       50
102
RTVSPost2010PropOp46
 70
     1
102
RTVSPost2010Prop47
 90
       50
102
RTVSPost2010PropOp47
 70
     1
102
RTVSPost2010Prop48
 90
       50
102
RTVSPost2010PropOp48
 70
     1
102
RTVSPost2010Prop49
280
     0
102
RTVSPost2010PropOp49
 70
     1
102
RTVSPost2010Prop50
 90
       50
102
RTVSPost2010PropOp50
 70
     1
102
RTVSPost2010Prop51ColorIndex
 90
      256
102
RTVSPost2010Prop51ColorRGB
 90
-16777216
102
RTVSPost2010PropOp51
 70
     0
102
RTVSPost2010Prop52
140
1.0
102
RTVSPost2010PropOp52
 70
     0
102
RTVSPost2010Prop53
 90
        2
102
RTVSPost2010PropOp53
 70
     1
102
RTVSPost2010Prop54
  1
strokes_ogs.tif
102
RTVSPost2010PropOp54
 70
     1
102
RTVSPost2010Prop55
280
     0
102
RTVSPost2010PropOp55
 70
     1
102
RTVSPost2010Prop56
140
1.0
102
RTVSPost2010PropOp56
 70
     1
102
RTVSPost2010Prop57
140
1.0
102
RTVSPost2010PropOp57
 70
     1
  0
XRECORD
  5
191
102
{ACAD_REACTORS
330
190
102
}
330
190
100
AcDbXrecord
280
     1
102
RTVSPost2010Prop28
280
     0
102
RTVSPost2010PropOp28
 70
     1
102
RTVSPost2010Prop29
280
     1
102
RTVSPost2010PropOp29
 70
     1
102
RTVSPost2010Prop30
280
     1
102
RTVSPost2010PropOp30
 70
     1
102
RTVSPost2010Prop31
280
     0
102
RTVSPost2010PropOp31
 70
     1
102
RTVSPost2010Prop32
280
     0
102
RTVSPost2010PropOp32
 70
     1
102
RTVSPost2010Prop33
280
     0
102
RTVSPost2010PropOp33
 70
     1
102
RTVSPost2010Prop34
280
     0
102
RTVSPost2010PropOp34
 70
     1
102
RTVSPost2010Prop35
280
     0
102
RTVSPost2010PropOp35
 70
     1
102
RTVSPost2010Prop36
280
     0
102
RTVSPost2010PropOp36
 70
     1
102
RTVSPost2010Prop37
 90
       50
102
RTVSPost2010PropOp37
 70
     1
102
RTVSPost2010Prop38
140
0.0
102
RTVSPost2010PropOp38
 70
     1
102
RTVSPost2010Prop39
140
1.0
102
RTVSPost2010PropOp39
 70
     1
102
RTVSPost2010Prop40
 90
        0
102
RTVSPost2010PropOp40
 70
     1
102
RTVSPost2010Prop41ColorIndex
 90
       18
102
RTVSPost2010Prop41ColorRGB
 90
        0
102
RTVSPost2010PropOp41
 70
     1
102
RTVSPost2010Prop42
 90
       50
102
RTVSPost2010PropOp42
 70
     1
102
RTVSPost2010Prop43
 90
        3
102
RTVSPost2010PropOp43
 70
     1
102
RTVSPost2010Prop44ColorIndex
 90
        5
102
RTVSPost2010Prop44ColorRGB
 90
      255
102
RTVSPost2010PropOp44
 70
     1
102
RTVSPost2010Prop45
280
     0
102
RTVSPost2010PropOp45
 70
     1
102
RTVSPost2010Prop46
 90
       50
102
RTVSPost2010PropOp46
 70
     1
102
RTVSPost2010Prop47
 90
       50
102
RTVSPost2010PropOp47
 70
     1
102
RTVSPost2010Prop48
 90
       50
102
RTVSPost2010PropOp48
 70
     1
102
RTVSPost2010Prop49
280
     0
102
RTVSPost2010PropOp49
 70
     1
102
RTVSPost2010Prop50
 90
       50
102
RTVSPost2010PropOp50
 70
     1
102
RTVSPost2010Prop51ColorIndex
 90
      256
102
RTVSPost2010Prop51ColorRGB
 90
-16777216
102
RTVSPost2010PropOp51
 70
     0
102
RTVSPost2010Prop52
140
1.0
102
RTVSPost2010PropOp52
 70
     0
102
RTVSPost2010Prop53
 90
        2
102
RTVSPost2010PropOp53
 70
     1
102
RTVSPost2010Prop54
  1
strokes_ogs.tif
102
RTVSPost2010PropOp54
 70
     1
102
RTVSPost2010Prop55
280
     0
102
RTVSPost2010PropOp55
 70
     1
102
RTVSPost2010Prop56
140
1.0
102
RTVSPost2010PropOp56
 70
     1
102
RTVSPost2010Prop57
140
1.0
102
RTVSPost2010PropOp57
 70
     1
  0
XRECORD
  5
1A9
102
{ACAD_REACTORS
330
1A8
102
}
330
1A8
100
AcDbXrecord
280
     1
102
RTVSPost2010Prop28
280
     0
102
RTVSPost2010PropOp28
 70
     1
102
RTVSPost2010Prop29
280
     1
102
RTVSPost2010PropOp29
 70
     1
102
RTVSPost2010Prop30
280
     1
102
RTVSPost2010PropOp30
 70
     1
102
RTVSPost2010Prop31
280
     0
102
RTVSPost2010PropOp31
 70
     1
102
RTVSPost2010Prop32
280
     0
102
RTVSPost2010PropOp32
 70
     1
102
RTVSPost2010Prop33
280
     0
102
RTVSPost2010PropOp33
 70
     1
102
RTVSPost2010Prop34
280
     0
102
RTVSPost2010PropOp34
 70
     1
102
RTVSPost2010Prop35
280
     0
102
RTVSPost2010PropOp35
 70
     1
102
RTVSPost2010Prop36
280
     0
102
RTVSPost2010PropOp36
 70
     1
102
RTVSPost2010Prop37
 90
       50
102
RTVSPost2010PropOp37
 70
     1
102
RTVSPost2010Prop38
140
0.0
102
RTVSPost2010PropOp38
 70
     1
102
RTVSPost2010Prop39
140
1.0
102
RTVSPost2010PropOp39
 70
     1
102
RTVSPost2010Prop40
 90
        0
102
RTVSPost2010PropOp40
 70
     1
102
RTVSPost2010Prop41ColorIndex
 90
       18
102
RTVSPost2010Prop41ColorRGB
 90
        0
102
RTVSPost2010PropOp41
 70
     1
102
RTVSPost2010Prop42
 90
       50
102
RTVSPost2010PropOp42
 70
     1
102
RTVSPost2010Prop43
 90
        3
102
RTVSPost2010PropOp43
 70
     1
102
RTVSPost2010Prop44ColorIndex
 90
        5
102
RTVSPost2010Prop44ColorRGB
 90
      255
102
RTVSPost2010PropOp44
 70
     1
102
RTVSPost2010Prop45
280
     0
102
RTVSPost2010PropOp45
 70
     1
102
RTVSPost2010Prop46
 90
       50
102
RTVSPost2010PropOp46
 70
     1
102
RTVSPost2010Prop47
 90
       50
102
RTVSPost2010PropOp47
 70
     1
102
RTVSPost2010Prop48
 90
       50
102
RTVSPost2010PropOp48
 70
     1
102
RTVSPost2010Prop49
280
     0
102
RTVSPost2010PropOp49
 70
     1
102
RTVSPost2010Prop50
 90
       50
102
RTVSPost2010PropOp50
 70
     1
102
RTVSPost2010Prop51ColorIndex
 90
      256
102
RTVSPost2010Prop51ColorRGB
 90
-16777216
102
RTVSPost2010PropOp51
 70
     0
102
RTVSPost2010Prop52
140
1.0
102
RTVSPost2010PropOp52
 70
     0
102
RTVSPost2010Prop53
 90
        2
102
RTVSPost2010PropOp53
 70
     1
102
RTVSPost2010Prop54
  1
strokes_ogs.tif
102
RTVSPost2010PropOp54
 70
     1
102
RTVSPost2010Prop55
280
     0
102
RTVSPost2010PropOp55
 70
     1
102
RTVSPost2010Prop56
140
1.0
102
RTVSPost2010PropOp56
 70
     1
102
RTVSPost2010Prop57
140
1.0
102
RTVSPost2010PropOp57
 70
     1
  0
ENDSEC
  0
EOF
