  0
SECTION
  2
HEADER
  9
$ACADVER
  1
AC1024
  9
$ACADMAINTVER
 70
   226
  9
$DWGCODEPAGE
  3
ANSI_932
  9
$INSBASE
 10
0.0
 20
0.0
 30
0.0
  9
$EXTMIN
 10
1.000000000000000E+20
 20
1.000000000000000E+20
 30
1.000000000000000E+20
  9
$EXTMAX
 10
-1.000000000000000E+20
 20
-1.000000000000000E+20
 30
-1.000000000000000E+20
  9
$LIMMIN
 10
0.0
 20
0.0
  9
$LIMMAX
 10
12.0
 20
9.0
  9
$ORTHOMODE
 70
     0
  9
$REGENMODE
 70
     1
  9
$FILLMODE
 70
     1
  9
$QTEXTMODE
 70
     0
  9
$MIRRTEXT
 70
     0
  9
$LTSCALE
 40
1.0
  9
$ATTMODE
 70
     1
  9
$TEXTSIZE
 40
0.2
  9
$TRACEWID
 40
0.05
  9
$TEXTSTYLE
  7
Standard
  9
$CLAYER
  8
0
  9
$CELTYPE
  6
ByLayer
  9
$CECOLOR
 62
   256
  9
$CELTSCALE
 40
1.0
  9
$DISPSILH
 70
     0
  9
$DIMSCALE
 40
1.0
  9
$DIMASZ
 40
0.18
  9
$DIMEXO
 40
0.0625
  9
$DIMDLI
 40
0.38
  9
$DIMRND
 40
0.0
  9
$DIMDLE
 40
0.0
  9
$DIMEXE
 40
0.18
  9
$DIMTP
 40
0.0
  9
$DIMTM
 40
0.0
  9
$DIMTXT
 40
0.18
  9
$DIMCEN
 40
0.09
  9
$DIMTSZ
 40
0.0
  9
$DIMTOL
 70
     0
  9
$DIMLIM
 70
     0
  9
$DIMTIH
 70
     1
  9
$DIMTOH
 70
     1
  9
$DIMSE1
 70
     0
  9
$DIMSE2
 70
     0
  9
$DIMTAD
 70
     0
  9
$DIMZIN
 70
     0
  9
$DIMBLK
  1

  9
$DIMASO
 70
     1
  9
$DIMSHO
 70
     1
  9
$DIMPOST
  1

  9
$DIMAPOST
  1

  9
$DIMALT
 70
     0
  9
$DIMALTD
 70
     2
  9
$DIMALTF
 40
25.4
  9
$DIMLFAC
 40
1.0
  9
$DIMTOFL
 70
     0
  9
$DIMTVP
 40
0.0
  9
$DIMTIX
 70
     0
  9
$DIMSOXD
 70
     0
  9
$DIMSAH
 70
     0
  9
$DIMBLK1
  1

  9
$DIMBLK2
  1

  9
$DIMSTYLE
  2
Standard
  9
$DIMCLRD
 70
     0
  9
$DIMCLRE
 70
     0
  9
$DIMCLRT
 70
     0
  9
$DIMTFAC
 40
1.0
  9
$DIMGAP
 40
0.09
  9
$DIMJUST
 70
     0
  9
$DIMSD1
 70
     0
  9
$DIMSD2
 70
     0
  9
$DIMTOLJ
 70
     1
  9
$DIMTZIN
 70
     0
  9
$DIMALTZ
 70
     0
  9
$DIMALTTZ
 70
     0
  9
$DIMUPT
 70
     0
  9
$DIMDEC
 70
     4
  9
$DIMTDEC
 70
     4
  9
$DIMALTU
 70
     2
  9
$DIMALTTD
 70
     2
  9
$DIMTXSTY
  7
Standard
  9
$DIMAUNIT
 70
     0
  9
$DIMADEC
 70
     0
  9
$DIMALTRND
 40
0.0
  9
$DIMAZIN
 70
     0
  9
$DIMDSEP
 70
    46
  9
$DIMATFIT
 70
     3
  9
$DIMFRAC
 70
     0
  9
$DIMLDRBLK
  1

  9
$DIMLUNIT
 70
     2
  9
$DIMLWD
 70
    -2
  9
$DIMLWE
 70
    -2
  9
$DIMTMOVE
 70
     0
  9
$DIMFXL
 40
1.0
  9
$DIMFXLON
 70
     0
  9
$DIMJOGANG
 40
0.7853981633974483
  9
$DIMTFILL
 70
     0
  9
$DIMTFILLCLR
 70
     0
  9
$DIMARCSYM
 70
     0
  9
$DIMLTYPE
  6

  9
$DIMLTEX1
  6

  9
$DIMLTEX2
  6

  9
$DIMTXTDIRECTION
 70
     0
  9
$LUNITS
 70
     2
  9
$LUPREC
 70
     4
  9
$SKETCHINC
 40
0.1
  9
$FILLETRAD
 40
0.0
  9
$AUNITS
 70
     0
  9
$AUPREC
 70
     0
  9
$MENU
  1
.
  9
$ELEVATION
 40
0.0
  9
$PELEVATION
 40
0.0
  9
$THICKNESS
 40
0.0
  9
$LIMCHECK
 70
     0
  9
$CHAMFERA
 40
0.0
  9
$CHAMFERB
 40
0.0
  9
$CHAMFERC
 40
0.0
  9
$CHAMFERD
 40
0.0
  9
$SKPOLY
 70
     0
  9
$TDCREATE
 40
2459569.503888889
  9
$TDUCREATE
 40
2459569.128888889
  9
$TDUPDATE
 40
2459569.503888889
  9
$TDUUPDATE
 40
2459569.128888889
  9
$TDINDWG
 40
0.0000000000
  9
$TDUSRTIMER
 40
0.0000000000
  9
$USRTIMER
 70
     1
  9
$ANGBASE
 50
0.0
  9
$ANGDIR
 70
     0
  9
$PDMODE
 70
     0
  9
$PDSIZE
 40
0.0
  9
$PLINEWID
 40
0.0
  9
$SPLFRAME
 70
     0
  9
$SPLINETYPE
 70
     6
  9
$SPLINESEGS
 70
     8
  9
$HANDSEED
  5
1B6
  9
$SURFTAB1
 70
     6
  9
$SURFTAB2
 70
     6
  9
$SURFTYPE
 70
     6
  9
$SURFU
 70
     6
  9
$SURFV
 70
     6
  9
$UCSBASE
  2

  9
$UCSNAME
  2

  9
$UCSORG
 10
0.0
 20
0.0
 30
0.0
  9
$UCSXDIR
 10
1.0
 20
0.0
 30
0.0
  9
$UCSYDIR
 10
0.0
 20
1.0
 30
0.0
  9
$UCSORTHOREF
  2

  9
$UCSORTHOVIEW
 70
     0
  9
$UCSORGTOP
 10
0.0
 20
0.0
 30
0.0
  9
$UCSORGBOTTOM
 10
0.0
 20
0.0
 30
0.0
  9
$UCSORGLEFT
 10
0.0
 20
0.0
 30
0.0
  9
$UCSORGRIGHT
 10
0.0
 20
0.0
 30
0.0
  9
$UCSORGFRONT
 10
0.0
 20
0.0
 30
0.0
  9
$UCSORGBACK
 10
0.0
 20
0.0
 30
0.0
  9
$PUCSBASE
  2

  9
$PUCSNAME
  2

  9
$PUCSORG
 10
0.0
 20
0.0
 30
0.0
  9
$PUCSXDIR
 10
1.0
 20
0.0
 30
0.0
  9
$PUCSYDIR
 10
0.0
 20
1.0
 30
0.0
  9
$PUCSORTHOREF
  2

  9
$PUCSORTHOVIEW
 70
     0
  9
$PUCSORGTOP
 10
0.0
 20
0.0
 30
0.0
  9
$PUCSORGBOTTOM
 10
0.0
 20
0.0
 30
0.0
  9
$PUCSORGLEFT
 10
0.0
 20
0.0
 30
0.0
  9
$PUCSORGRIGHT
 10
0.0
 20
0.0
 30
0.0
  9
$PUCSORGFRONT
 10
0.0
 20
0.0
 30
0.0
  9
$PUCSORGBACK
 10
0.0
 20
0.0
 30
0.0
  9
$USERI1
 70
     0
  9
$USERI2
 70
     0
  9
$USERI3
 70
     0
  9
$USERI4
 70
     0
  9
$USERI5
 70
     0
  9
$USERR1
 40
0.0
  9
$USERR2
 40
0.0
  9
$USERR3
 40
0.0
  9
$USERR4
 40
0.0
  9
$USERR5
 40
0.0
  9
$WORLDVIEW
 70
     1
  9
$SHADEDGE
 70
     3
  9
$SHADEDIF
 70
    70
  9
$TILEMODE
 70
     1
  9
$MAXACTVP
 70
    64
  9
$PINSBASE
 10
0.0
 20
0.0
 30
0.0
  9
$PLIMCHECK
 70
     0
  9
$PEXTMIN
 10
1.000000000000000E+20
 20
1.000000000000000E+20
 30
1.000000000000000E+20
  9
$PEXTMAX
 10
-1.000000000000000E+20
 20
-1.000000000000000E+20
 30
-1.000000000000000E+20
  9
$PLIMMIN
 10
0.0
 20
0.0
  9
$PLIMMAX
 10
12.0
 20
9.0
  9
$UNITMODE
 70
     0
  9
$VISRETAIN
 70
     1
  9
$PLINEGEN
 70
     0
  9
$PSLTSCALE
 70
     1
  9
$TREEDEPTH
 70
  3020
  9
$CMLSTYLE
  2
Standard
  9
$CMLJUST
 70
     0
  9
$CMLSCALE
 40
1.0
  9
$PROXYGRAPHICS
 70
     1
  9
$MEASUREMENT
 70
     0
  9
$CELWEIGHT
370
    -1
  9
$ENDCAPS
280
     0
  9
$JOINSTYLE
280
     0
  9
$LWDISPLAY
290
     1
  9
$INSUNITS
 70
     4
  9
$HYPERLINKBASE
  1

  9
$STYLESHEET
  1

  9
$XEDIT
290
     1
  9
$CEPSNTYPE
380
     0
  9
$PSTYLEMODE
290
     1
  9
$FINGERPRINTGUID
  2
{75175B6E-C6BC-204C-B9F1-94BAE27F9592}
  9
$VERSIONGUID
  2
{4D1F7697-739F-E645-9F01-88CE5914DDE5}
  9
$EXTNAMES
290
     1
  9
$PSVPSCALE
 40
0.0
  9
$OLESTARTUP
290
     0
  9
$SORTENTS
280
   127
  9
$INDEXCTL
280
     0
  9
$HIDETEXT
280
     1
  9
$XCLIPFRAME
280
     2
  9
$HALOGAP
280
     0
  9
$OBSCOLOR
 70
   257
  9
$OBSLTYPE
280
     0
  9
$INTERSECTIONDISPLAY
280
     0
  9
$INTERSECTIONCOLOR
 70
   257
  9
$DIMASSOC
280
     2
  9
$PROJECTNAME
  1

  9
$CAMERADISPLAY
290
     0
  9
$LENSLENGTH
 40
50.0
  9
$CAMERAHEIGHT
 40
0.0
  9
$STEPSPERSEC
 40
2.0
  9
$STEPSIZE
 40
6.0
  9
$3DDWFPREC
 40
2.0
  9
$PSOLWIDTH
 40
0.25
  9
$PSOLHEIGHT
 40
4.0
  9
$LOFTANG1
 40
1.570796326794896
  9
$LOFTANG2
 40
1.570796326794896
  9
$LOFTMAG1
 40
0.0
  9
$LOFTMAG2
 40
0.0
  9
$LOFTPARAM
 70
     7
  9
$LOFTNORMALS
280
     1
  9
$LATITUDE
 40
37.795
  9
$LONGITUDE
 40
-122.394
  9
$NORTHDIRECTION
 40
0.0
  9
$TIMEZONE
 70
 -8000
  9
$LIGHTGLYPHDISPLAY
280
     1
  9
$TILEMODELIGHTSYNCH
280
     1
  9
$CMATERIAL
347
11
  9
$SOLIDHIST
280
     0
  9
$SHOWHIST
280
     1
  9
$DWFFRAME
280
     2
  9
$DGNFRAME
280
     0
  9
$REALWORLDSCALE
290
     1
  9
$INTERFERECOLOR
 62
     1
  9
$INTERFEREOBJVS
345
33
  9
$INTERFEREVPVS
346
30
  9
$CSHADOW
280
     0
  9
$SHADOWPLANELOCATION
 40
0.0
  0
ENDSEC
  0
SECTION
  2
CLASSES
  0
CLASS
  1
ACDBDICTIONARYWDFLT
  2
AcDbDictionaryWithDefault
  3
ObjectDBX Classes
 90
        0
 91
        1
280
     0
281
     0
  0
CLASS
  1
MATERIAL
  2
AcDbMaterial
  3
ObjectDBX Classes
 90
     1153
 91
        3
280
     0
281
     0
  0
CLASS
  1
VISUALSTYLE
  2
AcDbVisualStyle
  3
ObjectDBX Classes
 90
     4095
 91
       24
280
     0
281
     0
  0
CLASS
  1
SCALE
  2
AcDbScale
  3
ObjectDBX Classes
 90
     1153
 91
       17
280
     0
281
     0
  0
CLASS
  1
TABLESTYLE
  2
AcDbTableStyle
  3
ObjectDBX Classes
 90
     4095
 91
        1
280
     0
281
     0
  0
CLASS
  1
MLEADERSTYLE
  2
AcDbMLeaderStyle
  3
ACDB_MLEADERSTYLE_CLASS
 90
     4095
 91
        1
280
     0
281
     0
  0
CLASS
  1
ACDBSECTIONVIEWSTYLE
  2
AcDbSectionViewStyle
  3
ObjectDBX Classes
 90
     1025
 91
        1
280
     0
281
     0
  0
CLASS
  1
ACDBDETAILVIEWSTYLE
  2
AcDbDetailViewStyle
  3
ObjectDBX Classes
 90
     1025
 91
        1
280
     0
281
     0
  0
CLASS
  1
DICTIONARYVAR
  2
AcDbDictionaryVar
  3
ObjectDBX Classes
 90
        0
 91
        5
280
     0
281
     0
  0
CLASS
  1
CELLSTYLEMAP
  2
AcDbCellStyleMap
  3
ObjectDBX Classes
 90
     1152
 91
        1
280
     0
281
     0
  0
ENDSEC
  0
SECTION
  2
TABLES
  0
TABLE
  2
VPORT
  5
8
330
0
100
AcDbSymbolTable
 70
     1
  0
VPORT
  5
57
330
8
100
AcDbSymbolTableRecord
100
AcDbViewportTableRecord
  2
*Active
 70
     0
 10
0.0
 20
0.0
 11
1.0
 21
1.0
 12
0.0
 22
0.0
 13
0.0
 23
0.0
 14
1.0
 24
1.0
 15
0.0
 25
0.0
 16
0.0
 26
0.0
 36
1.0
 17
104.9999999737534
 27
-148.4999999628701
 37
0.0
 40
302.939999924255
 41
0.7070707070707534
 42
50.0
 43
0.0
 44
0.0
 50
0.0
 51
0.0
 71
     0
 72
   100
 73
     1
 74
     0
 75
     1
 76
     0
 77
     0
 78
     0
281
     0
 65
     1
110
0.0
120
0.0
130
0.0
111
1.0
121
0.0
131
0.0
112
0.0
122
1.0
132
0.0
 79
     0
146
0.0
 60
     3
 61
     5
292
     1
282
     1
141
0.0
142
0.0
 63
   250
421
  3355443
  0
ENDTAB
  0
TABLE
  2
LTYPE
  5
5
330
0
100
AcDbSymbolTable
 70
     3
  0
LTYPE
  5
5B
330
5
100
AcDbSymbolTableRecord
100
AcDbLinetypeTableRecord
  2
ByBlock
 70
     0
  3

 72
    65
 73
     0
 40
0.0
  0
LTYPE
  5
5C
330
5
100
AcDbSymbolTableRecord
100
AcDbLinetypeTableRecord
  2
ByLayer
 70
     0
  3

 72
    65
 73
     0
 40
0.0
  0
LTYPE
  5
5D
330
5
100
AcDbSymbolTableRecord
100
AcDbLinetypeTableRecord
  2
Continuous
 70
     0
  3
Solid line
 72
    65
 73
     0
 40
0.0
  0
LTYPE
  5
7A
330
5
100
AcDbSymbolTableRecord
100
AcDbLinetypeTableRecord
  2
AI-Linetype-0
 70
     0
  3
Adobe Illustrator Linetype No. 0
 72
    65
 73
     2
 40
1.411111110758333
 49
0.7055555553791667
 74
     0
 49
-0.7055555553791667
 74
     0
  0
LTYPE
  5
7C
330
5
100
AcDbSymbolTableRecord
100
AcDbLinetypeTableRecord
  2
AI-Linetype-1
 70
     0
  3
Adobe Illustrator Linetype No. 1
 72
    65
 73
     2
 40
1.411111110758333
 49
0.7055555553791667
 74
     0
 49
-0.7055555553791667
 74
     0
  0
ENDTAB
  0
TABLE
  2
LAYER
  5
2
330
0
100
AcDbSymbolTable
 70
     2
  0
LAYER
  5
54
330
2
100
AcDbSymbolTableRecord
100
AcDbLayerTableRecord
  2
0
 70
     0
 62
     7
  6
Continuous
370
    -3
390
F
347
21
  0
LAYER
  5
78
330
2
100
AcDbSymbolTableRecord
100
AcDbLayerTableRecord
  2
レイヤー 1
 70
     0
 62
     7
  6
Continuous
370
     0
390
F
347
21
  0
ENDTAB
  0
TABLE
  2
STYLE
  5
3
330
0
100
AcDbSymbolTable
 70
     2
  0
STYLE
  5
55
330
3
100
AcDbSymbolTableRecord
100
AcDbTextStyleTableRecord
  2
Standard
 70
     0
 40
0.0
 41
1.0
 50
0.0
 71
     0
 42
0.2
  3
txt
  4

  0
STYLE
  5
5A
330
3
100
AcDbSymbolTableRecord
100
AcDbTextStyleTableRecord
  2
Annotative
 70
     0
 40
0.0
 41
1.0
 50
0.0
 71
     0
 42
0.2
  3
txt
  4

1001
AcadAnnotative
1000
AnnotativeData
1002
{
1070
     1
1070
     1
1002
}
  0
ENDTAB
  0
TABLE
  2
VIEW
  5
6
330
0
100
AcDbSymbolTable
 70
     0
  0
ENDTAB
  0
TABLE
  2
UCS
  5
7
330
0
100
AcDbSymbolTable
 70
     0
  0
ENDTAB
  0
TABLE
  2
APPID
  5
9
330
0
100
AcDbSymbolTable
 70
     2
  0
APPID
  5
56
330
9
100
AcDbSymbolTableRecord
100
AcDbRegAppTableRecord
  2
ACAD
 70
     0
  0
APPID
  5
5E
330
9
100
AcDbSymbolTableRecord
100
AcDbRegAppTableRecord
  2
AcadAnnotative
 70
     0
  0
ENDTAB
  0
TABLE
  2
DIMSTYLE
  5
A
330
0
100
AcDbSymbolTable
 70
     2
100
AcDbDimStyleTable
 71
     0
  0
DIMSTYLE
105
58
330
A
100
AcDbSymbolTableRecord
100
AcDbDimStyleTableRecord
  2
Standard
 70
     0
340
55
  0
DIMSTYLE
105
59
330
A
100
AcDbSymbolTableRecord
100
AcDbDimStyleTableRecord
  2
Annotative
 70
     0
340
55
1001
AcadAnnotative
1000
AnnotativeData
1002
{
1070
     1
1070
     1
1002
}
  0
ENDTAB
  0
TABLE
  2
BLOCK_RECORD
  5
1
330
0
100
AcDbSymbolTable
 70
    17
  0
BLOCK_RECORD
  5
70
330
1
100
AcDbSymbolTableRecord
100
AcDbBlockTableRecord
  2
*Model_Space
340
73
 70
     0
280
     1
281
     0
  0
BLOCK_RECORD
  5
6C
330
1
100
AcDbSymbolTableRecord
100
AcDbBlockTableRecord
  2
*Paper_Space
340
6F
 70
     0
280
     1
281
     0
  0
BLOCK_RECORD
  5
74
330
1
100
AcDbSymbolTableRecord
100
AcDbBlockTableRecord
  2
*Paper_Space0
340
77
 70
     0
280
     1
281
     0
  0
BLOCK_RECORD
  5
7D
330
1
100
AcDbSymbolTableRecord
100
AcDbBlockTableRecord
  2
Block_0
340
0
102
{BLKREFS
331
7E
102
}
 70
     0
280
     1
281
     0
  0
BLOCK_RECORD
  5
EB
330
1
100
AcDbSymbolTableRecord
100
AcDbBlockTableRecord
  2
Block_1
340
0
102
{BLKREFS
331
EC
102
}
 70
     0
280
     1
281
     0
  0
BLOCK_RECORD
  5
EF
330
1
100
AcDbSymbolTableRecord
100
AcDbBlockTableRecord
  2
Block_2
340
0
102
{BLKREFS
331
F0
102
}
 70
     0
280
     1
281
     0
  0
BLOCK_RECORD
  5
FC
330
1
100
AcDbSymbolTableRecord
100
AcDbBlockTableRecord
  2
Block_3
340
0
102
{BLKREFS
331
FD
102
}
 70
     0
280
     1
281
     0
  0
BLOCK_RECORD
  5
100
330
1
100
AcDbSymbolTableRecord
100
AcDbBlockTableRecord
  2
Block_4
340
0
102
{BLKREFS
331
101
102
}
 70
     0
280
     1
281
     0
  0
BLOCK_RECORD
  5
10A
330
1
100
AcDbSymbolTableRecord
100
AcDbBlockTableRecord
  2
Block_5
340
0
102
{BLKREFS
331
10B
102
}
 70
     0
280
     1
281
     0
  0
BLOCK_RECORD
  5
113
330
1
100
AcDbSymbolTableRecord
100
AcDbBlockTableRecord
  2
Block_6
340
0
102
{BLKREFS
331
114
102
}
 70
     0
280
     1
281
     0
  0
BLOCK_RECORD
  5
117
330
1
100
AcDbSymbolTableRecord
100
AcDbBlockTableRecord
  2
Block_7
340
0
102
{BLKREFS
331
118
102
}
 70
     0
280
     1
281
     0
  0
BLOCK_RECORD
  5
122
330
1
100
AcDbSymbolTableRecord
100
AcDbBlockTableRecord
  2
Block_8
340
0
102
{BLKREFS
331
123
102
}
 70
     0
280
     1
281
     0
  0
BLOCK_RECORD
  5
12E
330
1
100
AcDbSymbolTableRecord
100
AcDbBlockTableRecord
  2
Block_9
340
0
102
{BLKREFS
331
12F
102
}
 70
     0
280
     1
281
     0
  0
BLOCK_RECORD
  5
137
330
1
100
AcDbSymbolTableRecord
100
AcDbBlockTableRecord
  2
Block_10
340
0
102
{BLKREFS
331
138
102
}
 70
     0
280
     1
281
     0
  0
BLOCK_RECORD
  5
13D
330
1
100
AcDbSymbolTableRecord
100
AcDbBlockTableRecord
  2
Block_11
340
0
102
{BLKREFS
331
13E
102
}
 70
     0
280
     1
281
     0
  0
BLOCK_RECORD
  5
144
330
1
100
AcDbSymbolTableRecord
100
AcDbBlockTableRecord
  2
Block_12
340
0
102
{BLKREFS
331
145
102
}
 70
     0
280
     1
281
     0
  0
BLOCK_RECORD
  5
148
330
1
100
AcDbSymbolTableRecord
100
AcDbBlockTableRecord
  2
Block_13
340
0
102
{BLKREFS
331
149
102
}
 70
     0
280
     1
281
     0
  0
BLOCK_RECORD
  5
15C
330
1
100
AcDbSymbolTableRecord
100
AcDbBlockTableRecord
  2
Block_14
340
0
102
{BLKREFS
331
15D
102
}
 70
     0
280
     1
281
     0
  0
BLOCK_RECORD
  5
160
330
1
100
AcDbSymbolTableRecord
100
AcDbBlockTableRecord
  2
Block_15
340
0
102
{BLKREFS
331
161
102
}
 70
     0
280
     1
281
     0
  0
ENDTAB
  0
ENDSEC
  0
SECTION
  2
BLOCKS
  0
BLOCK
  5
71
330
70
100
AcDbEntity
  8
0
100
AcDbBlockBegin
  2
*Model_Space
 70
     0
 10
0.0
 20
0.0
 30
0.0
  3
*Model_Space
  1

  0
ENDBLK
  5
72
330
70
100
AcDbEntity
  8
0
100
AcDbBlockEnd
  0
BLOCK
  5
6D
330
6C
100
AcDbEntity
 67
     1
  8
0
100
AcDbBlockBegin
  2
*Paper_Space
 70
     0
 10
0.0
 20
0.0
 30
0.0
  3
*Paper_Space
  1

  0
ENDBLK
  5
6E
330
6C
100
AcDbEntity
 67
     1
  8
0
100
AcDbBlockEnd
  0
BLOCK
  5
75
330
74
100
AcDbEntity
 67
     1
  8
0
100
AcDbBlockBegin
  2
*Paper_Space0
 70
     0
 10
0.0
 20
0.0
 30
0.0
  3
*Paper_Space0
  1

  0
ENDBLK
  5
76
330
74
100
AcDbEntity
 67
     1
  8
0
100
AcDbBlockEnd
  0
BLOCK
  5
7F
330
7D
100
AcDbEntity
  8
0
100
AcDbBlockBegin
  2
Block_0
 70
     0
 10
0.0
 20
0.0
 30
0.0
  3
Block_0
  1

  0
LINE
  5
81
330
7D
100
AcDbEntity
  8
レイヤー 1
 62
    18
420
        0
370
     9
100
AcDbLine
 10
124.2647422780783
 20
-148.5333621786999
 30
0.0
 11
125.0760605907132
 21
-149.1176327341092
 31
0.0
  0
LINE
  5
82
330
7D
100
AcDbEntity
  8
レイヤー 1
 62
    18
420
        0
370
     9
100
AcDbLine
 10
124.2647422780783
 20
-148.5333621786999
 30
0.0
 11
126.8423483234292
 21
-151.6904410667992
 31
0.0
  0
LINE
  5
83
330
7D
100
AcDbEntity
  8
レイヤー 1
 62
    18
420
        0
370
     9
100
AcDbLine
 10
124.2647422780783
 20
-148.5333621786999
 30
0.0
 11
124.6750581009436
 21
-149.4452574562496
 31
0.0
  0
ENDBLK
  5
80
330
7D
100
AcDbEntity
  8
0
100
AcDbBlockEnd
  0
BLOCK
  5
ED
330
EB
100
AcDbEntity
  8
0
100
AcDbBlockBegin
  2
Block_1
 70
     0
 10
0.0
 20
0.0
 30
0.0
  3
Block_1
  1

  0
INSERT
  5
F0
330
EB
100
AcDbEntity
  8
レイヤー 1
100
AcDbBlockReference
  2
Block_2
 10
0.0
 20
0.0
 30
0.0
  0
ENDBLK
  5
EE
330
EB
100
AcDbEntity
  8
0
100
AcDbBlockEnd
  0
BLOCK
  5
F1
330
EF
100
AcDbEntity
  8
0
100
AcDbBlockBegin
  2
Block_2
 70
     0
 10
0.0
 20
0.0
 30
0.0
  3
Block_2
  1

  0
SPLINE
  5
F3
330
EF
100
AcDbEntity
  8
レイヤー 1
100
AcDbSpline
210
0.0
220
0.0
230
1.0
 70
     9
 71
     3
 72
    17
 73
    13
 74
     0
 42
0.0000000001
 43
0.0000000001
 40
0.0
 40
0.0
 40
0.0
 40
0.0
 40
1.0
 40
1.0
 40
1.0
 40
2.0
 40
2.0
 40
2.0
 40
3.0
 40
3.0
 40
3.0
 40
4.0
 40
4.0
 40
4.0
 40
4.0
 10
75.09567462315317
 20
-147.8121663041928
 30
0.0
 10
75.09567462315317
 20
-148.0619357268734
 30
0.0
 10
75.37903372681497
 20
-148.1084445159243
 30
0.0
 10
75.72388778488847
 20
-148.1084445159243
 30
0.0
 10
76.0434203911454
 20
-148.1084445159243
 30
0.0
 10
76.35227320139804
 20
-148.0722710133291
 30
0.0
 10
76.35227320139804
 20
-147.8121663041928
 30
0.0
 10
76.35227320139804
 20
-147.5644639388033
 30
0.0
 10
76.07080890025314
 20
-147.5158880924613
 30
0.0
 10
75.72388778488847
 20
-147.5158880924613
 30
0.0
 10
75.40452743340582
 20
-147.5158880924613
 30
0.0
 10
75.09567462315317
 20
-147.5541286523476
 30
0.0
 10
75.09567462315317
 20
-147.8121663041928
 30
0.0
  0
SPLINE
  5
F4
330
EF
100
AcDbEntity
  8
レイヤー 1
100
AcDbSpline
210
0.0
220
0.0
230
1.0
 70
     9
 71
     3
 72
    29
 73
    25
 74
     0
 42
0.0000000001
 43
0.0000000001
 40
0.0
 40
0.0
 40
0.0
 40
0.0
 40
1.0
 40
1.0
 40
1.0
 40
2.0
 40
2.0
 40
2.0
 40
3.0
 40
3.0
 40
3.0
 40
4.0
 40
4.0
 40
4.0
 40
5.0
 40
5.0
 40
5.0
 40
6.0
 40
6.0
 40
6.0
 40
7.0
 40
7.0
 40
7.0
 40
8.0
 40
8.0
 40
8.0
 40
8.0
 10
76.31833901086833
 20
-147.4142577756464
 30
0.0
 10
76.52780081637152
 20
-147.5224337738833
 30
0.0
 10
76.54692109631466
 20
-147.6957220767913
 30
0.0
 10
76.54692109631466
 20
-147.8121663041928
 30
0.0
 10
76.54692109631466
 20
-147.9730522633539
 30
0.0
 10
76.50041230726379
 20
-148.1146456877977
 30
0.0
 10
76.31833901086833
 20
-148.2097303231906
 30
0.0
 10
76.12386337072599
 20
-148.3134276972966
 30
0.0
 10
75.88684080134079
 20
-148.332720232014
 30
0.0
 10
75.72388778488847
 20
-148.332720232014
 30
0.0
 10
75.58005504837929
 20
-148.332720232014
 30
0.0
 10
75.32839082318179
 20
-148.3154947545878
 30
0.0
 10
75.12943655890862
 20
-148.2097303231906
 30
0.0
 10
74.92634818005313
 20
-148.1018988345023
 30
0.0
 10
74.9030937855277
 20
-147.9410128753411
 30
0.0
 10
74.9030937855277
 20
-147.8121663041928
 30
0.0
 10
74.9030937855277
 20
-147.6533474023228
 30
0.0
 10
74.94753551728742
 20
-147.5096869205878
 30
0.0
 10
75.12943655890862
 20
-147.4142577756464
 30
0.0
 10
75.32201739653408
 20
-147.3150390256712
 30
0.0
 10
75.55042722720614
 20
-147.2916123763715
 30
0.0
 10
75.72388778488847
 20
-147.2916123763715
 30
0.0
 10
75.89528128527965
 20
-147.2916123763715
 30
0.0
 10
76.12593042801712
 20
-147.3129719683801
 30
0.0
 10
76.31833901086833
 20
-147.4142577756464
 30
0.0
  0
HATCH
  5
F5
330
EF
100
AcDbEntity
  8
レイヤー 1
 62
    18
420
        0
440
 33554687
100
AcDbHatch
 10
0.0
 20
0.0
 30
0.0
210
0.0
220
0.0
230
1.0
  2
SOLID
 70
     1
 71
     1
 91
        2
 92
        1
 93
        1
 72
     4
 94
        3
 73
     0
 74
     0
 95
       17
 96
       13
 40
0.0
 40
0.0
 40
0.0
 40
0.0
 40
1.0
 40
1.0
 40
1.0
 40
2.0
 40
2.0
 40
2.0
 40
3.0
 40
3.0
 40
3.0
 40
4.0
 40
4.0
 40
4.0
 40
4.0
 10
75.09567462315317
 20
-147.8121663041928
 10
75.09567462315317
 20
-148.0619357268734
 10
75.37903372681497
 20
-148.1084445159243
 10
75.72388778488847
 20
-148.1084445159243
 10
76.0434203911454
 20
-148.1084445159243
 10
76.35227320139804
 20
-148.0722710133291
 10
76.35227320139804
 20
-147.8121663041928
 10
76.35227320139804
 20
-147.5644639388033
 10
76.07080890025314
 20
-147.5158880924613
 10
75.72388778488847
 20
-147.5158880924613
 10
75.40452743340582
 20
-147.5158880924613
 10
75.09567462315317
 20
-147.5541286523476
 10
75.09567462315317
 20
-147.8121663041928
 97
        0
 97
        1
330
F3
 92
        1
 93
        1
 72
     4
 94
        3
 73
     0
 74
     0
 95
       29
 96
       25
 40
0.0
 40
0.0
 40
0.0
 40
0.0
 40
1.0
 40
1.0
 40
1.0
 40
2.0
 40
2.0
 40
2.0
 40
3.0
 40
3.0
 40
3.0
 40
4.0
 40
4.0
 40
4.0
 40
5.0
 40
5.0
 40
5.0
 40
6.0
 40
6.0
 40
6.0
 40
7.0
 40
7.0
 40
7.0
 40
8.0
 40
8.0
 40
8.0
 40
8.0
 10
76.31833901086833
 20
-147.4142577756464
 10
76.52780081637152
 20
-147.5224337738833
 10
76.54692109631466
 20
-147.6957220767913
 10
76.54692109631466
 20
-147.8121663041928
 10
76.54692109631466
 20
-147.9730522633539
 10
76.50041230726379
 20
-148.1146456877977
 10
76.31833901086833
 20
-148.2097303231906
 10
76.12386337072599
 20
-148.3134276972966
 10
75.88684080134079
 20
-148.332720232014
 10
75.72388778488847
 20
-148.332720232014
 10
75.58005504837929
 20
-148.332720232014
 10
75.32839082318179
 20
-148.3154947545878
 10
75.12943655890862
 20
-148.2097303231906
 10
74.92634818005313
 20
-148.1018988345023
 10
74.9030937855277
 20
-147.9410128753411
 10
74.9030937855277
 20
-147.8121663041928
 10
74.9030937855277
 20
-147.6533474023228
 10
74.94753551728742
 20
-147.5096869205878
 10
75.12943655890862
 20
-147.4142577756464
 10
75.32201739653408
 20
-147.3150390256712
 10
75.55042722720614
 20
-147.2916123763715
 10
75.72388778488847
 20
-147.2916123763715
 10
75.89528128527965
 20
-147.2916123763715
 10
76.12593042801712
 20
-147.3129719683801
 10
76.31833901086833
 20
-147.4142577756464
 97
        0
 97
        1
330
F4
 75
     2
 76
     1
 98
        1
 10
0.0
 20
0.0
450
        0
451
        0
460
0.0
461
0.0
452
        0
462
0.0
453
        0
470

  0
SPLINE
  5
F6
330
EF
100
AcDbEntity
  8
レイヤー 1
100
AcDbSpline
210
0.0
220
0.0
230
1.0
 70
    11
 71
     3
 72
    17
 73
    13
 74
     0
 42
0.0000000001
 43
0.0000000001
 40
0.0
 40
0.0
 40
0.0
 40
0.0
 40
1.0
 40
1.0
 40
1.0
 40
2.0
 40
2.0
 40
2.0
 40
3.0
 40
3.0
 40
3.0
 40
4.0
 40
4.0
 40
4.0
 40
4.0
 10
76.49610593790723
 20
-147.0752603798978
 30
0.0
 10
76.49610593790723
 20
-147.0752603798978
 30
0.0
 10
76.24444171270972
 20
-147.0752603798978
 30
0.0
 10
76.24444171270972
 20
-147.0752603798978
 30
0.0
 10
76.24444171270972
 20
-147.0752603798978
 30
0.0
 10
76.24444171270972
 20
-146.8234238999261
 30
0.0
 10
76.24444171270972
 20
-146.8234238999261
 30
0.0
 10
76.24444171270972
 20
-146.8234238999261
 30
0.0
 10
76.49610593790723
 20
-146.8234238999261
 30
0.0
 10
76.49610593790723
 20
-146.8234238999261
 30
0.0
 10
76.49610593790723
 20
-146.8234238999261
 30
0.0
 10
76.49610593790723
 20
-147.0752603798978
 30
0.0
 10
76.49610593790723
 20
-147.0752603798978
 30
0.0
  0
HATCH
  5
F7
330
EF
100
AcDbEntity
  8
レイヤー 1
 62
    18
420
        0
440
 33554687
100
AcDbHatch
 10
0.0
 20
0.0
 30
0.0
210
0.0
220
0.0
230
1.0
  2
SOLID
 70
     1
 71
     1
 91
        1
 92
        1
 93
        1
 72
     4
 94
        3
 73
     0
 74
     0
 95
       17
 96
       13
 40
0.0
 40
0.0
 40
0.0
 40
0.0
 40
1.0
 40
1.0
 40
1.0
 40
2.0
 40
2.0
 40
2.0
 40
3.0
 40
3.0
 40
3.0
 40
4.0
 40
4.0
 40
4.0
 40
4.0
 10
76.49610593790723
 20
-147.0752603798978
 10
76.49610593790723
 20
-147.0752603798978
 10
76.24444171270972
 20
-147.0752603798978
 10
76.24444171270972
 20
-147.0752603798978
 10
76.24444171270972
 20
-147.0752603798978
 10
76.24444171270972
 20
-146.8234238999261
 10
76.24444171270972
 20
-146.8234238999261
 10
76.24444171270972
 20
-146.8234238999261
 10
76.49610593790723
 20
-146.8234238999261
 10
76.49610593790723
 20
-146.8234238999261
 10
76.49610593790723
 20
-146.8234238999261
 10
76.49610593790723
 20
-147.0752603798978
 10
76.49610593790723
 20
-147.0752603798978
 97
        0
 97
        1
330
F6
 75
     2
 76
     1
 98
        1
 10
0.0
 20
0.0
450
        0
451
        0
460
0.0
461
0.0
452
        0
462
0.0
453
        0
470

  0
SPLINE
  5
F8
330
EF
100
AcDbEntity
  8
レイヤー 1
100
AcDbSpline
210
0.0
220
0.0
230
1.0
 70
     9
 71
     3
 72
    53
 73
    49
 74
     0
 42
0.0000000001
 43
0.0000000001
 40
0.0
 40
0.0
 40
0.0
 40
0.0
 40
1.0
 40
1.0
 40
1.0
 40
2.0
 40
2.0
 40
2.0
 40
3.0
 40
3.0
 40
3.0
 40
4.0
 40
4.0
 40
4.0
 40
5.0
 40
5.0
 40
5.0
 40
6.0
 40
6.0
 40
6.0
 40
7.0
 40
7.0
 40
7.0
 40
8.0
 40
8.0
 40
8.0
 40
9.0
 40
9.0
 40
9.0
 40
10.0
 40
10.0
 40
10.0
 40
11.0
 40
11.0
 40
11.0
 40
12.0
 40
12.0
 40
12.0
 40
13.0
 40
13.0
 40
13.0
 40
14.0
 40
14.0
 40
14.0
 40
15.0
 40
15.0
 40
15.0
 40
16.0
 40
16.0
 40
16.0
 40
16.0
 10
76.54692109631466
 20
-146.106155019897
 30
0.0
 10
76.54692109631466
 20
-146.1843586874122
 30
0.0
 10
76.53004012843694
 20
-146.2859890042271
 30
0.0
 10
76.46647811673408
 20
-146.387619321042
 30
0.0
 10
76.35640731598035
 20
-146.56090762395
 30
0.0
 10
76.22532143276659
 20
-146.5822672159586
 30
0.0
 10
76.11748994407827
 20
-146.6012152411274
 30
0.0
 10
76.11748994407827
 20
-146.6012152411274
 30
0.0
 10
76.11748994407827
 20
-146.3790065823288
 30
0.0
 10
76.11748994407827
 20
-146.3790065823288
 30
0.0
 10
76.31627195357719
 20
-146.3242295641133
 30
0.0
 10
76.34589977475034
 20
-146.1971055407076
 30
0.0
 10
76.34589977475034
 20
-146.1040879626059
 30
0.0
 10
76.34589977475034
 20
-145.9645615954533
 30
0.0
 10
76.24650877000087
 20
-145.8122883750052
 30
0.0
 10
76.01379256997225
 20
-145.8122883750052
 30
0.0
 10
75.75782197541818
 20
-145.8122883750052
 30
0.0
 10
75.68805879184188
 20
-145.9921223593353
 30
0.0
 10
75.68805879184188
 20
-146.112700701319
 30
0.0
 10
75.68805879184188
 20
-146.1443955797833
 30
0.0
 10
75.68805879184188
 20
-146.2859890042271
 30
0.0
 10
75.81707761776448
 20
-146.3748724677465
 30
0.0
 10
75.81707761776448
 20
-146.3748724677465
 30
0.0
 10
75.79795733782134
 20
-146.5505723374943
 30
0.0
 10
75.79795733782134
 20
-146.5505723374943
 30
0.0
 10
75.79795733782134
 20
-146.5505723374943
 30
0.0
 10
74.95184188664399
 20
-146.4299939955105
 30
0.0
 10
74.95184188664399
 20
-146.4299939955105
 30
0.0
 10
74.95184188664399
 20
-146.4299939955105
 30
0.0
 10
74.95184188664399
 20
-145.6514024158441
 30
0.0
 10
74.95184188664399
 20
-145.6514024158441
 30
0.0
 10
74.95184188664399
 20
-145.6514024158441
 30
0.0
 10
75.1464897815606
 20
-145.6514024158441
 30
0.0
 10
75.1464897815606
 20
-145.6514024158441
 30
0.0
 10
75.1464897815606
 20
-145.6514024158441
 30
0.0
 10
75.1464897815606
 20
-146.2670409790582
 30
0.0
 10
75.1464897815606
 20
-146.2670409790582
 30
0.0
 10
75.1464897815606
 20
-146.2670409790582
 30
0.0
 10
75.56954750714928
 20
-146.332497793278
 30
0.0
 10
75.56954750714928
 20
-146.332497793278
 30
0.0
 10
75.53561331661957
 20
-146.2711750936405
 30
0.0
 10
75.49547795421641
 20
-146.188837311543
 30
0.0
 10
75.49547795421641
 20
-146.0703260268505
 30
0.0
 10
75.49547795421641
 20
-145.8164224895876
 30
0.0
 10
75.68168536519417
 20
-145.5793999202024
 30
0.0
 10
75.99467229002911
 20
-145.5793999202024
 30
0.0
 10
76.31213783899489
 20
-145.5793999202024
 30
0.0
 10
76.54692109631466
 20
-145.8036756362921
 30
0.0
 10
76.54692109631466
 20
-146.106155019897
 30
0.0
  0
HATCH
  5
F9
330
EF
100
AcDbEntity
  8
レイヤー 1
 62
    18
420
        0
440
 33554687
100
AcDbHatch
 10
0.0
 20
0.0
 30
0.0
210
0.0
220
0.0
230
1.0
  2
SOLID
 70
     1
 71
     1
 91
        1
 92
        1
 93
        1
 72
     4
 94
        3
 73
     0
 74
     0
 95
       53
 96
       49
 40
0.0
 40
0.0
 40
0.0
 40
0.0
 40
1.0
 40
1.0
 40
1.0
 40
2.0
 40
2.0
 40
2.0
 40
3.0
 40
3.0
 40
3.0
 40
4.0
 40
4.0
 40
4.0
 40
5.0
 40
5.0
 40
5.0
 40
6.0
 40
6.0
 40
6.0
 40
7.0
 40
7.0
 40
7.0
 40
8.0
 40
8.0
 40
8.0
 40
9.0
 40
9.0
 40
9.0
 40
10.0
 40
10.0
 40
10.0
 40
11.0
 40
11.0
 40
11.0
 40
12.0
 40
12.0
 40
12.0
 40
13.0
 40
13.0
 40
13.0
 40
14.0
 40
14.0
 40
14.0
 40
15.0
 40
15.0
 40
15.0
 40
16.0
 40
16.0
 40
16.0
 40
16.0
 10
76.54692109631466
 20
-146.106155019897
 10
76.54692109631466
 20
-146.1843586874122
 10
76.53004012843694
 20
-146.2859890042271
 10
76.46647811673408
 20
-146.387619321042
 10
76.35640731598035
 20
-146.56090762395
 10
76.22532143276659
 20
-146.5822672159586
 10
76.11748994407827
 20
-146.6012152411274
 10
76.11748994407827
 20
-146.6012152411274
 10
76.11748994407827
 20
-146.3790065823288
 10
76.11748994407827
 20
-146.3790065823288
 10
76.31627195357719
 20
-146.3242295641133
 10
76.34589977475034
 20
-146.1971055407076
 10
76.34589977475034
 20
-146.1040879626059
 10
76.34589977475034
 20
-145.9645615954533
 10
76.24650877000087
 20
-145.8122883750052
 10
76.01379256997225
 20
-145.8122883750052
 10
75.75782197541818
 20
-145.8122883750052
 10
75.68805879184188
 20
-145.9921223593353
 10
75.68805879184188
 20
-146.112700701319
 10
75.68805879184188
 20
-146.1443955797833
 10
75.68805879184188
 20
-146.2859890042271
 10
75.81707761776448
 20
-146.3748724677465
 10
75.81707761776448
 20
-146.3748724677465
 10
75.79795733782134
 20
-146.5505723374943
 10
75.79795733782134
 20
-146.5505723374943
 10
75.79795733782134
 20
-146.5505723374943
 10
74.95184188664399
 20
-146.4299939955105
 10
74.95184188664399
 20
-146.4299939955105
 10
74.95184188664399
 20
-146.4299939955105
 10
74.95184188664399
 20
-145.6514024158441
 10
74.95184188664399
 20
-145.6514024158441
 10
74.95184188664399
 20
-145.6514024158441
 10
75.1464897815606
 20
-145.6514024158441
 10
75.1464897815606
 20
-145.6514024158441
 10
75.1464897815606
 20
-145.6514024158441
 10
75.1464897815606
 20
-146.2670409790582
 10
75.1464897815606
 20
-146.2670409790582
 10
75.1464897815606
 20
-146.2670409790582
 10
75.56954750714928
 20
-146.332497793278
 10
75.56954750714928
 20
-146.332497793278
 10
75.53561331661957
 20
-146.2711750936405
 10
75.49547795421641
 20
-146.188837311543
 10
75.49547795421641
 20
-146.0703260268505
 10
75.49547795421641
 20
-145.8164224895876
 10
75.68168536519417
 20
-145.5793999202024
 10
75.99467229002911
 20
-145.5793999202024
 10
76.31213783899489
 20
-145.5793999202024
 10
76.54692109631466
 20
-145.8036756362921
 10
76.54692109631466
 20
-146.106155019897
 97
        0
 97
        1
330
F8
 75
     2
 76
     1
 98
        1
 10
0.0
 20
0.0
450
        0
451
        0
460
0.0
461
0.0
452
        0
462
0.0
453
        0
470

  0
ENDBLK
  5
F2
330
EF
100
AcDbEntity
  8
0
100
AcDbBlockEnd
  0
BLOCK
  5
FE
330
FC
100
AcDbEntity
  8
0
100
AcDbBlockBegin
  2
Block_3
 70
     0
 10
0.0
 20
0.0
 30
0.0
  3
Block_3
  1

  0
INSERT
  5
101
330
FC
100
AcDbEntity
  8
レイヤー 1
100
AcDbBlockReference
  2
Block_4
 10
0.0
 20
0.0
 30
0.0
  0
ENDBLK
  5
FF
330
FC
100
AcDbEntity
  8
0
100
AcDbBlockEnd
  0
BLOCK
  5
102
330
100
100
AcDbEntity
  8
0
100
AcDbBlockBegin
  2
Block_4
 70
     0
 10
0.0
 20
0.0
 30
0.0
  3
Block_4
  1

  0
SPLINE
  5
104
330
100
100
AcDbEntity
  8
レイヤー 1
100
AcDbSpline
210
0.0
220
0.0
230
1.0
 70
     9
 71
     3
 72
    44
 73
    40
 74
     0
 42
0.0000000001
 43
0.0000000001
 40
0.0
 40
0.0
 40
0.0
 40
0.0
 40
1.0
 40
1.0
 40
1.0
 40
2.0
 40
2.0
 40
2.0
 40
3.0
 40
3.0
 40
3.0
 40
4.0
 40
4.0
 40
4.0
 40
5.0
 40
5.0
 40
5.0
 40
6.0
 40
6.0
 40
6.0
 40
7.0
 40
7.0
 40
7.0
 40
8.0
 40
8.0
 40
8.0
 40
9.0
 40
9.0
 40
9.0
 40
10.0
 40
10.0
 40
10.0
 40
11.0
 40
11.0
 40
11.0
 40
12.0
 40
12.0
 40
12.0
 40
13.0
 40
13.0
 40
13.0
 40
13.0
 10
91.86932777651184
 20
-140.5998589058222
 30
0.0
 10
91.65142548706979
 20
-140.758505552918
 30
0.0
 10
91.55823565419378
 20
-140.8325751058509
 30
0.0
 10
91.50965980785176
 20
-140.97640784236
 30
0.0
 10
91.50965980785176
 20
-140.97640784236
 30
0.0
 10
92.28807913274396
 20
-140.97640784236
 30
0.0
 10
92.28807913274396
 20
-140.97640784236
 30
0.0
 10
92.28807913274396
 20
-140.97640784236
 30
0.0
 10
92.28807913274396
 20
-141.1815632785067
 30
0.0
 10
92.28807913274396
 20
-141.1815632785067
 30
0.0
 10
92.28807913274396
 20
-141.1815632785067
 30
0.0
 10
91.2600626399454
 20
-141.1815632785067
 30
0.0
 10
91.2600626399454
 20
-141.1815632785067
 30
0.0
 10
91.29175751840971
 20
-140.8239623671377
 30
0.0
 10
91.35721433262945
 20
-140.7457586996226
 30
0.0
 10
91.74237600788037
 20
-140.4474134305999
 30
0.0
 10
91.99834660243444
 20
-140.248631421101
 30
0.0
 10
92.0638034166542
 20
-140.1809352948159
 30
0.0
 10
92.0638034166542
 20
-140.0434759849544
 30
0.0
 10
92.0638034166542
 20
-139.9249647002618
 30
0.0
 10
91.99197317578674
 20
-139.7937065622738
 30
0.0
 10
91.79525822357897
 20
-139.7937065622738
 30
0.0
 10
91.53498125966834
 20
-139.7937065622738
 30
0.0
 10
91.52654077572949
 20
-140.0243557050113
 30
0.0
 10
91.52223440637291
 20
-140.1407999324127
 30
0.0
 10
91.52223440637291
 20
-140.1407999324127
 30
0.0
 10
91.2981309450574
 20
-140.1407999324127
 30
0.0
 10
91.2981309450574
 20
-140.1407999324127
 30
0.0
 10
91.30657142899627
 20
-140.0138481637812
 30
0.0
 10
91.31707897022629
 20
-139.9017103057363
 30
0.0
 10
91.39752194980687
 20
-139.7831990210438
 30
0.0
 10
91.50742049578635
 20
-139.6224853166569
 30
0.0
 10
91.69362790676409
 20
-139.5885511261272
 30
0.0
 10
91.81007213416554
 20
-139.5885511261272
 30
0.0
 10
92.0872300659539
 20
-139.5885511261272
 30
0.0
 10
92.29445255939166
 20
-139.7726914798137
 30
0.0
 10
92.29445255939166
 20
-140.0455430422455
 30
0.0
 10
92.29445255939166
 20
-140.2739528729176
 30
0.0
 10
92.17818058676447
 20
-140.3735161324413
 30
0.0
 10
91.86932777651184
 20
-140.5998589058222
 30
0.0
  0
HATCH
  5
105
330
100
100
AcDbEntity
  8
レイヤー 1
 62
    18
420
        0
440
 33554687
100
AcDbHatch
 10
0.0
 20
0.0
 30
0.0
210
0.0
220
0.0
230
1.0
  2
SOLID
 70
     1
 71
     1
 91
        1
 92
        1
 93
        1
 72
     4
 94
        3
 73
     0
 74
     0
 95
       44
 96
       40
 40
0.0
 40
0.0
 40
0.0
 40
0.0
 40
1.0
 40
1.0
 40
1.0
 40
2.0
 40
2.0
 40
2.0
 40
3.0
 40
3.0
 40
3.0
 40
4.0
 40
4.0
 40
4.0
 40
5.0
 40
5.0
 40
5.0
 40
6.0
 40
6.0
 40
6.0
 40
7.0
 40
7.0
 40
7.0
 40
8.0
 40
8.0
 40
8.0
 40
9.0
 40
9.0
 40
9.0
 40
10.0
 40
10.0
 40
10.0
 40
11.0
 40
11.0
 40
11.0
 40
12.0
 40
12.0
 40
12.0
 40
13.0
 40
13.0
 40
13.0
 40
13.0
 10
91.86932777651184
 20
-140.5998589058222
 10
91.65142548706979
 20
-140.758505552918
 10
91.55823565419378
 20
-140.8325751058509
 10
91.50965980785176
 20
-140.97640784236
 10
91.50965980785176
 20
-140.97640784236
 10
92.28807913274396
 20
-140.97640784236
 10
92.28807913274396
 20
-140.97640784236
 10
92.28807913274396
 20
-140.97640784236
 10
92.28807913274396
 20
-141.1815632785067
 10
92.28807913274396
 20
-141.1815632785067
 10
92.28807913274396
 20
-141.1815632785067
 10
91.2600626399454
 20
-141.1815632785067
 10
91.2600626399454
 20
-141.1815632785067
 10
91.29175751840971
 20
-140.8239623671377
 10
91.35721433262945
 20
-140.7457586996226
 10
91.74237600788037
 20
-140.4474134305999
 10
91.99834660243444
 20
-140.248631421101
 10
92.0638034166542
 20
-140.1809352948159
 10
92.0638034166542
 20
-140.0434759849544
 10
92.0638034166542
 20
-139.9249647002618
 10
91.99197317578674
 20
-139.7937065622738
 10
91.79525822357897
 20
-139.7937065622738
 10
91.53498125966834
 20
-139.7937065622738
 10
91.52654077572949
 20
-140.0243557050113
 10
91.52223440637291
 20
-140.1407999324127
 10
91.52223440637291
 20
-140.1407999324127
 10
91.2981309450574
 20
-140.1407999324127
 10
91.2981309450574
 20
-140.1407999324127
 10
91.30657142899627
 20
-140.0138481637812
 10
91.31707897022629
 20
-139.9017103057363
 10
91.39752194980687
 20
-139.7831990210438
 10
91.50742049578635
 20
-139.6224853166569
 10
91.69362790676409
 20
-139.5885511261272
 10
91.81007213416554
 20
-139.5885511261272
 10
92.0872300659539
 20
-139.5885511261272
 10
92.29445255939166
 20
-139.7726914798137
 10
92.29445255939166
 20
-140.0455430422455
 10
92.29445255939166
 20
-140.2739528729176
 10
92.17818058676447
 20
-140.3735161324413
 10
91.86932777651184
 20
-140.5998589058222
 97
        0
 97
        1
330
104
 75
     2
 76
     1
 98
        1
 10
0.0
 20
0.0
450
        0
451
        0
460
0.0
461
0.0
452
        0
462
0.0
453
        0
470

  0
SPLINE
  5
106
330
100
100
AcDbEntity
  8
レイヤー 1
100
AcDbSpline
210
0.0
220
0.0
230
1.0
 70
    11
 71
     3
 72
    26
 73
    22
 74
     0
 42
0.0000000001
 43
0.0000000001
 40
0.0
 40
0.0
 40
0.0
 40
0.0
 40
1.0
 40
1.0
 40
1.0
 40
2.0
 40
2.0
 40
2.0
 40
3.0
 40
3.0
 40
3.0
 40
4.0
 40
4.0
 40
4.0
 40
5.0
 40
5.0
 40
5.0
 40
6.0
 40
6.0
 40
6.0
 40
7.0
 40
7.0
 40
7.0
 40
7.0
 10
92.90440671505514
 20
-141.1815632785067
 30
0.0
 10
92.90440671505514
 20
-141.1815632785067
 30
0.0
 10
92.90440671505514
 20
-140.0772379207098
 30
0.0
 10
92.90440671505514
 20
-140.0772379207098
 30
0.0
 10
92.90440671505514
 20
-140.0772379207098
 30
0.0
 10
92.57436656756821
 20
-140.0772379207098
 30
0.0
 10
92.57436656756821
 20
-140.0772379207098
 30
0.0
 10
92.57436656756821
 20
-140.0772379207098
 30
0.0
 10
92.57436656756821
 20
-139.9290988148441
 30
0.0
 10
92.57436656756821
 20
-139.9290988148441
 30
0.0
 10
92.9064737723463
 20
-139.9144571590318
 30
0.0
 10
92.95298256139718
 20
-139.7515041425795
 30
0.0
 10
92.98261038257033
 20
-139.6372992272434
 30
0.0
 10
92.98261038257033
 20
-139.6372992272434
 30
0.0
 10
93.12868243114492
 20
-139.6372992272434
 30
0.0
 10
93.12868243114492
 20
-139.6372992272434
 30
0.0
 10
93.12868243114492
 20
-139.6372992272434
 30
0.0
 10
93.12868243114492
 20
-141.1815632785067
 30
0.0
 10
93.12868243114492
 20
-141.1815632785067
 30
0.0
 10
93.12868243114492
 20
-141.1815632785067
 30
0.0
 10
92.90440671505514
 20
-141.1815632785067
 30
0.0
 10
92.90440671505514
 20
-141.1815632785067
 30
0.0
  0
HATCH
  5
107
330
100
100
AcDbEntity
  8
レイヤー 1
 62
    18
420
        0
440
 33554687
100
AcDbHatch
 10
0.0
 20
0.0
 30
0.0
210
0.0
220
0.0
230
1.0
  2
SOLID
 70
     1
 71
     1
 91
        1
 92
        1
 93
        1
 72
     4
 94
        3
 73
     0
 74
     0
 95
       26
 96
       22
 40
0.0
 40
0.0
 40
0.0
 40
0.0
 40
1.0
 40
1.0
 40
1.0
 40
2.0
 40
2.0
 40
2.0
 40
3.0
 40
3.0
 40
3.0
 40
4.0
 40
4.0
 40
4.0
 40
5.0
 40
5.0
 40
5.0
 40
6.0
 40
6.0
 40
6.0
 40
7.0
 40
7.0
 40
7.0
 40
7.0
 10
92.90440671505514
 20
-141.1815632785067
 10
92.90440671505514
 20
-141.1815632785067
 10
92.90440671505514
 20
-140.0772379207098
 10
92.90440671505514
 20
-140.0772379207098
 10
92.90440671505514
 20
-140.0772379207098
 10
92.57436656756821
 20
-140.0772379207098
 10
92.57436656756821
 20
-140.0772379207098
 10
92.57436656756821
 20
-140.0772379207098
 10
92.57436656756821
 20
-139.9290988148441
 10
92.57436656756821
 20
-139.9290988148441
 10
92.9064737723463
 20
-139.9144571590318
 10
92.95298256139718
 20
-139.7515041425795
 10
92.98261038257033
 20
-139.6372992272434
 10
92.98261038257033
 20
-139.6372992272434
 10
93.12868243114492
 20
-139.6372992272434
 10
93.12868243114492
 20
-139.6372992272434
 10
93.12868243114492
 20
-139.6372992272434
 10
93.12868243114492
 20
-141.1815632785067
 10
93.12868243114492
 20
-141.1815632785067
 10
93.12868243114492
 20
-141.1815632785067
 10
92.90440671505514
 20
-141.1815632785067
 10
92.90440671505514
 20
-141.1815632785067
 97
        0
 97
        1
330
106
 75
     2
 76
     1
 98
        1
 10
0.0
 20
0.0
450
        0
451
        0
460
0.0
461
0.0
452
        0
462
0.0
453
        0
470

  0
ENDBLK
  5
103
330
100
100
AcDbEntity
  8
0
100
AcDbBlockEnd
  0
BLOCK
  5
10C
330
10A
100
AcDbEntity
  8
0
100
AcDbBlockBegin
  2
Block_5
 70
     0
 10
0.0
 20
0.0
 30
0.0
  3
Block_5
  1

  0
SPLINE
  5
10E
330
10A
100
AcDbEntity
  8
レイヤー 1
100
AcDbSpline
210
0.0
220
0.0
230
1.0
 70
     9
 71
     3
 72
    17
 73
    13
 74
     0
 42
0.0000000001
 43
0.0000000001
 40
0.0
 40
0.0
 40
0.0
 40
0.0
 40
1.0
 40
1.0
 40
1.0
 40
2.0
 40
2.0
 40
2.0
 40
3.0
 40
3.0
 40
3.0
 40
4.0
 40
4.0
 40
4.0
 40
4.0
 10
76.41841903471484
 20
-150.1345051707997
 30
0.0
 10
76.41841903471484
 20
-150.3966769372272
 30
0.0
 10
76.62994789750918
 20
-150.4345729875649
 30
0.0
 10
76.74621987013637
 20
-150.4345729875649
 30
0.0
 10
76.92174748510985
 20
-150.4345729875649
 30
0.0
 10
77.08470050156217
 20
-150.339488352172
 30
0.0
 10
77.08470050156217
 20
-150.1555202532597
 30
0.0
 10
77.08470050156217
 20
-150.034941911276
 30
0.0
 10
77.02544485921587
 20
-149.8592420415282
 30
0.0
 10
76.73984644348866
 20
-149.8592420415282
 30
0.0
 10
76.5155707273989
 20
-149.8592420415282
 30
0.0
 10
76.41841903471484
 20
-149.9987684086808
 30
0.0
 10
76.41841903471484
 20
-150.1345051707997
 30
0.0
  0
SPLINE
  5
10F
330
10A
100
AcDbEntity
  8
レイヤー 1
100
AcDbSpline
210
0.0
220
0.0
230
1.0
 70
     9
 71
     3
 72
    32
 73
    28
 74
     0
 42
0.0000000001
 43
0.0000000001
 40
0.0
 40
0.0
 40
0.0
 40
0.0
 40
1.0
 40
1.0
 40
1.0
 40
2.0
 40
2.0
 40
2.0
 40
3.0
 40
3.0
 40
3.0
 40
4.0
 40
4.0
 40
4.0
 40
5.0
 40
5.0
 40
5.0
 40
6.0
 40
6.0
 40
6.0
 40
7.0
 40
7.0
 40
7.0
 40
8.0
 40
8.0
 40
8.0
 40
9.0
 40
9.0
 40
9.0
 40
9.0
 10
77.27728133918763
 20
-150.1513861386774
 30
0.0
 10
77.27728133918763
 20
-150.6674614423678
 30
0.0
 10
76.72296547561093
 20
-150.676074181081
 30
0.0
 10
76.50936955552544
 20
-150.676074181081
 30
0.0
 10
76.27872041278796
 20
-150.676074181081
 30
0.0
 10
75.63138697110952
 20
-150.6567816463635
 30
0.0
 10
75.63138697110952
 20
-150.1131455787912
 30
0.0
 10
75.63138697110952
 20
-149.9398572758831
 30
0.0
 10
75.70115015468584
 20
-149.6942219677848
 30
0.0
 10
76.03325735946391
 20
-149.656325917447
 30
0.0
 10
76.03325735946391
 20
-149.656325917447
 30
0.0
 10
76.03325735946391
 20
-149.8699218375325
 30
0.0
 10
76.03325735946391
 20
-149.8699218375325
 30
0.0
 10
75.97624102918302
 20
-149.8806016335368
 30
0.0
 10
75.82810192331727
 20
-149.9122965120011
 30
0.0
 10
75.82810192331727
 20
-150.1152126360823
 30
0.0
 10
75.82810192331727
 20
-150.4073567332315
 30
0.0
 10
76.15607501351307
 20
-150.4473198408604
 30
0.0
 10
76.3612304496597
 20
-150.4600666941558
 30
0.0
 10
76.28302678214452
 20
-150.3670491160541
 30
0.0
 10
76.22377113979823
 20
-150.2991807349946
 30
0.0
 10
76.22377113979823
 20
-150.1172796933734
 30
0.0
 10
76.22377113979823
 20
-149.9374457090434
 30
0.0
 10
76.33160262848655
 20
-149.6349663254385
 30
0.0
 10
76.7377793861975
 20
-149.6349663254385
 30
0.0
 10
77.05713973768016
 20
-149.6349663254385
 30
0.0
 10
77.27728133918763
 20
-149.8340928444859
 30
0.0
 10
77.27728133918763
 20
-150.1513861386774
 30
0.0
  0
HATCH
  5
110
330
10A
100
AcDbEntity
  8
レイヤー 1
 62
    18
420
        0
440
 33554687
100
AcDbHatch
 10
0.0
 20
0.0
 30
0.0
210
0.0
220
0.0
230
1.0
  2
SOLID
 70
     1
 71
     1
 91
        2
 92
        1
 93
        1
 72
     4
 94
        3
 73
     0
 74
     0
 95
       17
 96
       13
 40
0.0
 40
0.0
 40
0.0
 40
0.0
 40
1.0
 40
1.0
 40
1.0
 40
2.0
 40
2.0
 40
2.0
 40
3.0
 40
3.0
 40
3.0
 40
4.0
 40
4.0
 40
4.0
 40
4.0
 10
76.41841903471484
 20
-150.1345051707997
 10
76.41841903471484
 20
-150.3966769372272
 10
76.62994789750918
 20
-150.4345729875649
 10
76.74621987013637
 20
-150.4345729875649
 10
76.92174748510985
 20
-150.4345729875649
 10
77.08470050156217
 20
-150.339488352172
 10
77.08470050156217
 20
-150.1555202532597
 10
77.08470050156217
 20
-150.034941911276
 10
77.02544485921587
 20
-149.8592420415282
 10
76.73984644348866
 20
-149.8592420415282
 10
76.5155707273989
 20
-149.8592420415282
 10
76.41841903471484
 20
-149.9987684086808
 10
76.41841903471484
 20
-150.1345051707997
 97
        0
 97
        1
330
10E
 92
        1
 93
        1
 72
     4
 94
        3
 73
     0
 74
     0
 95
       32
 96
       28
 40
0.0
 40
0.0
 40
0.0
 40
0.0
 40
1.0
 40
1.0
 40
1.0
 40
2.0
 40
2.0
 40
2.0
 40
3.0
 40
3.0
 40
3.0
 40
4.0
 40
4.0
 40
4.0
 40
5.0
 40
5.0
 40
5.0
 40
6.0
 40
6.0
 40
6.0
 40
7.0
 40
7.0
 40
7.0
 40
8.0
 40
8.0
 40
8.0
 40
9.0
 40
9.0
 40
9.0
 40
9.0
 10
77.27728133918763
 20
-150.1513861386774
 10
77.27728133918763
 20
-150.6674614423678
 10
76.72296547561093
 20
-150.676074181081
 10
76.50936955552544
 20
-150.676074181081
 10
76.27872041278796
 20
-150.676074181081
 10
75.63138697110952
 20
-150.6567816463635
 10
75.63138697110952
 20
-150.1131455787912
 10
75.63138697110952
 20
-149.9398572758831
 10
75.70115015468584
 20
-149.6942219677848
 10
76.03325735946391
 20
-149.656325917447
 10
76.03325735946391
 20
-149.656325917447
 10
76.03325735946391
 20
-149.8699218375325
 10
76.03325735946391
 20
-149.8699218375325
 10
75.97624102918302
 20
-149.8806016335368
 10
75.82810192331727
 20
-149.9122965120011
 10
75.82810192331727
 20
-150.1152126360823
 10
75.82810192331727
 20
-150.4073567332315
 10
76.15607501351307
 20
-150.4473198408604
 10
76.3612304496597
 20
-150.4600666941558
 10
76.28302678214452
 20
-150.3670491160541
 10
76.22377113979823
 20
-150.2991807349946
 10
76.22377113979823
 20
-150.1172796933734
 10
76.22377113979823
 20
-149.9374457090434
 10
76.33160262848655
 20
-149.6349663254385
 10
76.7377793861975
 20
-149.6349663254385
 10
77.05713973768016
 20
-149.6349663254385
 10
77.27728133918763
 20
-149.8340928444859
 10
77.27728133918763
 20
-150.1513861386774
 97
        0
 97
        1
330
10F
 75
     2
 76
     1
 98
        1
 10
0.0
 20
0.0
450
        0
451
        0
460
0.0
461
0.0
452
        0
462
0.0
453
        0
470

  0
ENDBLK
  5
10D
330
10A
100
AcDbEntity
  8
0
100
AcDbBlockEnd
  0
BLOCK
  5
115
330
113
100
AcDbEntity
  8
0
100
AcDbBlockBegin
  2
Block_6
 70
     0
 10
0.0
 20
0.0
 30
0.0
  3
Block_6
  1

  0
INSERT
  5
118
330
113
100
AcDbEntity
  8
レイヤー 1
100
AcDbBlockReference
  2
Block_7
 10
0.0
 20
0.0
 30
0.0
  0
ENDBLK
  5
116
330
113
100
AcDbEntity
  8
0
100
AcDbBlockEnd
  0
BLOCK
  5
119
330
117
100
AcDbEntity
  8
0
100
AcDbBlockBegin
  2
Block_7
 70
     0
 10
0.0
 20
0.0
 30
0.0
  3
Block_7
  1

  0
SPLINE
  5
11B
330
117
100
AcDbEntity
  8
レイヤー 1
100
AcDbSpline
210
0.0
220
0.0
230
1.0
 70
     9
 71
     3
 72
    44
 73
    40
 74
     0
 42
0.0000000001
 43
0.0000000001
 40
0.0
 40
0.0
 40
0.0
 40
0.0
 40
1.0
 40
1.0
 40
1.0
 40
2.0
 40
2.0
 40
2.0
 40
3.0
 40
3.0
 40
3.0
 40
4.0
 40
4.0
 40
4.0
 40
5.0
 40
5.0
 40
5.0
 40
6.0
 40
6.0
 40
6.0
 40
7.0
 40
7.0
 40
7.0
 40
8.0
 40
8.0
 40
8.0
 40
9.0
 40
9.0
 40
9.0
 40
10.0
 40
10.0
 40
10.0
 40
11.0
 40
11.0
 40
11.0
 40
12.0
 40
12.0
 40
12.0
 40
13.0
 40
13.0
 40
13.0
 40
13.0
 10
118.9705159207782
 20
-140.5998589058222
 30
0.0
 10
118.7527858861104
 20
-140.758505552918
 30
0.0
 10
118.6597683080087
 20
-140.8325751058509
 30
0.0
 10
118.6108479521181
 20
-140.97640784236
 30
0.0
 10
118.6108479521181
 20
-140.97640784236
 30
0.0
 10
119.3894395317846
 20
-140.97640784236
 30
0.0
 10
119.3894395317846
 20
-140.97640784236
 30
0.0
 10
119.3894395317846
 20
-140.97640784236
 30
0.0
 10
119.3894395317846
 20
-141.1815632785067
 30
0.0
 10
119.3894395317846
 20
-141.1815632785067
 30
0.0
 10
119.3894395317846
 20
-141.1815632785067
 30
0.0
 10
118.361423038986
 20
-141.1815632785067
 30
0.0
 10
118.361423038986
 20
-141.1815632785067
 30
0.0
 10
118.3931179174503
 20
-140.8239623671377
 30
0.0
 10
118.4585747316701
 20
-140.7457586996226
 30
0.0
 10
118.843736406921
 20
-140.4474134305999
 30
0.0
 10
119.099707001475
 20
-140.248631421101
 30
0.0
 10
119.1651638156948
 20
-140.1809352948159
 30
0.0
 10
119.1651638156948
 20
-140.0434759849544
 30
0.0
 10
119.1651638156948
 20
-139.9249647002618
 30
0.0
 10
119.0931613200531
 20
-139.7937065622738
 30
0.0
 10
118.8964463678453
 20
-139.7937065622738
 30
0.0
 10
118.636341658709
 20
-139.7937065622738
 30
0.0
 10
118.6280734295444
 20
-140.0243557050113
 30
0.0
 10
118.6235948054135
 20
-140.1407999324127
 30
0.0
 10
118.6235948054135
 20
-140.1407999324127
 30
0.0
 10
118.3993190893238
 20
-140.1407999324127
 30
0.0
 10
118.3993190893238
 20
-140.1407999324127
 30
0.0
 10
118.4079318280369
 20
-140.0138481637812
 30
0.0
 10
118.4186116240412
 20
-139.9017103057363
 30
0.0
 10
118.4988823488475
 20
-139.7831990210438
 30
0.0
 10
118.608780894827
 20
-139.6224853166569
 30
0.0
 10
118.795160560579
 20
-139.5885511261272
 30
0.0
 10
118.9112602784319
 20
-139.5885511261272
 30
0.0
 10
119.1885904649945
 20
-139.5885511261272
 30
0.0
 10
119.3959852132065
 20
-139.7726914798137
 30
0.0
 10
119.3959852132065
 20
-140.0455430422455
 30
0.0
 10
119.3959852132065
 20
-140.2739528729176
 30
0.0
 10
119.2795409858051
 20
-140.3735161324413
 30
0.0
 10
118.9705159207782
 20
-140.5998589058222
 30
0.0
  0
HATCH
  5
11C
330
117
100
AcDbEntity
  8
レイヤー 1
 62
    18
420
        0
440
 33554687
100
AcDbHatch
 10
0.0
 20
0.0
 30
0.0
210
0.0
220
0.0
230
1.0
  2
SOLID
 70
     1
 71
     1
 91
        1
 92
        1
 93
        1
 72
     4
 94
        3
 73
     0
 74
     0
 95
       44
 96
       40
 40
0.0
 40
0.0
 40
0.0
 40
0.0
 40
1.0
 40
1.0
 40
1.0
 40
2.0
 40
2.0
 40
2.0
 40
3.0
 40
3.0
 40
3.0
 40
4.0
 40
4.0
 40
4.0
 40
5.0
 40
5.0
 40
5.0
 40
6.0
 40
6.0
 40
6.0
 40
7.0
 40
7.0
 40
7.0
 40
8.0
 40
8.0
 40
8.0
 40
9.0
 40
9.0
 40
9.0
 40
10.0
 40
10.0
 40
10.0
 40
11.0
 40
11.0
 40
11.0
 40
12.0
 40
12.0
 40
12.0
 40
13.0
 40
13.0
 40
13.0
 40
13.0
 10
118.9705159207782
 20
-140.5998589058222
 10
118.7527858861104
 20
-140.758505552918
 10
118.6597683080087
 20
-140.8325751058509
 10
118.6108479521181
 20
-140.97640784236
 10
118.6108479521181
 20
-140.97640784236
 10
119.3894395317846
 20
-140.97640784236
 10
119.3894395317846
 20
-140.97640784236
 10
119.3894395317846
 20
-140.97640784236
 10
119.3894395317846
 20
-141.1815632785067
 10
119.3894395317846
 20
-141.1815632785067
 10
119.3894395317846
 20
-141.1815632785067
 10
118.361423038986
 20
-141.1815632785067
 10
118.361423038986
 20
-141.1815632785067
 10
118.3931179174503
 20
-140.8239623671377
 10
118.4585747316701
 20
-140.7457586996226
 10
118.843736406921
 20
-140.4474134305999
 10
119.099707001475
 20
-140.248631421101
 10
119.1651638156948
 20
-140.1809352948159
 10
119.1651638156948
 20
-140.0434759849544
 10
119.1651638156948
 20
-139.9249647002618
 10
119.0931613200531
 20
-139.7937065622738
 10
118.8964463678453
 20
-139.7937065622738
 10
118.636341658709
 20
-139.7937065622738
 10
118.6280734295444
 20
-140.0243557050113
 10
118.6235948054135
 20
-140.1407999324127
 10
118.6235948054135
 20
-140.1407999324127
 10
118.3993190893238
 20
-140.1407999324127
 10
118.3993190893238
 20
-140.1407999324127
 10
118.4079318280369
 20
-140.0138481637812
 10
118.4186116240412
 20
-139.9017103057363
 10
118.4988823488475
 20
-139.7831990210438
 10
118.608780894827
 20
-139.6224853166569
 10
118.795160560579
 20
-139.5885511261272
 10
118.9112602784319
 20
-139.5885511261272
 10
119.1885904649945
 20
-139.5885511261272
 10
119.3959852132065
 20
-139.7726914798137
 10
119.3959852132065
 20
-140.0455430422455
 10
119.3959852132065
 20
-140.2739528729176
 10
119.2795409858051
 20
-140.3735161324413
 10
118.9705159207782
 20
-140.5998589058222
 97
        0
 97
        1
330
11B
 75
     2
 76
     1
 98
        1
 10
0.0
 20
0.0
450
        0
451
        0
460
0.0
461
0.0
452
        0
462
0.0
453
        0
470

  0
SPLINE
  5
11D
330
117
100
AcDbEntity
  8
レイヤー 1
100
AcDbSpline
210
0.0
220
0.0
230
1.0
 70
    11
 71
     3
 72
    26
 73
    22
 74
     0
 42
0.0000000001
 43
0.0000000001
 40
0.0
 40
0.0
 40
0.0
 40
0.0
 40
1.0
 40
1.0
 40
1.0
 40
2.0
 40
2.0
 40
2.0
 40
3.0
 40
3.0
 40
3.0
 40
4.0
 40
4.0
 40
4.0
 40
5.0
 40
5.0
 40
5.0
 40
6.0
 40
6.0
 40
6.0
 40
7.0
 40
7.0
 40
7.0
 40
7.0
 10
120.0057671140958
 20
-141.1815632785067
 30
0.0
 10
120.0057671140958
 20
-141.1815632785067
 30
0.0
 10
120.0057671140958
 20
-140.0772379207098
 30
0.0
 10
120.0057671140958
 20
-140.0772379207098
 30
0.0
 10
120.0057671140958
 20
-140.0772379207098
 30
0.0
 10
119.6757269666088
 20
-140.0772379207098
 30
0.0
 10
119.6757269666088
 20
-140.0772379207098
 30
0.0
 10
119.6757269666088
 20
-140.0772379207098
 30
0.0
 10
119.6757269666088
 20
-139.9290988148441
 30
0.0
 10
119.6757269666088
 20
-139.9290988148441
 30
0.0
 10
120.0078341713869
 20
-139.9144571590318
 30
0.0
 10
120.0543429604378
 20
-139.7515041425795
 30
0.0
 10
120.0839707816109
 20
-139.6372992272434
 30
0.0
 10
120.0839707816109
 20
-139.6372992272434
 30
0.0
 10
120.2300428301855
 20
-139.6372992272434
 30
0.0
 10
120.2300428301855
 20
-139.6372992272434
 30
0.0
 10
120.2300428301855
 20
-139.6372992272434
 30
0.0
 10
120.2300428301855
 20
-141.1815632785067
 30
0.0
 10
120.2300428301855
 20
-141.1815632785067
 30
0.0
 10
120.2300428301855
 20
-141.1815632785067
 30
0.0
 10
120.0057671140958
 20
-141.1815632785067
 30
0.0
 10
120.0057671140958
 20
-141.1815632785067
 30
0.0
  0
HATCH
  5
11E
330
117
100
AcDbEntity
  8
レイヤー 1
 62
    18
420
        0
440
 33554687
100
AcDbHatch
 10
0.0
 20
0.0
 30
0.0
210
0.0
220
0.0
230
1.0
  2
SOLID
 70
     1
 71
     1
 91
        1
 92
        1
 93
        1
 72
     4
 94
        3
 73
     0
 74
     0
 95
       26
 96
       22
 40
0.0
 40
0.0
 40
0.0
 40
0.0
 40
1.0
 40
1.0
 40
1.0
 40
2.0
 40
2.0
 40
2.0
 40
3.0
 40
3.0
 40
3.0
 40
4.0
 40
4.0
 40
4.0
 40
5.0
 40
5.0
 40
5.0
 40
6.0
 40
6.0
 40
6.0
 40
7.0
 40
7.0
 40
7.0
 40
7.0
 10
120.0057671140958
 20
-141.1815632785067
 10
120.0057671140958
 20
-141.1815632785067
 10
120.0057671140958
 20
-140.0772379207098
 10
120.0057671140958
 20
-140.0772379207098
 10
120.0057671140958
 20
-140.0772379207098
 10
119.6757269666088
 20
-140.0772379207098
 10
119.6757269666088
 20
-140.0772379207098
 10
119.6757269666088
 20
-140.0772379207098
 10
119.6757269666088
 20
-139.9290988148441
 10
119.6757269666088
 20
-139.9290988148441
 10
120.0078341713869
 20
-139.9144571590318
 10
120.0543429604378
 20
-139.7515041425795
 10
120.0839707816109
 20
-139.6372992272434
 10
120.0839707816109
 20
-139.6372992272434
 10
120.2300428301855
 20
-139.6372992272434
 10
120.2300428301855
 20
-139.6372992272434
 10
120.2300428301855
 20
-139.6372992272434
 10
120.2300428301855
 20
-141.1815632785067
 10
120.2300428301855
 20
-141.1815632785067
 10
120.2300428301855
 20
-141.1815632785067
 10
120.0057671140958
 20
-141.1815632785067
 10
120.0057671140958
 20
-141.1815632785067
 97
        0
 97
        1
330
11D
 75
     2
 76
     1
 98
        1
 10
0.0
 20
0.0
450
        0
451
        0
460
0.0
461
0.0
452
        0
462
0.0
453
        0
470

  0
ENDBLK
  5
11A
330
117
100
AcDbEntity
  8
0
100
AcDbBlockEnd
  0
BLOCK
  5
124
330
122
100
AcDbEntity
  8
0
100
AcDbBlockBegin
  2
Block_8
 70
     0
 10
0.0
 20
0.0
 30
0.0
  3
Block_8
  1

  0
SPLINE
  5
126
330
122
100
AcDbEntity
  8
レイヤー 1
100
AcDbSpline
210
0.0
220
0.0
230
1.0
 70
     9
 71
     3
 72
    17
 73
    13
 74
     0
 42
0.0000000001
 43
0.0000000001
 40
0.0
 40
0.0
 40
0.0
 40
0.0
 40
1.0
 40
1.0
 40
1.0
 40
2.0
 40
2.0
 40
2.0
 40
3.0
 40
3.0
 40
3.0
 40
4.0
 40
4.0
 40
4.0
 40
4.0
 10
105.9621798780233
 20
-140.3735161324413
 30
0.0
 10
105.7000081115958
 20
-140.3735161324413
 30
0.0
 10
105.6617675517095
 20
-140.5850449952357
 30
0.0
 10
105.6617675517095
 20
-140.7013169678628
 30
0.0
 10
105.6617675517095
 20
-140.8768445828363
 30
0.0
 10
105.7568521871024
 20
-141.0397975992887
 30
0.0
 10
105.9411647955633
 20
-141.0397975992887
 30
0.0
 10
106.061743137547
 20
-141.0397975992887
 30
0.0
 10
106.2370984977463
 20
-140.9805419569424
 30
0.0
 10
106.2370984977463
 20
-140.6949435412151
 30
0.0
 10
106.2370984977463
 20
-140.4706678251254
 30
0.0
 10
106.0975721305936
 20
-140.3735161324413
 30
0.0
 10
105.9621798780233
 20
-140.3735161324413
 30
0.0
  0
SPLINE
  5
127
330
122
100
AcDbEntity
  8
レイヤー 1
100
AcDbSpline
210
0.0
220
0.0
230
1.0
 70
     9
 71
     3
 72
    32
 73
    28
 74
     0
 42
0.0000000001
 43
0.0000000001
 40
0.0
 40
0.0
 40
0.0
 40
0.0
 40
1.0
 40
1.0
 40
1.0
 40
2.0
 40
2.0
 40
2.0
 40
3.0
 40
3.0
 40
3.0
 40
4.0
 40
4.0
 40
4.0
 40
5.0
 40
5.0
 40
5.0
 40
6.0
 40
6.0
 40
6.0
 40
7.0
 40
7.0
 40
7.0
 40
8.0
 40
8.0
 40
8.0
 40
9.0
 40
9.0
 40
9.0
 40
9.0
 10
105.9452989101456
 20
-141.2323784369141
 30
0.0
 10
105.4290513516809
 20
-141.2323784369141
 30
0.0
 10
105.4206108677421
 20
-140.6780625733374
 30
0.0
 10
105.4206108677421
 20
-140.4644666532519
 30
0.0
 10
105.4206108677421
 20
-140.2338175105144
 30
0.0
 10
105.4397311476852
 20
-139.586484068836
 30
0.0
 10
105.9831949604834
 20
-139.586484068836
 30
0.0
 10
106.1568277729399
 20
-139.586484068836
 30
0.0
 10
106.4021185714897
 20
-139.6562472524123
 30
0.0
 10
106.440359131376
 20
-139.9883544571904
 30
0.0
 10
106.440359131376
 20
-139.9883544571904
 30
0.0
 10
106.2267632112905
 20
-139.9883544571904
 30
0.0
 10
106.2267632112905
 20
-139.9883544571904
 30
0.0
 10
106.2160834152862
 20
-139.9313381269095
 30
0.0
 10
106.1843885368219
 20
-139.7831990210438
 30
0.0
 10
105.9811279031922
 20
-139.7831990210438
 30
0.0
 10
105.6893283155915
 20
-139.7831990210438
 30
0.0
 10
105.6490206984141
 20
-140.1111721112395
 30
0.0
 10
105.6362738451187
 20
-140.3163275473862
 30
0.0
 10
105.729635932769
 20
-140.238123879871
 30
0.0
 10
105.7971598042799
 20
-140.1788682375247
 30
0.0
 10
105.979060845901
 20
-140.1788682375247
 30
0.0
 10
106.1588948302311
 20
-140.1788682375247
 30
0.0
 10
106.461374213836
 20
-140.286699726213
 30
0.0
 10
106.461374213836
 20
-140.692876483924
 30
0.0
 10
106.461374213836
 20
-141.0122368354066
 30
0.0
 10
106.2625922043371
 20
-141.2323784369141
 30
0.0
 10
105.9452989101456
 20
-141.2323784369141
 30
0.0
  0
HATCH
  5
128
330
122
100
AcDbEntity
  8
レイヤー 1
 62
    18
420
        0
440
 33554687
100
AcDbHatch
 10
0.0
 20
0.0
 30
0.0
210
0.0
220
0.0
230
1.0
  2
SOLID
 70
     1
 71
     1
 91
        2
 92
        1
 93
        1
 72
     4
 94
        3
 73
     0
 74
     0
 95
       17
 96
       13
 40
0.0
 40
0.0
 40
0.0
 40
0.0
 40
1.0
 40
1.0
 40
1.0
 40
2.0
 40
2.0
 40
2.0
 40
3.0
 40
3.0
 40
3.0
 40
4.0
 40
4.0
 40
4.0
 40
4.0
 10
105.9621798780233
 20
-140.3735161324413
 10
105.7000081115958
 20
-140.3735161324413
 10
105.6617675517095
 20
-140.5850449952357
 10
105.6617675517095
 20
-140.7013169678628
 10
105.6617675517095
 20
-140.8768445828363
 10
105.7568521871024
 20
-141.0397975992887
 10
105.9411647955633
 20
-141.0397975992887
 10
106.061743137547
 20
-141.0397975992887
 10
106.2370984977463
 20
-140.9805419569424
 10
106.2370984977463
 20
-140.6949435412151
 10
106.2370984977463
 20
-140.4706678251254
 10
106.0975721305936
 20
-140.3735161324413
 10
105.9621798780233
 20
-140.3735161324413
 97
        0
 97
        1
330
126
 92
        1
 93
        1
 72
     4
 94
        3
 73
     0
 74
     0
 95
       32
 96
       28
 40
0.0
 40
0.0
 40
0.0
 40
0.0
 40
1.0
 40
1.0
 40
1.0
 40
2.0
 40
2.0
 40
2.0
 40
3.0
 40
3.0
 40
3.0
 40
4.0
 40
4.0
 40
4.0
 40
5.0
 40
5.0
 40
5.0
 40
6.0
 40
6.0
 40
6.0
 40
7.0
 40
7.0
 40
7.0
 40
8.0
 40
8.0
 40
8.0
 40
9.0
 40
9.0
 40
9.0
 40
9.0
 10
105.9452989101456
 20
-141.2323784369141
 10
105.4290513516809
 20
-141.2323784369141
 10
105.4206108677421
 20
-140.6780625733374
 10
105.4206108677421
 20
-140.4644666532519
 10
105.4206108677421
 20
-140.2338175105144
 10
105.4397311476852
 20
-139.586484068836
 10
105.9831949604834
 20
-139.586484068836
 10
106.1568277729399
 20
-139.586484068836
 10
106.4021185714897
 20
-139.6562472524123
 10
106.440359131376
 20
-139.9883544571904
 10
106.440359131376
 20
-139.9883544571904
 10
106.2267632112905
 20
-139.9883544571904
 10
106.2267632112905
 20
-139.9883544571904
 10
106.2160834152862
 20
-139.9313381269095
 10
106.1843885368219
 20
-139.7831990210438
 10
105.9811279031922
 20
-139.7831990210438
 10
105.6893283155915
 20
-139.7831990210438
 10
105.6490206984141
 20
-140.1111721112395
 10
105.6362738451187
 20
-140.3163275473862
 10
105.729635932769
 20
-140.238123879871
 10
105.7971598042799
 20
-140.1788682375247
 10
105.979060845901
 20
-140.1788682375247
 10
106.1588948302311
 20
-140.1788682375247
 10
106.461374213836
 20
-140.286699726213
 10
106.461374213836
 20
-140.692876483924
 10
106.461374213836
 20
-141.0122368354066
 10
106.2625922043371
 20
-141.2323784369141
 10
105.9452989101456
 20
-141.2323784369141
 97
        0
 97
        1
330
127
 75
     2
 76
     1
 98
        1
 10
0.0
 20
0.0
450
        0
451
        0
460
0.0
461
0.0
452
        0
462
0.0
453
        0
470

  0
ENDBLK
  5
125
330
122
100
AcDbEntity
  8
0
100
AcDbBlockEnd
  0
BLOCK
  5
130
330
12E
100
AcDbEntity
  8
0
100
AcDbBlockBegin
  2
Block_9
 70
     0
 10
0.0
 20
0.0
 30
0.0
  3
Block_9
  1

  0
SPLINE
  5
132
330
12E
100
AcDbEntity
  8
レイヤー 1
100
AcDbSpline
210
0.0
220
0.0
230
1.0
 70
     9
 71
     3
 72
    17
 73
    13
 74
     0
 42
0.0000000001
 43
0.0000000001
 40
0.0
 40
0.0
 40
0.0
 40
0.0
 40
1.0
 40
1.0
 40
1.0
 40
2.0
 40
2.0
 40
2.0
 40
3.0
 40
3.0
 40
3.0
 40
4.0
 40
4.0
 40
4.0
 40
4.0
 10
106.1010172260789
 20
-155.1567653691969
 30
0.0
 10
105.9359971523354
 20
-155.1567653691969
 30
0.0
 10
105.8512478033983
 20
-155.2518500045898
 30
0.0
 10
105.8512478033983
 20
-155.3872422571601
 30
0.0
 10
105.8512478033983
 20
-155.509887656435
 30
0.0
 10
105.92325029904
 20
-155.6283989411276
 30
0.0
 10
106.1010172260789
 20
-155.6283989411276
 30
0.0
 10
106.2787841531178
 20
-155.6283989411276
 30
0.0
 10
106.3507866487595
 20
-155.509887656435
 30
0.0
 10
106.3507866487595
 20
-155.3872422571601
 30
0.0
 10
106.3507866487595
 20
-155.2518500045898
 30
0.0
 10
106.2639702425312
 20
-155.1567653691969
 30
0.0
 10
106.1010172260789
 20
-155.1567653691969
 30
0.0
  0
SPLINE
  5
133
330
12E
100
AcDbEntity
  8
レイヤー 1
100
AcDbSpline
210
0.0
220
0.0
230
1.0
 70
     9
 71
     3
 72
    17
 73
    13
 74
     0
 42
0.0000000001
 43
0.0000000001
 40
0.0
 40
0.0
 40
0.0
 40
0.0
 40
1.0
 40
1.0
 40
1.0
 40
2.0
 40
2.0
 40
2.0
 40
3.0
 40
3.0
 40
3.0
 40
4.0
 40
4.0
 40
4.0
 40
4.0
 10
106.1010172260789
 20
-155.8168456641707
 30
0.0
 10
105.957356744344
 20
-155.8168456641707
 30
0.0
 10
105.8047390143474
 20
-155.9036620703991
 30
0.0
 10
105.8047390143474
 20
-156.1065781944803
 30
0.0
 10
105.8047390143474
 20
-156.3119058854011
 30
0.0
 10
105.9318630377531
 20
-156.4131916926675
 30
0.0
 10
106.1010172260789
 20
-156.4131916926675
 30
0.0
 10
106.2870523822824
 20
-156.4131916926675
 30
0.0
 10
106.3972954378104
 20
-156.2905462933926
 30
0.0
 10
106.3972954378104
 20
-156.1127793663537
 30
0.0
 10
106.3972954378104
 20
-155.8909152171036
 30
0.0
 10
106.234342421358
 20
-155.8168456641707
 30
0.0
 10
106.1010172260789
 20
-155.8168456641707
 30
0.0
  0
SPLINE
  5
134
330
12E
100
AcDbEntity
  8
レイヤー 1
100
AcDbSpline
210
0.0
220
0.0
230
1.0
 70
     9
 71
     3
 72
    29
 73
    25
 74
     0
 42
0.0000000001
 43
0.0000000001
 40
0.0
 40
0.0
 40
0.0
 40
0.0
 40
1.0
 40
1.0
 40
1.0
 40
2.0
 40
2.0
 40
2.0
 40
3.0
 40
3.0
 40
3.0
 40
4.0
 40
4.0
 40
4.0
 40
5.0
 40
5.0
 40
5.0
 40
6.0
 40
6.0
 40
6.0
 40
7.0
 40
7.0
 40
7.0
 40
8.0
 40
8.0
 40
8.0
 40
8.0
 10
106.1010172260789
 20
-156.6078395875841
 30
0.0
 10
105.8343668355206
 20
-156.6078395875841
 30
0.0
 10
105.5804632982576
 20
-156.4703802777227
 30
0.0
 10
105.5804632982576
 20
-156.1213921050669
 30
0.0
 10
105.5804632982576
 20
-155.8654215105128
 30
0.0
 10
105.7224012322499
 20
-155.7703368751199
 30
0.0
 10
105.8281656636471
 20
-155.7090141754825
 30
0.0
 10
105.703453207081
 20
-155.6497585331362
 30
0.0
 10
105.627316596857
 20
-155.5353813630259
 30
0.0
 10
105.627316596857
 20
-155.3744954038647
 30
0.0
 10
105.627316596857
 20
-155.0995767841418
 30
0.0
 10
105.826098606356
 20
-154.9641845315714
 30
0.0
 10
106.1010172260789
 20
-154.9641845315714
 30
0.0
 10
106.384548584515
 20
-154.9641845315714
 30
0.0
 10
106.5750623648493
 20
-155.1081895228549
 30
0.0
 10
106.5750623648493
 20
-155.3744954038647
 30
0.0
 10
106.5750623648493
 20
-155.5353813630259
 30
0.0
 10
106.4965141877856
 20
-155.6497585331362
 30
0.0
 10
106.3718017312195
 20
-155.7090141754825
 30
0.0
 10
106.460685194739
 20
-155.7596570791156
 30
0.0
 10
106.619504096609
 20
-155.8547417145085
 30
0.0
 10
106.619504096609
 20
-156.1172579904845
 30
0.0
 10
106.619504096609
 20
-156.4917398697312
 30
0.0
 10
106.3401068527552
 20
-156.6078395875841
 30
0.0
 10
106.1010172260789
 20
-156.6078395875841
 30
0.0
  0
HATCH
  5
135
330
12E
100
AcDbEntity
  8
レイヤー 1
 62
    18
420
        0
440
 33554687
100
AcDbHatch
 10
0.0
 20
0.0
 30
0.0
210
0.0
220
0.0
230
1.0
  2
SOLID
 70
     1
 71
     1
 91
        3
 92
        1
 93
        1
 72
     4
 94
        3
 73
     0
 74
     0
 95
       17
 96
       13
 40
0.0
 40
0.0
 40
0.0
 40
0.0
 40
1.0
 40
1.0
 40
1.0
 40
2.0
 40
2.0
 40
2.0
 40
3.0
 40
3.0
 40
3.0
 40
4.0
 40
4.0
 40
4.0
 40
4.0
 10
106.1010172260789
 20
-155.1567653691969
 10
105.9359971523354
 20
-155.1567653691969
 10
105.8512478033983
 20
-155.2518500045898
 10
105.8512478033983
 20
-155.3872422571601
 10
105.8512478033983
 20
-155.509887656435
 10
105.92325029904
 20
-155.6283989411276
 10
106.1010172260789
 20
-155.6283989411276
 10
106.2787841531178
 20
-155.6283989411276
 10
106.3507866487595
 20
-155.509887656435
 10
106.3507866487595
 20
-155.3872422571601
 10
106.3507866487595
 20
-155.2518500045898
 10
106.2639702425312
 20
-155.1567653691969
 10
106.1010172260789
 20
-155.1567653691969
 97
        0
 97
        1
330
132
 92
        1
 93
        1
 72
     4
 94
        3
 73
     0
 74
     0
 95
       17
 96
       13
 40
0.0
 40
0.0
 40
0.0
 40
0.0
 40
1.0
 40
1.0
 40
1.0
 40
2.0
 40
2.0
 40
2.0
 40
3.0
 40
3.0
 40
3.0
 40
4.0
 40
4.0
 40
4.0
 40
4.0
 10
106.1010172260789
 20
-155.8168456641707
 10
105.957356744344
 20
-155.8168456641707
 10
105.8047390143474
 20
-155.9036620703991
 10
105.8047390143474
 20
-156.1065781944803
 10
105.8047390143474
 20
-156.3119058854011
 10
105.9318630377531
 20
-156.4131916926675
 10
106.1010172260789
 20
-156.4131916926675
 10
106.2870523822824
 20
-156.4131916926675
 10
106.3972954378104
 20
-156.2905462933926
 10
106.3972954378104
 20
-156.1127793663537
 10
106.3972954378104
 20
-155.8909152171036
 10
106.234342421358
 20
-155.8168456641707
 10
106.1010172260789
 20
-155.8168456641707
 97
        0
 97
        1
330
133
 92
        1
 93
        1
 72
     4
 94
        3
 73
     0
 74
     0
 95
       29
 96
       25
 40
0.0
 40
0.0
 40
0.0
 40
0.0
 40
1.0
 40
1.0
 40
1.0
 40
2.0
 40
2.0
 40
2.0
 40
3.0
 40
3.0
 40
3.0
 40
4.0
 40
4.0
 40
4.0
 40
5.0
 40
5.0
 40
5.0
 40
6.0
 40
6.0
 40
6.0
 40
7.0
 40
7.0
 40
7.0
 40
8.0
 40
8.0
 40
8.0
 40
8.0
 10
106.1010172260789
 20
-156.6078395875841
 10
105.8343668355206
 20
-156.6078395875841
 10
105.5804632982576
 20
-156.4703802777227
 10
105.5804632982576
 20
-156.1213921050669
 10
105.5804632982576
 20
-155.8654215105128
 10
105.7224012322499
 20
-155.7703368751199
 10
105.8281656636471
 20
-155.7090141754825
 10
105.703453207081
 20
-155.6497585331362
 10
105.627316596857
 20
-155.5353813630259
 10
105.627316596857
 20
-155.3744954038647
 10
105.627316596857
 20
-155.0995767841418
 10
105.826098606356
 20
-154.9641845315714
 10
106.1010172260789
 20
-154.9641845315714
 10
106.384548584515
 20
-154.9641845315714
 10
106.5750623648493
 20
-155.1081895228549
 10
106.5750623648493
 20
-155.3744954038647
 10
106.5750623648493
 20
-155.5353813630259
 10
106.4965141877856
 20
-155.6497585331362
 10
106.3718017312195
 20
-155.7090141754825
 10
106.460685194739
 20
-155.7596570791156
 10
106.619504096609
 20
-155.8547417145085
 10
106.619504096609
 20
-156.1172579904845
 10
106.619504096609
 20
-156.4917398697312
 10
106.3401068527552
 20
-156.6078395875841
 10
106.1010172260789
 20
-156.6078395875841
 97
        0
 97
        1
330
134
 75
     2
 76
     1
 98
        1
 10
0.0
 20
0.0
450
        0
451
        0
460
0.0
461
0.0
452
        0
462
0.0
453
        0
470

  0
ENDBLK
  5
131
330
12E
100
AcDbEntity
  8
0
100
AcDbBlockEnd
  0
BLOCK
  5
139
330
137
100
AcDbEntity
  8
0
100
AcDbBlockBegin
  2
Block_10
 70
     0
 10
0.0
 20
0.0
 30
0.0
  3
Block_10
  1

  0
SPLINE
  5
13B
330
137
100
AcDbEntity
  8
レイヤー 1
100
AcDbSpline
210
0.0
220
0.0
230
1.0
 70
    11
 71
     3
 72
    26
 73
    22
 74
     0
 42
0.0000000001
 43
0.0000000001
 40
0.0
 40
0.0
 40
0.0
 40
0.0
 40
1.0
 40
1.0
 40
1.0
 40
2.0
 40
2.0
 40
2.0
 40
3.0
 40
3.0
 40
3.0
 40
4.0
 40
4.0
 40
4.0
 40
5.0
 40
5.0
 40
5.0
 40
6.0
 40
6.0
 40
6.0
 40
7.0
 40
7.0
 40
7.0
 40
7.0
 10
111.8729302020665
 20
-149.5347140468177
 30
0.0
 10
111.8729302020665
 20
-149.5347140468177
 30
0.0
 10
111.8729302020665
 20
-148.4303886890208
 30
0.0
 10
111.8729302020665
 20
-148.4303886890208
 30
0.0
 10
111.8729302020665
 20
-148.4303886890208
 30
0.0
 10
111.5428900545795
 20
-148.4303886890208
 30
0.0
 10
111.5428900545795
 20
-148.4303886890208
 30
0.0
 10
111.5428900545795
 20
-148.4303886890208
 30
0.0
 10
111.5428900545795
 20
-148.2822495831551
 30
0.0
 10
111.5428900545795
 20
-148.2822495831551
 30
0.0
 10
111.8749972593576
 20
-148.2676079273428
 30
0.0
 10
111.9215060484085
 20
-148.1046549108905
 30
0.0
 10
111.9511338695816
 20
-147.9904499955545
 30
0.0
 10
111.9511338695816
 20
-147.9904499955545
 30
0.0
 10
112.0972059181562
 20
-147.9904499955545
 30
0.0
 10
112.0972059181562
 20
-147.9904499955545
 30
0.0
 10
112.0972059181562
 20
-147.9904499955545
 30
0.0
 10
112.0972059181562
 20
-149.5347140468177
 30
0.0
 10
112.0972059181562
 20
-149.5347140468177
 30
0.0
 10
112.0972059181562
 20
-149.5347140468177
 30
0.0
 10
111.8729302020665
 20
-149.5347140468177
 30
0.0
 10
111.8729302020665
 20
-149.5347140468177
 30
0.0
  0
HATCH
  5
13C
330
137
100
AcDbEntity
  8
レイヤー 1
 62
    18
420
        0
440
 33554687
100
AcDbHatch
 10
0.0
 20
0.0
 30
0.0
210
0.0
220
0.0
230
1.0
  2
SOLID
 70
     1
 71
     1
 91
        1
 92
        1
 93
        1
 72
     4
 94
        3
 73
     0
 74
     0
 95
       26
 96
       22
 40
0.0
 40
0.0
 40
0.0
 40
0.0
 40
1.0
 40
1.0
 40
1.0
 40
2.0
 40
2.0
 40
2.0
 40
3.0
 40
3.0
 40
3.0
 40
4.0
 40
4.0
 40
4.0
 40
5.0
 40
5.0
 40
5.0
 40
6.0
 40
6.0
 40
6.0
 40
7.0
 40
7.0
 40
7.0
 40
7.0
 10
111.8729302020665
 20
-149.5347140468177
 10
111.8729302020665
 20
-149.5347140468177
 10
111.8729302020665
 20
-148.4303886890208
 10
111.8729302020665
 20
-148.4303886890208
 10
111.8729302020665
 20
-148.4303886890208
 10
111.5428900545795
 20
-148.4303886890208
 10
111.5428900545795
 20
-148.4303886890208
 10
111.5428900545795
 20
-148.4303886890208
 10
111.5428900545795
 20
-148.2822495831551
 10
111.5428900545795
 20
-148.2822495831551
 10
111.8749972593576
 20
-148.2676079273428
 10
111.9215060484085
 20
-148.1046549108905
 10
111.9511338695816
 20
-147.9904499955545
 10
111.9511338695816
 20
-147.9904499955545
 10
112.0972059181562
 20
-147.9904499955545
 10
112.0972059181562
 20
-147.9904499955545
 10
112.0972059181562
 20
-147.9904499955545
 10
112.0972059181562
 20
-149.5347140468177
 10
112.0972059181562
 20
-149.5347140468177
 10
112.0972059181562
 20
-149.5347140468177
 10
111.8729302020665
 20
-149.5347140468177
 10
111.8729302020665
 20
-149.5347140468177
 97
        0
 97
        1
330
13B
 75
     2
 76
     1
 98
        1
 10
0.0
 20
0.0
450
        0
451
        0
460
0.0
461
0.0
452
        0
462
0.0
453
        0
470

  0
ENDBLK
  5
13A
330
137
100
AcDbEntity
  8
0
100
AcDbBlockEnd
  0
BLOCK
  5
13F
330
13D
100
AcDbEntity
  8
0
100
AcDbBlockBegin
  2
Block_11
 70
     0
 10
0.0
 20
0.0
 30
0.0
  3
Block_11
  1

  0
LWPOLYLINE
  5
141
330
13D
100
AcDbEntity
  8
レイヤー 1
 62
   250
420
  2299925
370
     9
100
AcDbPolyline
 90
        4
 70
     1
 43
0.0
 10
110.3964837429982
 20
-152.8879452331666
 10
110.9583881731073
 20
-152.8810660665015
 10
110.0678359736049
 20
-152.5655063443587
 10
110.3720362436219
 20
-153.479835788574
  0
HATCH
  5
142
330
13D
100
AcDbEntity
  8
レイヤー 1
 62
   250
420
  2299925
440
 33554687
100
AcDbHatch
 10
0.0
 20
0.0
 30
0.0
210
0.0
220
0.0
230
1.0
  2
SOLID
 70
     1
 71
     1
 91
        1
 92
        1
 93
        4
 72
     1
 10
110.3964837429982
 20
-152.8879452331666
 11
110.9583881731073
 21
-152.8810660665015
 72
     1
 10
110.9583881731073
 20
-152.8810660665015
 11
110.0678359736049
 21
-152.5655063443587
 72
     1
 10
110.0678359736049
 20
-152.5655063443587
 11
110.3720362436219
 21
-153.479835788574
 72
     1
 10
110.3720362436219
 20
-153.479835788574
 11
110.3964837429982
 21
-152.8879452331666
 97
        1
330
141
 75
     2
 76
     1
 98
        1
 10
0.0
 20
0.0
450
        0
451
        0
460
0.0
461
0.0
452
        0
462
0.0
453
        0
470

  0
LINE
  5
143
330
13D
100
AcDbEntity
  8
レイヤー 1
 62
   250
420
  2299925
370
     9
100
AcDbLine
 10
110.3964837429982
 20
-152.8879452331666
 30
0.0
 11
112.8008406261024
 21
-155.2774855103474
 31
0.0
  0
ENDBLK
  5
140
330
13D
100
AcDbEntity
  8
0
100
AcDbBlockEnd
  0
BLOCK
  5
146
330
144
100
AcDbEntity
  8
0
100
AcDbBlockBegin
  2
Block_12
 70
     0
 10
0.0
 20
0.0
 30
0.0
  3
Block_12
  1

  0
INSERT
  5
149
330
144
100
AcDbEntity
  8
レイヤー 1
100
AcDbBlockReference
  2
Block_13
 10
0.0
 20
0.0
 30
0.0
  0
ENDBLK
  5
147
330
144
100
AcDbEntity
  8
0
100
AcDbBlockEnd
  0
BLOCK
  5
14A
330
148
100
AcDbEntity
  8
0
100
AcDbBlockBegin
  2
Block_13
 70
     0
 10
0.0
 20
0.0
 30
0.0
  3
Block_13
  1

  0
SPLINE
  5
14C
330
148
100
AcDbEntity
  8
レイヤー 1
100
AcDbSpline
210
0.0
220
0.0
230
1.0
 70
     9
 71
     3
 72
    38
 73
    34
 74
     0
 42
0.0000000001
 43
0.0000000001
 40
0.0
 40
0.0
 40
0.0
 40
0.0
 40
1.0
 40
1.0
 40
1.0
 40
2.0
 40
2.0
 40
2.0
 40
3.0
 40
3.0
 40
3.0
 40
4.0
 40
4.0
 40
4.0
 40
5.0
 40
5.0
 40
5.0
 40
6.0
 40
6.0
 40
6.0
 40
7.0
 40
7.0
 40
7.0
 40
8.0
 40
8.0
 40
8.0
 40
9.0
 40
9.0
 40
9.0
 40
10.0
 40
10.0
 40
10.0
 40
11.0
 40
11.0
 40
11.0
 40
11.0
 10
113.3326171591668
 20
-156.3587591840006
 30
0.0
 10
113.4256347372686
 20
-156.2361137847257
 30
0.0
 10
113.5506917033831
 20
-156.0562798003956
 30
0.0
 10
113.645776338776
 20
-155.6077283682161
 30
0.0
 10
113.645776338776
 20
-155.6077283682161
 30
0.0
 10
113.8128634698106
 20
-155.6270209029335
 30
0.0
 10
113.8128634698106
 20
-155.6270209029335
 30
0.0
 10
113.7873697632198
 20
-155.7475992449172
 30
0.0
 10
113.7642876234686
 20
-155.8385497657278
 30
0.0
 10
113.7260470635824
 20
-155.9463812544162
 30
0.0
 10
113.7260470635824
 20
-155.9463812544162
 30
0.0
 10
114.3544324800919
 20
-155.9463812544162
 30
0.0
 10
114.3544324800919
 20
-155.9463812544162
 30
0.0
 10
114.3544324800919
 20
-155.9463812544162
 30
0.0
 10
114.3544324800919
 20
-156.0986544748642
 30
0.0
 10
114.3544324800919
 20
-156.0986544748642
 30
0.0
 10
114.3206705443365
 20
-156.2405924088565
 30
0.0
 10
114.2252413993951
 20
-156.4986300607017
 30
0.0
 10
114.1511718464622
 20
-156.6171413453943
 30
0.0
 10
114.1511718464622
 20
-156.6171413453943
 30
0.0
 10
113.9988986260142
 20
-156.5385931683306
 30
0.0
 10
113.9988986260142
 20
-156.5385931683306
 30
0.0
 10
114.0943277709556
 20
-156.4032009157603
 30
0.0
 10
114.1597845851753
 20
-156.2150987022656
 30
0.0
 10
114.1873453490573
 20
-156.1048556467377
 30
0.0
 10
114.1873453490573
 20
-156.1048556467377
 30
0.0
 10
113.6688584785272
 20
-156.1048556467377
 30
0.0
 10
113.6688584785272
 20
-156.1048556467377
 30
0.0
 10
113.569639728552
 20
-156.3463568402537
 30
0.0
 10
113.4955701756191
 20
-156.4348957942246
 30
0.0
 10
113.4573296157329
 20
-156.4793375259843
 30
0.0
 10
113.4573296157329
 20
-156.4793375259843
 30
0.0
 10
113.3326171591668
 20
-156.3587591840006
 30
0.0
 10
113.3326171591668
 20
-156.3587591840006
 30
0.0
  0
SPLINE
  5
14D
330
148
100
AcDbEntity
  8
レイヤー 1
100
AcDbSpline
210
0.0
220
0.0
230
1.0
 70
     9
 71
     3
 72
    38
 73
    34
 74
     0
 42
0.0000000001
 43
0.0000000001
 40
0.0
 40
0.0
 40
0.0
 40
0.0
 40
1.0
 40
1.0
 40
1.0
 40
2.0
 40
2.0
 40
2.0
 40
3.0
 40
3.0
 40
3.0
 40
4.0
 40
4.0
 40
4.0
 40
5.0
 40
5.0
 40
5.0
 40
6.0
 40
6.0
 40
6.0
 40
7.0
 40
7.0
 40
7.0
 40
8.0
 40
8.0
 40
8.0
 40
9.0
 40
9.0
 40
9.0
 40
10.0
 40
10.0
 40
10.0
 40
11.0
 40
11.0
 40
11.0
 40
11.0
 10
113.2182399890565
 20
-157.4315619181074
 30
0.0
 10
113.3009222807025
 20
-157.3785074476345
 30
0.0
 10
113.465942354446
 20
-157.2706759589462
 30
0.0
 10
113.5717067858432
 20
-157.0632812107342
 30
0.0
 10
113.7198458917089
 20
-156.7714816231335
 30
0.0
 10
113.7198458917089
 20
-156.5451388497526
 30
0.0
 10
113.7198458917089
 20
-156.4603895008154
 30
0.0
 10
113.7198458917089
 20
-156.4603895008154
 30
0.0
 10
113.7198458917089
 20
-156.2257784982699
 30
0.0
 10
113.7198458917089
 20
-156.2257784982699
 30
0.0
 10
113.7198458917089
 20
-156.2257784982699
 30
0.0
 10
113.8848659654524
 20
-156.2257784982699
 30
0.0
 10
113.8848659654524
 20
-156.2257784982699
 30
0.0
 10
113.8848659654524
 20
-156.2257784982699
 30
0.0
 10
113.8848659654524
 20
-156.4521212716508
 30
0.0
 10
113.8848659654524
 20
-156.4521212716508
 30
0.0
 10
113.8848659654524
 20
-156.6509032811498
 30
0.0
 10
113.9503227796721
 20
-156.8879258505349
 30
0.0
 10
114.051953096487
 20
-157.061214153443
 30
0.0
 10
114.1683973238884
 20
-157.2599961629419
 30
0.0
 10
114.2972438950368
 20
-157.3595594224657
 30
0.0
 10
114.3819932439739
 20
-157.4208821221031
 30
0.0
 10
114.3819932439739
 20
-157.4208821221031
 30
0.0
 10
114.2741617552856
 20
-157.57108828526
 30
0.0
 10
114.2741617552856
 20
-157.57108828526
 30
0.0
 10
114.0963948282467
 20
-157.4418972045631
 30
0.0
 10
113.8976128187478
 20
-157.2028075778868
 30
0.0
 10
113.8190646416841
 20
-156.8496852906487
 30
0.0
 10
113.7536078274643
 20
-157.088774917325
 30
0.0
 10
113.6519775106495
 20
-157.3574923651745
 30
0.0
 10
113.3432969551711
 20
-157.5669541706777
 30
0.0
 10
113.3432969551711
 20
-157.5669541706777
 30
0.0
 10
113.2182399890565
 20
-157.4315619181074
 30
0.0
 10
113.2182399890565
 20
-157.4315619181074
 30
0.0
  0
SPLINE
  5
14E
330
148
100
AcDbEntity
  8
レイヤー 1
100
AcDbSpline
210
0.0
220
0.0
230
1.0
 70
    11
 71
     3
 72
    17
 73
    13
 74
     0
 42
0.0000000001
 43
0.0000000001
 40
0.0
 40
0.0
 40
0.0
 40
0.0
 40
1.0
 40
1.0
 40
1.0
 40
2.0
 40
2.0
 40
2.0
 40
3.0
 40
3.0
 40
3.0
 40
4.0
 40
4.0
 40
4.0
 40
4.0
 10
113.1762098241365
 20
-156.5430717924614
 30
0.0
 10
113.1762098241365
 20
-156.5430717924614
 30
0.0
 10
112.9646809613422
 20
-156.5430717924614
 30
0.0
 10
112.9646809613422
 20
-156.5430717924614
 30
0.0
 10
112.9646809613422
 20
-156.5430717924614
 30
0.0
 10
112.9646809613422
 20
-156.750122031125
 30
0.0
 10
112.9646809613422
 20
-156.750122031125
 30
0.0
 10
112.9646809613422
 20
-156.750122031125
 30
0.0
 10
113.1762098241365
 20
-156.750122031125
 30
0.0
 10
113.1762098241365
 20
-156.750122031125
 30
0.0
 10
113.1762098241365
 20
-156.750122031125
 30
0.0
 10
113.1762098241365
 20
-156.5430717924614
 30
0.0
 10
113.1762098241365
 20
-156.5430717924614
 30
0.0
  0
SPLINE
  5
14F
330
148
100
AcDbEntity
  8
レイヤー 1
100
AcDbSpline
210
0.0
220
0.0
230
1.0
 70
    11
 71
     3
 72
    17
 73
    13
 74
     0
 42
0.0000000001
 43
0.0000000001
 40
0.0
 40
0.0
 40
0.0
 40
0.0
 40
1.0
 40
1.0
 40
1.0
 40
2.0
 40
2.0
 40
2.0
 40
3.0
 40
3.0
 40
3.0
 40
4.0
 40
4.0
 40
4.0
 40
4.0
 10
113.1762098241365
 20
-156.2171657595568
 30
0.0
 10
113.1762098241365
 20
-156.2171657595568
 30
0.0
 10
112.9646809613422
 20
-156.2171657595568
 30
0.0
 10
112.9646809613422
 20
-156.2171657595568
 30
0.0
 10
112.9646809613422
 20
-156.2171657595568
 30
0.0
 10
112.9646809613422
 20
-156.420081883638
 30
0.0
 10
112.9646809613422
 20
-156.420081883638
 30
0.0
 10
112.9646809613422
 20
-156.420081883638
 30
0.0
 10
113.1762098241365
 20
-156.420081883638
 30
0.0
 10
113.1762098241365
 20
-156.420081883638
 30
0.0
 10
113.1762098241365
 20
-156.420081883638
 30
0.0
 10
113.1762098241365
 20
-156.2171657595568
 30
0.0
 10
113.1762098241365
 20
-156.2171657595568
 30
0.0
  0
SPLINE
  5
150
330
148
100
AcDbEntity
  8
レイヤー 1
100
AcDbSpline
210
0.0
220
0.0
230
1.0
 70
    11
 71
     3
 72
    17
 73
    13
 74
     0
 42
0.0000000001
 43
0.0000000001
 40
0.0
 40
0.0
 40
0.0
 40
0.0
 40
1.0
 40
1.0
 40
1.0
 40
2.0
 40
2.0
 40
2.0
 40
3.0
 40
3.0
 40
3.0
 40
4.0
 40
4.0
 40
4.0
 40
4.0
 10
112.8099961740544
 20
-156.5430717924614
 30
0.0
 10
112.8099961740544
 20
-156.5430717924614
 30
0.0
 10
112.6029459353909
 20
-156.5430717924614
 30
0.0
 10
112.6029459353909
 20
-156.5430717924614
 30
0.0
 10
112.6029459353909
 20
-156.5430717924614
 30
0.0
 10
112.6029459353909
 20
-156.750122031125
 30
0.0
 10
112.6029459353909
 20
-156.750122031125
 30
0.0
 10
112.6029459353909
 20
-156.750122031125
 30
0.0
 10
112.8099961740544
 20
-156.750122031125
 30
0.0
 10
112.8099961740544
 20
-156.750122031125
 30
0.0
 10
112.8099961740544
 20
-156.750122031125
 30
0.0
 10
112.8099961740544
 20
-156.5430717924614
 30
0.0
 10
112.8099961740544
 20
-156.5430717924614
 30
0.0
  0
SPLINE
  5
151
330
148
100
AcDbEntity
  8
レイヤー 1
100
AcDbSpline
210
0.0
220
0.0
230
1.0
 70
    11
 71
     3
 72
    17
 73
    13
 74
     0
 42
0.0000000001
 43
0.0000000001
 40
0.0
 40
0.0
 40
0.0
 40
0.0
 40
1.0
 40
1.0
 40
1.0
 40
2.0
 40
2.0
 40
2.0
 40
3.0
 40
3.0
 40
3.0
 40
4.0
 40
4.0
 40
4.0
 40
4.0
 10
112.8099961740544
 20
-156.2171657595568
 30
0.0
 10
112.8099961740544
 20
-156.2171657595568
 30
0.0
 10
112.6029459353909
 20
-156.2171657595568
 30
0.0
 10
112.6029459353909
 20
-156.2171657595568
 30
0.0
 10
112.6029459353909
 20
-156.2171657595568
 30
0.0
 10
112.6029459353909
 20
-156.420081883638
 30
0.0
 10
112.6029459353909
 20
-156.420081883638
 30
0.0
 10
112.6029459353909
 20
-156.420081883638
 30
0.0
 10
112.8099961740544
 20
-156.420081883638
 30
0.0
 10
112.8099961740544
 20
-156.420081883638
 30
0.0
 10
112.8099961740544
 20
-156.420081883638
 30
0.0
 10
112.8099961740544
 20
-156.2171657595568
 30
0.0
 10
112.8099961740544
 20
-156.2171657595568
 30
0.0
  0
SPLINE
  5
152
330
148
100
AcDbEntity
  8
レイヤー 1
100
AcDbSpline
210
0.0
220
0.0
230
1.0
 70
    11
 71
     3
 72
    89
 73
    85
 74
     0
 42
0.0000000001
 43
0.0000000001
 40
0.0
 40
0.0
 40
0.0
 40
0.0
 40
1.0
 40
1.0
 40
1.0
 40
2.0
 40
2.0
 40
2.0
 40
3.0
 40
3.0
 40
3.0
 40
4.0
 40
4.0
 40
4.0
 40
5.0
 40
5.0
 40
5.0
 40
6.0
 40
6.0
 40
6.0
 40
7.0
 40
7.0
 40
7.0
 40
8.0
 40
8.0
 40
8.0
 40
9.0
 40
9.0
 40
9.0
 40
10.0
 40
10.0
 40
10.0
 40
11.0
 40
11.0
 40
11.0
 40
12.0
 40
12.0
 40
12.0
 40
13.0
 40
13.0
 40
13.0
 40
14.0
 40
14.0
 40
14.0
 40
15.0
 40
15.0
 40
15.0
 40
16.0
 40
16.0
 40
16.0
 40
17.0
 40
17.0
 40
17.0
 40
18.0
 40
18.0
 40
18.0
 40
19.0
 40
19.0
 40
19.0
 40
20.0
 40
20.0
 40
20.0
 40
21.0
 40
21.0
 40
21.0
 40
22.0
 40
22.0
 40
22.0
 40
23.0
 40
23.0
 40
23.0
 40
24.0
 40
24.0
 40
24.0
 40
25.0
 40
25.0
 40
25.0
 40
26.0
 40
26.0
 40
26.0
 40
27.0
 40
27.0
 40
27.0
 40
28.0
 40
28.0
 40
28.0
 40
28.0
 10
112.8099961740544
 20
-155.7686143273773
 30
0.0
 10
112.8099961740544
 20
-155.7686143273773
 30
0.0
 10
112.8099961740544
 20
-155.6077283682161
 30
0.0
 10
112.8099961740544
 20
-155.6077283682161
 30
0.0
 10
112.8099961740544
 20
-155.6077283682161
 30
0.0
 10
112.9646809613422
 20
-155.6077283682161
 30
0.0
 10
112.9646809613422
 20
-155.6077283682161
 30
0.0
 10
112.9646809613422
 20
-155.6077283682161
 30
0.0
 10
112.9646809613422
 20
-155.7686143273773
 30
0.0
 10
112.9646809613422
 20
-155.7686143273773
 30
0.0
 10
112.9646809613422
 20
-155.7686143273773
 30
0.0
 10
113.3581108657577
 20
-155.7686143273773
 30
0.0
 10
113.3581108657577
 20
-155.7686143273773
 30
0.0
 10
113.3581108657577
 20
-155.7686143273773
 30
0.0
 10
113.3581108657577
 20
-155.9229546051165
 30
0.0
 10
113.3581108657577
 20
-155.9229546051165
 30
0.0
 10
113.3581108657577
 20
-155.9229546051165
 30
0.0
 10
112.9646809613422
 20
-155.9229546051165
 30
0.0
 10
112.9646809613422
 20
-155.9229546051165
 30
0.0
 10
112.9646809613422
 20
-155.9229546051165
 30
0.0
 10
112.9646809613422
 20
-156.0776393924042
 30
0.0
 10
112.9646809613422
 20
-156.0776393924042
 30
0.0
 10
112.9646809613422
 20
-156.0776393924042
 30
0.0
 10
113.3198703058714
 20
-156.0776393924042
 30
0.0
 10
113.3198703058714
 20
-156.0776393924042
 30
0.0
 10
113.3198703058714
 20
-156.0776393924042
 30
0.0
 10
113.3198703058714
 20
-156.8899929078261
 30
0.0
 10
113.3198703058714
 20
-156.8899929078261
 30
0.0
 10
113.3198703058714
 20
-156.8899929078261
 30
0.0
 10
112.9646809613422
 20
-156.8899929078261
 30
0.0
 10
112.9646809613422
 20
-156.8899929078261
 30
0.0
 10
112.9646809613422
 20
-156.8899929078261
 30
0.0
 10
112.9646809613422
 20
-157.0591470961519
 30
0.0
 10
112.9646809613422
 20
-157.0591470961519
 30
0.0
 10
112.9646809613422
 20
-157.0591470961519
 30
0.0
 10
113.3729247763443
 20
-157.0591470961519
 30
0.0
 10
113.3729247763443
 20
-157.0591470961519
 30
0.0
 10
113.3729247763443
 20
-157.0591470961519
 30
0.0
 10
113.3729247763443
 20
-157.213487373891
 30
0.0
 10
113.3729247763443
 20
-157.213487373891
 30
0.0
 10
113.3729247763443
 20
-157.213487373891
 30
0.0
 10
112.9646809613422
 20
-157.213487373891
 30
0.0
 10
112.9646809613422
 20
-157.213487373891
 30
0.0
 10
112.9646809613422
 20
-157.213487373891
 30
0.0
 10
112.9646809613422
 20
-157.5669541706777
 30
0.0
 10
112.9646809613422
 20
-157.5669541706777
 30
0.0
 10
112.9646809613422
 20
-157.5669541706777
 30
0.0
 10
112.8099961740544
 20
-157.5669541706777
 30
0.0
 10
112.8099961740544
 20
-157.5669541706777
 30
0.0
 10
112.8099961740544
 20
-157.5669541706777
 30
0.0
 10
112.8099961740544
 20
-157.213487373891
 30
0.0
 10
112.8099961740544
 20
-157.213487373891
 30
0.0
 10
112.8099961740544
 20
-157.213487373891
 30
0.0
 10
112.3996853017612
 20
-157.213487373891
 30
0.0
 10
112.3996853017612
 20
-157.213487373891
 30
0.0
 10
112.3996853017612
 20
-157.213487373891
 30
0.0
 10
112.3996853017612
 20
-157.0591470961519
 30
0.0
 10
112.3996853017612
 20
-157.0591470961519
 30
0.0
 10
112.3996853017612
 20
-157.0591470961519
 30
0.0
 10
112.8099961740544
 20
-157.0591470961519
 30
0.0
 10
112.8099961740544
 20
-157.0591470961519
 30
0.0
 10
112.8099961740544
 20
-157.0591470961519
 30
0.0
 10
112.8099961740544
 20
-156.8899929078261
 30
0.0
 10
112.8099961740544
 20
-156.8899929078261
 30
0.0
 10
112.8099961740544
 20
-156.8899929078261
 30
0.0
 10
112.4610080013986
 20
-156.8899929078261
 30
0.0
 10
112.4610080013986
 20
-156.8899929078261
 30
0.0
 10
112.4610080013986
 20
-156.8899929078261
 30
0.0
 10
112.4610080013986
 20
-156.0776393924042
 30
0.0
 10
112.4610080013986
 20
-156.0776393924042
 30
0.0
 10
112.4610080013986
 20
-156.0776393924042
 30
0.0
 10
112.8099961740544
 20
-156.0776393924042
 30
0.0
 10
112.8099961740544
 20
-156.0776393924042
 30
0.0
 10
112.8099961740544
 20
-156.0776393924042
 30
0.0
 10
112.8099961740544
 20
-155.9229546051165
 30
0.0
 10
112.8099961740544
 20
-155.9229546051165
 30
0.0
 10
112.8099961740544
 20
-155.9229546051165
 30
0.0
 10
112.4207003842212
 20
-155.9229546051165
 30
0.0
 10
112.4207003842212
 20
-155.9229546051165
 30
0.0
 10
112.4207003842212
 20
-155.9229546051165
 30
0.0
 10
112.4207003842212
 20
-155.7686143273773
 30
0.0
 10
112.4207003842212
 20
-155.7686143273773
 30
0.0
 10
112.4207003842212
 20
-155.7686143273773
 30
0.0
 10
112.8099961740544
 20
-155.7686143273773
 30
0.0
 10
112.8099961740544
 20
-155.7686143273773
 30
0.0
  0
HATCH
  5
153
330
148
100
AcDbEntity
  8
レイヤー 1
 62
    12
420
 15007762
440
 33554687
100
AcDbHatch
 10
0.0
 20
0.0
 30
0.0
210
0.0
220
0.0
230
1.0
  2
SOLID
 70
     1
 71
     1
 91
        7
 92
        1
 93
        1
 72
     4
 94
        3
 73
     0
 74
     0
 95
       38
 96
       34
 40
0.0
 40
0.0
 40
0.0
 40
0.0
 40
1.0
 40
1.0
 40
1.0
 40
2.0
 40
2.0
 40
2.0
 40
3.0
 40
3.0
 40
3.0
 40
4.0
 40
4.0
 40
4.0
 40
5.0
 40
5.0
 40
5.0
 40
6.0
 40
6.0
 40
6.0
 40
7.0
 40
7.0
 40
7.0
 40
8.0
 40
8.0
 40
8.0
 40
9.0
 40
9.0
 40
9.0
 40
10.0
 40
10.0
 40
10.0
 40
11.0
 40
11.0
 40
11.0
 40
11.0
 10
113.3326171591668
 20
-156.3587591840006
 10
113.4256347372686
 20
-156.2361137847257
 10
113.5506917033831
 20
-156.0562798003956
 10
113.645776338776
 20
-155.6077283682161
 10
113.645776338776
 20
-155.6077283682161
 10
113.8128634698106
 20
-155.6270209029335
 10
113.8128634698106
 20
-155.6270209029335
 10
113.7873697632198
 20
-155.7475992449172
 10
113.7642876234686
 20
-155.8385497657278
 10
113.7260470635824
 20
-155.9463812544162
 10
113.7260470635824
 20
-155.9463812544162
 10
114.3544324800919
 20
-155.9463812544162
 10
114.3544324800919
 20
-155.9463812544162
 10
114.3544324800919
 20
-155.9463812544162
 10
114.3544324800919
 20
-156.0986544748642
 10
114.3544324800919
 20
-156.0986544748642
 10
114.3206705443365
 20
-156.2405924088565
 10
114.2252413993951
 20
-156.4986300607017
 10
114.1511718464622
 20
-156.6171413453943
 10
114.1511718464622
 20
-156.6171413453943
 10
113.9988986260142
 20
-156.5385931683306
 10
113.9988986260142
 20
-156.5385931683306
 10
114.0943277709556
 20
-156.4032009157603
 10
114.1597845851753
 20
-156.2150987022656
 10
114.1873453490573
 20
-156.1048556467377
 10
114.1873453490573
 20
-156.1048556467377
 10
113.6688584785272
 20
-156.1048556467377
 10
113.6688584785272
 20
-156.1048556467377
 10
113.569639728552
 20
-156.3463568402537
 10
113.4955701756191
 20
-156.4348957942246
 10
113.4573296157329
 20
-156.4793375259843
 10
113.4573296157329
 20
-156.4793375259843
 10
113.3326171591668
 20
-156.3587591840006
 10
113.3326171591668
 20
-156.3587591840006
 97
        0
 97
        1
330
14C
 92
        1
 93
        1
 72
     4
 94
        3
 73
     0
 74
     0
 95
       38
 96
       34
 40
0.0
 40
0.0
 40
0.0
 40
0.0
 40
1.0
 40
1.0
 40
1.0
 40
2.0
 40
2.0
 40
2.0
 40
3.0
 40
3.0
 40
3.0
 40
4.0
 40
4.0
 40
4.0
 40
5.0
 40
5.0
 40
5.0
 40
6.0
 40
6.0
 40
6.0
 40
7.0
 40
7.0
 40
7.0
 40
8.0
 40
8.0
 40
8.0
 40
9.0
 40
9.0
 40
9.0
 40
10.0
 40
10.0
 40
10.0
 40
11.0
 40
11.0
 40
11.0
 40
11.0
 10
113.2182399890565
 20
-157.4315619181074
 10
113.3009222807025
 20
-157.3785074476345
 10
113.465942354446
 20
-157.2706759589462
 10
113.5717067858432
 20
-157.0632812107342
 10
113.7198458917089
 20
-156.7714816231335
 10
113.7198458917089
 20
-156.5451388497526
 10
113.7198458917089
 20
-156.4603895008154
 10
113.7198458917089
 20
-156.4603895008154
 10
113.7198458917089
 20
-156.2257784982699
 10
113.7198458917089
 20
-156.2257784982699
 10
113.7198458917089
 20
-156.2257784982699
 10
113.8848659654524
 20
-156.2257784982699
 10
113.8848659654524
 20
-156.2257784982699
 10
113.8848659654524
 20
-156.2257784982699
 10
113.8848659654524
 20
-156.4521212716508
 10
113.8848659654524
 20
-156.4521212716508
 10
113.8848659654524
 20
-156.6509032811498
 10
113.9503227796721
 20
-156.8879258505349
 10
114.051953096487
 20
-157.061214153443
 10
114.1683973238884
 20
-157.2599961629419
 10
114.2972438950368
 20
-157.3595594224657
 10
114.3819932439739
 20
-157.4208821221031
 10
114.3819932439739
 20
-157.4208821221031
 10
114.2741617552856
 20
-157.57108828526
 10
114.2741617552856
 20
-157.57108828526
 10
114.0963948282467
 20
-157.4418972045631
 10
113.8976128187478
 20
-157.2028075778868
 10
113.8190646416841
 20
-156.8496852906487
 10
113.7536078274643
 20
-157.088774917325
 10
113.6519775106495
 20
-157.3574923651745
 10
113.3432969551711
 20
-157.5669541706777
 10
113.3432969551711
 20
-157.5669541706777
 10
113.2182399890565
 20
-157.4315619181074
 10
113.2182399890565
 20
-157.4315619181074
 97
        0
 97
        1
330
14D
 92
        1
 93
        1
 72
     4
 94
        3
 73
     0
 74
     0
 95
       17
 96
       13
 40
0.0
 40
0.0
 40
0.0
 40
0.0
 40
1.0
 40
1.0
 40
1.0
 40
2.0
 40
2.0
 40
2.0
 40
3.0
 40
3.0
 40
3.0
 40
4.0
 40
4.0
 40
4.0
 40
4.0
 10
113.1762098241365
 20
-156.5430717924614
 10
113.1762098241365
 20
-156.5430717924614
 10
112.9646809613422
 20
-156.5430717924614
 10
112.9646809613422
 20
-156.5430717924614
 10
112.9646809613422
 20
-156.5430717924614
 10
112.9646809613422
 20
-156.750122031125
 10
112.9646809613422
 20
-156.750122031125
 10
112.9646809613422
 20
-156.750122031125
 10
113.1762098241365
 20
-156.750122031125
 10
113.1762098241365
 20
-156.750122031125
 10
113.1762098241365
 20
-156.750122031125
 10
113.1762098241365
 20
-156.5430717924614
 10
113.1762098241365
 20
-156.5430717924614
 97
        0
 97
        1
330
14E
 92
        1
 93
        1
 72
     4
 94
        3
 73
     0
 74
     0
 95
       17
 96
       13
 40
0.0
 40
0.0
 40
0.0
 40
0.0
 40
1.0
 40
1.0
 40
1.0
 40
2.0
 40
2.0
 40
2.0
 40
3.0
 40
3.0
 40
3.0
 40
4.0
 40
4.0
 40
4.0
 40
4.0
 10
113.1762098241365
 20
-156.2171657595568
 10
113.1762098241365
 20
-156.2171657595568
 10
112.9646809613422
 20
-156.2171657595568
 10
112.9646809613422
 20
-156.2171657595568
 10
112.9646809613422
 20
-156.2171657595568
 10
112.9646809613422
 20
-156.420081883638
 10
112.9646809613422
 20
-156.420081883638
 10
112.9646809613422
 20
-156.420081883638
 10
113.1762098241365
 20
-156.420081883638
 10
113.1762098241365
 20
-156.420081883638
 10
113.1762098241365
 20
-156.420081883638
 10
113.1762098241365
 20
-156.2171657595568
 10
113.1762098241365
 20
-156.2171657595568
 97
        0
 97
        1
330
14F
 92
        1
 93
        1
 72
     4
 94
        3
 73
     0
 74
     0
 95
       17
 96
       13
 40
0.0
 40
0.0
 40
0.0
 40
0.0
 40
1.0
 40
1.0
 40
1.0
 40
2.0
 40
2.0
 40
2.0
 40
3.0
 40
3.0
 40
3.0
 40
4.0
 40
4.0
 40
4.0
 40
4.0
 10
112.8099961740544
 20
-156.5430717924614
 10
112.8099961740544
 20
-156.5430717924614
 10
112.6029459353909
 20
-156.5430717924614
 10
112.6029459353909
 20
-156.5430717924614
 10
112.6029459353909
 20
-156.5430717924614
 10
112.6029459353909
 20
-156.750122031125
 10
112.6029459353909
 20
-156.750122031125
 10
112.6029459353909
 20
-156.750122031125
 10
112.8099961740544
 20
-156.750122031125
 10
112.8099961740544
 20
-156.750122031125
 10
112.8099961740544
 20
-156.750122031125
 10
112.8099961740544
 20
-156.5430717924614
 10
112.8099961740544
 20
-156.5430717924614
 97
        0
 97
        1
330
150
 92
        1
 93
        1
 72
     4
 94
        3
 73
     0
 74
     0
 95
       17
 96
       13
 40
0.0
 40
0.0
 40
0.0
 40
0.0
 40
1.0
 40
1.0
 40
1.0
 40
2.0
 40
2.0
 40
2.0
 40
3.0
 40
3.0
 40
3.0
 40
4.0
 40
4.0
 40
4.0
 40
4.0
 10
112.8099961740544
 20
-156.2171657595568
 10
112.8099961740544
 20
-156.2171657595568
 10
112.6029459353909
 20
-156.2171657595568
 10
112.6029459353909
 20
-156.2171657595568
 10
112.6029459353909
 20
-156.2171657595568
 10
112.6029459353909
 20
-156.420081883638
 10
112.6029459353909
 20
-156.420081883638
 10
112.6029459353909
 20
-156.420081883638
 10
112.8099961740544
 20
-156.420081883638
 10
112.8099961740544
 20
-156.420081883638
 10
112.8099961740544
 20
-156.420081883638
 10
112.8099961740544
 20
-156.2171657595568
 10
112.8099961740544
 20
-156.2171657595568
 97
        0
 97
        1
330
151
 92
        1
 93
        1
 72
     4
 94
        3
 73
     0
 74
     0
 95
       89
 96
       85
 40
0.0
 40
0.0
 40
0.0
 40
0.0
 40
1.0
 40
1.0
 40
1.0
 40
2.0
 40
2.0
 40
2.0
 40
3.0
 40
3.0
 40
3.0
 40
4.0
 40
4.0
 40
4.0
 40
5.0
 40
5.0
 40
5.0
 40
6.0
 40
6.0
 40
6.0
 40
7.0
 40
7.0
 40
7.0
 40
8.0
 40
8.0
 40
8.0
 40
9.0
 40
9.0
 40
9.0
 40
10.0
 40
10.0
 40
10.0
 40
11.0
 40
11.0
 40
11.0
 40
12.0
 40
12.0
 40
12.0
 40
13.0
 40
13.0
 40
13.0
 40
14.0
 40
14.0
 40
14.0
 40
15.0
 40
15.0
 40
15.0
 40
16.0
 40
16.0
 40
16.0
 40
17.0
 40
17.0
 40
17.0
 40
18.0
 40
18.0
 40
18.0
 40
19.0
 40
19.0
 40
19.0
 40
20.0
 40
20.0
 40
20.0
 40
21.0
 40
21.0
 40
21.0
 40
22.0
 40
22.0
 40
22.0
 40
23.0
 40
23.0
 40
23.0
 40
24.0
 40
24.0
 40
24.0
 40
25.0
 40
25.0
 40
25.0
 40
26.0
 40
26.0
 40
26.0
 40
27.0
 40
27.0
 40
27.0
 40
28.0
 40
28.0
 40
28.0
 40
28.0
 10
112.8099961740544
 20
-155.7686143273773
 10
112.8099961740544
 20
-155.7686143273773
 10
112.8099961740544
 20
-155.6077283682161
 10
112.8099961740544
 20
-155.6077283682161
 10
112.8099961740544
 20
-155.6077283682161
 10
112.9646809613422
 20
-155.6077283682161
 10
112.9646809613422
 20
-155.6077283682161
 10
112.9646809613422
 20
-155.6077283682161
 10
112.9646809613422
 20
-155.7686143273773
 10
112.9646809613422
 20
-155.7686143273773
 10
112.9646809613422
 20
-155.7686143273773
 10
113.3581108657577
 20
-155.7686143273773
 10
113.3581108657577
 20
-155.7686143273773
 10
113.3581108657577
 20
-155.7686143273773
 10
113.3581108657577
 20
-155.9229546051165
 10
113.3581108657577
 20
-155.9229546051165
 10
113.3581108657577
 20
-155.9229546051165
 10
112.9646809613422
 20
-155.9229546051165
 10
112.9646809613422
 20
-155.9229546051165
 10
112.9646809613422
 20
-155.9229546051165
 10
112.9646809613422
 20
-156.0776393924042
 10
112.9646809613422
 20
-156.0776393924042
 10
112.9646809613422
 20
-156.0776393924042
 10
113.3198703058714
 20
-156.0776393924042
 10
113.3198703058714
 20
-156.0776393924042
 10
113.3198703058714
 20
-156.0776393924042
 10
113.3198703058714
 20
-156.8899929078261
 10
113.3198703058714
 20
-156.8899929078261
 10
113.3198703058714
 20
-156.8899929078261
 10
112.9646809613422
 20
-156.8899929078261
 10
112.9646809613422
 20
-156.8899929078261
 10
112.9646809613422
 20
-156.8899929078261
 10
112.9646809613422
 20
-157.0591470961519
 10
112.9646809613422
 20
-157.0591470961519
 10
112.9646809613422
 20
-157.0591470961519
 10
113.3729247763443
 20
-157.0591470961519
 10
113.3729247763443
 20
-157.0591470961519
 10
113.3729247763443
 20
-157.0591470961519
 10
113.3729247763443
 20
-157.213487373891
 10
113.3729247763443
 20
-157.213487373891
 10
113.3729247763443
 20
-157.213487373891
 10
112.9646809613422
 20
-157.213487373891
 10
112.9646809613422
 20
-157.213487373891
 10
112.9646809613422
 20
-157.213487373891
 10
112.9646809613422
 20
-157.5669541706777
 10
112.9646809613422
 20
-157.5669541706777
 10
112.9646809613422
 20
-157.5669541706777
 10
112.8099961740544
 20
-157.5669541706777
 10
112.8099961740544
 20
-157.5669541706777
 10
112.8099961740544
 20
-157.5669541706777
 10
112.8099961740544
 20
-157.213487373891
 10
112.8099961740544
 20
-157.213487373891
 10
112.8099961740544
 20
-157.213487373891
 10
112.3996853017612
 20
-157.213487373891
 10
112.3996853017612
 20
-157.213487373891
 10
112.3996853017612
 20
-157.213487373891
 10
112.3996853017612
 20
-157.0591470961519
 10
112.3996853017612
 20
-157.0591470961519
 10
112.3996853017612
 20
-157.0591470961519
 10
112.8099961740544
 20
-157.0591470961519
 10
112.8099961740544
 20
-157.0591470961519
 10
112.8099961740544
 20
-157.0591470961519
 10
112.8099961740544
 20
-156.8899929078261
 10
112.8099961740544
 20
-156.8899929078261
 10
112.8099961740544
 20
-156.8899929078261
 10
112.4610080013986
 20
-156.8899929078261
 10
112.4610080013986
 20
-156.8899929078261
 10
112.4610080013986
 20
-156.8899929078261
 10
112.4610080013986
 20
-156.0776393924042
 10
112.4610080013986
 20
-156.0776393924042
 10
112.4610080013986
 20
-156.0776393924042
 10
112.8099961740544
 20
-156.0776393924042
 10
112.8099961740544
 20
-156.0776393924042
 10
112.8099961740544
 20
-156.0776393924042
 10
112.8099961740544
 20
-155.9229546051165
 10
112.8099961740544
 20
-155.9229546051165
 10
112.8099961740544
 20
-155.9229546051165
 10
112.4207003842212
 20
-155.9229546051165
 10
112.4207003842212
 20
-155.9229546051165
 10
112.4207003842212
 20
-155.9229546051165
 10
112.4207003842212
 20
-155.7686143273773
 10
112.4207003842212
 20
-155.7686143273773
 10
112.4207003842212
 20
-155.7686143273773
 10
112.8099961740544
 20
-155.7686143273773
 10
112.8099961740544
 20
-155.7686143273773
 97
        0
 97
        1
330
152
 75
     2
 76
     1
 98
        1
 10
0.0
 20
0.0
450
        0
451
        0
460
0.0
461
0.0
452
        0
462
0.0
453
        0
470

  0
SPLINE
  5
154
330
148
100
AcDbEntity
  8
レイヤー 1
100
AcDbSpline
210
0.0
220
0.0
230
1.0
 70
     9
 71
     3
 72
    17
 73
    13
 74
     0
 42
0.0000000001
 43
0.0000000001
 40
0.0
 40
0.0
 40
0.0
 40
0.0
 40
1.0
 40
1.0
 40
1.0
 40
2.0
 40
2.0
 40
2.0
 40
3.0
 40
3.0
 40
3.0
 40
4.0
 40
4.0
 40
4.0
 40
4.0
 10
115.8471923538507
 20
-157.2579291056508
 30
0.0
 10
116.0669894458096
 20
-157.3702392184699
 30
0.0
 10
116.3336398363679
 20
-157.4081352688077
 30
0.0
 10
116.4624864075163
 20
-157.418815064812
 30
0.0
 10
116.4624864075163
 20
-157.418815064812
 30
0.0
 10
116.3928954787142
 20
-157.5731553425511
 30
0.0
 10
116.3928954787142
 20
-157.5731553425511
 30
0.0
 10
116.2723171367305
 20
-157.5583414319646
 30
0.0
 10
116.0098008607545
 20
-157.5180338147871
 30
0.0
 10
115.7455620370358
 20
-157.3723062757611
 30
0.0
 10
115.7455620370358
 20
-157.3723062757611
 30
0.0
 10
115.8471923538507
 20
-157.2579291056508
 30
0.0
 10
115.8471923538507
 20
-157.2579291056508
 30
0.0
  0
SPLINE
  5
155
330
148
100
AcDbEntity
  8
レイヤー 1
100
AcDbSpline
210
0.0
220
0.0
230
1.0
 70
    11
 71
     3
 72
    50
 73
    46
 74
     0
 42
0.0000000001
 43
0.0000000001
 40
0.0
 40
0.0
 40
0.0
 40
0.0
 40
1.0
 40
1.0
 40
1.0
 40
2.0
 40
2.0
 40
2.0
 40
3.0
 40
3.0
 40
3.0
 40
4.0
 40
4.0
 40
4.0
 40
5.0
 40
5.0
 40
5.0
 40
6.0
 40
6.0
 40
6.0
 40
7.0
 40
7.0
 40
7.0
 40
8.0
 40
8.0
 40
8.0
 40
9.0
 40
9.0
 40
9.0
 40
10.0
 40
10.0
 40
10.0
 40
11.0
 40
11.0
 40
11.0
 40
12.0
 40
12.0
 40
12.0
 40
13.0
 40
13.0
 40
13.0
 40
14.0
 40
14.0
 40
14.0
 40
15.0
 40
15.0
 40
15.0
 40
15.0
 10
115.7348822410315
 20
-155.9060736372387
 30
0.0
 10
115.7348822410315
 20
-155.9060736372387
 30
0.0
 10
116.4710991462294
 20
-155.9060736372387
 30
0.0
 10
116.4710991462294
 20
-155.9060736372387
 30
0.0
 10
116.4710991462294
 20
-155.9060736372387
 30
0.0
 10
116.4710991462294
 20
-156.0311306033533
 30
0.0
 10
116.4710991462294
 20
-156.0311306033533
 30
0.0
 10
116.4710991462294
 20
-156.0311306033533
 30
0.0
 10
116.1410589987425
 20
-156.0311306033533
 30
0.0
 10
116.1410589987425
 20
-156.0311306033533
 30
0.0
 10
116.1410589987425
 20
-156.0311306033533
 30
0.0
 10
116.1410589987425
 20
-156.3060492230763
 30
0.0
 10
116.1410589987425
 20
-156.3060492230763
 30
0.0
 10
116.1410589987425
 20
-156.3060492230763
 30
0.0
 10
115.9846516637121
 20
-156.3060492230763
 30
0.0
 10
115.9846516637121
 20
-156.3060492230763
 30
0.0
 10
115.9846516637121
 20
-156.3060492230763
 30
0.0
 10
115.9846516637121
 20
-156.0311306033533
 30
0.0
 10
115.9846516637121
 20
-156.0311306033533
 30
0.0
 10
115.9846516637121
 20
-156.0311306033533
 30
0.0
 10
115.720068330445
 20
-156.0311306033533
 30
0.0
 10
115.720068330445
 20
-156.0311306033533
 30
0.0
 10
115.6945746238541
 20
-156.1599771745016
 30
0.0
 10
115.6439317202209
 20
-156.2509276953123
 30
0.0
 10
115.5467800275369
 20
-156.3336099869582
 30
0.0
 10
115.5467800275369
 20
-156.3336099869582
 30
0.0
 10
115.4237901187135
 20
-156.2257784982699
 30
0.0
 10
115.4237901187135
 20
-156.2257784982699
 30
0.0
 10
115.5591823712838
 20
-156.1155354427419
 30
0.0
 10
115.5826090205835
 20
-155.9780761328805
 30
0.0
 10
115.5826090205835
 20
-155.9040065799476
 30
0.0
 10
115.5826090205835
 20
-155.9040065799476
 30
0.0
 10
115.5826090205835
 20
-155.660782838689
 30
0.0
 10
115.5826090205835
 20
-155.660782838689
 30
0.0
 10
116.052175535223
 20
-155.660782838689
 30
0.0
 10
116.2192626662577
 20
-155.6204752215115
 30
0.0
 10
116.3632676575411
 20
-155.578100547043
 30
0.0
 10
116.3632676575411
 20
-155.578100547043
 30
0.0
 10
116.4225232998874
 20
-155.7159043664529
 30
0.0
 10
116.4225232998874
 20
-155.7159043664529
 30
0.0
 10
116.1517387947468
 20
-155.785495295255
 30
0.0
 10
115.8365125578464
 20
-155.7899739193858
 30
0.0
 10
115.7348822410315
 20
-155.7899739193858
 30
0.0
 10
115.7348822410315
 20
-155.7899739193858
 30
0.0
 10
115.7348822410315
 20
-155.9060736372387
 30
0.0
 10
115.7348822410315
 20
-155.9060736372387
 30
0.0
  0
SPLINE
  5
156
330
148
100
AcDbEntity
  8
レイヤー 1
100
AcDbSpline
210
0.0
220
0.0
230
1.0
 70
    11
 71
     3
 72
    17
 73
    13
 74
     0
 42
0.0000000001
 43
0.0000000001
 40
0.0
 40
0.0
 40
0.0
 40
0.0
 40
1.0
 40
1.0
 40
1.0
 40
2.0
 40
2.0
 40
2.0
 40
3.0
 40
3.0
 40
3.0
 40
4.0
 40
4.0
 40
4.0
 40
4.0
 10
116.0711235603919
 20
-156.9764648045059
 30
0.0
 10
116.0711235603919
 20
-156.9764648045059
 30
0.0
 10
114.9118489296053
 20
-156.9764648045059
 30
0.0
 10
114.9118489296053
 20
-156.9764648045059
 30
0.0
 10
114.9118489296053
 20
-156.9764648045059
 30
0.0
 10
114.9118489296053
 20
-157.116335681207
 30
0.0
 10
114.9118489296053
 20
-157.116335681207
 30
0.0
 10
114.9118489296053
 20
-157.116335681207
 30
0.0
 10
116.0711235603919
 20
-157.116335681207
 30
0.0
 10
116.0711235603919
 20
-157.116335681207
 30
0.0
 10
116.0711235603919
 20
-157.116335681207
 30
0.0
 10
116.0711235603919
 20
-156.9764648045059
 30
0.0
 10
116.0711235603919
 20
-156.9764648045059
 30
0.0
  0
SPLINE
  5
157
330
148
100
AcDbEntity
  8
レイヤー 1
100
AcDbSpline
210
0.0
220
0.0
230
1.0
 70
    11
 71
     3
 72
    17
 73
    13
 74
     0
 42
0.0000000001
 43
0.0000000001
 40
0.0
 40
0.0
 40
0.0
 40
0.0
 40
1.0
 40
1.0
 40
1.0
 40
2.0
 40
2.0
 40
2.0
 40
3.0
 40
3.0
 40
3.0
 40
4.0
 40
4.0
 40
4.0
 40
4.0
 10
116.0711235603919
 20
-156.7249728340826
 30
0.0
 10
116.0711235603919
 20
-156.7249728340826
 30
0.0
 10
114.9118489296053
 20
-156.7249728340826
 30
0.0
 10
114.9118489296053
 20
-156.7249728340826
 30
0.0
 10
114.9118489296053
 20
-156.7249728340826
 30
0.0
 10
114.9118489296053
 20
-156.8665662585264
 30
0.0
 10
114.9118489296053
 20
-156.8665662585264
 30
0.0
 10
114.9118489296053
 20
-156.8665662585264
 30
0.0
 10
116.0711235603919
 20
-156.8665662585264
 30
0.0
 10
116.0711235603919
 20
-156.8665662585264
 30
0.0
 10
116.0711235603919
 20
-156.8665662585264
 30
0.0
 10
116.0711235603919
 20
-156.7249728340826
 30
0.0
 10
116.0711235603919
 20
-156.7249728340826
 30
0.0
  0
SPLINE
  5
158
330
148
100
AcDbEntity
  8
レイヤー 1
100
AcDbSpline
210
0.0
220
0.0
230
1.0
 70
    11
 71
     3
 72
    17
 73
    13
 74
     0
 42
0.0000000001
 43
0.0000000001
 40
0.0
 40
0.0
 40
0.0
 40
0.0
 40
1.0
 40
1.0
 40
1.0
 40
2.0
 40
2.0
 40
2.0
 40
3.0
 40
3.0
 40
3.0
 40
4.0
 40
4.0
 40
4.0
 40
4.0
 10
116.0711235603919
 20
-156.4858832074063
 30
0.0
 10
116.0711235603919
 20
-156.4858832074063
 30
0.0
 10
114.9118489296053
 20
-156.4858832074063
 30
0.0
 10
114.9118489296053
 20
-156.4858832074063
 30
0.0
 10
114.9118489296053
 20
-156.4858832074063
 30
0.0
 10
114.9118489296053
 20
-156.6147297785546
 30
0.0
 10
114.9118489296053
 20
-156.6147297785546
 30
0.0
 10
114.9118489296053
 20
-156.6147297785546
 30
0.0
 10
116.0711235603919
 20
-156.6147297785546
 30
0.0
 10
116.0711235603919
 20
-156.6147297785546
 30
0.0
 10
116.0711235603919
 20
-156.6147297785546
 30
0.0
 10
116.0711235603919
 20
-156.4858832074063
 30
0.0
 10
116.0711235603919
 20
-156.4858832074063
 30
0.0
  0
SPLINE
  5
159
330
148
100
AcDbEntity
  8
レイヤー 1
100
AcDbSpline
210
0.0
220
0.0
230
1.0
 70
    11
 71
     3
 72
    32
 73
    28
 74
     0
 42
0.0000000001
 43
0.0000000001
 40
0.0
 40
0.0
 40
0.0
 40
0.0
 40
1.0
 40
1.0
 40
1.0
 40
2.0
 40
2.0
 40
2.0
 40
3.0
 40
3.0
 40
3.0
 40
4.0
 40
4.0
 40
4.0
 40
5.0
 40
5.0
 40
5.0
 40
6.0
 40
6.0
 40
6.0
 40
7.0
 40
7.0
 40
7.0
 40
8.0
 40
8.0
 40
8.0
 40
9.0
 40
9.0
 40
9.0
 40
9.0
 10
114.7426947412796
 20
-157.2517279337773
 30
0.0
 10
114.7426947412796
 20
-157.2517279337773
 30
0.0
 10
114.7426947412796
 20
-156.3525580121271
 30
0.0
 10
114.7426947412796
 20
-156.3525580121271
 30
0.0
 10
114.7426947412796
 20
-156.3525580121271
 30
0.0
 10
116.2406222582662
 20
-156.3525580121271
 30
0.0
 10
116.2406222582662
 20
-156.3525580121271
 30
0.0
 10
116.2406222582662
 20
-156.3525580121271
 30
0.0
 10
116.2406222582662
 20
-157.2517279337773
 30
0.0
 10
116.2406222582662
 20
-157.2517279337773
 30
0.0
 10
116.2406222582662
 20
-157.2517279337773
 30
0.0
 10
115.0961615380662
 20
-157.2517279337773
 30
0.0
 10
115.0961615380662
 20
-157.2517279337773
 30
0.0
 10
115.0961615380662
 20
-157.2517279337773
 30
0.0
 10
115.2019259694634
 20
-157.3616264797568
 30
0.0
 10
115.2019259694634
 20
-157.3616264797568
 30
0.0
 10
115.0369058957199
 20
-157.4567111151497
 30
0.0
 10
114.8718858219764
 20
-157.5180338147871
 30
0.0
 10
114.575607610245
 20
-157.5690212279688
 30
0.0
 10
114.575607610245
 20
-157.5690212279688
 30
0.0
 10
114.5101507960252
 20
-157.4167480075208
 30
0.0
 10
114.5101507960252
 20
-157.4167480075208
 30
0.0
 10
114.8887667898542
 20
-157.363693537048
 30
0.0
 10
115.0114121891291
 20
-157.2961696655371
 30
0.0
 10
115.0916829139354
 20
-157.2517279337773
 30
0.0
 10
115.0916829139354
 20
-157.2517279337773
 30
0.0
 10
114.7426947412796
 20
-157.2517279337773
 30
0.0
 10
114.7426947412796
 20
-157.2517279337773
 30
0.0
  0
SPLINE
  5
15A
330
148
100
AcDbEntity
  8
レイヤー 1
100
AcDbSpline
210
0.0
220
0.0
230
1.0
 70
    11
 71
     3
 72
    50
 73
    46
 74
     0
 42
0.0000000001
 43
0.0000000001
 40
0.0
 40
0.0
 40
0.0
 40
0.0
 40
1.0
 40
1.0
 40
1.0
 40
2.0
 40
2.0
 40
2.0
 40
3.0
 40
3.0
 40
3.0
 40
4.0
 40
4.0
 40
4.0
 40
5.0
 40
5.0
 40
5.0
 40
6.0
 40
6.0
 40
6.0
 40
7.0
 40
7.0
 40
7.0
 40
8.0
 40
8.0
 40
8.0
 40
9.0
 40
9.0
 40
9.0
 40
10.0
 40
10.0
 40
10.0
 40
11.0
 40
11.0
 40
11.0
 40
12.0
 40
12.0
 40
12.0
 40
13.0
 40
13.0
 40
13.0
 40
14.0
 40
14.0
 40
14.0
 40
15.0
 40
15.0
 40
15.0
 40
15.0
 10
114.8274440902167
 20
-155.9060736372387
 30
0.0
 10
114.8274440902167
 20
-155.9060736372387
 30
0.0
 10
115.4789116464775
 20
-155.9060736372387
 30
0.0
 10
115.4789116464775
 20
-155.9060736372387
 30
0.0
 10
115.4789116464775
 20
-155.9060736372387
 30
0.0
 10
115.4789116464775
 20
-156.0311306033533
 30
0.0
 10
115.4789116464775
 20
-156.0311306033533
 30
0.0
 10
115.4789116464775
 20
-156.0311306033533
 30
0.0
 10
115.2019259694634
 20
-156.0311306033533
 30
0.0
 10
115.2019259694634
 20
-156.0311306033533
 30
0.0
 10
115.2019259694634
 20
-156.0311306033533
 30
0.0
 10
115.2019259694634
 20
-156.3060492230763
 30
0.0
 10
115.2019259694634
 20
-156.3060492230763
 30
0.0
 10
115.2019259694634
 20
-156.3060492230763
 30
0.0
 10
115.0410400103022
 20
-156.3060492230763
 30
0.0
 10
115.0410400103022
 20
-156.3060492230763
 30
0.0
 10
115.0410400103022
 20
-156.3060492230763
 30
0.0
 10
115.0410400103022
 20
-156.0311306033533
 30
0.0
 10
115.0410400103022
 20
-156.0311306033533
 30
0.0
 10
115.0410400103022
 20
-156.0311306033533
 30
0.0
 10
114.8208984087947
 20
-156.0311306033533
 30
0.0
 10
114.8208984087947
 20
-156.0311306033533
 30
0.0
 10
114.810563122339
 20
-156.1007215321553
 30
0.0
 10
114.7850694157481
 20
-156.295369427072
 30
0.0
 10
114.630729138009
 20
-156.4455755902289
 30
0.0
 10
114.630729138009
 20
-156.4455755902289
 30
0.0
 10
114.5080837387341
 20
-156.3356770442494
 30
0.0
 10
114.5080837387341
 20
-156.3356770442494
 30
0.0
 10
114.6286620807178
 20
-156.2361137847257
 30
0.0
 10
114.6706922456379
 20
-156.0311306033533
 30
0.0
 10
114.6706922456379
 20
-155.9484483117073
 30
0.0
 10
114.6706922456379
 20
-155.9484483117073
 30
0.0
 10
114.6706922456379
 20
-155.6628498959801
 30
0.0
 10
114.6706922456379
 20
-155.6628498959801
 30
0.0
 10
115.1554171804125
 20
-155.6628498959801
 30
0.0
 10
115.3097574581517
 20
-155.6163411069293
 30
0.0
 10
115.4048420935446
 20
-155.5887803430472
 30
0.0
 10
115.4048420935446
 20
-155.5887803430472
 30
0.0
 10
115.4578965640175
 20
-155.7283067101999
 30
0.0
 10
115.4578965640175
 20
-155.7283067101999
 30
0.0
 10
115.2484347585142
 20
-155.7772270660904
 30
0.0
 10
115.0854817420619
 20
-155.7875623525461
 30
0.0
 10
114.8274440902167
 20
-155.792040976677
 30
0.0
 10
114.8274440902167
 20
-155.792040976677
 30
0.0
 10
114.8274440902167
 20
-155.9060736372387
 30
0.0
 10
114.8274440902167
 20
-155.9060736372387
 30
0.0
  0
HATCH
  5
15B
330
148
100
AcDbEntity
  8
レイヤー 1
 62
    12
420
 15007762
440
 33554687
100
AcDbHatch
 10
0.0
 20
0.0
 30
0.0
210
0.0
220
0.0
230
1.0
  2
SOLID
 70
     1
 71
     1
 91
        7
 92
        1
 93
        1
 72
     4
 94
        3
 73
     0
 74
     0
 95
       17
 96
       13
 40
0.0
 40
0.0
 40
0.0
 40
0.0
 40
1.0
 40
1.0
 40
1.0
 40
2.0
 40
2.0
 40
2.0
 40
3.0
 40
3.0
 40
3.0
 40
4.0
 40
4.0
 40
4.0
 40
4.0
 10
115.8471923538507
 20
-157.2579291056508
 10
116.0669894458096
 20
-157.3702392184699
 10
116.3336398363679
 20
-157.4081352688077
 10
116.4624864075163
 20
-157.418815064812
 10
116.4624864075163
 20
-157.418815064812
 10
116.3928954787142
 20
-157.5731553425511
 10
116.3928954787142
 20
-157.5731553425511
 10
116.2723171367305
 20
-157.5583414319646
 10
116.0098008607545
 20
-157.5180338147871
 10
115.7455620370358
 20
-157.3723062757611
 10
115.7455620370358
 20
-157.3723062757611
 10
115.8471923538507
 20
-157.2579291056508
 10
115.8471923538507
 20
-157.2579291056508
 97
        0
 97
        1
330
154
 92
        1
 93
        1
 72
     4
 94
        3
 73
     0
 74
     0
 95
       50
 96
       46
 40
0.0
 40
0.0
 40
0.0
 40
0.0
 40
1.0
 40
1.0
 40
1.0
 40
2.0
 40
2.0
 40
2.0
 40
3.0
 40
3.0
 40
3.0
 40
4.0
 40
4.0
 40
4.0
 40
5.0
 40
5.0
 40
5.0
 40
6.0
 40
6.0
 40
6.0
 40
7.0
 40
7.0
 40
7.0
 40
8.0
 40
8.0
 40
8.0
 40
9.0
 40
9.0
 40
9.0
 40
10.0
 40
10.0
 40
10.0
 40
11.0
 40
11.0
 40
11.0
 40
12.0
 40
12.0
 40
12.0
 40
13.0
 40
13.0
 40
13.0
 40
14.0
 40
14.0
 40
14.0
 40
15.0
 40
15.0
 40
15.0
 40
15.0
 10
115.7348822410315
 20
-155.9060736372387
 10
115.7348822410315
 20
-155.9060736372387
 10
116.4710991462294
 20
-155.9060736372387
 10
116.4710991462294
 20
-155.9060736372387
 10
116.4710991462294
 20
-155.9060736372387
 10
116.4710991462294
 20
-156.0311306033533
 10
116.4710991462294
 20
-156.0311306033533
 10
116.4710991462294
 20
-156.0311306033533
 10
116.1410589987425
 20
-156.0311306033533
 10
116.1410589987425
 20
-156.0311306033533
 10
116.1410589987425
 20
-156.0311306033533
 10
116.1410589987425
 20
-156.3060492230763
 10
116.1410589987425
 20
-156.3060492230763
 10
116.1410589987425
 20
-156.3060492230763
 10
115.9846516637121
 20
-156.3060492230763
 10
115.9846516637121
 20
-156.3060492230763
 10
115.9846516637121
 20
-156.3060492230763
 10
115.9846516637121
 20
-156.0311306033533
 10
115.9846516637121
 20
-156.0311306033533
 10
115.9846516637121
 20
-156.0311306033533
 10
115.720068330445
 20
-156.0311306033533
 10
115.720068330445
 20
-156.0311306033533
 10
115.6945746238541
 20
-156.1599771745016
 10
115.6439317202209
 20
-156.2509276953123
 10
115.5467800275369
 20
-156.3336099869582
 10
115.5467800275369
 20
-156.3336099869582
 10
115.4237901187135
 20
-156.2257784982699
 10
115.4237901187135
 20
-156.2257784982699
 10
115.5591823712838
 20
-156.1155354427419
 10
115.5826090205835
 20
-155.9780761328805
 10
115.5826090205835
 20
-155.9040065799476
 10
115.5826090205835
 20
-155.9040065799476
 10
115.5826090205835
 20
-155.660782838689
 10
115.5826090205835
 20
-155.660782838689
 10
116.052175535223
 20
-155.660782838689
 10
116.2192626662577
 20
-155.6204752215115
 10
116.3632676575411
 20
-155.578100547043
 10
116.3632676575411
 20
-155.578100547043
 10
116.4225232998874
 20
-155.7159043664529
 10
116.4225232998874
 20
-155.7159043664529
 10
116.1517387947468
 20
-155.785495295255
 10
115.8365125578464
 20
-155.7899739193858
 10
115.7348822410315
 20
-155.7899739193858
 10
115.7348822410315
 20
-155.7899739193858
 10
115.7348822410315
 20
-155.9060736372387
 10
115.7348822410315
 20
-155.9060736372387
 97
        0
 97
        1
330
155
 92
        1
 93
        1
 72
     4
 94
        3
 73
     0
 74
     0
 95
       17
 96
       13
 40
0.0
 40
0.0
 40
0.0
 40
0.0
 40
1.0
 40
1.0
 40
1.0
 40
2.0
 40
2.0
 40
2.0
 40
3.0
 40
3.0
 40
3.0
 40
4.0
 40
4.0
 40
4.0
 40
4.0
 10
116.0711235603919
 20
-156.9764648045059
 10
116.0711235603919
 20
-156.9764648045059
 10
114.9118489296053
 20
-156.9764648045059
 10
114.9118489296053
 20
-156.9764648045059
 10
114.9118489296053
 20
-156.9764648045059
 10
114.9118489296053
 20
-157.116335681207
 10
114.9118489296053
 20
-157.116335681207
 10
114.9118489296053
 20
-157.116335681207
 10
116.0711235603919
 20
-157.116335681207
 10
116.0711235603919
 20
-157.116335681207
 10
116.0711235603919
 20
-157.116335681207
 10
116.0711235603919
 20
-156.9764648045059
 10
116.0711235603919
 20
-156.9764648045059
 97
        0
 97
        1
330
156
 92
        1
 93
        1
 72
     4
 94
        3
 73
     0
 74
     0
 95
       17
 96
       13
 40
0.0
 40
0.0
 40
0.0
 40
0.0
 40
1.0
 40
1.0
 40
1.0
 40
2.0
 40
2.0
 40
2.0
 40
3.0
 40
3.0
 40
3.0
 40
4.0
 40
4.0
 40
4.0
 40
4.0
 10
116.0711235603919
 20
-156.7249728340826
 10
116.0711235603919
 20
-156.7249728340826
 10
114.9118489296053
 20
-156.7249728340826
 10
114.9118489296053
 20
-156.7249728340826
 10
114.9118489296053
 20
-156.7249728340826
 10
114.9118489296053
 20
-156.8665662585264
 10
114.9118489296053
 20
-156.8665662585264
 10
114.9118489296053
 20
-156.8665662585264
 10
116.0711235603919
 20
-156.8665662585264
 10
116.0711235603919
 20
-156.8665662585264
 10
116.0711235603919
 20
-156.8665662585264
 10
116.0711235603919
 20
-156.7249728340826
 10
116.0711235603919
 20
-156.7249728340826
 97
        0
 97
        1
330
157
 92
        1
 93
        1
 72
     4
 94
        3
 73
     0
 74
     0
 95
       17
 96
       13
 40
0.0
 40
0.0
 40
0.0
 40
0.0
 40
1.0
 40
1.0
 40
1.0
 40
2.0
 40
2.0
 40
2.0
 40
3.0
 40
3.0
 40
3.0
 40
4.0
 40
4.0
 40
4.0
 40
4.0
 10
116.0711235603919
 20
-156.4858832074063
 10
116.0711235603919
 20
-156.4858832074063
 10
114.9118489296053
 20
-156.4858832074063
 10
114.9118489296053
 20
-156.4858832074063
 10
114.9118489296053
 20
-156.4858832074063
 10
114.9118489296053
 20
-156.6147297785546
 10
114.9118489296053
 20
-156.6147297785546
 10
114.9118489296053
 20
-156.6147297785546
 10
116.0711235603919
 20
-156.6147297785546
 10
116.0711235603919
 20
-156.6147297785546
 10
116.0711235603919
 20
-156.6147297785546
 10
116.0711235603919
 20
-156.4858832074063
 10
116.0711235603919
 20
-156.4858832074063
 97
        0
 97
        1
330
158
 92
        1
 93
        1
 72
     4
 94
        3
 73
     0
 74
     0
 95
       32
 96
       28
 40
0.0
 40
0.0
 40
0.0
 40
0.0
 40
1.0
 40
1.0
 40
1.0
 40
2.0
 40
2.0
 40
2.0
 40
3.0
 40
3.0
 40
3.0
 40
4.0
 40
4.0
 40
4.0
 40
5.0
 40
5.0
 40
5.0
 40
6.0
 40
6.0
 40
6.0
 40
7.0
 40
7.0
 40
7.0
 40
8.0
 40
8.0
 40
8.0
 40
9.0
 40
9.0
 40
9.0
 40
9.0
 10
114.7426947412796
 20
-157.2517279337773
 10
114.7426947412796
 20
-157.2517279337773
 10
114.7426947412796
 20
-156.3525580121271
 10
114.7426947412796
 20
-156.3525580121271
 10
114.7426947412796
 20
-156.3525580121271
 10
116.2406222582662
 20
-156.3525580121271
 10
116.2406222582662
 20
-156.3525580121271
 10
116.2406222582662
 20
-156.3525580121271
 10
116.2406222582662
 20
-157.2517279337773
 10
116.2406222582662
 20
-157.2517279337773
 10
116.2406222582662
 20
-157.2517279337773
 10
115.0961615380662
 20
-157.2517279337773
 10
115.0961615380662
 20
-157.2517279337773
 10
115.0961615380662
 20
-157.2517279337773
 10
115.2019259694634
 20
-157.3616264797568
 10
115.2019259694634
 20
-157.3616264797568
 10
115.0369058957199
 20
-157.4567111151497
 10
114.8718858219764
 20
-157.5180338147871
 10
114.575607610245
 20
-157.5690212279688
 10
114.575607610245
 20
-157.5690212279688
 10
114.5101507960252
 20
-157.4167480075208
 10
114.5101507960252
 20
-157.4167480075208
 10
114.8887667898542
 20
-157.363693537048
 10
115.0114121891291
 20
-157.2961696655371
 10
115.0916829139354
 20
-157.2517279337773
 10
115.0916829139354
 20
-157.2517279337773
 10
114.7426947412796
 20
-157.2517279337773
 10
114.7426947412796
 20
-157.2517279337773
 97
        0
 97
        1
330
159
 92
        1
 93
        1
 72
     4
 94
        3
 73
     0
 74
     0
 95
       50
 96
       46
 40
0.0
 40
0.0
 40
0.0
 40
0.0
 40
1.0
 40
1.0
 40
1.0
 40
2.0
 40
2.0
 40
2.0
 40
3.0
 40
3.0
 40
3.0
 40
4.0
 40
4.0
 40
4.0
 40
5.0
 40
5.0
 40
5.0
 40
6.0
 40
6.0
 40
6.0
 40
7.0
 40
7.0
 40
7.0
 40
8.0
 40
8.0
 40
8.0
 40
9.0
 40
9.0
 40
9.0
 40
10.0
 40
10.0
 40
10.0
 40
11.0
 40
11.0
 40
11.0
 40
12.0
 40
12.0
 40
12.0
 40
13.0
 40
13.0
 40
13.0
 40
14.0
 40
14.0
 40
14.0
 40
15.0
 40
15.0
 40
15.0
 40
15.0
 10
114.8274440902167
 20
-155.9060736372387
 10
114.8274440902167
 20
-155.9060736372387
 10
115.4789116464775
 20
-155.9060736372387
 10
115.4789116464775
 20
-155.9060736372387
 10
115.4789116464775
 20
-155.9060736372387
 10
115.4789116464775
 20
-156.0311306033533
 10
115.4789116464775
 20
-156.0311306033533
 10
115.4789116464775
 20
-156.0311306033533
 10
115.2019259694634
 20
-156.0311306033533
 10
115.2019259694634
 20
-156.0311306033533
 10
115.2019259694634
 20
-156.0311306033533
 10
115.2019259694634
 20
-156.3060492230763
 10
115.2019259694634
 20
-156.3060492230763
 10
115.2019259694634
 20
-156.3060492230763
 10
115.0410400103022
 20
-156.3060492230763
 10
115.0410400103022
 20
-156.3060492230763
 10
115.0410400103022
 20
-156.3060492230763
 10
115.0410400103022
 20
-156.0311306033533
 10
115.0410400103022
 20
-156.0311306033533
 10
115.0410400103022
 20
-156.0311306033533
 10
114.8208984087947
 20
-156.0311306033533
 10
114.8208984087947
 20
-156.0311306033533
 10
114.810563122339
 20
-156.1007215321553
 10
114.7850694157481
 20
-156.295369427072
 10
114.630729138009
 20
-156.4455755902289
 10
114.630729138009
 20
-156.4455755902289
 10
114.5080837387341
 20
-156.3356770442494
 10
114.5080837387341
 20
-156.3356770442494
 10
114.6286620807178
 20
-156.2361137847257
 10
114.6706922456379
 20
-156.0311306033533
 10
114.6706922456379
 20
-155.9484483117073
 10
114.6706922456379
 20
-155.9484483117073
 10
114.6706922456379
 20
-155.6628498959801
 10
114.6706922456379
 20
-155.6628498959801
 10
115.1554171804125
 20
-155.6628498959801
 10
115.3097574581517
 20
-155.6163411069293
 10
115.4048420935446
 20
-155.5887803430472
 10
115.4048420935446
 20
-155.5887803430472
 10
115.4578965640175
 20
-155.7283067101999
 10
115.4578965640175
 20
-155.7283067101999
 10
115.2484347585142
 20
-155.7772270660904
 10
115.0854817420619
 20
-155.7875623525461
 10
114.8274440902167
 20
-155.792040976677
 10
114.8274440902167
 20
-155.792040976677
 10
114.8274440902167
 20
-155.9060736372387
 10
114.8274440902167
 20
-155.9060736372387
 97
        0
 97
        1
330
15A
 75
     2
 76
     1
 98
        1
 10
0.0
 20
0.0
450
        0
451
        0
460
0.0
461
0.0
452
        0
462
0.0
453
        0
470

  0
ENDBLK
  5
14B
330
148
100
AcDbEntity
  8
0
100
AcDbBlockEnd
  0
BLOCK
  5
15E
330
15C
100
AcDbEntity
  8
0
100
AcDbBlockBegin
  2
Block_14
 70
     0
 10
0.0
 20
0.0
 30
0.0
  3
Block_14
  1

  0
INSERT
  5
161
330
15C
100
AcDbEntity
  8
レイヤー 1
100
AcDbBlockReference
  2
Block_15
 10
0.0
 20
0.0
 30
0.0
  0
ENDBLK
  5
15F
330
15C
100
AcDbEntity
  8
0
100
AcDbBlockEnd
  0
BLOCK
  5
162
330
160
100
AcDbEntity
  8
0
100
AcDbBlockBegin
  2
Block_15
 70
     0
 10
0.0
 20
0.0
 30
0.0
  3
Block_15
  1

  0
SPLINE
  5
164
330
160
100
AcDbEntity
  8
レイヤー 1
100
AcDbSpline
210
0.0
220
0.0
230
1.0
 70
     9
 71
     3
 72
    17
 73
    13
 74
     0
 42
0.0000000001
 43
0.0000000001
 40
0.0
 40
0.0
 40
0.0
 40
0.0
 40
1.0
 40
1.0
 40
1.0
 40
2.0
 40
2.0
 40
2.0
 40
3.0
 40
3.0
 40
3.0
 40
4.0
 40
4.0
 40
4.0
 40
4.0
 10
125.1827120997807
 20
-153.6671060813749
 30
0.0
 10
125.165831131903
 20
-153.696733902548
 30
0.0
 10
125.1151882282698
 20
-153.7897514806498
 30
0.0
 10
125.1045084322655
 20
-153.8086995058186
 30
0.0
 10
125.2950222125998
 20
-153.8679551481649
 30
0.0
 10
125.3160372950599
 20
-153.8745008295869
 30
0.0
 10
125.3880397907016
 20
-153.9020615934689
 30
0.0
 10
125.4431613184656
 20
-153.8152451872406
 30
0.0
 10
125.4662434582167
 20
-153.7411756343078
 30
0.0
 10
125.4810573688033
 20
-153.6671060813749
 30
0.0
 10
125.4810573688033
 20
-153.6671060813749
 30
0.0
 10
125.1827120997807
 20
-153.6671060813749
 30
0.0
 10
125.1827120997807
 20
-153.6671060813749
 30
0.0
  0
SPLINE
  5
165
330
160
100
AcDbEntity
  8
レイヤー 1
100
AcDbSpline
210
0.0
220
0.0
230
1.0
 70
    11
 71
     3
 72
    20
 73
    16
 74
     0
 42
0.0000000001
 43
0.0000000001
 40
0.0
 40
0.0
 40
0.0
 40
0.0
 40
1.0
 40
1.0
 40
1.0
 40
2.0
 40
2.0
 40
2.0
 40
3.0
 40
3.0
 40
3.0
 40
4.0
 40
4.0
 40
4.0
 40
5.0
 40
5.0
 40
5.0
 40
5.0
 10
125.1193223428521
 20
-152.8165120060667
 30
0.0
 10
125.1193223428521
 20
-152.8165120060667
 30
0.0
 10
125.0876274643878
 20
-152.8165120060667
 30
0.0
 10
125.0876274643878
 20
-152.8165120060667
 30
0.0
 10
125.1341362534387
 20
-152.9160752655904
 30
0.0
 10
125.165831131903
 20
-152.9963459903967
 30
0.0
 10
125.1995930676584
 20
-153.1234700138024
 30
0.0
 10
125.1995930676584
 20
-153.1234700138024
 30
0.0
 10
125.4069878158704
 20
-153.1234700138024
 30
0.0
 10
125.4069878158704
 20
-153.1234700138024
 30
0.0
 10
125.4386826943348
 20
-153.0304524357007
 30
0.0
 10
125.4621093436345
 20
-152.9457030867636
 30
0.0
 10
125.4851914833856
 20
-152.8165120060667
 30
0.0
 10
125.4851914833856
 20
-152.8165120060667
 30
0.0
 10
125.1193223428521
 20
-152.8165120060667
 30
0.0
 10
125.1193223428521
 20
-152.8165120060667
 30
0.0
  0
SPLINE
  5
166
330
160
100
AcDbEntity
  8
レイヤー 1
100
AcDbSpline
210
0.0
220
0.0
230
1.0
 70
     9
 71
     3
 72
   242
 73
   238
 74
     0
 42
0.0000000001
 43
0.0000000001
 40
0.0
 40
0.0
 40
0.0
 40
0.0
 40
1.0
 40
1.0
 40
1.0
 40
2.0
 40
2.0
 40
2.0
 40
3.0
 40
3.0
 40
3.0
 40
4.0
 40
4.0
 40
4.0
 40
5.0
 40
5.0
 40
5.0
 40
6.0
 40
6.0
 40
6.0
 40
7.0
 40
7.0
 40
7.0
 40
8.0
 40
8.0
 40
8.0
 40
9.0
 40
9.0
 40
9.0
 40
10.0
 40
10.0
 40
10.0
 40
11.0
 40
11.0
 40
11.0
 40
12.0
 40
12.0
 40
12.0
 40
13.0
 40
13.0
 40
13.0
 40
14.0
 40
14.0
 40
14.0
 40
15.0
 40
15.0
 40
15.0
 40
16.0
 40
16.0
 40
16.0
 40
17.0
 40
17.0
 40
17.0
 40
18.0
 40
18.0
 40
18.0
 40
19.0
 40
19.0
 40
19.0
 40
20.0
 40
20.0
 40
20.0
 40
21.0
 40
21.0
 40
21.0
 40
22.0
 40
22.0
 40
22.0
 40
23.0
 40
23.0
 40
23.0
 40
24.0
 40
24.0
 40
24.0
 40
25.0
 40
25.0
 40
25.0
 40
26.0
 40
26.0
 40
26.0
 40
27.0
 40
27.0
 40
27.0
 40
28.0
 40
28.0
 40
28.0
 40
29.0
 40
29.0
 40
29.0
 40
30.0
 40
30.0
 40
30.0
 40
31.0
 40
31.0
 40
31.0
 40
32.0
 40
32.0
 40
32.0
 40
33.0
 40
33.0
 40
33.0
 40
34.0
 40
34.0
 40
34.0
 40
35.0
 40
35.0
 40
35.0
 40
36.0
 40
36.0
 40
36.0
 40
37.0
 40
37.0
 40
37.0
 40
38.0
 40
38.0
 40
38.0
 40
39.0
 40
39.0
 40
39.0
 40
40.0
 40
40.0
 40
40.0
 40
41.0
 40
41.0
 40
41.0
 40
42.0
 40
42.0
 40
42.0
 40
43.0
 40
43.0
 40
43.0
 40
44.0
 40
44.0
 40
44.0
 40
45.0
 40
45.0
 40
45.0
 40
46.0
 40
46.0
 40
46.0
 40
47.0
 40
47.0
 40
47.0
 40
48.0
 40
48.0
 40
48.0
 40
49.0
 40
49.0
 40
49.0
 40
50.0
 40
50.0
 40
50.0
 40
51.0
 40
51.0
 40
51.0
 40
52.0
 40
52.0
 40
52.0
 40
53.0
 40
53.0
 40
53.0
 40
54.0
 40
54.0
 40
54.0
 40
55.0
 40
55.0
 40
55.0
 40
56.0
 40
56.0
 40
56.0
 40
57.0
 40
57.0
 40
57.0
 40
58.0
 40
58.0
 40
58.0
 40
59.0
 40
59.0
 40
59.0
 40
60.0
 40
60.0
 40
60.0
 40
61.0
 40
61.0
 40
61.0
 40
62.0
 40
62.0
 40
62.0
 40
63.0
 40
63.0
 40
63.0
 40
64.0
 40
64.0
 40
64.0
 40
65.0
 40
65.0
 40
65.0
 40
66.0
 40
66.0
 40
66.0
 40
67.0
 40
67.0
 40
67.0
 40
68.0
 40
68.0
 40
68.0
 40
69.0
 40
69.0
 40
69.0
 40
70.0
 40
70.0
 40
70.0
 40
71.0
 40
71.0
 40
71.0
 40
72.0
 40
72.0
 40
72.0
 40
73.0
 40
73.0
 40
73.0
 40
74.0
 40
74.0
 40
74.0
 40
75.0
 40
75.0
 40
75.0
 40
76.0
 40
76.0
 40
76.0
 40
77.0
 40
77.0
 40
77.0
 40
78.0
 40
78.0
 40
78.0
 40
79.0
 40
79.0
 40
79.0
 40
79.0
 10
125.7477077593617
 20
-153.2819444061239
 30
0.0
 10
125.7477077593617
 20
-153.2819444061239
 30
0.0
 10
125.4938042220987
 20
-153.2819444061239
 30
0.0
 10
125.4938042220987
 20
-153.2819444061239
 30
0.0
 10
125.4938042220987
 20
-153.2819444061239
 30
0.0
 10
125.2168185450847
 20
-153.2819444061239
 30
0.0
 10
125.2168185450847
 20
-153.2819444061239
 30
0.0
 10
125.2168185450847
 20
-153.2819444061239
 30
0.0
 10
125.3435980589419
 20
-153.3243190805925
 30
0.0
 10
125.3435980589419
 20
-153.3243190805925
 30
0.0
 10
125.3542778549461
 20
-153.3287977047234
 30
0.0
 10
125.366680198693
 20
-153.3349988765968
 30
0.0
 10
125.366680198693
 20
-153.3477457298922
 30
0.0
 10
125.366680198693
 20
-153.3687608123522
 30
0.0
 10
125.3349853202287
 20
-153.3753064937742
 30
0.0
 10
125.3139702377687
 20
-153.3794406083565
 30
0.0
 10
125.3032904417644
 20
-153.4025227481077
 30
0.0
 10
125.2736626205913
 20
-153.468324071876
 30
0.0
 10
125.2547145954224
 20
-153.5127658036357
 30
0.0
 10
125.2547145954224
 20
-153.5127658036357
 30
0.0
 10
125.525499100563
 20
-153.5127658036357
 30
0.0
 10
125.525499100563
 20
-153.5127658036357
 30
0.0
 10
125.6164496213737
 20
-153.5127658036357
 30
0.0
 10
125.8131645735814
 20
-153.5082871795049
 30
0.0
 10
125.9551025075737
 20
-153.5000189503403
 30
0.0
 10
125.9551025075737
 20
-153.5000189503403
 30
0.0
 10
125.9551025075737
 20
-153.6777858773791
 30
0.0
 10
125.9551025075737
 20
-153.6777858773791
 30
0.0
 10
125.8724202159277
 20
-153.6733072532483
 30
0.0
 10
125.8514051334677
 20
-153.6733072532483
 30
0.0
 10
125.6715711491376
 20
-153.669173138666
 30
0.0
 10
125.6398762706733
 20
-153.8235134164052
 30
0.0
 10
125.5954345389136
 20
-153.9041286507601
 30
0.0
 10
125.5509928071539
 20
-153.9737195795621
 30
0.0
 10
125.6715711491376
 20
-154.0329752219084
 30
0.0
 10
125.7773355805348
 20
-154.1008436029678
 30
0.0
 10
125.8810329546408
 20
-154.1831813850653
 30
0.0
 10
125.8810329546408
 20
-154.1831813850653
 30
0.0
 10
125.7625216699483
 20
-154.3502685160999
 30
0.0
 10
125.7625216699483
 20
-154.3502685160999
 30
0.0
 10
125.7390950206485
 20
-154.331320490931
 30
0.0
 10
125.7263481673531
 20
-154.3230522617664
 30
0.0
 10
125.6143825640825
 20
-154.2383029128293
 30
0.0
 10
125.5658067177405
 20
-154.200062352943
 30
0.0
 10
125.5065510753942
 20
-154.1642333598964
 30
0.0
 10
125.4259358410393
 20
-154.1197916281367
 30
0.0
 10
125.214406978245
 20
-154.3058267843402
 30
0.0
 10
125.0094237968726
 20
-154.3292534336399
 30
0.0
 10
124.7193467570146
 20
-154.358881254813
 30
0.0
 10
124.7193467570146
 20
-154.358881254813
 30
0.0
 10
124.6159938924571
 20
-154.179047270483
 30
0.0
 10
124.6159938924571
 20
-154.179047270483
 30
0.0
 10
124.9332871866486
 20
-154.1749131559007
 30
0.0
 10
125.1086425468478
 20
-154.1494194493099
 30
0.0
 10
125.2609157672958
 20
-154.0395209033304
 30
0.0
 10
125.1427489921518
 20
-153.9885334901487
 30
0.0
 10
125.0538655286324
 20
-153.9613172358152
 30
0.0
 10
125.0176920260372
 20
-153.9485703825198
 30
0.0
 10
124.9987440008683
 20
-153.9761311464018
 30
0.0
 10
124.9839300902818
 20
-153.9950791715707
 30
0.0
 10
124.9563693263998
 20
-154.0288411073261
 30
0.0
 10
124.9563693263998
 20
-154.0288411073261
 30
0.0
 10
124.759654374192
 20
-153.9465033252286
 30
0.0
 10
124.759654374192
 20
-153.9465033252286
 30
0.0
 10
124.842336665838
 20
-153.8658880908738
 30
0.0
 10
124.9036593654754
 20
-153.7708034554809
 30
0.0
 10
124.9608479505306
 20
-153.669173138666
 30
0.0
 10
124.7703341701963
 20
-153.6733072532483
 30
0.0
 10
124.7489745781877
 20
-153.6733072532483
 30
0.0
 10
124.6666367960903
 20
-153.6777858773791
 30
0.0
 10
124.6666367960903
 20
-153.6777858773791
 30
0.0
 10
124.6666367960903
 20
-153.5000189503403
 30
0.0
 10
124.6666367960903
 20
-153.5000189503403
 30
0.0
 10
124.8061631632429
 20
-153.5062201222137
 30
0.0
 10
125.0156249687461
 20
-153.5106987463445
 30
0.0
 10
125.0411186753369
 20
-153.5106987463445
 30
0.0
 10
125.0579996432146
 20
-153.4765923010406
 30
0.0
 10
125.1131211709787
 20
-153.3560139590568
 30
0.0
 10
125.1320691961475
 20
-153.2819444061239
 30
0.0
 10
125.1131211709787
 20
-153.2819444061239
 30
0.0
 10
124.9353542439398
 20
-153.2884900875459
 30
0.0
 10
124.7407063490231
 20
-153.3012369408413
 30
0.0
 10
124.7407063490231
 20
-153.3012369408413
 30
0.0
 10
124.7407063490231
 20
-153.4345621361205
 30
0.0
 10
124.7407063490231
 20
-153.4345621361205
 30
0.0
 10
124.6921305026811
 20
-153.4597113331628
 30
0.0
 10
124.6328748603348
 20
-153.4914062116271
 30
0.0
 10
124.4995496650556
 20
-153.5572075353954
 30
0.0
 10
124.4995496650556
 20
-153.5572075353954
 30
0.0
 10
124.4995496650556
 20
-153.7029350744215
 30
0.0
 10
124.4995496650556
 20
-153.7029350744215
 30
0.0
 10
124.4995496650556
 20
-153.7029350744215
 30
0.0
 10
124.4995496650556
 20
-154.1704345317699
 30
0.0
 10
124.4995496650556
 20
-154.1704345317699
 30
0.0
 10
124.4995496650556
 20
-154.2975585551756
 30
0.0
 10
124.4633761624605
 20
-154.3568141975219
 30
0.0
 10
124.180189313573
 20
-154.3482014588088
 30
0.0
 10
124.180189313573
 20
-154.3482014588088
 30
0.0
 10
124.076491939467
 20
-154.1411512201453
 30
0.0
 10
124.076491939467
 20
-154.1411512201453
 30
0.0
 10
124.1398816963956
 20
-154.1535535638921
 30
0.0
 10
124.1884575427376
 20
-154.158032188023
 30
0.0
 10
124.228765159915
 20
-154.158032188023
 30
0.0
 10
124.304901770139
 20
-154.158032188023
 30
0.0
 10
124.3155815661433
 20
-154.1346055387233
 30
0.0
 10
124.3155815661433
 20
-154.0691487245035
 30
0.0
 10
124.3155815661433
 20
-154.0691487245035
 30
0.0
 10
124.3155815661433
 20
-153.6395453174929
 30
0.0
 10
124.3155815661433
 20
-153.6395453174929
 30
0.0
 10
124.2180853639107
 20
-153.6798529346703
 30
0.0
 10
124.201204396033
 20
-153.6860541065437
 30
0.0
 10
124.1546956069821
 20
-153.7053466412612
 30
0.0
 10
124.1505614923998
 20
-153.7263617237212
 30
0.0
 10
124.146082868269
 20
-153.7559895448943
 30
0.0
 10
124.1271348431001
 20
-153.7559895448943
 30
0.0
 10
124.1188666139355
 20
-153.7559895448943
 30
0.0
 10
124.1081868179313
 20
-153.751855430312
 30
0.0
 10
124.1016411365093
 20
-153.7284287810123
 30
0.0
 10
124.1016411365093
 20
-153.7284287810123
 30
0.0
 10
124.048931175585
 20
-153.5358479433869
 30
0.0
 10
124.048931175585
 20
-153.5358479433869
 30
0.0
 10
124.1950032241596
 20
-153.489339154336
 30
0.0
 10
124.2604600383793
 20
-153.4662570145848
 30
0.0
 10
124.3155815661433
 20
-153.4448974225762
 30
0.0
 10
124.3155815661433
 20
-153.4448974225762
 30
0.0
 10
124.3155815661433
 20
-153.0325194929918
 30
0.0
 10
124.3155815661433
 20
-153.0325194929918
 30
0.0
 10
124.3155815661433
 20
-153.0325194929918
 30
0.0
 10
124.2625270956704
 20
-153.0325194929918
 30
0.0
 10
124.2625270956704
 20
-153.0325194929918
 30
0.0
 10
124.2625270956704
 20
-153.0325194929918
 30
0.0
 10
124.1843234281553
 20
-153.0325194929918
 30
0.0
 10
124.1843234281553
 20
-153.0325194929918
 30
0.0
 10
124.1164550470959
 20
-153.0325194929918
 30
0.0
 10
124.1081868179313
 20
-153.0325194929918
 30
0.0
 10
124.0720133153361
 20
-153.0387206648653
 30
0.0
 10
124.0720133153361
 20
-153.0387206648653
 30
0.0
 10
124.0720133153361
 20
-152.8440727699487
 30
0.0
 10
124.0720133153361
 20
-152.8440727699487
 30
0.0
 10
124.0995740792181
 20
-152.8506184513707
 30
0.0
 10
124.1081868179313
 20
-152.8506184513707
 30
0.0
 10
124.1777777467333
 20
-152.8506184513707
 30
0.0
 10
124.1777777467333
 20
-152.8506184513707
 30
0.0
 10
124.3111029420125
 20
-152.8506184513707
 30
0.0
 10
124.3111029420125
 20
-152.8506184513707
 30
0.0
 10
124.3111029420125
 20
-152.7806830130201
 30
0.0
 10
124.3111029420125
 20
-152.6983452309226
 30
0.0
 10
124.3090358847213
 20
-152.6938666067918
 30
0.0
 10
124.3007676555567
 20
-152.5140326224617
 30
0.0
 10
124.3007676555567
 20
-152.4950845972929
 30
0.0
 10
124.2983560887171
 20
-152.448575808242
 30
0.0
 10
124.2983560887171
 20
-152.448575808242
 30
0.0
 10
124.5143635756422
 20
-152.4571885469551
 30
0.0
 10
124.5143635756422
 20
-152.4571885469551
 30
0.0
 10
124.5250433716465
 20
-152.4571885469551
 30
0.0
 10
124.5460584541065
 20
-152.4592556042463
 30
0.0
 10
124.5460584541065
 20
-152.476136572124
 30
0.0
 10
124.5460584541065
 20
-152.4950845972929
 30
0.0
 10
124.53124454352
 20
-152.5057643932971
 30
0.0
 10
124.5057508369291
 20
-152.524712418466
 30
0.0
 10
124.5057508369291
 20
-152.5753553220992
 30
0.0
 10
124.4995496650556
 20
-152.8041096623198
 30
0.0
 10
124.5016167223468
 20
-152.8506184513707
 30
0.0
 10
124.6308078030437
 20
-152.8506184513707
 30
0.0
 10
124.6432101467906
 20
-152.8506184513707
 30
0.0
 10
124.7407063490231
 20
-152.8420057126576
 30
0.0
 10
124.7407063490231
 20
-152.8420057126576
 30
0.0
 10
124.7407063490231
 20
-153.0366536075742
 30
0.0
 10
124.7407063490231
 20
-153.0366536075742
 30
0.0
 10
124.7024657891369
 20
-153.034586550283
 30
0.0
 10
124.634941917626
 20
-153.0304524357007
 30
0.0
 10
124.4995496650556
 20
-153.0325194929918
 30
0.0
 10
124.4995496650556
 20
-153.0325194929918
 30
0.0
 10
124.4995496650556
 20
-153.3708278696434
 30
0.0
 10
124.4995496650556
 20
-153.3708278696434
 30
0.0
 10
124.5543266832711
 20
-153.3477457298922
 30
0.0
 10
124.6201280070394
 20
-153.3201849660102
 30
0.0
 10
124.6687038533814
 20
-153.2967583167105
 30
0.0
 10
124.6687038533814
 20
-153.2967583167105
 30
0.0
 10
124.6687038533814
 20
-153.1193358992202
 30
0.0
 10
124.6687038533814
 20
-153.1193358992202
 30
0.0
 10
124.7830810234917
 20
-153.131738242967
 30
0.0
 10
124.9015923081843
 20
-153.131738242967
 30
0.0
 10
125.0176920260372
 20
-153.131738242967
 30
0.0
 10
124.9946098862861
 20
-153.0366536075742
 30
0.0
 10
124.9670491224041
 20
-152.9543158254767
 30
0.0
 10
124.9036593654754
 20
-152.8209906301975
 30
0.0
 10
124.8592176337157
 20
-152.8230576874887
 30
0.0
 10
124.7765353420697
 20
-152.827191802071
 30
0.0
 10
124.738639291732
 20
-152.8292588593621
 30
0.0
 10
124.738639291732
 20
-152.8292588593621
 30
0.0
 10
124.738639291732
 20
-152.6494248750321
 30
0.0
 10
124.738639291732
 20
-152.6494248750321
 30
0.0
 10
124.863351748298
 20
-152.6580376137452
 30
0.0
 10
125.0369845607546
 20
-152.6621717283275
 30
0.0
 10
125.1193223428521
 20
-152.6621717283275
 30
0.0
 10
125.1193223428521
 20
-152.6621717283275
 30
0.0
 10
125.2020046344981
 20
-152.6621717283275
 30
0.0
 10
125.2020046344981
 20
-152.6621717283275
 30
0.0
 10
125.2020046344981
 20
-152.4992187118752
 30
0.0
 10
125.2020046344981
 20
-152.4888834254194
 30
0.0
 10
125.1995930676584
 20
-152.4337618976554
 30
0.0
 10
125.1995930676584
 20
-152.4337618976554
 30
0.0
 10
125.4238687837482
 20
-152.4592556042463
 30
0.0
 10
125.4238687837482
 20
-152.4592556042463
 30
0.0
 10
125.428347407879
 20
-152.4592556042463
 30
0.0
 10
125.449362490339
 20
-152.4613226615374
 30
0.0
 10
125.449362490339
 20
-152.4782036294152
 30
0.0
 10
125.449362490339
 20
-152.4930175400017
 30
0.0
 10
125.4386826943348
 20
-152.5016302787149
 30
0.0
 10
125.4111219304528
 20
-152.5164441893014
 30
0.0
 10
125.4049207585793
 20
-152.5819010035212
 30
0.0
 10
125.4028537012882
 20
-152.6029160859812
 30
0.0
 10
125.4028537012882
 20
-152.6621717283275
 30
0.0
 10
125.4028537012882
 20
-152.6621717283275
 30
0.0
 10
125.4979383366811
 20
-152.6621717283275
 30
0.0
 10
125.4979383366811
 20
-152.6621717283275
 30
0.0
 10
125.580620628327
 20
-152.6621717283275
 30
0.0
 10
125.7539089312351
 20
-152.6580376137452
 30
0.0
 10
125.8789658973497
 20
-152.6494248750321
 30
0.0
 10
125.8789658973497
 20
-152.6494248750321
 30
0.0
 10
125.8789658973497
 20
-152.8292588593621
 30
0.0
 10
125.8789658973497
 20
-152.8292588593621
 30
0.0
 10
125.8493380761765
 20
-152.827191802071
 30
0.0
 10
125.7308267914839
 20
-152.8230576874887
 30
0.0
 10
125.6905191743065
 20
-152.8209906301975
 30
0.0
 10
125.6757052637199
 20
-152.8716335338307
 30
0.0
 10
125.6419433279645
 20
-152.9839436466498
 30
0.0
 10
125.5761420041962
 20
-153.1234700138024
 30
0.0
 10
125.6185166786648
 20
-153.1234700138024
 30
0.0
 10
125.8958468652274
 20
-153.1045219886336
 30
0.0
 10
125.9571695648649
 20
-153.1021104217939
 30
0.0
 10
125.9571695648649
 20
-153.1021104217939
 30
0.0
 10
125.9571695648649
 20
-153.2864230302548
 30
0.0
 10
125.9571695648649
 20
-153.2864230302548
 30
0.0
 10
125.9275417436917
 20
-153.2864230302548
 30
0.0
 10
125.910660775814
 20
-153.2819444061239
 30
0.0
 10
125.7477077593617
 20
-153.2819444061239
 30
0.0
  0
HATCH
  5
167
330
160
100
AcDbEntity
  8
レイヤー 1
 62
    18
420
        0
440
 33554687
100
AcDbHatch
 10
0.0
 20
0.0
 30
0.0
210
0.0
220
0.0
230
1.0
  2
SOLID
 70
     1
 71
     1
 91
        3
 92
        1
 93
        1
 72
     4
 94
        3
 73
     0
 74
     0
 95
       17
 96
       13
 40
0.0
 40
0.0
 40
0.0
 40
0.0
 40
1.0
 40
1.0
 40
1.0
 40
2.0
 40
2.0
 40
2.0
 40
3.0
 40
3.0
 40
3.0
 40
4.0
 40
4.0
 40
4.0
 40
4.0
 10
125.1827120997807
 20
-153.6671060813749
 10
125.165831131903
 20
-153.696733902548
 10
125.1151882282698
 20
-153.7897514806498
 10
125.1045084322655
 20
-153.8086995058186
 10
125.2950222125998
 20
-153.8679551481649
 10
125.3160372950599
 20
-153.8745008295869
 10
125.3880397907016
 20
-153.9020615934689
 10
125.4431613184656
 20
-153.8152451872406
 10
125.4662434582167
 20
-153.7411756343078
 10
125.4810573688033
 20
-153.6671060813749
 10
125.4810573688033
 20
-153.6671060813749
 10
125.1827120997807
 20
-153.6671060813749
 10
125.1827120997807
 20
-153.6671060813749
 97
        0
 97
        1
330
164
 92
        1
 93
        1
 72
     4
 94
        3
 73
     0
 74
     0
 95
       20
 96
       16
 40
0.0
 40
0.0
 40
0.0
 40
0.0
 40
1.0
 40
1.0
 40
1.0
 40
2.0
 40
2.0
 40
2.0
 40
3.0
 40
3.0
 40
3.0
 40
4.0
 40
4.0
 40
4.0
 40
5.0
 40
5.0
 40
5.0
 40
5.0
 10
125.1193223428521
 20
-152.8165120060667
 10
125.1193223428521
 20
-152.8165120060667
 10
125.0876274643878
 20
-152.8165120060667
 10
125.0876274643878
 20
-152.8165120060667
 10
125.1341362534387
 20
-152.9160752655904
 10
125.165831131903
 20
-152.9963459903967
 10
125.1995930676584
 20
-153.1234700138024
 10
125.1995930676584
 20
-153.1234700138024
 10
125.4069878158704
 20
-153.1234700138024
 10
125.4069878158704
 20
-153.1234700138024
 10
125.4386826943348
 20
-153.0304524357007
 10
125.4621093436345
 20
-152.9457030867636
 10
125.4851914833856
 20
-152.8165120060667
 10
125.4851914833856
 20
-152.8165120060667
 10
125.1193223428521
 20
-152.8165120060667
 10
125.1193223428521
 20
-152.8165120060667
 97
        0
 97
        1
330
165
 92
        1
 93
        1
 72
     4
 94
        3
 73
     0
 74
     0
 95
      242
 96
      238
 40
0.0
 40
0.0
 40
0.0
 40
0.0
 40
1.0
 40
1.0
 40
1.0
 40
2.0
 40
2.0
 40
2.0
 40
3.0
 40
3.0
 40
3.0
 40
4.0
 40
4.0
 40
4.0
 40
5.0
 40
5.0
 40
5.0
 40
6.0
 40
6.0
 40
6.0
 40
7.0
 40
7.0
 40
7.0
 40
8.0
 40
8.0
 40
8.0
 40
9.0
 40
9.0
 40
9.0
 40
10.0
 40
10.0
 40
10.0
 40
11.0
 40
11.0
 40
11.0
 40
12.0
 40
12.0
 40
12.0
 40
13.0
 40
13.0
 40
13.0
 40
14.0
 40
14.0
 40
14.0
 40
15.0
 40
15.0
 40
15.0
 40
16.0
 40
16.0
 40
16.0
 40
17.0
 40
17.0
 40
17.0
 40
18.0
 40
18.0
 40
18.0
 40
19.0
 40
19.0
 40
19.0
 40
20.0
 40
20.0
 40
20.0
 40
21.0
 40
21.0
 40
21.0
 40
22.0
 40
22.0
 40
22.0
 40
23.0
 40
23.0
 40
23.0
 40
24.0
 40
24.0
 40
24.0
 40
25.0
 40
25.0
 40
25.0
 40
26.0
 40
26.0
 40
26.0
 40
27.0
 40
27.0
 40
27.0
 40
28.0
 40
28.0
 40
28.0
 40
29.0
 40
29.0
 40
29.0
 40
30.0
 40
30.0
 40
30.0
 40
31.0
 40
31.0
 40
31.0
 40
32.0
 40
32.0
 40
32.0
 40
33.0
 40
33.0
 40
33.0
 40
34.0
 40
34.0
 40
34.0
 40
35.0
 40
35.0
 40
35.0
 40
36.0
 40
36.0
 40
36.0
 40
37.0
 40
37.0
 40
37.0
 40
38.0
 40
38.0
 40
38.0
 40
39.0
 40
39.0
 40
39.0
 40
40.0
 40
40.0
 40
40.0
 40
41.0
 40
41.0
 40
41.0
 40
42.0
 40
42.0
 40
42.0
 40
43.0
 40
43.0
 40
43.0
 40
44.0
 40
44.0
 40
44.0
 40
45.0
 40
45.0
 40
45.0
 40
46.0
 40
46.0
 40
46.0
 40
47.0
 40
47.0
 40
47.0
 40
48.0
 40
48.0
 40
48.0
 40
49.0
 40
49.0
 40
49.0
 40
50.0
 40
50.0
 40
50.0
 40
51.0
 40
51.0
 40
51.0
 40
52.0
 40
52.0
 40
52.0
 40
53.0
 40
53.0
 40
53.0
 40
54.0
 40
54.0
 40
54.0
 40
55.0
 40
55.0
 40
55.0
 40
56.0
 40
56.0
 40
56.0
 40
57.0
 40
57.0
 40
57.0
 40
58.0
 40
58.0
 40
58.0
 40
59.0
 40
59.0
 40
59.0
 40
60.0
 40
60.0
 40
60.0
 40
61.0
 40
61.0
 40
61.0
 40
62.0
 40
62.0
 40
62.0
 40
63.0
 40
63.0
 40
63.0
 40
64.0
 40
64.0
 40
64.0
 40
65.0
 40
65.0
 40
65.0
 40
66.0
 40
66.0
 40
66.0
 40
67.0
 40
67.0
 40
67.0
 40
68.0
 40
68.0
 40
68.0
 40
69.0
 40
69.0
 40
69.0
 40
70.0
 40
70.0
 40
70.0
 40
71.0
 40
71.0
 40
71.0
 40
72.0
 40
72.0
 40
72.0
 40
73.0
 40
73.0
 40
73.0
 40
74.0
 40
74.0
 40
74.0
 40
75.0
 40
75.0
 40
75.0
 40
76.0
 40
76.0
 40
76.0
 40
77.0
 40
77.0
 40
77.0
 40
78.0
 40
78.0
 40
78.0
 40
79.0
 40
79.0
 40
79.0
 40
79.0
 10
125.7477077593617
 20
-153.2819444061239
 10
125.7477077593617
 20
-153.2819444061239
 10
125.4938042220987
 20
-153.2819444061239
 10
125.4938042220987
 20
-153.2819444061239
 10
125.4938042220987
 20
-153.2819444061239
 10
125.2168185450847
 20
-153.2819444061239
 10
125.2168185450847
 20
-153.2819444061239
 10
125.2168185450847
 20
-153.2819444061239
 10
125.3435980589419
 20
-153.3243190805925
 10
125.3435980589419
 20
-153.3243190805925
 10
125.3542778549461
 20
-153.3287977047234
 10
125.366680198693
 20
-153.3349988765968
 10
125.366680198693
 20
-153.3477457298922
 10
125.366680198693
 20
-153.3687608123522
 10
125.3349853202287
 20
-153.3753064937742
 10
125.3139702377687
 20
-153.3794406083565
 10
125.3032904417644
 20
-153.4025227481077
 10
125.2736626205913
 20
-153.468324071876
 10
125.2547145954224
 20
-153.5127658036357
 10
125.2547145954224
 20
-153.5127658036357
 10
125.525499100563
 20
-153.5127658036357
 10
125.525499100563
 20
-153.5127658036357
 10
125.6164496213737
 20
-153.5127658036357
 10
125.8131645735814
 20
-153.5082871795049
 10
125.9551025075737
 20
-153.5000189503403
 10
125.9551025075737
 20
-153.5000189503403
 10
125.9551025075737
 20
-153.6777858773791
 10
125.9551025075737
 20
-153.6777858773791
 10
125.8724202159277
 20
-153.6733072532483
 10
125.8514051334677
 20
-153.6733072532483
 10
125.6715711491376
 20
-153.669173138666
 10
125.6398762706733
 20
-153.8235134164052
 10
125.5954345389136
 20
-153.9041286507601
 10
125.5509928071539
 20
-153.9737195795621
 10
125.6715711491376
 20
-154.0329752219084
 10
125.7773355805348
 20
-154.1008436029678
 10
125.8810329546408
 20
-154.1831813850653
 10
125.8810329546408
 20
-154.1831813850653
 10
125.7625216699483
 20
-154.3502685160999
 10
125.7625216699483
 20
-154.3502685160999
 10
125.7390950206485
 20
-154.331320490931
 10
125.7263481673531
 20
-154.3230522617664
 10
125.6143825640825
 20
-154.2383029128293
 10
125.5658067177405
 20
-154.200062352943
 10
125.5065510753942
 20
-154.1642333598964
 10
125.4259358410393
 20
-154.1197916281367
 10
125.214406978245
 20
-154.3058267843402
 10
125.0094237968726
 20
-154.3292534336399
 10
124.7193467570146
 20
-154.358881254813
 10
124.7193467570146
 20
-154.358881254813
 10
124.6159938924571
 20
-154.179047270483
 10
124.6159938924571
 20
-154.179047270483
 10
124.9332871866486
 20
-154.1749131559007
 10
125.1086425468478
 20
-154.1494194493099
 10
125.2609157672958
 20
-154.0395209033304
 10
125.1427489921518
 20
-153.9885334901487
 10
125.0538655286324
 20
-153.9613172358152
 10
125.0176920260372
 20
-153.9485703825198
 10
124.9987440008683
 20
-153.9761311464018
 10
124.9839300902818
 20
-153.9950791715707
 10
124.9563693263998
 20
-154.0288411073261
 10
124.9563693263998
 20
-154.0288411073261
 10
124.759654374192
 20
-153.9465033252286
 10
124.759654374192
 20
-153.9465033252286
 10
124.842336665838
 20
-153.8658880908738
 10
124.9036593654754
 20
-153.7708034554809
 10
124.9608479505306
 20
-153.669173138666
 10
124.7703341701963
 20
-153.6733072532483
 10
124.7489745781877
 20
-153.6733072532483
 10
124.6666367960903
 20
-153.6777858773791
 10
124.6666367960903
 20
-153.6777858773791
 10
124.6666367960903
 20
-153.5000189503403
 10
124.6666367960903
 20
-153.5000189503403
 10
124.8061631632429
 20
-153.5062201222137
 10
125.0156249687461
 20
-153.5106987463445
 10
125.0411186753369
 20
-153.5106987463445
 10
125.0579996432146
 20
-153.4765923010406
 10
125.1131211709787
 20
-153.3560139590568
 10
125.1320691961475
 20
-153.2819444061239
 10
125.1131211709787
 20
-153.2819444061239
 10
124.9353542439398
 20
-153.2884900875459
 10
124.7407063490231
 20
-153.3012369408413
 10
124.7407063490231
 20
-153.3012369408413
 10
124.7407063490231
 20
-153.4345621361205
 10
124.7407063490231
 20
-153.4345621361205
 10
124.6921305026811
 20
-153.4597113331628
 10
124.6328748603348
 20
-153.4914062116271
 10
124.4995496650556
 20
-153.5572075353954
 10
124.4995496650556
 20
-153.5572075353954
 10
124.4995496650556
 20
-153.7029350744215
 10
124.4995496650556
 20
-153.7029350744215
 10
124.4995496650556
 20
-153.7029350744215
 10
124.4995496650556
 20
-154.1704345317699
 10
124.4995496650556
 20
-154.1704345317699
 10
124.4995496650556
 20
-154.2975585551756
 10
124.4633761624605
 20
-154.3568141975219
 10
124.180189313573
 20
-154.3482014588088
 10
124.180189313573
 20
-154.3482014588088
 10
124.076491939467
 20
-154.1411512201453
 10
124.076491939467
 20
-154.1411512201453
 10
124.1398816963956
 20
-154.1535535638921
 10
124.1884575427376
 20
-154.158032188023
 10
124.228765159915
 20
-154.158032188023
 10
124.304901770139
 20
-154.158032188023
 10
124.3155815661433
 20
-154.1346055387233
 10
124.3155815661433
 20
-154.0691487245035
 10
124.3155815661433
 20
-154.0691487245035
 10
124.3155815661433
 20
-153.6395453174929
 10
124.3155815661433
 20
-153.6395453174929
 10
124.2180853639107
 20
-153.6798529346703
 10
124.201204396033
 20
-153.6860541065437
 10
124.1546956069821
 20
-153.7053466412612
 10
124.1505614923998
 20
-153.7263617237212
 10
124.146082868269
 20
-153.7559895448943
 10
124.1271348431001
 20
-153.7559895448943
 10
124.1188666139355
 20
-153.7559895448943
 10
124.1081868179313
 20
-153.751855430312
 10
124.1016411365093
 20
-153.7284287810123
 10
124.1016411365093
 20
-153.7284287810123
 10
124.048931175585
 20
-153.5358479433869
 10
124.048931175585
 20
-153.5358479433869
 10
124.1950032241596
 20
-153.489339154336
 10
124.2604600383793
 20
-153.4662570145848
 10
124.3155815661433
 20
-153.4448974225762
 10
124.3155815661433
 20
-153.4448974225762
 10
124.3155815661433
 20
-153.0325194929918
 10
124.3155815661433
 20
-153.0325194929918
 10
124.3155815661433
 20
-153.0325194929918
 10
124.2625270956704
 20
-153.0325194929918
 10
124.2625270956704
 20
-153.0325194929918
 10
124.2625270956704
 20
-153.0325194929918
 10
124.1843234281553
 20
-153.0325194929918
 10
124.1843234281553
 20
-153.0325194929918
 10
124.1164550470959
 20
-153.0325194929918
 10
124.1081868179313
 20
-153.0325194929918
 10
124.0720133153361
 20
-153.0387206648653
 10
124.0720133153361
 20
-153.0387206648653
 10
124.0720133153361
 20
-152.8440727699487
 10
124.0720133153361
 20
-152.8440727699487
 10
124.0995740792181
 20
-152.8506184513707
 10
124.1081868179313
 20
-152.8506184513707
 10
124.1777777467333
 20
-152.8506184513707
 10
124.1777777467333
 20
-152.8506184513707
 10
124.3111029420125
 20
-152.8506184513707
 10
124.3111029420125
 20
-152.8506184513707
 10
124.3111029420125
 20
-152.7806830130201
 10
124.3111029420125
 20
-152.6983452309226
 10
124.3090358847213
 20
-152.6938666067918
 10
124.3007676555567
 20
-152.5140326224617
 10
124.3007676555567
 20
-152.4950845972929
 10
124.2983560887171
 20
-152.448575808242
 10
124.2983560887171
 20
-152.448575808242
 10
124.5143635756422
 20
-152.4571885469551
 10
124.5143635756422
 20
-152.4571885469551
 10
124.5250433716465
 20
-152.4571885469551
 10
124.5460584541065
 20
-152.4592556042463
 10
124.5460584541065
 20
-152.476136572124
 10
124.5460584541065
 20
-152.4950845972929
 10
124.53124454352
 20
-152.5057643932971
 10
124.5057508369291
 20
-152.524712418466
 10
124.5057508369291
 20
-152.5753553220992
 10
124.4995496650556
 20
-152.8041096623198
 10
124.5016167223468
 20
-152.8506184513707
 10
124.6308078030437
 20
-152.8506184513707
 10
124.6432101467906
 20
-152.8506184513707
 10
124.7407063490231
 20
-152.8420057126576
 10
124.7407063490231
 20
-152.8420057126576
 10
124.7407063490231
 20
-153.0366536075742
 10
124.7407063490231
 20
-153.0366536075742
 10
124.7024657891369
 20
-153.034586550283
 10
124.634941917626
 20
-153.0304524357007
 10
124.4995496650556
 20
-153.0325194929918
 10
124.4995496650556
 20
-153.0325194929918
 10
124.4995496650556
 20
-153.3708278696434
 10
124.4995496650556
 20
-153.3708278696434
 10
124.5543266832711
 20
-153.3477457298922
 10
124.6201280070394
 20
-153.3201849660102
 10
124.6687038533814
 20
-153.2967583167105
 10
124.6687038533814
 20
-153.2967583167105
 10
124.6687038533814
 20
-153.1193358992202
 10
124.6687038533814
 20
-153.1193358992202
 10
124.7830810234917
 20
-153.131738242967
 10
124.9015923081843
 20
-153.131738242967
 10
125.0176920260372
 20
-153.131738242967
 10
124.9946098862861
 20
-153.0366536075742
 10
124.9670491224041
 20
-152.9543158254767
 10
124.9036593654754
 20
-152.8209906301975
 10
124.8592176337157
 20
-152.8230576874887
 10
124.7765353420697
 20
-152.827191802071
 10
124.738639291732
 20
-152.8292588593621
 10
124.738639291732
 20
-152.8292588593621
 10
124.738639291732
 20
-152.6494248750321
 10
124.738639291732
 20
-152.6494248750321
 10
124.863351748298
 20
-152.6580376137452
 10
125.0369845607546
 20
-152.6621717283275
 10
125.1193223428521
 20
-152.6621717283275
 10
125.1193223428521
 20
-152.6621717283275
 10
125.2020046344981
 20
-152.6621717283275
 10
125.2020046344981
 20
-152.6621717283275
 10
125.2020046344981
 20
-152.4992187118752
 10
125.2020046344981
 20
-152.4888834254194
 10
125.1995930676584
 20
-152.4337618976554
 10
125.1995930676584
 20
-152.4337618976554
 10
125.4238687837482
 20
-152.4592556042463
 10
125.4238687837482
 20
-152.4592556042463
 10
125.428347407879
 20
-152.4592556042463
 10
125.449362490339
 20
-152.4613226615374
 10
125.449362490339
 20
-152.4782036294152
 10
125.449362490339
 20
-152.4930175400017
 10
125.4386826943348
 20
-152.5016302787149
 10
125.4111219304528
 20
-152.5164441893014
 10
125.4049207585793
 20
-152.5819010035212
 10
125.4028537012882
 20
-152.6029160859812
 10
125.4028537012882
 20
-152.6621717283275
 10
125.4028537012882
 20
-152.6621717283275
 10
125.4979383366811
 20
-152.6621717283275
 10
125.4979383366811
 20
-152.6621717283275
 10
125.580620628327
 20
-152.6621717283275
 10
125.7539089312351
 20
-152.6580376137452
 10
125.8789658973497
 20
-152.6494248750321
 10
125.8789658973497
 20
-152.6494248750321
 10
125.8789658973497
 20
-152.8292588593621
 10
125.8789658973497
 20
-152.8292588593621
 10
125.8493380761765
 20
-152.827191802071
 10
125.7308267914839
 20
-152.8230576874887
 10
125.6905191743065
 20
-152.8209906301975
 10
125.6757052637199
 20
-152.8716335338307
 10
125.6419433279645
 20
-152.9839436466498
 10
125.5761420041962
 20
-153.1234700138024
 10
125.6185166786648
 20
-153.1234700138024
 10
125.8958468652274
 20
-153.1045219886336
 10
125.9571695648649
 20
-153.1021104217939
 10
125.9571695648649
 20
-153.1021104217939
 10
125.9571695648649
 20
-153.2864230302548
 10
125.9571695648649
 20
-153.2864230302548
 10
125.9275417436917
 20
-153.2864230302548
 10
125.910660775814
 20
-153.2819444061239
 10
125.7477077593617
 20
-153.2819444061239
 97
        0
 97
        1
330
166
 75
     2
 76
     1
 98
        1
 10
0.0
 20
0.0
450
        0
451
        0
460
0.0
461
0.0
452
        0
462
0.0
453
        0
470

  0
SPLINE
  5
168
330
160
100
AcDbEntity
  8
レイヤー 1
100
AcDbSpline
210
0.0
220
0.0
230
1.0
 70
    11
 71
     3
 72
    17
 73
    13
 74
     0
 42
0.0000000001
 43
0.0000000001
 40
0.0
 40
0.0
 40
0.0
 40
0.0
 40
1.0
 40
1.0
 40
1.0
 40
2.0
 40
2.0
 40
2.0
 40
3.0
 40
3.0
 40
3.0
 40
4.0
 40
4.0
 40
4.0
 40
4.0
 10
127.6042697163628
 20
-154.081895577799
 30
0.0
 10
127.6042697163628
 20
-154.081895577799
 30
0.0
 10
126.8976806323381
 20
-154.081895577799
 30
0.0
 10
126.8976806323381
 20
-154.081895577799
 30
0.0
 10
126.8976806323381
 20
-154.081895577799
 30
0.0
 10
126.8976806323381
 20
-154.1959282383607
 30
0.0
 10
126.8976806323381
 20
-154.1959282383607
 30
0.0
 10
126.8976806323381
 20
-154.1959282383607
 30
0.0
 10
127.6042697163628
 20
-154.1959282383607
 30
0.0
 10
127.6042697163628
 20
-154.1959282383607
 30
0.0
 10
127.6042697163628
 20
-154.1959282383607
 30
0.0
 10
127.6042697163628
 20
-154.081895577799
 30
0.0
 10
127.6042697163628
 20
-154.081895577799
 30
0.0
  0
SPLINE
  5
169
330
160
100
AcDbEntity
  8
レイヤー 1
100
AcDbSpline
210
0.0
220
0.0
230
1.0
 70
    11
 71
     3
 72
    17
 73
    13
 74
     0
 42
0.0000000001
 43
0.0000000001
 40
0.0
 40
0.0
 40
0.0
 40
0.0
 40
1.0
 40
1.0
 40
1.0
 40
2.0
 40
2.0
 40
2.0
 40
3.0
 40
3.0
 40
3.0
 40
4.0
 40
4.0
 40
4.0
 40
4.0
 10
127.6042697163628
 20
-153.8383273269918
 30
0.0
 10
127.6042697163628
 20
-153.8383273269918
 30
0.0
 10
126.8976806323381
 20
-153.8383273269918
 30
0.0
 10
126.8976806323381
 20
-153.8383273269918
 30
0.0
 10
126.8976806323381
 20
-153.8383273269918
 30
0.0
 10
126.8976806323381
 20
-153.9527044971021
 30
0.0
 10
126.8976806323381
 20
-153.9527044971021
 30
0.0
 10
126.8976806323381
 20
-153.9527044971021
 30
0.0
 10
127.6042697163628
 20
-153.9527044971021
 30
0.0
 10
127.6042697163628
 20
-153.9527044971021
 30
0.0
 10
127.6042697163628
 20
-153.9527044971021
 30
0.0
 10
127.6042697163628
 20
-153.8383273269918
 30
0.0
 10
127.6042697163628
 20
-153.8383273269918
 30
0.0
  0
SPLINE
  5
16A
330
160
100
AcDbEntity
  8
レイヤー 1
100
AcDbSpline
210
0.0
220
0.0
230
1.0
 70
    11
 71
     3
 72
    17
 73
    13
 74
     0
 42
0.0000000001
 43
0.0000000001
 40
0.0
 40
0.0
 40
0.0
 40
0.0
 40
1.0
 40
1.0
 40
1.0
 40
2.0
 40
2.0
 40
2.0
 40
3.0
 40
3.0
 40
3.0
 40
4.0
 40
4.0
 40
4.0
 40
4.0
 10
127.6042697163628
 20
-153.6057833817374
 30
0.0
 10
127.6042697163628
 20
-153.6057833817374
 30
0.0
 10
126.8976806323381
 20
-153.6057833817374
 30
0.0
 10
126.8976806323381
 20
-153.6057833817374
 30
0.0
 10
126.8976806323381
 20
-153.6057833817374
 30
0.0
 10
126.8976806323381
 20
-153.7136148704258
 30
0.0
 10
126.8976806323381
 20
-153.7136148704258
 30
0.0
 10
126.8976806323381
 20
-153.7136148704258
 30
0.0
 10
127.6042697163628
 20
-153.7136148704258
 30
0.0
 10
127.6042697163628
 20
-153.7136148704258
 30
0.0
 10
127.6042697163628
 20
-153.7136148704258
 30
0.0
 10
127.6042697163628
 20
-153.6057833817374
 30
0.0
 10
127.6042697163628
 20
-153.6057833817374
 30
0.0
  0
SPLINE
  5
16B
330
160
100
AcDbEntity
  8
レイヤー 1
100
AcDbSpline
210
0.0
220
0.0
230
1.0
 70
     9
 71
     3
 72
   203
 73
   199
 74
     0
 42
0.0000000001
 43
0.0000000001
 40
0.0
 40
0.0
 40
0.0
 40
0.0
 40
1.0
 40
1.0
 40
1.0
 40
2.0
 40
2.0
 40
2.0
 40
3.0
 40
3.0
 40
3.0
 40
4.0
 40
4.0
 40
4.0
 40
5.0
 40
5.0
 40
5.0
 40
6.0
 40
6.0
 40
6.0
 40
7.0
 40
7.0
 40
7.0
 40
8.0
 40
8.0
 40
8.0
 40
9.0
 40
9.0
 40
9.0
 40
10.0
 40
10.0
 40
10.0
 40
11.0
 40
11.0
 40
11.0
 40
12.0
 40
12.0
 40
12.0
 40
13.0
 40
13.0
 40
13.0
 40
14.0
 40
14.0
 40
14.0
 40
15.0
 40
15.0
 40
15.0
 40
16.0
 40
16.0
 40
16.0
 40
17.0
 40
17.0
 40
17.0
 40
18.0
 40
18.0
 40
18.0
 40
19.0
 40
19.0
 40
19.0
 40
20.0
 40
20.0
 40
20.0
 40
21.0
 40
21.0
 40
21.0
 40
22.0
 40
22.0
 40
22.0
 40
23.0
 40
23.0
 40
23.0
 40
24.0
 40
24.0
 40
24.0
 40
25.0
 40
25.0
 40
25.0
 40
26.0
 40
26.0
 40
26.0
 40
27.0
 40
27.0
 40
27.0
 40
28.0
 40
28.0
 40
28.0
 40
29.0
 40
29.0
 40
29.0
 40
30.0
 40
30.0
 40
30.0
 40
31.0
 40
31.0
 40
31.0
 40
32.0
 40
32.0
 40
32.0
 40
33.0
 40
33.0
 40
33.0
 40
34.0
 40
34.0
 40
34.0
 40
35.0
 40
35.0
 40
35.0
 40
36.0
 40
36.0
 40
36.0
 40
37.0
 40
37.0
 40
37.0
 40
38.0
 40
38.0
 40
38.0
 40
39.0
 40
39.0
 40
39.0
 40
40.0
 40
40.0
 40
40.0
 40
41.0
 40
41.0
 40
41.0
 40
42.0
 40
42.0
 40
42.0
 40
43.0
 40
43.0
 40
43.0
 40
44.0
 40
44.0
 40
44.0
 40
45.0
 40
45.0
 40
45.0
 40
46.0
 40
46.0
 40
46.0
 40
47.0
 40
47.0
 40
47.0
 40
48.0
 40
48.0
 40
48.0
 40
49.0
 40
49.0
 40
49.0
 40
50.0
 40
50.0
 40
50.0
 40
51.0
 40
51.0
 40
51.0
 40
52.0
 40
52.0
 40
52.0
 40
53.0
 40
53.0
 40
53.0
 40
54.0
 40
54.0
 40
54.0
 40
55.0
 40
55.0
 40
55.0
 40
56.0
 40
56.0
 40
56.0
 40
57.0
 40
57.0
 40
57.0
 40
58.0
 40
58.0
 40
58.0
 40
59.0
 40
59.0
 40
59.0
 40
60.0
 40
60.0
 40
60.0
 40
61.0
 40
61.0
 40
61.0
 40
62.0
 40
62.0
 40
62.0
 40
63.0
 40
63.0
 40
63.0
 40
64.0
 40
64.0
 40
64.0
 40
65.0
 40
65.0
 40
65.0
 40
66.0
 40
66.0
 40
66.0
 40
66.0
 10
127.4392496426193
 20
-153.3498127871834
 30
0.0
 10
127.4392496426193
 20
-153.3498127871834
 30
0.0
 10
126.8804551549118
 20
-153.3498127871834
 30
0.0
 10
126.8804551549118
 20
-153.3498127871834
 30
0.0
 10
126.8701198684561
 20
-153.3942545189431
 30
0.0
 10
126.8615071297429
 20
-153.4259493974074
 30
0.0
 10
126.8487602764475
 20
-153.4641899572937
 30
0.0
 10
126.8742539830384
 20
-153.4641899572937
 30
0.0
 10
126.8890678936249
 20
-153.4662570145848
 30
0.0
 10
126.8952690654984
 20
-153.4662570145848
 30
0.0
 10
126.8952690654984
 20
-153.4662570145848
 30
0.0
 10
127.0837157885416
 20
-153.4662570145848
 30
0.0
 10
127.0837157885416
 20
-153.4662570145848
 30
0.0
 10
127.0837157885416
 20
-153.4662570145848
 30
0.0
 10
127.4581976677882
 20
-153.4662570145848
 30
0.0
 10
127.4581976677882
 20
-153.4662570145848
 30
0.0
 10
127.5088405714214
 20
-153.4662570145848
 30
0.0
 10
127.7923719298574
 20
-153.4535101612894
 30
0.0
 10
127.8240668083217
 20
-153.4535101612894
 30
0.0
 10
127.8219997510306
 20
-153.4810709251714
 30
0.0
 10
127.8199326937394
 20
-153.5000189503403
 30
0.0
 10
127.8199326937394
 20
-153.5296467715134
 30
0.0
 10
127.8178656364483
 20
-153.5613416499777
 30
0.0
 10
127.8178656364483
 20
-153.696733902548
 30
0.0
 10
127.8178656364483
 20
-153.72429466643
 30
0.0
 10
127.8178656364483
 20
-153.72429466643
 30
0.0
 10
127.8178656364483
 20
-153.9695854649798
 30
0.0
 10
127.8178656364483
 20
-153.9695854649798
 30
0.0
 10
127.8178656364483
 20
-154.0140271967395
 30
0.0
 10
127.8219997510306
 20
-154.2107421489473
 30
0.0
 10
127.8261338656129
 20
-154.3630153693953
 30
0.0
 10
127.8261338656129
 20
-154.3630153693953
 30
0.0
 10
127.599791092232
 20
-154.3630153693953
 30
0.0
 10
127.599791092232
 20
-154.3630153693953
 30
0.0
 10
127.599791092232
 20
-154.3630153693953
 30
0.0
 10
127.6018581495231
 20
-154.3292534336399
 30
0.0
 10
127.6018581495231
 20
-154.3292534336399
 30
0.0
 10
127.6018581495231
 20
-154.3292534336399
 30
0.0
 10
126.8997476896292
 20
-154.3292534336399
 30
0.0
 10
126.8997476896292
 20
-154.3292534336399
 30
0.0
 10
126.8997476896292
 20
-154.3292534336399
 30
0.0
 10
126.9018147469203
 20
-154.3630153693953
 30
0.0
 10
126.9018147469203
 20
-154.3630153693953
 30
0.0
 10
126.9018147469203
 20
-154.3630153693953
 30
0.0
 10
126.683740202704
 20
-154.3630153693953
 30
0.0
 10
126.683740202704
 20
-154.3630153693953
 30
0.0
 10
126.6882188268349
 20
-154.3082383511799
 30
0.0
 10
126.6882188268349
 20
-154.2954914978844
 30
0.0
 10
126.6944199987083
 20
-154.1811143277741
 30
0.0
 10
126.6964870559995
 20
-154.1535535638921
 30
0.0
 10
126.6985541132906
 20
-154.0205728781615
 30
0.0
 10
126.6985541132906
 20
-154.0012803434441
 30
0.0
 10
126.6985541132906
 20
-154.0012803434441
 30
0.0
 10
126.6985541132906
 20
-153.7983642193629
 30
0.0
 10
126.6985541132906
 20
-153.7983642193629
 30
0.0
 10
126.559027746138
 20
-154.047789132495
 30
0.0
 10
126.3898735578122
 20
-154.179047270483
 30
0.0
 10
126.2841091264151
 20
-154.2445040847028
 30
0.0
 10
126.2841091264151
 20
-154.2445040847028
 30
0.0
 10
126.1104763139585
 20
-154.1049777175501
 30
0.0
 10
126.1104763139585
 20
-154.1049777175501
 30
0.0
 10
126.1993597774779
 20
-154.0543348139169
 30
0.0
 10
126.3433647687614
 20
-153.9675184076887
 30
0.0
 10
126.4808240786228
 20
-153.7728705127721
 30
0.0
 10
126.5717745994334
 20
-153.6460909989149
 30
0.0
 10
126.6372314136532
 20
-153.5020860076314
 30
0.0
 10
126.6709933494086
 20
-153.3498127871834
 30
0.0
 10
126.4425835187366
 20
-153.3518798444745
 30
0.0
 10
126.2627495344065
 20
-153.358081016348
 30
0.0
 10
126.1676648990136
 20
-153.3604925831876
 30
0.0
 10
126.1676648990136
 20
-153.3604925831876
 30
0.0
 10
126.1676648990136
 20
-153.1827256561487
 30
0.0
 10
126.1676648990136
 20
-153.1827256561487
 30
0.0
 10
126.3643798512214
 20
-153.1889268280222
 30
0.0
 10
126.6479112096575
 20
-153.193405452153
 30
0.0
 10
126.7981173728143
 20
-153.193405452153
 30
0.0
 10
126.7981173728143
 20
-153.193405452153
 30
0.0
 10
127.0117132928998
 20
-153.193405452153
 30
0.0
 10
127.0117132928998
 20
-153.193405452153
 30
0.0
 10
127.0117132928998
 20
-153.193405452153
 30
0.0
 10
127.0117132928998
 20
-153.0852294539162
 30
0.0
 10
127.0117132928998
 20
-153.0852294539162
 30
0.0
 10
127.0117132928998
 20
-153.0852294539162
 30
0.0
 10
126.8656412443252
 20
-153.0852294539162
 30
0.0
 10
126.8656412443252
 20
-153.0852294539162
 30
0.0
 10
126.6964870559995
 20
-153.0852294539162
 30
0.0
 10
126.5273328676737
 20
-153.089708078047
 30
0.0
 10
126.3602457366391
 20
-153.0959092499205
 30
0.0
 10
126.3602457366391
 20
-153.0959092499205
 30
0.0
 10
126.3602457366391
 20
-152.9246880043035
 30
0.0
 10
126.3602457366391
 20
-152.9246880043035
 30
0.0
 10
126.5145860143783
 20
-152.9350232907593
 30
0.0
 10
126.7006211705818
 20
-152.9350232907593
 30
0.0
 10
126.8656412443252
 20
-152.9350232907593
 30
0.0
 10
126.8656412443252
 20
-152.9350232907593
 30
0.0
 10
127.0117132928998
 20
-152.9350232907593
 30
0.0
 10
127.0117132928998
 20
-152.9350232907593
 30
0.0
 10
127.0117132928998
 20
-152.9350232907593
 30
0.0
 10
127.0117132928998
 20
-152.8165120060667
 30
0.0
 10
127.0117132928998
 20
-152.8165120060667
 30
0.0
 10
127.0117132928998
 20
-152.8165120060667
 30
0.0
 10
126.8804551549118
 20
-152.8165120060667
 30
0.0
 10
126.8804551549118
 20
-152.8165120060667
 30
0.0
 10
126.8339463658609
 20
-152.8165120060667
 30
0.0
 10
126.6310302417797
 20
-152.8251247447798
 30
0.0
 10
126.5886555673112
 20
-152.8251247447798
 30
0.0
 10
126.3857394432299
 20
-152.8292588593621
 30
0.0
 10
126.3092583234574
 20
-152.8313259166533
 30
0.0
 10
126.2310546559422
 20
-152.8337374834929
 30
0.0
 10
126.2310546559422
 20
-152.8337374834929
 30
0.0
 10
126.2310546559422
 20
-152.6494248750321
 30
0.0
 10
126.2310546559422
 20
-152.6494248750321
 30
0.0
 10
126.3454318260525
 20
-152.6580376137452
 30
0.0
 10
126.3898735578122
 20
-152.6580376137452
 30
0.0
 10
126.7726236662235
 20
-152.6666503524583
 30
0.0
 10
126.7092339092949
 20
-152.5712212075169
 30
0.0
 10
126.6816731454129
 20
-152.5436604436349
 30
0.0
 10
126.6458441523663
 20
-152.5078314505883
 30
0.0
 10
126.6458441523663
 20
-152.5078314505883
 30
0.0
 10
126.8211995125655
 20
-152.4251491589423
 30
0.0
 10
126.8211995125655
 20
-152.4251491589423
 30
0.0
 10
126.8615071297429
 20
-152.4613226615374
 30
0.0
 10
126.9059488615027
 20
-152.503697336006
 30
0.0
 10
126.9800184144355
 20
-152.6135958819855
 30
0.0
 10
126.9800184144355
 20
-152.6135958819855
 30
0.0
 10
126.8656412443252
 20
-152.6687174097495
 30
0.0
 10
126.8656412443252
 20
-152.6687174097495
 30
0.0
 10
126.8656412443252
 20
-152.6687174097495
 30
0.0
 10
126.8763210403295
 20
-152.6687174097495
 30
0.0
 10
126.8763210403295
 20
-152.6687174097495
 30
0.0
 10
126.8763210403295
 20
-152.6687174097495
 30
0.0
 10
127.3989420254419
 20
-152.6687174097495
 30
0.0
 10
127.3989420254419
 20
-152.6687174097495
 30
0.0
 10
127.3989420254419
 20
-152.6687174097495
 30
0.0
 10
127.303857390049
 20
-152.6242756779898
 30
0.0
 10
127.303857390049
 20
-152.6242756779898
 30
0.0
 10
127.3310736443825
 20
-152.5860351181035
 30
0.0
 10
127.3882622294376
 20
-152.5057643932971
 30
0.0
 10
127.4030761400242
 20
-152.4316948403643
 30
0.0
 10
127.4030761400242
 20
-152.4316948403643
 30
0.0
 10
127.6166720601097
 20
-152.4950845972929
 30
0.0
 10
127.6166720601097
 20
-152.4950845972929
 30
0.0
 10
127.6252847988228
 20
-152.497151654584
 30
0.0
 10
127.6462998812828
 20
-152.5078314505883
 30
0.0
 10
127.6462998812828
 20
-152.5288465330483
 30
0.0
 10
127.6462998812828
 20
-152.5670870929346
 30
0.0
 10
127.5808430670631
 20
-152.5670870929346
 30
0.0
 10
127.5618950418942
 20
-152.5670870929346
 30
0.0
 10
127.5512152458899
 20
-152.5860351181035
 30
0.0
 10
127.5277885965903
 20
-152.6263427352809
 30
0.0
 10
127.4981607754171
 20
-152.6666503524583
 30
0.0
 10
127.8981363612546
 20
-152.6601046710364
 30
0.0
 10
127.9277641824278
 20
-152.6580376137452
 30
0.0
 10
128.0039007926518
 20
-152.6518364418718
 30
0.0
 10
128.0039007926518
 20
-152.6518364418718
 30
0.0
 10
128.0039007926518
 20
-152.8337374834929
 30
0.0
 10
128.0039007926518
 20
-152.8337374834929
 30
0.0
 10
127.9849527674829
 20
-152.8337374834929
 30
0.0
 10
127.9594590608921
 20
-152.8313259166533
 30
0.0
 10
127.7396619689331
 20
-152.8230576874887
 30
0.0
 10
127.6886745557514
 20
-152.8209906301975
 30
0.0
 10
127.4688774637925
 20
-152.8165120060667
 30
0.0
 10
127.4244357320328
 20
-152.8165120060667
 30
0.0
 10
127.4244357320328
 20
-152.8165120060667
 30
0.0
 10
127.2084282451076
 20
-152.8165120060667
 30
0.0
 10
127.2084282451076
 20
-152.8165120060667
 30
0.0
 10
127.2084282451076
 20
-152.8165120060667
 30
0.0
 10
127.2084282451076
 20
-152.9350232907593
 30
0.0
 10
127.2084282451076
 20
-152.9350232907593
 30
0.0
 10
127.2084282451076
 20
-152.9350232907593
 30
0.0
 10
127.3820610575642
 20
-152.9350232907593
 30
0.0
 10
127.3820610575642
 20
-152.9350232907593
 30
0.0
 10
127.5450140740165
 20
-152.9350232907593
 30
0.0
 10
127.7351833448023
 20
-152.9350232907593
 30
0.0
 10
127.8919351893812
 20
-152.9246880043035
 30
0.0
 10
127.8919351893812
 20
-152.9246880043035
 30
0.0
 10
127.8919351893812
 20
-153.0959092499205
 30
0.0
 10
127.8919351893812
 20
-153.0959092499205
 30
0.0
 10
127.682473383878
 20
-153.0872965112073
 30
0.0
 10
127.4857584316702
 20
-153.0852294539162
 30
0.0
 10
127.3820610575642
 20
-153.0852294539162
 30
0.0
 10
127.3820610575642
 20
-153.0852294539162
 30
0.0
 10
127.2084282451076
 20
-153.0852294539162
 30
0.0
 10
127.2084282451076
 20
-153.0852294539162
 30
0.0
 10
127.2084282451076
 20
-153.0852294539162
 30
0.0
 10
127.2084282451076
 20
-153.193405452153
 30
0.0
 10
127.2084282451076
 20
-153.193405452153
 30
0.0
 10
127.2084282451076
 20
-153.193405452153
 30
0.0
 10
127.4392496426193
 20
-153.193405452153
 30
0.0
 10
127.4392496426193
 20
-153.193405452153
 30
0.0
 10
127.57223032835
 20
-153.193405452153
 30
0.0
 10
127.8602403109169
 20
-153.1889268280222
 30
0.0
 10
128.0693576068715
 20
-153.1827256561487
 30
0.0
 10
128.0693576068715
 20
-153.1827256561487
 30
0.0
 10
128.0693576068715
 20
-153.3604925831876
 30
0.0
 10
128.0693576068715
 20
-153.3604925831876
 30
0.0
 10
127.8771212787946
 20
-153.3539469017657
 30
0.0
 10
127.5639620991854
 20
-153.3498127871834
 30
0.0
 10
127.4392496426193
 20
-153.3498127871834
 30
0.0
  0
HATCH
  5
16C
330
160
100
AcDbEntity
  8
レイヤー 1
 62
    18
420
        0
440
 33554687
100
AcDbHatch
 10
0.0
 20
0.0
 30
0.0
210
0.0
220
0.0
230
1.0
  2
SOLID
 70
     1
 71
     1
 91
        4
 92
        1
 93
        1
 72
     4
 94
        3
 73
     0
 74
     0
 95
       17
 96
       13
 40
0.0
 40
0.0
 40
0.0
 40
0.0
 40
1.0
 40
1.0
 40
1.0
 40
2.0
 40
2.0
 40
2.0
 40
3.0
 40
3.0
 40
3.0
 40
4.0
 40
4.0
 40
4.0
 40
4.0
 10
127.6042697163628
 20
-154.081895577799
 10
127.6042697163628
 20
-154.081895577799
 10
126.8976806323381
 20
-154.081895577799
 10
126.8976806323381
 20
-154.081895577799
 10
126.8976806323381
 20
-154.081895577799
 10
126.8976806323381
 20
-154.1959282383607
 10
126.8976806323381
 20
-154.1959282383607
 10
126.8976806323381
 20
-154.1959282383607
 10
127.6042697163628
 20
-154.1959282383607
 10
127.6042697163628
 20
-154.1959282383607
 10
127.6042697163628
 20
-154.1959282383607
 10
127.6042697163628
 20
-154.081895577799
 10
127.6042697163628
 20
-154.081895577799
 97
        0
 97
        1
330
168
 92
        1
 93
        1
 72
     4
 94
        3
 73
     0
 74
     0
 95
       17
 96
       13
 40
0.0
 40
0.0
 40
0.0
 40
0.0
 40
1.0
 40
1.0
 40
1.0
 40
2.0
 40
2.0
 40
2.0
 40
3.0
 40
3.0
 40
3.0
 40
4.0
 40
4.0
 40
4.0
 40
4.0
 10
127.6042697163628
 20
-153.8383273269918
 10
127.6042697163628
 20
-153.8383273269918
 10
126.8976806323381
 20
-153.8383273269918
 10
126.8976806323381
 20
-153.8383273269918
 10
126.8976806323381
 20
-153.8383273269918
 10
126.8976806323381
 20
-153.9527044971021
 10
126.8976806323381
 20
-153.9527044971021
 10
126.8976806323381
 20
-153.9527044971021
 10
127.6042697163628
 20
-153.9527044971021
 10
127.6042697163628
 20
-153.9527044971021
 10
127.6042697163628
 20
-153.9527044971021
 10
127.6042697163628
 20
-153.8383273269918
 10
127.6042697163628
 20
-153.8383273269918
 97
        0
 97
        1
330
169
 92
        1
 93
        1
 72
     4
 94
        3
 73
     0
 74
     0
 95
       17
 96
       13
 40
0.0
 40
0.0
 40
0.0
 40
0.0
 40
1.0
 40
1.0
 40
1.0
 40
2.0
 40
2.0
 40
2.0
 40
3.0
 40
3.0
 40
3.0
 40
4.0
 40
4.0
 40
4.0
 40
4.0
 10
127.6042697163628
 20
-153.6057833817374
 10
127.6042697163628
 20
-153.6057833817374
 10
126.8976806323381
 20
-153.6057833817374
 10
126.8976806323381
 20
-153.6057833817374
 10
126.8976806323381
 20
-153.6057833817374
 10
126.8976806323381
 20
-153.7136148704258
 10
126.8976806323381
 20
-153.7136148704258
 10
126.8976806323381
 20
-153.7136148704258
 10
127.6042697163628
 20
-153.7136148704258
 10
127.6042697163628
 20
-153.7136148704258
 10
127.6042697163628
 20
-153.7136148704258
 10
127.6042697163628
 20
-153.6057833817374
 10
127.6042697163628
 20
-153.6057833817374
 97
        0
 97
        1
330
16A
 92
        1
 93
        1
 72
     4
 94
        3
 73
     0
 74
     0
 95
      203
 96
      199
 40
0.0
 40
0.0
 40
0.0
 40
0.0
 40
1.0
 40
1.0
 40
1.0
 40
2.0
 40
2.0
 40
2.0
 40
3.0
 40
3.0
 40
3.0
 40
4.0
 40
4.0
 40
4.0
 40
5.0
 40
5.0
 40
5.0
 40
6.0
 40
6.0
 40
6.0
 40
7.0
 40
7.0
 40
7.0
 40
8.0
 40
8.0
 40
8.0
 40
9.0
 40
9.0
 40
9.0
 40
10.0
 40
10.0
 40
10.0
 40
11.0
 40
11.0
 40
11.0
 40
12.0
 40
12.0
 40
12.0
 40
13.0
 40
13.0
 40
13.0
 40
14.0
 40
14.0
 40
14.0
 40
15.0
 40
15.0
 40
15.0
 40
16.0
 40
16.0
 40
16.0
 40
17.0
 40
17.0
 40
17.0
 40
18.0
 40
18.0
 40
18.0
 40
19.0
 40
19.0
 40
19.0
 40
20.0
 40
20.0
 40
20.0
 40
21.0
 40
21.0
 40
21.0
 40
22.0
 40
22.0
 40
22.0
 40
23.0
 40
23.0
 40
23.0
 40
24.0
 40
24.0
 40
24.0
 40
25.0
 40
25.0
 40
25.0
 40
26.0
 40
26.0
 40
26.0
 40
27.0
 40
27.0
 40
27.0
 40
28.0
 40
28.0
 40
28.0
 40
29.0
 40
29.0
 40
29.0
 40
30.0
 40
30.0
 40
30.0
 40
31.0
 40
31.0
 40
31.0
 40
32.0
 40
32.0
 40
32.0
 40
33.0
 40
33.0
 40
33.0
 40
34.0
 40
34.0
 40
34.0
 40
35.0
 40
35.0
 40
35.0
 40
36.0
 40
36.0
 40
36.0
 40
37.0
 40
37.0
 40
37.0
 40
38.0
 40
38.0
 40
38.0
 40
39.0
 40
39.0
 40
39.0
 40
40.0
 40
40.0
 40
40.0
 40
41.0
 40
41.0
 40
41.0
 40
42.0
 40
42.0
 40
42.0
 40
43.0
 40
43.0
 40
43.0
 40
44.0
 40
44.0
 40
44.0
 40
45.0
 40
45.0
 40
45.0
 40
46.0
 40
46.0
 40
46.0
 40
47.0
 40
47.0
 40
47.0
 40
48.0
 40
48.0
 40
48.0
 40
49.0
 40
49.0
 40
49.0
 40
50.0
 40
50.0
 40
50.0
 40
51.0
 40
51.0
 40
51.0
 40
52.0
 40
52.0
 40
52.0
 40
53.0
 40
53.0
 40
53.0
 40
54.0
 40
54.0
 40
54.0
 40
55.0
 40
55.0
 40
55.0
 40
56.0
 40
56.0
 40
56.0
 40
57.0
 40
57.0
 40
57.0
 40
58.0
 40
58.0
 40
58.0
 40
59.0
 40
59.0
 40
59.0
 40
60.0
 40
60.0
 40
60.0
 40
61.0
 40
61.0
 40
61.0
 40
62.0
 40
62.0
 40
62.0
 40
63.0
 40
63.0
 40
63.0
 40
64.0
 40
64.0
 40
64.0
 40
65.0
 40
65.0
 40
65.0
 40
66.0
 40
66.0
 40
66.0
 40
66.0
 10
127.4392496426193
 20
-153.3498127871834
 10
127.4392496426193
 20
-153.3498127871834
 10
126.8804551549118
 20
-153.3498127871834
 10
126.8804551549118
 20
-153.3498127871834
 10
126.8701198684561
 20
-153.3942545189431
 10
126.8615071297429
 20
-153.4259493974074
 10
126.8487602764475
 20
-153.4641899572937
 10
126.8742539830384
 20
-153.4641899572937
 10
126.8890678936249
 20
-153.4662570145848
 10
126.8952690654984
 20
-153.4662570145848
 10
126.8952690654984
 20
-153.4662570145848
 10
127.0837157885416
 20
-153.4662570145848
 10
127.0837157885416
 20
-153.4662570145848
 10
127.0837157885416
 20
-153.4662570145848
 10
127.4581976677882
 20
-153.4662570145848
 10
127.4581976677882
 20
-153.4662570145848
 10
127.5088405714214
 20
-153.4662570145848
 10
127.7923719298574
 20
-153.4535101612894
 10
127.8240668083217
 20
-153.4535101612894
 10
127.8219997510306
 20
-153.4810709251714
 10
127.8199326937394
 20
-153.5000189503403
 10
127.8199326937394
 20
-153.5296467715134
 10
127.8178656364483
 20
-153.5613416499777
 10
127.8178656364483
 20
-153.696733902548
 10
127.8178656364483
 20
-153.72429466643
 10
127.8178656364483
 20
-153.72429466643
 10
127.8178656364483
 20
-153.9695854649798
 10
127.8178656364483
 20
-153.9695854649798
 10
127.8178656364483
 20
-154.0140271967395
 10
127.8219997510306
 20
-154.2107421489473
 10
127.8261338656129
 20
-154.3630153693953
 10
127.8261338656129
 20
-154.3630153693953
 10
127.599791092232
 20
-154.3630153693953
 10
127.599791092232
 20
-154.3630153693953
 10
127.599791092232
 20
-154.3630153693953
 10
127.6018581495231
 20
-154.3292534336399
 10
127.6018581495231
 20
-154.3292534336399
 10
127.6018581495231
 20
-154.3292534336399
 10
126.8997476896292
 20
-154.3292534336399
 10
126.8997476896292
 20
-154.3292534336399
 10
126.8997476896292
 20
-154.3292534336399
 10
126.9018147469203
 20
-154.3630153693953
 10
126.9018147469203
 20
-154.3630153693953
 10
126.9018147469203
 20
-154.3630153693953
 10
126.683740202704
 20
-154.3630153693953
 10
126.683740202704
 20
-154.3630153693953
 10
126.6882188268349
 20
-154.3082383511799
 10
126.6882188268349
 20
-154.2954914978844
 10
126.6944199987083
 20
-154.1811143277741
 10
126.6964870559995
 20
-154.1535535638921
 10
126.6985541132906
 20
-154.0205728781615
 10
126.6985541132906
 20
-154.0012803434441
 10
126.6985541132906
 20
-154.0012803434441
 10
126.6985541132906
 20
-153.7983642193629
 10
126.6985541132906
 20
-153.7983642193629
 10
126.559027746138
 20
-154.047789132495
 10
126.3898735578122
 20
-154.179047270483
 10
126.2841091264151
 20
-154.2445040847028
 10
126.2841091264151
 20
-154.2445040847028
 10
126.1104763139585
 20
-154.1049777175501
 10
126.1104763139585
 20
-154.1049777175501
 10
126.1993597774779
 20
-154.0543348139169
 10
126.3433647687614
 20
-153.9675184076887
 10
126.4808240786228
 20
-153.7728705127721
 10
126.5717745994334
 20
-153.6460909989149
 10
126.6372314136532
 20
-153.5020860076314
 10
126.6709933494086
 20
-153.3498127871834
 10
126.4425835187366
 20
-153.3518798444745
 10
126.2627495344065
 20
-153.358081016348
 10
126.1676648990136
 20
-153.3604925831876
 10
126.1676648990136
 20
-153.3604925831876
 10
126.1676648990136
 20
-153.1827256561487
 10
126.1676648990136
 20
-153.1827256561487
 10
126.3643798512214
 20
-153.1889268280222
 10
126.6479112096575
 20
-153.193405452153
 10
126.7981173728143
 20
-153.193405452153
 10
126.7981173728143
 20
-153.193405452153
 10
127.0117132928998
 20
-153.193405452153
 10
127.0117132928998
 20
-153.193405452153
 10
127.0117132928998
 20
-153.193405452153
 10
127.0117132928998
 20
-153.0852294539162
 10
127.0117132928998
 20
-153.0852294539162
 10
127.0117132928998
 20
-153.0852294539162
 10
126.8656412443252
 20
-153.0852294539162
 10
126.8656412443252
 20
-153.0852294539162
 10
126.6964870559995
 20
-153.0852294539162
 10
126.5273328676737
 20
-153.089708078047
 10
126.3602457366391
 20
-153.0959092499205
 10
126.3602457366391
 20
-153.0959092499205
 10
126.3602457366391
 20
-152.9246880043035
 10
126.3602457366391
 20
-152.9246880043035
 10
126.5145860143783
 20
-152.9350232907593
 10
126.7006211705818
 20
-152.9350232907593
 10
126.8656412443252
 20
-152.9350232907593
 10
126.8656412443252
 20
-152.9350232907593
 10
127.0117132928998
 20
-152.9350232907593
 10
127.0117132928998
 20
-152.9350232907593
 10
127.0117132928998
 20
-152.9350232907593
 10
127.0117132928998
 20
-152.8165120060667
 10
127.0117132928998
 20
-152.8165120060667
 10
127.0117132928998
 20
-152.8165120060667
 10
126.8804551549118
 20
-152.8165120060667
 10
126.8804551549118
 20
-152.8165120060667
 10
126.8339463658609
 20
-152.8165120060667
 10
126.6310302417797
 20
-152.8251247447798
 10
126.5886555673112
 20
-152.8251247447798
 10
126.3857394432299
 20
-152.8292588593621
 10
126.3092583234574
 20
-152.8313259166533
 10
126.2310546559422
 20
-152.8337374834929
 10
126.2310546559422
 20
-152.8337374834929
 10
126.2310546559422
 20
-152.6494248750321
 10
126.2310546559422
 20
-152.6494248750321
 10
126.3454318260525
 20
-152.6580376137452
 10
126.3898735578122
 20
-152.6580376137452
 10
126.7726236662235
 20
-152.6666503524583
 10
126.7092339092949
 20
-152.5712212075169
 10
126.6816731454129
 20
-152.5436604436349
 10
126.6458441523663
 20
-152.5078314505883
 10
126.6458441523663
 20
-152.5078314505883
 10
126.8211995125655
 20
-152.4251491589423
 10
126.8211995125655
 20
-152.4251491589423
 10
126.8615071297429
 20
-152.4613226615374
 10
126.9059488615027
 20
-152.503697336006
 10
126.9800184144355
 20
-152.6135958819855
 10
126.9800184144355
 20
-152.6135958819855
 10
126.8656412443252
 20
-152.6687174097495
 10
126.8656412443252
 20
-152.6687174097495
 10
126.8656412443252
 20
-152.6687174097495
 10
126.8763210403295
 20
-152.6687174097495
 10
126.8763210403295
 20
-152.6687174097495
 10
126.8763210403295
 20
-152.6687174097495
 10
127.3989420254419
 20
-152.6687174097495
 10
127.3989420254419
 20
-152.6687174097495
 10
127.3989420254419
 20
-152.6687174097495
 10
127.303857390049
 20
-152.6242756779898
 10
127.303857390049
 20
-152.6242756779898
 10
127.3310736443825
 20
-152.5860351181035
 10
127.3882622294376
 20
-152.5057643932971
 10
127.4030761400242
 20
-152.4316948403643
 10
127.4030761400242
 20
-152.4316948403643
 10
127.6166720601097
 20
-152.4950845972929
 10
127.6166720601097
 20
-152.4950845972929
 10
127.6252847988228
 20
-152.497151654584
 10
127.6462998812828
 20
-152.5078314505883
 10
127.6462998812828
 20
-152.5288465330483
 10
127.6462998812828
 20
-152.5670870929346
 10
127.5808430670631
 20
-152.5670870929346
 10
127.5618950418942
 20
-152.5670870929346
 10
127.5512152458899
 20
-152.5860351181035
 10
127.5277885965903
 20
-152.6263427352809
 10
127.4981607754171
 20
-152.6666503524583
 10
127.8981363612546
 20
-152.6601046710364
 10
127.9277641824278
 20
-152.6580376137452
 10
128.0039007926518
 20
-152.6518364418718
 10
128.0039007926518
 20
-152.6518364418718
 10
128.0039007926518
 20
-152.8337374834929
 10
128.0039007926518
 20
-152.8337374834929
 10
127.9849527674829
 20
-152.8337374834929
 10
127.9594590608921
 20
-152.8313259166533
 10
127.7396619689331
 20
-152.8230576874887
 10
127.6886745557514
 20
-152.8209906301975
 10
127.4688774637925
 20
-152.8165120060667
 10
127.4244357320328
 20
-152.8165120060667
 10
127.4244357320328
 20
-152.8165120060667
 10
127.2084282451076
 20
-152.8165120060667
 10
127.2084282451076
 20
-152.8165120060667
 10
127.2084282451076
 20
-152.8165120060667
 10
127.2084282451076
 20
-152.9350232907593
 10
127.2084282451076
 20
-152.9350232907593
 10
127.2084282451076
 20
-152.9350232907593
 10
127.3820610575642
 20
-152.9350232907593
 10
127.3820610575642
 20
-152.9350232907593
 10
127.5450140740165
 20
-152.9350232907593
 10
127.7351833448023
 20
-152.9350232907593
 10
127.8919351893812
 20
-152.9246880043035
 10
127.8919351893812
 20
-152.9246880043035
 10
127.8919351893812
 20
-153.0959092499205
 10
127.8919351893812
 20
-153.0959092499205
 10
127.682473383878
 20
-153.0872965112073
 10
127.4857584316702
 20
-153.0852294539162
 10
127.3820610575642
 20
-153.0852294539162
 10
127.3820610575642
 20
-153.0852294539162
 10
127.2084282451076
 20
-153.0852294539162
 10
127.2084282451076
 20
-153.0852294539162
 10
127.2084282451076
 20
-153.0852294539162
 10
127.2084282451076
 20
-153.193405452153
 10
127.2084282451076
 20
-153.193405452153
 10
127.2084282451076
 20
-153.193405452153
 10
127.4392496426193
 20
-153.193405452153
 10
127.4392496426193
 20
-153.193405452153
 10
127.57223032835
 20
-153.193405452153
 10
127.8602403109169
 20
-153.1889268280222
 10
128.0693576068715
 20
-153.1827256561487
 10
128.0693576068715
 20
-153.1827256561487
 10
128.0693576068715
 20
-153.3604925831876
 10
128.0693576068715
 20
-153.3604925831876
 10
127.8771212787946
 20
-153.3539469017657
 10
127.5639620991854
 20
-153.3498127871834
 10
127.4392496426193
 20
-153.3498127871834
 97
        0
 97
        1
330
16B
 75
     2
 76
     1
 98
        1
 10
0.0
 20
0.0
450
        0
451
        0
460
0.0
461
0.0
452
        0
462
0.0
453
        0
470

  0
SPLINE
  5
16D
330
160
100
AcDbEntity
  8
レイヤー 1
100
AcDbSpline
210
0.0
220
0.0
230
1.0
 70
     9
 71
     3
 72
    29
 73
    25
 74
     0
 42
0.0000000001
 43
0.0000000001
 40
0.0
 40
0.0
 40
0.0
 40
0.0
 40
1.0
 40
1.0
 40
1.0
 40
2.0
 40
2.0
 40
2.0
 40
3.0
 40
3.0
 40
3.0
 40
4.0
 40
4.0
 40
4.0
 40
5.0
 40
5.0
 40
5.0
 40
6.0
 40
6.0
 40
6.0
 40
7.0
 40
7.0
 40
7.0
 40
8.0
 40
8.0
 40
8.0
 40
8.0
 10
129.3144151152408
 20
-152.7975639808978
 30
0.0
 10
129.3144151152408
 20
-152.7975639808978
 30
0.0
 10
128.9612928280027
 20
-152.7975639808978
 30
0.0
 10
128.9612928280027
 20
-152.7975639808978
 30
0.0
 10
128.8489827151836
 20
-152.7975639808978
 30
0.0
 10
128.709456348031
 20
-152.8041096623198
 30
0.0
 10
128.6016248593426
 20
-152.8165120060667
 30
0.0
 10
128.6016248593426
 20
-152.8165120060667
 30
0.0
 10
128.6016248593426
 20
-152.5819010035212
 30
0.0
 10
128.6016248593426
 20
-152.5819010035212
 30
0.0
 10
128.7197916344867
 20
-152.5967149141077
 30
0.0
 10
128.9041042429476
 20
-152.6008490286901
 30
0.0
 10
128.9612928280027
 20
-152.6008490286901
 30
0.0
 10
128.9612928280027
 20
-152.6008490286901
 30
0.0
 10
129.3144151152408
 20
-152.6008490286901
 30
0.0
 10
129.3144151152408
 20
-152.6008490286901
 30
0.0
 10
129.3333631404097
 20
-152.6008490286901
 30
0.0
 10
129.5366237740394
 20
-152.6008490286901
 30
0.0
 10
129.6782171984832
 20
-152.5819010035212
 30
0.0
 10
129.6782171984832
 20
-152.5819010035212
 30
0.0
 10
129.6782171984832
 20
-152.8165120060667
 30
0.0
 10
129.6782171984832
 20
-152.8165120060667
 30
0.0
 10
129.5218098634529
 20
-152.7975639808978
 30
0.0
 10
129.3312960831185
 20
-152.7975639808978
 30
0.0
 10
129.3144151152408
 20
-152.7975639808978
 30
0.0
  0
SPLINE
  5
16E
330
160
100
AcDbEntity
  8
レイヤー 1
100
AcDbSpline
210
0.0
220
0.0
230
1.0
 70
     9
 71
     3
 72
    47
 73
    43
 74
     0
 42
0.0000000001
 43
0.0000000001
 40
0.0
 40
0.0
 40
0.0
 40
0.0
 40
1.0
 40
1.0
 40
1.0
 40
2.0
 40
2.0
 40
2.0
 40
3.0
 40
3.0
 40
3.0
 40
4.0
 40
4.0
 40
4.0
 40
5.0
 40
5.0
 40
5.0
 40
6.0
 40
6.0
 40
6.0
 40
7.0
 40
7.0
 40
7.0
 40
8.0
 40
8.0
 40
8.0
 40
9.0
 40
9.0
 40
9.0
 40
10.0
 40
10.0
 40
10.0
 40
11.0
 40
11.0
 40
11.0
 40
12.0
 40
12.0
 40
12.0
 40
13.0
 40
13.0
 40
13.0
 40
14.0
 40
14.0
 40
14.0
 40
14.0
 10
129.4160454320557
 20
-153.3263861378837
 30
0.0
 10
129.4160454320557
 20
-153.3263861378837
 30
0.0
 10
129.3144151152408
 20
-153.3263861378837
 30
0.0
 10
129.3144151152408
 20
-153.3263861378837
 30
0.0
 10
129.3144151152408
 20
-153.413202544112
 30
0.0
 10
129.2934000327808
 20
-153.8024983339452
 30
0.0
 10
129.0963405710245
 20
-154.0226399354527
 30
0.0
 10
128.9440673505765
 20
-154.1917941237784
 30
0.0
 10
128.7370171119129
 20
-154.261729562129
 30
0.0
 10
128.6522677629758
 20
-154.2889458164625
 30
0.0
 10
128.6522677629758
 20
-154.2889458164625
 30
0.0
 10
128.4576198680592
 20
-154.1218586854278
 30
0.0
 10
128.4576198680592
 20
-154.1218586854278
 30
0.0
 10
128.5547715607432
 20
-154.1091118321324
 30
0.0
 10
128.730471430491
 20
-154.0860296923813
 30
0.0
 10
128.9189181535342
 20
-153.8975829693381
 30
0.0
 10
128.992987706467
 20
-153.8259249832449
 30
0.0
 10
129.0963405710245
 20
-153.6860541065437
 30
0.0
 10
129.0963405710245
 20
-153.3263861378837
 30
0.0
 10
129.0963405710245
 20
-153.3263861378837
 30
0.0
 10
128.8658636830613
 20
-153.3263861378837
 30
0.0
 10
128.8658636830613
 20
-153.3263861378837
 30
0.0
 10
128.6798285268578
 20
-153.3263861378837
 30
0.0
 10
128.4934488611058
 20
-153.3308647620145
 30
0.0
 10
128.3074137049023
 20
-153.3456786726011
 30
0.0
 10
128.3074137049023
 20
-153.3456786726011
 30
0.0
 10
128.3074137049023
 20
-153.1255370710936
 30
0.0
 10
128.3074137049023
 20
-153.1255370710936
 30
0.0
 10
128.4958604279454
 20
-153.1403509816802
 30
0.0
 10
128.7814588436727
 20
-153.1444850962625
 30
0.0
 10
128.8658636830613
 20
-153.1444850962625
 30
0.0
 10
128.8658636830613
 20
-153.1444850962625
 30
0.0
 10
129.4160454320557
 20
-153.1444850962625
 30
0.0
 10
129.4160454320557
 20
-153.1444850962625
 30
0.0
 10
129.4349934572245
 20
-153.1444850962625
 30
0.0
 10
129.7522867514161
 20
-153.1444850962625
 30
0.0
 10
129.9806965820881
 20
-153.1255370710936
 30
0.0
 10
129.9806965820881
 20
-153.1255370710936
 30
0.0
 10
129.9806965820881
 20
-153.3456786726011
 30
0.0
 10
129.9806965820881
 20
-153.3456786726011
 30
0.0
 10
129.7925943685935
 20
-153.3308647620145
 30
0.0
 10
129.6041476455503
 20
-153.3263861378837
 30
0.0
 10
129.4160454320557
 20
-153.3263861378837
 30
0.0
  0
HATCH
  5
16F
330
160
100
AcDbEntity
  8
レイヤー 1
 62
    18
420
        0
440
 33554687
100
AcDbHatch
 10
0.0
 20
0.0
 30
0.0
210
0.0
220
0.0
230
1.0
  2
SOLID
 70
     1
 71
     1
 91
        2
 92
        1
 93
        1
 72
     4
 94
        3
 73
     0
 74
     0
 95
       29
 96
       25
 40
0.0
 40
0.0
 40
0.0
 40
0.0
 40
1.0
 40
1.0
 40
1.0
 40
2.0
 40
2.0
 40
2.0
 40
3.0
 40
3.0
 40
3.0
 40
4.0
 40
4.0
 40
4.0
 40
5.0
 40
5.0
 40
5.0
 40
6.0
 40
6.0
 40
6.0
 40
7.0
 40
7.0
 40
7.0
 40
8.0
 40
8.0
 40
8.0
 40
8.0
 10
129.3144151152408
 20
-152.7975639808978
 10
129.3144151152408
 20
-152.7975639808978
 10
128.9612928280027
 20
-152.7975639808978
 10
128.9612928280027
 20
-152.7975639808978
 10
128.8489827151836
 20
-152.7975639808978
 10
128.709456348031
 20
-152.8041096623198
 10
128.6016248593426
 20
-152.8165120060667
 10
128.6016248593426
 20
-152.8165120060667
 10
128.6016248593426
 20
-152.5819010035212
 10
128.6016248593426
 20
-152.5819010035212
 10
128.7197916344867
 20
-152.5967149141077
 10
128.9041042429476
 20
-152.6008490286901
 10
128.9612928280027
 20
-152.6008490286901
 10
128.9612928280027
 20
-152.6008490286901
 10
129.3144151152408
 20
-152.6008490286901
 10
129.3144151152408
 20
-152.6008490286901
 10
129.3333631404097
 20
-152.6008490286901
 10
129.5366237740394
 20
-152.6008490286901
 10
129.6782171984832
 20
-152.5819010035212
 10
129.6782171984832
 20
-152.5819010035212
 10
129.6782171984832
 20
-152.8165120060667
 10
129.6782171984832
 20
-152.8165120060667
 10
129.5218098634529
 20
-152.7975639808978
 10
129.3312960831185
 20
-152.7975639808978
 10
129.3144151152408
 20
-152.7975639808978
 97
        0
 97
        1
330
16D
 92
        1
 93
        1
 72
     4
 94
        3
 73
     0
 74
     0
 95
       47
 96
       43
 40
0.0
 40
0.0
 40
0.0
 40
0.0
 40
1.0
 40
1.0
 40
1.0
 40
2.0
 40
2.0
 40
2.0
 40
3.0
 40
3.0
 40
3.0
 40
4.0
 40
4.0
 40
4.0
 40
5.0
 40
5.0
 40
5.0
 40
6.0
 40
6.0
 40
6.0
 40
7.0
 40
7.0
 40
7.0
 40
8.0
 40
8.0
 40
8.0
 40
9.0
 40
9.0
 40
9.0
 40
10.0
 40
10.0
 40
10.0
 40
11.0
 40
11.0
 40
11.0
 40
12.0
 40
12.0
 40
12.0
 40
13.0
 40
13.0
 40
13.0
 40
14.0
 40
14.0
 40
14.0
 40
14.0
 10
129.4160454320557
 20
-153.3263861378837
 10
129.4160454320557
 20
-153.3263861378837
 10
129.3144151152408
 20
-153.3263861378837
 10
129.3144151152408
 20
-153.3263861378837
 10
129.3144151152408
 20
-153.413202544112
 10
129.2934000327808
 20
-153.8024983339452
 10
129.0963405710245
 20
-154.0226399354527
 10
128.9440673505765
 20
-154.1917941237784
 10
128.7370171119129
 20
-154.261729562129
 10
128.6522677629758
 20
-154.2889458164625
 10
128.6522677629758
 20
-154.2889458164625
 10
128.4576198680592
 20
-154.1218586854278
 10
128.4576198680592
 20
-154.1218586854278
 10
128.5547715607432
 20
-154.1091118321324
 10
128.730471430491
 20
-154.0860296923813
 10
128.9189181535342
 20
-153.8975829693381
 10
128.992987706467
 20
-153.8259249832449
 10
129.0963405710245
 20
-153.6860541065437
 10
129.0963405710245
 20
-153.3263861378837
 10
129.0963405710245
 20
-153.3263861378837
 10
128.8658636830613
 20
-153.3263861378837
 10
128.8658636830613
 20
-153.3263861378837
 10
128.6798285268578
 20
-153.3263861378837
 10
128.4934488611058
 20
-153.3308647620145
 10
128.3074137049023
 20
-153.3456786726011
 10
128.3074137049023
 20
-153.3456786726011
 10
128.3074137049023
 20
-153.1255370710936
 10
128.3074137049023
 20
-153.1255370710936
 10
128.4958604279454
 20
-153.1403509816802
 10
128.7814588436727
 20
-153.1444850962625
 10
128.8658636830613
 20
-153.1444850962625
 10
128.8658636830613
 20
-153.1444850962625
 10
129.4160454320557
 20
-153.1444850962625
 10
129.4160454320557
 20
-153.1444850962625
 10
129.4349934572245
 20
-153.1444850962625
 10
129.7522867514161
 20
-153.1444850962625
 10
129.9806965820881
 20
-153.1255370710936
 10
129.9806965820881
 20
-153.1255370710936
 10
129.9806965820881
 20
-153.3456786726011
 10
129.9806965820881
 20
-153.3456786726011
 10
129.7925943685935
 20
-153.3308647620145
 10
129.6041476455503
 20
-153.3263861378837
 10
129.4160454320557
 20
-153.3263861378837
 97
        0
 97
        1
330
16E
 75
     2
 76
     1
 98
        1
 10
0.0
 20
0.0
450
        0
451
        0
460
0.0
461
0.0
452
        0
462
0.0
453
        0
470

  0
SPLINE
  5
170
330
160
100
AcDbEntity
  8
レイヤー 1
100
AcDbSpline
210
0.0
220
0.0
230
1.0
 70
     9
 71
     3
 72
    29
 73
    25
 74
     0
 42
0.0000000001
 43
0.0000000001
 40
0.0
 40
0.0
 40
0.0
 40
0.0
 40
1.0
 40
1.0
 40
1.0
 40
2.0
 40
2.0
 40
2.0
 40
3.0
 40
3.0
 40
3.0
 40
4.0
 40
4.0
 40
4.0
 40
5.0
 40
5.0
 40
5.0
 40
6.0
 40
6.0
 40
6.0
 40
7.0
 40
7.0
 40
7.0
 40
8.0
 40
8.0
 40
8.0
 40
8.0
 10
131.2619275930525
 20
-153.489339154336
 30
0.0
 10
131.2619275930525
 20
-153.489339154336
 30
0.0
 10
130.7775471678264
 20
-153.489339154336
 30
0.0
 10
130.7775471678264
 20
-153.489339154336
 30
0.0
 10
130.7499864039444
 20
-153.489339154336
 30
0.0
 10
130.4326931097529
 20
-153.489339154336
 30
0.0
 10
130.2211642469586
 20
-153.5148328609268
 30
0.0
 10
130.2211642469586
 20
-153.5148328609268
 30
0.0
 10
130.2211642469586
 20
-153.2843559729636
 30
0.0
 10
130.2211642469586
 20
-153.2843559729636
 30
0.0
 10
130.3796386392801
 20
-153.3074381127148
 30
0.0
 10
130.5701524196144
 20
-153.3095051700059
 30
0.0
 10
130.7775471678264
 20
-153.3095051700059
 30
0.0
 10
130.7775471678264
 20
-153.3095051700059
 30
0.0
 10
131.2619275930525
 20
-153.3095051700059
 30
0.0
 10
131.2619275930525
 20
-153.3095051700059
 30
0.0
 10
131.447962749256
 20
-153.3095051700059
 30
0.0
 10
131.6343424150081
 20
-153.3074381127148
 30
0.0
 10
131.8183105139204
 20
-153.2843559729636
 30
0.0
 10
131.8183105139204
 20
-153.2843559729636
 30
0.0
 10
131.8183105139204
 20
-153.5148328609268
 30
0.0
 10
131.8183105139204
 20
-153.5148328609268
 30
0.0
 10
131.6343424150081
 20
-153.4914062116271
 30
0.0
 10
131.3866400496186
 20
-153.489339154336
 30
0.0
 10
131.2619275930525
 20
-153.489339154336
 30
0.0
  0
HATCH
  5
171
330
160
100
AcDbEntity
  8
レイヤー 1
 62
    18
420
        0
440
 33554687
100
AcDbHatch
 10
0.0
 20
0.0
 30
0.0
210
0.0
220
0.0
230
1.0
  2
SOLID
 70
     1
 71
     1
 91
        1
 92
        1
 93
        1
 72
     4
 94
        3
 73
     0
 74
     0
 95
       29
 96
       25
 40
0.0
 40
0.0
 40
0.0
 40
0.0
 40
1.0
 40
1.0
 40
1.0
 40
2.0
 40
2.0
 40
2.0
 40
3.0
 40
3.0
 40
3.0
 40
4.0
 40
4.0
 40
4.0
 40
5.0
 40
5.0
 40
5.0
 40
6.0
 40
6.0
 40
6.0
 40
7.0
 40
7.0
 40
7.0
 40
8.0
 40
8.0
 40
8.0
 40
8.0
 10
131.2619275930525
 20
-153.489339154336
 10
131.2619275930525
 20
-153.489339154336
 10
130.7775471678264
 20
-153.489339154336
 10
130.7775471678264
 20
-153.489339154336
 10
130.7499864039444
 20
-153.489339154336
 10
130.4326931097529
 20
-153.489339154336
 10
130.2211642469586
 20
-153.5148328609268
 10
130.2211642469586
 20
-153.5148328609268
 10
130.2211642469586
 20
-153.2843559729636
 10
130.2211642469586
 20
-153.2843559729636
 10
130.3796386392801
 20
-153.3074381127148
 10
130.5701524196144
 20
-153.3095051700059
 10
130.7775471678264
 20
-153.3095051700059
 10
130.7775471678264
 20
-153.3095051700059
 10
131.2619275930525
 20
-153.3095051700059
 10
131.2619275930525
 20
-153.3095051700059
 10
131.447962749256
 20
-153.3095051700059
 10
131.6343424150081
 20
-153.3074381127148
 10
131.8183105139204
 20
-153.2843559729636
 10
131.8183105139204
 20
-153.2843559729636
 10
131.8183105139204
 20
-153.5148328609268
 10
131.8183105139204
 20
-153.5148328609268
 10
131.6343424150081
 20
-153.4914062116271
 10
131.3866400496186
 20
-153.489339154336
 10
131.2619275930525
 20
-153.489339154336
 97
        0
 97
        1
330
170
 75
     2
 76
     1
 98
        1
 10
0.0
 20
0.0
450
        0
451
        0
460
0.0
461
0.0
452
        0
462
0.0
453
        0
470

  0
SPLINE
  5
172
330
160
100
AcDbEntity
  8
レイヤー 1
100
AcDbSpline
210
0.0
220
0.0
230
1.0
 70
     9
 71
     3
 72
    47
 73
    43
 74
     0
 42
0.0000000001
 43
0.0000000001
 40
0.0
 40
0.0
 40
0.0
 40
0.0
 40
1.0
 40
1.0
 40
1.0
 40
2.0
 40
2.0
 40
2.0
 40
3.0
 40
3.0
 40
3.0
 40
4.0
 40
4.0
 40
4.0
 40
5.0
 40
5.0
 40
5.0
 40
6.0
 40
6.0
 40
6.0
 40
7.0
 40
7.0
 40
7.0
 40
8.0
 40
8.0
 40
8.0
 40
9.0
 40
9.0
 40
9.0
 40
10.0
 40
10.0
 40
10.0
 40
11.0
 40
11.0
 40
11.0
 40
12.0
 40
12.0
 40
12.0
 40
13.0
 40
13.0
 40
13.0
 40
14.0
 40
14.0
 40
14.0
 40
14.0
 10
133.4819471237475
 20
-152.8950601831304
 30
0.0
 10
133.412011685397
 20
-153.1741129174356
 30
0.0
 10
133.335875075173
 20
-153.4790038678802
 30
0.0
 10
133.0227158955638
 20
-153.8111110726583
 30
0.0
 10
132.7860378357271
 20
-154.0605359857904
 30
0.0
 10
132.5404025276288
 20
-154.1600992453141
 30
0.0
 10
132.4346380962316
 20
-154.2024739197827
 30
0.0
 10
132.4346380962316
 20
-154.2024739197827
 30
0.0
 10
132.239990201315
 20
-154.0205728781615
 30
0.0
 10
132.239990201315
 20
-154.0205728781615
 30
0.0
 10
132.426369867067
 20
-153.9737195795621
 30
0.0
 10
132.7881048930182
 20
-153.8807020014604
 30
0.0
 10
133.0840385952012
 20
-153.3856417802299
 30
0.0
 10
133.2449245543624
 20
-153.1193358992202
 30
0.0
 10
133.2576714076578
 20
-152.9457030867636
 30
0.0
 10
133.2662841463709
 20
-152.854752565953
 30
0.0
 10
133.2662841463709
 20
-152.854752565953
 30
0.0
 10
132.7605441291362
 20
-152.854752565953
 30
0.0
 10
132.7605441291362
 20
-152.854752565953
 30
0.0
 10
132.6420328444436
 20
-152.854752565953
 30
0.0
 10
132.2210421761461
 20
-152.8737005911218
 30
0.0
 10
132.0687689556981
 20
-152.8843803871261
 30
0.0
 10
132.0687689556981
 20
-152.8843803871261
 30
0.0
 10
132.0687689556981
 20
-152.6749185816229
 30
0.0
 10
132.0687689556981
 20
-152.6749185816229
 30
0.0
 10
132.2103623801418
 20
-152.6876654349183
 30
0.0
 10
132.4876925667044
 20
-152.6917995495006
 30
0.0
 10
132.6041367941059
 20
-152.6917995495006
 30
0.0
 10
132.6041367941059
 20
-152.6917995495006
 30
0.0
 10
132.9593261386351
 20
-152.6917995495006
 30
0.0
 10
132.9593261386351
 20
-152.6917995495006
 30
0.0
 10
132.9868869025171
 20
-152.6917995495006
 30
0.0
 10
133.1477728616783
 20
-152.6897324922095
 30
0.0
 10
133.2576714076578
 20
-152.6749185816229
 30
0.0
 10
133.3148599927129
 20
-152.6687174097495
 30
0.0
 10
133.3317409605907
 20
-152.6494248750321
 30
0.0
 10
133.3548231003418
 20
-152.6263427352809
 30
0.0
 10
133.3548231003418
 20
-152.6263427352809
 30
0.0
 10
133.543269823385
 20
-152.7765488984378
 30
0.0
 10
133.543269823385
 20
-152.7765488984378
 30
0.0
 10
133.5284559127984
 20
-152.8061767196109
 30
0.0
 10
133.5177761167942
 20
-152.8251247447798
 30
0.0
 10
133.4819471237475
 20
-152.8950601831304
 30
0.0
  0
HATCH
  5
173
330
160
100
AcDbEntity
  8
レイヤー 1
 62
    18
420
        0
440
 33554687
100
AcDbHatch
 10
0.0
 20
0.0
 30
0.0
210
0.0
220
0.0
230
1.0
  2
SOLID
 70
     1
 71
     1
 91
        1
 92
        1
 93
        1
 72
     4
 94
        3
 73
     0
 74
     0
 95
       47
 96
       43
 40
0.0
 40
0.0
 40
0.0
 40
0.0
 40
1.0
 40
1.0
 40
1.0
 40
2.0
 40
2.0
 40
2.0
 40
3.0
 40
3.0
 40
3.0
 40
4.0
 40
4.0
 40
4.0
 40
5.0
 40
5.0
 40
5.0
 40
6.0
 40
6.0
 40
6.0
 40
7.0
 40
7.0
 40
7.0
 40
8.0
 40
8.0
 40
8.0
 40
9.0
 40
9.0
 40
9.0
 40
10.0
 40
10.0
 40
10.0
 40
11.0
 40
11.0
 40
11.0
 40
12.0
 40
12.0
 40
12.0
 40
13.0
 40
13.0
 40
13.0
 40
14.0
 40
14.0
 40
14.0
 40
14.0
 10
133.4819471237475
 20
-152.8950601831304
 10
133.412011685397
 20
-153.1741129174356
 10
133.335875075173
 20
-153.4790038678802
 10
133.0227158955638
 20
-153.8111110726583
 10
132.7860378357271
 20
-154.0605359857904
 10
132.5404025276288
 20
-154.1600992453141
 10
132.4346380962316
 20
-154.2024739197827
 10
132.4346380962316
 20
-154.2024739197827
 10
132.239990201315
 20
-154.0205728781615
 10
132.239990201315
 20
-154.0205728781615
 10
132.426369867067
 20
-153.9737195795621
 10
132.7881048930182
 20
-153.8807020014604
 10
133.0840385952012
 20
-153.3856417802299
 10
133.2449245543624
 20
-153.1193358992202
 10
133.2576714076578
 20
-152.9457030867636
 10
133.2662841463709
 20
-152.854752565953
 10
133.2662841463709
 20
-152.854752565953
 10
132.7605441291362
 20
-152.854752565953
 10
132.7605441291362
 20
-152.854752565953
 10
132.6420328444436
 20
-152.854752565953
 10
132.2210421761461
 20
-152.8737005911218
 10
132.0687689556981
 20
-152.8843803871261
 10
132.0687689556981
 20
-152.8843803871261
 10
132.0687689556981
 20
-152.6749185816229
 10
132.0687689556981
 20
-152.6749185816229
 10
132.2103623801418
 20
-152.6876654349183
 10
132.4876925667044
 20
-152.6917995495006
 10
132.6041367941059
 20
-152.6917995495006
 10
132.6041367941059
 20
-152.6917995495006
 10
132.9593261386351
 20
-152.6917995495006
 10
132.9593261386351
 20
-152.6917995495006
 10
132.9868869025171
 20
-152.6917995495006
 10
133.1477728616783
 20
-152.6897324922095
 10
133.2576714076578
 20
-152.6749185816229
 10
133.3148599927129
 20
-152.6687174097495
 10
133.3317409605907
 20
-152.6494248750321
 10
133.3548231003418
 20
-152.6263427352809
 10
133.3548231003418
 20
-152.6263427352809
 10
133.543269823385
 20
-152.7765488984378
 10
133.543269823385
 20
-152.7765488984378
 10
133.5284559127984
 20
-152.8061767196109
 10
133.5177761167942
 20
-152.8251247447798
 10
133.4819471237475
 20
-152.8950601831304
 97
        0
 97
        1
330
172
 75
     2
 76
     1
 98
        1
 10
0.0
 20
0.0
450
        0
451
        0
460
0.0
461
0.0
452
        0
462
0.0
453
        0
470

  0
SPLINE
  5
174
330
160
100
AcDbEntity
  8
レイヤー 1
100
AcDbSpline
210
0.0
220
0.0
230
1.0
 70
    11
 71
     3
 72
    17
 73
    13
 74
     0
 42
0.0000000001
 43
0.0000000001
 40
0.0
 40
0.0
 40
0.0
 40
0.0
 40
1.0
 40
1.0
 40
1.0
 40
2.0
 40
2.0
 40
2.0
 40
3.0
 40
3.0
 40
3.0
 40
4.0
 40
4.0
 40
4.0
 40
4.0
 10
133.8722764422264
 20
-152.6769856389141
 30
0.0
 10
133.8722764422264
 20
-152.7362412812604
 30
0.0
 10
133.9187852312772
 20
-152.7827500703113
 30
0.0
 10
133.9780408736235
 20
-152.7827500703113
 30
0.0
 10
134.0372965159698
 20
-152.7827500703113
 30
0.0
 10
134.0858723623119
 20
-152.7362412812604
 30
0.0
 10
134.0858723623119
 20
-152.6769856389141
 30
0.0
 10
134.0858723623119
 20
-152.6177299965678
 30
0.0
 10
134.0372965159698
 20
-152.5691541502258
 30
0.0
 10
133.9780408736235
 20
-152.5691541502258
 30
0.0
 10
133.9187852312772
 20
-152.5691541502258
 30
0.0
 10
133.8722764422264
 20
-152.6177299965678
 30
0.0
 10
133.8722764422264
 20
-152.6769856389141
 30
0.0
  0
SPLINE
  5
175
330
160
100
AcDbEntity
  8
レイヤー 1
100
AcDbSpline
210
0.0
220
0.0
230
1.0
 70
     9
 71
     3
 72
    17
 73
    13
 74
     0
 42
0.0000000001
 43
0.0000000001
 40
0.0
 40
0.0
 40
0.0
 40
0.0
 40
1.0
 40
1.0
 40
1.0
 40
2.0
 40
2.0
 40
2.0
 40
3.0
 40
3.0
 40
3.0
 40
4.0
 40
4.0
 40
4.0
 40
4.0
 10
134.1875026791267
 20
-152.6769856389141
 30
0.0
 10
134.1875026791267
 20
-152.7913628090244
 30
0.0
 10
134.094485101025
 20
-152.8864474444173
 30
0.0
 10
133.9780408736235
 20
-152.8864474444173
 30
0.0
 10
133.8640082130618
 20
-152.8864474444173
 30
0.0
 10
133.7685790681204
 20
-152.7913628090244
 30
0.0
 10
133.7685790681204
 20
-152.6769856389141
 30
0.0
 10
133.7685790681204
 20
-152.5605414115126
 30
0.0
 10
133.8640082130618
 20
-152.4675238334109
 30
0.0
 10
133.9780408736235
 20
-152.4675238334109
 30
0.0
 10
134.0924180437338
 20
-152.4675238334109
 30
0.0
 10
134.1875026791267
 20
-152.5605414115126
 30
0.0
 10
134.1875026791267
 20
-152.6769856389141
 30
0.0
  0
HATCH
  5
176
330
160
100
AcDbEntity
  8
レイヤー 1
 62
    18
420
        0
440
 33554687
100
AcDbHatch
 10
0.0
 20
0.0
 30
0.0
210
0.0
220
0.0
230
1.0
  2
SOLID
 70
     1
 71
     1
 91
        2
 92
        1
 93
        1
 72
     4
 94
        3
 73
     0
 74
     0
 95
       17
 96
       13
 40
0.0
 40
0.0
 40
0.0
 40
0.0
 40
1.0
 40
1.0
 40
1.0
 40
2.0
 40
2.0
 40
2.0
 40
3.0
 40
3.0
 40
3.0
 40
4.0
 40
4.0
 40
4.0
 40
4.0
 10
133.8722764422264
 20
-152.6769856389141
 10
133.8722764422264
 20
-152.7362412812604
 10
133.9187852312772
 20
-152.7827500703113
 10
133.9780408736235
 20
-152.7827500703113
 10
134.0372965159698
 20
-152.7827500703113
 10
134.0858723623119
 20
-152.7362412812604
 10
134.0858723623119
 20
-152.6769856389141
 10
134.0858723623119
 20
-152.6177299965678
 10
134.0372965159698
 20
-152.5691541502258
 10
133.9780408736235
 20
-152.5691541502258
 10
133.9187852312772
 20
-152.5691541502258
 10
133.8722764422264
 20
-152.6177299965678
 10
133.8722764422264
 20
-152.6769856389141
 97
        0
 97
        1
330
174
 92
        1
 93
        1
 72
     4
 94
        3
 73
     0
 74
     0
 95
       17
 96
       13
 40
0.0
 40
0.0
 40
0.0
 40
0.0
 40
1.0
 40
1.0
 40
1.0
 40
2.0
 40
2.0
 40
2.0
 40
3.0
 40
3.0
 40
3.0
 40
4.0
 40
4.0
 40
4.0
 40
4.0
 10
134.1875026791267
 20
-152.6769856389141
 10
134.1875026791267
 20
-152.7913628090244
 10
134.094485101025
 20
-152.8864474444173
 10
133.9780408736235
 20
-152.8864474444173
 10
133.8640082130618
 20
-152.8864474444173
 10
133.7685790681204
 20
-152.7913628090244
 10
133.7685790681204
 20
-152.6769856389141
 10
133.7685790681204
 20
-152.5605414115126
 10
133.8640082130618
 20
-152.4675238334109
 10
133.9780408736235
 20
-152.4675238334109
 10
134.0924180437338
 20
-152.4675238334109
 10
134.1875026791267
 20
-152.5605414115126
 10
134.1875026791267
 20
-152.6769856389141
 97
        0
 97
        1
330
175
 75
     2
 76
     1
 98
        1
 10
0.0
 20
0.0
450
        0
451
        0
460
0.0
461
0.0
452
        0
462
0.0
453
        0
470

  0
ENDBLK
  5
163
330
160
100
AcDbEntity
  8
0
100
AcDbBlockEnd
  0
ENDSEC
  0
SECTION
  2
ENTITIES
  0
LINE
  5
79
330
70
100
AcDbEntity
  8
レイヤー 1
  6
AI-Linetype-0
 62
   154
420
    23468
370
    25
100
AcDbLine
 10
81.9400178023165
 20
-148.1581830121269
 30
0.0
 11
96.93995214185882
 21
-148.1581830121269
 31
0.0
  0
LINE
  5
7B
330
70
100
AcDbEntity
  8
レイヤー 1
  6
AI-Linetype-1
 62
   154
420
    23468
370
    25
100
AcDbLine
 10
114.9436833492117
 20
-148.1581830121269
 30
0.0
 11
129.9436176887537
 21
-148.1581830121269
 31
0.0
  0
INSERT
  5
7E
330
70
100
AcDbEntity
  8
レイヤー 1
100
AcDbBlockReference
  2
Block_0
 10
0.0
 20
0.0
 30
0.0
  0
LINE
  5
84
330
70
100
AcDbEntity
  8
レイヤー 1
 62
    18
420
        0
370
    25
100
AcDbLine
 10
109.9417531990438
 20
-153.1580671775435
 30
0.0
 11
101.9415295142576
 21
-153.1580671775435
 31
0.0
  0
LINE
  5
85
330
70
100
AcDbEntity
  8
レイヤー 1
 62
    18
420
        0
370
    25
100
AcDbLine
 10
81.9400178023165
 20
-146.6578544013911
 30
0.0
 11
81.9400178023165
 21
-147.1580580123773
 31
0.0
  0
LINE
  5
86
330
70
100
AcDbEntity
  8
レイヤー 1
 62
    18
420
        0
370
    25
100
AcDbLine
 10
102.8772372681635
 20
-147.1580580123773
 30
0.0
 11
81.9400178023165
 21
-147.1580580123773
 31
0.0
  0
LINE
  5
87
330
70
100
AcDbEntity
  8
レイヤー 1
 62
    18
420
        0
370
    25
100
AcDbLine
 10
81.9400178023165
 20
-146.6578544013911
 30
0.0
 11
82.45401501142586
 21
-147.0399127346285
 31
0.0
  0
LINE
  5
88
330
70
100
AcDbEntity
  8
レイヤー 1
 62
    18
420
        0
370
    25
100
AcDbLine
 10
82.45401501142586
 20
-147.0399127346285
 30
0.0
 11
82.93943722126362
 21
-146.6223649569556
 31
0.0
  0
LINE
  5
89
330
70
100
AcDbEntity
  8
レイヤー 1
 62
    18
420
        0
370
    25
100
AcDbLine
 10
83.45343443037268
 20
-147.004423290193
 30
0.0
 11
83.93903302909546
 21
-146.5865227347423
 31
0.0
  0
LINE
  5
8A
330
70
100
AcDbEntity
  8
レイヤー 1
 62
    18
420
        0
370
    25
100
AcDbLine
 10
82.93943722126362
 20
-146.6223649569556
 30
0.0
 11
83.45343443037268
 21
-147.004423290193
 31
0.0
  0
LINE
  5
8B
330
70
100
AcDbEntity
  8
レイヤー 1
 62
    18
420
        0
370
    25
100
AcDbLine
 10
83.93903302909546
 20
-146.5865227347423
 30
0.0
 11
84.4530302382042
 21
-146.9685810679797
 31
0.0
  0
LINE
  5
8C
330
70
100
AcDbEntity
  8
レイヤー 1
 62
    18
420
        0
370
    25
100
AcDbLine
 10
84.4530302382042
 20
-146.9685810679797
 30
0.0
 11
84.93809967027349
 21
-146.5510332903062
 31
0.0
  0
LINE
  5
8D
330
70
100
AcDbEntity
  8
レイヤー 1
 62
    18
420
        0
370
    25
100
AcDbLine
 10
84.93809967027349
 20
-146.5510332903062
 30
0.0
 11
85.45209687938255
 21
-146.9327741235446
 31
0.0
  0
LINE
  5
8E
330
70
100
AcDbEntity
  8
レイヤー 1
 62
    18
420
        0
370
    25
100
AcDbLine
 10
85.45209687938255
 20
-146.9327741235446
 30
0.0
 11
85.93787186698939
 21
-146.5152263458711
 31
0.0
  0
LINE
  5
8F
330
70
100
AcDbEntity
  8
レイヤー 1
 62
    18
420
        0
370
    25
100
AcDbLine
 10
85.93787186698939
 20
-146.5152263458711
 30
0.0
 11
86.45186907609845
 21
-146.8969319013314
 31
0.0
  0
LINE
  5
90
330
70
100
AcDbEntity
  8
レイヤー 1
 62
    18
420
        0
370
    25
100
AcDbLine
 10
86.45186907609845
 20
-146.8969319013314
 30
0.0
 11
86.93693850816774
 21
-146.4793841236579
 31
0.0
  0
LINE
  5
91
330
70
100
AcDbEntity
  8
レイヤー 1
 62
    18
420
        0
370
    25
100
AcDbLine
 10
86.93693850816774
 20
-146.4793841236579
 30
0.0
 11
87.450970995054
 21
-146.8614424568952
 31
0.0
  0
LINE
  5
92
330
70
100
AcDbEntity
  8
レイヤー 1
 62
    18
420
        0
370
    25
100
AcDbLine
 10
87.450970995054
 20
-146.8614424568952
 30
0.0
 11
87.93671070488365
 21
-146.4438946792224
 31
0.0
  0
LINE
  5
93
330
70
100
AcDbEntity
  8
レイヤー 1
 62
    18
420
        0
370
    25
100
AcDbLine
 10
87.93671070488365
 20
-146.4438946792224
 30
0.0
 11
88.45003763623203
 21
-146.8259530124598
 31
0.0
  0
LINE
  5
94
330
70
100
AcDbEntity
  8
レイヤー 1
 62
    18
420
        0
370
    25
100
AcDbLine
 10
88.45003763623203
 20
-146.8259530124598
 30
0.0
 11
88.93577734606202
 21
-146.4080877347867
 31
0.0
  0
LINE
  5
95
330
70
100
AcDbEntity
  8
レイヤー 1
 62
    18
420
        0
370
    25
100
AcDbLine
 10
89.44980983294795
 20
-146.7901460680247
 30
0.0
 11
89.93487926501725
 21
-146.3725982903512
 31
0.0
  0
LINE
  5
96
330
70
100
AcDbEntity
  8
レイヤー 1
 62
    18
420
        0
370
    25
100
AcDbLine
 10
88.93577734606202
 20
-146.4080877347867
 30
0.0
 11
89.44980983294795
 21
-146.7901460680247
 31
0.0
  0
LINE
  5
97
330
70
100
AcDbEntity
  8
レイヤー 1
 62
    18
420
        0
370
    25
100
AcDbLine
 10
89.93487926501725
 20
-146.3725982903512
 30
0.0
 11
90.44887647412631
 21
-146.7543038458114
 31
0.0
  0
LINE
  5
98
330
70
100
AcDbEntity
  8
レイヤー 1
 62
    18
420
        0
370
    25
100
AcDbLine
 10
90.44887647412631
 20
-146.7543038458114
 30
0.0
 11
90.93465146173315
 21
-146.3367560681379
 31
0.0
  0
LINE
  5
99
330
70
100
AcDbEntity
  8
レイヤー 1
 62
    18
420
        0
370
    25
100
AcDbLine
 10
91.44864867084221
 20
-146.7184616235982
 30
0.0
 11
91.93354412989631
 21
-146.3009491237022
 31
0.0
  0
LINE
  5
9A
330
70
100
AcDbEntity
  8
レイヤー 1
 62
    18
420
        0
370
    25
100
AcDbLine
 10
90.93465146173315
 20
-146.3367560681379
 30
0.0
 11
91.44864867084221
 21
-146.7184616235982
 31
0.0
  0
LINE
  5
9B
330
70
100
AcDbEntity
  8
レイヤー 1
 62
    18
420
        0
370
    25
100
AcDbLine
 10
92.44754135198983
 20
-146.6830074569402
 30
0.0
 11
92.93331635186852
 21
-146.2654596792667
 31
0.0
  0
LINE
  5
9C
330
70
100
AcDbEntity
  8
レイヤー 1
 62
    18
420
        0
370
    25
100
AcDbLine
 10
91.93354412989631
 20
-146.3009491237022
 30
0.0
 11
92.44754135198983
 21
-146.6830074569402
 31
0.0
  0
LINE
  5
9D
330
70
100
AcDbEntity
  8
レイヤー 1
 62
    18
420
        0
370
    25
100
AcDbLine
 10
92.93331635186852
 20
-146.2654596792667
 30
0.0
 11
93.44731357396204
 21
-146.6475180125047
 31
0.0
  0
LINE
  5
9E
330
70
100
AcDbEntity
  8
レイヤー 1
 62
    18
420
        0
370
    25
100
AcDbLine
 10
93.44731357396204
 20
-146.6475180125047
 30
0.0
 11
93.93238301828523
 21
-146.2296174570535
 31
0.0
  0
LINE
  5
9F
330
70
100
AcDbEntity
  8
レイヤー 1
 62
    18
420
        0
370
    25
100
AcDbLine
 10
93.93238301828523
 20
-146.2296174570535
 30
0.0
 11
94.44641303880732
 21
-146.6116757902915
 31
0.0
  0
LINE
  5
A0
330
70
100
AcDbEntity
  8
レイヤー 1
 62
    18
420
        0
370
    25
100
AcDbLine
 10
94.44641303880732
 20
-146.6116757902915
 30
0.0
 11
94.9314824708766
 21
-146.194128012618
 31
0.0
  0
LINE
  5
A1
330
70
100
AcDbEntity
  8
レイヤー 1
 62
    18
420
        0
370
    25
100
AcDbLine
 10
94.9314824708766
 20
-146.194128012618
 30
0.0
 11
95.44547967998566
 21
-146.5758335680782
 31
0.0
  0
LINE
  5
A2
330
70
100
AcDbEntity
  8
レイヤー 1
 62
    18
420
        0
370
    25
100
AcDbLine
 10
95.44547967998566
 20
-146.5758335680782
 30
0.0
 11
95.93122190667445
 21
-146.1583210681822
 31
0.0
  0
LINE
  5
A3
330
70
100
AcDbEntity
  8
レイヤー 1
 62
    18
420
        0
370
    25
100
AcDbLine
 10
95.93122190667445
 20
-146.1583210681822
 30
0.0
 11
96.4452518767019
 21
-146.5400266236425
 31
0.0
  0
LINE
  5
A4
330
70
100
AcDbEntity
  8
レイヤー 1
 62
    18
420
        0
370
    25
100
AcDbLine
 10
96.4452518767019
 20
-146.5400266236425
 30
0.0
 11
96.93032130877087
 21
-146.122478845969
 31
0.0
  0
LINE
  5
A5
330
70
100
AcDbEntity
  8
レイヤー 1
 62
    18
420
        0
370
    25
100
AcDbLine
 10
96.93032130877087
 20
-146.122478845969
 30
0.0
 11
97.44431851787993
 21
-146.504537179207
 31
0.0
  0
LINE
  5
A6
330
70
100
AcDbEntity
  8
レイヤー 1
 62
    18
420
        0
370
    25
100
AcDbLine
 10
97.44431851787993
 20
-146.504537179207
 30
0.0
 11
97.93009350548679
 21
-146.0869894015335
 31
0.0
  0
LINE
  5
A7
330
70
100
AcDbEntity
  8
レイヤー 1
 62
    18
420
        0
370
    25
100
AcDbLine
 10
97.93009350548679
 20
-146.0869894015335
 30
0.0
 11
98.44409071459585
 21
-146.4690477347715
 31
0.0
  0
LINE
  5
A8
330
70
100
AcDbEntity
  8
レイヤー 1
 62
    18
420
        0
370
    25
100
AcDbLine
 10
98.44409071459585
 20
-146.4690477347715
 30
0.0
 11
98.92916014666512
 21
-146.0511471793203
 31
0.0
  0
LINE
  5
A9
330
70
100
AcDbEntity
  8
レイヤー 1
 62
    18
420
        0
370
    25
100
AcDbLine
 10
98.92916014666512
 20
-146.0511471793203
 30
0.0
 11
99.44315735577418
 21
-146.4332407903358
 31
0.0
  0
LINE
  5
AA
330
70
100
AcDbEntity
  8
レイヤー 1
 62
    18
420
        0
370
    25
100
AcDbLine
 10
99.44315735577418
 20
-146.4332407903358
 30
0.0
 11
99.92893234338104
 21
-146.0156930126626
 31
0.0
  0
LINE
  5
AB
330
70
100
AcDbEntity
  8
レイヤー 1
 62
    18
420
        0
370
    25
100
AcDbLine
 10
99.92893234338104
 20
-146.0156930126626
 30
0.0
 11
100.4429295524901
 21
-146.3973985681225
 31
0.0
  0
LINE
  5
AC
330
70
100
AcDbEntity
  8
レイヤー 1
 62
    18
420
        0
370
    25
100
AcDbLine
 10
100.4429295524901
 20
-146.3973985681225
 30
0.0
 11
100.9279989845594
 21
-145.979850790449
 31
0.0
  0
LINE
  5
AD
330
70
100
AcDbEntity
  8
レイヤー 1
 62
    18
420
        0
370
    25
100
AcDbLine
 10
100.9279989845594
 20
-145.979850790449
 30
0.0
 11
101.4419961936684
 21
-146.3615563459093
 31
0.0
  0
LINE
  5
AE
330
70
100
AcDbEntity
  8
レイヤー 1
 62
    18
420
        0
370
    25
100
AcDbLine
 10
101.4419961936684
 20
-146.3615563459093
 30
0.0
 11
101.9277711812753
 21
-145.9440085682358
 31
0.0
  0
LINE
  5
AF
330
70
100
AcDbEntity
  8
レイヤー 1
 62
    18
420
        0
370
    25
100
AcDbLine
 10
102.0017683904933
 20
-145.8957838460259
 30
0.0
 11
102.9413017109735
 21
-145.8957838460259
 31
0.0
  0
LINE
  5
B0
330
70
100
AcDbEntity
  8
レイヤー 1
 62
    18
420
        0
370
    25
100
AcDbLine
 10
102.9413017109735
 20
-145.8957838460259
 30
0.0
 11
102.9413017109735
 21
-152.1579421777938
 31
0.0
  0
LINE
  5
B1
330
70
100
AcDbEntity
  8
レイヤー 1
 62
    18
420
        0
370
    25
100
AcDbLine
 10
101.9415295142576
 20
-147.1580580123773
 30
0.0
 11
101.9415295142576
 21
-153.1580671775435
 31
0.0
  0
LINE
  5
B2
330
70
100
AcDbEntity
  8
レイヤー 1
 62
    18
420
        0
370
    25
100
AcDbLine
 10
108.9419810023279
 20
-152.1579421777938
 30
0.0
 11
102.9413017109735
 21
-152.1579421777938
 31
0.0
  0
LINE
  5
B3
330
70
100
AcDbEntity
  8
レイヤー 1
 62
    18
420
        0
370
    25
100
AcDbLine
 10
119.9490707215136
 20
-146.3009491237022
 30
0.0
 11
119.4357469007981
 21
-146.6830074569402
 31
0.0
  0
LINE
  5
B4
330
70
100
AcDbEntity
  8
レイヤー 1
 62
    18
420
        0
370
    25
100
AcDbLine
 10
124.9465205940181
 20
-146.4793841236579
 30
0.0
 11
124.432523384909
 21
-146.8614424568952
 31
0.0
  0
LINE
  5
B5
330
70
100
AcDbEntity
  8
レイヤー 1
 62
    18
420
        0
370
    25
100
AcDbLine
 10
120.4348135672151
 20
-146.7184616235982
 30
0.0
 11
119.9490707215136
 21
-146.3009491237022
 31
0.0
  0
LINE
  5
B6
330
70
100
AcDbEntity
  8
レイヤー 1
 62
    18
420
        0
370
    25
100
AcDbLine
 10
121.4339123502988
 20
-146.7543038458114
 30
0.0
 11
120.9488429182295
 21
-146.3367560681379
 31
0.0
  0
LINE
  5
B7
330
70
100
AcDbEntity
  8
レイヤー 1
 62
    18
420
        0
370
    25
100
AcDbLine
 10
119.4357469007981
 20
-146.6830074569402
 30
0.0
 11
118.9499719009201
 21
-146.2654596792667
 31
0.0
  0
LINE
  5
B8
330
70
100
AcDbEntity
  8
レイヤー 1
 62
    18
420
        0
370
    25
100
AcDbLine
 10
120.9488429182295
 20
-146.3367560681379
 30
0.0
 11
120.4348135672151
 21
-146.7184616235982
 31
0.0
  0
LINE
  5
B9
330
70
100
AcDbEntity
  8
レイヤー 1
 62
    18
420
        0
370
    25
100
AcDbLine
 10
128.9435279920459
 20
-146.6223649569556
 30
0.0
 11
128.42949550516
 21
-147.004423290193
 31
0.0
  0
LINE
  5
BA
330
70
100
AcDbEntity
  8
レイヤー 1
 62
    18
420
        0
370
    25
100
AcDbLine
 10
121.9479095594079
 20
-146.3725982903512
 30
0.0
 11
121.4339123502988
 21
-146.7543038458114
 31
0.0
  0
LINE
  5
BB
330
70
100
AcDbEntity
  8
レイヤー 1
 62
    18
420
        0
370
    25
100
AcDbLine
 10
122.9476817561238
 20
-146.4080877347867
 30
0.0
 11
122.4336524556047
 21
-146.7901460680247
 31
0.0
  0
LINE
  5
BC
330
70
100
AcDbEntity
  8
レイヤー 1
 62
    18
420
        0
370
    25
100
AcDbLine
 10
108.9419810023279
 20
-145.8957838460259
 30
0.0
 11
108.9419810023279
 21
-152.1579421777938
 31
0.0
  0
LINE
  5
BD
330
70
100
AcDbEntity
  8
レイヤー 1
 62
    18
420
        0
370
    25
100
AcDbLine
 10
122.4336524556047
 20
-146.7901460680247
 30
0.0
 11
121.9479095594079
 21
-146.3725982903512
 31
0.0
  0
LINE
  5
BE
330
70
100
AcDbEntity
  8
レイヤー 1
 62
    18
420
        0
370
    25
100
AcDbLine
 10
123.4327511881931
 20
-146.8259530124598
 30
0.0
 11
122.9476817561238
 21
-146.4080877347867
 31
0.0
  0
LINE
  5
BF
330
70
100
AcDbEntity
  8
レイヤー 1
 62
    18
420
        0
370
    25
100
AcDbLine
 10
128.42949550516
 20
-147.004423290193
 30
0.0
 11
127.9444260730907
 21
-146.5865227347423
 31
0.0
  0
LINE
  5
C0
330
70
100
AcDbEntity
  8
レイヤー 1
 62
    18
420
        0
370
    25
100
AcDbLine
 10
123.9467483973021
 20
-146.4438946792224
 30
0.0
 11
123.4327511881931
 21
-146.8259530124598
 31
0.0
  0
LINE
  5
C1
330
70
100
AcDbEntity
  8
レイヤー 1
 62
    18
420
        0
370
    25
100
AcDbLine
 10
124.432523384909
 20
-146.8614424568952
 30
0.0
 11
123.9467483973021
 21
-146.4438946792224
 31
0.0
  0
LINE
  5
C2
330
70
100
AcDbEntity
  8
レイヤー 1
 62
    18
420
        0
370
    25
100
AcDbLine
 10
129.4292677018759
 20
-147.0399127346285
 30
0.0
 11
128.9435279920459
 21
-146.6223649569556
 31
0.0
  0
LINE
  5
C3
330
70
100
AcDbEntity
  8
レイヤー 1
 62
    18
420
        0
370
    25
100
AcDbLine
 10
125.9455872351964
 20
-146.5152263458711
 30
0.0
 11
125.4315900260873
 21
-146.8969319013314
 31
0.0
  0
LINE
  5
C4
330
70
100
AcDbEntity
  8
レイヤー 1
 62
    18
420
        0
370
    25
100
AcDbLine
 10
126.9446538763748
 20
-146.5510332903062
 30
0.0
 11
126.4306566672657
 21
-146.9327741235446
 31
0.0
  0
LINE
  5
C5
330
70
100
AcDbEntity
  8
レイヤー 1
 62
    18
420
        0
370
    25
100
AcDbLine
 10
126.4306566672657
 20
-146.9327741235446
 30
0.0
 11
125.9455872351964
 21
-146.5152263458711
 31
0.0
  0
LINE
  5
C6
330
70
100
AcDbEntity
  8
レイヤー 1
 62
    18
420
        0
370
    25
100
AcDbLine
 10
129.9432649109849
 20
-146.6578544013911
 30
0.0
 11
129.4292677018759
 21
-147.0399127346285
 31
0.0
  0
LINE
  5
C7
330
70
100
AcDbEntity
  8
レイヤー 1
 62
    18
420
        0
370
    25
100
AcDbLine
 10
125.4315900260873
 20
-146.8969319013314
 30
0.0
 11
124.9465205940181
 21
-146.4793841236579
 31
0.0
  0
LINE
  5
C8
330
70
100
AcDbEntity
  8
レイヤー 1
 62
    18
420
        0
370
    25
100
AcDbLine
 10
127.9444260730907
 20
-146.5865227347423
 30
0.0
 11
127.4304288639816
 21
-146.9685810679797
 31
0.0
  0
LINE
  5
C9
330
70
100
AcDbEntity
  8
レイヤー 1
 62
    18
420
        0
370
    25
100
AcDbLine
 10
127.4304288639816
 20
-146.9685810679797
 30
0.0
 11
126.9446538763748
 21
-146.5510332903062
 31
0.0
  0
LINE
  5
CA
330
70
100
AcDbEntity
  8
レイヤー 1
 62
    18
420
        0
370
    25
100
AcDbLine
 10
129.9432649109849
 20
-146.6578544013911
 30
0.0
 11
129.9432649109849
 21
-147.1580580123773
 31
0.0
  0
LINE
  5
CB
330
70
100
AcDbEntity
  8
レイヤー 1
 62
    18
420
        0
370
    25
100
AcDbLine
 10
109.0522240550709
 20
-147.1580580123773
 30
0.0
 11
129.9432649109849
 21
-147.1580580123773
 31
0.0
  0
LINE
  5
CC
330
70
100
AcDbEntity
  8
レイヤー 1
 62
    18
420
        0
370
    25
100
AcDbLine
 10
118.9499719009201
 20
-146.2654596792667
 30
0.0
 11
118.4359746788262
 21
-146.6475180125047
 31
0.0
  0
LINE
  5
CD
330
70
100
AcDbEntity
  8
レイヤー 1
 62
    18
420
        0
370
    25
100
AcDbLine
 10
118.4359746788262
 20
-146.6475180125047
 30
0.0
 11
117.950905234503
 21
-146.2296174570535
 31
0.0
  0
LINE
  5
CE
330
70
100
AcDbEntity
  8
レイヤー 1
 62
    18
420
        0
370
    25
100
AcDbLine
 10
117.950905234503
 20
-146.2296174570535
 30
0.0
 11
117.4369080124092
 21
-146.6116757902915
 31
0.0
  0
LINE
  5
CF
330
70
100
AcDbEntity
  8
レイヤー 1
 62
    18
420
        0
370
    25
100
AcDbLine
 10
117.4369080124092
 20
-146.6116757902915
 30
0.0
 11
116.9511330125305
 21
-146.194128012618
 31
0.0
  0
LINE
  5
D0
330
70
100
AcDbEntity
  8
レイヤー 1
 62
    18
420
        0
370
    25
100
AcDbLine
 10
116.9511330125305
 20
-146.194128012618
 30
0.0
 11
116.4371357904367
 21
-146.5758335680782
 31
0.0
  0
LINE
  5
D1
330
70
100
AcDbEntity
  8
レイヤー 1
 62
    18
420
        0
370
    25
100
AcDbLine
 10
116.4371357904367
 20
-146.5758335680782
 30
0.0
 11
115.9520663461135
 21
-146.1583210681822
 31
0.0
  0
LINE
  5
D2
330
70
100
AcDbEntity
  8
レイヤー 1
 62
    18
420
        0
370
    25
100
AcDbLine
 10
115.9520663461135
 20
-146.1583210681822
 30
0.0
 11
115.4380691240197
 21
-146.5400266236425
 31
0.0
  0
LINE
  5
D3
330
70
100
AcDbEntity
  8
レイヤー 1
 62
    18
420
        0
370
    25
100
AcDbLine
 10
115.4380691240197
 20
-146.5400266236425
 30
0.0
 11
114.9522941241416
 21
-146.122478845969
 31
0.0
  0
LINE
  5
D4
330
70
100
AcDbEntity
  8
レイヤー 1
 62
    18
420
        0
370
    25
100
AcDbLine
 10
114.9522941241416
 20
-146.122478845969
 30
0.0
 11
114.4382969020477
 21
-146.504537179207
 31
0.0
  0
LINE
  5
D5
330
70
100
AcDbEntity
  8
レイヤー 1
 62
    18
420
        0
370
    25
100
AcDbLine
 10
114.4382969020477
 20
-146.504537179207
 30
0.0
 11
113.9532274577246
 21
-146.0869894015335
 31
0.0
  0
LINE
  5
D6
330
70
100
AcDbEntity
  8
レイヤー 1
 62
    18
420
        0
370
    25
100
AcDbLine
 10
113.9532274577246
 20
-146.0869894015335
 30
0.0
 11
113.4391919987056
 21
-146.4690477347715
 31
0.0
  0
LINE
  5
D7
330
70
100
AcDbEntity
  8
レイヤー 1
 62
    18
420
        0
370
    25
100
AcDbLine
 10
113.4391919987056
 20
-146.4690477347715
 30
0.0
 11
112.9541225666363
 21
-146.0511471793203
 31
0.0
  0
LINE
  5
D8
330
70
100
AcDbEntity
  8
レイヤー 1
 62
    18
420
        0
370
    25
100
AcDbLine
 10
112.9541225666363
 20
-146.0511471793203
 30
0.0
 11
112.4401253575272
 21
-146.4332407903358
 31
0.0
  0
LINE
  5
D9
330
70
100
AcDbEntity
  8
レイヤー 1
 62
    18
420
        0
370
    25
100
AcDbLine
 10
112.4401253575272
 20
-146.4332407903358
 30
0.0
 11
111.954388569335
 21
-146.0156930126626
 31
0.0
  0
LINE
  5
DA
330
70
100
AcDbEntity
  8
レイヤー 1
 62
    18
420
        0
370
    25
100
AcDbLine
 10
111.954388569335
 20
-146.0156930126626
 30
0.0
 11
111.4403531608113
 21
-146.3973985681225
 31
0.0
  0
LINE
  5
DB
330
70
100
AcDbEntity
  8
レイヤー 1
 62
    18
420
        0
370
    25
100
AcDbLine
 10
111.4403531608113
 20
-146.3973985681225
 30
0.0
 11
110.955283728742
 21
-145.979850790449
 31
0.0
  0
LINE
  5
DC
330
70
100
AcDbEntity
  8
レイヤー 1
 62
    18
420
        0
370
    25
100
AcDbLine
 10
110.955283728742
 20
-145.979850790449
 30
0.0
 11
110.441286519633
 21
-146.3615563459093
 31
0.0
  0
LINE
  5
DD
330
70
100
AcDbEntity
  8
レイヤー 1
 62
    18
420
        0
370
    25
100
AcDbLine
 10
110.441286519633
 20
-146.3615563459093
 30
0.0
 11
109.9555115320261
 21
-145.9440085682358
 31
0.0
  0
LINE
  5
DE
330
70
100
AcDbEntity
  8
レイヤー 1
 62
    18
420
        0
370
    25
100
AcDbLine
 10
109.8815143228081
 20
-145.8957838460259
 30
0.0
 11
108.9419810023279
 21
-145.8957838460259
 31
0.0
  0
LINE
  5
DF
330
70
100
AcDbEntity
  8
レイヤー 1
 62
    18
420
        0
370
    25
100
AcDbLine
 10
109.9417531990438
 20
-147.1580580123773
 30
0.0
 11
109.9417531990438
 21
-153.1580671775435
 31
0.0
  0
SPLINE
  5
E0
330
70
100
AcDbEntity
  8
レイヤー 1
 62
    18
420
        0
370
     9
100
AcDbSpline
210
0.0
220
0.0
230
1.0
 70
     9
 71
     3
 72
    17
 73
    13
 74
     0
 42
0.0000000001
 43
0.0000000001
 40
0.0
 40
0.0
 40
0.0
 40
0.0
 40
1.0
 40
1.0
 40
1.0
 40
2.0
 40
2.0
 40
2.0
 40
3.0
 40
3.0
 40
3.0
 40
4.0
 40
4.0
 40
4.0
 40
4.0
 10
82.03992446643431
 20
-141.8960246803591
 30
0.0
 10
82.03992446643431
 20
-141.8405680137064
 30
0.0
 10
81.99512168979955
 20
-141.7957652359397
 30
0.0
 10
81.9400178023165
 20
-141.7957652359397
 30
0.0
 10
81.88487863705653
 20
-141.7957652359397
 30
0.0
 10
81.84011113819865
 20
-141.8405680137064
 30
0.0
 10
81.84011113819865
 20
-141.8960246803591
 30
0.0
 10
81.84011113819865
 20
-141.9511638470121
 30
0.0
 10
81.88487863705653
 20
-141.9959313470007
 30
0.0
 10
81.9400178023165
 20
-141.9959313470007
 30
0.0
 10
81.99512168979955
 20
-141.9959313470007
 30
0.0
 10
82.03992446643431
 20
-141.9511638470121
 30
0.0
 10
82.03992446643431
 20
-141.8960246803591
 30
0.0
  0
SPLINE
  5
E1
330
70
100
AcDbEntity
  8
レイヤー 1
 62
    18
420
        0
370
     9
100
AcDbSpline
210
0.0
220
0.0
230
1.0
 70
     9
 71
     3
 72
    17
 73
    13
 74
     0
 42
0.0000000001
 43
0.0000000001
 40
0.0
 40
0.0
 40
0.0
 40
0.0
 40
1.0
 40
1.0
 40
1.0
 40
2.0
 40
2.0
 40
2.0
 40
3.0
 40
3.0
 40
3.0
 40
4.0
 40
4.0
 40
4.0
 40
4.0
 10
78.04016540181
 20
-146.6578544013911
 30
0.0
 10
78.04016540181
 20
-146.602715234738
 30
0.0
 10
77.99536262517524
 20
-146.5579477347494
 30
0.0
 10
77.94026080006123
 20
-146.5579477347494
 30
0.0
 10
77.88511957243222
 20
-146.5579477347494
 30
0.0
 10
77.84035207357433
 20
-146.602715234738
 30
0.0
 10
77.84035207357433
 20
-146.6578544013911
 30
0.0
 10
77.84035207357433
 20
-146.712958290266
 30
0.0
 10
77.88511957243222
 20
-146.7577610680327
 30
0.0
 10
77.94026080006123
 20
-146.7577610680327
 30
0.0
 10
77.99536262517524
 20
-146.7577610680327
 30
0.0
 10
78.04016540181
 20
-146.712958290266
 30
0.0
 10
78.04016540181
 20
-146.6578544013911
 30
0.0
  0
SPLINE
  5
E2
330
70
100
AcDbEntity
  8
レイヤー 1
 62
    18
420
        0
370
     9
100
AcDbSpline
210
0.0
220
0.0
230
1.0
 70
     9
 71
     3
 72
    17
 73
    13
 74
     0
 42
0.0000000001
 43
0.0000000001
 40
0.0
 40
0.0
 40
0.0
 40
0.0
 40
1.0
 40
1.0
 40
1.0
 40
2.0
 40
2.0
 40
2.0
 40
3.0
 40
3.0
 40
3.0
 40
4.0
 40
4.0
 40
4.0
 40
4.0
 10
78.04016540181
 20
-147.1580580123773
 30
0.0
 10
78.04016540181
 20
-147.1029541235017
 30
0.0
 10
77.99536262517524
 20
-147.058151345735
 30
0.0
 10
77.94026080006123
 20
-147.058151345735
 30
0.0
 10
77.88511957243222
 20
-147.058151345735
 30
0.0
 10
77.84035207357433
 20
-147.1029541235017
 30
0.0
 10
77.84035207357433
 20
-147.1580580123773
 30
0.0
 10
77.84035207357433
 20
-147.2131971790297
 30
0.0
 10
77.88511957243222
 20
-147.2579646790189
 30
0.0
 10
77.94026080006123
 20
-147.2579646790189
 30
0.0
 10
77.99536262517524
 20
-147.2579646790189
 30
0.0
 10
78.04016540181
 20
-147.2131971790297
 30
0.0
 10
78.04016540181
 20
-147.1580580123773
 30
0.0
  0
SPLINE
  5
E3
330
70
100
AcDbEntity
  8
レイヤー 1
 62
    18
420
        0
370
     9
100
AcDbSpline
210
0.0
220
0.0
230
1.0
 70
     9
 71
     3
 72
    17
 73
    13
 74
     0
 42
0.0000000001
 43
0.0000000001
 40
0.0
 40
0.0
 40
0.0
 40
0.0
 40
1.0
 40
1.0
 40
1.0
 40
2.0
 40
2.0
 40
2.0
 40
3.0
 40
3.0
 40
3.0
 40
4.0
 40
4.0
 40
4.0
 40
4.0
 10
78.04016540181
 20
-153.1580671775435
 30
0.0
 10
78.04016540181
 20
-153.102928010891
 30
0.0
 10
77.99536262517524
 20
-153.0581252331243
 30
0.0
 10
77.94026080006123
 20
-153.0581252331243
 30
0.0
 10
77.88511957243222
 20
-153.0581252331243
 30
0.0
 10
77.84035207357433
 20
-153.102928010891
 30
0.0
 10
77.84035207357433
 20
-153.1580671775435
 30
0.0
 10
77.84035207357433
 20
-153.213171066419
 30
0.0
 10
77.88511957243222
 20
-153.2579738441851
 30
0.0
 10
77.94026080006123
 20
-153.2579738441851
 30
0.0
 10
77.99536262517524
 20
-153.2579738441851
 30
0.0
 10
78.04016540181
 20
-153.213171066419
 30
0.0
 10
78.04016540181
 20
-153.1580671775435
 30
0.0
  0
SPLINE
  5
E4
330
70
100
AcDbEntity
  8
レイヤー 1
 62
    18
420
        0
370
     9
100
AcDbSpline
210
0.0
220
0.0
230
1.0
 70
     9
 71
     3
 72
    17
 73
    13
 74
     0
 42
0.0000000001
 43
0.0000000001
 40
0.0
 40
0.0
 40
0.0
 40
0.0
 40
1.0
 40
1.0
 40
1.0
 40
2.0
 40
2.0
 40
2.0
 40
3.0
 40
3.0
 40
3.0
 40
4.0
 40
4.0
 40
4.0
 40
4.0
 10
103.0412083750917
 20
-141.8960246803591
 30
0.0
 10
103.0412083750917
 20
-141.8405680137064
 30
0.0
 10
102.9964408762335
 20
-141.7957652359397
 30
0.0
 10
102.9413017109735
 20
-141.7957652359397
 30
0.0
 10
102.8861978234904
 20
-141.7957652359397
 30
0.0
 10
102.8413950468557
 20
-141.8405680137064
 30
0.0
 10
102.8413950468557
 20
-141.8960246803591
 30
0.0
 10
102.8413950468557
 20
-141.9511638470121
 30
0.0
 10
102.8861978234904
 20
-141.9959313470007
 30
0.0
 10
102.9413017109735
 20
-141.9959313470007
 30
0.0
 10
102.9964408762335
 20
-141.9959313470007
 30
0.0
 10
103.0412083750917
 20
-141.9511638470121
 30
0.0
 10
103.0412083750917
 20
-141.8960246803591
 30
0.0
  0
SPLINE
  5
E5
330
70
100
AcDbEntity
  8
レイヤー 1
 62
    18
420
        0
370
     9
100
AcDbSpline
210
0.0
220
0.0
230
1.0
 70
     9
 71
     3
 72
    17
 73
    13
 74
     0
 42
0.0000000001
 43
0.0000000001
 40
0.0
 40
0.0
 40
0.0
 40
0.0
 40
1.0
 40
1.0
 40
1.0
 40
2.0
 40
2.0
 40
2.0
 40
3.0
 40
3.0
 40
3.0
 40
4.0
 40
4.0
 40
4.0
 40
4.0
 10
130.1431135169975
 20
-141.8960246803591
 30
0.0
 10
130.1431135169975
 20
-141.8405680137064
 30
0.0
 10
130.0983107403627
 20
-141.7957652359397
 30
0.0
 10
130.0432068528797
 20
-141.7957652359397
 30
0.0
 10
129.9873621320821
 20
-141.7957652359397
 30
0.0
 10
129.9425946332243
 20
-141.8405680137064
 30
0.0
 10
129.9425946332243
 20
-141.8960246803591
 30
0.0
 10
129.9425946332243
 20
-141.9511638470121
 30
0.0
 10
129.9873621320821
 20
-141.9959313470007
 30
0.0
 10
130.0432068528797
 20
-141.9959313470007
 30
0.0
 10
130.0983107403627
 20
-141.9959313470007
 30
0.0
 10
130.1431135169975
 20
-141.9511638470121
 30
0.0
 10
130.1431135169975
 20
-141.8960246803591
 30
0.0
  0
SPLINE
  5
E6
330
70
100
AcDbEntity
  8
レイヤー 1
 62
    18
420
        0
370
     9
100
AcDbSpline
210
0.0
220
0.0
230
1.0
 70
     9
 71
     3
 72
    17
 73
    13
 74
     0
 42
0.0000000001
 43
0.0000000001
 40
0.0
 40
0.0
 40
0.0
 40
0.0
 40
1.0
 40
1.0
 40
1.0
 40
2.0
 40
2.0
 40
2.0
 40
3.0
 40
3.0
 40
3.0
 40
4.0
 40
4.0
 40
4.0
 40
4.0
 10
109.1417943305635
 20
-141.8960246803591
 30
0.0
 10
109.1417943305635
 20
-141.8405680137064
 30
0.0
 10
109.0970268317057
 20
-141.7957652359397
 30
0.0
 10
109.0418876664457
 20
-141.7957652359397
 30
0.0
 10
108.9867837789626
 20
-141.7957652359397
 30
0.0
 10
108.9419810023279
 20
-141.8405680137064
 30
0.0
 10
108.9419810023279
 20
-141.8960246803591
 30
0.0
 10
108.9419810023279
 20
-141.9511638470121
 30
0.0
 10
108.9867837789626
 20
-141.9959313470007
 30
0.0
 10
109.0418876664457
 20
-141.9959313470007
 30
0.0
 10
109.0970268317057
 20
-141.9959313470007
 30
0.0
 10
109.1417943305635
 20
-141.9511638470121
 30
0.0
 10
109.1417943305635
 20
-141.8960246803591
 30
0.0
  0
LINE
  5
E7
330
70
100
AcDbEntity
  8
レイヤー 1
 62
    18
420
        0
370
     9
100
AcDbLine
 10
77.94026080006123
 20
-146.6578544013911
 30
0.0
 11
77.94026080006123
 21
-141.3999485693722
 31
0.0
  0
LINE
  5
E8
330
70
100
AcDbEntity
  8
レイヤー 1
 62
    18
420
        0
370
     9
100
AcDbLine
 10
77.94026080006123
 20
-146.6578544013911
 30
0.0
 11
77.94026080006123
 21
-147.1580580123773
 31
0.0
  0
LINE
  5
E9
330
70
100
AcDbEntity
  8
レイヤー 1
 62
    18
420
        0
370
     9
100
AcDbLine
 10
79.40030008933262
 20
-146.6578544013911
 30
0.0
 11
76.94013580031124
 21
-146.6578544013911
 31
0.0
  0
LINE
  5
EA
330
70
100
AcDbEntity
  8
レイヤー 1
 62
    18
420
        0
370
     9
100
AcDbLine
 10
79.40030008933262
 20
-147.1580580123773
 30
0.0
 11
76.94013580031124
 21
-147.1580580123773
 31
0.0
  0
INSERT
  5
EC
330
70
100
AcDbEntity
  8
レイヤー 1
100
AcDbBlockReference
  2
Block_1
 10
0.0
 20
0.0
 30
0.0
  0
LINE
  5
FA
330
70
100
AcDbEntity
  8
レイヤー 1
 62
    18
420
        0
370
     9
100
AcDbLine
 10
81.9400178023165
 20
-141.8960246803591
 30
0.0
 11
102.9413017109735
 21
-141.8960246803591
 31
0.0
  0
LINE
  5
FB
330
70
100
AcDbEntity
  8
レイヤー 1
 62
    18
420
        0
370
     9
100
AcDbLine
 10
81.9400178023165
 20
-144.1181366242479
 30
0.0
 11
81.9400178023165
 21
-140.8959349583869
 31
0.0
  0
INSERT
  5
FD
330
70
100
AcDbEntity
  8
レイヤー 1
100
AcDbBlockReference
  2
Block_3
 10
0.0
 20
0.0
 30
0.0
  0
LINE
  5
108
330
70
100
AcDbEntity
  8
レイヤー 1
 62
    18
420
        0
370
     9
100
AcDbLine
 10
77.94026080006123
 20
-147.1580580123773
 30
0.0
 11
77.94026080006123
 21
-153.1580671775435
 31
0.0
  0
LINE
  5
109
330
70
100
AcDbEntity
  8
レイヤー 1
 62
    18
420
        0
370
     9
100
AcDbLine
 10
99.40181180127346
 20
-153.1580671775435
 30
0.0
 11
76.94013580031124
 21
-153.1580671775435
 31
0.0
  0
INSERT
  5
10B
330
70
100
AcDbEntity
  8
レイヤー 1
100
AcDbBlockReference
  2
Block_5
 10
0.0
 20
0.0
 30
0.0
  0
LINE
  5
111
330
70
100
AcDbEntity
  8
レイヤー 1
 62
    18
420
        0
370
     9
100
AcDbLine
 10
130.0432068528797
 20
-141.8960246803591
 30
0.0
 11
109.0418876664457
 21
-141.8960246803591
 31
0.0
  0
LINE
  5
112
330
70
100
AcDbEntity
  8
レイヤー 1
 62
    18
420
        0
370
     9
100
AcDbLine
 10
130.0432068528797
 20
-144.1181366242479
 30
0.0
 11
130.0432068528797
 21
-140.8959349583869
 31
0.0
  0
INSERT
  5
114
330
70
100
AcDbEntity
  8
レイヤー 1
100
AcDbBlockReference
  2
Block_6
 10
0.0
 20
0.0
 30
0.0
  0
LINE
  5
11F
330
70
100
AcDbEntity
  8
レイヤー 1
 62
    18
420
        0
370
     9
100
AcDbLine
 10
102.9413017109735
 20
-141.8960246803591
 30
0.0
 11
108.9419810023279
 21
-141.8960246803591
 31
0.0
  0
LINE
  5
120
330
70
100
AcDbEntity
  8
レイヤー 1
 62
    18
420
        0
370
     9
100
AcDbLine
 10
102.9413017109735
 20
-143.3560660688828
 30
0.0
 11
102.9413017109735
 21
-140.8959349583869
 31
0.0
  0
LINE
  5
121
330
70
100
AcDbEntity
  8
レイヤー 1
 62
    18
420
        0
370
     9
100
AcDbLine
 10
109.0418876664457
 20
-143.3560660688828
 30
0.0
 11
109.0418876664457
 21
-140.8959349583869
 31
0.0
  0
INSERT
  5
123
330
70
100
AcDbEntity
  8
レイヤー 1
100
AcDbBlockReference
  2
Block_8
 10
0.0
 20
0.0
 30
0.0
  0
SPLINE
  5
129
330
70
100
AcDbEntity
  8
レイヤー 1
 62
    18
420
        0
370
     9
100
AcDbSpline
210
0.0
220
0.0
230
1.0
 70
     9
 71
     3
 72
    17
 73
    13
 74
     0
 42
0.0000000001
 43
0.0000000001
 40
0.0
 40
0.0
 40
0.0
 40
0.0
 40
1.0
 40
1.0
 40
1.0
 40
2.0
 40
2.0
 40
2.0
 40
3.0
 40
3.0
 40
3.0
 40
4.0
 40
4.0
 40
4.0
 40
4.0
 10
102.225409784793
 20
-157.2714913431821
 30
0.0
 10
102.225409784793
 20
-157.2163874543066
 30
0.0
 10
102.1696003417724
 20
-157.1715846765405
 30
0.0
 10
102.1014083990676
 20
-157.1715846765405
 30
0.0
 10
102.0325135718155
 20
-157.1715846765405
 30
0.0
 10
101.9773717355654
 20
-157.2163874543066
 30
0.0
 10
101.9773717355654
 20
-157.2714913431821
 30
0.0
 10
101.9773717355654
 20
-157.3266305098346
 30
0.0
 10
102.0325135718155
 20
-157.3713980098238
 30
0.0
 10
102.1014083990676
 20
-157.3713980098238
 30
0.0
 10
102.1696003417724
 20
-157.3713980098238
 30
0.0
 10
102.225409784793
 20
-157.3266305098346
 30
0.0
 10
102.225409784793
 20
-157.2714913431821
 30
0.0
  0
SPLINE
  5
12A
330
70
100
AcDbEntity
  8
レイヤー 1
 62
    18
420
        0
370
     9
100
AcDbSpline
210
0.0
220
0.0
230
1.0
 70
     9
 71
     3
 72
    17
 73
    13
 74
     0
 42
0.0000000001
 43
0.0000000001
 40
0.0
 40
0.0
 40
0.0
 40
0.0
 40
1.0
 40
1.0
 40
1.0
 40
2.0
 40
2.0
 40
2.0
 40
3.0
 40
3.0
 40
3.0
 40
4.0
 40
4.0
 40
4.0
 40
4.0
 10
110.2263037473399
 20
-157.2714913431821
 30
0.0
 10
110.2263037473399
 20
-157.2163874543066
 30
0.0
 10
110.1704943043192
 20
-157.1715846765405
 30
0.0
 10
110.1015996809098
 20
-157.1715846765405
 30
0.0
 10
110.0326993078347
 20
-157.1715846765405
 30
0.0
 10
109.9775601425747
 20
-157.2163874543066
 30
0.0
 10
109.9775601425747
 20
-157.2714913431821
 30
0.0
 10
109.9775601425747
 20
-157.3266305098346
 30
0.0
 10
110.0326993078347
 20
-157.3713980098238
 30
0.0
 10
110.1015996809098
 20
-157.3713980098238
 30
0.0
 10
110.1704943043192
 20
-157.3713980098238
 30
0.0
 10
110.2263037473399
 20
-157.3266305098346
 30
0.0
 10
110.2263037473399
 20
-157.2714913431821
 30
0.0
  0
LINE
  5
12B
330
70
100
AcDbEntity
  8
レイヤー 1
 62
    18
420
        0
370
     9
100
AcDbLine
 10
110.1015996809098
 20
-157.2714913431821
 30
0.0
 11
102.1014083990676
 21
-157.2714913431821
 31
0.0
  0
LINE
  5
12C
330
70
100
AcDbEntity
  8
レイヤー 1
 62
    18
420
        0
370
     9
100
AcDbLine
 10
110.1015996809098
 20
-155.8114499546578
 30
0.0
 11
110.1015996809098
 21
-158.2716163429318
 31
0.0
  0
LINE
  5
12D
330
70
100
AcDbEntity
  8
レイヤー 1
 62
    18
420
        0
370
     9
100
AcDbLine
 10
102.1014083990676
 20
-155.8114499546578
 30
0.0
 11
102.1014083990676
 21
-158.2716163429318
 31
0.0
  0
INSERT
  5
12F
330
70
100
AcDbEntity
  8
レイヤー 1
100
AcDbBlockReference
  2
Block_9
 10
0.0
 20
0.0
 30
0.0
  0
LINE
  5
136
330
70
100
AcDbEntity
  8
レイヤー 1
 62
    18
420
        0
370
     9
100
AcDbLine
 10
107.9132810285722
 20
-150.3034599560349
 30
0.0
 11
114.9136972388656
 21
-150.3034599560349
 31
0.0
  0
INSERT
  5
138
330
70
100
AcDbEntity
  8
レイヤー 1
100
AcDbBlockReference
  2
Block_10
 10
0.0
 20
0.0
 30
0.0
  0
INSERT
  5
13E
330
70
100
AcDbEntity
  8
レイヤー 1
100
AcDbBlockReference
  2
Block_11
 10
0.0
 20
0.0
 30
0.0
  0
INSERT
  5
145
330
70
100
AcDbEntity
  8
レイヤー 1
100
AcDbBlockReference
  2
Block_12
 10
0.0
 20
0.0
 30
0.0
  0
INSERT
  5
15D
330
70
100
AcDbEntity
  8
レイヤー 1
100
AcDbBlockReference
  2
Block_14
 10
0.0
 20
0.0
 30
0.0
  0
ENDSEC
  0
SECTION
  2
OBJECTS
  0
DICTIONARY
  5
C
330
0
100
AcDbDictionary
281
     1
  3
ACAD_COLOR
350
63
  3
ACAD_DETAILVIEWSTYLE
350
6A
  3
ACAD_GROUP
350
D
  3
ACAD_LAYOUT
350
62
  3
ACAD_MATERIAL
350
10
  3
ACAD_MLEADERSTYLE
350
66
  3
ACAD_MLINESTYLE
350
5F
  3
ACAD_PLOTSETTINGS
350
61
  3
ACAD_PLOTSTYLENAME
350
E
  3
ACAD_SCALELIST
350
42
  3
ACAD_SECTIONVIEWSTYLE
350
68
  3
ACAD_TABLESTYLE
350
64
  3
ACAD_VISUALSTYLE
350
29
  3
ACDB_RECOMPOSE_DATA
350
17F
  3
AcDbVariableDictionary
350
177
  0
DICTIONARY
  5
63
102
{ACAD_REACTORS
330
C
102
}
330
C
100
AcDbDictionary
281
     1
  0
DICTIONARY
  5
6A
102
{ACAD_REACTORS
330
C
102
}
330
C
100
AcDbDictionary
281
     1
  3
Imperial24
350
6B
  0
DICTIONARY
  5
D
102
{ACAD_REACTORS
330
C
102
}
330
C
100
AcDbDictionary
281
     1
  0
DICTIONARY
  5
62
102
{ACAD_REACTORS
330
C
102
}
330
C
100
AcDbDictionary
281
     1
  3
Layout1
350
6F
  3
Layout2
350
77
  3
Model
350
73
  0
DICTIONARY
  5
10
102
{ACAD_REACTORS
330
C
102
}
330
C
100
AcDbDictionary
281
     1
  3
ByBlock
350
19
  3
ByLayer
350
11
  3
Global
350
21
  0
DICTIONARY
  5
66
102
{ACAD_REACTORS
330
C
102
}
330
C
100
AcDbDictionary
281
     1
  3
Standard
350
67
  0
DICTIONARY
  5
5F
102
{ACAD_REACTORS
330
C
102
}
330
C
100
AcDbDictionary
281
     1
  3
Standard
350
60
  0
DICTIONARY
  5
61
102
{ACAD_REACTORS
330
C
102
}
330
C
100
AcDbDictionary
281
     1
  0
ACDBDICTIONARYWDFLT
  5
E
102
{ACAD_REACTORS
330
C
102
}
330
C
100
AcDbDictionary
281
     1
  3
Normal
350
F
100
AcDbDictionaryWithDefault
340
F
  0
DICTIONARY
  5
42
102
{ACAD_REACTORS
330
C
102
}
330
C
100
AcDbDictionary
281
     1
  3
A0
350
43
  3
A1
350
44
  3
A2
350
45
  3
A3
350
46
  3
A4
350
47
  3
A5
350
48
  3
A6
350
49
  3
A7
350
4A
  3
A8
350
4B
  3
A9
350
4C
  3
B0
350
4D
  3
B1
350
4E
  3
B2
350
4F
  3
B3
350
50
  3
B4
350
51
  3
B5
350
52
  3
B6
350
53
  0
DICTIONARY
  5
68
102
{ACAD_REACTORS
330
C
102
}
330
C
100
AcDbDictionary
281
     1
  3
Imperial24
350
69
  0
DICTIONARY
  5
64
102
{ACAD_REACTORS
330
C
102
}
330
C
100
AcDbDictionary
281
     1
  3
Standard
350
65
  0
DICTIONARY
  5
29
102
{ACAD_REACTORS
330
C
102
}
330
C
100
AcDbDictionary
281
     1
  3
2dWireframe
350
2F
  3
Basic
350
2E
  3
Brighten
350
35
  3
ColorChange
350
39
  3
Conceptual
350
32
  3
Dim
350
34
  3
EdgeColorOff
350
41
  3
Facepattern
350
38
  3
Flat
350
2A
  3
FlatWithEdges
350
2B
  3
Gouraud
350
2C
  3
GouraudWithEdges
350
2D
  3
Hidden
350
31
  3
JitterOff
350
3F
  3
Linepattern
350
37
  3
OverhangOff
350
40
  3
Realistic
350
33
  3
Shaded
350
3E
  3
Shaded with edges
350
3D
  3
Shades of Gray
350
3A
  3
Sketchy
350
3B
  3
Thicken
350
36
  3
Wireframe
350
30
  3
X-Ray
350
3C
  0
XRECORD
  5
17F
102
{ACAD_REACTORS
330
C
102
}
330
C
100
AcDbXrecord
280
     1
 90
        1
330
65
  0
DICTIONARY
  5
177
102
{ACAD_REACTORS
330
C
102
}
330
C
100
AcDbDictionary
281
     1
  3
CANNOSCALE
350
17C
  3
CMLEADERSTYLE
350
179
  3
CTABLESTYLE
350
178
  3
CVIEWDETAILSTYLE
350
17A
  3
CVIEWSECTIONSTYLE
350
17B
  0
ACDBDETAILVIEWSTYLE
  5
6B
102
{ACAD_XDICTIONARY
360
1B4
102
}
102
{ACAD_REACTORS
330
6A
102
}
330
6A
100
AcDbModelDocViewStyle
 70
     0
  3
Imperial24
290
     0
100
AcDbDetailViewStyle
 70
     0
 71
     0
 90
        3
 71
     1
340
55
 62
   256
 40
0.24
340
0
 62
   256
 40
0.24
300

 40
0.36
280
     3
 71
     2
340
5D
 90
       25
 62
   256
 71
     3
340
55
 62
   256
 40
0.24
 90
        1
 40
0.75
 90
        1
300
%<\AcVar ViewType \f "%tc1">% %<\AcVar ViewDetailId>%\PSCALE %<\AcVar ViewScale \f "%sn">%
 71
     4
340
5D
 90
       25
 62
   256
340
5D
 90
       25
 62
   256
280
     0
  0
LAYOUT
  5
6F
102
{ACAD_REACTORS
330
62
102
}
330
62
100
AcDbPlotSettings
  1

  2

  4

  6

 40
0.0
 41
0.0
 42
0.0
 43
0.0
 44
0.0
 45
0.0
 46
0.0
 47
0.0
 48
0.0
 49
0.0
140
0.0
141
0.0
142
1.0
143
1.0
 70
   688
 72
     0
 73
     0
 74
     5
  7

 75
    16
147
1.0
 76
     0
 77
     2
 78
   300
148
0.0
149
0.0
100
AcDbLayout
  1
Layout1
 70
     1
 71
     1
 10
0.0
 20
0.0
 11
12.0
 21
9.0
 12
0.0
 22
0.0
 32
0.0
 14
0.0
 24
0.0
 34
0.0
 15
0.0
 25
0.0
 35
0.0
146
0.0
 13
0.0
 23
0.0
 33
0.0
 16
1.0
 26
0.0
 36
0.0
 17
0.0
 27
1.0
 37
0.0
 76
     0
330
6C
  0
LAYOUT
  5
77
102
{ACAD_REACTORS
330
62
102
}
330
62
100
AcDbPlotSettings
  1

  2

  4

  6

 40
0.0
 41
0.0
 42
0.0
 43
0.0
 44
0.0
 45
0.0
 46
0.0
 47
0.0
 48
0.0
 49
0.0
140
0.0
141
0.0
142
1.0
143
1.0
 70
   688
 72
     0
 73
     0
 74
     5
  7

 75
    16
147
1.0
 76
     0
 77
     2
 78
   300
148
0.0
149
0.0
100
AcDbLayout
  1
Layout2
 70
     1
 71
     2
 10
0.0
 20
0.0
 11
12.0
 21
9.0
 12
0.0
 22
0.0
 32
0.0
 14
0.0
 24
0.0
 34
0.0
 15
0.0
 25
0.0
 35
0.0
146
0.0
 13
0.0
 23
0.0
 33
0.0
 16
1.0
 26
0.0
 36
0.0
 17
0.0
 27
1.0
 37
0.0
 76
     0
330
74
  0
LAYOUT
  5
73
102
{ACAD_REACTORS
330
62
102
}
330
62
100
AcDbPlotSettings
  1

  2

  4

  6

 40
0.0
 41
0.0
 42
0.0
 43
0.0
 44
0.0
 45
0.0
 46
0.0
 47
0.0
 48
0.0
 49
0.0
140
0.0
141
0.0
142
1.0
143
1.0
 70
  1712
 72
     0
 73
     0
 74
     0
  7

 75
     0
147
1.0
 76
     0
 77
     2
 78
   300
148
0.0
149
0.0
100
AcDbLayout
  1
Model
 70
     1
 71
     0
 10
0.0
 20
0.0
 11
12.0
 21
9.0
 12
0.0
 22
0.0
 32
0.0
 14
0.0
 24
0.0
 34
0.0
 15
0.0
 25
0.0
 35
0.0
146
0.0
 13
0.0
 23
0.0
 33
0.0
 16
1.0
 26
0.0
 36
0.0
 17
0.0
 27
1.0
 37
0.0
 76
     0
330
70
  0
MATERIAL
  5
19
102
{ACAD_XDICTIONARY
360
1A
102
}
102
{ACAD_REACTORS
330
10
102
}
330
10
100
AcDbMaterial
  1
ByBlock
 72
     0
 43
0.0208333333333333
 43
0.0
 43
0.0
 43
0.0
 43
0.0
 43
0.0208333333333333
 43
0.0
 43
0.0
 43
0.0
 43
0.0
 43
1.0
 43
0.0
 43
0.0
 43
0.0
 43
0.0
 43
1.0
 77
     0
 47
0.0208333333333333
 47
0.0
 47
0.0
 47
0.0
 47
0.0
 47
0.0208333333333333
 47
0.0
 47
0.0
 47
0.0
 47
0.0
 47
1.0
 47
0.0
 47
0.0
 47
0.0
 47
0.0
 47
1.0
171
     0
 49
0.0208333333333333
 49
0.0
 49
0.0
 49
0.0
 49
0.0
 49
0.0208333333333333
 49
0.0
 49
0.0
 49
0.0
 49
0.0
 49
1.0
 49
0.0
 49
0.0
 49
0.0
 49
0.0
 49
1.0
175
     0
142
0.0208333333333333
142
0.0
142
0.0
142
0.0
142
0.0
142
0.0208333333333333
142
0.0
142
0.0
142
0.0
142
0.0
142
1.0
142
0.0
142
0.0
142
0.0
142
0.0
142
1.0
179
     0
144
0.0208333333333333
144
0.0
144
0.0
144
0.0
144
0.0
144
0.0208333333333333
144
0.0
144
0.0
144
0.0
144
0.0
144
1.0
144
0.0
144
0.0
144
0.0
144
0.0
144
1.0
147
0.0208333333333333
147
0.0
147
0.0
147
0.0
147
0.0
147
0.0208333333333333
147
0.0
147
0.0
147
0.0
147
0.0
147
1.0
147
0.0
147
0.0
147
0.0
147
0.0
147
1.0
  0
MATERIAL
  5
11
102
{ACAD_XDICTIONARY
360
12
102
}
102
{ACAD_REACTORS
330
10
102
}
330
10
100
AcDbMaterial
  1
ByLayer
 72
     0
 43
0.0208333333333333
 43
0.0
 43
0.0
 43
0.0
 43
0.0
 43
0.0208333333333333
 43
0.0
 43
0.0
 43
0.0
 43
0.0
 43
1.0
 43
0.0
 43
0.0
 43
0.0
 43
0.0
 43
1.0
 77
     0
 47
0.0208333333333333
 47
0.0
 47
0.0
 47
0.0
 47
0.0
 47
0.0208333333333333
 47
0.0
 47
0.0
 47
0.0
 47
0.0
 47
1.0
 47
0.0
 47
0.0
 47
0.0
 47
0.0
 47
1.0
171
     0
 49
0.0208333333333333
 49
0.0
 49
0.0
 49
0.0
 49
0.0
 49
0.0208333333333333
 49
0.0
 49
0.0
 49
0.0
 49
0.0
 49
1.0
 49
0.0
 49
0.0
 49
0.0
 49
0.0
 49
1.0
175
     0
142
0.0208333333333333
142
0.0
142
0.0
142
0.0
142
0.0
142
0.0208333333333333
142
0.0
142
0.0
142
0.0
142
0.0
142
1.0
142
0.0
142
0.0
142
0.0
142
0.0
142
1.0
179
     0
144
0.0208333333333333
144
0.0
144
0.0
144
0.0
144
0.0
144
0.0208333333333333
144
0.0
144
0.0
144
0.0
144
0.0
144
1.0
144
0.0
144
0.0
144
0.0
144
0.0
144
1.0
147
0.0208333333333333
147
0.0
147
0.0
147
0.0
147
0.0
147
0.0208333333333333
147
0.0
147
0.0
147
0.0
147
0.0
147
1.0
147
0.0
147
0.0
147
0.0
147
0.0
147
1.0
  0
MATERIAL
  5
21
102
{ACAD_XDICTIONARY
360
22
102
}
102
{ACAD_REACTORS
330
10
102
}
330
10
100
AcDbMaterial
  1
Global
 72
     0
 43
0.0208333333333333
 43
0.0
 43
0.0
 43
0.0
 43
0.0
 43
0.0208333333333333
 43
0.0
 43
0.0
 43
0.0
 43
0.0
 43
1.0
 43
0.0
 43
0.0
 43
0.0
 43
0.0
 43
1.0
 77
     0
 47
0.0208333333333333
 47
0.0
 47
0.0
 47
0.0
 47
0.0
 47
0.0208333333333333
 47
0.0
 47
0.0
 47
0.0
 47
0.0
 47
1.0
 47
0.0
 47
0.0
 47
0.0
 47
0.0
 47
1.0
171
     0
 49
0.0208333333333333
 49
0.0
 49
0.0
 49
0.0
 49
0.0
 49
0.0208333333333333
 49
0.0
 49
0.0
 49
0.0
 49
0.0
 49
1.0
 49
0.0
 49
0.0
 49
0.0
 49
0.0
 49
1.0
175
     0
142
0.0208333333333333
142
0.0
142
0.0
142
0.0
142
0.0
142
0.0208333333333333
142
0.0
142
0.0
142
0.0
142
0.0
142
1.0
142
0.0
142
0.0
142
0.0
142
0.0
142
1.0
179
     0
144
0.0208333333333333
144
0.0
144
0.0
144
0.0
144
0.0
144
0.0208333333333333
144
0.0
144
0.0
144
0.0
144
0.0
144
1.0
144
0.0
144
0.0
144
0.0
144
0.0
144
1.0
147
0.0208333333333333
147
0.0
147
0.0
147
0.0
147
0.0
147
0.0208333333333333
147
0.0
147
0.0
147
0.0
147
0.0
147
1.0
147
0.0
147
0.0
147
0.0
147
0.0
147
1.0
  0
MLEADERSTYLE
  5
67
102
{ACAD_XDICTIONARY
360
1B0
102
}
102
{ACAD_REACTORS
330
66
102
}
330
66
100
AcDbMLeaderStyle
179
     2
170
     2
171
     1
172
     0
 90
        2
 40
0.0
 41
0.0
173
     1
 91
-1056964608
340
5B
 92
       -2
290
     1
 42
0.09
291
     1
 43
0.36
  3
Standard
 44
0.18
300

342
55
174
     1
178
     6
175
     1
176
     0
 93
-1056964608
 45
0.18
292
     0
297
     0
 46
0.18
 94
-1056964608
 47
1.0
 49
1.0
140
1.0
293
     1
141
0.0
294
     1
177
     0
142
1.0
295
     0
296
     0
143
0.125
271
     0
272
     9
273
     9
  0
MLINESTYLE
  5
60
102
{ACAD_REACTORS
330
5F
102
}
330
5F
100
AcDbMlineStyle
  2
STANDARD
 70
     0
  3

 62
   256
 51
90.0
 52
90.0
 71
     2
 49
0.5
 62
   256
  6
BYLAYER
 49
-0.5
 62
   256
  6
BYLAYER
  0
ACDBPLACEHOLDER
  5
F
102
{ACAD_REACTORS
330
E
102
}
330
E
  0
SCALE
  5
43
102
{ACAD_REACTORS
330
42
102
}
330
42
100
AcDbScale
 70
     0
300
1:1
140
1.0
141
1.0
290
     1
  0
SCALE
  5
44
102
{ACAD_REACTORS
330
42
102
}
330
42
100
AcDbScale
 70
     0
300
1/128" = 1'-0"
140
0.0078125
141
12.0
290
     0
  0
SCALE
  5
45
102
{ACAD_REACTORS
330
42
102
}
330
42
100
AcDbScale
 70
     0
300
1/64" = 1'-0"
140
0.015625
141
12.0
290
     0
  0
SCALE
  5
46
102
{ACAD_REACTORS
330
42
102
}
330
42
100
AcDbScale
 70
     0
300
1/32" = 1'-0"
140
0.03125
141
12.0
290
     0
  0
SCALE
  5
47
102
{ACAD_REACTORS
330
42
102
}
330
42
100
AcDbScale
 70
     0
300
1/16" = 1'-0"
140
0.0625
141
12.0
290
     0
  0
SCALE
  5
48
102
{ACAD_REACTORS
330
42
102
}
330
42
100
AcDbScale
 70
     0
300
3/32" = 1'-0"
140
0.09375
141
12.0
290
     0
  0
SCALE
  5
49
102
{ACAD_REACTORS
330
42
102
}
330
42
100
AcDbScale
 70
     0
300
1/8" = 1'-0"
140
0.125
141
12.0
290
     0
  0
SCALE
  5
4A
102
{ACAD_REACTORS
330
42
102
}
330
42
100
AcDbScale
 70
     0
300
3/16" = 1'-0"
140
0.1875
141
12.0
290
     0
  0
SCALE
  5
4B
102
{ACAD_REACTORS
330
42
102
}
330
42
100
AcDbScale
 70
     0
300
1/4" = 1'-0"
140
0.25
141
12.0
290
     0
  0
SCALE
  5
4C
102
{ACAD_REACTORS
330
42
102
}
330
42
100
AcDbScale
 70
     0
300
3/8" = 1'-0"
140
0.375
141
12.0
290
     0
  0
SCALE
  5
4D
102
{ACAD_REACTORS
330
42
102
}
330
42
100
AcDbScale
 70
     0
300
1/2" = 1'-0"
140
0.5
141
12.0
290
     0
  0
SCALE
  5
4E
102
{ACAD_REACTORS
330
42
102
}
330
42
100
AcDbScale
 70
     0
300
3/4" = 1'-0"
140
0.75
141
12.0
290
     0
  0
SCALE
  5
4F
102
{ACAD_REACTORS
330
42
102
}
330
42
100
AcDbScale
 70
     0
300
1" = 1'-0"
140
1.0
141
12.0
290
     0
  0
SCALE
  5
50
102
{ACAD_REACTORS
330
42
102
}
330
42
100
AcDbScale
 70
     0
300
1-1/2" = 1'-0"
140
1.5
141
12.0
290
     0
  0
SCALE
  5
51
102
{ACAD_REACTORS
330
42
102
}
330
42
100
AcDbScale
 70
     0
300
3" = 1'-0"
140
3.0
141
12.0
290
     0
  0
SCALE
  5
52
102
{ACAD_REACTORS
330
42
102
}
330
42
100
AcDbScale
 70
     0
300
6" = 1'-0"
140
6.0
141
12.0
290
     0
  0
SCALE
  5
53
102
{ACAD_REACTORS
330
42
102
}
330
42
100
AcDbScale
 70
     0
300
1'-0" = 1'-0"
140
12.0
141
12.0
290
     0
  0
ACDBSECTIONVIEWSTYLE
  5
69
102
{ACAD_XDICTIONARY
360
1B2
102
}
102
{ACAD_REACTORS
330
68
102
}
330
68
100
AcDbModelDocViewStyle
 70
     0
  3
Imperial24
290
     0
100
AcDbSectionViewStyle
 70
     0
 71
     0
 90
       78
 71
     1
340
55
 62
   256
 40
0.24
340
0
340
0
 62
   256
 40
0.24
300
I, O, Q, S, X, Z
 40
0.48
 90
        3
 40
0.18
 90
        1
 71
     2
340
5D
 90
       25
 62
   256
340
5D
 90
       50
 62
   256
 40
0.24
 40
0.0
 40
0.24
 71
     3
340
55
 62
   256
 40
0.24
 90
        1
 40
0.75
 90
        1
300
%<\AcVar ViewType \f "%tc1">% %<\AcVar ViewSectionStartId>%-%<\AcVar ViewSectionEndId>%\PSCALE %<\AcVar ViewScale \f "%sn">%
 71
     4
 62
   256
 62
   257
300
ANSI31
 40
1.0
 90
        0
290
     0
290
     0
 90
        6
 40
0.0
 40
1.570796326794896
 40
0.2617993877991494
 40
1.308996938995747
 40
-0.2617993877991494
 40
1.832595714594046
  0
TABLESTYLE
  5
65
102
{ACAD_XDICTIONARY
360
17D
102
}
102
{ACAD_REACTORS
330
64
102
}
330
64
100
AcDbTableStyle
280
     0
  3
Standard
 70
     0
 71
     0
 40
0.06
 41
0.06
280
     0
281
     0
  7
Standard
140
0.18
170
     2
 62
     0
 63
     7
283
     0
 90
      512
 91
        0
  1

274
    -2
284
     1
 64
     0
275
    -2
285
     1
 65
     0
276
    -2
286
     1
 66
     0
277
    -2
287
     1
 67
     0
278
    -2
288
     1
 68
     0
279
    -2
289
     1
 69
     0
  7
Standard
140
0.25
170
     5
 62
     0
 63
     7
283
     0
 90
      512
 91
        0
  1

274
    -2
284
     1
 64
     0
275
    -2
285
     1
 65
     0
276
    -2
286
     1
 66
     0
277
    -2
287
     1
 67
     0
278
    -2
288
     1
 68
     0
279
    -2
289
     1
 69
     0
  7
Standard
140
0.18
170
     5
 62
     0
 63
     7
283
     0
 90
      512
 91
        0
  1

274
    -2
284
     1
 64
     0
275
    -2
285
     1
 65
     0
276
    -2
286
     1
 66
     0
277
    -2
287
     1
 67
     0
278
    -2
288
     1
 68
     0
279
    -2
289
     1
 69
     0
  0
VISUALSTYLE
  5
2F
102
{ACAD_XDICTIONARY
360
18A
102
}
102
{ACAD_REACTORS
330
29
102
}
330
29
100
AcDbVisualStyle
  2
2dWireframe
 70
     4
177
     2
291
     0
 71
     0
176
     1
 72
     2
176
     1
 73
     0
176
     1
 90
        0
176
     1
 40
0.6
176
     1
 41
30.0
176
     1
 63
     7
421
 16777215
176
     1
 74
     1
176
     1
 91
        4
176
     1
 64
     7
176
     1
 65
   257
176
     1
 75
     1
176
     1
175
     1
176
     1
 42
1.0
176
     1
 92
        0
176
     1
 66
   257
176
     1
 43
1.0
176
     1
 76
     1
176
     1
 77
     6
176
     1
 78
     2
176
     1
 67
     7
176
     1
 79
     5
176
     1
170
     0
176
     1
171
     0
176
     1
290
     0
176
     1
 93
        1
176
     1
 44
0.0
176
     1
173
     0
176
     1
1001
ACAD
1000
AcDbSavedByObjectVersion
1070
     0
  0
VISUALSTYLE
  5
2E
102
{ACAD_XDICTIONARY
360
188
102
}
102
{ACAD_REACTORS
330
29
102
}
330
29
100
AcDbVisualStyle
  2
Basic
 70
     7
177
     2
291
     1
 71
     1
176
     1
 72
     0
176
     1
 73
     1
176
     1
 90
        0
176
     1
 40
0.6
176
     1
 41
30.0
176
     1
 63
     7
421
 16777215
176
     1
 74
     0
176
     1
 91
        4
176
     1
 64
     7
176
     1
 65
   257
176
     1
 75
     1
176
     1
175
     1
176
     1
 42
1.0
176
     1
 92
        8
176
     1
 66
     7
176
     1
 43
1.0
176
     1
 76
     1
176
     1
 77
     6
176
     1
 78
     2
176
     1
 67
     7
176
     1
 79
     5
176
     1
170
     0
176
     1
171
     0
176
     1
290
     0
176
     1
 93
        1
176
     1
 44
0.0
176
     1
173
     0
176
     1
1001
ACAD
1000
AcDbSavedByObjectVersion
1070
     0
  0
VISUALSTYLE
  5
35
102
{ACAD_XDICTIONARY
360
196
102
}
102
{ACAD_REACTORS
330
29
102
}
330
29
100
AcDbVisualStyle
  2
Brighten
 70
    12
177
     2
291
     1
 71
     2
176
     1
 72
     2
176
     1
 73
     0
176
     1
 90
        0
176
     1
 40
0.6
176
     1
 41
30.0
176
     1
 63
     7
421
 16777215
176
     1
 74
     1
176
     1
 91
        4
176
     1
 64
     7
176
     1
 65
   257
176
     1
 75
     1
176
     1
175
     1
176
     1
 42
1.0
176
     1
 92
        8
176
     1
 66
     7
176
     1
 43
1.0
176
     1
 76
     1
176
     1
 77
     6
176
     1
 78
     2
176
     1
 67
     7
176
     1
 79
     5
176
     1
170
     0
176
     1
171
     0
176
     1
290
     0
176
     1
 93
        1
176
     1
 44
50.0
176
     1
173
     0
176
     1
1001
ACAD
1000
AcDbSavedByObjectVersion
1070
     0
  0
VISUALSTYLE
  5
39
102
{ACAD_XDICTIONARY
360
19E
102
}
102
{ACAD_REACTORS
330
29
102
}
330
29
100
AcDbVisualStyle
  2
ColorChange
 70
    16
177
     2
291
     1
 71
     2
176
     1
 72
     2
176
     1
 73
     3
176
     1
 90
        0
176
     1
 40
0.6
176
     1
 41
30.0
176
     1
 63
     8
421
  8421504
176
     1
 74
     1
176
     1
 91
        4
176
     1
 64
     7
176
     1
 65
   257
176
     1
 75
     1
176
     1
175
     1
176
     1
 42
1.0
176
     1
 92
        8
176
     1
 66
     8
424
  8421504
176
     1
 43
1.0
176
     1
 76
     1
176
     1
 77
     6
176
     1
 78
     2
176
     1
 67
     7
176
     1
 79
     5
176
     1
170
     0
176
     1
171
     0
176
     1
290
     0
176
     1
 93
        1
176
     1
 44
0.0
176
     1
173
     0
176
     1
1001
ACAD
1000
AcDbSavedByObjectVersion
1070
     0
  0
VISUALSTYLE
  5
32
102
{ACAD_XDICTIONARY
360
190
102
}
102
{ACAD_REACTORS
330
29
102
}
330
29
100
AcDbVisualStyle
  2
Conceptual
 70
     9
177
     2
291
     0
 71
     3
176
     1
 72
     2
176
     1
 73
     0
176
     1
 90
        0
176
     1
 40
0.6
176
     1
 41
30.0
176
     1
 63
     7
421
 16777215
176
     1
 74
     2
176
     1
 91
        2
176
     1
 64
     7
176
     1
 65
   257
176
     1
 75
     1
176
     1
175
     1
176
     1
 42
179.0
176
     1
 92
        8
176
     1
 66
     7
176
     1
 43
1.0
176
     1
 76
     1
176
     1
 77
     6
176
     1
 78
     2
176
     1
 67
     7
176
     1
 79
     3
176
     1
170
     0
176
     1
171
     0
176
     1
290
     0
176
     1
 93
        1
176
     1
 44
0.0
176
     1
173
     0
176
     1
1001
ACAD
1000
AcDbSavedByObjectVersion
1070
     0
  0
VISUALSTYLE
  5
34
102
{ACAD_XDICTIONARY
360
194
102
}
102
{ACAD_REACTORS
330
29
102
}
330
29
100
AcDbVisualStyle
  2
Dim
 70
    11
177
     2
291
     1
 71
     2
176
     1
 72
     2
176
     1
 73
     0
176
     1
 90
        0
176
     1
 40
0.6
176
     1
 41
30.0
176
     1
 63
     7
421
 16777215
176
     1
 74
     1
176
     1
 91
        4
176
     1
 64
     7
176
     1
 65
   257
176
     1
 75
     1
176
     1
175
     1
176
     1
 42
1.0
176
     1
 92
        8
176
     1
 66
     7
176
     1
 43
1.0
176
     1
 76
     1
176
     1
 77
     6
176
     1
 78
     2
176
     1
 67
     7
176
     1
 79
     5
176
     1
170
     0
176
     1
171
     0
176
     1
290
     0
176
     1
 93
        1
176
     1
 44
-50.0
176
     1
173
     0
176
     1
1001
ACAD
1000
AcDbSavedByObjectVersion
1070
     0
  0
VISUALSTYLE
  5
41
102
{ACAD_XDICTIONARY
360
1AE
102
}
102
{ACAD_REACTORS
330
29
102
}
330
29
100
AcDbVisualStyle
  2
EdgeColorOff
 70
    22
177
     2
291
     1
 71
     2
176
     0
 72
     2
176
     0
 73
     0
176
     0
 90
        0
176
     0
 40
0.6
176
     0
 41
30.0
176
     0
 63
     7
421
 16777215
176
     0
 74
     1
176
     0
 91
        4
176
     0
 64
     7
176
     0
 65
   257
176
     0
 75
     1
176
     0
175
     1
176
     0
 42
1.0
176
     0
 92
        8
176
     2
 66
     7
176
     0
 43
1.0
176
     0
 76
     1
176
     0
 77
     6
176
     0
 78
     2
176
     0
 67
     7
176
     0
 79
     5
176
     0
170
     0
176
     0
171
     0
176
     0
290
     0
176
     0
 93
        1
176
     0
 44
0.0
176
     0
173
     0
176
     0
1001
ACAD
1000
AcDbSavedByObjectVersion
1070
     0
  0
VISUALSTYLE
  5
38
102
{ACAD_XDICTIONARY
360
19C
102
}
102
{ACAD_REACTORS
330
29
102
}
330
29
100
AcDbVisualStyle
  2
Facepattern
 70
    15
177
     2
291
     1
 71
     2
176
     1
 72
     2
176
     1
 73
     0
176
     1
 90
        0
176
     1
 40
0.6
176
     1
 41
30.0
176
     1
 63
     7
421
 16777215
176
     1
 74
     1
176
     1
 91
        4
176
     1
 64
     7
176
     1
 65
   257
176
     1
 75
     1
176
     1
175
     1
176
     1
 42
1.0
176
     1
 92
        8
176
     1
 66
     7
176
     1
 43
1.0
176
     1
 76
     1
176
     1
 77
     6
176
     1
 78
     2
176
     1
 67
     7
176
     1
 79
     5
176
     1
170
     0
176
     1
171
     0
176
     1
290
     0
176
     1
 93
        1
176
     1
 44
0.0
176
     1
173
     0
176
     1
1001
ACAD
1000
AcDbSavedByObjectVersion
1070
     0
  0
VISUALSTYLE
  5
2A
102
{ACAD_XDICTIONARY
360
180
102
}
102
{ACAD_REACTORS
330
29
102
}
330
29
100
AcDbVisualStyle
  2
Flat
 70
     0
177
     2
291
     1
 71
     2
176
     1
 72
     1
176
     1
 73
     1
176
     1
 90
        2
176
     1
 40
0.6
176
     1
 41
30.0
176
     1
 63
     7
421
 16777215
176
     1
 74
     0
176
     1
 91
        0
176
     1
 64
     7
176
     1
 65
   257
176
     1
 75
     1
176
     1
175
     1
176
     1
 42
1.0
176
     1
 92
        8
176
     1
 66
     7
176
     1
 43
1.0
176
     1
 76
     1
176
     1
 77
     6
176
     1
 78
     2
176
     1
 67
     7
176
     1
 79
     5
176
     1
170
     0
176
     1
171
     0
176
     1
290
     0
176
     1
 93
       13
176
     1
 44
0.0
176
     1
173
     0
176
     1
1001
ACAD
1000
AcDbSavedByObjectVersion
1070
     0
  0
VISUALSTYLE
  5
2B
102
{ACAD_XDICTIONARY
360
182
102
}
102
{ACAD_REACTORS
330
29
102
}
330
29
100
AcDbVisualStyle
  2
FlatWithEdges
 70
     1
177
     2
291
     1
 71
     2
176
     1
 72
     1
176
     1
 73
     1
176
     1
 90
        2
176
     1
 40
0.6
176
     1
 41
30.0
176
     1
 63
     7
421
 16777215
176
     1
 74
     1
176
     1
 91
        0
176
     1
 64
     7
176
     1
 65
   257
176
     1
 75
     1
176
     1
175
     1
176
     1
 42
1.0
176
     1
 92
        0
176
     1
 66
   257
176
     1
 43
1.0
176
     1
 76
     1
176
     1
 77
     6
176
     1
 78
     2
176
     1
 67
     7
176
     1
 79
     5
176
     1
170
     0
176
     1
171
     0
176
     1
290
     0
176
     1
 93
       13
176
     1
 44
0.0
176
     1
173
     0
176
     1
1001
ACAD
1000
AcDbSavedByObjectVersion
1070
     0
  0
VISUALSTYLE
  5
2C
102
{ACAD_XDICTIONARY
360
184
102
}
102
{ACAD_REACTORS
330
29
102
}
330
29
100
AcDbVisualStyle
  2
Gouraud
 70
     2
177
     2
291
     1
 71
     2
176
     1
 72
     2
176
     1
 73
     1
176
     1
 90
        2
176
     1
 40
0.6
176
     1
 41
30.0
176
     1
 63
     7
421
 16777215
176
     1
 74
     0
176
     1
 91
        0
176
     1
 64
     7
176
     1
 65
   257
176
     1
 75
     1
176
     1
175
     1
176
     1
 42
1.0
176
     1
 92
        0
176
     1
 66
     7
176
     1
 43
1.0
176
     1
 76
     1
176
     1
 77
     6
176
     1
 78
     2
176
     1
 67
     7
176
     1
 79
     5
176
     1
170
     0
176
     1
171
     0
176
     1
290
     0
176
     1
 93
       13
176
     1
 44
0.0
176
     1
173
     0
176
     1
1001
ACAD
1000
AcDbSavedByObjectVersion
1070
     0
  0
VISUALSTYLE
  5
2D
102
{ACAD_XDICTIONARY
360
186
102
}
102
{ACAD_REACTORS
330
29
102
}
330
29
100
AcDbVisualStyle
  2
GouraudWithEdges
 70
     3
177
     2
291
     1
 71
     2
176
     1
 72
     2
176
     1
 73
     1
176
     1
 90
        2
176
     1
 40
0.6
176
     1
 41
30.0
176
     1
 63
     7
421
 16777215
176
     1
 74
     1
176
     1
 91
        0
176
     1
 64
     7
176
     1
 65
   257
176
     1
 75
     1
176
     1
175
     1
176
     1
 42
1.0
176
     1
 92
        0
176
     1
 66
   257
176
     1
 43
1.0
176
     1
 76
     1
176
     1
 77
     6
176
     1
 78
     2
176
     1
 67
     7
176
     1
 79
     5
176
     1
170
     0
176
     1
171
     0
176
     1
290
     0
176
     1
 93
       13
176
     1
 44
0.0
176
     1
173
     0
176
     1
1001
ACAD
1000
AcDbSavedByObjectVersion
1070
     0
  0
VISUALSTYLE
  5
31
102
{ACAD_XDICTIONARY
360
18E
102
}
102
{ACAD_REACTORS
330
29
102
}
330
29
100
AcDbVisualStyle
  2
Hidden
 70
     6
177
     2
291
     0
 71
     1
176
     1
 72
     2
176
     1
 73
     2
176
     1
 90
        0
176
     1
 40
0.6
176
     1
 41
30.0
176
     1
 63
     7
421
 16777215
176
     1
 74
     2
176
     1
 91
        2
176
     1
 64
     7
176
     1
 65
   257
176
     1
 75
     2
176
     1
175
     1
176
     1
 42
40.0
176
     1
 92
        0
176
     1
 66
   257
176
     1
 43
1.0
176
     1
 76
     1
176
     1
 77
     6
176
     1
 78
     2
176
     1
 67
     7
176
     1
 79
     3
176
     1
170
     0
176
     1
171
     0
176
     1
290
     0
176
     1
 93
        1
176
     1
 44
0.0
176
     1
173
     0
176
     1
1001
ACAD
1000
AcDbSavedByObjectVersion
1070
     0
  0
VISUALSTYLE
  5
3F
102
{ACAD_XDICTIONARY
360
1AA
102
}
102
{ACAD_REACTORS
330
29
102
}
330
29
100
AcDbVisualStyle
  2
JitterOff
 70
    20
177
     2
291
     1
 71
     2
176
     0
 72
     2
176
     0
 73
     0
176
     0
 90
        0
176
     0
 40
0.6
176
     0
 41
30.0
176
     0
 63
     7
421
 16777215
176
     0
 74
     1
176
     0
 91
        4
176
     0
 64
     7
176
     0
 65
   257
176
     0
 75
     1
176
     0
175
     1
176
     0
 42
1.0
176
     0
 92
       10
176
     2
 66
     7
176
     0
 43
1.0
176
     0
 76
     1
176
     0
 77
     6
176
     0
 78
     2
176
     0
 67
     7
176
     0
 79
     5
176
     0
170
     0
176
     0
171
     0
176
     0
290
     0
176
     0
 93
        1
176
     0
 44
0.0
176
     0
173
     0
176
     0
1001
ACAD
1000
AcDbSavedByObjectVersion
1070
     0
  0
VISUALSTYLE
  5
37
102
{ACAD_XDICTIONARY
360
19A
102
}
102
{ACAD_REACTORS
330
29
102
}
330
29
100
AcDbVisualStyle
  2
Linepattern
 70
    14
177
     2
291
     1
 71
     2
176
     1
 72
     2
176
     1
 73
     0
176
     1
 90
        0
176
     1
 40
0.6
176
     1
 41
30.0
176
     1
 63
     7
421
 16777215
176
     1
 74
     1
176
     1
 91
        4
176
     1
 64
     7
176
     1
 65
   257
176
     1
 75
     7
176
     1
175
     7
176
     1
 42
1.0
176
     1
 92
        8
176
     1
 66
     7
176
     1
 43
1.0
176
     1
 76
     1
176
     1
 77
     6
176
     1
 78
     2
176
     1
 67
     7
176
     1
 79
     5
176
     1
170
     0
176
     1
171
     0
176
     1
290
     0
176
     1
 93
        1
176
     1
 44
0.0
176
     1
173
     0
176
     1
1001
ACAD
1000
AcDbSavedByObjectVersion
1070
     0
  0
VISUALSTYLE
  5
40
102
{ACAD_XDICTIONARY
360
1AC
102
}
102
{ACAD_REACTORS
330
29
102
}
330
29
100
AcDbVisualStyle
  2
OverhangOff
 70
    21
177
     2
291
     1
 71
     2
176
     0
 72
     2
176
     0
 73
     0
176
     0
 90
        0
176
     0
 40
0.6
176
     0
 41
30.0
176
     0
 63
     7
421
 16777215
176
     0
 74
     1
176
     0
 91
        4
176
     0
 64
     7
176
     0
 65
   257
176
     0
 75
     1
176
     0
175
     1
176
     0
 42
1.0
176
     0
 92
        9
176
     2
 66
     7
176
     0
 43
1.0
176
     0
 76
     1
176
     0
 77
     6
176
     0
 78
     2
176
     0
 67
     7
176
     0
 79
     5
176
     0
170
     0
176
     0
171
     0
176
     0
290
     0
176
     0
 93
        1
176
     0
 44
0.0
176
     0
173
     0
176
     0
1001
ACAD
1000
AcDbSavedByObjectVersion
1070
     0
  0
VISUALSTYLE
  5
33
102
{ACAD_XDICTIONARY
360
192
102
}
102
{ACAD_REACTORS
330
29
102
}
330
29
100
AcDbVisualStyle
  2
Realistic
 70
     8
177
     2
291
     0
 71
     2
176
     1
 72
     3
176
     1
 73
     0
176
     1
 90
        2
176
     1
 40
0.6
176
     1
 41
30.0
176
     1
 63
     7
421
 16777215
176
     1
 74
     0
176
     1
 91
        0
176
     1
 64
     7
176
     1
 65
   257
176
     1
 75
     1
176
     1
175
     1
176
     1
 42
1.0
176
     1
 92
        8
176
     1
 66
   257
176
     1
 43
1.0
176
     1
 76
     1
176
     1
 77
     6
176
     1
 78
     2
176
     1
 67
     7
176
     1
 79
     3
176
     1
170
     0
176
     1
171
     0
176
     1
290
     0
176
     1
 93
       13
176
     1
 44
0.0
176
     1
173
     0
176
     1
1001
ACAD
1000
AcDbSavedByObjectVersion
1070
     0
  0
VISUALSTYLE
  5
3E
102
{ACAD_XDICTIONARY
360
1A8
102
}
102
{ACAD_REACTORS
330
29
102
}
330
29
100
AcDbVisualStyle
  2
Shaded
 70
    27
177
     2
291
     0
 71
     2
176
     1
 72
     2
176
     1
 73
     1
176
     1
 90
        2
176
     1
 40
0.6
176
     1
 41
30.0
176
     1
 63
     7
421
 16777215
176
     1
 74
     0
176
     1
 91
        4
176
     1
 64
     7
176
     1
 65
   257
176
     1
 75
     1
176
     1
175
     1
176
     1
 42
1.0
176
     1
 92
        8
176
     1
 66
   257
176
     1
 43
1.0
176
     1
 76
     1
176
     1
 77
     6
176
     1
 78
     2
176
     1
 67
     8
425
  7895160
176
     1
 79
     3
176
     1
170
     0
176
     1
171
     0
176
     1
290
     0
176
     1
 93
        5
176
     1
 44
0.0
176
     1
173
     0
176
     1
1001
ACAD
1000
AcDbSavedByObjectVersion
1070
     0
  0
VISUALSTYLE
  5
3D
102
{ACAD_XDICTIONARY
360
1A6
102
}
102
{ACAD_REACTORS
330
29
102
}
330
29
100
AcDbVisualStyle
  2
Shaded with edges
 70
    26
177
     2
291
     0
 71
     2
176
     1
 72
     2
176
     1
 73
     1
176
     1
 90
        2
176
     1
 40
0.6
176
     1
 41
30.0
176
     1
 63
     7
421
 16777215
176
     1
 74
     1
176
     1
 91
        2
176
     1
 64
     7
176
     1
 65
   257
176
     1
 75
     2
176
     1
175
     1
176
     1
 42
1.0
176
     1
 92
        8
176
     1
 66
   257
176
     1
 43
1.0
176
     1
 76
     1
176
     1
 77
     6
176
     1
 78
     2
176
     1
 67
     7
176
     1
 79
     3
176
     1
170
     0
176
     1
171
     0
176
     1
290
     0
176
     1
 93
        5
176
     1
 44
0.0
176
     1
173
     0
176
     1
1001
ACAD
1000
AcDbSavedByObjectVersion
1070
     0
  0
VISUALSTYLE
  5
3A
102
{ACAD_XDICTIONARY
360
1A0
102
}
102
{ACAD_REACTORS
330
29
102
}
330
29
100
AcDbVisualStyle
  2
Shades of Gray
 70
    23
177
     2
291
     0
 71
     2
176
     1
 72
     2
176
     1
 73
     3
176
     1
 90
        0
176
     1
 40
0.6
176
     1
 41
30.0
176
     1
 63
     7
421
 16777215
176
     1
 74
     2
176
     1
 91
        2
176
     1
 64
     7
176
     1
 65
     7
176
     1
 75
     1
176
     1
175
     1
176
     1
 42
40.0
176
     1
 92
        8
176
     1
 66
     7
176
     1
 43
1.0
176
     1
 76
     1
176
     1
 77
     6
176
     1
 78
     2
176
     1
 67
     7
176
     1
 79
     3
176
     1
170
     0
176
     1
171
     0
176
     1
290
     0
176
     1
 93
        1
176
     1
 44
0.0
176
     1
173
     0
176
     1
1001
ACAD
1000
AcDbSavedByObjectVersion
1070
     0
  0
VISUALSTYLE
  5
3B
102
{ACAD_XDICTIONARY
360
1A2
102
}
102
{ACAD_REACTORS
330
29
102
}
330
29
100
AcDbVisualStyle
  2
Sketchy
 70
    24
177
     2
291
     0
 71
     1
176
     1
 72
     2
176
     1
 73
     2
176
     1
 90
        0
176
     1
 40
0.6
176
     1
 41
30.0
176
     1
 63
     7
421
 16777215
176
     1
 74
     2
176
     1
 91
        2
176
     1
 64
     7
176
     1
 65
     7
176
     1
 75
     1
176
     1
175
     1
176
     1
 42
40.0
176
     1
 92
       11
176
     1
 66
     7
176
     1
 43
1.0
176
     1
 76
     1
176
     1
 77
     6
176
     1
 78
     2
176
     1
 67
     7
176
     1
 79
     6
176
     1
170
     0
176
     1
171
     0
176
     1
290
     0
176
     1
 93
        1
176
     1
 44
0.0
176
     1
173
     0
176
     1
1001
ACAD
1000
AcDbSavedByObjectVersion
1070
     0
  0
VISUALSTYLE
  5
36
102
{ACAD_XDICTIONARY
360
198
102
}
102
{ACAD_REACTORS
330
29
102
}
330
29
100
AcDbVisualStyle
  2
Thicken
 70
    13
177
     2
291
     1
 71
     2
176
     1
 72
     2
176
     1
 73
     0
176
     1
 90
        0
176
     1
 40
0.6
176
     1
 41
30.0
176
     1
 63
     7
421
 16777215
176
     1
 74
     1
176
     1
 91
        4
176
     1
 64
     7
176
     1
 65
   257
176
     1
 75
     1
176
     1
175
     1
176
     1
 42
1.0
176
     1
 92
       12
176
     1
 66
     7
176
     1
 43
1.0
176
     1
 76
     1
176
     1
 77
     6
176
     1
 78
     2
176
     1
 67
     7
176
     1
 79
     5
176
     1
170
     0
176
     1
171
     0
176
     1
290
     0
176
     1
 93
        1
176
     1
 44
0.0
176
     1
173
     0
176
     1
1001
ACAD
1000
AcDbSavedByObjectVersion
1070
     0
  0
VISUALSTYLE
  5
30
102
{ACAD_XDICTIONARY
360
18C
102
}
102
{ACAD_REACTORS
330
29
102
}
330
29
100
AcDbVisualStyle
  2
Wireframe
 70
     5
177
     2
291
     0
 71
     0
176
     1
 72
     2
176
     1
 73
     0
176
     1
 90
        0
176
     1
 40
0.6
176
     1
 41
30.0
176
     1
 63
     7
421
 16777215
176
     1
 74
     1
176
     1
 91
        4
176
     1
 64
     7
176
     1
 65
   257
176
     1
 75
     1
176
     1
175
     1
176
     1
 42
1.0
176
     1
 92
        0
176
     1
 66
   257
176
     1
 43
1.0
176
     1
 76
     1
176
     1
 77
     6
176
     1
 78
     2
176
     1
 67
     7
176
     1
 79
     3
176
     1
170
     0
176
     1
171
     0
176
     1
290
     0
176
     1
 93
        1
176
     1
 44
0.0
176
     1
173
     0
176
     1
1001
ACAD
1000
AcDbSavedByObjectVersion
1070
     0
  0
VISUALSTYLE
  5
3C
102
{ACAD_XDICTIONARY
360
1A4
102
}
102
{ACAD_REACTORS
330
29
102
}
330
29
100
AcDbVisualStyle
  2
X-Ray
 70
    25
177
     2
291
     0
 71
     2
176
     1
 72
     2
176
     1
 73
     1
176
     1
 90
        1
176
     1
 40
0.5
176
     1
 41
30.0
176
     1
 63
     7
421
 16777215
176
     1
 74
     1
176
     1
 91
        0
176
     1
 64
     7
176
     1
 65
   257
176
     1
 75
     1
176
     1
175
     1
176
     1
 42
1.0
176
     1
 92
        8
176
     1
 66
     7
176
     1
 43
1.0
176
     1
 76
     1
176
     1
 77
     6
176
     1
 78
     2
176
     1
 67
     7
176
     1
 79
     3
176
     1
170
     0
176
     1
171
     0
176
     1
290
     0
176
     1
 93
       13
176
     1
 44
0.0
176
     1
173
     0
176
     1
1001
ACAD
1000
AcDbSavedByObjectVersion
1070
     0
  0
DICTIONARYVAR
  5
17C
102
{ACAD_REACTORS
330
177
102
}
330
177
100
DictionaryVariables
280
     0
  1
1:1
  0
DICTIONARYVAR
  5
179
102
{ACAD_REACTORS
330
177
102
}
330
177
100
DictionaryVariables
280
     0
  1
STANDARD
  0
DICTIONARYVAR
  5
178
102
{ACAD_REACTORS
330
177
102
}
330
177
100
DictionaryVariables
280
     0
  1
STANDARD
  0
DICTIONARYVAR
  5
17A
102
{ACAD_REACTORS
330
177
102
}
330
177
100
DictionaryVariables
280
     0
  1
Imperial24
  0
DICTIONARYVAR
  5
17B
102
{ACAD_REACTORS
330
177
102
}
330
177
100
DictionaryVariables
280
     0
  1
Imperial24
  0
DICTIONARY
  5
1B4
330
6B
100
AcDbDictionary
280
     1
281
     1
  3
ACAD_XREC_ROUNDTRIP
360
1B5
  0
DICTIONARY
  5
1A
330
19
100
AcDbDictionary
280
     1
281
     1
  3
BUMPTILE
360
1C
  3
DIFFUSETILE
360
1B
  3
OPACITYTILE
360
1F
  3
REFLECTIONTILE
360
1E
  3
REFRACTIONTILE
360
20
  3
SPECULARTILE
360
1D
  0
DICTIONARY
  5
12
330
11
100
AcDbDictionary
280
     1
281
     1
  3
BUMPTILE
360
14
  3
DIFFUSETILE
360
13
  3
OPACITYTILE
360
17
  3
REFLECTIONTILE
360
16
  3
REFRACTIONTILE
360
18
  3
SPECULARTILE
360
15
  0
DICTIONARY
  5
22
330
21
100
AcDbDictionary
280
     1
281
     1
  3
BUMPTILE
360
24
  3
DIFFUSETILE
360
23
  3
OPACITYTILE
360
27
  3
REFLECTIONTILE
360
26
  3
REFRACTIONTILE
360
28
  3
SPECULARTILE
360
25
  0
DICTIONARY
  5
1B0
330
67
100
AcDbDictionary
280
     1
281
     1
  3
ACAD_XREC_ROUNDTRIP
360
1B1
  0
DICTIONARY
  5
1B2
330
69
100
AcDbDictionary
280
     1
281
     1
  3
ACAD_XREC_ROUNDTRIP
360
1B3
  0
DICTIONARY
  5
17D
330
65
100
AcDbDictionary
280
     1
281
     1
  3
ACAD_ROUNDTRIP_2008_TABLESTYLE_CELLSTYLEMAP
360
17E
  0
DICTIONARY
  5
18A
330
2F
100
AcDbDictionary
280
     1
281
     1
  3
ACAD_XREC_ROUNDTRIP
360
18B
  0
DICTIONARY
  5
188
330
2E
100
AcDbDictionary
280
     1
281
     1
  3
ACAD_XREC_ROUNDTRIP
360
189
  0
DICTIONARY
  5
196
330
35
100
AcDbDictionary
280
     1
281
     1
  3
ACAD_XREC_ROUNDTRIP
360
197
  0
DICTIONARY
  5
19E
330
39
100
AcDbDictionary
280
     1
281
     1
  3
ACAD_XREC_ROUNDTRIP
360
19F
  0
DICTIONARY
  5
190
330
32
100
AcDbDictionary
280
     1
281
     1
  3
ACAD_XREC_ROUNDTRIP
360
191
  0
DICTIONARY
  5
194
330
34
100
AcDbDictionary
280
     1
281
     1
  3
ACAD_XREC_ROUNDTRIP
360
195
  0
DICTIONARY
  5
1AE
330
41
100
AcDbDictionary
280
     1
281
     1
  3
ACAD_XREC_ROUNDTRIP
360
1AF
  0
DICTIONARY
  5
19C
330
38
100
AcDbDictionary
280
     1
281
     1
  3
ACAD_XREC_ROUNDTRIP
360
19D
  0
DICTIONARY
  5
180
330
2A
100
AcDbDictionary
280
     1
281
     1
  3
ACAD_XREC_ROUNDTRIP
360
181
  0
DICTIONARY
  5
182
330
2B
100
AcDbDictionary
280
     1
281
     1
  3
ACAD_XREC_ROUNDTRIP
360
183
  0
DICTIONARY
  5
184
330
2C
100
AcDbDictionary
280
     1
281
     1
  3
ACAD_XREC_ROUNDTRIP
360
185
  0
DICTIONARY
  5
186
330
2D
100
AcDbDictionary
280
     1
281
     1
  3
ACAD_XREC_ROUNDTRIP
360
187
  0
DICTIONARY
  5
18E
330
31
100
AcDbDictionary
280
     1
281
     1
  3
ACAD_XREC_ROUNDTRIP
360
18F
  0
DICTIONARY
  5
1AA
330
3F
100
AcDbDictionary
280
     1
281
     1
  3
ACAD_XREC_ROUNDTRIP
360
1AB
  0
DICTIONARY
  5
19A
330
37
100
AcDbDictionary
280
     1
281
     1
  3
ACAD_XREC_ROUNDTRIP
360
19B
  0
DICTIONARY
  5
1AC
330
40
100
AcDbDictionary
280
     1
281
     1
  3
ACAD_XREC_ROUNDTRIP
360
1AD
  0
DICTIONARY
  5
192
330
33
100
AcDbDictionary
280
     1
281
     1
  3
ACAD_XREC_ROUNDTRIP
360
193
  0
DICTIONARY
  5
1A8
330
3E
100
AcDbDictionary
280
     1
281
     1
  3
ACAD_XREC_ROUNDTRIP
360
1A9
  0
DICTIONARY
  5
1A6
330
3D
100
AcDbDictionary
280
     1
281
     1
  3
ACAD_XREC_ROUNDTRIP
360
1A7
  0
DICTIONARY
  5
1A0
330
3A
100
AcDbDictionary
280
     1
281
     1
  3
ACAD_XREC_ROUNDTRIP
360
1A1
  0
DICTIONARY
  5
1A2
330
3B
100
AcDbDictionary
280
     1
281
     1
  3
ACAD_XREC_ROUNDTRIP
360
1A3
  0
DICTIONARY
  5
198
330
36
100
AcDbDictionary
280
     1
281
     1
  3
ACAD_XREC_ROUNDTRIP
360
199
  0
DICTIONARY
  5
18C
330
30
100
AcDbDictionary
280
     1
281
     1
  3
ACAD_XREC_ROUNDTRIP
360
18D
  0
DICTIONARY
  5
1A4
330
3C
100
AcDbDictionary
280
     1
281
     1
  3
ACAD_XREC_ROUNDTRIP
360
1A5
  0
XRECORD
  5
1B5
102
{ACAD_REACTORS
330
1B4
102
}
330
1B4
100
AcDbXrecord
280
     1
102
DISPLAYNAME
  1
Imperial24
102
FLAGS
 90
        0
  0
XRECORD
  5
1C
102
{ACAD_REACTORS
330
1A
102
}
330
1A
100
AcDbXrecord
280
     1
270
     1
271
     1
  0
XRECORD
  5
1B
102
{ACAD_REACTORS
330
1A
102
}
330
1A
100
AcDbXrecord
280
     1
270
     1
271
     1
  0
XRECORD
  5
1F
102
{ACAD_REACTORS
330
1A
102
}
330
1A
100
AcDbXrecord
280
     1
270
     1
271
     1
  0
XRECORD
  5
1E
102
{ACAD_REACTORS
330
1A
102
}
330
1A
100
AcDbXrecord
280
     1
270
     1
271
     1
  0
XRECORD
  5
20
102
{ACAD_REACTORS
330
1A
102
}
330
1A
100
AcDbXrecord
280
     1
270
     1
271
     1
  0
XRECORD
  5
1D
102
{ACAD_REACTORS
330
1A
102
}
330
1A
100
AcDbXrecord
280
     1
270
     1
271
     1
  0
XRECORD
  5
14
102
{ACAD_REACTORS
330
12
102
}
330
12
100
AcDbXrecord
280
     1
270
     1
271
     1
  0
XRECORD
  5
13
102
{ACAD_REACTORS
330
12
102
}
330
12
100
AcDbXrecord
280
     1
270
     1
271
     1
  0
XRECORD
  5
17
102
{ACAD_REACTORS
330
12
102
}
330
12
100
AcDbXrecord
280
     1
270
     1
271
     1
  0
XRECORD
  5
16
102
{ACAD_REACTORS
330
12
102
}
330
12
100
AcDbXrecord
280
     1
270
     1
271
     1
  0
XRECORD
  5
18
102
{ACAD_REACTORS
330
12
102
}
330
12
100
AcDbXrecord
280
     1
270
     1
271
     1
  0
XRECORD
  5
15
102
{ACAD_REACTORS
330
12
102
}
330
12
100
AcDbXrecord
280
     1
270
     1
271
     1
  0
XRECORD
  5
24
102
{ACAD_REACTORS
330
22
102
}
330
22
100
AcDbXrecord
280
     1
270
     1
271
     1
  0
XRECORD
  5
23
102
{ACAD_REACTORS
330
22
102
}
330
22
100
AcDbXrecord
280
     1
270
     1
271
     1
  0
XRECORD
  5
27
102
{ACAD_REACTORS
330
22
102
}
330
22
100
AcDbXrecord
280
     1
270
     1
271
     1
  0
XRECORD
  5
26
102
{ACAD_REACTORS
330
22
102
}
330
22
100
AcDbXrecord
280
     1
270
     1
271
     1
  0
XRECORD
  5
28
102
{ACAD_REACTORS
330
22
102
}
330
22
100
AcDbXrecord
280
     1
270
     1
271
     1
  0
XRECORD
  5
25
102
{ACAD_REACTORS
330
22
102
}
330
22
100
AcDbXrecord
280
     1
270
     1
271
     1
  0
XRECORD
  5
1B1
102
{ACAD_REACTORS
330
1B0
102
}
330
1B0
100
AcDbXrecord
280
     1
102
ACAD_ROUNDTRIP_2012_MLEADER_STYLE
298
     1
  0
XRECORD
  5
1B3
102
{ACAD_REACTORS
330
1B2
102
}
330
1B2
100
AcDbXrecord
280
     1
102
DISPLAYNAME
  1
Imperial24
102
FLAGS
 90
        0
  0
CELLSTYLEMAP
  5
17E
102
{ACAD_REACTORS
330
17D
102
}
330
17D
100
AcDbCellStyleMap
 90
        3
300
CELLSTYLE
  1
TABLEFORMAT_BEGIN
 90
        5
170
     1
 91
        0
 92
    32768
 62
   257
 93
        1
300
CONTENTFORMAT
  1
CONTENTFORMAT_BEGIN
 90
        0
 91
        0
 92
      512
 93
        0
300

 40
0.0
140
1.0
 94
        5
 62
     0
340
55
144
0.25
309
CONTENTFORMAT_END
171
     0
 94
        0
309
TABLEFORMAT_END
  1
CELLSTYLE_BEGIN
 90
        1
 91
        1
300
_TITLE
309
CELLSTYLE_END
300
CELLSTYLE
  1
TABLEFORMAT_BEGIN
 90
        5
170
     1
 91
        0
 92
        0
 62
   257
 93
        1
300
CONTENTFORMAT
  1
CONTENTFORMAT_BEGIN
 90
        0
 91
        0
 92
      512
 93
        0
300

 40
0.0
140
1.0
 94
        5
 62
     0
340
55
144
0.18
309
CONTENTFORMAT_END
171
     0
 94
        0
309
TABLEFORMAT_END
  1
CELLSTYLE_BEGIN
 90
        2
 91
        1
300
_HEADER
309
CELLSTYLE_END
300
CELLSTYLE
  1
TABLEFORMAT_BEGIN
 90
        5
170
     1
 91
        0
 92
        0
 62
   257
 93
        1
300
CONTENTFORMAT
  1
CONTENTFORMAT_BEGIN
 90
        0
 91
        0
 92
      512
 93
        0
300

 40
0.0
140
1.0
 94
        2
 62
     0
340
55
144
0.18
309
CONTENTFORMAT_END
171
     0
 94
        0
309
TABLEFORMAT_END
  1
CELLSTYLE_BEGIN
 90
        3
 91
        2
300
_DATA
309
CELLSTYLE_END
  0
XRECORD
  5
18B
102
{ACAD_REACTORS
330
18A
102
}
330
18A
100
AcDbXrecord
280
     1
102
RTVSPost2010Prop28
280
     1
102
RTVSPost2010PropOp28
 70
     1
102
RTVSPost2010Prop29
280
     1
102
RTVSPost2010PropOp29
 70
     1
102
RTVSPost2010Prop30
280
     0
102
RTVSPost2010PropOp30
 70
     1
102
RTVSPost2010Prop31
280
     0
102
RTVSPost2010PropOp31
 70
     1
102
RTVSPost2010Prop32
280
     0
102
RTVSPost2010PropOp32
 70
     1
102
RTVSPost2010Prop33
280
     0
102
RTVSPost2010PropOp33
 70
     1
102
RTVSPost2010Prop34
280
     0
102
RTVSPost2010PropOp34
 70
     1
102
RTVSPost2010Prop35
280
     0
102
RTVSPost2010PropOp35
 70
     1
102
RTVSPost2010Prop36
280
     0
102
RTVSPost2010PropOp36
 70
     1
102
RTVSPost2010Prop37
 90
       50
102
RTVSPost2010PropOp37
 70
     1
102
RTVSPost2010Prop38
140
0.0
102
RTVSPost2010PropOp38
 70
     1
102
RTVSPost2010Prop39
140
1.0
102
RTVSPost2010PropOp39
 70
     1
102
RTVSPost2010Prop40
 90
        0
102
RTVSPost2010PropOp40
 70
     1
102
RTVSPost2010Prop41ColorIndex
 90
       18
102
RTVSPost2010Prop41ColorRGB
 90
        0
102
RTVSPost2010PropOp41
 70
     1
102
RTVSPost2010Prop42
 90
       50
102
RTVSPost2010PropOp42
 70
     1
102
RTVSPost2010Prop43
 90
        3
102
RTVSPost2010PropOp43
 70
     1
102
RTVSPost2010Prop44ColorIndex
 90
        5
102
RTVSPost2010Prop44ColorRGB
 90
      255
102
RTVSPost2010PropOp44
 70
     1
102
RTVSPost2010Prop45
280
     0
102
RTVSPost2010PropOp45
 70
     1
102
RTVSPost2010Prop46
 90
       50
102
RTVSPost2010PropOp46
 70
     1
102
RTVSPost2010Prop47
 90
       50
102
RTVSPost2010PropOp47
 70
     1
102
RTVSPost2010Prop48
 90
       50
102
RTVSPost2010PropOp48
 70
     1
102
RTVSPost2010Prop49
280
     0
102
RTVSPost2010PropOp49
 70
     1
102
RTVSPost2010Prop50
 90
       50
102
RTVSPost2010PropOp50
 70
     1
102
RTVSPost2010Prop51ColorIndex
 90
      256
102
RTVSPost2010Prop51ColorRGB
 90
-16777216
102
RTVSPost2010PropOp51
 70
     0
102
RTVSPost2010Prop52
140
1.0
102
RTVSPost2010PropOp52
 70
     0
102
RTVSPost2010Prop53
 90
        2
102
RTVSPost2010PropOp53
 70
     1
102
RTVSPost2010Prop54
  1
strokes_ogs.tif
102
RTVSPost2010PropOp54
 70
     1
102
RTVSPost2010Prop55
280
     0
102
RTVSPost2010PropOp55
 70
     1
102
RTVSPost2010Prop56
140
1.0
102
RTVSPost2010PropOp56
 70
     1
102
RTVSPost2010Prop57
140
1.0
102
RTVSPost2010PropOp57
 70
     1
  0
XRECORD
  5
189
102
{ACAD_REACTORS
330
188
102
}
330
188
100
AcDbXrecord
280
     1
102
RTVSPost2010Prop28
280
     0
102
RTVSPost2010PropOp28
 70
     1
102
RTVSPost2010Prop29
280
     1
102
RTVSPost2010PropOp29
 70
     1
102
RTVSPost2010Prop30
280
     1
102
RTVSPost2010PropOp30
 70
     1
102
RTVSPost2010Prop31
280
     0
102
RTVSPost2010PropOp31
 70
     1
102
RTVSPost2010Prop32
280
     0
102
RTVSPost2010PropOp32
 70
     1
102
RTVSPost2010Prop33
280
     0
102
RTVSPost2010PropOp33
 70
     1
102
RTVSPost2010Prop34
280
     0
102
RTVSPost2010PropOp34
 70
     1
102
RTVSPost2010Prop35
280
     0
102
RTVSPost2010PropOp35
 70
     1
102
RTVSPost2010Prop36
280
     0
102
RTVSPost2010PropOp36
 70
     1
102
RTVSPost2010Prop37
 90
       50
102
RTVSPost2010PropOp37
 70
     1
102
RTVSPost2010Prop38
140
0.0
102
RTVSPost2010PropOp38
 70
     1
102
RTVSPost2010Prop39
140
1.0
102
RTVSPost2010PropOp39
 70
     1
102
RTVSPost2010Prop40
 90
        0
102
RTVSPost2010PropOp40
 70
     1
102
RTVSPost2010Prop41ColorIndex
 90
       18
102
RTVSPost2010Prop41ColorRGB
 90
        0
102
RTVSPost2010PropOp41
 70
     1
102
RTVSPost2010Prop42
 90
       50
102
RTVSPost2010PropOp42
 70
     1
102
RTVSPost2010Prop43
 90
        3
102
RTVSPost2010PropOp43
 70
     1
102
RTVSPost2010Prop44ColorIndex
 90
        5
102
RTVSPost2010Prop44ColorRGB
 90
      255
102
RTVSPost2010PropOp44
 70
     1
102
RTVSPost2010Prop45
280
     0
102
RTVSPost2010PropOp45
 70
     1
102
RTVSPost2010Prop46
 90
       50
102
RTVSPost2010PropOp46
 70
     1
102
RTVSPost2010Prop47
 90
       50
102
RTVSPost2010PropOp47
 70
     1
102
RTVSPost2010Prop48
 90
       50
102
RTVSPost2010PropOp48
 70
     1
102
RTVSPost2010Prop49
280
     0
102
RTVSPost2010PropOp49
 70
     1
102
RTVSPost2010Prop50
 90
       50
102
RTVSPost2010PropOp50
 70
     1
102
RTVSPost2010Prop51ColorIndex
 90
      256
102
RTVSPost2010Prop51ColorRGB
 90
-16777216
102
RTVSPost2010PropOp51
 70
     0
102
RTVSPost2010Prop52
140
1.0
102
RTVSPost2010PropOp52
 70
     0
102
RTVSPost2010Prop53
 90
        2
102
RTVSPost2010PropOp53
 70
     1
102
RTVSPost2010Prop54
  1
strokes_ogs.tif
102
RTVSPost2010PropOp54
 70
     1
102
RTVSPost2010Prop55
280
     0
102
RTVSPost2010PropOp55
 70
     1
102
RTVSPost2010Prop56
140
1.0
102
RTVSPost2010PropOp56
 70
     1
102
RTVSPost2010Prop57
140
1.0
102
RTVSPost2010PropOp57
 70
     1
  0
XRECORD
  5
197
102
{ACAD_REACTORS
330
196
102
}
330
196
100
AcDbXrecord
280
     1
102
RTVSPost2010Prop28
280
     0
102
RTVSPost2010PropOp28
 70
     1
102
RTVSPost2010Prop29
280
     1
102
RTVSPost2010PropOp29
 70
     1
102
RTVSPost2010Prop30
280
     1
102
RTVSPost2010PropOp30
 70
     1
102
RTVSPost2010Prop31
280
     0
102
RTVSPost2010PropOp31
 70
     1
102
RTVSPost2010Prop32
280
     0
102
RTVSPost2010PropOp32
 70
     1
102
RTVSPost2010Prop33
280
     0
102
RTVSPost2010PropOp33
 70
     1
102
RTVSPost2010Prop34
280
     0
102
RTVSPost2010PropOp34
 70
     1
102
RTVSPost2010Prop35
280
     0
102
RTVSPost2010PropOp35
 70
     1
102
RTVSPost2010Prop36
280
     0
102
RTVSPost2010PropOp36
 70
     1
102
RTVSPost2010Prop37
 90
       50
102
RTVSPost2010PropOp37
 70
     1
102
RTVSPost2010Prop38
140
0.0
102
RTVSPost2010PropOp38
 70
     1
102
RTVSPost2010Prop39
140
1.0
102
RTVSPost2010PropOp39
 70
     1
102
RTVSPost2010Prop40
 90
        0
102
RTVSPost2010PropOp40
 70
     1
102
RTVSPost2010Prop41ColorIndex
 90
       18
102
RTVSPost2010Prop41ColorRGB
 90
        0
102
RTVSPost2010PropOp41
 70
     1
102
RTVSPost2010Prop42
 90
       50
102
RTVSPost2010PropOp42
 70
     1
102
RTVSPost2010Prop43
 90
        3
102
RTVSPost2010PropOp43
 70
     1
102
RTVSPost2010Prop44ColorIndex
 90
        5
102
RTVSPost2010Prop44ColorRGB
 90
      255
102
RTVSPost2010PropOp44
 70
     1
102
RTVSPost2010Prop45
280
     0
102
RTVSPost2010PropOp45
 70
     1
102
RTVSPost2010Prop46
 90
       50
102
RTVSPost2010PropOp46
 70
     1
102
RTVSPost2010Prop47
 90
       50
102
RTVSPost2010PropOp47
 70
     1
102
RTVSPost2010Prop48
 90
       50
102
RTVSPost2010PropOp48
 70
     1
102
RTVSPost2010Prop49
280
     0
102
RTVSPost2010PropOp49
 70
     1
102
RTVSPost2010Prop50
 90
       50
102
RTVSPost2010PropOp50
 70
     1
102
RTVSPost2010Prop51ColorIndex
 90
      256
102
RTVSPost2010Prop51ColorRGB
 90
-16777216
102
RTVSPost2010PropOp51
 70
     0
102
RTVSPost2010Prop52
140
1.0
102
RTVSPost2010PropOp52
 70
     0
102
RTVSPost2010Prop53
 90
        2
102
RTVSPost2010PropOp53
 70
     1
102
RTVSPost2010Prop54
  1
strokes_ogs.tif
102
RTVSPost2010PropOp54
 70
     1
102
RTVSPost2010Prop55
280
     0
102
RTVSPost2010PropOp55
 70
     1
102
RTVSPost2010Prop56
140
1.0
102
RTVSPost2010PropOp56
 70
     1
102
RTVSPost2010Prop57
140
1.0
102
RTVSPost2010PropOp57
 70
     1
  0
XRECORD
  5
19F
102
{ACAD_REACTORS
330
19E
102
}
330
19E
100
AcDbXrecord
280
     1
102
RTVSPost2010Prop28
280
     0
102
RTVSPost2010PropOp28
 70
     1
102
RTVSPost2010Prop29
280
     1
102
RTVSPost2010PropOp29
 70
     1
102
RTVSPost2010Prop30
280
     1
102
RTVSPost2010PropOp30
 70
     1
102
RTVSPost2010Prop31
280
     0
102
RTVSPost2010PropOp31
 70
     1
102
RTVSPost2010Prop32
280
     0
102
RTVSPost2010PropOp32
 70
     1
102
RTVSPost2010Prop33
280
     0
102
RTVSPost2010PropOp33
 70
     1
102
RTVSPost2010Prop34
280
     0
102
RTVSPost2010PropOp34
 70
     1
102
RTVSPost2010Prop35
280
     0
102
RTVSPost2010PropOp35
 70
     1
102
RTVSPost2010Prop36
280
     0
102
RTVSPost2010PropOp36
 70
     1
102
RTVSPost2010Prop37
 90
       50
102
RTVSPost2010PropOp37
 70
     1
102
RTVSPost2010Prop38
140
0.0
102
RTVSPost2010PropOp38
 70
     1
102
RTVSPost2010Prop39
140
1.0
102
RTVSPost2010PropOp39
 70
     1
102
RTVSPost2010Prop40
 90
        0
102
RTVSPost2010PropOp40
 70
     1
102
RTVSPost2010Prop41ColorIndex
 90
       18
102
RTVSPost2010Prop41ColorRGB
 90
        0
102
RTVSPost2010PropOp41
 70
     1
102
RTVSPost2010Prop42
 90
       50
102
RTVSPost2010PropOp42
 70
     1
102
RTVSPost2010Prop43
 90
        3
102
RTVSPost2010PropOp43
 70
     1
102
RTVSPost2010Prop44ColorIndex
 90
        5
102
RTVSPost2010Prop44ColorRGB
 90
      255
102
RTVSPost2010PropOp44
 70
     1
102
RTVSPost2010Prop45
280
     0
102
RTVSPost2010PropOp45
 70
     1
102
RTVSPost2010Prop46
 90
       50
102
RTVSPost2010PropOp46
 70
     1
102
RTVSPost2010Prop47
 90
       50
102
RTVSPost2010PropOp47
 70
     1
102
RTVSPost2010Prop48
 90
       50
102
RTVSPost2010PropOp48
 70
     1
102
RTVSPost2010Prop49
280
     0
102
RTVSPost2010PropOp49
 70
     1
102
RTVSPost2010Prop50
 90
       50
102
RTVSPost2010PropOp50
 70
     1
102
RTVSPost2010Prop51ColorIndex
 90
      256
102
RTVSPost2010Prop51ColorRGB
 90
-16777216
102
RTVSPost2010PropOp51
 70
     0
102
RTVSPost2010Prop52
140
1.0
102
RTVSPost2010PropOp52
 70
     0
102
RTVSPost2010Prop53
 90
        2
102
RTVSPost2010PropOp53
 70
     1
102
RTVSPost2010Prop54
  1
strokes_ogs.tif
102
RTVSPost2010PropOp54
 70
     1
102
RTVSPost2010Prop55
280
     0
102
RTVSPost2010PropOp55
 70
     1
102
RTVSPost2010Prop56
140
1.0
102
RTVSPost2010PropOp56
 70
     1
102
RTVSPost2010Prop57
140
1.0
102
RTVSPost2010PropOp57
 70
     1
  0
XRECORD
  5
191
102
{ACAD_REACTORS
330
190
102
}
330
190
100
AcDbXrecord
280
     1
102
RTVSPost2010Prop28
280
     0
102
RTVSPost2010PropOp28
 70
     1
102
RTVSPost2010Prop29
280
     1
102
RTVSPost2010PropOp29
 70
     1
102
RTVSPost2010Prop30
280
     1
102
RTVSPost2010PropOp30
 70
     1
102
RTVSPost2010Prop31
280
     0
102
RTVSPost2010PropOp31
 70
     1
102
RTVSPost2010Prop32
280
     0
102
RTVSPost2010PropOp32
 70
     1
102
RTVSPost2010Prop33
280
     0
102
RTVSPost2010PropOp33
 70
     1
102
RTVSPost2010Prop34
280
     0
102
RTVSPost2010PropOp34
 70
     1
102
RTVSPost2010Prop35
280
     0
102
RTVSPost2010PropOp35
 70
     1
102
RTVSPost2010Prop36
280
     0
102
RTVSPost2010PropOp36
 70
     1
102
RTVSPost2010Prop37
 90
       50
102
RTVSPost2010PropOp37
 70
     1
102
RTVSPost2010Prop38
140
0.0
102
RTVSPost2010PropOp38
 70
     1
102
RTVSPost2010Prop39
140
1.0
102
RTVSPost2010PropOp39
 70
     1
102
RTVSPost2010Prop40
 90
        0
102
RTVSPost2010PropOp40
 70
     1
102
RTVSPost2010Prop41ColorIndex
 90
       18
102
RTVSPost2010Prop41ColorRGB
 90
        0
102
RTVSPost2010PropOp41
 70
     1
102
RTVSPost2010Prop42
 90
       50
102
RTVSPost2010PropOp42
 70
     1
102
RTVSPost2010Prop43
 90
        3
102
RTVSPost2010PropOp43
 70
     1
102
RTVSPost2010Prop44ColorIndex
 90
        5
102
RTVSPost2010Prop44ColorRGB
 90
      255
102
RTVSPost2010PropOp44
 70
     1
102
RTVSPost2010Prop45
280
     0
102
RTVSPost2010PropOp45
 70
     1
102
RTVSPost2010Prop46
 90
       50
102
RTVSPost2010PropOp46
 70
     1
102
RTVSPost2010Prop47
 90
       50
102
RTVSPost2010PropOp47
 70
     1
102
RTVSPost2010Prop48
 90
       50
102
RTVSPost2010PropOp48
 70
     1
102
RTVSPost2010Prop49
280
     0
102
RTVSPost2010PropOp49
 70
     1
102
RTVSPost2010Prop50
 90
       50
102
RTVSPost2010PropOp50
 70
     1
102
RTVSPost2010Prop51ColorIndex
 90
      256
102
RTVSPost2010Prop51ColorRGB
 90
-16777216
102
RTVSPost2010PropOp51
 70
     0
102
RTVSPost2010Prop52
140
1.0
102
RTVSPost2010PropOp52
 70
     0
102
RTVSPost2010Prop53
 90
        2
102
RTVSPost2010PropOp53
 70
     1
102
RTVSPost2010Prop54
  1
strokes_ogs.tif
102
RTVSPost2010PropOp54
 70
     1
102
RTVSPost2010Prop55
280
     0
102
RTVSPost2010PropOp55
 70
     1
102
RTVSPost2010Prop56
140
1.0
102
RTVSPost2010PropOp56
 70
     1
102
RTVSPost2010Prop57
140
1.0
102
RTVSPost2010PropOp57
 70
     1
  0
XRECORD
  5
195
102
{ACAD_REACTORS
330
194
102
}
330
194
100
AcDbXrecord
280
     1
102
RTVSPost2010Prop28
280
     0
102
RTVSPost2010PropOp28
 70
     1
102
RTVSPost2010Prop29
280
     1
102
RTVSPost2010PropOp29
 70
     1
102
RTVSPost2010Prop30
280
     1
102
RTVSPost2010PropOp30
 70
     1
102
RTVSPost2010Prop31
280
     0
102
RTVSPost2010PropOp31
 70
     1
102
RTVSPost2010Prop32
280
     0
102
RTVSPost2010PropOp32
 70
     1
102
RTVSPost2010Prop33
280
     0
102
RTVSPost2010PropOp33
 70
     1
102
RTVSPost2010Prop34
280
     0
102
RTVSPost2010PropOp34
 70
     1
102
RTVSPost2010Prop35
280
     0
102
RTVSPost2010PropOp35
 70
     1
102
RTVSPost2010Prop36
280
     0
102
RTVSPost2010PropOp36
 70
     1
102
RTVSPost2010Prop37
 90
       50
102
RTVSPost2010PropOp37
 70
     1
102
RTVSPost2010Prop38
140
0.0
102
RTVSPost2010PropOp38
 70
     1
102
RTVSPost2010Prop39
140
1.0
102
RTVSPost2010PropOp39
 70
     1
102
RTVSPost2010Prop40
 90
        0
102
RTVSPost2010PropOp40
 70
     1
102
RTVSPost2010Prop41ColorIndex
 90
       18
102
RTVSPost2010Prop41ColorRGB
 90
        0
102
RTVSPost2010PropOp41
 70
     1
102
RTVSPost2010Prop42
 90
       50
102
RTVSPost2010PropOp42
 70
     1
102
RTVSPost2010Prop43
 90
        3
102
RTVSPost2010PropOp43
 70
     1
102
RTVSPost2010Prop44ColorIndex
 90
        5
102
RTVSPost2010Prop44ColorRGB
 90
      255
102
RTVSPost2010PropOp44
 70
     1
102
RTVSPost2010Prop45
280
     0
102
RTVSPost2010PropOp45
 70
     1
102
RTVSPost2010Prop46
 90
       50
102
RTVSPost2010PropOp46
 70
     1
102
RTVSPost2010Prop47
 90
       50
102
RTVSPost2010PropOp47
 70
     1
102
RTVSPost2010Prop48
 90
       50
102
RTVSPost2010PropOp48
 70
     1
102
RTVSPost2010Prop49
280
     0
102
RTVSPost2010PropOp49
 70
     1
102
RTVSPost2010Prop50
 90
       50
102
RTVSPost2010PropOp50
 70
     1
102
RTVSPost2010Prop51ColorIndex
 90
      256
102
RTVSPost2010Prop51ColorRGB
 90
-16777216
102
RTVSPost2010PropOp51
 70
     0
102
RTVSPost2010Prop52
140
1.0
102
RTVSPost2010PropOp52
 70
     0
102
RTVSPost2010Prop53
 90
        2
102
RTVSPost2010PropOp53
 70
     1
102
RTVSPost2010Prop54
  1
strokes_ogs.tif
102
RTVSPost2010PropOp54
 70
     1
102
RTVSPost2010Prop55
280
     0
102
RTVSPost2010PropOp55
 70
     1
102
RTVSPost2010Prop56
140
1.0
102
RTVSPost2010PropOp56
 70
     1
102
RTVSPost2010Prop57
140
1.0
102
RTVSPost2010PropOp57
 70
     1
  0
XRECORD
  5
1AF
102
{ACAD_REACTORS
330
1AE
102
}
330
1AE
100
AcDbXrecord
280
     1
102
RTVSPost2010Prop28
280
     0
102
RTVSPost2010PropOp28
 70
     0
102
RTVSPost2010Prop29
280
     1
102
RTVSPost2010PropOp29
 70
     0
102
RTVSPost2010Prop30
280
     1
102
RTVSPost2010PropOp30
 70
     0
102
RTVSPost2010Prop31
280
     0
102
RTVSPost2010PropOp31
 70
     0
102
RTVSPost2010Prop32
280
     0
102
RTVSPost2010PropOp32
 70
     0
102
RTVSPost2010Prop33
280
     0
102
RTVSPost2010PropOp33
 70
     0
102
RTVSPost2010Prop34
280
     0
102
RTVSPost2010PropOp34
 70
     0
102
RTVSPost2010Prop35
280
     0
102
RTVSPost2010PropOp35
 70
     0
102
RTVSPost2010Prop36
280
     0
102
RTVSPost2010PropOp36
 70
     0
102
RTVSPost2010Prop37
 90
       50
102
RTVSPost2010PropOp37
 70
     0
102
RTVSPost2010Prop38
140
0.0
102
RTVSPost2010PropOp38
 70
     0
102
RTVSPost2010Prop39
140
1.0
102
RTVSPost2010PropOp39
 70
     0
102
RTVSPost2010Prop40
 90
        0
102
RTVSPost2010PropOp40
 70
     0
102
RTVSPost2010Prop41ColorIndex
 90
       18
102
RTVSPost2010Prop41ColorRGB
 90
        0
102
RTVSPost2010PropOp41
 70
     0
102
RTVSPost2010Prop42
 90
       50
102
RTVSPost2010PropOp42
 70
     0
102
RTVSPost2010Prop43
 90
        3
102
RTVSPost2010PropOp43
 70
     0
102
RTVSPost2010Prop44ColorIndex
 90
        5
102
RTVSPost2010Prop44ColorRGB
 90
      255
102
RTVSPost2010PropOp44
 70
     0
102
RTVSPost2010Prop45
280
     0
102
RTVSPost2010PropOp45
 70
     0
102
RTVSPost2010Prop46
 90
       50
102
RTVSPost2010PropOp46
 70
     0
102
RTVSPost2010Prop47
 90
       50
102
RTVSPost2010PropOp47
 70
     0
102
RTVSPost2010Prop48
 90
       50
102
RTVSPost2010PropOp48
 70
     0
102
RTVSPost2010Prop49
280
     0
102
RTVSPost2010PropOp49
 70
     0
102
RTVSPost2010Prop50
 90
       50
102
RTVSPost2010PropOp50
 70
     0
102
RTVSPost2010Prop51ColorIndex
 90
      256
102
RTVSPost2010Prop51ColorRGB
 90
-16777216
102
RTVSPost2010PropOp51
 70
     0
102
RTVSPost2010Prop52
140
1.0
102
RTVSPost2010PropOp52
 70
     0
102
RTVSPost2010Prop53
 90
        2
102
RTVSPost2010PropOp53
 70
     0
102
RTVSPost2010Prop54
  1
strokes_ogs.tif
102
RTVSPost2010PropOp54
 70
     0
102
RTVSPost2010Prop55
280
     0
102
RTVSPost2010PropOp55
 70
     0
102
RTVSPost2010Prop56
140
1.0
102
RTVSPost2010PropOp56
 70
     0
102
RTVSPost2010Prop57
140
1.0
102
RTVSPost2010PropOp57
 70
     0
  0
XRECORD
  5
19D
102
{ACAD_REACTORS
330
19C
102
}
330
19C
100
AcDbXrecord
280
     1
102
RTVSPost2010Prop28
280
     0
102
RTVSPost2010PropOp28
 70
     1
102
RTVSPost2010Prop29
280
     1
102
RTVSPost2010PropOp29
 70
     1
102
RTVSPost2010Prop30
280
     1
102
RTVSPost2010PropOp30
 70
     1
102
RTVSPost2010Prop31
280
     0
102
RTVSPost2010PropOp31
 70
     1
102
RTVSPost2010Prop32
280
     0
102
RTVSPost2010PropOp32
 70
     1
102
RTVSPost2010Prop33
280
     0
102
RTVSPost2010PropOp33
 70
     1
102
RTVSPost2010Prop34
280
     0
102
RTVSPost2010PropOp34
 70
     1
102
RTVSPost2010Prop35
280
     0
102
RTVSPost2010PropOp35
 70
     1
102
RTVSPost2010Prop36
280
     0
102
RTVSPost2010PropOp36
 70
     1
102
RTVSPost2010Prop37
 90
       50
102
RTVSPost2010PropOp37
 70
     1
102
RTVSPost2010Prop38
140
0.0
102
RTVSPost2010PropOp38
 70
     1
102
RTVSPost2010Prop39
140
1.0
102
RTVSPost2010PropOp39
 70
     1
102
RTVSPost2010Prop40
 90
        0
102
RTVSPost2010PropOp40
 70
     1
102
RTVSPost2010Prop41ColorIndex
 90
       18
102
RTVSPost2010Prop41ColorRGB
 90
        0
102
RTVSPost2010PropOp41
 70
     1
102
RTVSPost2010Prop42
 90
       50
102
RTVSPost2010PropOp42
 70
     1
102
RTVSPost2010Prop43
 90
        3
102
RTVSPost2010PropOp43
 70
     1
102
RTVSPost2010Prop44ColorIndex
 90
        5
102
RTVSPost2010Prop44ColorRGB
 90
      255
102
RTVSPost2010PropOp44
 70
     1
102
RTVSPost2010Prop45
280
     0
102
RTVSPost2010PropOp45
 70
     1
102
RTVSPost2010Prop46
 90
       50
102
RTVSPost2010PropOp46
 70
     1
102
RTVSPost2010Prop47
 90
       50
102
RTVSPost2010PropOp47
 70
     1
102
RTVSPost2010Prop48
 90
       50
102
RTVSPost2010PropOp48
 70
     1
102
RTVSPost2010Prop49
280
     0
102
RTVSPost2010PropOp49
 70
     1
102
RTVSPost2010Prop50
 90
       50
102
RTVSPost2010PropOp50
 70
     1
102
RTVSPost2010Prop51ColorIndex
 90
      256
102
RTVSPost2010Prop51ColorRGB
 90
-16777216
102
RTVSPost2010PropOp51
 70
     0
102
RTVSPost2010Prop52
140
1.0
102
RTVSPost2010PropOp52
 70
     0
102
RTVSPost2010Prop53
 90
        2
102
RTVSPost2010PropOp53
 70
     1
102
RTVSPost2010Prop54
  1
strokes_ogs.tif
102
RTVSPost2010PropOp54
 70
     1
102
RTVSPost2010Prop55
280
     0
102
RTVSPost2010PropOp55
 70
     1
102
RTVSPost2010Prop56
140
1.0
102
RTVSPost2010PropOp56
 70
     1
102
RTVSPost2010Prop57
140
1.0
102
RTVSPost2010PropOp57
 70
     1
  0
XRECORD
  5
181
102
{ACAD_REACTORS
330
180
102
}
330
180
100
AcDbXrecord
280
     1
102
RTVSPost2010Prop28
280
     0
102
RTVSPost2010PropOp28
 70
     1
102
RTVSPost2010Prop29
280
     1
102
RTVSPost2010PropOp29
 70
     1
102
RTVSPost2010Prop30
280
     1
102
RTVSPost2010PropOp30
 70
     1
102
RTVSPost2010Prop31
280
     0
102
RTVSPost2010PropOp31
 70
     1
102
RTVSPost2010Prop32
280
     0
102
RTVSPost2010PropOp32
 70
     1
102
RTVSPost2010Prop33
280
     0
102
RTVSPost2010PropOp33
 70
     1
102
RTVSPost2010Prop34
280
     0
102
RTVSPost2010PropOp34
 70
     1
102
RTVSPost2010Prop35
280
     0
102
RTVSPost2010PropOp35
 70
     1
102
RTVSPost2010Prop36
280
     0
102
RTVSPost2010PropOp36
 70
     1
102
RTVSPost2010Prop37
 90
       50
102
RTVSPost2010PropOp37
 70
     1
102
RTVSPost2010Prop38
140
0.0
102
RTVSPost2010PropOp38
 70
     1
102
RTVSPost2010Prop39
140
1.0
102
RTVSPost2010PropOp39
 70
     1
102
RTVSPost2010Prop40
 90
        0
102
RTVSPost2010PropOp40
 70
     1
102
RTVSPost2010Prop41ColorIndex
 90
       18
102
RTVSPost2010Prop41ColorRGB
 90
        0
102
RTVSPost2010PropOp41
 70
     1
102
RTVSPost2010Prop42
 90
       50
102
RTVSPost2010PropOp42
 70
     1
102
RTVSPost2010Prop43
 90
        3
102
RTVSPost2010PropOp43
 70
     1
102
RTVSPost2010Prop44ColorIndex
 90
        5
102
RTVSPost2010Prop44ColorRGB
 90
      255
102
RTVSPost2010PropOp44
 70
     1
102
RTVSPost2010Prop45
280
     0
102
RTVSPost2010PropOp45
 70
     1
102
RTVSPost2010Prop46
 90
       50
102
RTVSPost2010PropOp46
 70
     1
102
RTVSPost2010Prop47
 90
       50
102
RTVSPost2010PropOp47
 70
     1
102
RTVSPost2010Prop48
 90
       50
102
RTVSPost2010PropOp48
 70
     1
102
RTVSPost2010Prop49
280
     0
102
RTVSPost2010PropOp49
 70
     1
102
RTVSPost2010Prop50
 90
       50
102
RTVSPost2010PropOp50
 70
     1
102
RTVSPost2010Prop51ColorIndex
 90
      256
102
RTVSPost2010Prop51ColorRGB
 90
-16777216
102
RTVSPost2010PropOp51
 70
     0
102
RTVSPost2010Prop52
140
1.0
102
RTVSPost2010PropOp52
 70
     0
102
RTVSPost2010Prop53
 90
        2
102
RTVSPost2010PropOp53
 70
     1
102
RTVSPost2010Prop54
  1
strokes_ogs.tif
102
RTVSPost2010PropOp54
 70
     1
102
RTVSPost2010Prop55
280
     0
102
RTVSPost2010PropOp55
 70
     1
102
RTVSPost2010Prop56
140
1.0
102
RTVSPost2010PropOp56
 70
     1
102
RTVSPost2010Prop57
140
1.0
102
RTVSPost2010PropOp57
 70
     1
  0
XRECORD
  5
183
102
{ACAD_REACTORS
330
182
102
}
330
182
100
AcDbXrecord
280
     1
102
RTVSPost2010Prop28
280
     0
102
RTVSPost2010PropOp28
 70
     1
102
RTVSPost2010Prop29
280
     1
102
RTVSPost2010PropOp29
 70
     1
102
RTVSPost2010Prop30
280
     1
102
RTVSPost2010PropOp30
 70
     1
102
RTVSPost2010Prop31
280
     0
102
RTVSPost2010PropOp31
 70
     1
102
RTVSPost2010Prop32
280
     0
102
RTVSPost2010PropOp32
 70
     1
102
RTVSPost2010Prop33
280
     0
102
RTVSPost2010PropOp33
 70
     1
102
RTVSPost2010Prop34
280
     0
102
RTVSPost2010PropOp34
 70
     1
102
RTVSPost2010Prop35
280
     0
102
RTVSPost2010PropOp35
 70
     1
102
RTVSPost2010Prop36
280
     0
102
RTVSPost2010PropOp36
 70
     1
102
RTVSPost2010Prop37
 90
       50
102
RTVSPost2010PropOp37
 70
     1
102
RTVSPost2010Prop38
140
0.0
102
RTVSPost2010PropOp38
 70
     1
102
RTVSPost2010Prop39
140
1.0
102
RTVSPost2010PropOp39
 70
     1
102
RTVSPost2010Prop40
 90
        0
102
RTVSPost2010PropOp40
 70
     1
102
RTVSPost2010Prop41ColorIndex
 90
       18
102
RTVSPost2010Prop41ColorRGB
 90
        0
102
RTVSPost2010PropOp41
 70
     1
102
RTVSPost2010Prop42
 90
       50
102
RTVSPost2010PropOp42
 70
     1
102
RTVSPost2010Prop43
 90
        3
102
RTVSPost2010PropOp43
 70
     1
102
RTVSPost2010Prop44ColorIndex
 90
        5
102
RTVSPost2010Prop44ColorRGB
 90
      255
102
RTVSPost2010PropOp44
 70
     1
102
RTVSPost2010Prop45
280
     0
102
RTVSPost2010PropOp45
 70
     1
102
RTVSPost2010Prop46
 90
       50
102
RTVSPost2010PropOp46
 70
     1
102
RTVSPost2010Prop47
 90
       50
102
RTVSPost2010PropOp47
 70
     1
102
RTVSPost2010Prop48
 90
       50
102
RTVSPost2010PropOp48
 70
     1
102
RTVSPost2010Prop49
280
     0
102
RTVSPost2010PropOp49
 70
     1
102
RTVSPost2010Prop50
 90
       50
102
RTVSPost2010PropOp50
 70
     1
102
RTVSPost2010Prop51ColorIndex
 90
      256
102
RTVSPost2010Prop51ColorRGB
 90
-16777216
102
RTVSPost2010PropOp51
 70
     0
102
RTVSPost2010Prop52
140
1.0
102
RTVSPost2010PropOp52
 70
     0
102
RTVSPost2010Prop53
 90
        2
102
RTVSPost2010PropOp53
 70
     1
102
RTVSPost2010Prop54
  1
strokes_ogs.tif
102
RTVSPost2010PropOp54
 70
     1
102
RTVSPost2010Prop55
280
     0
102
RTVSPost2010PropOp55
 70
     1
102
RTVSPost2010Prop56
140
1.0
102
RTVSPost2010PropOp56
 70
     1
102
RTVSPost2010Prop57
140
1.0
102
RTVSPost2010PropOp57
 70
     1
  0
XRECORD
  5
185
102
{ACAD_REACTORS
330
184
102
}
330
184
100
AcDbXrecord
280
     1
102
RTVSPost2010Prop28
280
     0
102
RTVSPost2010PropOp28
 70
     1
102
RTVSPost2010Prop29
280
     1
102
RTVSPost2010PropOp29
 70
     1
102
RTVSPost2010Prop30
280
     1
102
RTVSPost2010PropOp30
 70
     1
102
RTVSPost2010Prop31
280
     0
102
RTVSPost2010PropOp31
 70
     1
102
RTVSPost2010Prop32
280
     0
102
RTVSPost2010PropOp32
 70
     1
102
RTVSPost2010Prop33
280
     0
102
RTVSPost2010PropOp33
 70
     1
102
RTVSPost2010Prop34
280
     0
102
RTVSPost2010PropOp34
 70
     1
102
RTVSPost2010Prop35
280
     0
102
RTVSPost2010PropOp35
 70
     1
102
RTVSPost2010Prop36
280
     0
102
RTVSPost2010PropOp36
 70
     1
102
RTVSPost2010Prop37
 90
       50
102
RTVSPost2010PropOp37
 70
     1
102
RTVSPost2010Prop38
140
0.0
102
RTVSPost2010PropOp38
 70
     1
102
RTVSPost2010Prop39
140
1.0
102
RTVSPost2010PropOp39
 70
     1
102
RTVSPost2010Prop40
 90
        0
102
RTVSPost2010PropOp40
 70
     1
102
RTVSPost2010Prop41ColorIndex
 90
       18
102
RTVSPost2010Prop41ColorRGB
 90
        0
102
RTVSPost2010PropOp41
 70
     1
102
RTVSPost2010Prop42
 90
       50
102
RTVSPost2010PropOp42
 70
     1
102
RTVSPost2010Prop43
 90
        3
102
RTVSPost2010PropOp43
 70
     1
102
RTVSPost2010Prop44ColorIndex
 90
        5
102
RTVSPost2010Prop44ColorRGB
 90
      255
102
RTVSPost2010PropOp44
 70
     1
102
RTVSPost2010Prop45
280
     0
102
RTVSPost2010PropOp45
 70
     1
102
RTVSPost2010Prop46
 90
       50
102
RTVSPost2010PropOp46
 70
     1
102
RTVSPost2010Prop47
 90
       50
102
RTVSPost2010PropOp47
 70
     1
102
RTVSPost2010Prop48
 90
       50
102
RTVSPost2010PropOp48
 70
     1
102
RTVSPost2010Prop49
280
     0
102
RTVSPost2010PropOp49
 70
     1
102
RTVSPost2010Prop50
 90
       50
102
RTVSPost2010PropOp50
 70
     1
102
RTVSPost2010Prop51ColorIndex
 90
      256
102
RTVSPost2010Prop51ColorRGB
 90
-16777216
102
RTVSPost2010PropOp51
 70
     0
102
RTVSPost2010Prop52
140
1.0
102
RTVSPost2010PropOp52
 70
     0
102
RTVSPost2010Prop53
 90
        2
102
RTVSPost2010PropOp53
 70
     1
102
RTVSPost2010Prop54
  1
strokes_ogs.tif
102
RTVSPost2010PropOp54
 70
     1
102
RTVSPost2010Prop55
280
     0
102
RTVSPost2010PropOp55
 70
     1
102
RTVSPost2010Prop56
140
1.0
102
RTVSPost2010PropOp56
 70
     1
102
RTVSPost2010Prop57
140
1.0
102
RTVSPost2010PropOp57
 70
     1
  0
XRECORD
  5
187
102
{ACAD_REACTORS
330
186
102
}
330
186
100
AcDbXrecord
280
     1
102
RTVSPost2010Prop28
280
     0
102
RTVSPost2010PropOp28
 70
     1
102
RTVSPost2010Prop29
280
     1
102
RTVSPost2010PropOp29
 70
     1
102
RTVSPost2010Prop30
280
     1
102
RTVSPost2010PropOp30
 70
     1
102
RTVSPost2010Prop31
280
     0
102
RTVSPost2010PropOp31
 70
     1
102
RTVSPost2010Prop32
280
     0
102
RTVSPost2010PropOp32
 70
     1
102
RTVSPost2010Prop33
280
     0
102
RTVSPost2010PropOp33
 70
     1
102
RTVSPost2010Prop34
280
     0
102
RTVSPost2010PropOp34
 70
     1
102
RTVSPost2010Prop35
280
     0
102
RTVSPost2010PropOp35
 70
     1
102
RTVSPost2010Prop36
280
     0
102
RTVSPost2010PropOp36
 70
     1
102
RTVSPost2010Prop37
 90
       50
102
RTVSPost2010PropOp37
 70
     1
102
RTVSPost2010Prop38
140
0.0
102
RTVSPost2010PropOp38
 70
     1
102
RTVSPost2010Prop39
140
1.0
102
RTVSPost2010PropOp39
 70
     1
102
RTVSPost2010Prop40
 90
        0
102
RTVSPost2010PropOp40
 70
     1
102
RTVSPost2010Prop41ColorIndex
 90
       18
102
RTVSPost2010Prop41ColorRGB
 90
        0
102
RTVSPost2010PropOp41
 70
     1
102
RTVSPost2010Prop42
 90
       50
102
RTVSPost2010PropOp42
 70
     1
102
RTVSPost2010Prop43
 90
        3
102
RTVSPost2010PropOp43
 70
     1
102
RTVSPost2010Prop44ColorIndex
 90
        5
102
RTVSPost2010Prop44ColorRGB
 90
      255
102
RTVSPost2010PropOp44
 70
     1
102
RTVSPost2010Prop45
280
     0
102
RTVSPost2010PropOp45
 70
     1
102
RTVSPost2010Prop46
 90
       50
102
RTVSPost2010PropOp46
 70
     1
102
RTVSPost2010Prop47
 90
       50
102
RTVSPost2010PropOp47
 70
     1
102
RTVSPost2010Prop48
 90
       50
102
RTVSPost2010PropOp48
 70
     1
102
RTVSPost2010Prop49
280
     0
102
RTVSPost2010PropOp49
 70
     1
102
RTVSPost2010Prop50
 90
       50
102
RTVSPost2010PropOp50
 70
     1
102
RTVSPost2010Prop51ColorIndex
 90
      256
102
RTVSPost2010Prop51ColorRGB
 90
-16777216
102
RTVSPost2010PropOp51
 70
     0
102
RTVSPost2010Prop52
140
1.0
102
RTVSPost2010PropOp52
 70
     0
102
RTVSPost2010Prop53
 90
        2
102
RTVSPost2010PropOp53
 70
     1
102
RTVSPost2010Prop54
  1
strokes_ogs.tif
102
RTVSPost2010PropOp54
 70
     1
102
RTVSPost2010Prop55
280
     0
102
RTVSPost2010PropOp55
 70
     1
102
RTVSPost2010Prop56
140
1.0
102
RTVSPost2010PropOp56
 70
     1
102
RTVSPost2010Prop57
140
1.0
102
RTVSPost2010PropOp57
 70
     1
  0
XRECORD
  5
18F
102
{ACAD_REACTORS
330
18E
102
}
330
18E
100
AcDbXrecord
280
     1
102
RTVSPost2010Prop28
280
     0
102
RTVSPost2010PropOp28
 70
     1
102
RTVSPost2010Prop29
280
     1
102
RTVSPost2010PropOp29
 70
     1
102
RTVSPost2010Prop30
280
     1
102
RTVSPost2010PropOp30
 70
     1
102
RTVSPost2010Prop31
280
     0
102
RTVSPost2010PropOp31
 70
     1
102
RTVSPost2010Prop32
280
     0
102
RTVSPost2010PropOp32
 70
     1
102
RTVSPost2010Prop33
280
     0
102
RTVSPost2010PropOp33
 70
     1
102
RTVSPost2010Prop34
280
     0
102
RTVSPost2010PropOp34
 70
     1
102
RTVSPost2010Prop35
280
     0
102
RTVSPost2010PropOp35
 70
     1
102
RTVSPost2010Prop36
280
     0
102
RTVSPost2010PropOp36
 70
     1
102
RTVSPost2010Prop37
 90
       50
102
RTVSPost2010PropOp37
 70
     1
102
RTVSPost2010Prop38
140
0.0
102
RTVSPost2010PropOp38
 70
     1
102
RTVSPost2010Prop39
140
1.0
102
RTVSPost2010PropOp39
 70
     1
102
RTVSPost2010Prop40
 90
        0
102
RTVSPost2010PropOp40
 70
     1
102
RTVSPost2010Prop41ColorIndex
 90
       18
102
RTVSPost2010Prop41ColorRGB
 90
        0
102
RTVSPost2010PropOp41
 70
     1
102
RTVSPost2010Prop42
 90
       50
102
RTVSPost2010PropOp42
 70
     1
102
RTVSPost2010Prop43
 90
        3
102
RTVSPost2010PropOp43
 70
     1
102
RTVSPost2010Prop44ColorIndex
 90
        5
102
RTVSPost2010Prop44ColorRGB
 90
      255
102
RTVSPost2010PropOp44
 70
     1
102
RTVSPost2010Prop45
280
     0
102
RTVSPost2010PropOp45
 70
     1
102
RTVSPost2010Prop46
 90
       50
102
RTVSPost2010PropOp46
 70
     1
102
RTVSPost2010Prop47
 90
       50
102
RTVSPost2010PropOp47
 70
     1
102
RTVSPost2010Prop48
 90
       50
102
RTVSPost2010PropOp48
 70
     1
102
RTVSPost2010Prop49
280
     0
102
RTVSPost2010PropOp49
 70
     1
102
RTVSPost2010Prop50
 90
       50
102
RTVSPost2010PropOp50
 70
     1
102
RTVSPost2010Prop51ColorIndex
 90
      256
102
RTVSPost2010Prop51ColorRGB
 90
-16777216
102
RTVSPost2010PropOp51
 70
     0
102
RTVSPost2010Prop52
140
1.0
102
RTVSPost2010PropOp52
 70
     0
102
RTVSPost2010Prop53
 90
        2
102
RTVSPost2010PropOp53
 70
     1
102
RTVSPost2010Prop54
  1
strokes_ogs.tif
102
RTVSPost2010PropOp54
 70
     1
102
RTVSPost2010Prop55
280
     0
102
RTVSPost2010PropOp55
 70
     1
102
RTVSPost2010Prop56
140
1.0
102
RTVSPost2010PropOp56
 70
     1
102
RTVSPost2010Prop57
140
1.0
102
RTVSPost2010PropOp57
 70
     1
  0
XRECORD
  5
1AB
102
{ACAD_REACTORS
330
1AA
102
}
330
1AA
100
AcDbXrecord
280
     1
102
RTVSPost2010Prop28
280
     0
102
RTVSPost2010PropOp28
 70
     0
102
RTVSPost2010Prop29
280
     1
102
RTVSPost2010PropOp29
 70
     0
102
RTVSPost2010Prop30
280
     1
102
RTVSPost2010PropOp30
 70
     0
102
RTVSPost2010Prop31
280
     0
102
RTVSPost2010PropOp31
 70
     0
102
RTVSPost2010Prop32
280
     0
102
RTVSPost2010PropOp32
 70
     0
102
RTVSPost2010Prop33
280
     0
102
RTVSPost2010PropOp33
 70
     0
102
RTVSPost2010Prop34
280
     0
102
RTVSPost2010PropOp34
 70
     0
102
RTVSPost2010Prop35
280
     0
102
RTVSPost2010PropOp35
 70
     0
102
RTVSPost2010Prop36
280
     0
102
RTVSPost2010PropOp36
 70
     0
102
RTVSPost2010Prop37
 90
       50
102
RTVSPost2010PropOp37
 70
     0
102
RTVSPost2010Prop38
140
0.0
102
RTVSPost2010PropOp38
 70
     0
102
RTVSPost2010Prop39
140
1.0
102
RTVSPost2010PropOp39
 70
     0
102
RTVSPost2010Prop40
 90
        0
102
RTVSPost2010PropOp40
 70
     0
102
RTVSPost2010Prop41ColorIndex
 90
       18
102
RTVSPost2010Prop41ColorRGB
 90
        0
102
RTVSPost2010PropOp41
 70
     0
102
RTVSPost2010Prop42
 90
       50
102
RTVSPost2010PropOp42
 70
     0
102
RTVSPost2010Prop43
 90
        3
102
RTVSPost2010PropOp43
 70
     0
102
RTVSPost2010Prop44ColorIndex
 90
        5
102
RTVSPost2010Prop44ColorRGB
 90
      255
102
RTVSPost2010PropOp44
 70
     0
102
RTVSPost2010Prop45
280
     0
102
RTVSPost2010PropOp45
 70
     0
102
RTVSPost2010Prop46
 90
       50
102
RTVSPost2010PropOp46
 70
     0
102
RTVSPost2010Prop47
 90
       50
102
RTVSPost2010PropOp47
 70
     0
102
RTVSPost2010Prop48
 90
       50
102
RTVSPost2010PropOp48
 70
     0
102
RTVSPost2010Prop49
280
     0
102
RTVSPost2010PropOp49
 70
     0
102
RTVSPost2010Prop50
 90
       50
102
RTVSPost2010PropOp50
 70
     0
102
RTVSPost2010Prop51ColorIndex
 90
      256
102
RTVSPost2010Prop51ColorRGB
 90
-16777216
102
RTVSPost2010PropOp51
 70
     0
102
RTVSPost2010Prop52
140
1.0
102
RTVSPost2010PropOp52
 70
     0
102
RTVSPost2010Prop53
 90
        2
102
RTVSPost2010PropOp53
 70
     0
102
RTVSPost2010Prop54
  1
strokes_ogs.tif
102
RTVSPost2010PropOp54
 70
     0
102
RTVSPost2010Prop55
280
     0
102
RTVSPost2010PropOp55
 70
     0
102
RTVSPost2010Prop56
140
1.0
102
RTVSPost2010PropOp56
 70
     0
102
RTVSPost2010Prop57
140
1.0
102
RTVSPost2010PropOp57
 70
     0
  0
XRECORD
  5
19B
102
{ACAD_REACTORS
330
19A
102
}
330
19A
100
AcDbXrecord
280
     1
102
RTVSPost2010Prop28
280
     0
102
RTVSPost2010PropOp28
 70
     1
102
RTVSPost2010Prop29
280
     1
102
RTVSPost2010PropOp29
 70
     1
102
RTVSPost2010Prop30
280
     1
102
RTVSPost2010PropOp30
 70
     1
102
RTVSPost2010Prop31
280
     0
102
RTVSPost2010PropOp31
 70
     1
102
RTVSPost2010Prop32
280
     0
102
RTVSPost2010PropOp32
 70
     1
102
RTVSPost2010Prop33
280
     0
102
RTVSPost2010PropOp33
 70
     1
102
RTVSPost2010Prop34
280
     0
102
RTVSPost2010PropOp34
 70
     1
102
RTVSPost2010Prop35
280
     0
102
RTVSPost2010PropOp35
 70
     1
102
RTVSPost2010Prop36
280
     0
102
RTVSPost2010PropOp36
 70
     1
102
RTVSPost2010Prop37
 90
       50
102
RTVSPost2010PropOp37
 70
     1
102
RTVSPost2010Prop38
140
0.0
102
RTVSPost2010PropOp38
 70
     1
102
RTVSPost2010Prop39
140
1.0
102
RTVSPost2010PropOp39
 70
     1
102
RTVSPost2010Prop40
 90
        0
102
RTVSPost2010PropOp40
 70
     1
102
RTVSPost2010Prop41ColorIndex
 90
       18
102
RTVSPost2010Prop41ColorRGB
 90
        0
102
RTVSPost2010PropOp41
 70
     1
102
RTVSPost2010Prop42
 90
       50
102
RTVSPost2010PropOp42
 70
     1
102
RTVSPost2010Prop43
 90
        3
102
RTVSPost2010PropOp43
 70
     1
102
RTVSPost2010Prop44ColorIndex
 90
        5
102
RTVSPost2010Prop44ColorRGB
 90
      255
102
RTVSPost2010PropOp44
 70
     1
102
RTVSPost2010Prop45
280
     0
102
RTVSPost2010PropOp45
 70
     1
102
RTVSPost2010Prop46
 90
       50
102
RTVSPost2010PropOp46
 70
     1
102
RTVSPost2010Prop47
 90
       50
102
RTVSPost2010PropOp47
 70
     1
102
RTVSPost2010Prop48
 90
       50
102
RTVSPost2010PropOp48
 70
     1
102
RTVSPost2010Prop49
280
     0
102
RTVSPost2010PropOp49
 70
     1
102
RTVSPost2010Prop50
 90
       50
102
RTVSPost2010PropOp50
 70
     1
102
RTVSPost2010Prop51ColorIndex
 90
      256
102
RTVSPost2010Prop51ColorRGB
 90
-16777216
102
RTVSPost2010PropOp51
 70
     0
102
RTVSPost2010Prop52
140
1.0
102
RTVSPost2010PropOp52
 70
     0
102
RTVSPost2010Prop53
 90
        2
102
RTVSPost2010PropOp53
 70
     1
102
RTVSPost2010Prop54
  1
strokes_ogs.tif
102
RTVSPost2010PropOp54
 70
     1
102
RTVSPost2010Prop55
280
     0
102
RTVSPost2010PropOp55
 70
     1
102
RTVSPost2010Prop56
140
1.0
102
RTVSPost2010PropOp56
 70
     1
102
RTVSPost2010Prop57
140
1.0
102
RTVSPost2010PropOp57
 70
     1
  0
XRECORD
  5
1AD
102
{ACAD_REACTORS
330
1AC
102
}
330
1AC
100
AcDbXrecord
280
     1
102
RTVSPost2010Prop28
280
     0
102
RTVSPost2010PropOp28
 70
     0
102
RTVSPost2010Prop29
280
     1
102
RTVSPost2010PropOp29
 70
     0
102
RTVSPost2010Prop30
280
     1
102
RTVSPost2010PropOp30
 70
     0
102
RTVSPost2010Prop31
280
     0
102
RTVSPost2010PropOp31
 70
     0
102
RTVSPost2010Prop32
280
     0
102
RTVSPost2010PropOp32
 70
     0
102
RTVSPost2010Prop33
280
     0
102
RTVSPost2010PropOp33
 70
     0
102
RTVSPost2010Prop34
280
     0
102
RTVSPost2010PropOp34
 70
     0
102
RTVSPost2010Prop35
280
     0
102
RTVSPost2010PropOp35
 70
     0
102
RTVSPost2010Prop36
280
     0
102
RTVSPost2010PropOp36
 70
     0
102
RTVSPost2010Prop37
 90
       50
102
RTVSPost2010PropOp37
 70
     0
102
RTVSPost2010Prop38
140
0.0
102
RTVSPost2010PropOp38
 70
     0
102
RTVSPost2010Prop39
140
1.0
102
RTVSPost2010PropOp39
 70
     0
102
RTVSPost2010Prop40
 90
        0
102
RTVSPost2010PropOp40
 70
     0
102
RTVSPost2010Prop41ColorIndex
 90
       18
102
RTVSPost2010Prop41ColorRGB
 90
        0
102
RTVSPost2010PropOp41
 70
     0
102
RTVSPost2010Prop42
 90
       50
102
RTVSPost2010PropOp42
 70
     0
102
RTVSPost2010Prop43
 90
        3
102
RTVSPost2010PropOp43
 70
     0
102
RTVSPost2010Prop44ColorIndex
 90
        5
102
RTVSPost2010Prop44ColorRGB
 90
      255
102
RTVSPost2010PropOp44
 70
     0
102
RTVSPost2010Prop45
280
     0
102
RTVSPost2010PropOp45
 70
     0
102
RTVSPost2010Prop46
 90
       50
102
RTVSPost2010PropOp46
 70
     0
102
RTVSPost2010Prop47
 90
       50
102
RTVSPost2010PropOp47
 70
     0
102
RTVSPost2010Prop48
 90
       50
102
RTVSPost2010PropOp48
 70
     0
102
RTVSPost2010Prop49
280
     0
102
RTVSPost2010PropOp49
 70
     0
102
RTVSPost2010Prop50
 90
       50
102
RTVSPost2010PropOp50
 70
     0
102
RTVSPost2010Prop51ColorIndex
 90
      256
102
RTVSPost2010Prop51ColorRGB
 90
-16777216
102
RTVSPost2010PropOp51
 70
     0
102
RTVSPost2010Prop52
140
1.0
102
RTVSPost2010PropOp52
 70
     0
102
RTVSPost2010Prop53
 90
        2
102
RTVSPost2010PropOp53
 70
     0
102
RTVSPost2010Prop54
  1
strokes_ogs.tif
102
RTVSPost2010PropOp54
 70
     0
102
RTVSPost2010Prop55
280
     0
102
RTVSPost2010PropOp55
 70
     0
102
RTVSPost2010Prop56
140
1.0
102
RTVSPost2010PropOp56
 70
     0
102
RTVSPost2010Prop57
140
1.0
102
RTVSPost2010PropOp57
 70
     0
  0
XRECORD
  5
193
102
{ACAD_REACTORS
330
192
102
}
330
192
100
AcDbXrecord
280
     1
102
RTVSPost2010Prop28
280
     0
102
RTVSPost2010PropOp28
 70
     1
102
RTVSPost2010Prop29
280
     1
102
RTVSPost2010PropOp29
 70
     1
102
RTVSPost2010Prop30
280
     1
102
RTVSPost2010PropOp30
 70
     1
102
RTVSPost2010Prop31
280
     0
102
RTVSPost2010PropOp31
 70
     1
102
RTVSPost2010Prop32
280
     0
102
RTVSPost2010PropOp32
 70
     1
102
RTVSPost2010Prop33
280
     0
102
RTVSPost2010PropOp33
 70
     1
102
RTVSPost2010Prop34
280
     0
102
RTVSPost2010PropOp34
 70
     1
102
RTVSPost2010Prop35
280
     0
102
RTVSPost2010PropOp35
 70
     1
102
RTVSPost2010Prop36
280
     0
102
RTVSPost2010PropOp36
 70
     1
102
RTVSPost2010Prop37
 90
       50
102
RTVSPost2010PropOp37
 70
     1
102
RTVSPost2010Prop38
140
0.0
102
RTVSPost2010PropOp38
 70
     1
102
RTVSPost2010Prop39
140
1.0
102
RTVSPost2010PropOp39
 70
     1
102
RTVSPost2010Prop40
 90
        0
102
RTVSPost2010PropOp40
 70
     1
102
RTVSPost2010Prop41ColorIndex
 90
       18
102
RTVSPost2010Prop41ColorRGB
 90
        0
102
RTVSPost2010PropOp41
 70
     1
102
RTVSPost2010Prop42
 90
       50
102
RTVSPost2010PropOp42
 70
     1
102
RTVSPost2010Prop43
 90
        3
102
RTVSPost2010PropOp43
 70
     1
102
RTVSPost2010Prop44ColorIndex
 90
        5
102
RTVSPost2010Prop44ColorRGB
 90
      255
102
RTVSPost2010PropOp44
 70
     1
102
RTVSPost2010Prop45
280
     0
102
RTVSPost2010PropOp45
 70
     1
102
RTVSPost2010Prop46
 90
       50
102
RTVSPost2010PropOp46
 70
     1
102
RTVSPost2010Prop47
 90
       50
102
RTVSPost2010PropOp47
 70
     1
102
RTVSPost2010Prop48
 90
       50
102
RTVSPost2010PropOp48
 70
     1
102
RTVSPost2010Prop49
280
     0
102
RTVSPost2010PropOp49
 70
     1
102
RTVSPost2010Prop50
 90
       50
102
RTVSPost2010PropOp50
 70
     1
102
RTVSPost2010Prop51ColorIndex
 90
      256
102
RTVSPost2010Prop51ColorRGB
 90
-16777216
102
RTVSPost2010PropOp51
 70
     0
102
RTVSPost2010Prop52
140
1.0
102
RTVSPost2010PropOp52
 70
     0
102
RTVSPost2010Prop53
 90
        2
102
RTVSPost2010PropOp53
 70
     1
102
RTVSPost2010Prop54
  1
strokes_ogs.tif
102
RTVSPost2010PropOp54
 70
     1
102
RTVSPost2010Prop55
280
     0
102
RTVSPost2010PropOp55
 70
     1
102
RTVSPost2010Prop56
140
1.0
102
RTVSPost2010PropOp56
 70
     1
102
RTVSPost2010Prop57
140
1.0
102
RTVSPost2010PropOp57
 70
     1
  0
XRECORD
  5
1A9
102
{ACAD_REACTORS
330
1A8
102
}
330
1A8
100
AcDbXrecord
280
     1
102
RTVSPost2010Prop28
280
     0
102
RTVSPost2010PropOp28
 70
     1
102
RTVSPost2010Prop29
280
     1
102
RTVSPost2010PropOp29
 70
     1
102
RTVSPost2010Prop30
280
     1
102
RTVSPost2010PropOp30
 70
     1
102
RTVSPost2010Prop31
280
     0
102
RTVSPost2010PropOp31
 70
     1
102
RTVSPost2010Prop32
280
     0
102
RTVSPost2010PropOp32
 70
     1
102
RTVSPost2010Prop33
280
     0
102
RTVSPost2010PropOp33
 70
     1
102
RTVSPost2010Prop34
280
     0
102
RTVSPost2010PropOp34
 70
     1
102
RTVSPost2010Prop35
280
     0
102
RTVSPost2010PropOp35
 70
     1
102
RTVSPost2010Prop36
280
     0
102
RTVSPost2010PropOp36
 70
     1
102
RTVSPost2010Prop37
 90
       50
102
RTVSPost2010PropOp37
 70
     1
102
RTVSPost2010Prop38
140
0.0
102
RTVSPost2010PropOp38
 70
     1
102
RTVSPost2010Prop39
140
1.0
102
RTVSPost2010PropOp39
 70
     1
102
RTVSPost2010Prop40
 90
        0
102
RTVSPost2010PropOp40
 70
     1
102
RTVSPost2010Prop41ColorIndex
 90
       18
102
RTVSPost2010Prop41ColorRGB
 90
        0
102
RTVSPost2010PropOp41
 70
     1
102
RTVSPost2010Prop42
 90
       50
102
RTVSPost2010PropOp42
 70
     1
102
RTVSPost2010Prop43
 90
        3
102
RTVSPost2010PropOp43
 70
     1
102
RTVSPost2010Prop44ColorIndex
 90
        5
102
RTVSPost2010Prop44ColorRGB
 90
      255
102
RTVSPost2010PropOp44
 70
     1
102
RTVSPost2010Prop45
280
     0
102
RTVSPost2010PropOp45
 70
     1
102
RTVSPost2010Prop46
 90
       50
102
RTVSPost2010PropOp46
 70
     1
102
RTVSPost2010Prop47
 90
       50
102
RTVSPost2010PropOp47
 70
     1
102
RTVSPost2010Prop48
 90
       50
102
RTVSPost2010PropOp48
 70
     1
102
RTVSPost2010Prop49
280
     0
102
RTVSPost2010PropOp49
 70
     1
102
RTVSPost2010Prop50
 90
       50
102
RTVSPost2010PropOp50
 70
     1
102
RTVSPost2010Prop51ColorIndex
 90
      256
102
RTVSPost2010Prop51ColorRGB
 90
-16777216
102
RTVSPost2010PropOp51
 70
     0
102
RTVSPost2010Prop52
140
1.0
102
RTVSPost2010PropOp52
 70
     0
102
RTVSPost2010Prop53
 90
        2
102
RTVSPost2010PropOp53
 70
     1
102
RTVSPost2010Prop54
  1
strokes_ogs.tif
102
RTVSPost2010PropOp54
 70
     1
102
RTVSPost2010Prop55
280
     0
102
RTVSPost2010PropOp55
 70
     1
102
RTVSPost2010Prop56
140
1.0
102
RTVSPost2010PropOp56
 70
     1
102
RTVSPost2010Prop57
140
1.0
102
RTVSPost2010PropOp57
 70
     1
  0
XRECORD
  5
1A7
102
{ACAD_REACTORS
330
1A6
102
}
330
1A6
100
AcDbXrecord
280
     1
102
RTVSPost2010Prop28
280
     0
102
RTVSPost2010PropOp28
 70
     1
102
RTVSPost2010Prop29
280
     1
102
RTVSPost2010PropOp29
 70
     1
102
RTVSPost2010Prop30
280
     1
102
RTVSPost2010PropOp30
 70
     1
102
RTVSPost2010Prop31
280
     0
102
RTVSPost2010PropOp31
 70
     1
102
RTVSPost2010Prop32
280
     0
102
RTVSPost2010PropOp32
 70
     1
102
RTVSPost2010Prop33
280
     0
102
RTVSPost2010PropOp33
 70
     1
102
RTVSPost2010Prop34
280
     0
102
RTVSPost2010PropOp34
 70
     1
102
RTVSPost2010Prop35
280
     0
102
RTVSPost2010PropOp35
 70
     1
102
RTVSPost2010Prop36
280
     0
102
RTVSPost2010PropOp36
 70
     1
102
RTVSPost2010Prop37
 90
       50
102
RTVSPost2010PropOp37
 70
     1
102
RTVSPost2010Prop38
140
0.0
102
RTVSPost2010PropOp38
 70
     1
102
RTVSPost2010Prop39
140
1.0
102
RTVSPost2010PropOp39
 70
     1
102
RTVSPost2010Prop40
 90
        0
102
RTVSPost2010PropOp40
 70
     1
102
RTVSPost2010Prop41ColorIndex
 90
       18
102
RTVSPost2010Prop41ColorRGB
 90
        0
102
RTVSPost2010PropOp41
 70
     1
102
RTVSPost2010Prop42
 90
       50
102
RTVSPost2010PropOp42
 70
     1
102
RTVSPost2010Prop43
 90
        3
102
RTVSPost2010PropOp43
 70
     1
102
RTVSPost2010Prop44ColorIndex
 90
        5
102
RTVSPost2010Prop44ColorRGB
 90
      255
102
RTVSPost2010PropOp44
 70
     1
102
RTVSPost2010Prop45
280
     0
102
RTVSPost2010PropOp45
 70
     1
102
RTVSPost2010Prop46
 90
       50
102
RTVSPost2010PropOp46
 70
     1
102
RTVSPost2010Prop47
 90
       50
102
RTVSPost2010PropOp47
 70
     1
102
RTVSPost2010Prop48
 90
       50
102
RTVSPost2010PropOp48
 70
     1
102
RTVSPost2010Prop49
280
     0
102
RTVSPost2010PropOp49
 70
     1
102
RTVSPost2010Prop50
 90
       50
102
RTVSPost2010PropOp50
 70
     1
102
RTVSPost2010Prop51ColorIndex
 90
      256
102
RTVSPost2010Prop51ColorRGB
 90
-16777216
102
RTVSPost2010PropOp51
 70
     0
102
RTVSPost2010Prop52
140
1.0
102
RTVSPost2010PropOp52
 70
     0
102
RTVSPost2010Prop53
 90
        2
102
RTVSPost2010PropOp53
 70
     1
102
RTVSPost2010Prop54
  1
strokes_ogs.tif
102
RTVSPost2010PropOp54
 70
     1
102
RTVSPost2010Prop55
280
     0
102
RTVSPost2010PropOp55
 70
     1
102
RTVSPost2010Prop56
140
1.0
102
RTVSPost2010PropOp56
 70
     1
102
RTVSPost2010Prop57
140
1.0
102
RTVSPost2010PropOp57
 70
     1
  0
XRECORD
  5
1A1
102
{ACAD_REACTORS
330
1A0
102
}
330
1A0
100
AcDbXrecord
280
     1
102
RTVSPost2010Prop28
280
     0
102
RTVSPost2010PropOp28
 70
     1
102
RTVSPost2010Prop29
280
     1
102
RTVSPost2010PropOp29
 70
     1
102
RTVSPost2010Prop30
280
     1
102
RTVSPost2010PropOp30
 70
     1
102
RTVSPost2010Prop31
280
     0
102
RTVSPost2010PropOp31
 70
     1
102
RTVSPost2010Prop32
280
     0
102
RTVSPost2010PropOp32
 70
     1
102
RTVSPost2010Prop33
280
     0
102
RTVSPost2010PropOp33
 70
     1
102
RTVSPost2010Prop34
280
     0
102
RTVSPost2010PropOp34
 70
     1
102
RTVSPost2010Prop35
280
     0
102
RTVSPost2010PropOp35
 70
     1
102
RTVSPost2010Prop36
280
     0
102
RTVSPost2010PropOp36
 70
     1
102
RTVSPost2010Prop37
 90
       50
102
RTVSPost2010PropOp37
 70
     1
102
RTVSPost2010Prop38
140
0.0
102
RTVSPost2010PropOp38
 70
     1
102
RTVSPost2010Prop39
140
1.0
102
RTVSPost2010PropOp39
 70
     1
102
RTVSPost2010Prop40
 90
        0
102
RTVSPost2010PropOp40
 70
     1
102
RTVSPost2010Prop41ColorIndex
 90
       18
102
RTVSPost2010Prop41ColorRGB
 90
        0
102
RTVSPost2010PropOp41
 70
     1
102
RTVSPost2010Prop42
 90
       50
102
RTVSPost2010PropOp42
 70
     1
102
RTVSPost2010Prop43
 90
        3
102
RTVSPost2010PropOp43
 70
     1
102
RTVSPost2010Prop44ColorIndex
 90
        5
102
RTVSPost2010Prop44ColorRGB
 90
      255
102
RTVSPost2010PropOp44
 70
     1
102
RTVSPost2010Prop45
280
     0
102
RTVSPost2010PropOp45
 70
     1
102
RTVSPost2010Prop46
 90
       50
102
RTVSPost2010PropOp46
 70
     1
102
RTVSPost2010Prop47
 90
       50
102
RTVSPost2010PropOp47
 70
     1
102
RTVSPost2010Prop48
 90
       50
102
RTVSPost2010PropOp48
 70
     1
102
RTVSPost2010Prop49
280
     0
102
RTVSPost2010PropOp49
 70
     1
102
RTVSPost2010Prop50
 90
       50
102
RTVSPost2010PropOp50
 70
     1
102
RTVSPost2010Prop51ColorIndex
 90
      256
102
RTVSPost2010Prop51ColorRGB
 90
-16777216
102
RTVSPost2010PropOp51
 70
     0
102
RTVSPost2010Prop52
140
1.0
102
RTVSPost2010PropOp52
 70
     0
102
RTVSPost2010Prop53
 90
        2
102
RTVSPost2010PropOp53
 70
     1
102
RTVSPost2010Prop54
  1
strokes_ogs.tif
102
RTVSPost2010PropOp54
 70
     1
102
RTVSPost2010Prop55
280
     0
102
RTVSPost2010PropOp55
 70
     1
102
RTVSPost2010Prop56
140
1.0
102
RTVSPost2010PropOp56
 70
     1
102
RTVSPost2010Prop57
140
1.0
102
RTVSPost2010PropOp57
 70
     1
  0
XRECORD
  5
1A3
102
{ACAD_REACTORS
330
1A2
102
}
330
1A2
100
AcDbXrecord
280
     1
102
RTVSPost2010Prop28
280
     0
102
RTVSPost2010PropOp28
 70
     1
102
RTVSPost2010Prop29
280
     1
102
RTVSPost2010PropOp29
 70
     1
102
RTVSPost2010Prop30
280
     1
102
RTVSPost2010PropOp30
 70
     1
102
RTVSPost2010Prop31
280
     0
102
RTVSPost2010PropOp31
 70
     1
102
RTVSPost2010Prop32
280
     0
102
RTVSPost2010PropOp32
 70
     1
102
RTVSPost2010Prop33
280
     0
102
RTVSPost2010PropOp33
 70
     1
102
RTVSPost2010Prop34
280
     0
102
RTVSPost2010PropOp34
 70
     1
102
RTVSPost2010Prop35
280
     0
102
RTVSPost2010PropOp35
 70
     1
102
RTVSPost2010Prop36
280
     0
102
RTVSPost2010PropOp36
 70
     1
102
RTVSPost2010Prop37
 90
       50
102
RTVSPost2010PropOp37
 70
     1
102
RTVSPost2010Prop38
140
0.0
102
RTVSPost2010PropOp38
 70
     1
102
RTVSPost2010Prop39
140
1.0
102
RTVSPost2010PropOp39
 70
     1
102
RTVSPost2010Prop40
 90
        0
102
RTVSPost2010PropOp40
 70
     1
102
RTVSPost2010Prop41ColorIndex
 90
       18
102
RTVSPost2010Prop41ColorRGB
 90
        0
102
RTVSPost2010PropOp41
 70
     1
102
RTVSPost2010Prop42
 90
       50
102
RTVSPost2010PropOp42
 70
     1
102
RTVSPost2010Prop43
 90
        3
102
RTVSPost2010PropOp43
 70
     1
102
RTVSPost2010Prop44ColorIndex
 90
        5
102
RTVSPost2010Prop44ColorRGB
 90
      255
102
RTVSPost2010PropOp44
 70
     1
102
RTVSPost2010Prop45
280
     0
102
RTVSPost2010PropOp45
 70
     1
102
RTVSPost2010Prop46
 90
       50
102
RTVSPost2010PropOp46
 70
     1
102
RTVSPost2010Prop47
 90
       50
102
RTVSPost2010PropOp47
 70
     1
102
RTVSPost2010Prop48
 90
       50
102
RTVSPost2010PropOp48
 70
     1
102
RTVSPost2010Prop49
280
     0
102
RTVSPost2010PropOp49
 70
     1
102
RTVSPost2010Prop50
 90
       50
102
RTVSPost2010PropOp50
 70
     1
102
RTVSPost2010Prop51ColorIndex
 90
      256
102
RTVSPost2010Prop51ColorRGB
 90
-16777216
102
RTVSPost2010PropOp51
 70
     0
102
RTVSPost2010Prop52
140
1.0
102
RTVSPost2010PropOp52
 70
     0
102
RTVSPost2010Prop53
 90
        2
102
RTVSPost2010PropOp53
 70
     1
102
RTVSPost2010Prop54
  1
strokes_ogs.tif
102
RTVSPost2010PropOp54
 70
     1
102
RTVSPost2010Prop55
280
     0
102
RTVSPost2010PropOp55
 70
     1
102
RTVSPost2010Prop56
140
1.0
102
RTVSPost2010PropOp56
 70
     1
102
RTVSPost2010Prop57
140
1.0
102
RTVSPost2010PropOp57
 70
     1
  0
XRECORD
  5
199
102
{ACAD_REACTORS
330
198
102
}
330
198
100
AcDbXrecord
280
     1
102
RTVSPost2010Prop28
280
     0
102
RTVSPost2010PropOp28
 70
     1
102
RTVSPost2010Prop29
280
     1
102
RTVSPost2010PropOp29
 70
     1
102
RTVSPost2010Prop30
280
     1
102
RTVSPost2010PropOp30
 70
     1
102
RTVSPost2010Prop31
280
     0
102
RTVSPost2010PropOp31
 70
     1
102
RTVSPost2010Prop32
280
     0
102
RTVSPost2010PropOp32
 70
     1
102
RTVSPost2010Prop33
280
     0
102
RTVSPost2010PropOp33
 70
     1
102
RTVSPost2010Prop34
280
     0
102
RTVSPost2010PropOp34
 70
     1
102
RTVSPost2010Prop35
280
     0
102
RTVSPost2010PropOp35
 70
     1
102
RTVSPost2010Prop36
280
     0
102
RTVSPost2010PropOp36
 70
     1
102
RTVSPost2010Prop37
 90
       50
102
RTVSPost2010PropOp37
 70
     1
102
RTVSPost2010Prop38
140
0.0
102
RTVSPost2010PropOp38
 70
     1
102
RTVSPost2010Prop39
140
1.0
102
RTVSPost2010PropOp39
 70
     1
102
RTVSPost2010Prop40
 90
        0
102
RTVSPost2010PropOp40
 70
     1
102
RTVSPost2010Prop41ColorIndex
 90
       18
102
RTVSPost2010Prop41ColorRGB
 90
        0
102
RTVSPost2010PropOp41
 70
     1
102
RTVSPost2010Prop42
 90
       50
102
RTVSPost2010PropOp42
 70
     1
102
RTVSPost2010Prop43
 90
        3
102
RTVSPost2010PropOp43
 70
     1
102
RTVSPost2010Prop44ColorIndex
 90
        5
102
RTVSPost2010Prop44ColorRGB
 90
      255
102
RTVSPost2010PropOp44
 70
     1
102
RTVSPost2010Prop45
280
     0
102
RTVSPost2010PropOp45
 70
     1
102
RTVSPost2010Prop46
 90
       50
102
RTVSPost2010PropOp46
 70
     1
102
RTVSPost2010Prop47
 90
       50
102
RTVSPost2010PropOp47
 70
     1
102
RTVSPost2010Prop48
 90
       50
102
RTVSPost2010PropOp48
 70
     1
102
RTVSPost2010Prop49
280
     0
102
RTVSPost2010PropOp49
 70
     1
102
RTVSPost2010Prop50
 90
       50
102
RTVSPost2010PropOp50
 70
     1
102
RTVSPost2010Prop51ColorIndex
 90
      256
102
RTVSPost2010Prop51ColorRGB
 90
-16777216
102
RTVSPost2010PropOp51
 70
     0
102
RTVSPost2010Prop52
140
1.0
102
RTVSPost2010PropOp52
 70
     0
102
RTVSPost2010Prop53
 90
        2
102
RTVSPost2010PropOp53
 70
     1
102
RTVSPost2010Prop54
  1
strokes_ogs.tif
102
RTVSPost2010PropOp54
 70
     1
102
RTVSPost2010Prop55
280
     0
102
RTVSPost2010PropOp55
 70
     1
102
RTVSPost2010Prop56
140
1.0
102
RTVSPost2010PropOp56
 70
     1
102
RTVSPost2010Prop57
140
1.0
102
RTVSPost2010PropOp57
 70
     1
  0
XRECORD
  5
18D
102
{ACAD_REACTORS
330
18C
102
}
330
18C
100
AcDbXrecord
280
     1
102
RTVSPost2010Prop28
280
     0
102
RTVSPost2010PropOp28
 70
     1
102
RTVSPost2010Prop29
280
     1
102
RTVSPost2010PropOp29
 70
     1
102
RTVSPost2010Prop30
280
     1
102
RTVSPost2010PropOp30
 70
     1
102
RTVSPost2010Prop31
280
     0
102
RTVSPost2010PropOp31
 70
     1
102
RTVSPost2010Prop32
280
     0
102
RTVSPost2010PropOp32
 70
     1
102
RTVSPost2010Prop33
280
     0
102
RTVSPost2010PropOp33
 70
     1
102
RTVSPost2010Prop34
280
     0
102
RTVSPost2010PropOp34
 70
     1
102
RTVSPost2010Prop35
280
     0
102
RTVSPost2010PropOp35
 70
     1
102
RTVSPost2010Prop36
280
     0
102
RTVSPost2010PropOp36
 70
     1
102
RTVSPost2010Prop37
 90
       50
102
RTVSPost2010PropOp37
 70
     1
102
RTVSPost2010Prop38
140
0.0
102
RTVSPost2010PropOp38
 70
     1
102
RTVSPost2010Prop39
140
1.0
102
RTVSPost2010PropOp39
 70
     1
102
RTVSPost2010Prop40
 90
        0
102
RTVSPost2010PropOp40
 70
     1
102
RTVSPost2010Prop41ColorIndex
 90
       18
102
RTVSPost2010Prop41ColorRGB
 90
        0
102
RTVSPost2010PropOp41
 70
     1
102
RTVSPost2010Prop42
 90
       50
102
RTVSPost2010PropOp42
 70
     1
102
RTVSPost2010Prop43
 90
        3
102
RTVSPost2010PropOp43
 70
     1
102
RTVSPost2010Prop44ColorIndex
 90
        5
102
RTVSPost2010Prop44ColorRGB
 90
      255
102
RTVSPost2010PropOp44
 70
     1
102
RTVSPost2010Prop45
280
     0
102
RTVSPost2010PropOp45
 70
     1
102
RTVSPost2010Prop46
 90
       50
102
RTVSPost2010PropOp46
 70
     1
102
RTVSPost2010Prop47
 90
       50
102
RTVSPost2010PropOp47
 70
     1
102
RTVSPost2010Prop48
 90
       50
102
RTVSPost2010PropOp48
 70
     1
102
RTVSPost2010Prop49
280
     0
102
RTVSPost2010PropOp49
 70
     1
102
RTVSPost2010Prop50
 90
       50
102
RTVSPost2010PropOp50
 70
     1
102
RTVSPost2010Prop51ColorIndex
 90
      256
102
RTVSPost2010Prop51ColorRGB
 90
-16777216
102
RTVSPost2010PropOp51
 70
     0
102
RTVSPost2010Prop52
140
1.0
102
RTVSPost2010PropOp52
 70
     0
102
RTVSPost2010Prop53
 90
        2
102
RTVSPost2010PropOp53
 70
     1
102
RTVSPost2010Prop54
  1
strokes_ogs.tif
102
RTVSPost2010PropOp54
 70
     1
102
RTVSPost2010Prop55
280
     0
102
RTVSPost2010PropOp55
 70
     1
102
RTVSPost2010Prop56
140
1.0
102
RTVSPost2010PropOp56
 70
     1
102
RTVSPost2010Prop57
140
1.0
102
RTVSPost2010PropOp57
 70
     1
  0
XRECORD
  5
1A5
102
{ACAD_REACTORS
330
1A4
102
}
330
1A4
100
AcDbXrecord
280
     1
102
RTVSPost2010Prop28
280
     0
102
RTVSPost2010PropOp28
 70
     1
102
RTVSPost2010Prop29
280
     1
102
RTVSPost2010PropOp29
 70
     1
102
RTVSPost2010Prop30
280
     1
102
RTVSPost2010PropOp30
 70
     1
102
RTVSPost2010Prop31
280
     0
102
RTVSPost2010PropOp31
 70
     1
102
RTVSPost2010Prop32
280
     0
102
RTVSPost2010PropOp32
 70
     1
102
RTVSPost2010Prop33
280
     0
102
RTVSPost2010PropOp33
 70
     1
102
RTVSPost2010Prop34
280
     0
102
RTVSPost2010PropOp34
 70
     1
102
RTVSPost2010Prop35
280
     0
102
RTVSPost2010PropOp35
 70
     1
102
RTVSPost2010Prop36
280
     0
102
RTVSPost2010PropOp36
 70
     1
102
RTVSPost2010Prop37
 90
       50
102
RTVSPost2010PropOp37
 70
     1
102
RTVSPost2010Prop38
140
0.0
102
RTVSPost2010PropOp38
 70
     1
102
RTVSPost2010Prop39
140
1.0
102
RTVSPost2010PropOp39
 70
     1
102
RTVSPost2010Prop40
 90
        0
102
RTVSPost2010PropOp40
 70
     1
102
RTVSPost2010Prop41ColorIndex
 90
       18
102
RTVSPost2010Prop41ColorRGB
 90
        0
102
RTVSPost2010PropOp41
 70
     1
102
RTVSPost2010Prop42
 90
       50
102
RTVSPost2010PropOp42
 70
     1
102
RTVSPost2010Prop43
 90
        3
102
RTVSPost2010PropOp43
 70
     1
102
RTVSPost2010Prop44ColorIndex
 90
        5
102
RTVSPost2010Prop44ColorRGB
 90
      255
102
RTVSPost2010PropOp44
 70
     1
102
RTVSPost2010Prop45
280
     0
102
RTVSPost2010PropOp45
 70
     1
102
RTVSPost2010Prop46
 90
       50
102
RTVSPost2010PropOp46
 70
     1
102
RTVSPost2010Prop47
 90
       50
102
RTVSPost2010PropOp47
 70
     1
102
RTVSPost2010Prop48
 90
       50
102
RTVSPost2010PropOp48
 70
     1
102
RTVSPost2010Prop49
280
     0
102
RTVSPost2010PropOp49
 70
     1
102
RTVSPost2010Prop50
 90
       50
102
RTVSPost2010PropOp50
 70
     1
102
RTVSPost2010Prop51ColorIndex
 90
      256
102
RTVSPost2010Prop51ColorRGB
 90
-16777216
102
RTVSPost2010PropOp51
 70
     0
102
RTVSPost2010Prop52
140
1.0
102
RTVSPost2010PropOp52
 70
     0
102
RTVSPost2010Prop53
 90
        2
102
RTVSPost2010PropOp53
 70
     1
102
RTVSPost2010Prop54
  1
strokes_ogs.tif
102
RTVSPost2010PropOp54
 70
     1
102
RTVSPost2010Prop55
280
     0
102
RTVSPost2010PropOp55
 70
     1
102
RTVSPost2010Prop56
140
1.0
102
RTVSPost2010PropOp56
 70
     1
102
RTVSPost2010Prop57
140
1.0
102
RTVSPost2010PropOp57
 70
     1
  0
ENDSEC
  0
EOF
