  0
SECTION
  2
HEADER
  9
$ACADVER
  1
AC1024
  9
$ACADMAINTVER
 70
   226
  9
$DWGCODEPAGE
  3
ANSI_932
  9
$INSBASE
 10
0.0
 20
0.0
 30
0.0
  9
$EXTMIN
 10
1.000000000000000E+20
 20
1.000000000000000E+20
 30
1.000000000000000E+20
  9
$EXTMAX
 10
-1.000000000000000E+20
 20
-1.000000000000000E+20
 30
-1.000000000000000E+20
  9
$LIMMIN
 10
0.0
 20
0.0
  9
$LIMMAX
 10
12.0
 20
9.0
  9
$ORTHOMODE
 70
     0
  9
$REGENMODE
 70
     1
  9
$FILLMODE
 70
     1
  9
$QTEXTMODE
 70
     0
  9
$MIRRTEXT
 70
     0
  9
$LTSCALE
 40
1.0
  9
$ATTMODE
 70
     1
  9
$TEXTSIZE
 40
0.2
  9
$TRACEWID
 40
0.05
  9
$TEXTSTYLE
  7
Standard
  9
$CLAYER
  8
0
  9
$CELTYPE
  6
ByLayer
  9
$CECOLOR
 62
   256
  9
$CELTSCALE
 40
1.0
  9
$DISPSILH
 70
     0
  9
$DIMSCALE
 40
1.0
  9
$DIMASZ
 40
0.18
  9
$DIMEXO
 40
0.0625
  9
$DIMDLI
 40
0.38
  9
$DIMRND
 40
0.0
  9
$DIMDLE
 40
0.0
  9
$DIMEXE
 40
0.18
  9
$DIMTP
 40
0.0
  9
$DIMTM
 40
0.0
  9
$DIMTXT
 40
0.18
  9
$DIMCEN
 40
0.09
  9
$DIMTSZ
 40
0.0
  9
$DIMTOL
 70
     0
  9
$DIMLIM
 70
     0
  9
$DIMTIH
 70
     1
  9
$DIMTOH
 70
     1
  9
$DIMSE1
 70
     0
  9
$DIMSE2
 70
     0
  9
$DIMTAD
 70
     0
  9
$DIMZIN
 70
     0
  9
$DIMBLK
  1

  9
$DIMASO
 70
     1
  9
$DIMSHO
 70
     1
  9
$DIMPOST
  1

  9
$DIMAPOST
  1

  9
$DIMALT
 70
     0
  9
$DIMALTD
 70
     2
  9
$DIMALTF
 40
25.4
  9
$DIMLFAC
 40
1.0
  9
$DIMTOFL
 70
     0
  9
$DIMTVP
 40
0.0
  9
$DIMTIX
 70
     0
  9
$DIMSOXD
 70
     0
  9
$DIMSAH
 70
     0
  9
$DIMBLK1
  1

  9
$DIMBLK2
  1

  9
$DIMSTYLE
  2
Standard
  9
$DIMCLRD
 70
     0
  9
$DIMCLRE
 70
     0
  9
$DIMCLRT
 70
     0
  9
$DIMTFAC
 40
1.0
  9
$DIMGAP
 40
0.09
  9
$DIMJUST
 70
     0
  9
$DIMSD1
 70
     0
  9
$DIMSD2
 70
     0
  9
$DIMTOLJ
 70
     1
  9
$DIMTZIN
 70
     0
  9
$DIMALTZ
 70
     0
  9
$DIMALTTZ
 70
     0
  9
$DIMUPT
 70
     0
  9
$DIMDEC
 70
     4
  9
$DIMTDEC
 70
     4
  9
$DIMALTU
 70
     2
  9
$DIMALTTD
 70
     2
  9
$DIMTXSTY
  7
Standard
  9
$DIMAUNIT
 70
     0
  9
$DIMADEC
 70
     0
  9
$DIMALTRND
 40
0.0
  9
$DIMAZIN
 70
     0
  9
$DIMDSEP
 70
    46
  9
$DIMATFIT
 70
     3
  9
$DIMFRAC
 70
     0
  9
$DIMLDRBLK
  1

  9
$DIMLUNIT
 70
     2
  9
$DIMLWD
 70
    -2
  9
$DIMLWE
 70
    -2
  9
$DIMTMOVE
 70
     0
  9
$DIMFXL
 40
1.0
  9
$DIMFXLON
 70
     0
  9
$DIMJOGANG
 40
0.7853981633974483
  9
$DIMTFILL
 70
     0
  9
$DIMTFILLCLR
 70
     0
  9
$DIMARCSYM
 70
     0
  9
$DIMLTYPE
  6

  9
$DIMLTEX1
  6

  9
$DIMLTEX2
  6

  9
$DIMTXTDIRECTION
 70
     0
  9
$LUNITS
 70
     2
  9
$LUPREC
 70
     4
  9
$SKETCHINC
 40
0.1
  9
$FILLETRAD
 40
0.0
  9
$AUNITS
 70
     0
  9
$AUPREC
 70
     0
  9
$MENU
  1
.
  9
$ELEVATION
 40
0.0
  9
$PELEVATION
 40
0.0
  9
$THICKNESS
 40
0.0
  9
$LIMCHECK
 70
     0
  9
$CHAMFERA
 40
0.0
  9
$CHAMFERB
 40
0.0
  9
$CHAMFERC
 40
0.0
  9
$CHAMFERD
 40
0.0
  9
$SKPOLY
 70
     0
  9
$TDCREATE
 40
2459569.503842593
  9
$TDUCREATE
 40
2459569.128842593
  9
$TDUPDATE
 40
2459569.503842593
  9
$TDUUPDATE
 40
2459569.128842593
  9
$TDINDWG
 40
0.0000000000
  9
$TDUSRTIMER
 40
0.0000000000
  9
$USRTIMER
 70
     1
  9
$ANGBASE
 50
0.0
  9
$ANGDIR
 70
     0
  9
$PDMODE
 70
     0
  9
$PDSIZE
 40
0.0
  9
$PLINEWID
 40
0.0
  9
$SPLFRAME
 70
     0
  9
$SPLINETYPE
 70
     6
  9
$SPLINESEGS
 70
     8
  9
$HANDSEED
  5
190
  9
$SURFTAB1
 70
     6
  9
$SURFTAB2
 70
     6
  9
$SURFTYPE
 70
     6
  9
$SURFU
 70
     6
  9
$SURFV
 70
     6
  9
$UCSBASE
  2

  9
$UCSNAME
  2

  9
$UCSORG
 10
0.0
 20
0.0
 30
0.0
  9
$UCSXDIR
 10
1.0
 20
0.0
 30
0.0
  9
$UCSYDIR
 10
0.0
 20
1.0
 30
0.0
  9
$UCSORTHOREF
  2

  9
$UCSORTHOVIEW
 70
     0
  9
$UCSORGTOP
 10
0.0
 20
0.0
 30
0.0
  9
$UCSORGBOTTOM
 10
0.0
 20
0.0
 30
0.0
  9
$UCSORGLEFT
 10
0.0
 20
0.0
 30
0.0
  9
$UCSORGRIGHT
 10
0.0
 20
0.0
 30
0.0
  9
$UCSORGFRONT
 10
0.0
 20
0.0
 30
0.0
  9
$UCSORGBACK
 10
0.0
 20
0.0
 30
0.0
  9
$PUCSBASE
  2

  9
$PUCSNAME
  2

  9
$PUCSORG
 10
0.0
 20
0.0
 30
0.0
  9
$PUCSXDIR
 10
1.0
 20
0.0
 30
0.0
  9
$PUCSYDIR
 10
0.0
 20
1.0
 30
0.0
  9
$PUCSORTHOREF
  2

  9
$PUCSORTHOVIEW
 70
     0
  9
$PUCSORGTOP
 10
0.0
 20
0.0
 30
0.0
  9
$PUCSORGBOTTOM
 10
0.0
 20
0.0
 30
0.0
  9
$PUCSORGLEFT
 10
0.0
 20
0.0
 30
0.0
  9
$PUCSORGRIGHT
 10
0.0
 20
0.0
 30
0.0
  9
$PUCSORGFRONT
 10
0.0
 20
0.0
 30
0.0
  9
$PUCSORGBACK
 10
0.0
 20
0.0
 30
0.0
  9
$USERI1
 70
     0
  9
$USERI2
 70
     0
  9
$USERI3
 70
     0
  9
$USERI4
 70
     0
  9
$USERI5
 70
     0
  9
$USERR1
 40
0.0
  9
$USERR2
 40
0.0
  9
$USERR3
 40
0.0
  9
$USERR4
 40
0.0
  9
$USERR5
 40
0.0
  9
$WORLDVIEW
 70
     1
  9
$SHADEDGE
 70
     3
  9
$SHADEDIF
 70
    70
  9
$TILEMODE
 70
     1
  9
$MAXACTVP
 70
    64
  9
$PINSBASE
 10
0.0
 20
0.0
 30
0.0
  9
$PLIMCHECK
 70
     0
  9
$PEXTMIN
 10
1.000000000000000E+20
 20
1.000000000000000E+20
 30
1.000000000000000E+20
  9
$PEXTMAX
 10
-1.000000000000000E+20
 20
-1.000000000000000E+20
 30
-1.000000000000000E+20
  9
$PLIMMIN
 10
0.0
 20
0.0
  9
$PLIMMAX
 10
12.0
 20
9.0
  9
$UNITMODE
 70
     0
  9
$VISRETAIN
 70
     1
  9
$PLINEGEN
 70
     0
  9
$PSLTSCALE
 70
     1
  9
$TREEDEPTH
 70
  3020
  9
$CMLSTYLE
  2
Standard
  9
$CMLJUST
 70
     0
  9
$CMLSCALE
 40
1.0
  9
$PROXYGRAPHICS
 70
     1
  9
$MEASUREMENT
 70
     0
  9
$CELWEIGHT
370
    -1
  9
$ENDCAPS
280
     0
  9
$JOINSTYLE
280
     0
  9
$LWDISPLAY
290
     1
  9
$INSUNITS
 70
     4
  9
$HYPERLINKBASE
  1

  9
$STYLESHEET
  1

  9
$XEDIT
290
     1
  9
$CEPSNTYPE
380
     0
  9
$PSTYLEMODE
290
     1
  9
$FINGERPRINTGUID
  2
{58995D00-9420-9A41-8E60-9DE2EBFF5533}
  9
$VERSIONGUID
  2
{1D50D85E-1D98-9449-A52B-8C2AE86F6DC1}
  9
$EXTNAMES
290
     1
  9
$PSVPSCALE
 40
0.0
  9
$OLESTARTUP
290
     0
  9
$SORTENTS
280
   127
  9
$INDEXCTL
280
     0
  9
$HIDETEXT
280
     1
  9
$XCLIPFRAME
280
     2
  9
$HALOGAP
280
     0
  9
$OBSCOLOR
 70
   257
  9
$OBSLTYPE
280
     0
  9
$INTERSECTIONDISPLAY
280
     0
  9
$INTERSECTIONCOLOR
 70
   257
  9
$DIMASSOC
280
     2
  9
$PROJECTNAME
  1

  9
$CAMERADISPLAY
290
     0
  9
$LENSLENGTH
 40
50.0
  9
$CAMERAHEIGHT
 40
0.0
  9
$STEPSPERSEC
 40
2.0
  9
$STEPSIZE
 40
6.0
  9
$3DDWFPREC
 40
2.0
  9
$PSOLWIDTH
 40
0.25
  9
$PSOLHEIGHT
 40
4.0
  9
$LOFTANG1
 40
1.570796326794896
  9
$LOFTANG2
 40
1.570796326794896
  9
$LOFTMAG1
 40
0.0
  9
$LOFTMAG2
 40
0.0
  9
$LOFTPARAM
 70
     7
  9
$LOFTNORMALS
280
     1
  9
$LATITUDE
 40
37.795
  9
$LONGITUDE
 40
-122.394
  9
$NORTHDIRECTION
 40
0.0
  9
$TIMEZONE
 70
 -8000
  9
$LIGHTGLYPHDISPLAY
280
     1
  9
$TILEMODELIGHTSYNCH
280
     1
  9
$CMATERIAL
347
11
  9
$SOLIDHIST
280
     0
  9
$SHOWHIST
280
     1
  9
$DWFFRAME
280
     2
  9
$DGNFRAME
280
     0
  9
$REALWORLDSCALE
290
     1
  9
$INTERFERECOLOR
 62
     1
  9
$INTERFEREOBJVS
345
33
  9
$INTERFEREVPVS
346
30
  9
$CSHADOW
280
     0
  9
$SHADOWPLANELOCATION
 40
0.0
  0
ENDSEC
  0
SECTION
  2
CLASSES
  0
CLASS
  1
ACDBDICTIONARYWDFLT
  2
AcDbDictionaryWithDefault
  3
ObjectDBX Classes
 90
        0
 91
        1
280
     0
281
     0
  0
CLASS
  1
MATERIAL
  2
AcDbMaterial
  3
ObjectDBX Classes
 90
     1153
 91
        3
280
     0
281
     0
  0
CLASS
  1
VISUALSTYLE
  2
AcDbVisualStyle
  3
ObjectDBX Classes
 90
     4095
 91
       24
280
     0
281
     0
  0
CLASS
  1
SCALE
  2
AcDbScale
  3
ObjectDBX Classes
 90
     1153
 91
       17
280
     0
281
     0
  0
CLASS
  1
TABLESTYLE
  2
AcDbTableStyle
  3
ObjectDBX Classes
 90
     4095
 91
        1
280
     0
281
     0
  0
CLASS
  1
MLEADERSTYLE
  2
AcDbMLeaderStyle
  3
ACDB_MLEADERSTYLE_CLASS
 90
     4095
 91
        1
280
     0
281
     0
  0
CLASS
  1
ACDBSECTIONVIEWSTYLE
  2
AcDbSectionViewStyle
  3
ObjectDBX Classes
 90
     1025
 91
        1
280
     0
281
     0
  0
CLASS
  1
ACDBDETAILVIEWSTYLE
  2
AcDbDetailViewStyle
  3
ObjectDBX Classes
 90
     1025
 91
        1
280
     0
281
     0
  0
CLASS
  1
DICTIONARYVAR
  2
AcDbDictionaryVar
  3
ObjectDBX Classes
 90
        0
 91
        5
280
     0
281
     0
  0
CLASS
  1
CELLSTYLEMAP
  2
AcDbCellStyleMap
  3
ObjectDBX Classes
 90
     1152
 91
        1
280
     0
281
     0
  0
ENDSEC
  0
SECTION
  2
TABLES
  0
TABLE
  2
VPORT
  5
8
330
0
100
AcDbSymbolTable
 70
     1
  0
VPORT
  5
57
330
8
100
AcDbSymbolTableRecord
100
AcDbViewportTableRecord
  2
*Active
 70
     0
 10
0.0
 20
0.0
 11
1.0
 21
1.0
 12
0.0
 22
0.0
 13
0.0
 23
0.0
 14
1.0
 24
1.0
 15
0.0
 25
0.0
 16
0.0
 26
0.0
 36
1.0
 17
104.9999999737534
 27
-148.4999999628701
 37
0.0
 40
302.939999924255
 41
0.7070707070707534
 42
50.0
 43
0.0
 44
0.0
 50
0.0
 51
0.0
 71
     0
 72
   100
 73
     1
 74
     0
 75
     1
 76
     0
 77
     0
 78
     0
281
     0
 65
     1
110
0.0
120
0.0
130
0.0
111
1.0
121
0.0
131
0.0
112
0.0
122
1.0
132
0.0
 79
     0
146
0.0
 60
     3
 61
     5
292
     1
282
     1
141
0.0
142
0.0
 63
   250
421
  3355443
  0
ENDTAB
  0
TABLE
  2
LTYPE
  5
5
330
0
100
AcDbSymbolTable
 70
     1
  0
LTYPE
  5
5B
330
5
100
AcDbSymbolTableRecord
100
AcDbLinetypeTableRecord
  2
ByBlock
 70
     0
  3

 72
    65
 73
     0
 40
0.0
  0
LTYPE
  5
5C
330
5
100
AcDbSymbolTableRecord
100
AcDbLinetypeTableRecord
  2
ByLayer
 70
     0
  3

 72
    65
 73
     0
 40
0.0
  0
LTYPE
  5
5D
330
5
100
AcDbSymbolTableRecord
100
AcDbLinetypeTableRecord
  2
Continuous
 70
     0
  3
Solid line
 72
    65
 73
     0
 40
0.0
  0
ENDTAB
  0
TABLE
  2
LAYER
  5
2
330
0
100
AcDbSymbolTable
 70
     2
  0
LAYER
  5
54
330
2
100
AcDbSymbolTableRecord
100
AcDbLayerTableRecord
  2
0
 70
     0
 62
     7
  6
Continuous
370
    -3
390
F
347
21
  0
LAYER
  5
78
330
2
100
AcDbSymbolTableRecord
100
AcDbLayerTableRecord
  2
レイヤー 1
 70
     0
 62
     7
  6
Continuous
370
     0
390
F
347
21
  0
ENDTAB
  0
TABLE
  2
STYLE
  5
3
330
0
100
AcDbSymbolTable
 70
     2
  0
STYLE
  5
55
330
3
100
AcDbSymbolTableRecord
100
AcDbTextStyleTableRecord
  2
Standard
 70
     0
 40
0.0
 41
1.0
 50
0.0
 71
     0
 42
0.2
  3
txt
  4

  0
STYLE
  5
5A
330
3
100
AcDbSymbolTableRecord
100
AcDbTextStyleTableRecord
  2
Annotative
 70
     0
 40
0.0
 41
1.0
 50
0.0
 71
     0
 42
0.2
  3
txt
  4

1001
AcadAnnotative
1000
AnnotativeData
1002
{
1070
     1
1070
     1
1002
}
  0
ENDTAB
  0
TABLE
  2
VIEW
  5
6
330
0
100
AcDbSymbolTable
 70
     0
  0
ENDTAB
  0
TABLE
  2
UCS
  5
7
330
0
100
AcDbSymbolTable
 70
     0
  0
ENDTAB
  0
TABLE
  2
APPID
  5
9
330
0
100
AcDbSymbolTable
 70
     2
  0
APPID
  5
56
330
9
100
AcDbSymbolTableRecord
100
AcDbRegAppTableRecord
  2
ACAD
 70
     0
  0
APPID
  5
5E
330
9
100
AcDbSymbolTableRecord
100
AcDbRegAppTableRecord
  2
AcadAnnotative
 70
     0
  0
ENDTAB
  0
TABLE
  2
DIMSTYLE
  5
A
330
0
100
AcDbSymbolTable
 70
     2
100
AcDbDimStyleTable
 71
     0
  0
DIMSTYLE
105
58
330
A
100
AcDbSymbolTableRecord
100
AcDbDimStyleTableRecord
  2
Standard
 70
     0
340
55
  0
DIMSTYLE
105
59
330
A
100
AcDbSymbolTableRecord
100
AcDbDimStyleTableRecord
  2
Annotative
 70
     0
340
55
1001
AcadAnnotative
1000
AnnotativeData
1002
{
1070
     1
1070
     1
1002
}
  0
ENDTAB
  0
TABLE
  2
BLOCK_RECORD
  5
1
330
0
100
AcDbSymbolTable
 70
    14
  0
BLOCK_RECORD
  5
70
330
1
100
AcDbSymbolTableRecord
100
AcDbBlockTableRecord
  2
*Model_Space
340
73
 70
     0
280
     1
281
     0
  0
BLOCK_RECORD
  5
6C
330
1
100
AcDbSymbolTableRecord
100
AcDbBlockTableRecord
  2
*Paper_Space
340
6F
 70
     0
280
     1
281
     0
  0
BLOCK_RECORD
  5
74
330
1
100
AcDbSymbolTableRecord
100
AcDbBlockTableRecord
  2
*Paper_Space0
340
77
 70
     0
280
     1
281
     0
  0
BLOCK_RECORD
  5
E0
330
1
100
AcDbSymbolTableRecord
100
AcDbBlockTableRecord
  2
Block_0
340
0
102
{BLKREFS
331
E1
102
}
 70
     0
280
     1
281
     0
  0
BLOCK_RECORD
  5
E4
330
1
100
AcDbSymbolTableRecord
100
AcDbBlockTableRecord
  2
Block_1
340
0
102
{BLKREFS
331
E5
102
}
 70
     0
280
     1
281
     0
  0
BLOCK_RECORD
  5
F1
330
1
100
AcDbSymbolTableRecord
100
AcDbBlockTableRecord
  2
Block_2
340
0
102
{BLKREFS
331
F2
102
}
 70
     0
280
     1
281
     0
  0
BLOCK_RECORD
  5
F5
330
1
100
AcDbSymbolTableRecord
100
AcDbBlockTableRecord
  2
Block_3
340
0
102
{BLKREFS
331
F6
102
}
 70
     0
280
     1
281
     0
  0
BLOCK_RECORD
  5
FF
330
1
100
AcDbSymbolTableRecord
100
AcDbBlockTableRecord
  2
Block_4
340
0
102
{BLKREFS
331
100
102
}
 70
     0
280
     1
281
     0
  0
BLOCK_RECORD
  5
108
330
1
100
AcDbSymbolTableRecord
100
AcDbBlockTableRecord
  2
Block_5
340
0
102
{BLKREFS
331
109
102
}
 70
     0
280
     1
281
     0
  0
BLOCK_RECORD
  5
10C
330
1
100
AcDbSymbolTableRecord
100
AcDbBlockTableRecord
  2
Block_6
340
0
102
{BLKREFS
331
10D
102
}
 70
     0
280
     1
281
     0
  0
BLOCK_RECORD
  5
117
330
1
100
AcDbSymbolTableRecord
100
AcDbBlockTableRecord
  2
Block_7
340
0
102
{BLKREFS
331
118
102
}
 70
     0
280
     1
281
     0
  0
BLOCK_RECORD
  5
123
330
1
100
AcDbSymbolTableRecord
100
AcDbBlockTableRecord
  2
Block_8
340
0
102
{BLKREFS
331
124
102
}
 70
     0
280
     1
281
     0
  0
BLOCK_RECORD
  5
12C
330
1
100
AcDbSymbolTableRecord
100
AcDbBlockTableRecord
  2
Block_9
340
0
102
{BLKREFS
331
12D
102
}
 70
     0
280
     1
281
     0
  0
BLOCK_RECORD
  5
132
330
1
100
AcDbSymbolTableRecord
100
AcDbBlockTableRecord
  2
Block_10
340
0
102
{BLKREFS
331
133
102
}
 70
     0
280
     1
281
     0
  0
BLOCK_RECORD
  5
139
330
1
100
AcDbSymbolTableRecord
100
AcDbBlockTableRecord
  2
Block_11
340
0
102
{BLKREFS
331
13A
102
}
 70
     0
280
     1
281
     0
  0
BLOCK_RECORD
  5
13D
330
1
100
AcDbSymbolTableRecord
100
AcDbBlockTableRecord
  2
Block_12
340
0
102
{BLKREFS
331
13E
102
}
 70
     0
280
     1
281
     0
  0
ENDTAB
  0
ENDSEC
  0
SECTION
  2
BLOCKS
  0
BLOCK
  5
71
330
70
100
AcDbEntity
  8
0
100
AcDbBlockBegin
  2
*Model_Space
 70
     0
 10
0.0
 20
0.0
 30
0.0
  3
*Model_Space
  1

  0
ENDBLK
  5
72
330
70
100
AcDbEntity
  8
0
100
AcDbBlockEnd
  0
BLOCK
  5
6D
330
6C
100
AcDbEntity
 67
     1
  8
0
100
AcDbBlockBegin
  2
*Paper_Space
 70
     0
 10
0.0
 20
0.0
 30
0.0
  3
*Paper_Space
  1

  0
ENDBLK
  5
6E
330
6C
100
AcDbEntity
 67
     1
  8
0
100
AcDbBlockEnd
  0
BLOCK
  5
75
330
74
100
AcDbEntity
 67
     1
  8
0
100
AcDbBlockBegin
  2
*Paper_Space0
 70
     0
 10
0.0
 20
0.0
 30
0.0
  3
*Paper_Space0
  1

  0
ENDBLK
  5
76
330
74
100
AcDbEntity
 67
     1
  8
0
100
AcDbBlockEnd
  0
BLOCK
  5
E2
330
E0
100
AcDbEntity
  8
0
100
AcDbBlockBegin
  2
Block_0
 70
     0
 10
0.0
 20
0.0
 30
0.0
  3
Block_0
  1

  0
INSERT
  5
E5
330
E0
100
AcDbEntity
  8
レイヤー 1
100
AcDbBlockReference
  2
Block_1
 10
0.0
 20
0.0
 30
0.0
  0
ENDBLK
  5
E3
330
E0
100
AcDbEntity
  8
0
100
AcDbBlockEnd
  0
BLOCK
  5
E6
330
E4
100
AcDbEntity
  8
0
100
AcDbBlockBegin
  2
Block_1
 70
     0
 10
0.0
 20
0.0
 30
0.0
  3
Block_1
  1

  0
SPLINE
  5
E8
330
E4
100
AcDbEntity
  8
レイヤー 1
100
AcDbSpline
210
0.0
220
0.0
230
1.0
 70
     9
 71
     3
 72
    17
 73
    13
 74
     0
 42
0.0000000001
 43
0.0000000001
 40
0.0
 40
0.0
 40
0.0
 40
0.0
 40
1.0
 40
1.0
 40
1.0
 40
2.0
 40
2.0
 40
2.0
 40
3.0
 40
3.0
 40
3.0
 40
4.0
 40
4.0
 40
4.0
 40
4.0
 10
77.91858586376688
 20
-147.8121663041928
 30
0.0
 10
77.91858586376688
 20
-148.0619357268734
 30
0.0
 10
78.20194496742868
 20
-148.1084445159243
 30
0.0
 10
78.5467990255022
 20
-148.1084445159243
 30
0.0
 10
78.86633163175911
 20
-148.1084445159243
 30
0.0
 10
79.17518444201177
 20
-148.0722710133291
 30
0.0
 10
79.17518444201177
 20
-147.8121663041928
 30
0.0
 10
79.17518444201177
 20
-147.5644639388033
 30
0.0
 10
78.89372014086685
 20
-147.5158880924613
 30
0.0
 10
78.5467990255022
 20
-147.5158880924613
 30
0.0
 10
78.22743867401953
 20
-147.5158880924613
 30
0.0
 10
77.91858586376688
 20
-147.5541286523476
 30
0.0
 10
77.91858586376688
 20
-147.8121663041928
 30
0.0
  0
SPLINE
  5
E9
330
E4
100
AcDbEntity
  8
レイヤー 1
100
AcDbSpline
210
0.0
220
0.0
230
1.0
 70
     9
 71
     3
 72
    29
 73
    25
 74
     0
 42
0.0000000001
 43
0.0000000001
 40
0.0
 40
0.0
 40
0.0
 40
0.0
 40
1.0
 40
1.0
 40
1.0
 40
2.0
 40
2.0
 40
2.0
 40
3.0
 40
3.0
 40
3.0
 40
4.0
 40
4.0
 40
4.0
 40
5.0
 40
5.0
 40
5.0
 40
6.0
 40
6.0
 40
6.0
 40
7.0
 40
7.0
 40
7.0
 40
8.0
 40
8.0
 40
8.0
 40
8.0
 10
79.14125025148205
 20
-147.4142577756464
 30
0.0
 10
79.35071205698524
 20
-147.5224337738833
 30
0.0
 10
79.36983233692838
 20
-147.6957220767913
 30
0.0
 10
79.36983233692838
 20
-147.8121663041928
 30
0.0
 10
79.36983233692838
 20
-147.9730522633539
 30
0.0
 10
79.3233235478775
 20
-148.1146456877977
 30
0.0
 10
79.14125025148205
 20
-148.2097303231906
 30
0.0
 10
78.9467746113397
 20
-148.3134276972966
 30
0.0
 10
78.70975204195452
 20
-148.332720232014
 30
0.0
 10
78.5467990255022
 20
-148.332720232014
 30
0.0
 10
78.40296628899301
 20
-148.332720232014
 30
0.0
 10
78.15130206379551
 20
-148.3154947545878
 30
0.0
 10
77.95234779952233
 20
-148.2097303231906
 30
0.0
 10
77.74925942066686
 20
-148.1018988345023
 30
0.0
 10
77.72600502614142
 20
-147.9410128753411
 30
0.0
 10
77.72600502614142
 20
-147.8121663041928
 30
0.0
 10
77.72600502614142
 20
-147.6533474023228
 30
0.0
 10
77.77044675790114
 20
-147.5096869205878
 30
0.0
 10
77.95234779952233
 20
-147.4142577756464
 30
0.0
 10
78.1449286371478
 20
-147.3150390256712
 30
0.0
 10
78.37333846781986
 20
-147.2916123763715
 30
0.0
 10
78.5467990255022
 20
-147.2916123763715
 30
0.0
 10
78.71819252589337
 20
-147.2916123763715
 30
0.0
 10
78.94884166863085
 20
-147.3129719683801
 30
0.0
 10
79.14125025148205
 20
-147.4142577756464
 30
0.0
  0
HATCH
  5
EA
330
E4
100
AcDbEntity
  8
レイヤー 1
 62
    18
420
        0
440
 33554687
100
AcDbHatch
 10
0.0
 20
0.0
 30
0.0
210
0.0
220
0.0
230
1.0
  2
SOLID
 70
     1
 71
     1
 91
        2
 92
        1
 93
        1
 72
     4
 94
        3
 73
     0
 74
     0
 95
       17
 96
       13
 40
0.0
 40
0.0
 40
0.0
 40
0.0
 40
1.0
 40
1.0
 40
1.0
 40
2.0
 40
2.0
 40
2.0
 40
3.0
 40
3.0
 40
3.0
 40
4.0
 40
4.0
 40
4.0
 40
4.0
 10
77.91858586376688
 20
-147.8121663041928
 10
77.91858586376688
 20
-148.0619357268734
 10
78.20194496742868
 20
-148.1084445159243
 10
78.5467990255022
 20
-148.1084445159243
 10
78.86633163175911
 20
-148.1084445159243
 10
79.17518444201177
 20
-148.0722710133291
 10
79.17518444201177
 20
-147.8121663041928
 10
79.17518444201177
 20
-147.5644639388033
 10
78.89372014086685
 20
-147.5158880924613
 10
78.5467990255022
 20
-147.5158880924613
 10
78.22743867401953
 20
-147.5158880924613
 10
77.91858586376688
 20
-147.5541286523476
 10
77.91858586376688
 20
-147.8121663041928
 97
        0
 97
        1
330
E8
 92
        1
 93
        1
 72
     4
 94
        3
 73
     0
 74
     0
 95
       29
 96
       25
 40
0.0
 40
0.0
 40
0.0
 40
0.0
 40
1.0
 40
1.0
 40
1.0
 40
2.0
 40
2.0
 40
2.0
 40
3.0
 40
3.0
 40
3.0
 40
4.0
 40
4.0
 40
4.0
 40
5.0
 40
5.0
 40
5.0
 40
6.0
 40
6.0
 40
6.0
 40
7.0
 40
7.0
 40
7.0
 40
8.0
 40
8.0
 40
8.0
 40
8.0
 10
79.14125025148205
 20
-147.4142577756464
 10
79.35071205698524
 20
-147.5224337738833
 10
79.36983233692838
 20
-147.6957220767913
 10
79.36983233692838
 20
-147.8121663041928
 10
79.36983233692838
 20
-147.9730522633539
 10
79.3233235478775
 20
-148.1146456877977
 10
79.14125025148205
 20
-148.2097303231906
 10
78.9467746113397
 20
-148.3134276972966
 10
78.70975204195452
 20
-148.332720232014
 10
78.5467990255022
 20
-148.332720232014
 10
78.40296628899301
 20
-148.332720232014
 10
78.15130206379551
 20
-148.3154947545878
 10
77.95234779952233
 20
-148.2097303231906
 10
77.74925942066686
 20
-148.1018988345023
 10
77.72600502614142
 20
-147.9410128753411
 10
77.72600502614142
 20
-147.8121663041928
 10
77.72600502614142
 20
-147.6533474023228
 10
77.77044675790114
 20
-147.5096869205878
 10
77.95234779952233
 20
-147.4142577756464
 10
78.1449286371478
 20
-147.3150390256712
 10
78.37333846781986
 20
-147.2916123763715
 10
78.5467990255022
 20
-147.2916123763715
 10
78.71819252589337
 20
-147.2916123763715
 10
78.94884166863085
 20
-147.3129719683801
 10
79.14125025148205
 20
-147.4142577756464
 97
        0
 97
        1
330
E9
 75
     2
 76
     1
 98
        1
 10
0.0
 20
0.0
450
        0
451
        0
460
0.0
461
0.0
452
        0
462
0.0
453
        0
470

  0
SPLINE
  5
EB
330
E4
100
AcDbEntity
  8
レイヤー 1
100
AcDbSpline
210
0.0
220
0.0
230
1.0
 70
    11
 71
     3
 72
    17
 73
    13
 74
     0
 42
0.0000000001
 43
0.0000000001
 40
0.0
 40
0.0
 40
0.0
 40
0.0
 40
1.0
 40
1.0
 40
1.0
 40
2.0
 40
2.0
 40
2.0
 40
3.0
 40
3.0
 40
3.0
 40
4.0
 40
4.0
 40
4.0
 40
4.0
 10
79.31901717852094
 20
-147.0752603798978
 30
0.0
 10
79.31901717852094
 20
-147.0752603798978
 30
0.0
 10
79.06735295332345
 20
-147.0752603798978
 30
0.0
 10
79.06735295332345
 20
-147.0752603798978
 30
0.0
 10
79.06735295332345
 20
-147.0752603798978
 30
0.0
 10
79.06735295332345
 20
-146.8234238999261
 30
0.0
 10
79.06735295332345
 20
-146.8234238999261
 30
0.0
 10
79.06735295332345
 20
-146.8234238999261
 30
0.0
 10
79.31901717852094
 20
-146.8234238999261
 30
0.0
 10
79.31901717852094
 20
-146.8234238999261
 30
0.0
 10
79.31901717852094
 20
-146.8234238999261
 30
0.0
 10
79.31901717852094
 20
-147.0752603798978
 30
0.0
 10
79.31901717852094
 20
-147.0752603798978
 30
0.0
  0
HATCH
  5
EC
330
E4
100
AcDbEntity
  8
レイヤー 1
 62
    18
420
        0
440
 33554687
100
AcDbHatch
 10
0.0
 20
0.0
 30
0.0
210
0.0
220
0.0
230
1.0
  2
SOLID
 70
     1
 71
     1
 91
        1
 92
        1
 93
        1
 72
     4
 94
        3
 73
     0
 74
     0
 95
       17
 96
       13
 40
0.0
 40
0.0
 40
0.0
 40
0.0
 40
1.0
 40
1.0
 40
1.0
 40
2.0
 40
2.0
 40
2.0
 40
3.0
 40
3.0
 40
3.0
 40
4.0
 40
4.0
 40
4.0
 40
4.0
 10
79.31901717852094
 20
-147.0752603798978
 10
79.31901717852094
 20
-147.0752603798978
 10
79.06735295332345
 20
-147.0752603798978
 10
79.06735295332345
 20
-147.0752603798978
 10
79.06735295332345
 20
-147.0752603798978
 10
79.06735295332345
 20
-146.8234238999261
 10
79.06735295332345
 20
-146.8234238999261
 10
79.06735295332345
 20
-146.8234238999261
 10
79.31901717852094
 20
-146.8234238999261
 10
79.31901717852094
 20
-146.8234238999261
 10
79.31901717852094
 20
-146.8234238999261
 10
79.31901717852094
 20
-147.0752603798978
 10
79.31901717852094
 20
-147.0752603798978
 97
        0
 97
        1
330
EB
 75
     2
 76
     1
 98
        1
 10
0.0
 20
0.0
450
        0
451
        0
460
0.0
461
0.0
452
        0
462
0.0
453
        0
470

  0
SPLINE
  5
ED
330
E4
100
AcDbEntity
  8
レイヤー 1
100
AcDbSpline
210
0.0
220
0.0
230
1.0
 70
     9
 71
     3
 72
    53
 73
    49
 74
     0
 42
0.0000000001
 43
0.0000000001
 40
0.0
 40
0.0
 40
0.0
 40
0.0
 40
1.0
 40
1.0
 40
1.0
 40
2.0
 40
2.0
 40
2.0
 40
3.0
 40
3.0
 40
3.0
 40
4.0
 40
4.0
 40
4.0
 40
5.0
 40
5.0
 40
5.0
 40
6.0
 40
6.0
 40
6.0
 40
7.0
 40
7.0
 40
7.0
 40
8.0
 40
8.0
 40
8.0
 40
9.0
 40
9.0
 40
9.0
 40
10.0
 40
10.0
 40
10.0
 40
11.0
 40
11.0
 40
11.0
 40
12.0
 40
12.0
 40
12.0
 40
13.0
 40
13.0
 40
13.0
 40
14.0
 40
14.0
 40
14.0
 40
15.0
 40
15.0
 40
15.0
 40
16.0
 40
16.0
 40
16.0
 40
16.0
 10
79.36983233692838
 20
-146.106155019897
 30
0.0
 10
79.36983233692838
 20
-146.1843586874122
 30
0.0
 10
79.35295136905065
 20
-146.2859890042271
 30
0.0
 10
79.2893893573478
 20
-146.387619321042
 30
0.0
 10
79.17931855659407
 20
-146.56090762395
 30
0.0
 10
79.04823267338031
 20
-146.5822672159586
 30
0.0
 10
78.94040118469199
 20
-146.6012152411274
 30
0.0
 10
78.94040118469199
 20
-146.6012152411274
 30
0.0
 10
78.94040118469199
 20
-146.3790065823288
 30
0.0
 10
78.94040118469199
 20
-146.3790065823288
 30
0.0
 10
79.1391831941909
 20
-146.3242295641133
 30
0.0
 10
79.16881101536406
 20
-146.1971055407076
 30
0.0
 10
79.16881101536406
 20
-146.1040879626059
 30
0.0
 10
79.16881101536406
 20
-145.9645615954533
 30
0.0
 10
79.06942001061459
 20
-145.8122883750052
 30
0.0
 10
78.83670381058597
 20
-145.8122883750052
 30
0.0
 10
78.5807332160319
 20
-145.8122883750052
 30
0.0
 10
78.51097003245559
 20
-145.9921223593353
 30
0.0
 10
78.51097003245559
 20
-146.112700701319
 30
0.0
 10
78.51097003245559
 20
-146.1443955797833
 30
0.0
 10
78.51097003245559
 20
-146.2859890042271
 30
0.0
 10
78.6399888583782
 20
-146.3748724677465
 30
0.0
 10
78.6399888583782
 20
-146.3748724677465
 30
0.0
 10
78.62086857843507
 20
-146.5505723374943
 30
0.0
 10
78.62086857843507
 20
-146.5505723374943
 30
0.0
 10
78.62086857843507
 20
-146.5505723374943
 30
0.0
 10
77.77475312725771
 20
-146.4299939955105
 30
0.0
 10
77.77475312725771
 20
-146.4299939955105
 30
0.0
 10
77.77475312725771
 20
-146.4299939955105
 30
0.0
 10
77.77475312725771
 20
-145.6514024158441
 30
0.0
 10
77.77475312725771
 20
-145.6514024158441
 30
0.0
 10
77.77475312725771
 20
-145.6514024158441
 30
0.0
 10
77.96940102217432
 20
-145.6514024158441
 30
0.0
 10
77.96940102217432
 20
-145.6514024158441
 30
0.0
 10
77.96940102217432
 20
-145.6514024158441
 30
0.0
 10
77.96940102217432
 20
-146.2670409790582
 30
0.0
 10
77.96940102217432
 20
-146.2670409790582
 30
0.0
 10
77.96940102217432
 20
-146.2670409790582
 30
0.0
 10
78.392458747763
 20
-146.332497793278
 30
0.0
 10
78.392458747763
 20
-146.332497793278
 30
0.0
 10
78.3585245572333
 20
-146.2711750936405
 30
0.0
 10
78.31838919483013
 20
-146.188837311543
 30
0.0
 10
78.31838919483013
 20
-146.0703260268505
 30
0.0
 10
78.31838919483013
 20
-145.8164224895876
 30
0.0
 10
78.50459660580788
 20
-145.5793999202024
 30
0.0
 10
78.81758353064284
 20
-145.5793999202024
 30
0.0
 10
79.1350490796086
 20
-145.5793999202024
 30
0.0
 10
79.36983233692838
 20
-145.8036756362921
 30
0.0
 10
79.36983233692838
 20
-146.106155019897
 30
0.0
  0
HATCH
  5
EE
330
E4
100
AcDbEntity
  8
レイヤー 1
 62
    18
420
        0
440
 33554687
100
AcDbHatch
 10
0.0
 20
0.0
 30
0.0
210
0.0
220
0.0
230
1.0
  2
SOLID
 70
     1
 71
     1
 91
        1
 92
        1
 93
        1
 72
     4
 94
        3
 73
     0
 74
     0
 95
       53
 96
       49
 40
0.0
 40
0.0
 40
0.0
 40
0.0
 40
1.0
 40
1.0
 40
1.0
 40
2.0
 40
2.0
 40
2.0
 40
3.0
 40
3.0
 40
3.0
 40
4.0
 40
4.0
 40
4.0
 40
5.0
 40
5.0
 40
5.0
 40
6.0
 40
6.0
 40
6.0
 40
7.0
 40
7.0
 40
7.0
 40
8.0
 40
8.0
 40
8.0
 40
9.0
 40
9.0
 40
9.0
 40
10.0
 40
10.0
 40
10.0
 40
11.0
 40
11.0
 40
11.0
 40
12.0
 40
12.0
 40
12.0
 40
13.0
 40
13.0
 40
13.0
 40
14.0
 40
14.0
 40
14.0
 40
15.0
 40
15.0
 40
15.0
 40
16.0
 40
16.0
 40
16.0
 40
16.0
 10
79.36983233692838
 20
-146.106155019897
 10
79.36983233692838
 20
-146.1843586874122
 10
79.35295136905065
 20
-146.2859890042271
 10
79.2893893573478
 20
-146.387619321042
 10
79.17931855659407
 20
-146.56090762395
 10
79.04823267338031
 20
-146.5822672159586
 10
78.94040118469199
 20
-146.6012152411274
 10
78.94040118469199
 20
-146.6012152411274
 10
78.94040118469199
 20
-146.3790065823288
 10
78.94040118469199
 20
-146.3790065823288
 10
79.1391831941909
 20
-146.3242295641133
 10
79.16881101536406
 20
-146.1971055407076
 10
79.16881101536406
 20
-146.1040879626059
 10
79.16881101536406
 20
-145.9645615954533
 10
79.06942001061459
 20
-145.8122883750052
 10
78.83670381058597
 20
-145.8122883750052
 10
78.5807332160319
 20
-145.8122883750052
 10
78.51097003245559
 20
-145.9921223593353
 10
78.51097003245559
 20
-146.112700701319
 10
78.51097003245559
 20
-146.1443955797833
 10
78.51097003245559
 20
-146.2859890042271
 10
78.6399888583782
 20
-146.3748724677465
 10
78.6399888583782
 20
-146.3748724677465
 10
78.62086857843507
 20
-146.5505723374943
 10
78.62086857843507
 20
-146.5505723374943
 10
78.62086857843507
 20
-146.5505723374943
 10
77.77475312725771
 20
-146.4299939955105
 10
77.77475312725771
 20
-146.4299939955105
 10
77.77475312725771
 20
-146.4299939955105
 10
77.77475312725771
 20
-145.6514024158441
 10
77.77475312725771
 20
-145.6514024158441
 10
77.77475312725771
 20
-145.6514024158441
 10
77.96940102217432
 20
-145.6514024158441
 10
77.96940102217432
 20
-145.6514024158441
 10
77.96940102217432
 20
-145.6514024158441
 10
77.96940102217432
 20
-146.2670409790582
 10
77.96940102217432
 20
-146.2670409790582
 10
77.96940102217432
 20
-146.2670409790582
 10
78.392458747763
 20
-146.332497793278
 10
78.392458747763
 20
-146.332497793278
 10
78.3585245572333
 20
-146.2711750936405
 10
78.31838919483013
 20
-146.188837311543
 10
78.31838919483013
 20
-146.0703260268505
 10
78.31838919483013
 20
-145.8164224895876
 10
78.50459660580788
 20
-145.5793999202024
 10
78.81758353064284
 20
-145.5793999202024
 10
79.1350490796086
 20
-145.5793999202024
 10
79.36983233692838
 20
-145.8036756362921
 10
79.36983233692838
 20
-146.106155019897
 97
        0
 97
        1
330
ED
 75
     2
 76
     1
 98
        1
 10
0.0
 20
0.0
450
        0
451
        0
460
0.0
461
0.0
452
        0
462
0.0
453
        0
470

  0
ENDBLK
  5
E7
330
E4
100
AcDbEntity
  8
0
100
AcDbBlockEnd
  0
BLOCK
  5
F3
330
F1
100
AcDbEntity
  8
0
100
AcDbBlockBegin
  2
Block_2
 70
     0
 10
0.0
 20
0.0
 30
0.0
  3
Block_2
  1

  0
INSERT
  5
F6
330
F1
100
AcDbEntity
  8
レイヤー 1
100
AcDbBlockReference
  2
Block_3
 10
0.0
 20
0.0
 30
0.0
  0
ENDBLK
  5
F4
330
F1
100
AcDbEntity
  8
0
100
AcDbBlockEnd
  0
BLOCK
  5
F7
330
F5
100
AcDbEntity
  8
0
100
AcDbBlockBegin
  2
Block_3
 70
     0
 10
0.0
 20
0.0
 30
0.0
  3
Block_3
  1

  0
SPLINE
  5
F9
330
F5
100
AcDbEntity
  8
レイヤー 1
100
AcDbSpline
210
0.0
220
0.0
230
1.0
 70
     9
 71
     3
 72
    44
 73
    40
 74
     0
 42
0.0000000001
 43
0.0000000001
 40
0.0
 40
0.0
 40
0.0
 40
0.0
 40
1.0
 40
1.0
 40
1.0
 40
2.0
 40
2.0
 40
2.0
 40
3.0
 40
3.0
 40
3.0
 40
4.0
 40
4.0
 40
4.0
 40
5.0
 40
5.0
 40
5.0
 40
6.0
 40
6.0
 40
6.0
 40
7.0
 40
7.0
 40
7.0
 40
8.0
 40
8.0
 40
8.0
 40
9.0
 40
9.0
 40
9.0
 40
10.0
 40
10.0
 40
10.0
 40
11.0
 40
11.0
 40
11.0
 40
12.0
 40
12.0
 40
12.0
 40
13.0
 40
13.0
 40
13.0
 40
13.0
 10
94.69223901712556
 20
-140.5998589058222
 30
0.0
 10
94.47433672768351
 20
-140.758505552918
 30
0.0
 10
94.3811468948075
 20
-140.8325751058509
 30
0.0
 10
94.33257104846546
 20
-140.97640784236
 30
0.0
 10
94.33257104846546
 20
-140.97640784236
 30
0.0
 10
95.11099037335768
 20
-140.97640784236
 30
0.0
 10
95.11099037335768
 20
-140.97640784236
 30
0.0
 10
95.11099037335768
 20
-140.97640784236
 30
0.0
 10
95.11099037335768
 20
-141.1815632785067
 30
0.0
 10
95.11099037335768
 20
-141.1815632785067
 30
0.0
 10
95.11099037335768
 20
-141.1815632785067
 30
0.0
 10
94.08297388055911
 20
-141.1815632785067
 30
0.0
 10
94.08297388055911
 20
-141.1815632785067
 30
0.0
 10
94.11466875902341
 20
-140.8239623671377
 30
0.0
 10
94.18012557324317
 20
-140.7457586996226
 30
0.0
 10
94.56528724849411
 20
-140.4474134305999
 30
0.0
 10
94.82125784304816
 20
-140.248631421101
 30
0.0
 10
94.88671465726792
 20
-140.1809352948159
 30
0.0
 10
94.88671465726792
 20
-140.0434759849544
 30
0.0
 10
94.88671465726792
 20
-139.9249647002618
 30
0.0
 10
94.81488441640044
 20
-139.7937065622738
 30
0.0
 10
94.61816946419268
 20
-139.7937065622738
 30
0.0
 10
94.35789250028205
 20
-139.7937065622738
 30
0.0
 10
94.34945201634318
 20
-140.0243557050113
 30
0.0
 10
94.34514564698664
 20
-140.1407999324127
 30
0.0
 10
94.34514564698664
 20
-140.1407999324127
 30
0.0
 10
94.12104218567113
 20
-140.1407999324127
 30
0.0
 10
94.12104218567113
 20
-140.1407999324127
 30
0.0
 10
94.12948266961
 20
-140.0138481637812
 30
0.0
 10
94.13999021084
 20
-139.9017103057363
 30
0.0
 10
94.22043319042058
 20
-139.7831990210438
 30
0.0
 10
94.33033173640005
 20
-139.6224853166569
 30
0.0
 10
94.5165391473778
 20
-139.5885511261272
 30
0.0
 10
94.63298337477926
 20
-139.5885511261272
 30
0.0
 10
94.91014130656761
 20
-139.5885511261272
 30
0.0
 10
95.1173638000054
 20
-139.7726914798137
 30
0.0
 10
95.1173638000054
 20
-140.0455430422455
 30
0.0
 10
95.1173638000054
 20
-140.2739528729176
 30
0.0
 10
95.00109182737821
 20
-140.3735161324413
 30
0.0
 10
94.69223901712556
 20
-140.5998589058222
 30
0.0
  0
HATCH
  5
FA
330
F5
100
AcDbEntity
  8
レイヤー 1
 62
    18
420
        0
440
 33554687
100
AcDbHatch
 10
0.0
 20
0.0
 30
0.0
210
0.0
220
0.0
230
1.0
  2
SOLID
 70
     1
 71
     1
 91
        1
 92
        1
 93
        1
 72
     4
 94
        3
 73
     0
 74
     0
 95
       44
 96
       40
 40
0.0
 40
0.0
 40
0.0
 40
0.0
 40
1.0
 40
1.0
 40
1.0
 40
2.0
 40
2.0
 40
2.0
 40
3.0
 40
3.0
 40
3.0
 40
4.0
 40
4.0
 40
4.0
 40
5.0
 40
5.0
 40
5.0
 40
6.0
 40
6.0
 40
6.0
 40
7.0
 40
7.0
 40
7.0
 40
8.0
 40
8.0
 40
8.0
 40
9.0
 40
9.0
 40
9.0
 40
10.0
 40
10.0
 40
10.0
 40
11.0
 40
11.0
 40
11.0
 40
12.0
 40
12.0
 40
12.0
 40
13.0
 40
13.0
 40
13.0
 40
13.0
 10
94.69223901712556
 20
-140.5998589058222
 10
94.47433672768351
 20
-140.758505552918
 10
94.3811468948075
 20
-140.8325751058509
 10
94.33257104846546
 20
-140.97640784236
 10
94.33257104846546
 20
-140.97640784236
 10
95.11099037335768
 20
-140.97640784236
 10
95.11099037335768
 20
-140.97640784236
 10
95.11099037335768
 20
-140.97640784236
 10
95.11099037335768
 20
-141.1815632785067
 10
95.11099037335768
 20
-141.1815632785067
 10
95.11099037335768
 20
-141.1815632785067
 10
94.08297388055911
 20
-141.1815632785067
 10
94.08297388055911
 20
-141.1815632785067
 10
94.11466875902341
 20
-140.8239623671377
 10
94.18012557324317
 20
-140.7457586996226
 10
94.56528724849411
 20
-140.4474134305999
 10
94.82125784304816
 20
-140.248631421101
 10
94.88671465726792
 20
-140.1809352948159
 10
94.88671465726792
 20
-140.0434759849544
 10
94.88671465726792
 20
-139.9249647002618
 10
94.81488441640044
 20
-139.7937065622738
 10
94.61816946419268
 20
-139.7937065622738
 10
94.35789250028205
 20
-139.7937065622738
 10
94.34945201634318
 20
-140.0243557050113
 10
94.34514564698664
 20
-140.1407999324127
 10
94.34514564698664
 20
-140.1407999324127
 10
94.12104218567113
 20
-140.1407999324127
 10
94.12104218567113
 20
-140.1407999324127
 10
94.12948266961
 20
-140.0138481637812
 10
94.13999021084
 20
-139.9017103057363
 10
94.22043319042058
 20
-139.7831990210438
 10
94.33033173640005
 20
-139.6224853166569
 10
94.5165391473778
 20
-139.5885511261272
 10
94.63298337477926
 20
-139.5885511261272
 10
94.91014130656761
 20
-139.5885511261272
 10
95.1173638000054
 20
-139.7726914798137
 10
95.1173638000054
 20
-140.0455430422455
 10
95.1173638000054
 20
-140.2739528729176
 10
95.00109182737821
 20
-140.3735161324413
 10
94.69223901712556
 20
-140.5998589058222
 97
        0
 97
        1
330
F9
 75
     2
 76
     1
 98
        1
 10
0.0
 20
0.0
450
        0
451
        0
460
0.0
461
0.0
452
        0
462
0.0
453
        0
470

  0
SPLINE
  5
FB
330
F5
100
AcDbEntity
  8
レイヤー 1
100
AcDbSpline
210
0.0
220
0.0
230
1.0
 70
    11
 71
     3
 72
    26
 73
    22
 74
     0
 42
0.0000000001
 43
0.0000000001
 40
0.0
 40
0.0
 40
0.0
 40
0.0
 40
1.0
 40
1.0
 40
1.0
 40
2.0
 40
2.0
 40
2.0
 40
3.0
 40
3.0
 40
3.0
 40
4.0
 40
4.0
 40
4.0
 40
5.0
 40
5.0
 40
5.0
 40
6.0
 40
6.0
 40
6.0
 40
7.0
 40
7.0
 40
7.0
 40
7.0
 10
95.72731795566886
 20
-141.1815632785067
 30
0.0
 10
95.72731795566886
 20
-141.1815632785067
 30
0.0
 10
95.72731795566886
 20
-140.0772379207098
 30
0.0
 10
95.72731795566886
 20
-140.0772379207098
 30
0.0
 10
95.72731795566886
 20
-140.0772379207098
 30
0.0
 10
95.39727780818195
 20
-140.0772379207098
 30
0.0
 10
95.39727780818195
 20
-140.0772379207098
 30
0.0
 10
95.39727780818195
 20
-140.0772379207098
 30
0.0
 10
95.39727780818195
 20
-139.9290988148441
 30
0.0
 10
95.39727780818195
 20
-139.9290988148441
 30
0.0
 10
95.72938501296002
 20
-139.9144571590318
 30
0.0
 10
95.77589380201089
 20
-139.7515041425795
 30
0.0
 10
95.80552162318403
 20
-139.6372992272434
 30
0.0
 10
95.80552162318403
 20
-139.6372992272434
 30
0.0
 10
95.95159367175863
 20
-139.6372992272434
 30
0.0
 10
95.95159367175863
 20
-139.6372992272434
 30
0.0
 10
95.95159367175863
 20
-139.6372992272434
 30
0.0
 10
95.95159367175863
 20
-141.1815632785067
 30
0.0
 10
95.95159367175863
 20
-141.1815632785067
 30
0.0
 10
95.95159367175863
 20
-141.1815632785067
 30
0.0
 10
95.72731795566886
 20
-141.1815632785067
 30
0.0
 10
95.72731795566886
 20
-141.1815632785067
 30
0.0
  0
HATCH
  5
FC
330
F5
100
AcDbEntity
  8
レイヤー 1
 62
    18
420
        0
440
 33554687
100
AcDbHatch
 10
0.0
 20
0.0
 30
0.0
210
0.0
220
0.0
230
1.0
  2
SOLID
 70
     1
 71
     1
 91
        1
 92
        1
 93
        1
 72
     4
 94
        3
 73
     0
 74
     0
 95
       26
 96
       22
 40
0.0
 40
0.0
 40
0.0
 40
0.0
 40
1.0
 40
1.0
 40
1.0
 40
2.0
 40
2.0
 40
2.0
 40
3.0
 40
3.0
 40
3.0
 40
4.0
 40
4.0
 40
4.0
 40
5.0
 40
5.0
 40
5.0
 40
6.0
 40
6.0
 40
6.0
 40
7.0
 40
7.0
 40
7.0
 40
7.0
 10
95.72731795566886
 20
-141.1815632785067
 10
95.72731795566886
 20
-141.1815632785067
 10
95.72731795566886
 20
-140.0772379207098
 10
95.72731795566886
 20
-140.0772379207098
 10
95.72731795566886
 20
-140.0772379207098
 10
95.39727780818195
 20
-140.0772379207098
 10
95.39727780818195
 20
-140.0772379207098
 10
95.39727780818195
 20
-140.0772379207098
 10
95.39727780818195
 20
-139.9290988148441
 10
95.39727780818195
 20
-139.9290988148441
 10
95.72938501296002
 20
-139.9144571590318
 10
95.77589380201089
 20
-139.7515041425795
 10
95.80552162318403
 20
-139.6372992272434
 10
95.80552162318403
 20
-139.6372992272434
 10
95.95159367175863
 20
-139.6372992272434
 10
95.95159367175863
 20
-139.6372992272434
 10
95.95159367175863
 20
-139.6372992272434
 10
95.95159367175863
 20
-141.1815632785067
 10
95.95159367175863
 20
-141.1815632785067
 10
95.95159367175863
 20
-141.1815632785067
 10
95.72731795566886
 20
-141.1815632785067
 10
95.72731795566886
 20
-141.1815632785067
 97
        0
 97
        1
330
FB
 75
     2
 76
     1
 98
        1
 10
0.0
 20
0.0
450
        0
451
        0
460
0.0
461
0.0
452
        0
462
0.0
453
        0
470

  0
ENDBLK
  5
F8
330
F5
100
AcDbEntity
  8
0
100
AcDbBlockEnd
  0
BLOCK
  5
101
330
FF
100
AcDbEntity
  8
0
100
AcDbBlockBegin
  2
Block_4
 70
     0
 10
0.0
 20
0.0
 30
0.0
  3
Block_4
  1

  0
SPLINE
  5
103
330
FF
100
AcDbEntity
  8
レイヤー 1
100
AcDbSpline
210
0.0
220
0.0
230
1.0
 70
     9
 71
     3
 72
    17
 73
    13
 74
     0
 42
0.0000000001
 43
0.0000000001
 40
0.0
 40
0.0
 40
0.0
 40
0.0
 40
1.0
 40
1.0
 40
1.0
 40
2.0
 40
2.0
 40
2.0
 40
3.0
 40
3.0
 40
3.0
 40
4.0
 40
4.0
 40
4.0
 40
4.0
 10
79.24133027532857
 20
-150.1345051707997
 30
0.0
 10
79.24133027532857
 20
-150.3966769372272
 30
0.0
 10
79.4528591381229
 20
-150.4345729875649
 30
0.0
 10
79.56913111075007
 20
-150.4345729875649
 30
0.0
 10
79.74465872572356
 20
-150.4345729875649
 30
0.0
 10
79.90761174217587
 20
-150.339488352172
 30
0.0
 10
79.90761174217587
 20
-150.1555202532597
 30
0.0
 10
79.90761174217587
 20
-150.034941911276
 30
0.0
 10
79.84835609982958
 20
-149.8592420415282
 30
0.0
 10
79.56275768410236
 20
-149.8592420415282
 30
0.0
 10
79.3384819680126
 20
-149.8592420415282
 30
0.0
 10
79.24133027532857
 20
-149.9987684086808
 30
0.0
 10
79.24133027532857
 20
-150.1345051707997
 30
0.0
  0
SPLINE
  5
104
330
FF
100
AcDbEntity
  8
レイヤー 1
100
AcDbSpline
210
0.0
220
0.0
230
1.0
 70
     9
 71
     3
 72
    32
 73
    28
 74
     0
 42
0.0000000001
 43
0.0000000001
 40
0.0
 40
0.0
 40
0.0
 40
0.0
 40
1.0
 40
1.0
 40
1.0
 40
2.0
 40
2.0
 40
2.0
 40
3.0
 40
3.0
 40
3.0
 40
4.0
 40
4.0
 40
4.0
 40
5.0
 40
5.0
 40
5.0
 40
6.0
 40
6.0
 40
6.0
 40
7.0
 40
7.0
 40
7.0
 40
8.0
 40
8.0
 40
8.0
 40
9.0
 40
9.0
 40
9.0
 40
9.0
 10
80.10019257980134
 20
-150.1513861386774
 30
0.0
 10
80.10019257980134
 20
-150.6674614423678
 30
0.0
 10
79.54587671622464
 20
-150.676074181081
 30
0.0
 10
79.33228079613916
 20
-150.676074181081
 30
0.0
 10
79.10163165340168
 20
-150.676074181081
 30
0.0
 10
78.45429821172324
 20
-150.6567816463635
 30
0.0
 10
78.45429821172324
 20
-150.1131455787912
 30
0.0
 10
78.45429821172324
 20
-149.9398572758831
 30
0.0
 10
78.52406139529954
 20
-149.6942219677848
 30
0.0
 10
78.85616860007762
 20
-149.656325917447
 30
0.0
 10
78.85616860007762
 20
-149.656325917447
 30
0.0
 10
78.85616860007762
 20
-149.8699218375325
 30
0.0
 10
78.85616860007762
 20
-149.8699218375325
 30
0.0
 10
78.79915226979675
 20
-149.8806016335368
 30
0.0
 10
78.651013163931
 20
-149.9122965120011
 30
0.0
 10
78.651013163931
 20
-150.1152126360823
 30
0.0
 10
78.651013163931
 20
-150.4073567332315
 30
0.0
 10
78.97898625412678
 20
-150.4473198408604
 30
0.0
 10
79.1841416902734
 20
-150.4600666941558
 30
0.0
 10
79.10593802275823
 20
-150.3670491160541
 30
0.0
 10
79.04668238041193
 20
-150.2991807349946
 30
0.0
 10
79.04668238041193
 20
-150.1172796933734
 30
0.0
 10
79.04668238041193
 20
-149.9374457090434
 30
0.0
 10
79.15451386910027
 20
-149.6349663254385
 30
0.0
 10
79.56069062681122
 20
-149.6349663254385
 30
0.0
 10
79.88005097829388
 20
-149.6349663254385
 30
0.0
 10
80.10019257980134
 20
-149.8340928444859
 30
0.0
 10
80.10019257980134
 20
-150.1513861386774
 30
0.0
  0
HATCH
  5
105
330
FF
100
AcDbEntity
  8
レイヤー 1
 62
    18
420
        0
440
 33554687
100
AcDbHatch
 10
0.0
 20
0.0
 30
0.0
210
0.0
220
0.0
230
1.0
  2
SOLID
 70
     1
 71
     1
 91
        2
 92
        1
 93
        1
 72
     4
 94
        3
 73
     0
 74
     0
 95
       17
 96
       13
 40
0.0
 40
0.0
 40
0.0
 40
0.0
 40
1.0
 40
1.0
 40
1.0
 40
2.0
 40
2.0
 40
2.0
 40
3.0
 40
3.0
 40
3.0
 40
4.0
 40
4.0
 40
4.0
 40
4.0
 10
79.24133027532857
 20
-150.1345051707997
 10
79.24133027532857
 20
-150.3966769372272
 10
79.4528591381229
 20
-150.4345729875649
 10
79.56913111075007
 20
-150.4345729875649
 10
79.74465872572356
 20
-150.4345729875649
 10
79.90761174217587
 20
-150.339488352172
 10
79.90761174217587
 20
-150.1555202532597
 10
79.90761174217587
 20
-150.034941911276
 10
79.84835609982958
 20
-149.8592420415282
 10
79.56275768410236
 20
-149.8592420415282
 10
79.3384819680126
 20
-149.8592420415282
 10
79.24133027532857
 20
-149.9987684086808
 10
79.24133027532857
 20
-150.1345051707997
 97
        0
 97
        1
330
103
 92
        1
 93
        1
 72
     4
 94
        3
 73
     0
 74
     0
 95
       32
 96
       28
 40
0.0
 40
0.0
 40
0.0
 40
0.0
 40
1.0
 40
1.0
 40
1.0
 40
2.0
 40
2.0
 40
2.0
 40
3.0
 40
3.0
 40
3.0
 40
4.0
 40
4.0
 40
4.0
 40
5.0
 40
5.0
 40
5.0
 40
6.0
 40
6.0
 40
6.0
 40
7.0
 40
7.0
 40
7.0
 40
8.0
 40
8.0
 40
8.0
 40
9.0
 40
9.0
 40
9.0
 40
9.0
 10
80.10019257980134
 20
-150.1513861386774
 10
80.10019257980134
 20
-150.6674614423678
 10
79.54587671622464
 20
-150.676074181081
 10
79.33228079613916
 20
-150.676074181081
 10
79.10163165340168
 20
-150.676074181081
 10
78.45429821172324
 20
-150.6567816463635
 10
78.45429821172324
 20
-150.1131455787912
 10
78.45429821172324
 20
-149.9398572758831
 10
78.52406139529954
 20
-149.6942219677848
 10
78.85616860007762
 20
-149.656325917447
 10
78.85616860007762
 20
-149.656325917447
 10
78.85616860007762
 20
-149.8699218375325
 10
78.85616860007762
 20
-149.8699218375325
 10
78.79915226979675
 20
-149.8806016335368
 10
78.651013163931
 20
-149.9122965120011
 10
78.651013163931
 20
-150.1152126360823
 10
78.651013163931
 20
-150.4073567332315
 10
78.97898625412678
 20
-150.4473198408604
 10
79.1841416902734
 20
-150.4600666941558
 10
79.10593802275823
 20
-150.3670491160541
 10
79.04668238041193
 20
-150.2991807349946
 10
79.04668238041193
 20
-150.1172796933734
 10
79.04668238041193
 20
-149.9374457090434
 10
79.15451386910027
 20
-149.6349663254385
 10
79.56069062681122
 20
-149.6349663254385
 10
79.88005097829388
 20
-149.6349663254385
 10
80.10019257980134
 20
-149.8340928444859
 10
80.10019257980134
 20
-150.1513861386774
 97
        0
 97
        1
330
104
 75
     2
 76
     1
 98
        1
 10
0.0
 20
0.0
450
        0
451
        0
460
0.0
461
0.0
452
        0
462
0.0
453
        0
470

  0
ENDBLK
  5
102
330
FF
100
AcDbEntity
  8
0
100
AcDbBlockEnd
  0
BLOCK
  5
10A
330
108
100
AcDbEntity
  8
0
100
AcDbBlockBegin
  2
Block_5
 70
     0
 10
0.0
 20
0.0
 30
0.0
  3
Block_5
  1

  0
INSERT
  5
10D
330
108
100
AcDbEntity
  8
レイヤー 1
100
AcDbBlockReference
  2
Block_6
 10
0.0
 20
0.0
 30
0.0
  0
ENDBLK
  5
10B
330
108
100
AcDbEntity
  8
0
100
AcDbBlockEnd
  0
BLOCK
  5
10E
330
10C
100
AcDbEntity
  8
0
100
AcDbBlockBegin
  2
Block_6
 70
     0
 10
0.0
 20
0.0
 30
0.0
  3
Block_6
  1

  0
SPLINE
  5
110
330
10C
100
AcDbEntity
  8
レイヤー 1
100
AcDbSpline
210
0.0
220
0.0
230
1.0
 70
     9
 71
     3
 72
    44
 73
    40
 74
     0
 42
0.0000000001
 43
0.0000000001
 40
0.0
 40
0.0
 40
0.0
 40
0.0
 40
1.0
 40
1.0
 40
1.0
 40
2.0
 40
2.0
 40
2.0
 40
3.0
 40
3.0
 40
3.0
 40
4.0
 40
4.0
 40
4.0
 40
5.0
 40
5.0
 40
5.0
 40
6.0
 40
6.0
 40
6.0
 40
7.0
 40
7.0
 40
7.0
 40
8.0
 40
8.0
 40
8.0
 40
9.0
 40
9.0
 40
9.0
 40
10.0
 40
10.0
 40
10.0
 40
11.0
 40
11.0
 40
11.0
 40
12.0
 40
12.0
 40
12.0
 40
13.0
 40
13.0
 40
13.0
 40
13.0
 10
121.7934271613919
 20
-140.5998589058222
 30
0.0
 10
121.5756971267241
 20
-140.758505552918
 30
0.0
 10
121.4826795486224
 20
-140.8325751058509
 30
0.0
 10
121.4337591927318
 20
-140.97640784236
 30
0.0
 10
121.4337591927318
 20
-140.97640784236
 30
0.0
 10
122.2123507723983
 20
-140.97640784236
 30
0.0
 10
122.2123507723983
 20
-140.97640784236
 30
0.0
 10
122.2123507723983
 20
-140.97640784236
 30
0.0
 10
122.2123507723983
 20
-141.1815632785067
 30
0.0
 10
122.2123507723983
 20
-141.1815632785067
 30
0.0
 10
122.2123507723983
 20
-141.1815632785067
 30
0.0
 10
121.1843342795997
 20
-141.1815632785067
 30
0.0
 10
121.1843342795997
 20
-141.1815632785067
 30
0.0
 10
121.216029158064
 20
-140.8239623671377
 30
0.0
 10
121.2814859722838
 20
-140.7457586996226
 30
0.0
 10
121.6666476475347
 20
-140.4474134305999
 30
0.0
 10
121.9226182420888
 20
-140.248631421101
 30
0.0
 10
121.9880750563085
 20
-140.1809352948159
 30
0.0
 10
121.9880750563085
 20
-140.0434759849544
 30
0.0
 10
121.9880750563085
 20
-139.9249647002618
 30
0.0
 10
121.9160725606668
 20
-139.7937065622738
 30
0.0
 10
121.719357608459
 20
-139.7937065622738
 30
0.0
 10
121.4592528993227
 20
-139.7937065622738
 30
0.0
 10
121.4509846701581
 20
-140.0243557050113
 30
0.0
 10
121.4465060460272
 20
-140.1407999324127
 30
0.0
 10
121.4465060460272
 20
-140.1407999324127
 30
0.0
 10
121.2222303299375
 20
-140.1407999324127
 30
0.0
 10
121.2222303299375
 20
-140.1407999324127
 30
0.0
 10
121.2308430686506
 20
-140.0138481637812
 30
0.0
 10
121.2415228646549
 20
-139.9017103057363
 30
0.0
 10
121.3217935894612
 20
-139.7831990210438
 30
0.0
 10
121.4316921354407
 20
-139.6224853166569
 30
0.0
 10
121.6180718011927
 20
-139.5885511261272
 30
0.0
 10
121.7341715190456
 20
-139.5885511261272
 30
0.0
 10
122.0115017056082
 20
-139.5885511261272
 30
0.0
 10
122.2188964538203
 20
-139.7726914798137
 30
0.0
 10
122.2188964538203
 20
-140.0455430422455
 30
0.0
 10
122.2188964538203
 20
-140.2739528729176
 30
0.0
 10
122.1024522264188
 20
-140.3735161324413
 30
0.0
 10
121.7934271613919
 20
-140.5998589058222
 30
0.0
  0
HATCH
  5
111
330
10C
100
AcDbEntity
  8
レイヤー 1
 62
    18
420
        0
440
 33554687
100
AcDbHatch
 10
0.0
 20
0.0
 30
0.0
210
0.0
220
0.0
230
1.0
  2
SOLID
 70
     1
 71
     1
 91
        1
 92
        1
 93
        1
 72
     4
 94
        3
 73
     0
 74
     0
 95
       44
 96
       40
 40
0.0
 40
0.0
 40
0.0
 40
0.0
 40
1.0
 40
1.0
 40
1.0
 40
2.0
 40
2.0
 40
2.0
 40
3.0
 40
3.0
 40
3.0
 40
4.0
 40
4.0
 40
4.0
 40
5.0
 40
5.0
 40
5.0
 40
6.0
 40
6.0
 40
6.0
 40
7.0
 40
7.0
 40
7.0
 40
8.0
 40
8.0
 40
8.0
 40
9.0
 40
9.0
 40
9.0
 40
10.0
 40
10.0
 40
10.0
 40
11.0
 40
11.0
 40
11.0
 40
12.0
 40
12.0
 40
12.0
 40
13.0
 40
13.0
 40
13.0
 40
13.0
 10
121.7934271613919
 20
-140.5998589058222
 10
121.5756971267241
 20
-140.758505552918
 10
121.4826795486224
 20
-140.8325751058509
 10
121.4337591927318
 20
-140.97640784236
 10
121.4337591927318
 20
-140.97640784236
 10
122.2123507723983
 20
-140.97640784236
 10
122.2123507723983
 20
-140.97640784236
 10
122.2123507723983
 20
-140.97640784236
 10
122.2123507723983
 20
-141.1815632785067
 10
122.2123507723983
 20
-141.1815632785067
 10
122.2123507723983
 20
-141.1815632785067
 10
121.1843342795997
 20
-141.1815632785067
 10
121.1843342795997
 20
-141.1815632785067
 10
121.216029158064
 20
-140.8239623671377
 10
121.2814859722838
 20
-140.7457586996226
 10
121.6666476475347
 20
-140.4474134305999
 10
121.9226182420888
 20
-140.248631421101
 10
121.9880750563085
 20
-140.1809352948159
 10
121.9880750563085
 20
-140.0434759849544
 10
121.9880750563085
 20
-139.9249647002618
 10
121.9160725606668
 20
-139.7937065622738
 10
121.719357608459
 20
-139.7937065622738
 10
121.4592528993227
 20
-139.7937065622738
 10
121.4509846701581
 20
-140.0243557050113
 10
121.4465060460272
 20
-140.1407999324127
 10
121.4465060460272
 20
-140.1407999324127
 10
121.2222303299375
 20
-140.1407999324127
 10
121.2222303299375
 20
-140.1407999324127
 10
121.2308430686506
 20
-140.0138481637812
 10
121.2415228646549
 20
-139.9017103057363
 10
121.3217935894612
 20
-139.7831990210438
 10
121.4316921354407
 20
-139.6224853166569
 10
121.6180718011927
 20
-139.5885511261272
 10
121.7341715190456
 20
-139.5885511261272
 10
122.0115017056082
 20
-139.5885511261272
 10
122.2188964538203
 20
-139.7726914798137
 10
122.2188964538203
 20
-140.0455430422455
 10
122.2188964538203
 20
-140.2739528729176
 10
122.1024522264188
 20
-140.3735161324413
 10
121.7934271613919
 20
-140.5998589058222
 97
        0
 97
        1
330
110
 75
     2
 76
     1
 98
        1
 10
0.0
 20
0.0
450
        0
451
        0
460
0.0
461
0.0
452
        0
462
0.0
453
        0
470

  0
SPLINE
  5
112
330
10C
100
AcDbEntity
  8
レイヤー 1
100
AcDbSpline
210
0.0
220
0.0
230
1.0
 70
    11
 71
     3
 72
    26
 73
    22
 74
     0
 42
0.0000000001
 43
0.0000000001
 40
0.0
 40
0.0
 40
0.0
 40
0.0
 40
1.0
 40
1.0
 40
1.0
 40
2.0
 40
2.0
 40
2.0
 40
3.0
 40
3.0
 40
3.0
 40
4.0
 40
4.0
 40
4.0
 40
5.0
 40
5.0
 40
5.0
 40
6.0
 40
6.0
 40
6.0
 40
7.0
 40
7.0
 40
7.0
 40
7.0
 10
122.8286783547095
 20
-141.1815632785067
 30
0.0
 10
122.8286783547095
 20
-141.1815632785067
 30
0.0
 10
122.8286783547095
 20
-140.0772379207098
 30
0.0
 10
122.8286783547095
 20
-140.0772379207098
 30
0.0
 10
122.8286783547095
 20
-140.0772379207098
 30
0.0
 10
122.4986382072225
 20
-140.0772379207098
 30
0.0
 10
122.4986382072225
 20
-140.0772379207098
 30
0.0
 10
122.4986382072225
 20
-140.0772379207098
 30
0.0
 10
122.4986382072225
 20
-139.9290988148441
 30
0.0
 10
122.4986382072225
 20
-139.9290988148441
 30
0.0
 10
122.8307454120006
 20
-139.9144571590318
 30
0.0
 10
122.8772542010515
 20
-139.7515041425795
 30
0.0
 10
122.9068820222247
 20
-139.6372992272434
 30
0.0
 10
122.9068820222247
 20
-139.6372992272434
 30
0.0
 10
123.0529540707993
 20
-139.6372992272434
 30
0.0
 10
123.0529540707993
 20
-139.6372992272434
 30
0.0
 10
123.0529540707993
 20
-139.6372992272434
 30
0.0
 10
123.0529540707993
 20
-141.1815632785067
 30
0.0
 10
123.0529540707993
 20
-141.1815632785067
 30
0.0
 10
123.0529540707993
 20
-141.1815632785067
 30
0.0
 10
122.8286783547095
 20
-141.1815632785067
 30
0.0
 10
122.8286783547095
 20
-141.1815632785067
 30
0.0
  0
HATCH
  5
113
330
10C
100
AcDbEntity
  8
レイヤー 1
 62
    18
420
        0
440
 33554687
100
AcDbHatch
 10
0.0
 20
0.0
 30
0.0
210
0.0
220
0.0
230
1.0
  2
SOLID
 70
     1
 71
     1
 91
        1
 92
        1
 93
        1
 72
     4
 94
        3
 73
     0
 74
     0
 95
       26
 96
       22
 40
0.0
 40
0.0
 40
0.0
 40
0.0
 40
1.0
 40
1.0
 40
1.0
 40
2.0
 40
2.0
 40
2.0
 40
3.0
 40
3.0
 40
3.0
 40
4.0
 40
4.0
 40
4.0
 40
5.0
 40
5.0
 40
5.0
 40
6.0
 40
6.0
 40
6.0
 40
7.0
 40
7.0
 40
7.0
 40
7.0
 10
122.8286783547095
 20
-141.1815632785067
 10
122.8286783547095
 20
-141.1815632785067
 10
122.8286783547095
 20
-140.0772379207098
 10
122.8286783547095
 20
-140.0772379207098
 10
122.8286783547095
 20
-140.0772379207098
 10
122.4986382072225
 20
-140.0772379207098
 10
122.4986382072225
 20
-140.0772379207098
 10
122.4986382072225
 20
-140.0772379207098
 10
122.4986382072225
 20
-139.9290988148441
 10
122.4986382072225
 20
-139.9290988148441
 10
122.8307454120006
 20
-139.9144571590318
 10
122.8772542010515
 20
-139.7515041425795
 10
122.9068820222247
 20
-139.6372992272434
 10
122.9068820222247
 20
-139.6372992272434
 10
123.0529540707993
 20
-139.6372992272434
 10
123.0529540707993
 20
-139.6372992272434
 10
123.0529540707993
 20
-139.6372992272434
 10
123.0529540707993
 20
-141.1815632785067
 10
123.0529540707993
 20
-141.1815632785067
 10
123.0529540707993
 20
-141.1815632785067
 10
122.8286783547095
 20
-141.1815632785067
 10
122.8286783547095
 20
-141.1815632785067
 97
        0
 97
        1
330
112
 75
     2
 76
     1
 98
        1
 10
0.0
 20
0.0
450
        0
451
        0
460
0.0
461
0.0
452
        0
462
0.0
453
        0
470

  0
ENDBLK
  5
10F
330
10C
100
AcDbEntity
  8
0
100
AcDbBlockEnd
  0
BLOCK
  5
119
330
117
100
AcDbEntity
  8
0
100
AcDbBlockBegin
  2
Block_7
 70
     0
 10
0.0
 20
0.0
 30
0.0
  3
Block_7
  1

  0
SPLINE
  5
11B
330
117
100
AcDbEntity
  8
レイヤー 1
100
AcDbSpline
210
0.0
220
0.0
230
1.0
 70
     9
 71
     3
 72
    17
 73
    13
 74
     0
 42
0.0000000001
 43
0.0000000001
 40
0.0
 40
0.0
 40
0.0
 40
0.0
 40
1.0
 40
1.0
 40
1.0
 40
2.0
 40
2.0
 40
2.0
 40
3.0
 40
3.0
 40
3.0
 40
4.0
 40
4.0
 40
4.0
 40
4.0
 10
108.7850911186371
 20
-140.3735161324413
 30
0.0
 10
108.522574842661
 20
-140.3735161324413
 30
0.0
 10
108.4846787923233
 20
-140.5850449952357
 30
0.0
 10
108.4846787923233
 20
-140.7013169678628
 30
0.0
 10
108.4846787923233
 20
-140.8768445828363
 30
0.0
 10
108.5797634277162
 20
-141.0397975992887
 30
0.0
 10
108.7637315266285
 20
-141.0397975992887
 30
0.0
 10
108.8843098686122
 20
-141.0397975992887
 30
0.0
 10
109.06000973836
 20
-140.9805419569424
 30
0.0
 10
109.06000973836
 20
-140.6949435412151
 30
0.0
 10
109.06000973836
 20
-140.4706678251254
 30
0.0
 10
108.9201388616588
 20
-140.3735161324413
 30
0.0
 10
108.7850911186371
 20
-140.3735161324413
 30
0.0
  0
SPLINE
  5
11C
330
117
100
AcDbEntity
  8
レイヤー 1
100
AcDbSpline
210
0.0
220
0.0
230
1.0
 70
     9
 71
     3
 72
    32
 73
    28
 74
     0
 42
0.0000000001
 43
0.0000000001
 40
0.0
 40
0.0
 40
0.0
 40
0.0
 40
1.0
 40
1.0
 40
1.0
 40
2.0
 40
2.0
 40
2.0
 40
3.0
 40
3.0
 40
3.0
 40
4.0
 40
4.0
 40
4.0
 40
5.0
 40
5.0
 40
5.0
 40
6.0
 40
6.0
 40
6.0
 40
7.0
 40
7.0
 40
7.0
 40
8.0
 40
8.0
 40
8.0
 40
9.0
 40
9.0
 40
9.0
 40
9.0
 10
108.7678656412108
 20
-141.2323784369141
 30
0.0
 10
108.2517903375204
 20
-141.2323784369141
 30
0.0
 10
108.2435221083558
 20
-140.6780625733374
 30
0.0
 10
108.2435221083558
 20
-140.4644666532519
 30
0.0
 10
108.2435221083558
 20
-140.2338175105144
 30
0.0
 10
108.2624701335246
 20
-139.586484068836
 30
0.0
 10
108.8061062010971
 20
-139.586484068836
 30
0.0
 10
108.9793945040051
 20
-139.586484068836
 30
0.0
 10
109.2250298121034
 20
-139.6562472524123
 30
0.0
 10
109.2629258624412
 20
-139.9883544571904
 30
0.0
 10
109.2629258624412
 20
-139.9883544571904
 30
0.0
 10
109.0493299423557
 20
-139.9883544571904
 30
0.0
 10
109.0493299423557
 20
-139.9883544571904
 30
0.0
 10
109.0386501463514
 20
-139.9313381269095
 30
0.0
 10
109.0069552678871
 20
-139.7831990210438
 30
0.0
 10
108.8040391438059
 20
-139.7831990210438
 30
0.0
 10
108.5118950466567
 20
-139.7831990210438
 30
0.0
 10
108.4719319390278
 20
-140.1111721112395
 30
0.0
 10
108.4591850857324
 20
-140.3163275473862
 30
0.0
 10
108.5522026638342
 20
-140.238123879871
 30
0.0
 10
108.6200710448936
 20
-140.1788682375247
 30
0.0
 10
108.8019720865148
 20
-140.1788682375247
 30
0.0
 10
108.9818060708448
 20
-140.1788682375247
 30
0.0
 10
109.2842854544497
 20
-140.286699726213
 30
0.0
 10
109.2842854544497
 20
-140.692876483924
 30
0.0
 10
109.2842854544497
 20
-141.0122368354066
 30
0.0
 10
109.0851589354023
 20
-141.2323784369141
 30
0.0
 10
108.7678656412108
 20
-141.2323784369141
 30
0.0
  0
HATCH
  5
11D
330
117
100
AcDbEntity
  8
レイヤー 1
 62
    18
420
        0
440
 33554687
100
AcDbHatch
 10
0.0
 20
0.0
 30
0.0
210
0.0
220
0.0
230
1.0
  2
SOLID
 70
     1
 71
     1
 91
        2
 92
        1
 93
        1
 72
     4
 94
        3
 73
     0
 74
     0
 95
       17
 96
       13
 40
0.0
 40
0.0
 40
0.0
 40
0.0
 40
1.0
 40
1.0
 40
1.0
 40
2.0
 40
2.0
 40
2.0
 40
3.0
 40
3.0
 40
3.0
 40
4.0
 40
4.0
 40
4.0
 40
4.0
 10
108.7850911186371
 20
-140.3735161324413
 10
108.522574842661
 20
-140.3735161324413
 10
108.4846787923233
 20
-140.5850449952357
 10
108.4846787923233
 20
-140.7013169678628
 10
108.4846787923233
 20
-140.8768445828363
 10
108.5797634277162
 20
-141.0397975992887
 10
108.7637315266285
 20
-141.0397975992887
 10
108.8843098686122
 20
-141.0397975992887
 10
109.06000973836
 20
-140.9805419569424
 10
109.06000973836
 20
-140.6949435412151
 10
109.06000973836
 20
-140.4706678251254
 10
108.9201388616588
 20
-140.3735161324413
 10
108.7850911186371
 20
-140.3735161324413
 97
        0
 97
        1
330
11B
 92
        1
 93
        1
 72
     4
 94
        3
 73
     0
 74
     0
 95
       32
 96
       28
 40
0.0
 40
0.0
 40
0.0
 40
0.0
 40
1.0
 40
1.0
 40
1.0
 40
2.0
 40
2.0
 40
2.0
 40
3.0
 40
3.0
 40
3.0
 40
4.0
 40
4.0
 40
4.0
 40
5.0
 40
5.0
 40
5.0
 40
6.0
 40
6.0
 40
6.0
 40
7.0
 40
7.0
 40
7.0
 40
8.0
 40
8.0
 40
8.0
 40
9.0
 40
9.0
 40
9.0
 40
9.0
 10
108.7678656412108
 20
-141.2323784369141
 10
108.2517903375204
 20
-141.2323784369141
 10
108.2435221083558
 20
-140.6780625733374
 10
108.2435221083558
 20
-140.4644666532519
 10
108.2435221083558
 20
-140.2338175105144
 10
108.2624701335246
 20
-139.586484068836
 10
108.8061062010971
 20
-139.586484068836
 10
108.9793945040051
 20
-139.586484068836
 10
109.2250298121034
 20
-139.6562472524123
 10
109.2629258624412
 20
-139.9883544571904
 10
109.2629258624412
 20
-139.9883544571904
 10
109.0493299423557
 20
-139.9883544571904
 10
109.0493299423557
 20
-139.9883544571904
 10
109.0386501463514
 20
-139.9313381269095
 10
109.0069552678871
 20
-139.7831990210438
 10
108.8040391438059
 20
-139.7831990210438
 10
108.5118950466567
 20
-139.7831990210438
 10
108.4719319390278
 20
-140.1111721112395
 10
108.4591850857324
 20
-140.3163275473862
 10
108.5522026638342
 20
-140.238123879871
 10
108.6200710448936
 20
-140.1788682375247
 10
108.8019720865148
 20
-140.1788682375247
 10
108.9818060708448
 20
-140.1788682375247
 10
109.2842854544497
 20
-140.286699726213
 10
109.2842854544497
 20
-140.692876483924
 10
109.2842854544497
 20
-141.0122368354066
 10
109.0851589354023
 20
-141.2323784369141
 10
108.7678656412108
 20
-141.2323784369141
 97
        0
 97
        1
330
11C
 75
     2
 76
     1
 98
        1
 10
0.0
 20
0.0
450
        0
451
        0
460
0.0
461
0.0
452
        0
462
0.0
453
        0
470

  0
ENDBLK
  5
11A
330
117
100
AcDbEntity
  8
0
100
AcDbBlockEnd
  0
BLOCK
  5
125
330
123
100
AcDbEntity
  8
0
100
AcDbBlockBegin
  2
Block_8
 70
     0
 10
0.0
 20
0.0
 30
0.0
  3
Block_8
  1

  0
SPLINE
  5
127
330
123
100
AcDbEntity
  8
レイヤー 1
100
AcDbSpline
210
0.0
220
0.0
230
1.0
 70
     9
 71
     3
 72
    17
 73
    13
 74
     0
 42
0.0000000001
 43
0.0000000001
 40
0.0
 40
0.0
 40
0.0
 40
0.0
 40
1.0
 40
1.0
 40
1.0
 40
2.0
 40
2.0
 40
2.0
 40
3.0
 40
3.0
 40
3.0
 40
4.0
 40
4.0
 40
4.0
 40
4.0
 10
108.9239284666926
 20
-155.1567653691969
 30
0.0
 10
108.7589083929491
 20
-155.1567653691969
 30
0.0
 10
108.674159044012
 20
-155.2518500045898
 30
0.0
 10
108.674159044012
 20
-155.3872422571601
 30
0.0
 10
108.674159044012
 20
-155.509887656435
 30
0.0
 10
108.7461615396537
 20
-155.6283989411276
 30
0.0
 10
108.9239284666926
 20
-155.6283989411276
 30
0.0
 10
109.1016953937315
 20
-155.6283989411276
 30
0.0
 10
109.1736978893732
 20
-155.509887656435
 30
0.0
 10
109.1736978893732
 20
-155.3872422571601
 30
0.0
 10
109.1736978893732
 20
-155.2518500045898
 30
0.0
 10
109.0868814831449
 20
-155.1567653691969
 30
0.0
 10
108.9239284666926
 20
-155.1567653691969
 30
0.0
  0
SPLINE
  5
128
330
123
100
AcDbEntity
  8
レイヤー 1
100
AcDbSpline
210
0.0
220
0.0
230
1.0
 70
     9
 71
     3
 72
    17
 73
    13
 74
     0
 42
0.0000000001
 43
0.0000000001
 40
0.0
 40
0.0
 40
0.0
 40
0.0
 40
1.0
 40
1.0
 40
1.0
 40
2.0
 40
2.0
 40
2.0
 40
3.0
 40
3.0
 40
3.0
 40
4.0
 40
4.0
 40
4.0
 40
4.0
 10
108.9239284666926
 20
-155.8168456641707
 30
0.0
 10
108.7802679849577
 20
-155.8168456641707
 30
0.0
 10
108.6276502549611
 20
-155.9036620703991
 30
0.0
 10
108.6276502549611
 20
-156.1065781944803
 30
0.0
 10
108.6276502549611
 20
-156.3119058854011
 30
0.0
 10
108.7547742783668
 20
-156.4131916926675
 30
0.0
 10
108.9239284666926
 20
-156.4131916926675
 30
0.0
 10
109.1099636228961
 20
-156.4131916926675
 30
0.0
 10
109.2202066784241
 20
-156.2905462933926
 30
0.0
 10
109.2202066784241
 20
-156.1127793663537
 30
0.0
 10
109.2202066784241
 20
-155.8909152171036
 30
0.0
 10
109.0572536619718
 20
-155.8168456641707
 30
0.0
 10
108.9239284666926
 20
-155.8168456641707
 30
0.0
  0
SPLINE
  5
129
330
123
100
AcDbEntity
  8
レイヤー 1
100
AcDbSpline
210
0.0
220
0.0
230
1.0
 70
     9
 71
     3
 72
    29
 73
    25
 74
     0
 42
0.0000000001
 43
0.0000000001
 40
0.0
 40
0.0
 40
0.0
 40
0.0
 40
1.0
 40
1.0
 40
1.0
 40
2.0
 40
2.0
 40
2.0
 40
3.0
 40
3.0
 40
3.0
 40
4.0
 40
4.0
 40
4.0
 40
5.0
 40
5.0
 40
5.0
 40
6.0
 40
6.0
 40
6.0
 40
7.0
 40
7.0
 40
7.0
 40
8.0
 40
8.0
 40
8.0
 40
8.0
 10
108.9239284666926
 20
-156.6078395875841
 30
0.0
 10
108.6572780761343
 20
-156.6078395875841
 30
0.0
 10
108.4033745388714
 20
-156.4703802777227
 30
0.0
 10
108.4033745388714
 20
-156.1213921050669
 30
0.0
 10
108.4033745388714
 20
-155.8654215105128
 30
0.0
 10
108.5453124728636
 20
-155.7703368751199
 30
0.0
 10
108.6510769042608
 20
-155.7090141754825
 30
0.0
 10
108.5263644476948
 20
-155.6497585331362
 30
0.0
 10
108.4502278374708
 20
-155.5353813630259
 30
0.0
 10
108.4502278374708
 20
-155.3744954038647
 30
0.0
 10
108.4502278374708
 20
-155.0995767841418
 30
0.0
 10
108.6490098469697
 20
-154.9641845315714
 30
0.0
 10
108.9239284666926
 20
-154.9641845315714
 30
0.0
 10
109.2074598251287
 20
-154.9641845315714
 30
0.0
 10
109.397973605463
 20
-155.1081895228549
 30
0.0
 10
109.397973605463
 20
-155.3744954038647
 30
0.0
 10
109.397973605463
 20
-155.5353813630259
 30
0.0
 10
109.3194254283993
 20
-155.6497585331362
 30
0.0
 10
109.1947129718332
 20
-155.7090141754825
 30
0.0
 10
109.2835964353527
 20
-155.7596570791156
 30
0.0
 10
109.4424153372227
 20
-155.8547417145085
 30
0.0
 10
109.4424153372227
 20
-156.1172579904845
 30
0.0
 10
109.4424153372227
 20
-156.4917398697312
 30
0.0
 10
109.1630180933689
 20
-156.6078395875841
 30
0.0
 10
108.9239284666926
 20
-156.6078395875841
 30
0.0
  0
HATCH
  5
12A
330
123
100
AcDbEntity
  8
レイヤー 1
 62
    18
420
        0
440
 33554687
100
AcDbHatch
 10
0.0
 20
0.0
 30
0.0
210
0.0
220
0.0
230
1.0
  2
SOLID
 70
     1
 71
     1
 91
        3
 92
        1
 93
        1
 72
     4
 94
        3
 73
     0
 74
     0
 95
       17
 96
       13
 40
0.0
 40
0.0
 40
0.0
 40
0.0
 40
1.0
 40
1.0
 40
1.0
 40
2.0
 40
2.0
 40
2.0
 40
3.0
 40
3.0
 40
3.0
 40
4.0
 40
4.0
 40
4.0
 40
4.0
 10
108.9239284666926
 20
-155.1567653691969
 10
108.7589083929491
 20
-155.1567653691969
 10
108.674159044012
 20
-155.2518500045898
 10
108.674159044012
 20
-155.3872422571601
 10
108.674159044012
 20
-155.509887656435
 10
108.7461615396537
 20
-155.6283989411276
 10
108.9239284666926
 20
-155.6283989411276
 10
109.1016953937315
 20
-155.6283989411276
 10
109.1736978893732
 20
-155.509887656435
 10
109.1736978893732
 20
-155.3872422571601
 10
109.1736978893732
 20
-155.2518500045898
 10
109.0868814831449
 20
-155.1567653691969
 10
108.9239284666926
 20
-155.1567653691969
 97
        0
 97
        1
330
127
 92
        1
 93
        1
 72
     4
 94
        3
 73
     0
 74
     0
 95
       17
 96
       13
 40
0.0
 40
0.0
 40
0.0
 40
0.0
 40
1.0
 40
1.0
 40
1.0
 40
2.0
 40
2.0
 40
2.0
 40
3.0
 40
3.0
 40
3.0
 40
4.0
 40
4.0
 40
4.0
 40
4.0
 10
108.9239284666926
 20
-155.8168456641707
 10
108.7802679849577
 20
-155.8168456641707
 10
108.6276502549611
 20
-155.9036620703991
 10
108.6276502549611
 20
-156.1065781944803
 10
108.6276502549611
 20
-156.3119058854011
 10
108.7547742783668
 20
-156.4131916926675
 10
108.9239284666926
 20
-156.4131916926675
 10
109.1099636228961
 20
-156.4131916926675
 10
109.2202066784241
 20
-156.2905462933926
 10
109.2202066784241
 20
-156.1127793663537
 10
109.2202066784241
 20
-155.8909152171036
 10
109.0572536619718
 20
-155.8168456641707
 10
108.9239284666926
 20
-155.8168456641707
 97
        0
 97
        1
330
128
 92
        1
 93
        1
 72
     4
 94
        3
 73
     0
 74
     0
 95
       29
 96
       25
 40
0.0
 40
0.0
 40
0.0
 40
0.0
 40
1.0
 40
1.0
 40
1.0
 40
2.0
 40
2.0
 40
2.0
 40
3.0
 40
3.0
 40
3.0
 40
4.0
 40
4.0
 40
4.0
 40
5.0
 40
5.0
 40
5.0
 40
6.0
 40
6.0
 40
6.0
 40
7.0
 40
7.0
 40
7.0
 40
8.0
 40
8.0
 40
8.0
 40
8.0
 10
108.9239284666926
 20
-156.6078395875841
 10
108.6572780761343
 20
-156.6078395875841
 10
108.4033745388714
 20
-156.4703802777227
 10
108.4033745388714
 20
-156.1213921050669
 10
108.4033745388714
 20
-155.8654215105128
 10
108.5453124728636
 20
-155.7703368751199
 10
108.6510769042608
 20
-155.7090141754825
 10
108.5263644476948
 20
-155.6497585331362
 10
108.4502278374708
 20
-155.5353813630259
 10
108.4502278374708
 20
-155.3744954038647
 10
108.4502278374708
 20
-155.0995767841418
 10
108.6490098469697
 20
-154.9641845315714
 10
108.9239284666926
 20
-154.9641845315714
 10
109.2074598251287
 20
-154.9641845315714
 10
109.397973605463
 20
-155.1081895228549
 10
109.397973605463
 20
-155.3744954038647
 10
109.397973605463
 20
-155.5353813630259
 10
109.3194254283993
 20
-155.6497585331362
 10
109.1947129718332
 20
-155.7090141754825
 10
109.2835964353527
 20
-155.7596570791156
 10
109.4424153372227
 20
-155.8547417145085
 10
109.4424153372227
 20
-156.1172579904845
 10
109.4424153372227
 20
-156.4917398697312
 10
109.1630180933689
 20
-156.6078395875841
 10
108.9239284666926
 20
-156.6078395875841
 97
        0
 97
        1
330
129
 75
     2
 76
     1
 98
        1
 10
0.0
 20
0.0
450
        0
451
        0
460
0.0
461
0.0
452
        0
462
0.0
453
        0
470

  0
ENDBLK
  5
126
330
123
100
AcDbEntity
  8
0
100
AcDbBlockEnd
  0
BLOCK
  5
12E
330
12C
100
AcDbEntity
  8
0
100
AcDbBlockBegin
  2
Block_9
 70
     0
 10
0.0
 20
0.0
 30
0.0
  3
Block_9
  1

  0
SPLINE
  5
130
330
12C
100
AcDbEntity
  8
レイヤー 1
100
AcDbSpline
210
0.0
220
0.0
230
1.0
 70
    11
 71
     3
 72
    26
 73
    22
 74
     0
 42
0.0000000001
 43
0.0000000001
 40
0.0
 40
0.0
 40
0.0
 40
0.0
 40
1.0
 40
1.0
 40
1.0
 40
2.0
 40
2.0
 40
2.0
 40
3.0
 40
3.0
 40
3.0
 40
4.0
 40
4.0
 40
4.0
 40
5.0
 40
5.0
 40
5.0
 40
6.0
 40
6.0
 40
6.0
 40
7.0
 40
7.0
 40
7.0
 40
7.0
 10
114.6958414426802
 20
-149.5347140468177
 30
0.0
 10
114.6958414426802
 20
-149.5347140468177
 30
0.0
 10
114.6958414426802
 20
-148.4303886890208
 30
0.0
 10
114.6958414426802
 20
-148.4303886890208
 30
0.0
 10
114.6958414426802
 20
-148.4303886890208
 30
0.0
 10
114.3658012951933
 20
-148.4303886890208
 30
0.0
 10
114.3658012951933
 20
-148.4303886890208
 30
0.0
 10
114.3658012951933
 20
-148.4303886890208
 30
0.0
 10
114.3658012951933
 20
-148.2822495831551
 30
0.0
 10
114.3658012951933
 20
-148.2822495831551
 30
0.0
 10
114.6979084999713
 20
-148.2676079273428
 30
0.0
 10
114.7444172890222
 20
-148.1046549108905
 30
0.0
 10
114.7740451101954
 20
-147.9904499955545
 30
0.0
 10
114.7740451101954
 20
-147.9904499955545
 30
0.0
 10
114.9201171587699
 20
-147.9904499955545
 30
0.0
 10
114.9201171587699
 20
-147.9904499955545
 30
0.0
 10
114.9201171587699
 20
-147.9904499955545
 30
0.0
 10
114.9201171587699
 20
-149.5347140468177
 30
0.0
 10
114.9201171587699
 20
-149.5347140468177
 30
0.0
 10
114.9201171587699
 20
-149.5347140468177
 30
0.0
 10
114.6958414426802
 20
-149.5347140468177
 30
0.0
 10
114.6958414426802
 20
-149.5347140468177
 30
0.0
  0
HATCH
  5
131
330
12C
100
AcDbEntity
  8
レイヤー 1
 62
    18
420
        0
440
 33554687
100
AcDbHatch
 10
0.0
 20
0.0
 30
0.0
210
0.0
220
0.0
230
1.0
  2
SOLID
 70
     1
 71
     1
 91
        1
 92
        1
 93
        1
 72
     4
 94
        3
 73
     0
 74
     0
 95
       26
 96
       22
 40
0.0
 40
0.0
 40
0.0
 40
0.0
 40
1.0
 40
1.0
 40
1.0
 40
2.0
 40
2.0
 40
2.0
 40
3.0
 40
3.0
 40
3.0
 40
4.0
 40
4.0
 40
4.0
 40
5.0
 40
5.0
 40
5.0
 40
6.0
 40
6.0
 40
6.0
 40
7.0
 40
7.0
 40
7.0
 40
7.0
 10
114.6958414426802
 20
-149.5347140468177
 10
114.6958414426802
 20
-149.5347140468177
 10
114.6958414426802
 20
-148.4303886890208
 10
114.6958414426802
 20
-148.4303886890208
 10
114.6958414426802
 20
-148.4303886890208
 10
114.3658012951933
 20
-148.4303886890208
 10
114.3658012951933
 20
-148.4303886890208
 10
114.3658012951933
 20
-148.4303886890208
 10
114.3658012951933
 20
-148.2822495831551
 10
114.3658012951933
 20
-148.2822495831551
 10
114.6979084999713
 20
-148.2676079273428
 10
114.7444172890222
 20
-148.1046549108905
 10
114.7740451101954
 20
-147.9904499955545
 10
114.7740451101954
 20
-147.9904499955545
 10
114.9201171587699
 20
-147.9904499955545
 10
114.9201171587699
 20
-147.9904499955545
 10
114.9201171587699
 20
-147.9904499955545
 10
114.9201171587699
 20
-149.5347140468177
 10
114.9201171587699
 20
-149.5347140468177
 10
114.9201171587699
 20
-149.5347140468177
 10
114.6958414426802
 20
-149.5347140468177
 10
114.6958414426802
 20
-149.5347140468177
 97
        0
 97
        1
330
130
 75
     2
 76
     1
 98
        1
 10
0.0
 20
0.0
450
        0
451
        0
460
0.0
461
0.0
452
        0
462
0.0
453
        0
470

  0
ENDBLK
  5
12F
330
12C
100
AcDbEntity
  8
0
100
AcDbBlockEnd
  0
BLOCK
  5
134
330
132
100
AcDbEntity
  8
0
100
AcDbBlockBegin
  2
Block_10
 70
     0
 10
0.0
 20
0.0
 30
0.0
  3
Block_10
  1

  0
LWPOLYLINE
  5
136
330
132
100
AcDbEntity
  8
レイヤー 1
 62
   250
420
  2299925
370
     9
100
AcDbPolyline
 90
        4
 70
     1
 43
0.0
 10
113.2194068258327
 20
-152.8879452331666
 10
113.7812759781649
 20
-152.8810660665015
 10
112.8907237786626
 20
-152.5655063443587
 10
113.1949240486795
 20
-153.479835788574
  0
HATCH
  5
137
330
132
100
AcDbEntity
  8
レイヤー 1
 62
   250
420
  2299925
440
 33554687
100
AcDbHatch
 10
0.0
 20
0.0
 30
0.0
210
0.0
220
0.0
230
1.0
  2
SOLID
 70
     1
 71
     1
 91
        1
 92
        1
 93
        4
 72
     1
 10
113.2194068258327
 20
-152.8879452331666
 11
113.7812759781649
 21
-152.8810660665015
 72
     1
 10
113.7812759781649
 20
-152.8810660665015
 11
112.8907237786626
 21
-152.5655063443587
 72
     1
 10
112.8907237786626
 20
-152.5655063443587
 11
113.1949240486795
 21
-153.479835788574
 72
     1
 10
113.1949240486795
 20
-153.479835788574
 11
113.2194068258327
 21
-152.8879452331666
 97
        1
330
136
 75
     2
 76
     1
 98
        1
 10
0.0
 20
0.0
450
        0
451
        0
460
0.0
461
0.0
452
        0
462
0.0
453
        0
470

  0
LINE
  5
138
330
132
100
AcDbEntity
  8
レイヤー 1
 62
   250
420
  2299925
370
     9
100
AcDbLine
 10
113.2194068258327
 20
-152.8879452331666
 30
0.0
 11
115.62372843116
 21
-155.2774855103474
 31
0.0
  0
ENDBLK
  5
135
330
132
100
AcDbEntity
  8
0
100
AcDbBlockEnd
  0
BLOCK
  5
13B
330
139
100
AcDbEntity
  8
0
100
AcDbBlockBegin
  2
Block_11
 70
     0
 10
0.0
 20
0.0
 30
0.0
  3
Block_11
  1

  0
INSERT
  5
13E
330
139
100
AcDbEntity
  8
レイヤー 1
100
AcDbBlockReference
  2
Block_12
 10
0.0
 20
0.0
 30
0.0
  0
ENDBLK
  5
13C
330
139
100
AcDbEntity
  8
0
100
AcDbBlockEnd
  0
BLOCK
  5
13F
330
13D
100
AcDbEntity
  8
0
100
AcDbBlockBegin
  2
Block_12
 70
     0
 10
0.0
 20
0.0
 30
0.0
  3
Block_12
  1

  0
SPLINE
  5
141
330
13D
100
AcDbEntity
  8
レイヤー 1
100
AcDbSpline
210
0.0
220
0.0
230
1.0
 70
     9
 71
     3
 72
    38
 73
    34
 74
     0
 42
0.0000000001
 43
0.0000000001
 40
0.0
 40
0.0
 40
0.0
 40
0.0
 40
1.0
 40
1.0
 40
1.0
 40
2.0
 40
2.0
 40
2.0
 40
3.0
 40
3.0
 40
3.0
 40
4.0
 40
4.0
 40
4.0
 40
5.0
 40
5.0
 40
5.0
 40
6.0
 40
6.0
 40
6.0
 40
7.0
 40
7.0
 40
7.0
 40
8.0
 40
8.0
 40
8.0
 40
9.0
 40
9.0
 40
9.0
 40
10.0
 40
10.0
 40
10.0
 40
11.0
 40
11.0
 40
11.0
 40
11.0
 10
116.1555283997805
 20
-156.3587591840006
 30
0.0
 10
116.2485459778823
 20
-156.2361137847257
 30
0.0
 10
116.3736029439969
 20
-156.0562798003956
 30
0.0
 10
116.4686875793897
 20
-155.6077283682161
 30
0.0
 10
116.4686875793897
 20
-155.6077283682161
 30
0.0
 10
116.6357747104244
 20
-155.6270209029335
 30
0.0
 10
116.6357747104244
 20
-155.6270209029335
 30
0.0
 10
116.6102810038335
 20
-155.7475992449172
 30
0.0
 10
116.5871988640823
 20
-155.8385497657278
 30
0.0
 10
116.5489583041961
 20
-155.9463812544162
 30
0.0
 10
116.5489583041961
 20
-155.9463812544162
 30
0.0
 10
117.1773437207056
 20
-155.9463812544162
 30
0.0
 10
117.1773437207056
 20
-155.9463812544162
 30
0.0
 10
117.1773437207056
 20
-155.9463812544162
 30
0.0
 10
117.1773437207056
 20
-156.0986544748642
 30
0.0
 10
117.1773437207056
 20
-156.0986544748642
 30
0.0
 10
117.1435817849502
 20
-156.2405924088565
 30
0.0
 10
117.0481526400088
 20
-156.4986300607017
 30
0.0
 10
116.9740830870759
 20
-156.6171413453943
 30
0.0
 10
116.9740830870759
 20
-156.6171413453943
 30
0.0
 10
116.8218098666279
 20
-156.5385931683306
 30
0.0
 10
116.8218098666279
 20
-156.5385931683306
 30
0.0
 10
116.9172390115693
 20
-156.4032009157603
 30
0.0
 10
116.982695825789
 20
-156.2150987022656
 30
0.0
 10
117.010256589671
 20
-156.1048556467377
 30
0.0
 10
117.010256589671
 20
-156.1048556467377
 30
0.0
 10
116.4917697191409
 20
-156.1048556467377
 30
0.0
 10
116.4917697191409
 20
-156.1048556467377
 30
0.0
 10
116.3925509691657
 20
-156.3463568402537
 30
0.0
 10
116.3184814162329
 20
-156.4348957942246
 30
0.0
 10
116.2802408563466
 20
-156.4793375259843
 30
0.0
 10
116.2802408563466
 20
-156.4793375259843
 30
0.0
 10
116.1555283997805
 20
-156.3587591840006
 30
0.0
 10
116.1555283997805
 20
-156.3587591840006
 30
0.0
  0
SPLINE
  5
142
330
13D
100
AcDbEntity
  8
レイヤー 1
100
AcDbSpline
210
0.0
220
0.0
230
1.0
 70
     9
 71
     3
 72
    38
 73
    34
 74
     0
 42
0.0000000001
 43
0.0000000001
 40
0.0
 40
0.0
 40
0.0
 40
0.0
 40
1.0
 40
1.0
 40
1.0
 40
2.0
 40
2.0
 40
2.0
 40
3.0
 40
3.0
 40
3.0
 40
4.0
 40
4.0
 40
4.0
 40
5.0
 40
5.0
 40
5.0
 40
6.0
 40
6.0
 40
6.0
 40
7.0
 40
7.0
 40
7.0
 40
8.0
 40
8.0
 40
8.0
 40
9.0
 40
9.0
 40
9.0
 40
10.0
 40
10.0
 40
10.0
 40
11.0
 40
11.0
 40
11.0
 40
11.0
 10
116.0411512296702
 20
-157.4315619181074
 30
0.0
 10
116.1238335213162
 20
-157.3785074476345
 30
0.0
 10
116.2888535950597
 20
-157.2706759589462
 30
0.0
 10
116.3946180264569
 20
-157.0632812107342
 30
0.0
 10
116.5427571323226
 20
-156.7714816231335
 30
0.0
 10
116.5427571323226
 20
-156.5451388497526
 30
0.0
 10
116.5427571323226
 20
-156.4603895008154
 30
0.0
 10
116.5427571323226
 20
-156.4603895008154
 30
0.0
 10
116.5427571323226
 20
-156.2257784982699
 30
0.0
 10
116.5427571323226
 20
-156.2257784982699
 30
0.0
 10
116.5427571323226
 20
-156.2257784982699
 30
0.0
 10
116.7077772060661
 20
-156.2257784982699
 30
0.0
 10
116.7077772060661
 20
-156.2257784982699
 30
0.0
 10
116.7077772060661
 20
-156.2257784982699
 30
0.0
 10
116.7077772060661
 20
-156.4521212716508
 30
0.0
 10
116.7077772060661
 20
-156.4521212716508
 30
0.0
 10
116.7077772060661
 20
-156.6509032811498
 30
0.0
 10
116.7732340202858
 20
-156.8879258505349
 30
0.0
 10
116.8748643371007
 20
-157.061214153443
 30
0.0
 10
116.9913085645021
 20
-157.2599961629419
 30
0.0
 10
117.1201551356505
 20
-157.3595594224657
 30
0.0
 10
117.2049044845876
 20
-157.4208821221031
 30
0.0
 10
117.2049044845876
 20
-157.4208821221031
 30
0.0
 10
117.0970729958993
 20
-157.57108828526
 30
0.0
 10
117.0970729958993
 20
-157.57108828526
 30
0.0
 10
116.9193060688604
 20
-157.4418972045631
 30
0.0
 10
116.7205240593615
 20
-157.2028075778868
 30
0.0
 10
116.6419758822978
 20
-156.8496852906487
 30
0.0
 10
116.5765190680781
 20
-157.088774917325
 30
0.0
 10
116.4748887512632
 20
-157.3574923651745
 30
0.0
 10
116.1662081957848
 20
-157.5669541706777
 30
0.0
 10
116.1662081957848
 20
-157.5669541706777
 30
0.0
 10
116.0411512296702
 20
-157.4315619181074
 30
0.0
 10
116.0411512296702
 20
-157.4315619181074
 30
0.0
  0
SPLINE
  5
143
330
13D
100
AcDbEntity
  8
レイヤー 1
100
AcDbSpline
210
0.0
220
0.0
230
1.0
 70
    11
 71
     3
 72
    17
 73
    13
 74
     0
 42
0.0000000001
 43
0.0000000001
 40
0.0
 40
0.0
 40
0.0
 40
0.0
 40
1.0
 40
1.0
 40
1.0
 40
2.0
 40
2.0
 40
2.0
 40
3.0
 40
3.0
 40
3.0
 40
4.0
 40
4.0
 40
4.0
 40
4.0
 10
115.9991210647502
 20
-156.5430717924614
 30
0.0
 10
115.9991210647502
 20
-156.5430717924614
 30
0.0
 10
115.7875922019559
 20
-156.5430717924614
 30
0.0
 10
115.7875922019559
 20
-156.5430717924614
 30
0.0
 10
115.7875922019559
 20
-156.5430717924614
 30
0.0
 10
115.7875922019559
 20
-156.750122031125
 30
0.0
 10
115.7875922019559
 20
-156.750122031125
 30
0.0
 10
115.7875922019559
 20
-156.750122031125
 30
0.0
 10
115.9991210647502
 20
-156.750122031125
 30
0.0
 10
115.9991210647502
 20
-156.750122031125
 30
0.0
 10
115.9991210647502
 20
-156.750122031125
 30
0.0
 10
115.9991210647502
 20
-156.5430717924614
 30
0.0
 10
115.9991210647502
 20
-156.5430717924614
 30
0.0
  0
SPLINE
  5
144
330
13D
100
AcDbEntity
  8
レイヤー 1
100
AcDbSpline
210
0.0
220
0.0
230
1.0
 70
    11
 71
     3
 72
    17
 73
    13
 74
     0
 42
0.0000000001
 43
0.0000000001
 40
0.0
 40
0.0
 40
0.0
 40
0.0
 40
1.0
 40
1.0
 40
1.0
 40
2.0
 40
2.0
 40
2.0
 40
3.0
 40
3.0
 40
3.0
 40
4.0
 40
4.0
 40
4.0
 40
4.0
 10
115.9991210647502
 20
-156.2171657595568
 30
0.0
 10
115.9991210647502
 20
-156.2171657595568
 30
0.0
 10
115.7875922019559
 20
-156.2171657595568
 30
0.0
 10
115.7875922019559
 20
-156.2171657595568
 30
0.0
 10
115.7875922019559
 20
-156.2171657595568
 30
0.0
 10
115.7875922019559
 20
-156.420081883638
 30
0.0
 10
115.7875922019559
 20
-156.420081883638
 30
0.0
 10
115.7875922019559
 20
-156.420081883638
 30
0.0
 10
115.9991210647502
 20
-156.420081883638
 30
0.0
 10
115.9991210647502
 20
-156.420081883638
 30
0.0
 10
115.9991210647502
 20
-156.420081883638
 30
0.0
 10
115.9991210647502
 20
-156.2171657595568
 30
0.0
 10
115.9991210647502
 20
-156.2171657595568
 30
0.0
  0
SPLINE
  5
145
330
13D
100
AcDbEntity
  8
レイヤー 1
100
AcDbSpline
210
0.0
220
0.0
230
1.0
 70
    11
 71
     3
 72
    17
 73
    13
 74
     0
 42
0.0000000001
 43
0.0000000001
 40
0.0
 40
0.0
 40
0.0
 40
0.0
 40
1.0
 40
1.0
 40
1.0
 40
2.0
 40
2.0
 40
2.0
 40
3.0
 40
3.0
 40
3.0
 40
4.0
 40
4.0
 40
4.0
 40
4.0
 10
115.6329074146681
 20
-156.5430717924614
 30
0.0
 10
115.6329074146681
 20
-156.5430717924614
 30
0.0
 10
115.4258571760046
 20
-156.5430717924614
 30
0.0
 10
115.4258571760046
 20
-156.5430717924614
 30
0.0
 10
115.4258571760046
 20
-156.5430717924614
 30
0.0
 10
115.4258571760046
 20
-156.750122031125
 30
0.0
 10
115.4258571760046
 20
-156.750122031125
 30
0.0
 10
115.4258571760046
 20
-156.750122031125
 30
0.0
 10
115.6329074146681
 20
-156.750122031125
 30
0.0
 10
115.6329074146681
 20
-156.750122031125
 30
0.0
 10
115.6329074146681
 20
-156.750122031125
 30
0.0
 10
115.6329074146681
 20
-156.5430717924614
 30
0.0
 10
115.6329074146681
 20
-156.5430717924614
 30
0.0
  0
SPLINE
  5
146
330
13D
100
AcDbEntity
  8
レイヤー 1
100
AcDbSpline
210
0.0
220
0.0
230
1.0
 70
    11
 71
     3
 72
    17
 73
    13
 74
     0
 42
0.0000000001
 43
0.0000000001
 40
0.0
 40
0.0
 40
0.0
 40
0.0
 40
1.0
 40
1.0
 40
1.0
 40
2.0
 40
2.0
 40
2.0
 40
3.0
 40
3.0
 40
3.0
 40
4.0
 40
4.0
 40
4.0
 40
4.0
 10
115.6329074146681
 20
-156.2171657595568
 30
0.0
 10
115.6329074146681
 20
-156.2171657595568
 30
0.0
 10
115.4258571760046
 20
-156.2171657595568
 30
0.0
 10
115.4258571760046
 20
-156.2171657595568
 30
0.0
 10
115.4258571760046
 20
-156.2171657595568
 30
0.0
 10
115.4258571760046
 20
-156.420081883638
 30
0.0
 10
115.4258571760046
 20
-156.420081883638
 30
0.0
 10
115.4258571760046
 20
-156.420081883638
 30
0.0
 10
115.6329074146681
 20
-156.420081883638
 30
0.0
 10
115.6329074146681
 20
-156.420081883638
 30
0.0
 10
115.6329074146681
 20
-156.420081883638
 30
0.0
 10
115.6329074146681
 20
-156.2171657595568
 30
0.0
 10
115.6329074146681
 20
-156.2171657595568
 30
0.0
  0
SPLINE
  5
147
330
13D
100
AcDbEntity
  8
レイヤー 1
100
AcDbSpline
210
0.0
220
0.0
230
1.0
 70
    11
 71
     3
 72
    89
 73
    85
 74
     0
 42
0.0000000001
 43
0.0000000001
 40
0.0
 40
0.0
 40
0.0
 40
0.0
 40
1.0
 40
1.0
 40
1.0
 40
2.0
 40
2.0
 40
2.0
 40
3.0
 40
3.0
 40
3.0
 40
4.0
 40
4.0
 40
4.0
 40
5.0
 40
5.0
 40
5.0
 40
6.0
 40
6.0
 40
6.0
 40
7.0
 40
7.0
 40
7.0
 40
8.0
 40
8.0
 40
8.0
 40
9.0
 40
9.0
 40
9.0
 40
10.0
 40
10.0
 40
10.0
 40
11.0
 40
11.0
 40
11.0
 40
12.0
 40
12.0
 40
12.0
 40
13.0
 40
13.0
 40
13.0
 40
14.0
 40
14.0
 40
14.0
 40
15.0
 40
15.0
 40
15.0
 40
16.0
 40
16.0
 40
16.0
 40
17.0
 40
17.0
 40
17.0
 40
18.0
 40
18.0
 40
18.0
 40
19.0
 40
19.0
 40
19.0
 40
20.0
 40
20.0
 40
20.0
 40
21.0
 40
21.0
 40
21.0
 40
22.0
 40
22.0
 40
22.0
 40
23.0
 40
23.0
 40
23.0
 40
24.0
 40
24.0
 40
24.0
 40
25.0
 40
25.0
 40
25.0
 40
26.0
 40
26.0
 40
26.0
 40
27.0
 40
27.0
 40
27.0
 40
28.0
 40
28.0
 40
28.0
 40
28.0
 10
115.6329074146681
 20
-155.7686143273773
 30
0.0
 10
115.6329074146681
 20
-155.7686143273773
 30
0.0
 10
115.6329074146681
 20
-155.6077283682161
 30
0.0
 10
115.6329074146681
 20
-155.6077283682161
 30
0.0
 10
115.6329074146681
 20
-155.6077283682161
 30
0.0
 10
115.7875922019559
 20
-155.6077283682161
 30
0.0
 10
115.7875922019559
 20
-155.6077283682161
 30
0.0
 10
115.7875922019559
 20
-155.6077283682161
 30
0.0
 10
115.7875922019559
 20
-155.7686143273773
 30
0.0
 10
115.7875922019559
 20
-155.7686143273773
 30
0.0
 10
115.7875922019559
 20
-155.7686143273773
 30
0.0
 10
116.1810221063714
 20
-155.7686143273773
 30
0.0
 10
116.1810221063714
 20
-155.7686143273773
 30
0.0
 10
116.1810221063714
 20
-155.7686143273773
 30
0.0
 10
116.1810221063714
 20
-155.9229546051165
 30
0.0
 10
116.1810221063714
 20
-155.9229546051165
 30
0.0
 10
116.1810221063714
 20
-155.9229546051165
 30
0.0
 10
115.7875922019559
 20
-155.9229546051165
 30
0.0
 10
115.7875922019559
 20
-155.9229546051165
 30
0.0
 10
115.7875922019559
 20
-155.9229546051165
 30
0.0
 10
115.7875922019559
 20
-156.0776393924042
 30
0.0
 10
115.7875922019559
 20
-156.0776393924042
 30
0.0
 10
115.7875922019559
 20
-156.0776393924042
 30
0.0
 10
116.1427815464851
 20
-156.0776393924042
 30
0.0
 10
116.1427815464851
 20
-156.0776393924042
 30
0.0
 10
116.1427815464851
 20
-156.0776393924042
 30
0.0
 10
116.1427815464851
 20
-156.8899929078261
 30
0.0
 10
116.1427815464851
 20
-156.8899929078261
 30
0.0
 10
116.1427815464851
 20
-156.8899929078261
 30
0.0
 10
115.7875922019559
 20
-156.8899929078261
 30
0.0
 10
115.7875922019559
 20
-156.8899929078261
 30
0.0
 10
115.7875922019559
 20
-156.8899929078261
 30
0.0
 10
115.7875922019559
 20
-157.0591470961519
 30
0.0
 10
115.7875922019559
 20
-157.0591470961519
 30
0.0
 10
115.7875922019559
 20
-157.0591470961519
 30
0.0
 10
116.195836016958
 20
-157.0591470961519
 30
0.0
 10
116.195836016958
 20
-157.0591470961519
 30
0.0
 10
116.195836016958
 20
-157.0591470961519
 30
0.0
 10
116.195836016958
 20
-157.213487373891
 30
0.0
 10
116.195836016958
 20
-157.213487373891
 30
0.0
 10
116.195836016958
 20
-157.213487373891
 30
0.0
 10
115.7875922019559
 20
-157.213487373891
 30
0.0
 10
115.7875922019559
 20
-157.213487373891
 30
0.0
 10
115.7875922019559
 20
-157.213487373891
 30
0.0
 10
115.7875922019559
 20
-157.5669541706777
 30
0.0
 10
115.7875922019559
 20
-157.5669541706777
 30
0.0
 10
115.7875922019559
 20
-157.5669541706777
 30
0.0
 10
115.6329074146681
 20
-157.5669541706777
 30
0.0
 10
115.6329074146681
 20
-157.5669541706777
 30
0.0
 10
115.6329074146681
 20
-157.5669541706777
 30
0.0
 10
115.6329074146681
 20
-157.213487373891
 30
0.0
 10
115.6329074146681
 20
-157.213487373891
 30
0.0
 10
115.6329074146681
 20
-157.213487373891
 30
0.0
 10
115.2225965423749
 20
-157.213487373891
 30
0.0
 10
115.2225965423749
 20
-157.213487373891
 30
0.0
 10
115.2225965423749
 20
-157.213487373891
 30
0.0
 10
115.2225965423749
 20
-157.0591470961519
 30
0.0
 10
115.2225965423749
 20
-157.0591470961519
 30
0.0
 10
115.2225965423749
 20
-157.0591470961519
 30
0.0
 10
115.6329074146681
 20
-157.0591470961519
 30
0.0
 10
115.6329074146681
 20
-157.0591470961519
 30
0.0
 10
115.6329074146681
 20
-157.0591470961519
 30
0.0
 10
115.6329074146681
 20
-156.8899929078261
 30
0.0
 10
115.6329074146681
 20
-156.8899929078261
 30
0.0
 10
115.6329074146681
 20
-156.8899929078261
 30
0.0
 10
115.2839192420123
 20
-156.8899929078261
 30
0.0
 10
115.2839192420123
 20
-156.8899929078261
 30
0.0
 10
115.2839192420123
 20
-156.8899929078261
 30
0.0
 10
115.2839192420123
 20
-156.0776393924042
 30
0.0
 10
115.2839192420123
 20
-156.0776393924042
 30
0.0
 10
115.2839192420123
 20
-156.0776393924042
 30
0.0
 10
115.6329074146681
 20
-156.0776393924042
 30
0.0
 10
115.6329074146681
 20
-156.0776393924042
 30
0.0
 10
115.6329074146681
 20
-156.0776393924042
 30
0.0
 10
115.6329074146681
 20
-155.9229546051165
 30
0.0
 10
115.6329074146681
 20
-155.9229546051165
 30
0.0
 10
115.6329074146681
 20
-155.9229546051165
 30
0.0
 10
115.2436116248349
 20
-155.9229546051165
 30
0.0
 10
115.2436116248349
 20
-155.9229546051165
 30
0.0
 10
115.2436116248349
 20
-155.9229546051165
 30
0.0
 10
115.2436116248349
 20
-155.7686143273773
 30
0.0
 10
115.2436116248349
 20
-155.7686143273773
 30
0.0
 10
115.2436116248349
 20
-155.7686143273773
 30
0.0
 10
115.6329074146681
 20
-155.7686143273773
 30
0.0
 10
115.6329074146681
 20
-155.7686143273773
 30
0.0
  0
HATCH
  5
148
330
13D
100
AcDbEntity
  8
レイヤー 1
 62
    12
420
 15007762
440
 33554687
100
AcDbHatch
 10
0.0
 20
0.0
 30
0.0
210
0.0
220
0.0
230
1.0
  2
SOLID
 70
     1
 71
     1
 91
        7
 92
        1
 93
        1
 72
     4
 94
        3
 73
     0
 74
     0
 95
       38
 96
       34
 40
0.0
 40
0.0
 40
0.0
 40
0.0
 40
1.0
 40
1.0
 40
1.0
 40
2.0
 40
2.0
 40
2.0
 40
3.0
 40
3.0
 40
3.0
 40
4.0
 40
4.0
 40
4.0
 40
5.0
 40
5.0
 40
5.0
 40
6.0
 40
6.0
 40
6.0
 40
7.0
 40
7.0
 40
7.0
 40
8.0
 40
8.0
 40
8.0
 40
9.0
 40
9.0
 40
9.0
 40
10.0
 40
10.0
 40
10.0
 40
11.0
 40
11.0
 40
11.0
 40
11.0
 10
116.1555283997805
 20
-156.3587591840006
 10
116.2485459778823
 20
-156.2361137847257
 10
116.3736029439969
 20
-156.0562798003956
 10
116.4686875793897
 20
-155.6077283682161
 10
116.4686875793897
 20
-155.6077283682161
 10
116.6357747104244
 20
-155.6270209029335
 10
116.6357747104244
 20
-155.6270209029335
 10
116.6102810038335
 20
-155.7475992449172
 10
116.5871988640823
 20
-155.8385497657278
 10
116.5489583041961
 20
-155.9463812544162
 10
116.5489583041961
 20
-155.9463812544162
 10
117.1773437207056
 20
-155.9463812544162
 10
117.1773437207056
 20
-155.9463812544162
 10
117.1773437207056
 20
-155.9463812544162
 10
117.1773437207056
 20
-156.0986544748642
 10
117.1773437207056
 20
-156.0986544748642
 10
117.1435817849502
 20
-156.2405924088565
 10
117.0481526400088
 20
-156.4986300607017
 10
116.9740830870759
 20
-156.6171413453943
 10
116.9740830870759
 20
-156.6171413453943
 10
116.8218098666279
 20
-156.5385931683306
 10
116.8218098666279
 20
-156.5385931683306
 10
116.9172390115693
 20
-156.4032009157603
 10
116.982695825789
 20
-156.2150987022656
 10
117.010256589671
 20
-156.1048556467377
 10
117.010256589671
 20
-156.1048556467377
 10
116.4917697191409
 20
-156.1048556467377
 10
116.4917697191409
 20
-156.1048556467377
 10
116.3925509691657
 20
-156.3463568402537
 10
116.3184814162329
 20
-156.4348957942246
 10
116.2802408563466
 20
-156.4793375259843
 10
116.2802408563466
 20
-156.4793375259843
 10
116.1555283997805
 20
-156.3587591840006
 10
116.1555283997805
 20
-156.3587591840006
 97
        0
 97
        1
330
141
 92
        1
 93
        1
 72
     4
 94
        3
 73
     0
 74
     0
 95
       38
 96
       34
 40
0.0
 40
0.0
 40
0.0
 40
0.0
 40
1.0
 40
1.0
 40
1.0
 40
2.0
 40
2.0
 40
2.0
 40
3.0
 40
3.0
 40
3.0
 40
4.0
 40
4.0
 40
4.0
 40
5.0
 40
5.0
 40
5.0
 40
6.0
 40
6.0
 40
6.0
 40
7.0
 40
7.0
 40
7.0
 40
8.0
 40
8.0
 40
8.0
 40
9.0
 40
9.0
 40
9.0
 40
10.0
 40
10.0
 40
10.0
 40
11.0
 40
11.0
 40
11.0
 40
11.0
 10
116.0411512296702
 20
-157.4315619181074
 10
116.1238335213162
 20
-157.3785074476345
 10
116.2888535950597
 20
-157.2706759589462
 10
116.3946180264569
 20
-157.0632812107342
 10
116.5427571323226
 20
-156.7714816231335
 10
116.5427571323226
 20
-156.5451388497526
 10
116.5427571323226
 20
-156.4603895008154
 10
116.5427571323226
 20
-156.4603895008154
 10
116.5427571323226
 20
-156.2257784982699
 10
116.5427571323226
 20
-156.2257784982699
 10
116.5427571323226
 20
-156.2257784982699
 10
116.7077772060661
 20
-156.2257784982699
 10
116.7077772060661
 20
-156.2257784982699
 10
116.7077772060661
 20
-156.2257784982699
 10
116.7077772060661
 20
-156.4521212716508
 10
116.7077772060661
 20
-156.4521212716508
 10
116.7077772060661
 20
-156.6509032811498
 10
116.7732340202858
 20
-156.8879258505349
 10
116.8748643371007
 20
-157.061214153443
 10
116.9913085645021
 20
-157.2599961629419
 10
117.1201551356505
 20
-157.3595594224657
 10
117.2049044845876
 20
-157.4208821221031
 10
117.2049044845876
 20
-157.4208821221031
 10
117.0970729958993
 20
-157.57108828526
 10
117.0970729958993
 20
-157.57108828526
 10
116.9193060688604
 20
-157.4418972045631
 10
116.7205240593615
 20
-157.2028075778868
 10
116.6419758822978
 20
-156.8496852906487
 10
116.5765190680781
 20
-157.088774917325
 10
116.4748887512632
 20
-157.3574923651745
 10
116.1662081957848
 20
-157.5669541706777
 10
116.1662081957848
 20
-157.5669541706777
 10
116.0411512296702
 20
-157.4315619181074
 10
116.0411512296702
 20
-157.4315619181074
 97
        0
 97
        1
330
142
 92
        1
 93
        1
 72
     4
 94
        3
 73
     0
 74
     0
 95
       17
 96
       13
 40
0.0
 40
0.0
 40
0.0
 40
0.0
 40
1.0
 40
1.0
 40
1.0
 40
2.0
 40
2.0
 40
2.0
 40
3.0
 40
3.0
 40
3.0
 40
4.0
 40
4.0
 40
4.0
 40
4.0
 10
115.9991210647502
 20
-156.5430717924614
 10
115.9991210647502
 20
-156.5430717924614
 10
115.7875922019559
 20
-156.5430717924614
 10
115.7875922019559
 20
-156.5430717924614
 10
115.7875922019559
 20
-156.5430717924614
 10
115.7875922019559
 20
-156.750122031125
 10
115.7875922019559
 20
-156.750122031125
 10
115.7875922019559
 20
-156.750122031125
 10
115.9991210647502
 20
-156.750122031125
 10
115.9991210647502
 20
-156.750122031125
 10
115.9991210647502
 20
-156.750122031125
 10
115.9991210647502
 20
-156.5430717924614
 10
115.9991210647502
 20
-156.5430717924614
 97
        0
 97
        1
330
143
 92
        1
 93
        1
 72
     4
 94
        3
 73
     0
 74
     0
 95
       17
 96
       13
 40
0.0
 40
0.0
 40
0.0
 40
0.0
 40
1.0
 40
1.0
 40
1.0
 40
2.0
 40
2.0
 40
2.0
 40
3.0
 40
3.0
 40
3.0
 40
4.0
 40
4.0
 40
4.0
 40
4.0
 10
115.9991210647502
 20
-156.2171657595568
 10
115.9991210647502
 20
-156.2171657595568
 10
115.7875922019559
 20
-156.2171657595568
 10
115.7875922019559
 20
-156.2171657595568
 10
115.7875922019559
 20
-156.2171657595568
 10
115.7875922019559
 20
-156.420081883638
 10
115.7875922019559
 20
-156.420081883638
 10
115.7875922019559
 20
-156.420081883638
 10
115.9991210647502
 20
-156.420081883638
 10
115.9991210647502
 20
-156.420081883638
 10
115.9991210647502
 20
-156.420081883638
 10
115.9991210647502
 20
-156.2171657595568
 10
115.9991210647502
 20
-156.2171657595568
 97
        0
 97
        1
330
144
 92
        1
 93
        1
 72
     4
 94
        3
 73
     0
 74
     0
 95
       17
 96
       13
 40
0.0
 40
0.0
 40
0.0
 40
0.0
 40
1.0
 40
1.0
 40
1.0
 40
2.0
 40
2.0
 40
2.0
 40
3.0
 40
3.0
 40
3.0
 40
4.0
 40
4.0
 40
4.0
 40
4.0
 10
115.6329074146681
 20
-156.5430717924614
 10
115.6329074146681
 20
-156.5430717924614
 10
115.4258571760046
 20
-156.5430717924614
 10
115.4258571760046
 20
-156.5430717924614
 10
115.4258571760046
 20
-156.5430717924614
 10
115.4258571760046
 20
-156.750122031125
 10
115.4258571760046
 20
-156.750122031125
 10
115.4258571760046
 20
-156.750122031125
 10
115.6329074146681
 20
-156.750122031125
 10
115.6329074146681
 20
-156.750122031125
 10
115.6329074146681
 20
-156.750122031125
 10
115.6329074146681
 20
-156.5430717924614
 10
115.6329074146681
 20
-156.5430717924614
 97
        0
 97
        1
330
145
 92
        1
 93
        1
 72
     4
 94
        3
 73
     0
 74
     0
 95
       17
 96
       13
 40
0.0
 40
0.0
 40
0.0
 40
0.0
 40
1.0
 40
1.0
 40
1.0
 40
2.0
 40
2.0
 40
2.0
 40
3.0
 40
3.0
 40
3.0
 40
4.0
 40
4.0
 40
4.0
 40
4.0
 10
115.6329074146681
 20
-156.2171657595568
 10
115.6329074146681
 20
-156.2171657595568
 10
115.4258571760046
 20
-156.2171657595568
 10
115.4258571760046
 20
-156.2171657595568
 10
115.4258571760046
 20
-156.2171657595568
 10
115.4258571760046
 20
-156.420081883638
 10
115.4258571760046
 20
-156.420081883638
 10
115.4258571760046
 20
-156.420081883638
 10
115.6329074146681
 20
-156.420081883638
 10
115.6329074146681
 20
-156.420081883638
 10
115.6329074146681
 20
-156.420081883638
 10
115.6329074146681
 20
-156.2171657595568
 10
115.6329074146681
 20
-156.2171657595568
 97
        0
 97
        1
330
146
 92
        1
 93
        1
 72
     4
 94
        3
 73
     0
 74
     0
 95
       89
 96
       85
 40
0.0
 40
0.0
 40
0.0
 40
0.0
 40
1.0
 40
1.0
 40
1.0
 40
2.0
 40
2.0
 40
2.0
 40
3.0
 40
3.0
 40
3.0
 40
4.0
 40
4.0
 40
4.0
 40
5.0
 40
5.0
 40
5.0
 40
6.0
 40
6.0
 40
6.0
 40
7.0
 40
7.0
 40
7.0
 40
8.0
 40
8.0
 40
8.0
 40
9.0
 40
9.0
 40
9.0
 40
10.0
 40
10.0
 40
10.0
 40
11.0
 40
11.0
 40
11.0
 40
12.0
 40
12.0
 40
12.0
 40
13.0
 40
13.0
 40
13.0
 40
14.0
 40
14.0
 40
14.0
 40
15.0
 40
15.0
 40
15.0
 40
16.0
 40
16.0
 40
16.0
 40
17.0
 40
17.0
 40
17.0
 40
18.0
 40
18.0
 40
18.0
 40
19.0
 40
19.0
 40
19.0
 40
20.0
 40
20.0
 40
20.0
 40
21.0
 40
21.0
 40
21.0
 40
22.0
 40
22.0
 40
22.0
 40
23.0
 40
23.0
 40
23.0
 40
24.0
 40
24.0
 40
24.0
 40
25.0
 40
25.0
 40
25.0
 40
26.0
 40
26.0
 40
26.0
 40
27.0
 40
27.0
 40
27.0
 40
28.0
 40
28.0
 40
28.0
 40
28.0
 10
115.6329074146681
 20
-155.7686143273773
 10
115.6329074146681
 20
-155.7686143273773
 10
115.6329074146681
 20
-155.6077283682161
 10
115.6329074146681
 20
-155.6077283682161
 10
115.6329074146681
 20
-155.6077283682161
 10
115.7875922019559
 20
-155.6077283682161
 10
115.7875922019559
 20
-155.6077283682161
 10
115.7875922019559
 20
-155.6077283682161
 10
115.7875922019559
 20
-155.7686143273773
 10
115.7875922019559
 20
-155.7686143273773
 10
115.7875922019559
 20
-155.7686143273773
 10
116.1810221063714
 20
-155.7686143273773
 10
116.1810221063714
 20
-155.7686143273773
 10
116.1810221063714
 20
-155.7686143273773
 10
116.1810221063714
 20
-155.9229546051165
 10
116.1810221063714
 20
-155.9229546051165
 10
116.1810221063714
 20
-155.9229546051165
 10
115.7875922019559
 20
-155.9229546051165
 10
115.7875922019559
 20
-155.9229546051165
 10
115.7875922019559
 20
-155.9229546051165
 10
115.7875922019559
 20
-156.0776393924042
 10
115.7875922019559
 20
-156.0776393924042
 10
115.7875922019559
 20
-156.0776393924042
 10
116.1427815464851
 20
-156.0776393924042
 10
116.1427815464851
 20
-156.0776393924042
 10
116.1427815464851
 20
-156.0776393924042
 10
116.1427815464851
 20
-156.8899929078261
 10
116.1427815464851
 20
-156.8899929078261
 10
116.1427815464851
 20
-156.8899929078261
 10
115.7875922019559
 20
-156.8899929078261
 10
115.7875922019559
 20
-156.8899929078261
 10
115.7875922019559
 20
-156.8899929078261
 10
115.7875922019559
 20
-157.0591470961519
 10
115.7875922019559
 20
-157.0591470961519
 10
115.7875922019559
 20
-157.0591470961519
 10
116.195836016958
 20
-157.0591470961519
 10
116.195836016958
 20
-157.0591470961519
 10
116.195836016958
 20
-157.0591470961519
 10
116.195836016958
 20
-157.213487373891
 10
116.195836016958
 20
-157.213487373891
 10
116.195836016958
 20
-157.213487373891
 10
115.7875922019559
 20
-157.213487373891
 10
115.7875922019559
 20
-157.213487373891
 10
115.7875922019559
 20
-157.213487373891
 10
115.7875922019559
 20
-157.5669541706777
 10
115.7875922019559
 20
-157.5669541706777
 10
115.7875922019559
 20
-157.5669541706777
 10
115.6329074146681
 20
-157.5669541706777
 10
115.6329074146681
 20
-157.5669541706777
 10
115.6329074146681
 20
-157.5669541706777
 10
115.6329074146681
 20
-157.213487373891
 10
115.6329074146681
 20
-157.213487373891
 10
115.6329074146681
 20
-157.213487373891
 10
115.2225965423749
 20
-157.213487373891
 10
115.2225965423749
 20
-157.213487373891
 10
115.2225965423749
 20
-157.213487373891
 10
115.2225965423749
 20
-157.0591470961519
 10
115.2225965423749
 20
-157.0591470961519
 10
115.2225965423749
 20
-157.0591470961519
 10
115.6329074146681
 20
-157.0591470961519
 10
115.6329074146681
 20
-157.0591470961519
 10
115.6329074146681
 20
-157.0591470961519
 10
115.6329074146681
 20
-156.8899929078261
 10
115.6329074146681
 20
-156.8899929078261
 10
115.6329074146681
 20
-156.8899929078261
 10
115.2839192420123
 20
-156.8899929078261
 10
115.2839192420123
 20
-156.8899929078261
 10
115.2839192420123
 20
-156.8899929078261
 10
115.2839192420123
 20
-156.0776393924042
 10
115.2839192420123
 20
-156.0776393924042
 10
115.2839192420123
 20
-156.0776393924042
 10
115.6329074146681
 20
-156.0776393924042
 10
115.6329074146681
 20
-156.0776393924042
 10
115.6329074146681
 20
-156.0776393924042
 10
115.6329074146681
 20
-155.9229546051165
 10
115.6329074146681
 20
-155.9229546051165
 10
115.6329074146681
 20
-155.9229546051165
 10
115.2436116248349
 20
-155.9229546051165
 10
115.2436116248349
 20
-155.9229546051165
 10
115.2436116248349
 20
-155.9229546051165
 10
115.2436116248349
 20
-155.7686143273773
 10
115.2436116248349
 20
-155.7686143273773
 10
115.2436116248349
 20
-155.7686143273773
 10
115.6329074146681
 20
-155.7686143273773
 10
115.6329074146681
 20
-155.7686143273773
 97
        0
 97
        1
330
147
 75
     2
 76
     1
 98
        1
 10
0.0
 20
0.0
450
        0
451
        0
460
0.0
461
0.0
452
        0
462
0.0
453
        0
470

  0
SPLINE
  5
149
330
13D
100
AcDbEntity
  8
レイヤー 1
100
AcDbSpline
210
0.0
220
0.0
230
1.0
 70
     9
 71
     3
 72
    17
 73
    13
 74
     0
 42
0.0000000001
 43
0.0000000001
 40
0.0
 40
0.0
 40
0.0
 40
0.0
 40
1.0
 40
1.0
 40
1.0
 40
2.0
 40
2.0
 40
2.0
 40
3.0
 40
3.0
 40
3.0
 40
4.0
 40
4.0
 40
4.0
 40
4.0
 10
118.6701035944644
 20
-157.2579291056508
 30
0.0
 10
118.8899006864233
 20
-157.3702392184699
 30
0.0
 10
119.1565510769817
 20
-157.4081352688077
 30
0.0
 10
119.28539764813
 20
-157.418815064812
 30
0.0
 10
119.28539764813
 20
-157.418815064812
 30
0.0
 10
119.215806719328
 20
-157.5731553425511
 30
0.0
 10
119.215806719328
 20
-157.5731553425511
 30
0.0
 10
119.0952283773442
 20
-157.5583414319646
 30
0.0
 10
118.8327121013682
 20
-157.5180338147871
 30
0.0
 10
118.5684732776495
 20
-157.3723062757611
 30
0.0
 10
118.5684732776495
 20
-157.3723062757611
 30
0.0
 10
118.6701035944644
 20
-157.2579291056508
 30
0.0
 10
118.6701035944644
 20
-157.2579291056508
 30
0.0
  0
SPLINE
  5
14A
330
13D
100
AcDbEntity
  8
レイヤー 1
100
AcDbSpline
210
0.0
220
0.0
230
1.0
 70
    11
 71
     3
 72
    50
 73
    46
 74
     0
 42
0.0000000001
 43
0.0000000001
 40
0.0
 40
0.0
 40
0.0
 40
0.0
 40
1.0
 40
1.0
 40
1.0
 40
2.0
 40
2.0
 40
2.0
 40
3.0
 40
3.0
 40
3.0
 40
4.0
 40
4.0
 40
4.0
 40
5.0
 40
5.0
 40
5.0
 40
6.0
 40
6.0
 40
6.0
 40
7.0
 40
7.0
 40
7.0
 40
8.0
 40
8.0
 40
8.0
 40
9.0
 40
9.0
 40
9.0
 40
10.0
 40
10.0
 40
10.0
 40
11.0
 40
11.0
 40
11.0
 40
12.0
 40
12.0
 40
12.0
 40
13.0
 40
13.0
 40
13.0
 40
14.0
 40
14.0
 40
14.0
 40
15.0
 40
15.0
 40
15.0
 40
15.0
 10
118.5577934816453
 20
-155.9060736372387
 30
0.0
 10
118.5577934816453
 20
-155.9060736372387
 30
0.0
 10
119.2940103868431
 20
-155.9060736372387
 30
0.0
 10
119.2940103868431
 20
-155.9060736372387
 30
0.0
 10
119.2940103868431
 20
-155.9060736372387
 30
0.0
 10
119.2940103868431
 20
-156.0311306033533
 30
0.0
 10
119.2940103868431
 20
-156.0311306033533
 30
0.0
 10
119.2940103868431
 20
-156.0311306033533
 30
0.0
 10
118.9639702393562
 20
-156.0311306033533
 30
0.0
 10
118.9639702393562
 20
-156.0311306033533
 30
0.0
 10
118.9639702393562
 20
-156.0311306033533
 30
0.0
 10
118.9639702393562
 20
-156.3060492230763
 30
0.0
 10
118.9639702393562
 20
-156.3060492230763
 30
0.0
 10
118.9639702393562
 20
-156.3060492230763
 30
0.0
 10
118.8075629043259
 20
-156.3060492230763
 30
0.0
 10
118.8075629043259
 20
-156.3060492230763
 30
0.0
 10
118.8075629043259
 20
-156.3060492230763
 30
0.0
 10
118.8075629043259
 20
-156.0311306033533
 30
0.0
 10
118.8075629043259
 20
-156.0311306033533
 30
0.0
 10
118.8075629043259
 20
-156.0311306033533
 30
0.0
 10
118.5429795710587
 20
-156.0311306033533
 30
0.0
 10
118.5429795710587
 20
-156.0311306033533
 30
0.0
 10
118.5174858644678
 20
-156.1599771745016
 30
0.0
 10
118.4668429608347
 20
-156.2509276953123
 30
0.0
 10
118.3696912681506
 20
-156.3336099869582
 30
0.0
 10
118.3696912681506
 20
-156.3336099869582
 30
0.0
 10
118.2467013593272
 20
-156.2257784982699
 30
0.0
 10
118.2467013593272
 20
-156.2257784982699
 30
0.0
 10
118.3820936118975
 20
-156.1155354427419
 30
0.0
 10
118.4055202611972
 20
-155.9780761328805
 30
0.0
 10
118.4055202611972
 20
-155.9040065799476
 30
0.0
 10
118.4055202611972
 20
-155.9040065799476
 30
0.0
 10
118.4055202611972
 20
-155.660782838689
 30
0.0
 10
118.4055202611972
 20
-155.660782838689
 30
0.0
 10
118.8750867758368
 20
-155.660782838689
 30
0.0
 10
119.0421739068714
 20
-155.6204752215115
 30
0.0
 10
119.1861788981548
 20
-155.578100547043
 30
0.0
 10
119.1861788981548
 20
-155.578100547043
 30
0.0
 10
119.2454345405011
 20
-155.7159043664529
 30
0.0
 10
119.2454345405011
 20
-155.7159043664529
 30
0.0
 10
118.9746500353605
 20
-155.785495295255
 30
0.0
 10
118.6594237984601
 20
-155.7899739193858
 30
0.0
 10
118.5577934816453
 20
-155.7899739193858
 30
0.0
 10
118.5577934816453
 20
-155.7899739193858
 30
0.0
 10
118.5577934816453
 20
-155.9060736372387
 30
0.0
 10
118.5577934816453
 20
-155.9060736372387
 30
0.0
  0
SPLINE
  5
14B
330
13D
100
AcDbEntity
  8
レイヤー 1
100
AcDbSpline
210
0.0
220
0.0
230
1.0
 70
    11
 71
     3
 72
    17
 73
    13
 74
     0
 42
0.0000000001
 43
0.0000000001
 40
0.0
 40
0.0
 40
0.0
 40
0.0
 40
1.0
 40
1.0
 40
1.0
 40
2.0
 40
2.0
 40
2.0
 40
3.0
 40
3.0
 40
3.0
 40
4.0
 40
4.0
 40
4.0
 40
4.0
 10
118.8940348010056
 20
-156.9764648045059
 30
0.0
 10
118.8940348010056
 20
-156.9764648045059
 30
0.0
 10
117.7347601702191
 20
-156.9764648045059
 30
0.0
 10
117.7347601702191
 20
-156.9764648045059
 30
0.0
 10
117.7347601702191
 20
-156.9764648045059
 30
0.0
 10
117.7347601702191
 20
-157.116335681207
 30
0.0
 10
117.7347601702191
 20
-157.116335681207
 30
0.0
 10
117.7347601702191
 20
-157.116335681207
 30
0.0
 10
118.8940348010056
 20
-157.116335681207
 30
0.0
 10
118.8940348010056
 20
-157.116335681207
 30
0.0
 10
118.8940348010056
 20
-157.116335681207
 30
0.0
 10
118.8940348010056
 20
-156.9764648045059
 30
0.0
 10
118.8940348010056
 20
-156.9764648045059
 30
0.0
  0
SPLINE
  5
14C
330
13D
100
AcDbEntity
  8
レイヤー 1
100
AcDbSpline
210
0.0
220
0.0
230
1.0
 70
    11
 71
     3
 72
    17
 73
    13
 74
     0
 42
0.0000000001
 43
0.0000000001
 40
0.0
 40
0.0
 40
0.0
 40
0.0
 40
1.0
 40
1.0
 40
1.0
 40
2.0
 40
2.0
 40
2.0
 40
3.0
 40
3.0
 40
3.0
 40
4.0
 40
4.0
 40
4.0
 40
4.0
 10
118.8940348010056
 20
-156.7249728340826
 30
0.0
 10
118.8940348010056
 20
-156.7249728340826
 30
0.0
 10
117.7347601702191
 20
-156.7249728340826
 30
0.0
 10
117.7347601702191
 20
-156.7249728340826
 30
0.0
 10
117.7347601702191
 20
-156.7249728340826
 30
0.0
 10
117.7347601702191
 20
-156.8665662585264
 30
0.0
 10
117.7347601702191
 20
-156.8665662585264
 30
0.0
 10
117.7347601702191
 20
-156.8665662585264
 30
0.0
 10
118.8940348010056
 20
-156.8665662585264
 30
0.0
 10
118.8940348010056
 20
-156.8665662585264
 30
0.0
 10
118.8940348010056
 20
-156.8665662585264
 30
0.0
 10
118.8940348010056
 20
-156.7249728340826
 30
0.0
 10
118.8940348010056
 20
-156.7249728340826
 30
0.0
  0
SPLINE
  5
14D
330
13D
100
AcDbEntity
  8
レイヤー 1
100
AcDbSpline
210
0.0
220
0.0
230
1.0
 70
    11
 71
     3
 72
    17
 73
    13
 74
     0
 42
0.0000000001
 43
0.0000000001
 40
0.0
 40
0.0
 40
0.0
 40
0.0
 40
1.0
 40
1.0
 40
1.0
 40
2.0
 40
2.0
 40
2.0
 40
3.0
 40
3.0
 40
3.0
 40
4.0
 40
4.0
 40
4.0
 40
4.0
 10
118.8940348010056
 20
-156.4858832074063
 30
0.0
 10
118.8940348010056
 20
-156.4858832074063
 30
0.0
 10
117.7347601702191
 20
-156.4858832074063
 30
0.0
 10
117.7347601702191
 20
-156.4858832074063
 30
0.0
 10
117.7347601702191
 20
-156.4858832074063
 30
0.0
 10
117.7347601702191
 20
-156.6147297785546
 30
0.0
 10
117.7347601702191
 20
-156.6147297785546
 30
0.0
 10
117.7347601702191
 20
-156.6147297785546
 30
0.0
 10
118.8940348010056
 20
-156.6147297785546
 30
0.0
 10
118.8940348010056
 20
-156.6147297785546
 30
0.0
 10
118.8940348010056
 20
-156.6147297785546
 30
0.0
 10
118.8940348010056
 20
-156.4858832074063
 30
0.0
 10
118.8940348010056
 20
-156.4858832074063
 30
0.0
  0
SPLINE
  5
14E
330
13D
100
AcDbEntity
  8
レイヤー 1
100
AcDbSpline
210
0.0
220
0.0
230
1.0
 70
    11
 71
     3
 72
    32
 73
    28
 74
     0
 42
0.0000000001
 43
0.0000000001
 40
0.0
 40
0.0
 40
0.0
 40
0.0
 40
1.0
 40
1.0
 40
1.0
 40
2.0
 40
2.0
 40
2.0
 40
3.0
 40
3.0
 40
3.0
 40
4.0
 40
4.0
 40
4.0
 40
5.0
 40
5.0
 40
5.0
 40
6.0
 40
6.0
 40
6.0
 40
7.0
 40
7.0
 40
7.0
 40
8.0
 40
8.0
 40
8.0
 40
9.0
 40
9.0
 40
9.0
 40
9.0
 10
117.5656059818933
 20
-157.2517279337773
 30
0.0
 10
117.5656059818933
 20
-157.2517279337773
 30
0.0
 10
117.5656059818933
 20
-156.3525580121271
 30
0.0
 10
117.5656059818933
 20
-156.3525580121271
 30
0.0
 10
117.5656059818933
 20
-156.3525580121271
 30
0.0
 10
119.0635334988799
 20
-156.3525580121271
 30
0.0
 10
119.0635334988799
 20
-156.3525580121271
 30
0.0
 10
119.0635334988799
 20
-156.3525580121271
 30
0.0
 10
119.0635334988799
 20
-157.2517279337773
 30
0.0
 10
119.0635334988799
 20
-157.2517279337773
 30
0.0
 10
119.0635334988799
 20
-157.2517279337773
 30
0.0
 10
117.9190727786799
 20
-157.2517279337773
 30
0.0
 10
117.9190727786799
 20
-157.2517279337773
 30
0.0
 10
117.9190727786799
 20
-157.2517279337773
 30
0.0
 10
118.0248372100771
 20
-157.3616264797568
 30
0.0
 10
118.0248372100771
 20
-157.3616264797568
 30
0.0
 10
117.8598171363336
 20
-157.4567111151497
 30
0.0
 10
117.6947970625902
 20
-157.5180338147871
 30
0.0
 10
117.3985188508587
 20
-157.5690212279688
 30
0.0
 10
117.3985188508587
 20
-157.5690212279688
 30
0.0
 10
117.3330620366389
 20
-157.4167480075208
 30
0.0
 10
117.3330620366389
 20
-157.4167480075208
 30
0.0
 10
117.7116780304679
 20
-157.363693537048
 30
0.0
 10
117.8343234297428
 20
-157.2961696655371
 30
0.0
 10
117.9145941545491
 20
-157.2517279337773
 30
0.0
 10
117.9145941545491
 20
-157.2517279337773
 30
0.0
 10
117.5656059818933
 20
-157.2517279337773
 30
0.0
 10
117.5656059818933
 20
-157.2517279337773
 30
0.0
  0
SPLINE
  5
14F
330
13D
100
AcDbEntity
  8
レイヤー 1
100
AcDbSpline
210
0.0
220
0.0
230
1.0
 70
    11
 71
     3
 72
    50
 73
    46
 74
     0
 42
0.0000000001
 43
0.0000000001
 40
0.0
 40
0.0
 40
0.0
 40
0.0
 40
1.0
 40
1.0
 40
1.0
 40
2.0
 40
2.0
 40
2.0
 40
3.0
 40
3.0
 40
3.0
 40
4.0
 40
4.0
 40
4.0
 40
5.0
 40
5.0
 40
5.0
 40
6.0
 40
6.0
 40
6.0
 40
7.0
 40
7.0
 40
7.0
 40
8.0
 40
8.0
 40
8.0
 40
9.0
 40
9.0
 40
9.0
 40
10.0
 40
10.0
 40
10.0
 40
11.0
 40
11.0
 40
11.0
 40
12.0
 40
12.0
 40
12.0
 40
13.0
 40
13.0
 40
13.0
 40
14.0
 40
14.0
 40
14.0
 40
15.0
 40
15.0
 40
15.0
 40
15.0
 10
117.6503553308305
 20
-155.9060736372387
 30
0.0
 10
117.6503553308305
 20
-155.9060736372387
 30
0.0
 10
118.3018228870912
 20
-155.9060736372387
 30
0.0
 10
118.3018228870912
 20
-155.9060736372387
 30
0.0
 10
118.3018228870912
 20
-155.9060736372387
 30
0.0
 10
118.3018228870912
 20
-156.0311306033533
 30
0.0
 10
118.3018228870912
 20
-156.0311306033533
 30
0.0
 10
118.3018228870912
 20
-156.0311306033533
 30
0.0
 10
118.0248372100771
 20
-156.0311306033533
 30
0.0
 10
118.0248372100771
 20
-156.0311306033533
 30
0.0
 10
118.0248372100771
 20
-156.0311306033533
 30
0.0
 10
118.0248372100771
 20
-156.3060492230763
 30
0.0
 10
118.0248372100771
 20
-156.3060492230763
 30
0.0
 10
118.0248372100771
 20
-156.3060492230763
 30
0.0
 10
117.8639512509159
 20
-156.3060492230763
 30
0.0
 10
117.8639512509159
 20
-156.3060492230763
 30
0.0
 10
117.8639512509159
 20
-156.3060492230763
 30
0.0
 10
117.8639512509159
 20
-156.0311306033533
 30
0.0
 10
117.8639512509159
 20
-156.0311306033533
 30
0.0
 10
117.8639512509159
 20
-156.0311306033533
 30
0.0
 10
117.6438096494085
 20
-156.0311306033533
 30
0.0
 10
117.6438096494085
 20
-156.0311306033533
 30
0.0
 10
117.6334743629527
 20
-156.1007215321553
 30
0.0
 10
117.6079806563619
 20
-156.295369427072
 30
0.0
 10
117.4536403786227
 20
-156.4455755902289
 30
0.0
 10
117.4536403786227
 20
-156.4455755902289
 30
0.0
 10
117.3309949793478
 20
-156.3356770442494
 30
0.0
 10
117.3309949793478
 20
-156.3356770442494
 30
0.0
 10
117.4515733213315
 20
-156.2361137847257
 30
0.0
 10
117.4936034862516
 20
-156.0311306033533
 30
0.0
 10
117.4936034862516
 20
-155.9484483117073
 30
0.0
 10
117.4936034862516
 20
-155.9484483117073
 30
0.0
 10
117.4936034862516
 20
-155.6628498959801
 30
0.0
 10
117.4936034862516
 20
-155.6628498959801
 30
0.0
 10
117.9783284210262
 20
-155.6628498959801
 30
0.0
 10
118.1326686987654
 20
-155.6163411069293
 30
0.0
 10
118.2277533341583
 20
-155.5887803430472
 30
0.0
 10
118.2277533341583
 20
-155.5887803430472
 30
0.0
 10
118.2808078046312
 20
-155.7283067101999
 30
0.0
 10
118.2808078046312
 20
-155.7283067101999
 30
0.0
 10
118.071345999128
 20
-155.7772270660904
 30
0.0
 10
117.9083929826757
 20
-155.7875623525461
 30
0.0
 10
117.6503553308305
 20
-155.792040976677
 30
0.0
 10
117.6503553308305
 20
-155.792040976677
 30
0.0
 10
117.6503553308305
 20
-155.9060736372387
 30
0.0
 10
117.6503553308305
 20
-155.9060736372387
 30
0.0
  0
HATCH
  5
150
330
13D
100
AcDbEntity
  8
レイヤー 1
 62
    12
420
 15007762
440
 33554687
100
AcDbHatch
 10
0.0
 20
0.0
 30
0.0
210
0.0
220
0.0
230
1.0
  2
SOLID
 70
     1
 71
     1
 91
        7
 92
        1
 93
        1
 72
     4
 94
        3
 73
     0
 74
     0
 95
       17
 96
       13
 40
0.0
 40
0.0
 40
0.0
 40
0.0
 40
1.0
 40
1.0
 40
1.0
 40
2.0
 40
2.0
 40
2.0
 40
3.0
 40
3.0
 40
3.0
 40
4.0
 40
4.0
 40
4.0
 40
4.0
 10
118.6701035944644
 20
-157.2579291056508
 10
118.8899006864233
 20
-157.3702392184699
 10
119.1565510769817
 20
-157.4081352688077
 10
119.28539764813
 20
-157.418815064812
 10
119.28539764813
 20
-157.418815064812
 10
119.215806719328
 20
-157.5731553425511
 10
119.215806719328
 20
-157.5731553425511
 10
119.0952283773442
 20
-157.5583414319646
 10
118.8327121013682
 20
-157.5180338147871
 10
118.5684732776495
 20
-157.3723062757611
 10
118.5684732776495
 20
-157.3723062757611
 10
118.6701035944644
 20
-157.2579291056508
 10
118.6701035944644
 20
-157.2579291056508
 97
        0
 97
        1
330
149
 92
        1
 93
        1
 72
     4
 94
        3
 73
     0
 74
     0
 95
       50
 96
       46
 40
0.0
 40
0.0
 40
0.0
 40
0.0
 40
1.0
 40
1.0
 40
1.0
 40
2.0
 40
2.0
 40
2.0
 40
3.0
 40
3.0
 40
3.0
 40
4.0
 40
4.0
 40
4.0
 40
5.0
 40
5.0
 40
5.0
 40
6.0
 40
6.0
 40
6.0
 40
7.0
 40
7.0
 40
7.0
 40
8.0
 40
8.0
 40
8.0
 40
9.0
 40
9.0
 40
9.0
 40
10.0
 40
10.0
 40
10.0
 40
11.0
 40
11.0
 40
11.0
 40
12.0
 40
12.0
 40
12.0
 40
13.0
 40
13.0
 40
13.0
 40
14.0
 40
14.0
 40
14.0
 40
15.0
 40
15.0
 40
15.0
 40
15.0
 10
118.5577934816453
 20
-155.9060736372387
 10
118.5577934816453
 20
-155.9060736372387
 10
119.2940103868431
 20
-155.9060736372387
 10
119.2940103868431
 20
-155.9060736372387
 10
119.2940103868431
 20
-155.9060736372387
 10
119.2940103868431
 20
-156.0311306033533
 10
119.2940103868431
 20
-156.0311306033533
 10
119.2940103868431
 20
-156.0311306033533
 10
118.9639702393562
 20
-156.0311306033533
 10
118.9639702393562
 20
-156.0311306033533
 10
118.9639702393562
 20
-156.0311306033533
 10
118.9639702393562
 20
-156.3060492230763
 10
118.9639702393562
 20
-156.3060492230763
 10
118.9639702393562
 20
-156.3060492230763
 10
118.8075629043259
 20
-156.3060492230763
 10
118.8075629043259
 20
-156.3060492230763
 10
118.8075629043259
 20
-156.3060492230763
 10
118.8075629043259
 20
-156.0311306033533
 10
118.8075629043259
 20
-156.0311306033533
 10
118.8075629043259
 20
-156.0311306033533
 10
118.5429795710587
 20
-156.0311306033533
 10
118.5429795710587
 20
-156.0311306033533
 10
118.5174858644678
 20
-156.1599771745016
 10
118.4668429608347
 20
-156.2509276953123
 10
118.3696912681506
 20
-156.3336099869582
 10
118.3696912681506
 20
-156.3336099869582
 10
118.2467013593272
 20
-156.2257784982699
 10
118.2467013593272
 20
-156.2257784982699
 10
118.3820936118975
 20
-156.1155354427419
 10
118.4055202611972
 20
-155.9780761328805
 10
118.4055202611972
 20
-155.9040065799476
 10
118.4055202611972
 20
-155.9040065799476
 10
118.4055202611972
 20
-155.660782838689
 10
118.4055202611972
 20
-155.660782838689
 10
118.8750867758368
 20
-155.660782838689
 10
119.0421739068714
 20
-155.6204752215115
 10
119.1861788981548
 20
-155.578100547043
 10
119.1861788981548
 20
-155.578100547043
 10
119.2454345405011
 20
-155.7159043664529
 10
119.2454345405011
 20
-155.7159043664529
 10
118.9746500353605
 20
-155.785495295255
 10
118.6594237984601
 20
-155.7899739193858
 10
118.5577934816453
 20
-155.7899739193858
 10
118.5577934816453
 20
-155.7899739193858
 10
118.5577934816453
 20
-155.9060736372387
 10
118.5577934816453
 20
-155.9060736372387
 97
        0
 97
        1
330
14A
 92
        1
 93
        1
 72
     4
 94
        3
 73
     0
 74
     0
 95
       17
 96
       13
 40
0.0
 40
0.0
 40
0.0
 40
0.0
 40
1.0
 40
1.0
 40
1.0
 40
2.0
 40
2.0
 40
2.0
 40
3.0
 40
3.0
 40
3.0
 40
4.0
 40
4.0
 40
4.0
 40
4.0
 10
118.8940348010056
 20
-156.9764648045059
 10
118.8940348010056
 20
-156.9764648045059
 10
117.7347601702191
 20
-156.9764648045059
 10
117.7347601702191
 20
-156.9764648045059
 10
117.7347601702191
 20
-156.9764648045059
 10
117.7347601702191
 20
-157.116335681207
 10
117.7347601702191
 20
-157.116335681207
 10
117.7347601702191
 20
-157.116335681207
 10
118.8940348010056
 20
-157.116335681207
 10
118.8940348010056
 20
-157.116335681207
 10
118.8940348010056
 20
-157.116335681207
 10
118.8940348010056
 20
-156.9764648045059
 10
118.8940348010056
 20
-156.9764648045059
 97
        0
 97
        1
330
14B
 92
        1
 93
        1
 72
     4
 94
        3
 73
     0
 74
     0
 95
       17
 96
       13
 40
0.0
 40
0.0
 40
0.0
 40
0.0
 40
1.0
 40
1.0
 40
1.0
 40
2.0
 40
2.0
 40
2.0
 40
3.0
 40
3.0
 40
3.0
 40
4.0
 40
4.0
 40
4.0
 40
4.0
 10
118.8940348010056
 20
-156.7249728340826
 10
118.8940348010056
 20
-156.7249728340826
 10
117.7347601702191
 20
-156.7249728340826
 10
117.7347601702191
 20
-156.7249728340826
 10
117.7347601702191
 20
-156.7249728340826
 10
117.7347601702191
 20
-156.8665662585264
 10
117.7347601702191
 20
-156.8665662585264
 10
117.7347601702191
 20
-156.8665662585264
 10
118.8940348010056
 20
-156.8665662585264
 10
118.8940348010056
 20
-156.8665662585264
 10
118.8940348010056
 20
-156.8665662585264
 10
118.8940348010056
 20
-156.7249728340826
 10
118.8940348010056
 20
-156.7249728340826
 97
        0
 97
        1
330
14C
 92
        1
 93
        1
 72
     4
 94
        3
 73
     0
 74
     0
 95
       17
 96
       13
 40
0.0
 40
0.0
 40
0.0
 40
0.0
 40
1.0
 40
1.0
 40
1.0
 40
2.0
 40
2.0
 40
2.0
 40
3.0
 40
3.0
 40
3.0
 40
4.0
 40
4.0
 40
4.0
 40
4.0
 10
118.8940348010056
 20
-156.4858832074063
 10
118.8940348010056
 20
-156.4858832074063
 10
117.7347601702191
 20
-156.4858832074063
 10
117.7347601702191
 20
-156.4858832074063
 10
117.7347601702191
 20
-156.4858832074063
 10
117.7347601702191
 20
-156.6147297785546
 10
117.7347601702191
 20
-156.6147297785546
 10
117.7347601702191
 20
-156.6147297785546
 10
118.8940348010056
 20
-156.6147297785546
 10
118.8940348010056
 20
-156.6147297785546
 10
118.8940348010056
 20
-156.6147297785546
 10
118.8940348010056
 20
-156.4858832074063
 10
118.8940348010056
 20
-156.4858832074063
 97
        0
 97
        1
330
14D
 92
        1
 93
        1
 72
     4
 94
        3
 73
     0
 74
     0
 95
       32
 96
       28
 40
0.0
 40
0.0
 40
0.0
 40
0.0
 40
1.0
 40
1.0
 40
1.0
 40
2.0
 40
2.0
 40
2.0
 40
3.0
 40
3.0
 40
3.0
 40
4.0
 40
4.0
 40
4.0
 40
5.0
 40
5.0
 40
5.0
 40
6.0
 40
6.0
 40
6.0
 40
7.0
 40
7.0
 40
7.0
 40
8.0
 40
8.0
 40
8.0
 40
9.0
 40
9.0
 40
9.0
 40
9.0
 10
117.5656059818933
 20
-157.2517279337773
 10
117.5656059818933
 20
-157.2517279337773
 10
117.5656059818933
 20
-156.3525580121271
 10
117.5656059818933
 20
-156.3525580121271
 10
117.5656059818933
 20
-156.3525580121271
 10
119.0635334988799
 20
-156.3525580121271
 10
119.0635334988799
 20
-156.3525580121271
 10
119.0635334988799
 20
-156.3525580121271
 10
119.0635334988799
 20
-157.2517279337773
 10
119.0635334988799
 20
-157.2517279337773
 10
119.0635334988799
 20
-157.2517279337773
 10
117.9190727786799
 20
-157.2517279337773
 10
117.9190727786799
 20
-157.2517279337773
 10
117.9190727786799
 20
-157.2517279337773
 10
118.0248372100771
 20
-157.3616264797568
 10
118.0248372100771
 20
-157.3616264797568
 10
117.8598171363336
 20
-157.4567111151497
 10
117.6947970625902
 20
-157.5180338147871
 10
117.3985188508587
 20
-157.5690212279688
 10
117.3985188508587
 20
-157.5690212279688
 10
117.3330620366389
 20
-157.4167480075208
 10
117.3330620366389
 20
-157.4167480075208
 10
117.7116780304679
 20
-157.363693537048
 10
117.8343234297428
 20
-157.2961696655371
 10
117.9145941545491
 20
-157.2517279337773
 10
117.9145941545491
 20
-157.2517279337773
 10
117.5656059818933
 20
-157.2517279337773
 10
117.5656059818933
 20
-157.2517279337773
 97
        0
 97
        1
330
14E
 92
        1
 93
        1
 72
     4
 94
        3
 73
     0
 74
     0
 95
       50
 96
       46
 40
0.0
 40
0.0
 40
0.0
 40
0.0
 40
1.0
 40
1.0
 40
1.0
 40
2.0
 40
2.0
 40
2.0
 40
3.0
 40
3.0
 40
3.0
 40
4.0
 40
4.0
 40
4.0
 40
5.0
 40
5.0
 40
5.0
 40
6.0
 40
6.0
 40
6.0
 40
7.0
 40
7.0
 40
7.0
 40
8.0
 40
8.0
 40
8.0
 40
9.0
 40
9.0
 40
9.0
 40
10.0
 40
10.0
 40
10.0
 40
11.0
 40
11.0
 40
11.0
 40
12.0
 40
12.0
 40
12.0
 40
13.0
 40
13.0
 40
13.0
 40
14.0
 40
14.0
 40
14.0
 40
15.0
 40
15.0
 40
15.0
 40
15.0
 10
117.6503553308305
 20
-155.9060736372387
 10
117.6503553308305
 20
-155.9060736372387
 10
118.3018228870912
 20
-155.9060736372387
 10
118.3018228870912
 20
-155.9060736372387
 10
118.3018228870912
 20
-155.9060736372387
 10
118.3018228870912
 20
-156.0311306033533
 10
118.3018228870912
 20
-156.0311306033533
 10
118.3018228870912
 20
-156.0311306033533
 10
118.0248372100771
 20
-156.0311306033533
 10
118.0248372100771
 20
-156.0311306033533
 10
118.0248372100771
 20
-156.0311306033533
 10
118.0248372100771
 20
-156.3060492230763
 10
118.0248372100771
 20
-156.3060492230763
 10
118.0248372100771
 20
-156.3060492230763
 10
117.8639512509159
 20
-156.3060492230763
 10
117.8639512509159
 20
-156.3060492230763
 10
117.8639512509159
 20
-156.3060492230763
 10
117.8639512509159
 20
-156.0311306033533
 10
117.8639512509159
 20
-156.0311306033533
 10
117.8639512509159
 20
-156.0311306033533
 10
117.6438096494085
 20
-156.0311306033533
 10
117.6438096494085
 20
-156.0311306033533
 10
117.6334743629527
 20
-156.1007215321553
 10
117.6079806563619
 20
-156.295369427072
 10
117.4536403786227
 20
-156.4455755902289
 10
117.4536403786227
 20
-156.4455755902289
 10
117.3309949793478
 20
-156.3356770442494
 10
117.3309949793478
 20
-156.3356770442494
 10
117.4515733213315
 20
-156.2361137847257
 10
117.4936034862516
 20
-156.0311306033533
 10
117.4936034862516
 20
-155.9484483117073
 10
117.4936034862516
 20
-155.9484483117073
 10
117.4936034862516
 20
-155.6628498959801
 10
117.4936034862516
 20
-155.6628498959801
 10
117.9783284210262
 20
-155.6628498959801
 10
118.1326686987654
 20
-155.6163411069293
 10
118.2277533341583
 20
-155.5887803430472
 10
118.2277533341583
 20
-155.5887803430472
 10
118.2808078046312
 20
-155.7283067101999
 10
118.2808078046312
 20
-155.7283067101999
 10
118.071345999128
 20
-155.7772270660904
 10
117.9083929826757
 20
-155.7875623525461
 10
117.6503553308305
 20
-155.792040976677
 10
117.6503553308305
 20
-155.792040976677
 10
117.6503553308305
 20
-155.9060736372387
 10
117.6503553308305
 20
-155.9060736372387
 97
        0
 97
        1
330
14F
 75
     2
 76
     1
 98
        1
 10
0.0
 20
0.0
450
        0
451
        0
460
0.0
461
0.0
452
        0
462
0.0
453
        0
470

  0
ENDBLK
  5
140
330
13D
100
AcDbEntity
  8
0
100
AcDbBlockEnd
  0
ENDSEC
  0
SECTION
  2
ENTITIES
  0
LINE
  5
79
330
70
100
AcDbEntity
  8
レイヤー 1
 62
    18
420
        0
370
    25
100
AcDbLine
 10
112.764464615217
 20
-153.1580671775435
 30
0.0
 11
104.7646289859768
 21
-153.1580671775435
 31
0.0
  0
LINE
  5
7A
330
70
100
AcDbEntity
  8
レイヤー 1
 62
    18
420
        0
370
    25
100
AcDbLine
 10
84.76290620878089
 20
-146.6578544013911
 30
0.0
 11
84.76290620878089
 21
-147.1580580123773
 31
0.0
  0
LINE
  5
7B
330
70
100
AcDbEntity
  8
レイヤー 1
 62
    18
420
        0
370
    25
100
AcDbLine
 10
105.7003014621055
 20
-147.1580580123773
 30
0.0
 11
84.76290620878089
 21
-147.1580580123773
 31
0.0
  0
LINE
  5
7C
330
70
100
AcDbEntity
  8
レイヤー 1
 62
    18
420
        0
370
    25
100
AcDbLine
 10
84.76290620878089
 20
-146.6578544013911
 30
0.0
 11
85.27690343087472
 21
-147.0399127346285
 31
0.0
  0
LINE
  5
7D
330
70
100
AcDbEntity
  8
レイヤー 1
 62
    18
420
        0
370
    25
100
AcDbLine
 10
85.27690343087472
 20
-147.0399127346285
 30
0.0
 11
85.76232565297502
 21
-146.6223649569556
 31
0.0
  0
LINE
  5
7E
330
70
100
AcDbEntity
  8
レイヤー 1
 62
    18
420
        0
370
    25
100
AcDbLine
 10
86.27632287506918
 20
-147.004423290193
 30
0.0
 11
86.76192148605901
 21
-146.5865227347423
 31
0.0
  0
LINE
  5
7F
330
70
100
AcDbEntity
  8
レイヤー 1
 62
    18
420
        0
370
    25
100
AcDbLine
 10
85.76232565297502
 20
-146.6223649569556
 30
0.0
 11
86.27632287506918
 21
-147.004423290193
 31
0.0
  0
LINE
  5
80
330
70
100
AcDbEntity
  8
レイヤー 1
 62
    18
420
        0
370
    25
100
AcDbLine
 10
86.76192148605901
 20
-146.5865227347423
 30
0.0
 11
87.27591870815251
 21
-146.9685810679797
 31
0.0
  0
LINE
  5
81
330
70
100
AcDbEntity
  8
レイヤー 1
 62
    18
420
        0
370
    25
100
AcDbLine
 10
87.27591870815251
 20
-146.9685810679797
 30
0.0
 11
87.7609881524757
 21
-146.5510332903062
 31
0.0
  0
LINE
  5
82
330
70
100
AcDbEntity
  8
レイヤー 1
 62
    18
420
        0
370
    25
100
AcDbLine
 10
87.7609881524757
 20
-146.5510332903062
 30
0.0
 11
88.27502065234737
 21
-146.9327741235446
 31
0.0
  0
LINE
  5
83
330
70
100
AcDbEntity
  8
レイヤー 1
 62
    18
420
        0
370
    25
100
AcDbLine
 10
88.27502065234737
 20
-146.9327741235446
 30
0.0
 11
88.76076037444793
 21
-146.5152263458711
 31
0.0
  0
LINE
  5
84
330
70
100
AcDbEntity
  8
レイヤー 1
 62
    18
420
        0
370
    25
100
AcDbLine
 10
88.76076037444793
 20
-146.5152263458711
 30
0.0
 11
89.27475759654177
 21
-146.8969319013314
 31
0.0
  0
LINE
  5
85
330
70
100
AcDbEntity
  8
レイヤー 1
 62
    18
420
        0
370
    25
100
AcDbLine
 10
89.27475759654177
 20
-146.8969319013314
 30
0.0
 11
89.75982704086494
 21
-146.4793841236579
 31
0.0
  0
LINE
  5
86
330
70
100
AcDbEntity
  8
レイヤー 1
 62
    18
420
        0
370
    25
100
AcDbLine
 10
89.75982704086494
 20
-146.4793841236579
 30
0.0
 11
90.27385954073629
 21
-146.8614424568952
 31
0.0
  0
LINE
  5
87
330
70
100
AcDbEntity
  8
レイヤー 1
 62
    18
420
        0
370
    25
100
AcDbLine
 10
90.27385954073629
 20
-146.8614424568952
 30
0.0
 11
90.75959926283715
 21
-146.4438946792224
 31
0.0
  0
LINE
  5
88
330
70
100
AcDbEntity
  8
レイヤー 1
 62
    18
420
        0
370
    25
100
AcDbLine
 10
90.75959926283715
 20
-146.4438946792224
 30
0.0
 11
91.27292620715332
 21
-146.8259530124598
 31
0.0
  0
LINE
  5
89
330
70
100
AcDbEntity
  8
レイヤー 1
 62
    18
420
        0
370
    25
100
AcDbLine
 10
91.27292620715332
 20
-146.8259530124598
 30
0.0
 11
91.75870120703201
 21
-146.4080877347867
 31
0.0
  0
LINE
  5
8A
330
70
100
AcDbEntity
  8
レイヤー 1
 62
    18
420
        0
370
    25
100
AcDbLine
 10
92.27269842912585
 20
-146.7901460680247
 30
0.0
 11
92.75776787344904
 21
-146.3725982903512
 31
0.0
  0
LINE
  5
8B
330
70
100
AcDbEntity
  8
レイヤー 1
 62
    18
420
        0
370
    25
100
AcDbLine
 10
91.75870120703201
 20
-146.4080877347867
 30
0.0
 11
92.27269842912585
 21
-146.7901460680247
 31
0.0
  0
LINE
  5
8C
330
70
100
AcDbEntity
  8
レイヤー 1
 62
    18
420
        0
370
    25
100
AcDbLine
 10
92.75776787344904
 20
-146.3725982903512
 30
0.0
 11
93.27176509554256
 21
-146.7543038458114
 31
0.0
  0
LINE
  5
8D
330
70
100
AcDbEntity
  8
レイヤー 1
 62
    18
420
        0
370
    25
100
AcDbLine
 10
93.27176509554256
 20
-146.7543038458114
 30
0.0
 11
93.75754009542093
 21
-146.3367560681379
 31
0.0
  0
LINE
  5
8E
330
70
100
AcDbEntity
  8
レイヤー 1
 62
    18
420
        0
370
    25
100
AcDbLine
 10
94.27153731751477
 20
-146.7184616235982
 30
0.0
 11
94.75660676183796
 21
-146.3009491237022
 31
0.0
  0
LINE
  5
8F
330
70
100
AcDbEntity
  8
レイヤー 1
 62
    18
420
        0
370
    25
100
AcDbLine
 10
93.75754009542093
 20
-146.3367560681379
 30
0.0
 11
94.27153731751477
 21
-146.7184616235982
 31
0.0
  0
LINE
  5
90
330
70
100
AcDbEntity
  8
レイヤー 1
 62
    18
420
        0
370
    25
100
AcDbLine
 10
95.2706039839318
 20
-146.6830074569402
 30
0.0
 11
95.75637898381049
 21
-146.2654596792667
 31
0.0
  0
LINE
  5
91
330
70
100
AcDbEntity
  8
レイヤー 1
 62
    18
420
        0
370
    25
100
AcDbLine
 10
94.75660676183796
 20
-146.3009491237022
 30
0.0
 11
95.2706039839318
 21
-146.6830074569402
 31
0.0
  0
LINE
  5
92
330
70
100
AcDbEntity
  8
レイヤー 1
 62
    18
420
        0
370
    25
100
AcDbLine
 10
95.75637898381049
 20
-146.2654596792667
 30
0.0
 11
96.27037620590401
 21
-146.6475180125047
 31
0.0
  0
LINE
  5
93
330
70
100
AcDbEntity
  8
レイヤー 1
 62
    18
420
        0
370
    25
100
AcDbLine
 10
96.27037620590401
 20
-146.6475180125047
 30
0.0
 11
96.75544565022718
 21
-146.2296174570535
 31
0.0
  0
LINE
  5
94
330
70
100
AcDbEntity
  8
レイヤー 1
 62
    18
420
        0
370
    25
100
AcDbLine
 10
96.75544565022718
 20
-146.2296174570535
 30
0.0
 11
97.26947723274967
 21
-146.6116757902915
 31
0.0
  0
LINE
  5
95
330
70
100
AcDbEntity
  8
レイヤー 1
 62
    18
420
        0
370
    25
100
AcDbLine
 10
97.26947723274967
 20
-146.6116757902915
 30
0.0
 11
97.75454666481897
 21
-146.194128012618
 31
0.0
  0
LINE
  5
96
330
70
100
AcDbEntity
  8
レイヤー 1
 62
    18
420
        0
370
    25
100
AcDbLine
 10
97.75454666481897
 20
-146.194128012618
 30
0.0
 11
98.26854387392803
 21
-146.5758335680782
 31
0.0
  0
LINE
  5
97
330
70
100
AcDbEntity
  8
レイヤー 1
 62
    18
420
        0
370
    25
100
AcDbLine
 10
98.26854387392803
 20
-146.5758335680782
 30
0.0
 11
98.75428453861644
 21
-146.1583210681822
 31
0.0
  0
LINE
  5
98
330
70
100
AcDbEntity
  8
レイヤー 1
 62
    18
420
        0
370
    25
100
AcDbLine
 10
98.75428453861644
 20
-146.1583210681822
 30
0.0
 11
99.26831607064393
 21
-146.5400266236425
 31
0.0
  0
LINE
  5
99
330
70
100
AcDbEntity
  8
レイヤー 1
 62
    18
420
        0
370
    25
100
AcDbLine
 10
99.26831607064393
 20
-146.5400266236425
 30
0.0
 11
99.75338550271324
 21
-146.122478845969
 31
0.0
  0
LINE
  5
9A
330
70
100
AcDbEntity
  8
レイヤー 1
 62
    18
420
        0
370
    25
100
AcDbLine
 10
99.75338550271324
 20
-146.122478845969
 30
0.0
 11
100.2673827118222
 21
-146.504537179207
 31
0.0
  0
LINE
  5
9B
330
70
100
AcDbEntity
  8
レイヤー 1
 62
    18
420
        0
370
    25
100
AcDbLine
 10
100.2673827118222
 20
-146.504537179207
 30
0.0
 11
100.7531576994291
 21
-146.0869894015335
 31
0.0
  0
LINE
  5
9C
330
70
100
AcDbEntity
  8
レイヤー 1
 62
    18
420
        0
370
    25
100
AcDbLine
 10
100.7531576994291
 20
-146.0869894015335
 30
0.0
 11
101.2671549085382
 21
-146.4690477347715
 31
0.0
  0
LINE
  5
9D
330
70
100
AcDbEntity
  8
レイヤー 1
 62
    18
420
        0
370
    25
100
AcDbLine
 10
101.2671549085382
 20
-146.4690477347715
 30
0.0
 11
101.7522243406075
 21
-146.0511471793203
 31
0.0
  0
LINE
  5
9E
330
70
100
AcDbEntity
  8
レイヤー 1
 62
    18
420
        0
370
    25
100
AcDbLine
 10
101.7522243406075
 20
-146.0511471793203
 30
0.0
 11
102.2662215497165
 21
-146.4332407903358
 31
0.0
  0
LINE
  5
9F
330
70
100
AcDbEntity
  8
レイヤー 1
 62
    18
420
        0
370
    25
100
AcDbLine
 10
102.2662215497165
 20
-146.4332407903358
 30
0.0
 11
102.7519965373234
 21
-146.0156930126626
 31
0.0
  0
LINE
  5
A0
330
70
100
AcDbEntity
  8
レイヤー 1
 62
    18
420
        0
370
    25
100
AcDbLine
 10
102.7519965373234
 20
-146.0156930126626
 30
0.0
 11
103.2659937464324
 21
-146.3973985681225
 31
0.0
  0
LINE
  5
A1
330
70
100
AcDbEntity
  8
レイヤー 1
 62
    18
420
        0
370
    25
100
AcDbLine
 10
103.2659937464324
 20
-146.3973985681225
 30
0.0
 11
103.7510631785017
 21
-145.979850790449
 31
0.0
  0
LINE
  5
A2
330
70
100
AcDbEntity
  8
レイヤー 1
 62
    18
420
        0
370
    25
100
AcDbLine
 10
103.7510631785017
 20
-145.979850790449
 30
0.0
 11
104.2650603876111
 21
-146.3615563459093
 31
0.0
  0
LINE
  5
A3
330
70
100
AcDbEntity
  8
レイヤー 1
 62
    18
420
        0
370
    25
100
AcDbLine
 10
104.2650603876111
 20
-146.3615563459093
 30
0.0
 11
104.7508353752179
 21
-145.9440085682358
 31
0.0
  0
LINE
  5
A4
330
70
100
AcDbEntity
  8
レイヤー 1
 62
    18
420
        0
370
    25
100
AcDbLine
 10
104.8248325844369
 20
-145.8957838460259
 30
0.0
 11
105.7643659049156
 21
-145.8957838460259
 31
0.0
  0
LINE
  5
A5
330
70
100
AcDbEntity
  8
レイヤー 1
 62
    18
420
        0
370
    25
100
AcDbLine
 10
105.7643659049156
 20
-145.8957838460259
 30
0.0
 11
105.7643659049156
 21
-152.1579421777938
 31
0.0
  0
LINE
  5
A6
330
70
100
AcDbEntity
  8
レイヤー 1
 62
    18
420
        0
370
    25
100
AcDbLine
 10
104.7646289859768
 20
-147.1580580123773
 30
0.0
 11
104.7646289859768
 21
-153.1580671775435
 31
0.0
  0
LINE
  5
A7
330
70
100
AcDbEntity
  8
レイヤー 1
 62
    18
420
        0
370
    25
100
AcDbLine
 10
111.7646924185011
 20
-152.1579421777938
 30
0.0
 11
105.7643659049156
 21
-152.1579421777938
 31
0.0
  0
LINE
  5
A8
330
70
100
AcDbEntity
  8
レイヤー 1
 62
    18
420
        0
370
    25
100
AcDbLine
 10
122.7717821376869
 20
-146.3009491237022
 30
0.0
 11
122.2584567549623
 21
-146.6830074569402
 31
0.0
  0
LINE
  5
A9
330
70
100
AcDbEntity
  8
レイヤー 1
 62
    18
420
        0
370
    25
100
AcDbLine
 10
127.7692320101913
 20
-146.4793841236579
 30
0.0
 11
127.2552348010822
 21
-146.8614424568952
 31
0.0
  0
LINE
  5
AA
330
70
100
AcDbEntity
  8
レイヤー 1
 62
    18
420
        0
370
    25
100
AcDbLine
 10
123.2575571252937
 20
-146.7184616235982
 30
0.0
 11
122.7717821376869
 21
-146.3009491237022
 31
0.0
  0
LINE
  5
AB
330
70
100
AcDbEntity
  8
レイヤー 1
 62
    18
420
        0
370
    25
100
AcDbLine
 10
124.2566237664721
 20
-146.7543038458114
 30
0.0
 11
123.7715543344028
 21
-146.3367560681379
 31
0.0
  0
LINE
  5
AC
330
70
100
AcDbEntity
  8
レイヤー 1
 62
    18
420
        0
370
    25
100
AcDbLine
 10
122.2584567549623
 20
-146.6830074569402
 30
0.0
 11
121.7727154965085
 21
-146.2654596792667
 31
0.0
  0
LINE
  5
AD
330
70
100
AcDbEntity
  8
レイヤー 1
 62
    18
420
        0
370
    25
100
AcDbLine
 10
123.7715543344028
 20
-146.3367560681379
 30
0.0
 11
123.2575571252937
 21
-146.7184616235982
 31
0.0
  0
LINE
  5
AE
330
70
100
AcDbEntity
  8
レイヤー 1
 62
    18
420
        0
370
    25
100
AcDbLine
 10
131.7662394082192
 20
-146.6223649569556
 30
0.0
 11
131.2522421991101
 21
-147.004423290193
 31
0.0
  0
LINE
  5
AF
330
70
100
AcDbEntity
  8
レイヤー 1
 62
    18
420
        0
370
    25
100
AcDbLine
 10
124.7706209755811
 20
-146.3725982903512
 30
0.0
 11
124.2566237664721
 21
-146.7543038458114
 31
0.0
  0
LINE
  5
B0
330
70
100
AcDbEntity
  8
レイヤー 1
 62
    18
420
        0
370
    25
100
AcDbLine
 10
125.7703931722971
 20
-146.4080877347867
 30
0.0
 11
125.2563959631886
 21
-146.7901460680247
 31
0.0
  0
LINE
  5
B1
330
70
100
AcDbEntity
  8
レイヤー 1
 62
    18
420
        0
370
    25
100
AcDbLine
 10
111.7646924185011
 20
-145.8957838460259
 30
0.0
 11
111.7646924185011
 21
-152.1579421777938
 31
0.0
  0
LINE
  5
B2
330
70
100
AcDbEntity
  8
レイヤー 1
 62
    18
420
        0
370
    25
100
AcDbLine
 10
125.2563959631886
 20
-146.7901460680247
 30
0.0
 11
124.7706209755811
 21
-146.3725982903512
 31
0.0
  0
LINE
  5
B3
330
70
100
AcDbEntity
  8
レイヤー 1
 62
    18
420
        0
370
    25
100
AcDbLine
 10
126.2554626043663
 20
-146.8259530124598
 30
0.0
 11
125.7703931722971
 21
-146.4080877347867
 31
0.0
  0
LINE
  5
B4
330
70
100
AcDbEntity
  8
レイヤー 1
 62
    18
420
        0
370
    25
100
AcDbLine
 10
131.2522421991101
 20
-147.004423290193
 30
0.0
 11
130.7671727670408
 21
-146.5865227347423
 31
0.0
  0
LINE
  5
B5
330
70
100
AcDbEntity
  8
レイヤー 1
 62
    18
420
        0
370
    25
100
AcDbLine
 10
126.7694598134754
 20
-146.4438946792224
 30
0.0
 11
126.2554626043663
 21
-146.8259530124598
 31
0.0
  0
LINE
  5
B6
330
70
100
AcDbEntity
  8
レイヤー 1
 62
    18
420
        0
370
    25
100
AcDbLine
 10
127.2552348010822
 20
-146.8614424568952
 30
0.0
 11
126.7694598134754
 21
-146.4438946792224
 31
0.0
  0
LINE
  5
B7
330
70
100
AcDbEntity
  8
レイヤー 1
 62
    18
420
        0
370
    25
100
AcDbLine
 10
132.2519791180491
 20
-147.0399127346285
 30
0.0
 11
131.7662394082192
 21
-146.6223649569556
 31
0.0
  0
LINE
  5
B8
330
70
100
AcDbEntity
  8
レイヤー 1
 62
    18
420
        0
370
    25
100
AcDbLine
 10
128.7682986513697
 20
-146.5152263458711
 30
0.0
 11
128.2543014422606
 21
-146.8969319013314
 31
0.0
  0
LINE
  5
B9
330
70
100
AcDbEntity
  8
レイヤー 1
 62
    18
420
        0
370
    25
100
AcDbLine
 10
129.7674005703249
 20
-146.5510332903062
 30
0.0
 11
129.2533680834389
 21
-146.9327741235446
 31
0.0
  0
LINE
  5
BA
330
70
100
AcDbEntity
  8
レイヤー 1
 62
    18
420
        0
370
    25
100
AcDbLine
 10
129.2533680834389
 20
-146.9327741235446
 30
0.0
 11
128.7682986513697
 21
-146.5152263458711
 31
0.0
  0
LINE
  5
BB
330
70
100
AcDbEntity
  8
レイヤー 1
 62
    18
420
        0
370
    25
100
AcDbLine
 10
132.7660116049351
 20
-146.6578544013911
 30
0.0
 11
132.2519791180491
 21
-147.0399127346285
 31
0.0
  0
LINE
  5
BC
330
70
100
AcDbEntity
  8
レイヤー 1
 62
    18
420
        0
370
    25
100
AcDbLine
 10
128.2543014422606
 20
-146.8969319013314
 30
0.0
 11
127.7692320101913
 21
-146.4793841236579
 31
0.0
  0
LINE
  5
BD
330
70
100
AcDbEntity
  8
レイヤー 1
 62
    18
420
        0
370
    25
100
AcDbLine
 10
130.7671727670408
 20
-146.5865227347423
 30
0.0
 11
130.2531402801549
 21
-146.9685810679797
 31
0.0
  0
LINE
  5
BE
330
70
100
AcDbEntity
  8
レイヤー 1
 62
    18
420
        0
370
    25
100
AcDbLine
 10
130.2531402801549
 20
-146.9685810679797
 30
0.0
 11
129.7674005703249
 21
-146.5510332903062
 31
0.0
  0
LINE
  5
BF
330
70
100
AcDbEntity
  8
レイヤー 1
 62
    18
420
        0
370
    25
100
AcDbLine
 10
132.7660116049351
 20
-146.6578544013911
 30
0.0
 11
132.7660116049351
 21
-147.1580580123773
 31
0.0
  0
LINE
  5
C0
330
70
100
AcDbEntity
  8
レイヤー 1
 62
    18
420
        0
370
    25
100
AcDbLine
 10
111.8752882490129
 20
-147.1580580123773
 30
0.0
 11
132.7660116049351
 21
-147.1580580123773
 31
0.0
  0
LINE
  5
C1
330
70
100
AcDbEntity
  8
レイヤー 1
 62
    18
420
        0
370
    25
100
AcDbLine
 10
121.7727154965085
 20
-146.2654596792667
 30
0.0
 11
121.2586845329904
 21
-146.6475180125047
 31
0.0
  0
LINE
  5
C2
330
70
100
AcDbEntity
  8
レイヤー 1
 62
    18
420
        0
370
    25
100
AcDbLine
 10
121.2586845329904
 20
-146.6475180125047
 30
0.0
 11
120.7736150886673
 21
-146.2296174570535
 31
0.0
  0
LINE
  5
C3
330
70
100
AcDbEntity
  8
レイヤー 1
 62
    18
420
        0
370
    25
100
AcDbLine
 10
120.7736150886673
 20
-146.2296174570535
 30
0.0
 11
120.2596178665734
 21
-146.6116757902915
 31
0.0
  0
LINE
  5
C4
330
70
100
AcDbEntity
  8
レイヤー 1
 62
    18
420
        0
370
    25
100
AcDbLine
 10
120.2596178665734
 20
-146.6116757902915
 30
0.0
 11
119.7738766586143
 21
-146.194128012618
 31
0.0
  0
LINE
  5
C5
330
70
100
AcDbEntity
  8
レイヤー 1
 62
    18
420
        0
370
    25
100
AcDbLine
 10
119.7738766586143
 20
-146.194128012618
 30
0.0
 11
119.2598456446009
 21
-146.5758335680782
 31
0.0
  0
LINE
  5
C6
330
70
100
AcDbEntity
  8
レイヤー 1
 62
    18
420
        0
370
    25
100
AcDbLine
 10
119.2598456446009
 20
-146.5758335680782
 30
0.0
 11
118.7747762002777
 21
-146.1583210681822
 31
0.0
  0
LINE
  5
C7
330
70
100
AcDbEntity
  8
レイヤー 1
 62
    18
420
        0
370
    25
100
AcDbLine
 10
118.7747762002777
 20
-146.1583210681822
 30
0.0
 11
118.2607789781845
 21
-146.5400266236425
 31
0.0
  0
LINE
  5
C8
330
70
100
AcDbEntity
  8
レイヤー 1
 62
    18
420
        0
370
    25
100
AcDbLine
 10
118.2607789781845
 20
-146.5400266236425
 30
0.0
 11
117.7750039783058
 21
-146.122478845969
 31
0.0
  0
LINE
  5
C9
330
70
100
AcDbEntity
  8
レイヤー 1
 62
    18
420
        0
370
    25
100
AcDbLine
 10
117.7750039783058
 20
-146.122478845969
 30
0.0
 11
117.261006756212
 21
-146.504537179207
 31
0.0
  0
LINE
  5
CA
330
70
100
AcDbEntity
  8
レイヤー 1
 62
    18
420
        0
370
    25
100
AcDbLine
 10
117.261006756212
 20
-146.504537179207
 30
0.0
 11
116.7759373118888
 21
-146.0869894015335
 31
0.0
  0
LINE
  5
CB
330
70
100
AcDbEntity
  8
レイヤー 1
 62
    18
420
        0
370
    25
100
AcDbLine
 10
116.7759373118888
 20
-146.0869894015335
 30
0.0
 11
116.2619400897949
 21
-146.4690477347715
 31
0.0
  0
LINE
  5
CC
330
70
100
AcDbEntity
  8
レイヤー 1
 62
    18
420
        0
370
    25
100
AcDbLine
 10
116.2619400897949
 20
-146.4690477347715
 30
0.0
 11
115.7768706454718
 21
-146.0511471793203
 31
0.0
  0
LINE
  5
CD
330
70
100
AcDbEntity
  8
レイヤー 1
 62
    18
420
        0
370
    25
100
AcDbLine
 10
115.7768706454718
 20
-146.0511471793203
 30
0.0
 11
115.2628367737005
 21
-146.4332407903358
 31
0.0
  0
LINE
  5
CE
330
70
100
AcDbEntity
  8
レイヤー 1
 62
    18
420
        0
370
    25
100
AcDbLine
 10
115.2628367737005
 20
-146.4332407903358
 30
0.0
 11
114.7770984234999
 21
-146.0156930126626
 31
0.0
  0
LINE
  5
CF
330
70
100
AcDbEntity
  8
レイヤー 1
 62
    18
420
        0
370
    25
100
AcDbLine
 10
114.7770984234999
 20
-146.0156930126626
 30
0.0
 11
114.2631012014054
 21
-146.3973985681225
 31
0.0
  0
LINE
  5
D0
330
70
100
AcDbEntity
  8
レイヤー 1
 62
    18
420
        0
370
    25
100
AcDbLine
 10
114.2631012014054
 20
-146.3973985681225
 30
0.0
 11
113.7780317570822
 21
-145.979850790449
 31
0.0
  0
LINE
  5
D1
330
70
100
AcDbEntity
  8
レイヤー 1
 62
    18
420
        0
370
    25
100
AcDbLine
 10
113.7780317570822
 20
-145.979850790449
 30
0.0
 11
113.2639979358062
 21
-146.3615563459093
 31
0.0
  0
LINE
  5
D2
330
70
100
AcDbEntity
  8
レイヤー 1
 62
    18
420
        0
370
    25
100
AcDbLine
 10
113.2639979358062
 20
-146.3615563459093
 30
0.0
 11
112.7782595351103
 21
-145.9440085682358
 31
0.0
  0
LINE
  5
D3
330
70
100
AcDbEntity
  8
レイヤー 1
 62
    18
420
        0
370
    25
100
AcDbLine
 10
112.7042257389801
 20
-145.8957838460259
 30
0.0
 11
111.7646924185011
 21
-145.8957838460259
 31
0.0
  0
LINE
  5
D4
330
70
100
AcDbEntity
  8
レイヤー 1
 62
    18
420
        0
370
    25
100
AcDbLine
 10
112.764464615217
 20
-147.1580580123773
 30
0.0
 11
112.764464615217
 21
-153.1580671775435
 31
0.0
  0
SPLINE
  5
D5
330
70
100
AcDbEntity
  8
レイヤー 1
 62
    18
420
        0
370
     9
100
AcDbSpline
210
0.0
220
0.0
230
1.0
 70
     9
 71
     3
 72
    17
 73
    13
 74
     0
 42
0.0000000001
 43
0.0000000001
 40
0.0
 40
0.0
 40
0.0
 40
0.0
 40
1.0
 40
1.0
 40
1.0
 40
2.0
 40
2.0
 40
2.0
 40
3.0
 40
3.0
 40
3.0
 40
4.0
 40
4.0
 40
4.0
 40
4.0
 10
84.86281287542253
 20
-141.8960246803591
 30
0.0
 10
84.86281287542253
 20
-141.8405680137064
 30
0.0
 10
84.81801009765613
 20
-141.7957652359397
 30
0.0
 10
84.76290620878089
 20
-141.7957652359397
 30
0.0
 10
84.70776704212813
 20
-141.7957652359397
 30
0.0
 10
84.66299954213925
 20
-141.8405680137064
 30
0.0
 10
84.66299954213925
 20
-141.8960246803591
 30
0.0
 10
84.66299954213925
 20
-141.9511638470121
 30
0.0
 10
84.70776704212813
 20
-141.9959313470007
 30
0.0
 10
84.76290620878089
 20
-141.9959313470007
 30
0.0
 10
84.81801009765613
 20
-141.9959313470007
 30
0.0
 10
84.86281287542253
 20
-141.9511638470121
 30
0.0
 10
84.86281287542253
 20
-141.8960246803591
 30
0.0
  0
CIRCLE
  5
D6
330
70
100
AcDbEntity
  8
レイヤー 1
 62
    18
420
        0
370
     9
100
AcDbCircle
 10
80.76314704311407
 20
-146.6578544013911
 30
0.0
 40
0.0999066666416778
  0
CIRCLE
  5
D7
330
70
100
AcDbEntity
  8
レイヤー 1
 62
    18
420
        0
370
     9
100
AcDbCircle
 10
80.76314704311407
 20
-147.1580580123771
 30
0.0
 40
0.0999066666419184
  0
SPLINE
  5
D8
330
70
100
AcDbEntity
  8
レイヤー 1
 62
    18
420
        0
370
     9
100
AcDbSpline
210
0.0
220
0.0
230
1.0
 70
     9
 71
     3
 72
    17
 73
    13
 74
     0
 42
0.0000000001
 43
0.0000000001
 40
0.0
 40
0.0
 40
0.0
 40
0.0
 40
1.0
 40
1.0
 40
1.0
 40
2.0
 40
2.0
 40
2.0
 40
3.0
 40
3.0
 40
3.0
 40
4.0
 40
4.0
 40
4.0
 40
4.0
 10
80.86305370975596
 20
-153.1580671775435
 30
0.0
 10
80.86305370975596
 20
-153.102928010891
 30
0.0
 10
80.81828620976708
 20
-153.0581252331243
 30
0.0
 10
80.763147043114
 20
-153.0581252331243
 30
0.0
 10
80.70804315423908
 20
-153.0581252331243
 30
0.0
 10
80.66324037647236
 20
-153.102928010891
 30
0.0
 10
80.66324037647236
 20
-153.1580671775435
 30
0.0
 10
80.66324037647236
 20
-153.213171066419
 30
0.0
 10
80.70804315423908
 20
-153.2579738441851
 30
0.0
 10
80.763147043114
 20
-153.2579738441851
 30
0.0
 10
80.81828620976708
 20
-153.2579738441851
 30
0.0
 10
80.86305370975596
 20
-153.213171066419
 30
0.0
 10
80.86305370975596
 20
-153.1580671775435
 30
0.0
  0
SPLINE
  5
D9
330
70
100
AcDbEntity
  8
レイヤー 1
 62
    18
420
        0
370
     9
100
AcDbSpline
210
0.0
220
0.0
230
1.0
 70
     9
 71
     3
 72
    17
 73
    13
 74
     0
 42
0.0000000001
 43
0.0000000001
 40
0.0
 40
0.0
 40
0.0
 40
0.0
 40
1.0
 40
1.0
 40
1.0
 40
2.0
 40
2.0
 40
2.0
 40
3.0
 40
3.0
 40
3.0
 40
4.0
 40
4.0
 40
4.0
 40
4.0
 10
105.8642725690334
 20
-141.8960246803591
 30
0.0
 10
105.8642725690334
 20
-141.8405680137064
 30
0.0
 10
105.8195050701755
 20
-141.7957652359397
 30
0.0
 10
105.7643659049156
 20
-141.7957652359397
 30
0.0
 10
105.7092620174325
 20
-141.7957652359397
 30
0.0
 10
105.6644592407977
 20
-141.8405680137064
 30
0.0
 10
105.6644592407977
 20
-141.8960246803591
 30
0.0
 10
105.6644592407977
 20
-141.9511638470121
 30
0.0
 10
105.7092620174325
 20
-141.9959313470007
 30
0.0
 10
105.7643659049156
 20
-141.9959313470007
 30
0.0
 10
105.8195050701755
 20
-141.9959313470007
 30
0.0
 10
105.8642725690334
 20
-141.9511638470121
 30
0.0
 10
105.8642725690334
 20
-141.8960246803591
 30
0.0
  0
SPLINE
  5
DA
330
70
100
AcDbEntity
  8
レイヤー 1
 62
    18
420
        0
370
     9
100
AcDbSpline
210
0.0
220
0.0
230
1.0
 70
     9
 71
     3
 72
    17
 73
    13
 74
     0
 42
0.0000000001
 43
0.0000000001
 40
0.0
 40
0.0
 40
0.0
 40
0.0
 40
1.0
 40
1.0
 40
1.0
 40
2.0
 40
2.0
 40
2.0
 40
3.0
 40
3.0
 40
3.0
 40
4.0
 40
4.0
 40
4.0
 40
4.0
 10
132.9658249331707
 20
-141.8960246803591
 30
0.0
 10
132.9658249331707
 20
-141.8405680137064
 30
0.0
 10
132.921022156536
 20
-141.7957652359397
 30
0.0
 10
132.8659182690529
 20
-141.7957652359397
 30
0.0
 10
132.8101088260323
 20
-141.7957652359397
 30
0.0
 10
132.7653060493975
 20
-141.8405680137064
 30
0.0
 10
132.7653060493975
 20
-141.8960246803591
 30
0.0
 10
132.7653060493975
 20
-141.9511638470121
 30
0.0
 10
132.8101088260323
 20
-141.9959313470007
 30
0.0
 10
132.8659182690529
 20
-141.9959313470007
 30
0.0
 10
132.921022156536
 20
-141.9959313470007
 30
0.0
 10
132.9658249331707
 20
-141.9511638470121
 30
0.0
 10
132.9658249331707
 20
-141.8960246803591
 30
0.0
  0
SPLINE
  5
DB
330
70
100
AcDbEntity
  8
レイヤー 1
 62
    18
420
        0
370
     9
100
AcDbSpline
210
0.0
220
0.0
230
1.0
 70
     9
 71
     3
 72
    17
 73
    13
 74
     0
 42
0.0000000001
 43
0.0000000001
 40
0.0
 40
0.0
 40
0.0
 40
0.0
 40
1.0
 40
1.0
 40
1.0
 40
2.0
 40
2.0
 40
2.0
 40
3.0
 40
3.0
 40
3.0
 40
4.0
 40
4.0
 40
4.0
 40
4.0
 10
111.9645057467368
 20
-141.8960246803591
 30
0.0
 10
111.9645057467368
 20
-141.8405680137064
 30
0.0
 10
111.9197382478789
 20
-141.7957652359397
 30
0.0
 10
111.864599082619
 20
-141.7957652359397
 30
0.0
 10
111.8094951951359
 20
-141.7957652359397
 30
0.0
 10
111.7646924185011
 20
-141.8405680137064
 30
0.0
 10
111.7646924185011
 20
-141.8960246803591
 30
0.0
 10
111.7646924185011
 20
-141.9511638470121
 30
0.0
 10
111.8094951951359
 20
-141.9959313470007
 30
0.0
 10
111.864599082619
 20
-141.9959313470007
 30
0.0
 10
111.9197382478789
 20
-141.9959313470007
 30
0.0
 10
111.9645057467368
 20
-141.9511638470121
 30
0.0
 10
111.9645057467368
 20
-141.8960246803591
 30
0.0
  0
LINE
  5
DC
330
70
100
AcDbEntity
  8
レイヤー 1
 62
    18
420
        0
370
     9
100
AcDbLine
 10
80.763147043114
 20
-146.6578544013911
 30
0.0
 11
80.763147043114
 21
-141.3999485693722
 31
0.0
  0
LINE
  5
DD
330
70
100
AcDbEntity
  8
レイヤー 1
 62
    18
420
        0
370
     9
100
AcDbLine
 10
80.763147043114
 20
-146.6578544013911
 30
0.0
 11
80.763147043114
 21
-147.1580580123773
 31
0.0
  0
LINE
  5
DE
330
70
100
AcDbEntity
  8
レイヤー 1
 62
    18
420
        0
370
     9
100
AcDbLine
 10
82.22318843163803
 20
-146.6578544013911
 30
0.0
 11
79.76302204336402
 21
-146.6578544013911
 31
0.0
  0
LINE
  5
DF
330
70
100
AcDbEntity
  8
レイヤー 1
 62
    18
420
        0
370
     9
100
AcDbLine
 10
82.22318843163803
 20
-147.1580580123773
 30
0.0
 11
79.76302204336402
 21
-147.1580580123773
 31
0.0
  0
INSERT
  5
E1
330
70
100
AcDbEntity
  8
レイヤー 1
100
AcDbBlockReference
  2
Block_0
 10
0.0
 20
0.0
 30
0.0
  0
LINE
  5
EF
330
70
100
AcDbEntity
  8
レイヤー 1
 62
    18
420
        0
370
     9
100
AcDbLine
 10
84.76290620878089
 20
-141.8960246803591
 30
0.0
 11
105.7643659049156
 21
-141.8960246803591
 31
0.0
  0
LINE
  5
F0
330
70
100
AcDbEntity
  8
レイヤー 1
 62
    18
420
        0
370
     9
100
AcDbLine
 10
84.76290620878089
 20
-144.1181366242479
 30
0.0
 11
84.76290620878089
 21
-140.8959349583869
 31
0.0
  0
INSERT
  5
F2
330
70
100
AcDbEntity
  8
レイヤー 1
100
AcDbBlockReference
  2
Block_2
 10
0.0
 20
0.0
 30
0.0
  0
LINE
  5
FD
330
70
100
AcDbEntity
  8
レイヤー 1
 62
    18
420
        0
370
     9
100
AcDbLine
 10
80.763147043114
 20
-147.1580580123773
 30
0.0
 11
80.763147043114
 21
-153.1580671775435
 31
0.0
  0
LINE
  5
FE
330
70
100
AcDbEntity
  8
レイヤー 1
 62
    18
420
        0
370
     9
100
AcDbLine
 10
102.2248759952158
 20
-153.1580671775435
 30
0.0
 11
79.76302204336402
 21
-153.1580671775435
 31
0.0
  0
INSERT
  5
100
330
70
100
AcDbEntity
  8
レイヤー 1
100
AcDbBlockReference
  2
Block_4
 10
0.0
 20
0.0
 30
0.0
  0
LINE
  5
106
330
70
100
AcDbEntity
  8
レイヤー 1
 62
    18
420
        0
370
     9
100
AcDbLine
 10
132.8659182690529
 20
-141.8960246803591
 30
0.0
 11
111.864599082619
 21
-141.8960246803591
 31
0.0
  0
LINE
  5
107
330
70
100
AcDbEntity
  8
レイヤー 1
 62
    18
420
        0
370
     9
100
AcDbLine
 10
132.8659182690529
 20
-144.1181366242479
 30
0.0
 11
132.8659182690529
 21
-140.8959349583869
 31
0.0
  0
INSERT
  5
109
330
70
100
AcDbEntity
  8
レイヤー 1
100
AcDbBlockReference
  2
Block_5
 10
0.0
 20
0.0
 30
0.0
  0
LINE
  5
114
330
70
100
AcDbEntity
  8
レイヤー 1
 62
    18
420
        0
370
     9
100
AcDbLine
 10
105.7643659049156
 20
-141.8960246803591
 30
0.0
 11
111.7646924185011
 21
-141.8960246803591
 31
0.0
  0
LINE
  5
115
330
70
100
AcDbEntity
  8
レイヤー 1
 62
    18
420
        0
370
     9
100
AcDbLine
 10
105.7643659049156
 20
-143.3560660688828
 30
0.0
 11
105.7643659049156
 21
-140.8959349583869
 31
0.0
  0
LINE
  5
116
330
70
100
AcDbEntity
  8
レイヤー 1
 62
    18
420
        0
370
     9
100
AcDbLine
 10
111.864599082619
 20
-143.3560660688828
 30
0.0
 11
111.864599082619
 21
-140.8959349583869
 31
0.0
  0
INSERT
  5
118
330
70
100
AcDbEntity
  8
レイヤー 1
100
AcDbBlockReference
  2
Block_7
 10
0.0
 20
0.0
 30
0.0
  0
SPLINE
  5
11E
330
70
100
AcDbEntity
  8
レイヤー 1
 62
    18
420
        0
370
     9
100
AcDbSpline
210
0.0
220
0.0
230
1.0
 70
     9
 71
     3
 72
    17
 73
    13
 74
     0
 42
0.0000000001
 43
0.0000000001
 40
0.0
 40
0.0
 40
0.0
 40
0.0
 40
1.0
 40
1.0
 40
1.0
 40
2.0
 40
2.0
 40
2.0
 40
3.0
 40
3.0
 40
3.0
 40
4.0
 40
4.0
 40
4.0
 40
4.0
 10
105.0484739787354
 20
-157.2714913431821
 30
0.0
 10
105.0484739787354
 20
-157.2163874543066
 30
0.0
 10
104.9926645357147
 20
-157.1715846765405
 30
0.0
 10
104.9244725930103
 20
-157.1715846765405
 30
0.0
 10
104.8555762037578
 20
-157.1715846765405
 30
0.0
 10
104.8004359295078
 20
-157.2163874543066
 30
0.0
 10
104.8004359295078
 20
-157.2714913431821
 30
0.0
 10
104.8004359295078
 20
-157.3266305098346
 30
0.0
 10
104.8555762037578
 20
-157.3713980098238
 30
0.0
 10
104.9244725930103
 20
-157.3713980098238
 30
0.0
 10
104.9926645357147
 20
-157.3713980098238
 30
0.0
 10
105.0484739787354
 20
-157.3266305098346
 30
0.0
 10
105.0484739787354
 20
-157.2714913431821
 30
0.0
  0
SPLINE
  5
11F
330
70
100
AcDbEntity
  8
レイヤー 1
 62
    18
420
        0
370
     9
100
AcDbSpline
210
0.0
220
0.0
230
1.0
 70
     9
 71
     3
 72
    17
 73
    13
 74
     0
 42
0.0000000001
 43
0.0000000001
 40
0.0
 40
0.0
 40
0.0
 40
0.0
 40
1.0
 40
1.0
 40
1.0
 40
2.0
 40
2.0
 40
2.0
 40
3.0
 40
3.0
 40
3.0
 40
4.0
 40
4.0
 40
4.0
 40
4.0
 10
113.04905044129
 20
-157.2714913431821
 30
0.0
 10
113.04905044129
 20
-157.2163874543066
 30
0.0
 10
112.9932057204925
 20
-157.1715846765405
 30
0.0
 10
112.924309535074
 20
-157.1715846765405
 30
0.0
 10
112.8554107240079
 20
-157.1715846765405
 30
0.0
 10
112.8003068365249
 20
-157.2163874543066
 30
0.0
 10
112.8003068365249
 20
-157.2714913431821
 30
0.0
 10
112.8003068365249
 20
-157.3266305098346
 30
0.0
 10
112.8554107240079
 20
-157.3713980098238
 30
0.0
 10
112.924309535074
 20
-157.3713980098238
 30
0.0
 10
112.9932057204925
 20
-157.3713980098238
 30
0.0
 10
113.04905044129
 20
-157.3266305098346
 30
0.0
 10
113.04905044129
 20
-157.2714913431821
 30
0.0
  0
LINE
  5
120
330
70
100
AcDbEntity
  8
レイヤー 1
 62
    18
420
        0
370
     9
100
AcDbLine
 10
112.924309535074
 20
-157.2714913431821
 30
0.0
 11
104.9244725930103
 21
-157.2714913431821
 31
0.0
  0
LINE
  5
121
330
70
100
AcDbEntity
  8
レイヤー 1
 62
    18
420
        0
370
     9
100
AcDbLine
 10
112.924309535074
 20
-155.8114499546578
 30
0.0
 11
112.924309535074
 21
-158.2716163429318
 31
0.0
  0
LINE
  5
122
330
70
100
AcDbEntity
  8
レイヤー 1
 62
    18
420
        0
370
     9
100
AcDbLine
 10
104.9244725930103
 20
-155.8114499546578
 30
0.0
 11
104.9244725930103
 21
-158.2716163429318
 31
0.0
  0
INSERT
  5
124
330
70
100
AcDbEntity
  8
レイヤー 1
100
AcDbBlockReference
  2
Block_8
 10
0.0
 20
0.0
 30
0.0
  0
LINE
  5
12B
330
70
100
AcDbEntity
  8
レイヤー 1
 62
    18
420
        0
370
     9
100
AcDbLine
 10
110.7361688336298
 20
-150.3034599560349
 30
0.0
 11
117.7364439328157
 21
-150.3034599560349
 31
0.0
  0
INSERT
  5
12D
330
70
100
AcDbEntity
  8
レイヤー 1
100
AcDbBlockReference
  2
Block_9
 10
0.0
 20
0.0
 30
0.0
  0
INSERT
  5
133
330
70
100
AcDbEntity
  8
レイヤー 1
100
AcDbBlockReference
  2
Block_10
 10
0.0
 20
0.0
 30
0.0
  0
INSERT
  5
13A
330
70
100
AcDbEntity
  8
レイヤー 1
100
AcDbBlockReference
  2
Block_11
 10
0.0
 20
0.0
 30
0.0
  0
ENDSEC
  0
SECTION
  2
OBJECTS
  0
DICTIONARY
  5
C
330
0
100
AcDbDictionary
281
     1
  3
ACAD_COLOR
350
63
  3
ACAD_DETAILVIEWSTYLE
350
6A
  3
ACAD_GROUP
350
D
  3
ACAD_LAYOUT
350
62
  3
ACAD_MATERIAL
350
10
  3
ACAD_MLEADERSTYLE
350
66
  3
ACAD_MLINESTYLE
350
5F
  3
ACAD_PLOTSETTINGS
350
61
  3
ACAD_PLOTSTYLENAME
350
E
  3
ACAD_SCALELIST
350
42
  3
ACAD_SECTIONVIEWSTYLE
350
68
  3
ACAD_TABLESTYLE
350
64
  3
ACAD_VISUALSTYLE
350
29
  3
ACDB_RECOMPOSE_DATA
350
159
  3
AcDbVariableDictionary
350
151
  0
DICTIONARY
  5
63
102
{ACAD_REACTORS
330
C
102
}
330
C
100
AcDbDictionary
281
     1
  0
DICTIONARY
  5
6A
102
{ACAD_REACTORS
330
C
102
}
330
C
100
AcDbDictionary
281
     1
  3
Imperial24
350
6B
  0
DICTIONARY
  5
D
102
{ACAD_REACTORS
330
C
102
}
330
C
100
AcDbDictionary
281
     1
  0
DICTIONARY
  5
62
102
{ACAD_REACTORS
330
C
102
}
330
C
100
AcDbDictionary
281
     1
  3
Layout1
350
6F
  3
Layout2
350
77
  3
Model
350
73
  0
DICTIONARY
  5
10
102
{ACAD_REACTORS
330
C
102
}
330
C
100
AcDbDictionary
281
     1
  3
ByBlock
350
19
  3
ByLayer
350
11
  3
Global
350
21
  0
DICTIONARY
  5
66
102
{ACAD_REACTORS
330
C
102
}
330
C
100
AcDbDictionary
281
     1
  3
Standard
350
67
  0
DICTIONARY
  5
5F
102
{ACAD_REACTORS
330
C
102
}
330
C
100
AcDbDictionary
281
     1
  3
Standard
350
60
  0
DICTIONARY
  5
61
102
{ACAD_REACTORS
330
C
102
}
330
C
100
AcDbDictionary
281
     1
  0
ACDBDICTIONARYWDFLT
  5
E
102
{ACAD_REACTORS
330
C
102
}
330
C
100
AcDbDictionary
281
     1
  3
Normal
350
F
100
AcDbDictionaryWithDefault
340
F
  0
DICTIONARY
  5
42
102
{ACAD_REACTORS
330
C
102
}
330
C
100
AcDbDictionary
281
     1
  3
A0
350
43
  3
A1
350
44
  3
A2
350
45
  3
A3
350
46
  3
A4
350
47
  3
A5
350
48
  3
A6
350
49
  3
A7
350
4A
  3
A8
350
4B
  3
A9
350
4C
  3
B0
350
4D
  3
B1
350
4E
  3
B2
350
4F
  3
B3
350
50
  3
B4
350
51
  3
B5
350
52
  3
B6
350
53
  0
DICTIONARY
  5
68
102
{ACAD_REACTORS
330
C
102
}
330
C
100
AcDbDictionary
281
     1
  3
Imperial24
350
69
  0
DICTIONARY
  5
64
102
{ACAD_REACTORS
330
C
102
}
330
C
100
AcDbDictionary
281
     1
  3
Standard
350
65
  0
DICTIONARY
  5
29
102
{ACAD_REACTORS
330
C
102
}
330
C
100
AcDbDictionary
281
     1
  3
2dWireframe
350
2F
  3
Basic
350
2E
  3
Brighten
350
35
  3
ColorChange
350
39
  3
Conceptual
350
32
  3
Dim
350
34
  3
EdgeColorOff
350
41
  3
Facepattern
350
38
  3
Flat
350
2A
  3
FlatWithEdges
350
2B
  3
Gouraud
350
2C
  3
GouraudWithEdges
350
2D
  3
Hidden
350
31
  3
JitterOff
350
3F
  3
Linepattern
350
37
  3
OverhangOff
350
40
  3
Realistic
350
33
  3
Shaded
350
3E
  3
Shaded with edges
350
3D
  3
Shades of Gray
350
3A
  3
Sketchy
350
3B
  3
Thicken
350
36
  3
Wireframe
350
30
  3
X-Ray
350
3C
  0
XRECORD
  5
159
102
{ACAD_REACTORS
330
C
102
}
330
C
100
AcDbXrecord
280
     1
 90
        1
330
65
  0
DICTIONARY
  5
151
102
{ACAD_REACTORS
330
C
102
}
330
C
100
AcDbDictionary
281
     1
  3
CANNOSCALE
350
156
  3
CMLEADERSTYLE
350
153
  3
CTABLESTYLE
350
152
  3
CVIEWDETAILSTYLE
350
154
  3
CVIEWSECTIONSTYLE
350
155
  0
ACDBDETAILVIEWSTYLE
  5
6B
102
{ACAD_XDICTIONARY
360
18E
102
}
102
{ACAD_REACTORS
330
6A
102
}
330
6A
100
AcDbModelDocViewStyle
 70
     0
  3
Imperial24
290
     0
100
AcDbDetailViewStyle
 70
     0
 71
     0
 90
        3
 71
     1
340
55
 62
   256
 40
0.24
340
0
 62
   256
 40
0.24
300

 40
0.36
280
     3
 71
     2
340
5D
 90
       25
 62
   256
 71
     3
340
55
 62
   256
 40
0.24
 90
        1
 40
0.75
 90
        1
300
%<\AcVar ViewType \f "%tc1">% %<\AcVar ViewDetailId>%\PSCALE %<\AcVar ViewScale \f "%sn">%
 71
     4
340
5D
 90
       25
 62
   256
340
5D
 90
       25
 62
   256
280
     0
  0
LAYOUT
  5
6F
102
{ACAD_REACTORS
330
62
102
}
330
62
100
AcDbPlotSettings
  1

  2

  4

  6

 40
0.0
 41
0.0
 42
0.0
 43
0.0
 44
0.0
 45
0.0
 46
0.0
 47
0.0
 48
0.0
 49
0.0
140
0.0
141
0.0
142
1.0
143
1.0
 70
   688
 72
     0
 73
     0
 74
     5
  7

 75
    16
147
1.0
 76
     0
 77
     2
 78
   300
148
0.0
149
0.0
100
AcDbLayout
  1
Layout1
 70
     1
 71
     1
 10
0.0
 20
0.0
 11
12.0
 21
9.0
 12
0.0
 22
0.0
 32
0.0
 14
0.0
 24
0.0
 34
0.0
 15
0.0
 25
0.0
 35
0.0
146
0.0
 13
0.0
 23
0.0
 33
0.0
 16
1.0
 26
0.0
 36
0.0
 17
0.0
 27
1.0
 37
0.0
 76
     0
330
6C
  0
LAYOUT
  5
77
102
{ACAD_REACTORS
330
62
102
}
330
62
100
AcDbPlotSettings
  1

  2

  4

  6

 40
0.0
 41
0.0
 42
0.0
 43
0.0
 44
0.0
 45
0.0
 46
0.0
 47
0.0
 48
0.0
 49
0.0
140
0.0
141
0.0
142
1.0
143
1.0
 70
   688
 72
     0
 73
     0
 74
     5
  7

 75
    16
147
1.0
 76
     0
 77
     2
 78
   300
148
0.0
149
0.0
100
AcDbLayout
  1
Layout2
 70
     1
 71
     2
 10
0.0
 20
0.0
 11
12.0
 21
9.0
 12
0.0
 22
0.0
 32
0.0
 14
0.0
 24
0.0
 34
0.0
 15
0.0
 25
0.0
 35
0.0
146
0.0
 13
0.0
 23
0.0
 33
0.0
 16
1.0
 26
0.0
 36
0.0
 17
0.0
 27
1.0
 37
0.0
 76
     0
330
74
  0
LAYOUT
  5
73
102
{ACAD_REACTORS
330
62
102
}
330
62
100
AcDbPlotSettings
  1

  2

  4

  6

 40
0.0
 41
0.0
 42
0.0
 43
0.0
 44
0.0
 45
0.0
 46
0.0
 47
0.0
 48
0.0
 49
0.0
140
0.0
141
0.0
142
1.0
143
1.0
 70
  1712
 72
     0
 73
     0
 74
     0
  7

 75
     0
147
1.0
 76
     0
 77
     2
 78
   300
148
0.0
149
0.0
100
AcDbLayout
  1
Model
 70
     1
 71
     0
 10
0.0
 20
0.0
 11
12.0
 21
9.0
 12
0.0
 22
0.0
 32
0.0
 14
0.0
 24
0.0
 34
0.0
 15
0.0
 25
0.0
 35
0.0
146
0.0
 13
0.0
 23
0.0
 33
0.0
 16
1.0
 26
0.0
 36
0.0
 17
0.0
 27
1.0
 37
0.0
 76
     0
330
70
  0
MATERIAL
  5
19
102
{ACAD_XDICTIONARY
360
1A
102
}
102
{ACAD_REACTORS
330
10
102
}
330
10
100
AcDbMaterial
  1
ByBlock
 72
     0
 43
0.0208333333333333
 43
0.0
 43
0.0
 43
0.0
 43
0.0
 43
0.0208333333333333
 43
0.0
 43
0.0
 43
0.0
 43
0.0
 43
1.0
 43
0.0
 43
0.0
 43
0.0
 43
0.0
 43
1.0
 77
     0
 47
0.0208333333333333
 47
0.0
 47
0.0
 47
0.0
 47
0.0
 47
0.0208333333333333
 47
0.0
 47
0.0
 47
0.0
 47
0.0
 47
1.0
 47
0.0
 47
0.0
 47
0.0
 47
0.0
 47
1.0
171
     0
 49
0.0208333333333333
 49
0.0
 49
0.0
 49
0.0
 49
0.0
 49
0.0208333333333333
 49
0.0
 49
0.0
 49
0.0
 49
0.0
 49
1.0
 49
0.0
 49
0.0
 49
0.0
 49
0.0
 49
1.0
175
     0
142
0.0208333333333333
142
0.0
142
0.0
142
0.0
142
0.0
142
0.0208333333333333
142
0.0
142
0.0
142
0.0
142
0.0
142
1.0
142
0.0
142
0.0
142
0.0
142
0.0
142
1.0
179
     0
144
0.0208333333333333
144
0.0
144
0.0
144
0.0
144
0.0
144
0.0208333333333333
144
0.0
144
0.0
144
0.0
144
0.0
144
1.0
144
0.0
144
0.0
144
0.0
144
0.0
144
1.0
147
0.0208333333333333
147
0.0
147
0.0
147
0.0
147
0.0
147
0.0208333333333333
147
0.0
147
0.0
147
0.0
147
0.0
147
1.0
147
0.0
147
0.0
147
0.0
147
0.0
147
1.0
  0
MATERIAL
  5
11
102
{ACAD_XDICTIONARY
360
12
102
}
102
{ACAD_REACTORS
330
10
102
}
330
10
100
AcDbMaterial
  1
ByLayer
 72
     0
 43
0.0208333333333333
 43
0.0
 43
0.0
 43
0.0
 43
0.0
 43
0.0208333333333333
 43
0.0
 43
0.0
 43
0.0
 43
0.0
 43
1.0
 43
0.0
 43
0.0
 43
0.0
 43
0.0
 43
1.0
 77
     0
 47
0.0208333333333333
 47
0.0
 47
0.0
 47
0.0
 47
0.0
 47
0.0208333333333333
 47
0.0
 47
0.0
 47
0.0
 47
0.0
 47
1.0
 47
0.0
 47
0.0
 47
0.0
 47
0.0
 47
1.0
171
     0
 49
0.0208333333333333
 49
0.0
 49
0.0
 49
0.0
 49
0.0
 49
0.0208333333333333
 49
0.0
 49
0.0
 49
0.0
 49
0.0
 49
1.0
 49
0.0
 49
0.0
 49
0.0
 49
0.0
 49
1.0
175
     0
142
0.0208333333333333
142
0.0
142
0.0
142
0.0
142
0.0
142
0.0208333333333333
142
0.0
142
0.0
142
0.0
142
0.0
142
1.0
142
0.0
142
0.0
142
0.0
142
0.0
142
1.0
179
     0
144
0.0208333333333333
144
0.0
144
0.0
144
0.0
144
0.0
144
0.0208333333333333
144
0.0
144
0.0
144
0.0
144
0.0
144
1.0
144
0.0
144
0.0
144
0.0
144
0.0
144
1.0
147
0.0208333333333333
147
0.0
147
0.0
147
0.0
147
0.0
147
0.0208333333333333
147
0.0
147
0.0
147
0.0
147
0.0
147
1.0
147
0.0
147
0.0
147
0.0
147
0.0
147
1.0
  0
MATERIAL
  5
21
102
{ACAD_XDICTIONARY
360
22
102
}
102
{ACAD_REACTORS
330
10
102
}
330
10
100
AcDbMaterial
  1
Global
 72
     0
 43
0.0208333333333333
 43
0.0
 43
0.0
 43
0.0
 43
0.0
 43
0.0208333333333333
 43
0.0
 43
0.0
 43
0.0
 43
0.0
 43
1.0
 43
0.0
 43
0.0
 43
0.0
 43
0.0
 43
1.0
 77
     0
 47
0.0208333333333333
 47
0.0
 47
0.0
 47
0.0
 47
0.0
 47
0.0208333333333333
 47
0.0
 47
0.0
 47
0.0
 47
0.0
 47
1.0
 47
0.0
 47
0.0
 47
0.0
 47
0.0
 47
1.0
171
     0
 49
0.0208333333333333
 49
0.0
 49
0.0
 49
0.0
 49
0.0
 49
0.0208333333333333
 49
0.0
 49
0.0
 49
0.0
 49
0.0
 49
1.0
 49
0.0
 49
0.0
 49
0.0
 49
0.0
 49
1.0
175
     0
142
0.0208333333333333
142
0.0
142
0.0
142
0.0
142
0.0
142
0.0208333333333333
142
0.0
142
0.0
142
0.0
142
0.0
142
1.0
142
0.0
142
0.0
142
0.0
142
0.0
142
1.0
179
     0
144
0.0208333333333333
144
0.0
144
0.0
144
0.0
144
0.0
144
0.0208333333333333
144
0.0
144
0.0
144
0.0
144
0.0
144
1.0
144
0.0
144
0.0
144
0.0
144
0.0
144
1.0
147
0.0208333333333333
147
0.0
147
0.0
147
0.0
147
0.0
147
0.0208333333333333
147
0.0
147
0.0
147
0.0
147
0.0
147
1.0
147
0.0
147
0.0
147
0.0
147
0.0
147
1.0
  0
MLEADERSTYLE
  5
67
102
{ACAD_XDICTIONARY
360
18A
102
}
102
{ACAD_REACTORS
330
66
102
}
330
66
100
AcDbMLeaderStyle
179
     2
170
     2
171
     1
172
     0
 90
        2
 40
0.0
 41
0.0
173
     1
 91
-1056964608
340
5B
 92
       -2
290
     1
 42
0.09
291
     1
 43
0.36
  3
Standard
 44
0.18
300

342
55
174
     1
178
     6
175
     1
176
     0
 93
-1056964608
 45
0.18
292
     0
297
     0
 46
0.18
 94
-1056964608
 47
1.0
 49
1.0
140
1.0
293
     1
141
0.0
294
     1
177
     0
142
1.0
295
     0
296
     0
143
0.125
271
     0
272
     9
273
     9
  0
MLINESTYLE
  5
60
102
{ACAD_REACTORS
330
5F
102
}
330
5F
100
AcDbMlineStyle
  2
STANDARD
 70
     0
  3

 62
   256
 51
90.0
 52
90.0
 71
     2
 49
0.5
 62
   256
  6
BYLAYER
 49
-0.5
 62
   256
  6
BYLAYER
  0
ACDBPLACEHOLDER
  5
F
102
{ACAD_REACTORS
330
E
102
}
330
E
  0
SCALE
  5
43
102
{ACAD_REACTORS
330
42
102
}
330
42
100
AcDbScale
 70
     0
300
1:1
140
1.0
141
1.0
290
     1
  0
SCALE
  5
44
102
{ACAD_REACTORS
330
42
102
}
330
42
100
AcDbScale
 70
     0
300
1/128" = 1'-0"
140
0.0078125
141
12.0
290
     0
  0
SCALE
  5
45
102
{ACAD_REACTORS
330
42
102
}
330
42
100
AcDbScale
 70
     0
300
1/64" = 1'-0"
140
0.015625
141
12.0
290
     0
  0
SCALE
  5
46
102
{ACAD_REACTORS
330
42
102
}
330
42
100
AcDbScale
 70
     0
300
1/32" = 1'-0"
140
0.03125
141
12.0
290
     0
  0
SCALE
  5
47
102
{ACAD_REACTORS
330
42
102
}
330
42
100
AcDbScale
 70
     0
300
1/16" = 1'-0"
140
0.0625
141
12.0
290
     0
  0
SCALE
  5
48
102
{ACAD_REACTORS
330
42
102
}
330
42
100
AcDbScale
 70
     0
300
3/32" = 1'-0"
140
0.09375
141
12.0
290
     0
  0
SCALE
  5
49
102
{ACAD_REACTORS
330
42
102
}
330
42
100
AcDbScale
 70
     0
300
1/8" = 1'-0"
140
0.125
141
12.0
290
     0
  0
SCALE
  5
4A
102
{ACAD_REACTORS
330
42
102
}
330
42
100
AcDbScale
 70
     0
300
3/16" = 1'-0"
140
0.1875
141
12.0
290
     0
  0
SCALE
  5
4B
102
{ACAD_REACTORS
330
42
102
}
330
42
100
AcDbScale
 70
     0
300
1/4" = 1'-0"
140
0.25
141
12.0
290
     0
  0
SCALE
  5
4C
102
{ACAD_REACTORS
330
42
102
}
330
42
100
AcDbScale
 70
     0
300
3/8" = 1'-0"
140
0.375
141
12.0
290
     0
  0
SCALE
  5
4D
102
{ACAD_REACTORS
330
42
102
}
330
42
100
AcDbScale
 70
     0
300
1/2" = 1'-0"
140
0.5
141
12.0
290
     0
  0
SCALE
  5
4E
102
{ACAD_REACTORS
330
42
102
}
330
42
100
AcDbScale
 70
     0
300
3/4" = 1'-0"
140
0.75
141
12.0
290
     0
  0
SCALE
  5
4F
102
{ACAD_REACTORS
330
42
102
}
330
42
100
AcDbScale
 70
     0
300
1" = 1'-0"
140
1.0
141
12.0
290
     0
  0
SCALE
  5
50
102
{ACAD_REACTORS
330
42
102
}
330
42
100
AcDbScale
 70
     0
300
1-1/2" = 1'-0"
140
1.5
141
12.0
290
     0
  0
SCALE
  5
51
102
{ACAD_REACTORS
330
42
102
}
330
42
100
AcDbScale
 70
     0
300
3" = 1'-0"
140
3.0
141
12.0
290
     0
  0
SCALE
  5
52
102
{ACAD_REACTORS
330
42
102
}
330
42
100
AcDbScale
 70
     0
300
6" = 1'-0"
140
6.0
141
12.0
290
     0
  0
SCALE
  5
53
102
{ACAD_REACTORS
330
42
102
}
330
42
100
AcDbScale
 70
     0
300
1'-0" = 1'-0"
140
12.0
141
12.0
290
     0
  0
ACDBSECTIONVIEWSTYLE
  5
69
102
{ACAD_XDICTIONARY
360
18C
102
}
102
{ACAD_REACTORS
330
68
102
}
330
68
100
AcDbModelDocViewStyle
 70
     0
  3
Imperial24
290
     0
100
AcDbSectionViewStyle
 70
     0
 71
     0
 90
       78
 71
     1
340
55
 62
   256
 40
0.24
340
0
340
0
 62
   256
 40
0.24
300
I, O, Q, S, X, Z
 40
0.48
 90
        3
 40
0.18
 90
        1
 71
     2
340
5D
 90
       25
 62
   256
340
5D
 90
       50
 62
   256
 40
0.24
 40
0.0
 40
0.24
 71
     3
340
55
 62
   256
 40
0.24
 90
        1
 40
0.75
 90
        1
300
%<\AcVar ViewType \f "%tc1">% %<\AcVar ViewSectionStartId>%-%<\AcVar ViewSectionEndId>%\PSCALE %<\AcVar ViewScale \f "%sn">%
 71
     4
 62
   256
 62
   257
300
ANSI31
 40
1.0
 90
        0
290
     0
290
     0
 90
        6
 40
0.0
 40
1.570796326794896
 40
0.2617993877991494
 40
1.308996938995747
 40
-0.2617993877991494
 40
1.832595714594046
  0
TABLESTYLE
  5
65
102
{ACAD_XDICTIONARY
360
157
102
}
102
{ACAD_REACTORS
330
64
102
}
330
64
100
AcDbTableStyle
280
     0
  3
Standard
 70
     0
 71
     0
 40
0.06
 41
0.06
280
     0
281
     0
  7
Standard
140
0.18
170
     2
 62
     0
 63
     7
283
     0
 90
      512
 91
        0
  1

274
    -2
284
     1
 64
     0
275
    -2
285
     1
 65
     0
276
    -2
286
     1
 66
     0
277
    -2
287
     1
 67
     0
278
    -2
288
     1
 68
     0
279
    -2
289
     1
 69
     0
  7
Standard
140
0.25
170
     5
 62
     0
 63
     7
283
     0
 90
      512
 91
        0
  1

274
    -2
284
     1
 64
     0
275
    -2
285
     1
 65
     0
276
    -2
286
     1
 66
     0
277
    -2
287
     1
 67
     0
278
    -2
288
     1
 68
     0
279
    -2
289
     1
 69
     0
  7
Standard
140
0.18
170
     5
 62
     0
 63
     7
283
     0
 90
      512
 91
        0
  1

274
    -2
284
     1
 64
     0
275
    -2
285
     1
 65
     0
276
    -2
286
     1
 66
     0
277
    -2
287
     1
 67
     0
278
    -2
288
     1
 68
     0
279
    -2
289
     1
 69
     0
  0
VISUALSTYLE
  5
2F
102
{ACAD_XDICTIONARY
360
164
102
}
102
{ACAD_REACTORS
330
29
102
}
330
29
100
AcDbVisualStyle
  2
2dWireframe
 70
     4
177
     2
291
     0
 71
     0
176
     1
 72
     2
176
     1
 73
     0
176
     1
 90
        0
176
     1
 40
0.6
176
     1
 41
30.0
176
     1
 63
     7
421
 16777215
176
     1
 74
     1
176
     1
 91
        4
176
     1
 64
     7
176
     1
 65
   257
176
     1
 75
     1
176
     1
175
     1
176
     1
 42
1.0
176
     1
 92
        0
176
     1
 66
   257
176
     1
 43
1.0
176
     1
 76
     1
176
     1
 77
     6
176
     1
 78
     2
176
     1
 67
     7
176
     1
 79
     5
176
     1
170
     0
176
     1
171
     0
176
     1
290
     0
176
     1
 93
        1
176
     1
 44
0.0
176
     1
173
     0
176
     1
1001
ACAD
1000
AcDbSavedByObjectVersion
1070
     0
  0
VISUALSTYLE
  5
2E
102
{ACAD_XDICTIONARY
360
162
102
}
102
{ACAD_REACTORS
330
29
102
}
330
29
100
AcDbVisualStyle
  2
Basic
 70
     7
177
     2
291
     1
 71
     1
176
     1
 72
     0
176
     1
 73
     1
176
     1
 90
        0
176
     1
 40
0.6
176
     1
 41
30.0
176
     1
 63
     7
421
 16777215
176
     1
 74
     0
176
     1
 91
        4
176
     1
 64
     7
176
     1
 65
   257
176
     1
 75
     1
176
     1
175
     1
176
     1
 42
1.0
176
     1
 92
        8
176
     1
 66
     7
176
     1
 43
1.0
176
     1
 76
     1
176
     1
 77
     6
176
     1
 78
     2
176
     1
 67
     7
176
     1
 79
     5
176
     1
170
     0
176
     1
171
     0
176
     1
290
     0
176
     1
 93
        1
176
     1
 44
0.0
176
     1
173
     0
176
     1
1001
ACAD
1000
AcDbSavedByObjectVersion
1070
     0
  0
VISUALSTYLE
  5
35
102
{ACAD_XDICTIONARY
360
170
102
}
102
{ACAD_REACTORS
330
29
102
}
330
29
100
AcDbVisualStyle
  2
Brighten
 70
    12
177
     2
291
     1
 71
     2
176
     1
 72
     2
176
     1
 73
     0
176
     1
 90
        0
176
     1
 40
0.6
176
     1
 41
30.0
176
     1
 63
     7
421
 16777215
176
     1
 74
     1
176
     1
 91
        4
176
     1
 64
     7
176
     1
 65
   257
176
     1
 75
     1
176
     1
175
     1
176
     1
 42
1.0
176
     1
 92
        8
176
     1
 66
     7
176
     1
 43
1.0
176
     1
 76
     1
176
     1
 77
     6
176
     1
 78
     2
176
     1
 67
     7
176
     1
 79
     5
176
     1
170
     0
176
     1
171
     0
176
     1
290
     0
176
     1
 93
        1
176
     1
 44
50.0
176
     1
173
     0
176
     1
1001
ACAD
1000
AcDbSavedByObjectVersion
1070
     0
  0
VISUALSTYLE
  5
39
102
{ACAD_XDICTIONARY
360
178
102
}
102
{ACAD_REACTORS
330
29
102
}
330
29
100
AcDbVisualStyle
  2
ColorChange
 70
    16
177
     2
291
     1
 71
     2
176
     1
 72
     2
176
     1
 73
     3
176
     1
 90
        0
176
     1
 40
0.6
176
     1
 41
30.0
176
     1
 63
     8
421
  8421504
176
     1
 74
     1
176
     1
 91
        4
176
     1
 64
     7
176
     1
 65
   257
176
     1
 75
     1
176
     1
175
     1
176
     1
 42
1.0
176
     1
 92
        8
176
     1
 66
     8
424
  8421504
176
     1
 43
1.0
176
     1
 76
     1
176
     1
 77
     6
176
     1
 78
     2
176
     1
 67
     7
176
     1
 79
     5
176
     1
170
     0
176
     1
171
     0
176
     1
290
     0
176
     1
 93
        1
176
     1
 44
0.0
176
     1
173
     0
176
     1
1001
ACAD
1000
AcDbSavedByObjectVersion
1070
     0
  0
VISUALSTYLE
  5
32
102
{ACAD_XDICTIONARY
360
16A
102
}
102
{ACAD_REACTORS
330
29
102
}
330
29
100
AcDbVisualStyle
  2
Conceptual
 70
     9
177
     2
291
     0
 71
     3
176
     1
 72
     2
176
     1
 73
     0
176
     1
 90
        0
176
     1
 40
0.6
176
     1
 41
30.0
176
     1
 63
     7
421
 16777215
176
     1
 74
     2
176
     1
 91
        2
176
     1
 64
     7
176
     1
 65
   257
176
     1
 75
     1
176
     1
175
     1
176
     1
 42
179.0
176
     1
 92
        8
176
     1
 66
     7
176
     1
 43
1.0
176
     1
 76
     1
176
     1
 77
     6
176
     1
 78
     2
176
     1
 67
     7
176
     1
 79
     3
176
     1
170
     0
176
     1
171
     0
176
     1
290
     0
176
     1
 93
        1
176
     1
 44
0.0
176
     1
173
     0
176
     1
1001
ACAD
1000
AcDbSavedByObjectVersion
1070
     0
  0
VISUALSTYLE
  5
34
102
{ACAD_XDICTIONARY
360
16E
102
}
102
{ACAD_REACTORS
330
29
102
}
330
29
100
AcDbVisualStyle
  2
Dim
 70
    11
177
     2
291
     1
 71
     2
176
     1
 72
     2
176
     1
 73
     0
176
     1
 90
        0
176
     1
 40
0.6
176
     1
 41
30.0
176
     1
 63
     7
421
 16777215
176
     1
 74
     1
176
     1
 91
        4
176
     1
 64
     7
176
     1
 65
   257
176
     1
 75
     1
176
     1
175
     1
176
     1
 42
1.0
176
     1
 92
        8
176
     1
 66
     7
176
     1
 43
1.0
176
     1
 76
     1
176
     1
 77
     6
176
     1
 78
     2
176
     1
 67
     7
176
     1
 79
     5
176
     1
170
     0
176
     1
171
     0
176
     1
290
     0
176
     1
 93
        1
176
     1
 44
-50.0
176
     1
173
     0
176
     1
1001
ACAD
1000
AcDbSavedByObjectVersion
1070
     0
  0
VISUALSTYLE
  5
41
102
{ACAD_XDICTIONARY
360
188
102
}
102
{ACAD_REACTORS
330
29
102
}
330
29
100
AcDbVisualStyle
  2
EdgeColorOff
 70
    22
177
     2
291
     1
 71
     2
176
     0
 72
     2
176
     0
 73
     0
176
     0
 90
        0
176
     0
 40
0.6
176
     0
 41
30.0
176
     0
 63
     7
421
 16777215
176
     0
 74
     1
176
     0
 91
        4
176
     0
 64
     7
176
     0
 65
   257
176
     0
 75
     1
176
     0
175
     1
176
     0
 42
1.0
176
     0
 92
        8
176
     2
 66
     7
176
     0
 43
1.0
176
     0
 76
     1
176
     0
 77
     6
176
     0
 78
     2
176
     0
 67
     7
176
     0
 79
     5
176
     0
170
     0
176
     0
171
     0
176
     0
290
     0
176
     0
 93
        1
176
     0
 44
0.0
176
     0
173
     0
176
     0
1001
ACAD
1000
AcDbSavedByObjectVersion
1070
     0
  0
VISUALSTYLE
  5
38
102
{ACAD_XDICTIONARY
360
176
102
}
102
{ACAD_REACTORS
330
29
102
}
330
29
100
AcDbVisualStyle
  2
Facepattern
 70
    15
177
     2
291
     1
 71
     2
176
     1
 72
     2
176
     1
 73
     0
176
     1
 90
        0
176
     1
 40
0.6
176
     1
 41
30.0
176
     1
 63
     7
421
 16777215
176
     1
 74
     1
176
     1
 91
        4
176
     1
 64
     7
176
     1
 65
   257
176
     1
 75
     1
176
     1
175
     1
176
     1
 42
1.0
176
     1
 92
        8
176
     1
 66
     7
176
     1
 43
1.0
176
     1
 76
     1
176
     1
 77
     6
176
     1
 78
     2
176
     1
 67
     7
176
     1
 79
     5
176
     1
170
     0
176
     1
171
     0
176
     1
290
     0
176
     1
 93
        1
176
     1
 44
0.0
176
     1
173
     0
176
     1
1001
ACAD
1000
AcDbSavedByObjectVersion
1070
     0
  0
VISUALSTYLE
  5
2A
102
{ACAD_XDICTIONARY
360
15A
102
}
102
{ACAD_REACTORS
330
29
102
}
330
29
100
AcDbVisualStyle
  2
Flat
 70
     0
177
     2
291
     1
 71
     2
176
     1
 72
     1
176
     1
 73
     1
176
     1
 90
        2
176
     1
 40
0.6
176
     1
 41
30.0
176
     1
 63
     7
421
 16777215
176
     1
 74
     0
176
     1
 91
        0
176
     1
 64
     7
176
     1
 65
   257
176
     1
 75
     1
176
     1
175
     1
176
     1
 42
1.0
176
     1
 92
        8
176
     1
 66
     7
176
     1
 43
1.0
176
     1
 76
     1
176
     1
 77
     6
176
     1
 78
     2
176
     1
 67
     7
176
     1
 79
     5
176
     1
170
     0
176
     1
171
     0
176
     1
290
     0
176
     1
 93
       13
176
     1
 44
0.0
176
     1
173
     0
176
     1
1001
ACAD
1000
AcDbSavedByObjectVersion
1070
     0
  0
VISUALSTYLE
  5
2B
102
{ACAD_XDICTIONARY
360
15C
102
}
102
{ACAD_REACTORS
330
29
102
}
330
29
100
AcDbVisualStyle
  2
FlatWithEdges
 70
     1
177
     2
291
     1
 71
     2
176
     1
 72
     1
176
     1
 73
     1
176
     1
 90
        2
176
     1
 40
0.6
176
     1
 41
30.0
176
     1
 63
     7
421
 16777215
176
     1
 74
     1
176
     1
 91
        0
176
     1
 64
     7
176
     1
 65
   257
176
     1
 75
     1
176
     1
175
     1
176
     1
 42
1.0
176
     1
 92
        0
176
     1
 66
   257
176
     1
 43
1.0
176
     1
 76
     1
176
     1
 77
     6
176
     1
 78
     2
176
     1
 67
     7
176
     1
 79
     5
176
     1
170
     0
176
     1
171
     0
176
     1
290
     0
176
     1
 93
       13
176
     1
 44
0.0
176
     1
173
     0
176
     1
1001
ACAD
1000
AcDbSavedByObjectVersion
1070
     0
  0
VISUALSTYLE
  5
2C
102
{ACAD_XDICTIONARY
360
15E
102
}
102
{ACAD_REACTORS
330
29
102
}
330
29
100
AcDbVisualStyle
  2
Gouraud
 70
     2
177
     2
291
     1
 71
     2
176
     1
 72
     2
176
     1
 73
     1
176
     1
 90
        2
176
     1
 40
0.6
176
     1
 41
30.0
176
     1
 63
     7
421
 16777215
176
     1
 74
     0
176
     1
 91
        0
176
     1
 64
     7
176
     1
 65
   257
176
     1
 75
     1
176
     1
175
     1
176
     1
 42
1.0
176
     1
 92
        0
176
     1
 66
     7
176
     1
 43
1.0
176
     1
 76
     1
176
     1
 77
     6
176
     1
 78
     2
176
     1
 67
     7
176
     1
 79
     5
176
     1
170
     0
176
     1
171
     0
176
     1
290
     0
176
     1
 93
       13
176
     1
 44
0.0
176
     1
173
     0
176
     1
1001
ACAD
1000
AcDbSavedByObjectVersion
1070
     0
  0
VISUALSTYLE
  5
2D
102
{ACAD_XDICTIONARY
360
160
102
}
102
{ACAD_REACTORS
330
29
102
}
330
29
100
AcDbVisualStyle
  2
GouraudWithEdges
 70
     3
177
     2
291
     1
 71
     2
176
     1
 72
     2
176
     1
 73
     1
176
     1
 90
        2
176
     1
 40
0.6
176
     1
 41
30.0
176
     1
 63
     7
421
 16777215
176
     1
 74
     1
176
     1
 91
        0
176
     1
 64
     7
176
     1
 65
   257
176
     1
 75
     1
176
     1
175
     1
176
     1
 42
1.0
176
     1
 92
        0
176
     1
 66
   257
176
     1
 43
1.0
176
     1
 76
     1
176
     1
 77
     6
176
     1
 78
     2
176
     1
 67
     7
176
     1
 79
     5
176
     1
170
     0
176
     1
171
     0
176
     1
290
     0
176
     1
 93
       13
176
     1
 44
0.0
176
     1
173
     0
176
     1
1001
ACAD
1000
AcDbSavedByObjectVersion
1070
     0
  0
VISUALSTYLE
  5
31
102
{ACAD_XDICTIONARY
360
168
102
}
102
{ACAD_REACTORS
330
29
102
}
330
29
100
AcDbVisualStyle
  2
Hidden
 70
     6
177
     2
291
     0
 71
     1
176
     1
 72
     2
176
     1
 73
     2
176
     1
 90
        0
176
     1
 40
0.6
176
     1
 41
30.0
176
     1
 63
     7
421
 16777215
176
     1
 74
     2
176
     1
 91
        2
176
     1
 64
     7
176
     1
 65
   257
176
     1
 75
     2
176
     1
175
     1
176
     1
 42
40.0
176
     1
 92
        0
176
     1
 66
   257
176
     1
 43
1.0
176
     1
 76
     1
176
     1
 77
     6
176
     1
 78
     2
176
     1
 67
     7
176
     1
 79
     3
176
     1
170
     0
176
     1
171
     0
176
     1
290
     0
176
     1
 93
        1
176
     1
 44
0.0
176
     1
173
     0
176
     1
1001
ACAD
1000
AcDbSavedByObjectVersion
1070
     0
  0
VISUALSTYLE
  5
3F
102
{ACAD_XDICTIONARY
360
184
102
}
102
{ACAD_REACTORS
330
29
102
}
330
29
100
AcDbVisualStyle
  2
JitterOff
 70
    20
177
     2
291
     1
 71
     2
176
     0
 72
     2
176
     0
 73
     0
176
     0
 90
        0
176
     0
 40
0.6
176
     0
 41
30.0
176
     0
 63
     7
421
 16777215
176
     0
 74
     1
176
     0
 91
        4
176
     0
 64
     7
176
     0
 65
   257
176
     0
 75
     1
176
     0
175
     1
176
     0
 42
1.0
176
     0
 92
       10
176
     2
 66
     7
176
     0
 43
1.0
176
     0
 76
     1
176
     0
 77
     6
176
     0
 78
     2
176
     0
 67
     7
176
     0
 79
     5
176
     0
170
     0
176
     0
171
     0
176
     0
290
     0
176
     0
 93
        1
176
     0
 44
0.0
176
     0
173
     0
176
     0
1001
ACAD
1000
AcDbSavedByObjectVersion
1070
     0
  0
VISUALSTYLE
  5
37
102
{ACAD_XDICTIONARY
360
174
102
}
102
{ACAD_REACTORS
330
29
102
}
330
29
100
AcDbVisualStyle
  2
Linepattern
 70
    14
177
     2
291
     1
 71
     2
176
     1
 72
     2
176
     1
 73
     0
176
     1
 90
        0
176
     1
 40
0.6
176
     1
 41
30.0
176
     1
 63
     7
421
 16777215
176
     1
 74
     1
176
     1
 91
        4
176
     1
 64
     7
176
     1
 65
   257
176
     1
 75
     7
176
     1
175
     7
176
     1
 42
1.0
176
     1
 92
        8
176
     1
 66
     7
176
     1
 43
1.0
176
     1
 76
     1
176
     1
 77
     6
176
     1
 78
     2
176
     1
 67
     7
176
     1
 79
     5
176
     1
170
     0
176
     1
171
     0
176
     1
290
     0
176
     1
 93
        1
176
     1
 44
0.0
176
     1
173
     0
176
     1
1001
ACAD
1000
AcDbSavedByObjectVersion
1070
     0
  0
VISUALSTYLE
  5
40
102
{ACAD_XDICTIONARY
360
186
102
}
102
{ACAD_REACTORS
330
29
102
}
330
29
100
AcDbVisualStyle
  2
OverhangOff
 70
    21
177
     2
291
     1
 71
     2
176
     0
 72
     2
176
     0
 73
     0
176
     0
 90
        0
176
     0
 40
0.6
176
     0
 41
30.0
176
     0
 63
     7
421
 16777215
176
     0
 74
     1
176
     0
 91
        4
176
     0
 64
     7
176
     0
 65
   257
176
     0
 75
     1
176
     0
175
     1
176
     0
 42
1.0
176
     0
 92
        9
176
     2
 66
     7
176
     0
 43
1.0
176
     0
 76
     1
176
     0
 77
     6
176
     0
 78
     2
176
     0
 67
     7
176
     0
 79
     5
176
     0
170
     0
176
     0
171
     0
176
     0
290
     0
176
     0
 93
        1
176
     0
 44
0.0
176
     0
173
     0
176
     0
1001
ACAD
1000
AcDbSavedByObjectVersion
1070
     0
  0
VISUALSTYLE
  5
33
102
{ACAD_XDICTIONARY
360
16C
102
}
102
{ACAD_REACTORS
330
29
102
}
330
29
100
AcDbVisualStyle
  2
Realistic
 70
     8
177
     2
291
     0
 71
     2
176
     1
 72
     3
176
     1
 73
     0
176
     1
 90
        2
176
     1
 40
0.6
176
     1
 41
30.0
176
     1
 63
     7
421
 16777215
176
     1
 74
     0
176
     1
 91
        0
176
     1
 64
     7
176
     1
 65
   257
176
     1
 75
     1
176
     1
175
     1
176
     1
 42
1.0
176
     1
 92
        8
176
     1
 66
   257
176
     1
 43
1.0
176
     1
 76
     1
176
     1
 77
     6
176
     1
 78
     2
176
     1
 67
     7
176
     1
 79
     3
176
     1
170
     0
176
     1
171
     0
176
     1
290
     0
176
     1
 93
       13
176
     1
 44
0.0
176
     1
173
     0
176
     1
1001
ACAD
1000
AcDbSavedByObjectVersion
1070
     0
  0
VISUALSTYLE
  5
3E
102
{ACAD_XDICTIONARY
360
182
102
}
102
{ACAD_REACTORS
330
29
102
}
330
29
100
AcDbVisualStyle
  2
Shaded
 70
    27
177
     2
291
     0
 71
     2
176
     1
 72
     2
176
     1
 73
     1
176
     1
 90
        2
176
     1
 40
0.6
176
     1
 41
30.0
176
     1
 63
     7
421
 16777215
176
     1
 74
     0
176
     1
 91
        4
176
     1
 64
     7
176
     1
 65
   257
176
     1
 75
     1
176
     1
175
     1
176
     1
 42
1.0
176
     1
 92
        8
176
     1
 66
   257
176
     1
 43
1.0
176
     1
 76
     1
176
     1
 77
     6
176
     1
 78
     2
176
     1
 67
     8
425
  7895160
176
     1
 79
     3
176
     1
170
     0
176
     1
171
     0
176
     1
290
     0
176
     1
 93
        5
176
     1
 44
0.0
176
     1
173
     0
176
     1
1001
ACAD
1000
AcDbSavedByObjectVersion
1070
     0
  0
VISUALSTYLE
  5
3D
102
{ACAD_XDICTIONARY
360
180
102
}
102
{ACAD_REACTORS
330
29
102
}
330
29
100
AcDbVisualStyle
  2
Shaded with edges
 70
    26
177
     2
291
     0
 71
     2
176
     1
 72
     2
176
     1
 73
     1
176
     1
 90
        2
176
     1
 40
0.6
176
     1
 41
30.0
176
     1
 63
     7
421
 16777215
176
     1
 74
     1
176
     1
 91
        2
176
     1
 64
     7
176
     1
 65
   257
176
     1
 75
     2
176
     1
175
     1
176
     1
 42
1.0
176
     1
 92
        8
176
     1
 66
   257
176
     1
 43
1.0
176
     1
 76
     1
176
     1
 77
     6
176
     1
 78
     2
176
     1
 67
     7
176
     1
 79
     3
176
     1
170
     0
176
     1
171
     0
176
     1
290
     0
176
     1
 93
        5
176
     1
 44
0.0
176
     1
173
     0
176
     1
1001
ACAD
1000
AcDbSavedByObjectVersion
1070
     0
  0
VISUALSTYLE
  5
3A
102
{ACAD_XDICTIONARY
360
17A
102
}
102
{ACAD_REACTORS
330
29
102
}
330
29
100
AcDbVisualStyle
  2
Shades of Gray
 70
    23
177
     2
291
     0
 71
     2
176
     1
 72
     2
176
     1
 73
     3
176
     1
 90
        0
176
     1
 40
0.6
176
     1
 41
30.0
176
     1
 63
     7
421
 16777215
176
     1
 74
     2
176
     1
 91
        2
176
     1
 64
     7
176
     1
 65
     7
176
     1
 75
     1
176
     1
175
     1
176
     1
 42
40.0
176
     1
 92
        8
176
     1
 66
     7
176
     1
 43
1.0
176
     1
 76
     1
176
     1
 77
     6
176
     1
 78
     2
176
     1
 67
     7
176
     1
 79
     3
176
     1
170
     0
176
     1
171
     0
176
     1
290
     0
176
     1
 93
        1
176
     1
 44
0.0
176
     1
173
     0
176
     1
1001
ACAD
1000
AcDbSavedByObjectVersion
1070
     0
  0
VISUALSTYLE
  5
3B
102
{ACAD_XDICTIONARY
360
17C
102
}
102
{ACAD_REACTORS
330
29
102
}
330
29
100
AcDbVisualStyle
  2
Sketchy
 70
    24
177
     2
291
     0
 71
     1
176
     1
 72
     2
176
     1
 73
     2
176
     1
 90
        0
176
     1
 40
0.6
176
     1
 41
30.0
176
     1
 63
     7
421
 16777215
176
     1
 74
     2
176
     1
 91
        2
176
     1
 64
     7
176
     1
 65
     7
176
     1
 75
     1
176
     1
175
     1
176
     1
 42
40.0
176
     1
 92
       11
176
     1
 66
     7
176
     1
 43
1.0
176
     1
 76
     1
176
     1
 77
     6
176
     1
 78
     2
176
     1
 67
     7
176
     1
 79
     6
176
     1
170
     0
176
     1
171
     0
176
     1
290
     0
176
     1
 93
        1
176
     1
 44
0.0
176
     1
173
     0
176
     1
1001
ACAD
1000
AcDbSavedByObjectVersion
1070
     0
  0
VISUALSTYLE
  5
36
102
{ACAD_XDICTIONARY
360
172
102
}
102
{ACAD_REACTORS
330
29
102
}
330
29
100
AcDbVisualStyle
  2
Thicken
 70
    13
177
     2
291
     1
 71
     2
176
     1
 72
     2
176
     1
 73
     0
176
     1
 90
        0
176
     1
 40
0.6
176
     1
 41
30.0
176
     1
 63
     7
421
 16777215
176
     1
 74
     1
176
     1
 91
        4
176
     1
 64
     7
176
     1
 65
   257
176
     1
 75
     1
176
     1
175
     1
176
     1
 42
1.0
176
     1
 92
       12
176
     1
 66
     7
176
     1
 43
1.0
176
     1
 76
     1
176
     1
 77
     6
176
     1
 78
     2
176
     1
 67
     7
176
     1
 79
     5
176
     1
170
     0
176
     1
171
     0
176
     1
290
     0
176
     1
 93
        1
176
     1
 44
0.0
176
     1
173
     0
176
     1
1001
ACAD
1000
AcDbSavedByObjectVersion
1070
     0
  0
VISUALSTYLE
  5
30
102
{ACAD_XDICTIONARY
360
166
102
}
102
{ACAD_REACTORS
330
29
102
}
330
29
100
AcDbVisualStyle
  2
Wireframe
 70
     5
177
     2
291
     0
 71
     0
176
     1
 72
     2
176
     1
 73
     0
176
     1
 90
        0
176
     1
 40
0.6
176
     1
 41
30.0
176
     1
 63
     7
421
 16777215
176
     1
 74
     1
176
     1
 91
        4
176
     1
 64
     7
176
     1
 65
   257
176
     1
 75
     1
176
     1
175
     1
176
     1
 42
1.0
176
     1
 92
        0
176
     1
 66
   257
176
     1
 43
1.0
176
     1
 76
     1
176
     1
 77
     6
176
     1
 78
     2
176
     1
 67
     7
176
     1
 79
     3
176
     1
170
     0
176
     1
171
     0
176
     1
290
     0
176
     1
 93
        1
176
     1
 44
0.0
176
     1
173
     0
176
     1
1001
ACAD
1000
AcDbSavedByObjectVersion
1070
     0
  0
VISUALSTYLE
  5
3C
102
{ACAD_XDICTIONARY
360
17E
102
}
102
{ACAD_REACTORS
330
29
102
}
330
29
100
AcDbVisualStyle
  2
X-Ray
 70
    25
177
     2
291
     0
 71
     2
176
     1
 72
     2
176
     1
 73
     1
176
     1
 90
        1
176
     1
 40
0.5
176
     1
 41
30.0
176
     1
 63
     7
421
 16777215
176
     1
 74
     1
176
     1
 91
        0
176
     1
 64
     7
176
     1
 65
   257
176
     1
 75
     1
176
     1
175
     1
176
     1
 42
1.0
176
     1
 92
        8
176
     1
 66
     7
176
     1
 43
1.0
176
     1
 76
     1
176
     1
 77
     6
176
     1
 78
     2
176
     1
 67
     7
176
     1
 79
     3
176
     1
170
     0
176
     1
171
     0
176
     1
290
     0
176
     1
 93
       13
176
     1
 44
0.0
176
     1
173
     0
176
     1
1001
ACAD
1000
AcDbSavedByObjectVersion
1070
     0
  0
DICTIONARYVAR
  5
156
102
{ACAD_REACTORS
330
151
102
}
330
151
100
DictionaryVariables
280
     0
  1
1:1
  0
DICTIONARYVAR
  5
153
102
{ACAD_REACTORS
330
151
102
}
330
151
100
DictionaryVariables
280
     0
  1
STANDARD
  0
DICTIONARYVAR
  5
152
102
{ACAD_REACTORS
330
151
102
}
330
151
100
DictionaryVariables
280
     0
  1
STANDARD
  0
DICTIONARYVAR
  5
154
102
{ACAD_REACTORS
330
151
102
}
330
151
100
DictionaryVariables
280
     0
  1
Imperial24
  0
DICTIONARYVAR
  5
155
102
{ACAD_REACTORS
330
151
102
}
330
151
100
DictionaryVariables
280
     0
  1
Imperial24
  0
DICTIONARY
  5
18E
330
6B
100
AcDbDictionary
280
     1
281
     1
  3
ACAD_XREC_ROUNDTRIP
360
18F
  0
DICTIONARY
  5
1A
330
19
100
AcDbDictionary
280
     1
281
     1
  3
BUMPTILE
360
1C
  3
DIFFUSETILE
360
1B
  3
OPACITYTILE
360
1F
  3
REFLECTIONTILE
360
1E
  3
REFRACTIONTILE
360
20
  3
SPECULARTILE
360
1D
  0
DICTIONARY
  5
12
330
11
100
AcDbDictionary
280
     1
281
     1
  3
BUMPTILE
360
14
  3
DIFFUSETILE
360
13
  3
OPACITYTILE
360
17
  3
REFLECTIONTILE
360
16
  3
REFRACTIONTILE
360
18
  3
SPECULARTILE
360
15
  0
DICTIONARY
  5
22
330
21
100
AcDbDictionary
280
     1
281
     1
  3
BUMPTILE
360
24
  3
DIFFUSETILE
360
23
  3
OPACITYTILE
360
27
  3
REFLECTIONTILE
360
26
  3
REFRACTIONTILE
360
28
  3
SPECULARTILE
360
25
  0
DICTIONARY
  5
18A
330
67
100
AcDbDictionary
280
     1
281
     1
  3
ACAD_XREC_ROUNDTRIP
360
18B
  0
DICTIONARY
  5
18C
330
69
100
AcDbDictionary
280
     1
281
     1
  3
ACAD_XREC_ROUNDTRIP
360
18D
  0
DICTIONARY
  5
157
330
65
100
AcDbDictionary
280
     1
281
     1
  3
ACAD_ROUNDTRIP_2008_TABLESTYLE_CELLSTYLEMAP
360
158
  0
DICTIONARY
  5
164
330
2F
100
AcDbDictionary
280
     1
281
     1
  3
ACAD_XREC_ROUNDTRIP
360
165
  0
DICTIONARY
  5
162
330
2E
100
AcDbDictionary
280
     1
281
     1
  3
ACAD_XREC_ROUNDTRIP
360
163
  0
DICTIONARY
  5
170
330
35
100
AcDbDictionary
280
     1
281
     1
  3
ACAD_XREC_ROUNDTRIP
360
171
  0
DICTIONARY
  5
178
330
39
100
AcDbDictionary
280
     1
281
     1
  3
ACAD_XREC_ROUNDTRIP
360
179
  0
DICTIONARY
  5
16A
330
32
100
AcDbDictionary
280
     1
281
     1
  3
ACAD_XREC_ROUNDTRIP
360
16B
  0
DICTIONARY
  5
16E
330
34
100
AcDbDictionary
280
     1
281
     1
  3
ACAD_XREC_ROUNDTRIP
360
16F
  0
DICTIONARY
  5
188
330
41
100
AcDbDictionary
280
     1
281
     1
  3
ACAD_XREC_ROUNDTRIP
360
189
  0
DICTIONARY
  5
176
330
38
100
AcDbDictionary
280
     1
281
     1
  3
ACAD_XREC_ROUNDTRIP
360
177
  0
DICTIONARY
  5
15A
330
2A
100
AcDbDictionary
280
     1
281
     1
  3
ACAD_XREC_ROUNDTRIP
360
15B
  0
DICTIONARY
  5
15C
330
2B
100
AcDbDictionary
280
     1
281
     1
  3
ACAD_XREC_ROUNDTRIP
360
15D
  0
DICTIONARY
  5
15E
330
2C
100
AcDbDictionary
280
     1
281
     1
  3
ACAD_XREC_ROUNDTRIP
360
15F
  0
DICTIONARY
  5
160
330
2D
100
AcDbDictionary
280
     1
281
     1
  3
ACAD_XREC_ROUNDTRIP
360
161
  0
DICTIONARY
  5
168
330
31
100
AcDbDictionary
280
     1
281
     1
  3
ACAD_XREC_ROUNDTRIP
360
169
  0
DICTIONARY
  5
184
330
3F
100
AcDbDictionary
280
     1
281
     1
  3
ACAD_XREC_ROUNDTRIP
360
185
  0
DICTIONARY
  5
174
330
37
100
AcDbDictionary
280
     1
281
     1
  3
ACAD_XREC_ROUNDTRIP
360
175
  0
DICTIONARY
  5
186
330
40
100
AcDbDictionary
280
     1
281
     1
  3
ACAD_XREC_ROUNDTRIP
360
187
  0
DICTIONARY
  5
16C
330
33
100
AcDbDictionary
280
     1
281
     1
  3
ACAD_XREC_ROUNDTRIP
360
16D
  0
DICTIONARY
  5
182
330
3E
100
AcDbDictionary
280
     1
281
     1
  3
ACAD_XREC_ROUNDTRIP
360
183
  0
DICTIONARY
  5
180
330
3D
100
AcDbDictionary
280
     1
281
     1
  3
ACAD_XREC_ROUNDTRIP
360
181
  0
DICTIONARY
  5
17A
330
3A
100
AcDbDictionary
280
     1
281
     1
  3
ACAD_XREC_ROUNDTRIP
360
17B
  0
DICTIONARY
  5
17C
330
3B
100
AcDbDictionary
280
     1
281
     1
  3
ACAD_XREC_ROUNDTRIP
360
17D
  0
DICTIONARY
  5
172
330
36
100
AcDbDictionary
280
     1
281
     1
  3
ACAD_XREC_ROUNDTRIP
360
173
  0
DICTIONARY
  5
166
330
30
100
AcDbDictionary
280
     1
281
     1
  3
ACAD_XREC_ROUNDTRIP
360
167
  0
DICTIONARY
  5
17E
330
3C
100
AcDbDictionary
280
     1
281
     1
  3
ACAD_XREC_ROUNDTRIP
360
17F
  0
XRECORD
  5
18F
102
{ACAD_REACTORS
330
18E
102
}
330
18E
100
AcDbXrecord
280
     1
102
DISPLAYNAME
  1
Imperial24
102
FLAGS
 90
        0
  0
XRECORD
  5
1C
102
{ACAD_REACTORS
330
1A
102
}
330
1A
100
AcDbXrecord
280
     1
270
     1
271
     1
  0
XRECORD
  5
1B
102
{ACAD_REACTORS
330
1A
102
}
330
1A
100
AcDbXrecord
280
     1
270
     1
271
     1
  0
XRECORD
  5
1F
102
{ACAD_REACTORS
330
1A
102
}
330
1A
100
AcDbXrecord
280
     1
270
     1
271
     1
  0
XRECORD
  5
1E
102
{ACAD_REACTORS
330
1A
102
}
330
1A
100
AcDbXrecord
280
     1
270
     1
271
     1
  0
XRECORD
  5
20
102
{ACAD_REACTORS
330
1A
102
}
330
1A
100
AcDbXrecord
280
     1
270
     1
271
     1
  0
XRECORD
  5
1D
102
{ACAD_REACTORS
330
1A
102
}
330
1A
100
AcDbXrecord
280
     1
270
     1
271
     1
  0
XRECORD
  5
14
102
{ACAD_REACTORS
330
12
102
}
330
12
100
AcDbXrecord
280
     1
270
     1
271
     1
  0
XRECORD
  5
13
102
{ACAD_REACTORS
330
12
102
}
330
12
100
AcDbXrecord
280
     1
270
     1
271
     1
  0
XRECORD
  5
17
102
{ACAD_REACTORS
330
12
102
}
330
12
100
AcDbXrecord
280
     1
270
     1
271
     1
  0
XRECORD
  5
16
102
{ACAD_REACTORS
330
12
102
}
330
12
100
AcDbXrecord
280
     1
270
     1
271
     1
  0
XRECORD
  5
18
102
{ACAD_REACTORS
330
12
102
}
330
12
100
AcDbXrecord
280
     1
270
     1
271
     1
  0
XRECORD
  5
15
102
{ACAD_REACTORS
330
12
102
}
330
12
100
AcDbXrecord
280
     1
270
     1
271
     1
  0
XRECORD
  5
24
102
{ACAD_REACTORS
330
22
102
}
330
22
100
AcDbXrecord
280
     1
270
     1
271
     1
  0
XRECORD
  5
23
102
{ACAD_REACTORS
330
22
102
}
330
22
100
AcDbXrecord
280
     1
270
     1
271
     1
  0
XRECORD
  5
27
102
{ACAD_REACTORS
330
22
102
}
330
22
100
AcDbXrecord
280
     1
270
     1
271
     1
  0
XRECORD
  5
26
102
{ACAD_REACTORS
330
22
102
}
330
22
100
AcDbXrecord
280
     1
270
     1
271
     1
  0
XRECORD
  5
28
102
{ACAD_REACTORS
330
22
102
}
330
22
100
AcDbXrecord
280
     1
270
     1
271
     1
  0
XRECORD
  5
25
102
{ACAD_REACTORS
330
22
102
}
330
22
100
AcDbXrecord
280
     1
270
     1
271
     1
  0
XRECORD
  5
18B
102
{ACAD_REACTORS
330
18A
102
}
330
18A
100
AcDbXrecord
280
     1
102
ACAD_ROUNDTRIP_2012_MLEADER_STYLE
298
     1
  0
XRECORD
  5
18D
102
{ACAD_REACTORS
330
18C
102
}
330
18C
100
AcDbXrecord
280
     1
102
DISPLAYNAME
  1
Imperial24
102
FLAGS
 90
        0
  0
CELLSTYLEMAP
  5
158
102
{ACAD_REACTORS
330
157
102
}
330
157
100
AcDbCellStyleMap
 90
        3
300
CELLSTYLE
  1
TABLEFORMAT_BEGIN
 90
        5
170
     1
 91
        0
 92
    32768
 62
   257
 93
        1
300
CONTENTFORMAT
  1
CONTENTFORMAT_BEGIN
 90
        0
 91
        0
 92
      512
 93
        0
300

 40
0.0
140
1.0
 94
        5
 62
     0
340
55
144
0.25
309
CONTENTFORMAT_END
171
     0
 94
        0
309
TABLEFORMAT_END
  1
CELLSTYLE_BEGIN
 90
        1
 91
        1
300
_TITLE
309
CELLSTYLE_END
300
CELLSTYLE
  1
TABLEFORMAT_BEGIN
 90
        5
170
     1
 91
        0
 92
        0
 62
   257
 93
        1
300
CONTENTFORMAT
  1
CONTENTFORMAT_BEGIN
 90
        0
 91
        0
 92
      512
 93
        0
300

 40
0.0
140
1.0
 94
        5
 62
     0
340
55
144
0.18
309
CONTENTFORMAT_END
171
     0
 94
        0
309
TABLEFORMAT_END
  1
CELLSTYLE_BEGIN
 90
        2
 91
        1
300
_HEADER
309
CELLSTYLE_END
300
CELLSTYLE
  1
TABLEFORMAT_BEGIN
 90
        5
170
     1
 91
        0
 92
        0
 62
   257
 93
        1
300
CONTENTFORMAT
  1
CONTENTFORMAT_BEGIN
 90
        0
 91
        0
 92
      512
 93
        0
300

 40
0.0
140
1.0
 94
        2
 62
     0
340
55
144
0.18
309
CONTENTFORMAT_END
171
     0
 94
        0
309
TABLEFORMAT_END
  1
CELLSTYLE_BEGIN
 90
        3
 91
        2
300
_DATA
309
CELLSTYLE_END
  0
XRECORD
  5
165
102
{ACAD_REACTORS
330
164
102
}
330
164
100
AcDbXrecord
280
     1
102
RTVSPost2010Prop28
280
     1
102
RTVSPost2010PropOp28
 70
     1
102
RTVSPost2010Prop29
280
     1
102
RTVSPost2010PropOp29
 70
     1
102
RTVSPost2010Prop30
280
     0
102
RTVSPost2010PropOp30
 70
     1
102
RTVSPost2010Prop31
280
     0
102
RTVSPost2010PropOp31
 70
     1
102
RTVSPost2010Prop32
280
     0
102
RTVSPost2010PropOp32
 70
     1
102
RTVSPost2010Prop33
280
     0
102
RTVSPost2010PropOp33
 70
     1
102
RTVSPost2010Prop34
280
     0
102
RTVSPost2010PropOp34
 70
     1
102
RTVSPost2010Prop35
280
     0
102
RTVSPost2010PropOp35
 70
     1
102
RTVSPost2010Prop36
280
     0
102
RTVSPost2010PropOp36
 70
     1
102
RTVSPost2010Prop37
 90
       50
102
RTVSPost2010PropOp37
 70
     1
102
RTVSPost2010Prop38
140
0.0
102
RTVSPost2010PropOp38
 70
     1
102
RTVSPost2010Prop39
140
1.0
102
RTVSPost2010PropOp39
 70
     1
102
RTVSPost2010Prop40
 90
        0
102
RTVSPost2010PropOp40
 70
     1
102
RTVSPost2010Prop41ColorIndex
 90
       18
102
RTVSPost2010Prop41ColorRGB
 90
        0
102
RTVSPost2010PropOp41
 70
     1
102
RTVSPost2010Prop42
 90
       50
102
RTVSPost2010PropOp42
 70
     1
102
RTVSPost2010Prop43
 90
        3
102
RTVSPost2010PropOp43
 70
     1
102
RTVSPost2010Prop44ColorIndex
 90
        5
102
RTVSPost2010Prop44ColorRGB
 90
      255
102
RTVSPost2010PropOp44
 70
     1
102
RTVSPost2010Prop45
280
     0
102
RTVSPost2010PropOp45
 70
     1
102
RTVSPost2010Prop46
 90
       50
102
RTVSPost2010PropOp46
 70
     1
102
RTVSPost2010Prop47
 90
       50
102
RTVSPost2010PropOp47
 70
     1
102
RTVSPost2010Prop48
 90
       50
102
RTVSPost2010PropOp48
 70
     1
102
RTVSPost2010Prop49
280
     0
102
RTVSPost2010PropOp49
 70
     1
102
RTVSPost2010Prop50
 90
       50
102
RTVSPost2010PropOp50
 70
     1
102
RTVSPost2010Prop51ColorIndex
 90
      256
102
RTVSPost2010Prop51ColorRGB
 90
-16777216
102
RTVSPost2010PropOp51
 70
     0
102
RTVSPost2010Prop52
140
1.0
102
RTVSPost2010PropOp52
 70
     0
102
RTVSPost2010Prop53
 90
        2
102
RTVSPost2010PropOp53
 70
     1
102
RTVSPost2010Prop54
  1
strokes_ogs.tif
102
RTVSPost2010PropOp54
 70
     1
102
RTVSPost2010Prop55
280
     0
102
RTVSPost2010PropOp55
 70
     1
102
RTVSPost2010Prop56
140
1.0
102
RTVSPost2010PropOp56
 70
     1
102
RTVSPost2010Prop57
140
1.0
102
RTVSPost2010PropOp57
 70
     1
  0
XRECORD
  5
163
102
{ACAD_REACTORS
330
162
102
}
330
162
100
AcDbXrecord
280
     1
102
RTVSPost2010Prop28
280
     0
102
RTVSPost2010PropOp28
 70
     1
102
RTVSPost2010Prop29
280
     1
102
RTVSPost2010PropOp29
 70
     1
102
RTVSPost2010Prop30
280
     1
102
RTVSPost2010PropOp30
 70
     1
102
RTVSPost2010Prop31
280
     0
102
RTVSPost2010PropOp31
 70
     1
102
RTVSPost2010Prop32
280
     0
102
RTVSPost2010PropOp32
 70
     1
102
RTVSPost2010Prop33
280
     0
102
RTVSPost2010PropOp33
 70
     1
102
RTVSPost2010Prop34
280
     0
102
RTVSPost2010PropOp34
 70
     1
102
RTVSPost2010Prop35
280
     0
102
RTVSPost2010PropOp35
 70
     1
102
RTVSPost2010Prop36
280
     0
102
RTVSPost2010PropOp36
 70
     1
102
RTVSPost2010Prop37
 90
       50
102
RTVSPost2010PropOp37
 70
     1
102
RTVSPost2010Prop38
140
0.0
102
RTVSPost2010PropOp38
 70
     1
102
RTVSPost2010Prop39
140
1.0
102
RTVSPost2010PropOp39
 70
     1
102
RTVSPost2010Prop40
 90
        0
102
RTVSPost2010PropOp40
 70
     1
102
RTVSPost2010Prop41ColorIndex
 90
       18
102
RTVSPost2010Prop41ColorRGB
 90
        0
102
RTVSPost2010PropOp41
 70
     1
102
RTVSPost2010Prop42
 90
       50
102
RTVSPost2010PropOp42
 70
     1
102
RTVSPost2010Prop43
 90
        3
102
RTVSPost2010PropOp43
 70
     1
102
RTVSPost2010Prop44ColorIndex
 90
        5
102
RTVSPost2010Prop44ColorRGB
 90
      255
102
RTVSPost2010PropOp44
 70
     1
102
RTVSPost2010Prop45
280
     0
102
RTVSPost2010PropOp45
 70
     1
102
RTVSPost2010Prop46
 90
       50
102
RTVSPost2010PropOp46
 70
     1
102
RTVSPost2010Prop47
 90
       50
102
RTVSPost2010PropOp47
 70
     1
102
RTVSPost2010Prop48
 90
       50
102
RTVSPost2010PropOp48
 70
     1
102
RTVSPost2010Prop49
280
     0
102
RTVSPost2010PropOp49
 70
     1
102
RTVSPost2010Prop50
 90
       50
102
RTVSPost2010PropOp50
 70
     1
102
RTVSPost2010Prop51ColorIndex
 90
      256
102
RTVSPost2010Prop51ColorRGB
 90
-16777216
102
RTVSPost2010PropOp51
 70
     0
102
RTVSPost2010Prop52
140
1.0
102
RTVSPost2010PropOp52
 70
     0
102
RTVSPost2010Prop53
 90
        2
102
RTVSPost2010PropOp53
 70
     1
102
RTVSPost2010Prop54
  1
strokes_ogs.tif
102
RTVSPost2010PropOp54
 70
     1
102
RTVSPost2010Prop55
280
     0
102
RTVSPost2010PropOp55
 70
     1
102
RTVSPost2010Prop56
140
1.0
102
RTVSPost2010PropOp56
 70
     1
102
RTVSPost2010Prop57
140
1.0
102
RTVSPost2010PropOp57
 70
     1
  0
XRECORD
  5
171
102
{ACAD_REACTORS
330
170
102
}
330
170
100
AcDbXrecord
280
     1
102
RTVSPost2010Prop28
280
     0
102
RTVSPost2010PropOp28
 70
     1
102
RTVSPost2010Prop29
280
     1
102
RTVSPost2010PropOp29
 70
     1
102
RTVSPost2010Prop30
280
     1
102
RTVSPost2010PropOp30
 70
     1
102
RTVSPost2010Prop31
280
     0
102
RTVSPost2010PropOp31
 70
     1
102
RTVSPost2010Prop32
280
     0
102
RTVSPost2010PropOp32
 70
     1
102
RTVSPost2010Prop33
280
     0
102
RTVSPost2010PropOp33
 70
     1
102
RTVSPost2010Prop34
280
     0
102
RTVSPost2010PropOp34
 70
     1
102
RTVSPost2010Prop35
280
     0
102
RTVSPost2010PropOp35
 70
     1
102
RTVSPost2010Prop36
280
     0
102
RTVSPost2010PropOp36
 70
     1
102
RTVSPost2010Prop37
 90
       50
102
RTVSPost2010PropOp37
 70
     1
102
RTVSPost2010Prop38
140
0.0
102
RTVSPost2010PropOp38
 70
     1
102
RTVSPost2010Prop39
140
1.0
102
RTVSPost2010PropOp39
 70
     1
102
RTVSPost2010Prop40
 90
        0
102
RTVSPost2010PropOp40
 70
     1
102
RTVSPost2010Prop41ColorIndex
 90
       18
102
RTVSPost2010Prop41ColorRGB
 90
        0
102
RTVSPost2010PropOp41
 70
     1
102
RTVSPost2010Prop42
 90
       50
102
RTVSPost2010PropOp42
 70
     1
102
RTVSPost2010Prop43
 90
        3
102
RTVSPost2010PropOp43
 70
     1
102
RTVSPost2010Prop44ColorIndex
 90
        5
102
RTVSPost2010Prop44ColorRGB
 90
      255
102
RTVSPost2010PropOp44
 70
     1
102
RTVSPost2010Prop45
280
     0
102
RTVSPost2010PropOp45
 70
     1
102
RTVSPost2010Prop46
 90
       50
102
RTVSPost2010PropOp46
 70
     1
102
RTVSPost2010Prop47
 90
       50
102
RTVSPost2010PropOp47
 70
     1
102
RTVSPost2010Prop48
 90
       50
102
RTVSPost2010PropOp48
 70
     1
102
RTVSPost2010Prop49
280
     0
102
RTVSPost2010PropOp49
 70
     1
102
RTVSPost2010Prop50
 90
       50
102
RTVSPost2010PropOp50
 70
     1
102
RTVSPost2010Prop51ColorIndex
 90
      256
102
RTVSPost2010Prop51ColorRGB
 90
-16777216
102
RTVSPost2010PropOp51
 70
     0
102
RTVSPost2010Prop52
140
1.0
102
RTVSPost2010PropOp52
 70
     0
102
RTVSPost2010Prop53
 90
        2
102
RTVSPost2010PropOp53
 70
     1
102
RTVSPost2010Prop54
  1
strokes_ogs.tif
102
RTVSPost2010PropOp54
 70
     1
102
RTVSPost2010Prop55
280
     0
102
RTVSPost2010PropOp55
 70
     1
102
RTVSPost2010Prop56
140
1.0
102
RTVSPost2010PropOp56
 70
     1
102
RTVSPost2010Prop57
140
1.0
102
RTVSPost2010PropOp57
 70
     1
  0
XRECORD
  5
179
102
{ACAD_REACTORS
330
178
102
}
330
178
100
AcDbXrecord
280
     1
102
RTVSPost2010Prop28
280
     0
102
RTVSPost2010PropOp28
 70
     1
102
RTVSPost2010Prop29
280
     1
102
RTVSPost2010PropOp29
 70
     1
102
RTVSPost2010Prop30
280
     1
102
RTVSPost2010PropOp30
 70
     1
102
RTVSPost2010Prop31
280
     0
102
RTVSPost2010PropOp31
 70
     1
102
RTVSPost2010Prop32
280
     0
102
RTVSPost2010PropOp32
 70
     1
102
RTVSPost2010Prop33
280
     0
102
RTVSPost2010PropOp33
 70
     1
102
RTVSPost2010Prop34
280
     0
102
RTVSPost2010PropOp34
 70
     1
102
RTVSPost2010Prop35
280
     0
102
RTVSPost2010PropOp35
 70
     1
102
RTVSPost2010Prop36
280
     0
102
RTVSPost2010PropOp36
 70
     1
102
RTVSPost2010Prop37
 90
       50
102
RTVSPost2010PropOp37
 70
     1
102
RTVSPost2010Prop38
140
0.0
102
RTVSPost2010PropOp38
 70
     1
102
RTVSPost2010Prop39
140
1.0
102
RTVSPost2010PropOp39
 70
     1
102
RTVSPost2010Prop40
 90
        0
102
RTVSPost2010PropOp40
 70
     1
102
RTVSPost2010Prop41ColorIndex
 90
       18
102
RTVSPost2010Prop41ColorRGB
 90
        0
102
RTVSPost2010PropOp41
 70
     1
102
RTVSPost2010Prop42
 90
       50
102
RTVSPost2010PropOp42
 70
     1
102
RTVSPost2010Prop43
 90
        3
102
RTVSPost2010PropOp43
 70
     1
102
RTVSPost2010Prop44ColorIndex
 90
        5
102
RTVSPost2010Prop44ColorRGB
 90
      255
102
RTVSPost2010PropOp44
 70
     1
102
RTVSPost2010Prop45
280
     0
102
RTVSPost2010PropOp45
 70
     1
102
RTVSPost2010Prop46
 90
       50
102
RTVSPost2010PropOp46
 70
     1
102
RTVSPost2010Prop47
 90
       50
102
RTVSPost2010PropOp47
 70
     1
102
RTVSPost2010Prop48
 90
       50
102
RTVSPost2010PropOp48
 70
     1
102
RTVSPost2010Prop49
280
     0
102
RTVSPost2010PropOp49
 70
     1
102
RTVSPost2010Prop50
 90
       50
102
RTVSPost2010PropOp50
 70
     1
102
RTVSPost2010Prop51ColorIndex
 90
      256
102
RTVSPost2010Prop51ColorRGB
 90
-16777216
102
RTVSPost2010PropOp51
 70
     0
102
RTVSPost2010Prop52
140
1.0
102
RTVSPost2010PropOp52
 70
     0
102
RTVSPost2010Prop53
 90
        2
102
RTVSPost2010PropOp53
 70
     1
102
RTVSPost2010Prop54
  1
strokes_ogs.tif
102
RTVSPost2010PropOp54
 70
     1
102
RTVSPost2010Prop55
280
     0
102
RTVSPost2010PropOp55
 70
     1
102
RTVSPost2010Prop56
140
1.0
102
RTVSPost2010PropOp56
 70
     1
102
RTVSPost2010Prop57
140
1.0
102
RTVSPost2010PropOp57
 70
     1
  0
XRECORD
  5
16B
102
{ACAD_REACTORS
330
16A
102
}
330
16A
100
AcDbXrecord
280
     1
102
RTVSPost2010Prop28
280
     0
102
RTVSPost2010PropOp28
 70
     1
102
RTVSPost2010Prop29
280
     1
102
RTVSPost2010PropOp29
 70
     1
102
RTVSPost2010Prop30
280
     1
102
RTVSPost2010PropOp30
 70
     1
102
RTVSPost2010Prop31
280
     0
102
RTVSPost2010PropOp31
 70
     1
102
RTVSPost2010Prop32
280
     0
102
RTVSPost2010PropOp32
 70
     1
102
RTVSPost2010Prop33
280
     0
102
RTVSPost2010PropOp33
 70
     1
102
RTVSPost2010Prop34
280
     0
102
RTVSPost2010PropOp34
 70
     1
102
RTVSPost2010Prop35
280
     0
102
RTVSPost2010PropOp35
 70
     1
102
RTVSPost2010Prop36
280
     0
102
RTVSPost2010PropOp36
 70
     1
102
RTVSPost2010Prop37
 90
       50
102
RTVSPost2010PropOp37
 70
     1
102
RTVSPost2010Prop38
140
0.0
102
RTVSPost2010PropOp38
 70
     1
102
RTVSPost2010Prop39
140
1.0
102
RTVSPost2010PropOp39
 70
     1
102
RTVSPost2010Prop40
 90
        0
102
RTVSPost2010PropOp40
 70
     1
102
RTVSPost2010Prop41ColorIndex
 90
       18
102
RTVSPost2010Prop41ColorRGB
 90
        0
102
RTVSPost2010PropOp41
 70
     1
102
RTVSPost2010Prop42
 90
       50
102
RTVSPost2010PropOp42
 70
     1
102
RTVSPost2010Prop43
 90
        3
102
RTVSPost2010PropOp43
 70
     1
102
RTVSPost2010Prop44ColorIndex
 90
        5
102
RTVSPost2010Prop44ColorRGB
 90
      255
102
RTVSPost2010PropOp44
 70
     1
102
RTVSPost2010Prop45
280
     0
102
RTVSPost2010PropOp45
 70
     1
102
RTVSPost2010Prop46
 90
       50
102
RTVSPost2010PropOp46
 70
     1
102
RTVSPost2010Prop47
 90
       50
102
RTVSPost2010PropOp47
 70
     1
102
RTVSPost2010Prop48
 90
       50
102
RTVSPost2010PropOp48
 70
     1
102
RTVSPost2010Prop49
280
     0
102
RTVSPost2010PropOp49
 70
     1
102
RTVSPost2010Prop50
 90
       50
102
RTVSPost2010PropOp50
 70
     1
102
RTVSPost2010Prop51ColorIndex
 90
      256
102
RTVSPost2010Prop51ColorRGB
 90
-16777216
102
RTVSPost2010PropOp51
 70
     0
102
RTVSPost2010Prop52
140
1.0
102
RTVSPost2010PropOp52
 70
     0
102
RTVSPost2010Prop53
 90
        2
102
RTVSPost2010PropOp53
 70
     1
102
RTVSPost2010Prop54
  1
strokes_ogs.tif
102
RTVSPost2010PropOp54
 70
     1
102
RTVSPost2010Prop55
280
     0
102
RTVSPost2010PropOp55
 70
     1
102
RTVSPost2010Prop56
140
1.0
102
RTVSPost2010PropOp56
 70
     1
102
RTVSPost2010Prop57
140
1.0
102
RTVSPost2010PropOp57
 70
     1
  0
XRECORD
  5
16F
102
{ACAD_REACTORS
330
16E
102
}
330
16E
100
AcDbXrecord
280
     1
102
RTVSPost2010Prop28
280
     0
102
RTVSPost2010PropOp28
 70
     1
102
RTVSPost2010Prop29
280
     1
102
RTVSPost2010PropOp29
 70
     1
102
RTVSPost2010Prop30
280
     1
102
RTVSPost2010PropOp30
 70
     1
102
RTVSPost2010Prop31
280
     0
102
RTVSPost2010PropOp31
 70
     1
102
RTVSPost2010Prop32
280
     0
102
RTVSPost2010PropOp32
 70
     1
102
RTVSPost2010Prop33
280
     0
102
RTVSPost2010PropOp33
 70
     1
102
RTVSPost2010Prop34
280
     0
102
RTVSPost2010PropOp34
 70
     1
102
RTVSPost2010Prop35
280
     0
102
RTVSPost2010PropOp35
 70
     1
102
RTVSPost2010Prop36
280
     0
102
RTVSPost2010PropOp36
 70
     1
102
RTVSPost2010Prop37
 90
       50
102
RTVSPost2010PropOp37
 70
     1
102
RTVSPost2010Prop38
140
0.0
102
RTVSPost2010PropOp38
 70
     1
102
RTVSPost2010Prop39
140
1.0
102
RTVSPost2010PropOp39
 70
     1
102
RTVSPost2010Prop40
 90
        0
102
RTVSPost2010PropOp40
 70
     1
102
RTVSPost2010Prop41ColorIndex
 90
       18
102
RTVSPost2010Prop41ColorRGB
 90
        0
102
RTVSPost2010PropOp41
 70
     1
102
RTVSPost2010Prop42
 90
       50
102
RTVSPost2010PropOp42
 70
     1
102
RTVSPost2010Prop43
 90
        3
102
RTVSPost2010PropOp43
 70
     1
102
RTVSPost2010Prop44ColorIndex
 90
        5
102
RTVSPost2010Prop44ColorRGB
 90
      255
102
RTVSPost2010PropOp44
 70
     1
102
RTVSPost2010Prop45
280
     0
102
RTVSPost2010PropOp45
 70
     1
102
RTVSPost2010Prop46
 90
       50
102
RTVSPost2010PropOp46
 70
     1
102
RTVSPost2010Prop47
 90
       50
102
RTVSPost2010PropOp47
 70
     1
102
RTVSPost2010Prop48
 90
       50
102
RTVSPost2010PropOp48
 70
     1
102
RTVSPost2010Prop49
280
     0
102
RTVSPost2010PropOp49
 70
     1
102
RTVSPost2010Prop50
 90
       50
102
RTVSPost2010PropOp50
 70
     1
102
RTVSPost2010Prop51ColorIndex
 90
      256
102
RTVSPost2010Prop51ColorRGB
 90
-16777216
102
RTVSPost2010PropOp51
 70
     0
102
RTVSPost2010Prop52
140
1.0
102
RTVSPost2010PropOp52
 70
     0
102
RTVSPost2010Prop53
 90
        2
102
RTVSPost2010PropOp53
 70
     1
102
RTVSPost2010Prop54
  1
strokes_ogs.tif
102
RTVSPost2010PropOp54
 70
     1
102
RTVSPost2010Prop55
280
     0
102
RTVSPost2010PropOp55
 70
     1
102
RTVSPost2010Prop56
140
1.0
102
RTVSPost2010PropOp56
 70
     1
102
RTVSPost2010Prop57
140
1.0
102
RTVSPost2010PropOp57
 70
     1
  0
XRECORD
  5
189
102
{ACAD_REACTORS
330
188
102
}
330
188
100
AcDbXrecord
280
     1
102
RTVSPost2010Prop28
280
     0
102
RTVSPost2010PropOp28
 70
     0
102
RTVSPost2010Prop29
280
     1
102
RTVSPost2010PropOp29
 70
     0
102
RTVSPost2010Prop30
280
     1
102
RTVSPost2010PropOp30
 70
     0
102
RTVSPost2010Prop31
280
     0
102
RTVSPost2010PropOp31
 70
     0
102
RTVSPost2010Prop32
280
     0
102
RTVSPost2010PropOp32
 70
     0
102
RTVSPost2010Prop33
280
     0
102
RTVSPost2010PropOp33
 70
     0
102
RTVSPost2010Prop34
280
     0
102
RTVSPost2010PropOp34
 70
     0
102
RTVSPost2010Prop35
280
     0
102
RTVSPost2010PropOp35
 70
     0
102
RTVSPost2010Prop36
280
     0
102
RTVSPost2010PropOp36
 70
     0
102
RTVSPost2010Prop37
 90
       50
102
RTVSPost2010PropOp37
 70
     0
102
RTVSPost2010Prop38
140
0.0
102
RTVSPost2010PropOp38
 70
     0
102
RTVSPost2010Prop39
140
1.0
102
RTVSPost2010PropOp39
 70
     0
102
RTVSPost2010Prop40
 90
        0
102
RTVSPost2010PropOp40
 70
     0
102
RTVSPost2010Prop41ColorIndex
 90
       18
102
RTVSPost2010Prop41ColorRGB
 90
        0
102
RTVSPost2010PropOp41
 70
     0
102
RTVSPost2010Prop42
 90
       50
102
RTVSPost2010PropOp42
 70
     0
102
RTVSPost2010Prop43
 90
        3
102
RTVSPost2010PropOp43
 70
     0
102
RTVSPost2010Prop44ColorIndex
 90
        5
102
RTVSPost2010Prop44ColorRGB
 90
      255
102
RTVSPost2010PropOp44
 70
     0
102
RTVSPost2010Prop45
280
     0
102
RTVSPost2010PropOp45
 70
     0
102
RTVSPost2010Prop46
 90
       50
102
RTVSPost2010PropOp46
 70
     0
102
RTVSPost2010Prop47
 90
       50
102
RTVSPost2010PropOp47
 70
     0
102
RTVSPost2010Prop48
 90
       50
102
RTVSPost2010PropOp48
 70
     0
102
RTVSPost2010Prop49
280
     0
102
RTVSPost2010PropOp49
 70
     0
102
RTVSPost2010Prop50
 90
       50
102
RTVSPost2010PropOp50
 70
     0
102
RTVSPost2010Prop51ColorIndex
 90
      256
102
RTVSPost2010Prop51ColorRGB
 90
-16777216
102
RTVSPost2010PropOp51
 70
     0
102
RTVSPost2010Prop52
140
1.0
102
RTVSPost2010PropOp52
 70
     0
102
RTVSPost2010Prop53
 90
        2
102
RTVSPost2010PropOp53
 70
     0
102
RTVSPost2010Prop54
  1
strokes_ogs.tif
102
RTVSPost2010PropOp54
 70
     0
102
RTVSPost2010Prop55
280
     0
102
RTVSPost2010PropOp55
 70
     0
102
RTVSPost2010Prop56
140
1.0
102
RTVSPost2010PropOp56
 70
     0
102
RTVSPost2010Prop57
140
1.0
102
RTVSPost2010PropOp57
 70
     0
  0
XRECORD
  5
177
102
{ACAD_REACTORS
330
176
102
}
330
176
100
AcDbXrecord
280
     1
102
RTVSPost2010Prop28
280
     0
102
RTVSPost2010PropOp28
 70
     1
102
RTVSPost2010Prop29
280
     1
102
RTVSPost2010PropOp29
 70
     1
102
RTVSPost2010Prop30
280
     1
102
RTVSPost2010PropOp30
 70
     1
102
RTVSPost2010Prop31
280
     0
102
RTVSPost2010PropOp31
 70
     1
102
RTVSPost2010Prop32
280
     0
102
RTVSPost2010PropOp32
 70
     1
102
RTVSPost2010Prop33
280
     0
102
RTVSPost2010PropOp33
 70
     1
102
RTVSPost2010Prop34
280
     0
102
RTVSPost2010PropOp34
 70
     1
102
RTVSPost2010Prop35
280
     0
102
RTVSPost2010PropOp35
 70
     1
102
RTVSPost2010Prop36
280
     0
102
RTVSPost2010PropOp36
 70
     1
102
RTVSPost2010Prop37
 90
       50
102
RTVSPost2010PropOp37
 70
     1
102
RTVSPost2010Prop38
140
0.0
102
RTVSPost2010PropOp38
 70
     1
102
RTVSPost2010Prop39
140
1.0
102
RTVSPost2010PropOp39
 70
     1
102
RTVSPost2010Prop40
 90
        0
102
RTVSPost2010PropOp40
 70
     1
102
RTVSPost2010Prop41ColorIndex
 90
       18
102
RTVSPost2010Prop41ColorRGB
 90
        0
102
RTVSPost2010PropOp41
 70
     1
102
RTVSPost2010Prop42
 90
       50
102
RTVSPost2010PropOp42
 70
     1
102
RTVSPost2010Prop43
 90
        3
102
RTVSPost2010PropOp43
 70
     1
102
RTVSPost2010Prop44ColorIndex
 90
        5
102
RTVSPost2010Prop44ColorRGB
 90
      255
102
RTVSPost2010PropOp44
 70
     1
102
RTVSPost2010Prop45
280
     0
102
RTVSPost2010PropOp45
 70
     1
102
RTVSPost2010Prop46
 90
       50
102
RTVSPost2010PropOp46
 70
     1
102
RTVSPost2010Prop47
 90
       50
102
RTVSPost2010PropOp47
 70
     1
102
RTVSPost2010Prop48
 90
       50
102
RTVSPost2010PropOp48
 70
     1
102
RTVSPost2010Prop49
280
     0
102
RTVSPost2010PropOp49
 70
     1
102
RTVSPost2010Prop50
 90
       50
102
RTVSPost2010PropOp50
 70
     1
102
RTVSPost2010Prop51ColorIndex
 90
      256
102
RTVSPost2010Prop51ColorRGB
 90
-16777216
102
RTVSPost2010PropOp51
 70
     0
102
RTVSPost2010Prop52
140
1.0
102
RTVSPost2010PropOp52
 70
     0
102
RTVSPost2010Prop53
 90
        2
102
RTVSPost2010PropOp53
 70
     1
102
RTVSPost2010Prop54
  1
strokes_ogs.tif
102
RTVSPost2010PropOp54
 70
     1
102
RTVSPost2010Prop55
280
     0
102
RTVSPost2010PropOp55
 70
     1
102
RTVSPost2010Prop56
140
1.0
102
RTVSPost2010PropOp56
 70
     1
102
RTVSPost2010Prop57
140
1.0
102
RTVSPost2010PropOp57
 70
     1
  0
XRECORD
  5
15B
102
{ACAD_REACTORS
330
15A
102
}
330
15A
100
AcDbXrecord
280
     1
102
RTVSPost2010Prop28
280
     0
102
RTVSPost2010PropOp28
 70
     1
102
RTVSPost2010Prop29
280
     1
102
RTVSPost2010PropOp29
 70
     1
102
RTVSPost2010Prop30
280
     1
102
RTVSPost2010PropOp30
 70
     1
102
RTVSPost2010Prop31
280
     0
102
RTVSPost2010PropOp31
 70
     1
102
RTVSPost2010Prop32
280
     0
102
RTVSPost2010PropOp32
 70
     1
102
RTVSPost2010Prop33
280
     0
102
RTVSPost2010PropOp33
 70
     1
102
RTVSPost2010Prop34
280
     0
102
RTVSPost2010PropOp34
 70
     1
102
RTVSPost2010Prop35
280
     0
102
RTVSPost2010PropOp35
 70
     1
102
RTVSPost2010Prop36
280
     0
102
RTVSPost2010PropOp36
 70
     1
102
RTVSPost2010Prop37
 90
       50
102
RTVSPost2010PropOp37
 70
     1
102
RTVSPost2010Prop38
140
0.0
102
RTVSPost2010PropOp38
 70
     1
102
RTVSPost2010Prop39
140
1.0
102
RTVSPost2010PropOp39
 70
     1
102
RTVSPost2010Prop40
 90
        0
102
RTVSPost2010PropOp40
 70
     1
102
RTVSPost2010Prop41ColorIndex
 90
       18
102
RTVSPost2010Prop41ColorRGB
 90
        0
102
RTVSPost2010PropOp41
 70
     1
102
RTVSPost2010Prop42
 90
       50
102
RTVSPost2010PropOp42
 70
     1
102
RTVSPost2010Prop43
 90
        3
102
RTVSPost2010PropOp43
 70
     1
102
RTVSPost2010Prop44ColorIndex
 90
        5
102
RTVSPost2010Prop44ColorRGB
 90
      255
102
RTVSPost2010PropOp44
 70
     1
102
RTVSPost2010Prop45
280
     0
102
RTVSPost2010PropOp45
 70
     1
102
RTVSPost2010Prop46
 90
       50
102
RTVSPost2010PropOp46
 70
     1
102
RTVSPost2010Prop47
 90
       50
102
RTVSPost2010PropOp47
 70
     1
102
RTVSPost2010Prop48
 90
       50
102
RTVSPost2010PropOp48
 70
     1
102
RTVSPost2010Prop49
280
     0
102
RTVSPost2010PropOp49
 70
     1
102
RTVSPost2010Prop50
 90
       50
102
RTVSPost2010PropOp50
 70
     1
102
RTVSPost2010Prop51ColorIndex
 90
      256
102
RTVSPost2010Prop51ColorRGB
 90
-16777216
102
RTVSPost2010PropOp51
 70
     0
102
RTVSPost2010Prop52
140
1.0
102
RTVSPost2010PropOp52
 70
     0
102
RTVSPost2010Prop53
 90
        2
102
RTVSPost2010PropOp53
 70
     1
102
RTVSPost2010Prop54
  1
strokes_ogs.tif
102
RTVSPost2010PropOp54
 70
     1
102
RTVSPost2010Prop55
280
     0
102
RTVSPost2010PropOp55
 70
     1
102
RTVSPost2010Prop56
140
1.0
102
RTVSPost2010PropOp56
 70
     1
102
RTVSPost2010Prop57
140
1.0
102
RTVSPost2010PropOp57
 70
     1
  0
XRECORD
  5
15D
102
{ACAD_REACTORS
330
15C
102
}
330
15C
100
AcDbXrecord
280
     1
102
RTVSPost2010Prop28
280
     0
102
RTVSPost2010PropOp28
 70
     1
102
RTVSPost2010Prop29
280
     1
102
RTVSPost2010PropOp29
 70
     1
102
RTVSPost2010Prop30
280
     1
102
RTVSPost2010PropOp30
 70
     1
102
RTVSPost2010Prop31
280
     0
102
RTVSPost2010PropOp31
 70
     1
102
RTVSPost2010Prop32
280
     0
102
RTVSPost2010PropOp32
 70
     1
102
RTVSPost2010Prop33
280
     0
102
RTVSPost2010PropOp33
 70
     1
102
RTVSPost2010Prop34
280
     0
102
RTVSPost2010PropOp34
 70
     1
102
RTVSPost2010Prop35
280
     0
102
RTVSPost2010PropOp35
 70
     1
102
RTVSPost2010Prop36
280
     0
102
RTVSPost2010PropOp36
 70
     1
102
RTVSPost2010Prop37
 90
       50
102
RTVSPost2010PropOp37
 70
     1
102
RTVSPost2010Prop38
140
0.0
102
RTVSPost2010PropOp38
 70
     1
102
RTVSPost2010Prop39
140
1.0
102
RTVSPost2010PropOp39
 70
     1
102
RTVSPost2010Prop40
 90
        0
102
RTVSPost2010PropOp40
 70
     1
102
RTVSPost2010Prop41ColorIndex
 90
       18
102
RTVSPost2010Prop41ColorRGB
 90
        0
102
RTVSPost2010PropOp41
 70
     1
102
RTVSPost2010Prop42
 90
       50
102
RTVSPost2010PropOp42
 70
     1
102
RTVSPost2010Prop43
 90
        3
102
RTVSPost2010PropOp43
 70
     1
102
RTVSPost2010Prop44ColorIndex
 90
        5
102
RTVSPost2010Prop44ColorRGB
 90
      255
102
RTVSPost2010PropOp44
 70
     1
102
RTVSPost2010Prop45
280
     0
102
RTVSPost2010PropOp45
 70
     1
102
RTVSPost2010Prop46
 90
       50
102
RTVSPost2010PropOp46
 70
     1
102
RTVSPost2010Prop47
 90
       50
102
RTVSPost2010PropOp47
 70
     1
102
RTVSPost2010Prop48
 90
       50
102
RTVSPost2010PropOp48
 70
     1
102
RTVSPost2010Prop49
280
     0
102
RTVSPost2010PropOp49
 70
     1
102
RTVSPost2010Prop50
 90
       50
102
RTVSPost2010PropOp50
 70
     1
102
RTVSPost2010Prop51ColorIndex
 90
      256
102
RTVSPost2010Prop51ColorRGB
 90
-16777216
102
RTVSPost2010PropOp51
 70
     0
102
RTVSPost2010Prop52
140
1.0
102
RTVSPost2010PropOp52
 70
     0
102
RTVSPost2010Prop53
 90
        2
102
RTVSPost2010PropOp53
 70
     1
102
RTVSPost2010Prop54
  1
strokes_ogs.tif
102
RTVSPost2010PropOp54
 70
     1
102
RTVSPost2010Prop55
280
     0
102
RTVSPost2010PropOp55
 70
     1
102
RTVSPost2010Prop56
140
1.0
102
RTVSPost2010PropOp56
 70
     1
102
RTVSPost2010Prop57
140
1.0
102
RTVSPost2010PropOp57
 70
     1
  0
XRECORD
  5
15F
102
{ACAD_REACTORS
330
15E
102
}
330
15E
100
AcDbXrecord
280
     1
102
RTVSPost2010Prop28
280
     0
102
RTVSPost2010PropOp28
 70
     1
102
RTVSPost2010Prop29
280
     1
102
RTVSPost2010PropOp29
 70
     1
102
RTVSPost2010Prop30
280
     1
102
RTVSPost2010PropOp30
 70
     1
102
RTVSPost2010Prop31
280
     0
102
RTVSPost2010PropOp31
 70
     1
102
RTVSPost2010Prop32
280
     0
102
RTVSPost2010PropOp32
 70
     1
102
RTVSPost2010Prop33
280
     0
102
RTVSPost2010PropOp33
 70
     1
102
RTVSPost2010Prop34
280
     0
102
RTVSPost2010PropOp34
 70
     1
102
RTVSPost2010Prop35
280
     0
102
RTVSPost2010PropOp35
 70
     1
102
RTVSPost2010Prop36
280
     0
102
RTVSPost2010PropOp36
 70
     1
102
RTVSPost2010Prop37
 90
       50
102
RTVSPost2010PropOp37
 70
     1
102
RTVSPost2010Prop38
140
0.0
102
RTVSPost2010PropOp38
 70
     1
102
RTVSPost2010Prop39
140
1.0
102
RTVSPost2010PropOp39
 70
     1
102
RTVSPost2010Prop40
 90
        0
102
RTVSPost2010PropOp40
 70
     1
102
RTVSPost2010Prop41ColorIndex
 90
       18
102
RTVSPost2010Prop41ColorRGB
 90
        0
102
RTVSPost2010PropOp41
 70
     1
102
RTVSPost2010Prop42
 90
       50
102
RTVSPost2010PropOp42
 70
     1
102
RTVSPost2010Prop43
 90
        3
102
RTVSPost2010PropOp43
 70
     1
102
RTVSPost2010Prop44ColorIndex
 90
        5
102
RTVSPost2010Prop44ColorRGB
 90
      255
102
RTVSPost2010PropOp44
 70
     1
102
RTVSPost2010Prop45
280
     0
102
RTVSPost2010PropOp45
 70
     1
102
RTVSPost2010Prop46
 90
       50
102
RTVSPost2010PropOp46
 70
     1
102
RTVSPost2010Prop47
 90
       50
102
RTVSPost2010PropOp47
 70
     1
102
RTVSPost2010Prop48
 90
       50
102
RTVSPost2010PropOp48
 70
     1
102
RTVSPost2010Prop49
280
     0
102
RTVSPost2010PropOp49
 70
     1
102
RTVSPost2010Prop50
 90
       50
102
RTVSPost2010PropOp50
 70
     1
102
RTVSPost2010Prop51ColorIndex
 90
      256
102
RTVSPost2010Prop51ColorRGB
 90
-16777216
102
RTVSPost2010PropOp51
 70
     0
102
RTVSPost2010Prop52
140
1.0
102
RTVSPost2010PropOp52
 70
     0
102
RTVSPost2010Prop53
 90
        2
102
RTVSPost2010PropOp53
 70
     1
102
RTVSPost2010Prop54
  1
strokes_ogs.tif
102
RTVSPost2010PropOp54
 70
     1
102
RTVSPost2010Prop55
280
     0
102
RTVSPost2010PropOp55
 70
     1
102
RTVSPost2010Prop56
140
1.0
102
RTVSPost2010PropOp56
 70
     1
102
RTVSPost2010Prop57
140
1.0
102
RTVSPost2010PropOp57
 70
     1
  0
XRECORD
  5
161
102
{ACAD_REACTORS
330
160
102
}
330
160
100
AcDbXrecord
280
     1
102
RTVSPost2010Prop28
280
     0
102
RTVSPost2010PropOp28
 70
     1
102
RTVSPost2010Prop29
280
     1
102
RTVSPost2010PropOp29
 70
     1
102
RTVSPost2010Prop30
280
     1
102
RTVSPost2010PropOp30
 70
     1
102
RTVSPost2010Prop31
280
     0
102
RTVSPost2010PropOp31
 70
     1
102
RTVSPost2010Prop32
280
     0
102
RTVSPost2010PropOp32
 70
     1
102
RTVSPost2010Prop33
280
     0
102
RTVSPost2010PropOp33
 70
     1
102
RTVSPost2010Prop34
280
     0
102
RTVSPost2010PropOp34
 70
     1
102
RTVSPost2010Prop35
280
     0
102
RTVSPost2010PropOp35
 70
     1
102
RTVSPost2010Prop36
280
     0
102
RTVSPost2010PropOp36
 70
     1
102
RTVSPost2010Prop37
 90
       50
102
RTVSPost2010PropOp37
 70
     1
102
RTVSPost2010Prop38
140
0.0
102
RTVSPost2010PropOp38
 70
     1
102
RTVSPost2010Prop39
140
1.0
102
RTVSPost2010PropOp39
 70
     1
102
RTVSPost2010Prop40
 90
        0
102
RTVSPost2010PropOp40
 70
     1
102
RTVSPost2010Prop41ColorIndex
 90
       18
102
RTVSPost2010Prop41ColorRGB
 90
        0
102
RTVSPost2010PropOp41
 70
     1
102
RTVSPost2010Prop42
 90
       50
102
RTVSPost2010PropOp42
 70
     1
102
RTVSPost2010Prop43
 90
        3
102
RTVSPost2010PropOp43
 70
     1
102
RTVSPost2010Prop44ColorIndex
 90
        5
102
RTVSPost2010Prop44ColorRGB
 90
      255
102
RTVSPost2010PropOp44
 70
     1
102
RTVSPost2010Prop45
280
     0
102
RTVSPost2010PropOp45
 70
     1
102
RTVSPost2010Prop46
 90
       50
102
RTVSPost2010PropOp46
 70
     1
102
RTVSPost2010Prop47
 90
       50
102
RTVSPost2010PropOp47
 70
     1
102
RTVSPost2010Prop48
 90
       50
102
RTVSPost2010PropOp48
 70
     1
102
RTVSPost2010Prop49
280
     0
102
RTVSPost2010PropOp49
 70
     1
102
RTVSPost2010Prop50
 90
       50
102
RTVSPost2010PropOp50
 70
     1
102
RTVSPost2010Prop51ColorIndex
 90
      256
102
RTVSPost2010Prop51ColorRGB
 90
-16777216
102
RTVSPost2010PropOp51
 70
     0
102
RTVSPost2010Prop52
140
1.0
102
RTVSPost2010PropOp52
 70
     0
102
RTVSPost2010Prop53
 90
        2
102
RTVSPost2010PropOp53
 70
     1
102
RTVSPost2010Prop54
  1
strokes_ogs.tif
102
RTVSPost2010PropOp54
 70
     1
102
RTVSPost2010Prop55
280
     0
102
RTVSPost2010PropOp55
 70
     1
102
RTVSPost2010Prop56
140
1.0
102
RTVSPost2010PropOp56
 70
     1
102
RTVSPost2010Prop57
140
1.0
102
RTVSPost2010PropOp57
 70
     1
  0
XRECORD
  5
169
102
{ACAD_REACTORS
330
168
102
}
330
168
100
AcDbXrecord
280
     1
102
RTVSPost2010Prop28
280
     0
102
RTVSPost2010PropOp28
 70
     1
102
RTVSPost2010Prop29
280
     1
102
RTVSPost2010PropOp29
 70
     1
102
RTVSPost2010Prop30
280
     1
102
RTVSPost2010PropOp30
 70
     1
102
RTVSPost2010Prop31
280
     0
102
RTVSPost2010PropOp31
 70
     1
102
RTVSPost2010Prop32
280
     0
102
RTVSPost2010PropOp32
 70
     1
102
RTVSPost2010Prop33
280
     0
102
RTVSPost2010PropOp33
 70
     1
102
RTVSPost2010Prop34
280
     0
102
RTVSPost2010PropOp34
 70
     1
102
RTVSPost2010Prop35
280
     0
102
RTVSPost2010PropOp35
 70
     1
102
RTVSPost2010Prop36
280
     0
102
RTVSPost2010PropOp36
 70
     1
102
RTVSPost2010Prop37
 90
       50
102
RTVSPost2010PropOp37
 70
     1
102
RTVSPost2010Prop38
140
0.0
102
RTVSPost2010PropOp38
 70
     1
102
RTVSPost2010Prop39
140
1.0
102
RTVSPost2010PropOp39
 70
     1
102
RTVSPost2010Prop40
 90
        0
102
RTVSPost2010PropOp40
 70
     1
102
RTVSPost2010Prop41ColorIndex
 90
       18
102
RTVSPost2010Prop41ColorRGB
 90
        0
102
RTVSPost2010PropOp41
 70
     1
102
RTVSPost2010Prop42
 90
       50
102
RTVSPost2010PropOp42
 70
     1
102
RTVSPost2010Prop43
 90
        3
102
RTVSPost2010PropOp43
 70
     1
102
RTVSPost2010Prop44ColorIndex
 90
        5
102
RTVSPost2010Prop44ColorRGB
 90
      255
102
RTVSPost2010PropOp44
 70
     1
102
RTVSPost2010Prop45
280
     0
102
RTVSPost2010PropOp45
 70
     1
102
RTVSPost2010Prop46
 90
       50
102
RTVSPost2010PropOp46
 70
     1
102
RTVSPost2010Prop47
 90
       50
102
RTVSPost2010PropOp47
 70
     1
102
RTVSPost2010Prop48
 90
       50
102
RTVSPost2010PropOp48
 70
     1
102
RTVSPost2010Prop49
280
     0
102
RTVSPost2010PropOp49
 70
     1
102
RTVSPost2010Prop50
 90
       50
102
RTVSPost2010PropOp50
 70
     1
102
RTVSPost2010Prop51ColorIndex
 90
      256
102
RTVSPost2010Prop51ColorRGB
 90
-16777216
102
RTVSPost2010PropOp51
 70
     0
102
RTVSPost2010Prop52
140
1.0
102
RTVSPost2010PropOp52
 70
     0
102
RTVSPost2010Prop53
 90
        2
102
RTVSPost2010PropOp53
 70
     1
102
RTVSPost2010Prop54
  1
strokes_ogs.tif
102
RTVSPost2010PropOp54
 70
     1
102
RTVSPost2010Prop55
280
     0
102
RTVSPost2010PropOp55
 70
     1
102
RTVSPost2010Prop56
140
1.0
102
RTVSPost2010PropOp56
 70
     1
102
RTVSPost2010Prop57
140
1.0
102
RTVSPost2010PropOp57
 70
     1
  0
XRECORD
  5
185
102
{ACAD_REACTORS
330
184
102
}
330
184
100
AcDbXrecord
280
     1
102
RTVSPost2010Prop28
280
     0
102
RTVSPost2010PropOp28
 70
     0
102
RTVSPost2010Prop29
280
     1
102
RTVSPost2010PropOp29
 70
     0
102
RTVSPost2010Prop30
280
     1
102
RTVSPost2010PropOp30
 70
     0
102
RTVSPost2010Prop31
280
     0
102
RTVSPost2010PropOp31
 70
     0
102
RTVSPost2010Prop32
280
     0
102
RTVSPost2010PropOp32
 70
     0
102
RTVSPost2010Prop33
280
     0
102
RTVSPost2010PropOp33
 70
     0
102
RTVSPost2010Prop34
280
     0
102
RTVSPost2010PropOp34
 70
     0
102
RTVSPost2010Prop35
280
     0
102
RTVSPost2010PropOp35
 70
     0
102
RTVSPost2010Prop36
280
     0
102
RTVSPost2010PropOp36
 70
     0
102
RTVSPost2010Prop37
 90
       50
102
RTVSPost2010PropOp37
 70
     0
102
RTVSPost2010Prop38
140
0.0
102
RTVSPost2010PropOp38
 70
     0
102
RTVSPost2010Prop39
140
1.0
102
RTVSPost2010PropOp39
 70
     0
102
RTVSPost2010Prop40
 90
        0
102
RTVSPost2010PropOp40
 70
     0
102
RTVSPost2010Prop41ColorIndex
 90
       18
102
RTVSPost2010Prop41ColorRGB
 90
        0
102
RTVSPost2010PropOp41
 70
     0
102
RTVSPost2010Prop42
 90
       50
102
RTVSPost2010PropOp42
 70
     0
102
RTVSPost2010Prop43
 90
        3
102
RTVSPost2010PropOp43
 70
     0
102
RTVSPost2010Prop44ColorIndex
 90
        5
102
RTVSPost2010Prop44ColorRGB
 90
      255
102
RTVSPost2010PropOp44
 70
     0
102
RTVSPost2010Prop45
280
     0
102
RTVSPost2010PropOp45
 70
     0
102
RTVSPost2010Prop46
 90
       50
102
RTVSPost2010PropOp46
 70
     0
102
RTVSPost2010Prop47
 90
       50
102
RTVSPost2010PropOp47
 70
     0
102
RTVSPost2010Prop48
 90
       50
102
RTVSPost2010PropOp48
 70
     0
102
RTVSPost2010Prop49
280
     0
102
RTVSPost2010PropOp49
 70
     0
102
RTVSPost2010Prop50
 90
       50
102
RTVSPost2010PropOp50
 70
     0
102
RTVSPost2010Prop51ColorIndex
 90
      256
102
RTVSPost2010Prop51ColorRGB
 90
-16777216
102
RTVSPost2010PropOp51
 70
     0
102
RTVSPost2010Prop52
140
1.0
102
RTVSPost2010PropOp52
 70
     0
102
RTVSPost2010Prop53
 90
        2
102
RTVSPost2010PropOp53
 70
     0
102
RTVSPost2010Prop54
  1
strokes_ogs.tif
102
RTVSPost2010PropOp54
 70
     0
102
RTVSPost2010Prop55
280
     0
102
RTVSPost2010PropOp55
 70
     0
102
RTVSPost2010Prop56
140
1.0
102
RTVSPost2010PropOp56
 70
     0
102
RTVSPost2010Prop57
140
1.0
102
RTVSPost2010PropOp57
 70
     0
  0
XRECORD
  5
175
102
{ACAD_REACTORS
330
174
102
}
330
174
100
AcDbXrecord
280
     1
102
RTVSPost2010Prop28
280
     0
102
RTVSPost2010PropOp28
 70
     1
102
RTVSPost2010Prop29
280
     1
102
RTVSPost2010PropOp29
 70
     1
102
RTVSPost2010Prop30
280
     1
102
RTVSPost2010PropOp30
 70
     1
102
RTVSPost2010Prop31
280
     0
102
RTVSPost2010PropOp31
 70
     1
102
RTVSPost2010Prop32
280
     0
102
RTVSPost2010PropOp32
 70
     1
102
RTVSPost2010Prop33
280
     0
102
RTVSPost2010PropOp33
 70
     1
102
RTVSPost2010Prop34
280
     0
102
RTVSPost2010PropOp34
 70
     1
102
RTVSPost2010Prop35
280
     0
102
RTVSPost2010PropOp35
 70
     1
102
RTVSPost2010Prop36
280
     0
102
RTVSPost2010PropOp36
 70
     1
102
RTVSPost2010Prop37
 90
       50
102
RTVSPost2010PropOp37
 70
     1
102
RTVSPost2010Prop38
140
0.0
102
RTVSPost2010PropOp38
 70
     1
102
RTVSPost2010Prop39
140
1.0
102
RTVSPost2010PropOp39
 70
     1
102
RTVSPost2010Prop40
 90
        0
102
RTVSPost2010PropOp40
 70
     1
102
RTVSPost2010Prop41ColorIndex
 90
       18
102
RTVSPost2010Prop41ColorRGB
 90
        0
102
RTVSPost2010PropOp41
 70
     1
102
RTVSPost2010Prop42
 90
       50
102
RTVSPost2010PropOp42
 70
     1
102
RTVSPost2010Prop43
 90
        3
102
RTVSPost2010PropOp43
 70
     1
102
RTVSPost2010Prop44ColorIndex
 90
        5
102
RTVSPost2010Prop44ColorRGB
 90
      255
102
RTVSPost2010PropOp44
 70
     1
102
RTVSPost2010Prop45
280
     0
102
RTVSPost2010PropOp45
 70
     1
102
RTVSPost2010Prop46
 90
       50
102
RTVSPost2010PropOp46
 70
     1
102
RTVSPost2010Prop47
 90
       50
102
RTVSPost2010PropOp47
 70
     1
102
RTVSPost2010Prop48
 90
       50
102
RTVSPost2010PropOp48
 70
     1
102
RTVSPost2010Prop49
280
     0
102
RTVSPost2010PropOp49
 70
     1
102
RTVSPost2010Prop50
 90
       50
102
RTVSPost2010PropOp50
 70
     1
102
RTVSPost2010Prop51ColorIndex
 90
      256
102
RTVSPost2010Prop51ColorRGB
 90
-16777216
102
RTVSPost2010PropOp51
 70
     0
102
RTVSPost2010Prop52
140
1.0
102
RTVSPost2010PropOp52
 70
     0
102
RTVSPost2010Prop53
 90
        2
102
RTVSPost2010PropOp53
 70
     1
102
RTVSPost2010Prop54
  1
strokes_ogs.tif
102
RTVSPost2010PropOp54
 70
     1
102
RTVSPost2010Prop55
280
     0
102
RTVSPost2010PropOp55
 70
     1
102
RTVSPost2010Prop56
140
1.0
102
RTVSPost2010PropOp56
 70
     1
102
RTVSPost2010Prop57
140
1.0
102
RTVSPost2010PropOp57
 70
     1
  0
XRECORD
  5
187
102
{ACAD_REACTORS
330
186
102
}
330
186
100
AcDbXrecord
280
     1
102
RTVSPost2010Prop28
280
     0
102
RTVSPost2010PropOp28
 70
     0
102
RTVSPost2010Prop29
280
     1
102
RTVSPost2010PropOp29
 70
     0
102
RTVSPost2010Prop30
280
     1
102
RTVSPost2010PropOp30
 70
     0
102
RTVSPost2010Prop31
280
     0
102
RTVSPost2010PropOp31
 70
     0
102
RTVSPost2010Prop32
280
     0
102
RTVSPost2010PropOp32
 70
     0
102
RTVSPost2010Prop33
280
     0
102
RTVSPost2010PropOp33
 70
     0
102
RTVSPost2010Prop34
280
     0
102
RTVSPost2010PropOp34
 70
     0
102
RTVSPost2010Prop35
280
     0
102
RTVSPost2010PropOp35
 70
     0
102
RTVSPost2010Prop36
280
     0
102
RTVSPost2010PropOp36
 70
     0
102
RTVSPost2010Prop37
 90
       50
102
RTVSPost2010PropOp37
 70
     0
102
RTVSPost2010Prop38
140
0.0
102
RTVSPost2010PropOp38
 70
     0
102
RTVSPost2010Prop39
140
1.0
102
RTVSPost2010PropOp39
 70
     0
102
RTVSPost2010Prop40
 90
        0
102
RTVSPost2010PropOp40
 70
     0
102
RTVSPost2010Prop41ColorIndex
 90
       18
102
RTVSPost2010Prop41ColorRGB
 90
        0
102
RTVSPost2010PropOp41
 70
     0
102
RTVSPost2010Prop42
 90
       50
102
RTVSPost2010PropOp42
 70
     0
102
RTVSPost2010Prop43
 90
        3
102
RTVSPost2010PropOp43
 70
     0
102
RTVSPost2010Prop44ColorIndex
 90
        5
102
RTVSPost2010Prop44ColorRGB
 90
      255
102
RTVSPost2010PropOp44
 70
     0
102
RTVSPost2010Prop45
280
     0
102
RTVSPost2010PropOp45
 70
     0
102
RTVSPost2010Prop46
 90
       50
102
RTVSPost2010PropOp46
 70
     0
102
RTVSPost2010Prop47
 90
       50
102
RTVSPost2010PropOp47
 70
     0
102
RTVSPost2010Prop48
 90
       50
102
RTVSPost2010PropOp48
 70
     0
102
RTVSPost2010Prop49
280
     0
102
RTVSPost2010PropOp49
 70
     0
102
RTVSPost2010Prop50
 90
       50
102
RTVSPost2010PropOp50
 70
     0
102
RTVSPost2010Prop51ColorIndex
 90
      256
102
RTVSPost2010Prop51ColorRGB
 90
-16777216
102
RTVSPost2010PropOp51
 70
     0
102
RTVSPost2010Prop52
140
1.0
102
RTVSPost2010PropOp52
 70
     0
102
RTVSPost2010Prop53
 90
        2
102
RTVSPost2010PropOp53
 70
     0
102
RTVSPost2010Prop54
  1
strokes_ogs.tif
102
RTVSPost2010PropOp54
 70
     0
102
RTVSPost2010Prop55
280
     0
102
RTVSPost2010PropOp55
 70
     0
102
RTVSPost2010Prop56
140
1.0
102
RTVSPost2010PropOp56
 70
     0
102
RTVSPost2010Prop57
140
1.0
102
RTVSPost2010PropOp57
 70
     0
  0
XRECORD
  5
16D
102
{ACAD_REACTORS
330
16C
102
}
330
16C
100
AcDbXrecord
280
     1
102
RTVSPost2010Prop28
280
     0
102
RTVSPost2010PropOp28
 70
     1
102
RTVSPost2010Prop29
280
     1
102
RTVSPost2010PropOp29
 70
     1
102
RTVSPost2010Prop30
280
     1
102
RTVSPost2010PropOp30
 70
     1
102
RTVSPost2010Prop31
280
     0
102
RTVSPost2010PropOp31
 70
     1
102
RTVSPost2010Prop32
280
     0
102
RTVSPost2010PropOp32
 70
     1
102
RTVSPost2010Prop33
280
     0
102
RTVSPost2010PropOp33
 70
     1
102
RTVSPost2010Prop34
280
     0
102
RTVSPost2010PropOp34
 70
     1
102
RTVSPost2010Prop35
280
     0
102
RTVSPost2010PropOp35
 70
     1
102
RTVSPost2010Prop36
280
     0
102
RTVSPost2010PropOp36
 70
     1
102
RTVSPost2010Prop37
 90
       50
102
RTVSPost2010PropOp37
 70
     1
102
RTVSPost2010Prop38
140
0.0
102
RTVSPost2010PropOp38
 70
     1
102
RTVSPost2010Prop39
140
1.0
102
RTVSPost2010PropOp39
 70
     1
102
RTVSPost2010Prop40
 90
        0
102
RTVSPost2010PropOp40
 70
     1
102
RTVSPost2010Prop41ColorIndex
 90
       18
102
RTVSPost2010Prop41ColorRGB
 90
        0
102
RTVSPost2010PropOp41
 70
     1
102
RTVSPost2010Prop42
 90
       50
102
RTVSPost2010PropOp42
 70
     1
102
RTVSPost2010Prop43
 90
        3
102
RTVSPost2010PropOp43
 70
     1
102
RTVSPost2010Prop44ColorIndex
 90
        5
102
RTVSPost2010Prop44ColorRGB
 90
      255
102
RTVSPost2010PropOp44
 70
     1
102
RTVSPost2010Prop45
280
     0
102
RTVSPost2010PropOp45
 70
     1
102
RTVSPost2010Prop46
 90
       50
102
RTVSPost2010PropOp46
 70
     1
102
RTVSPost2010Prop47
 90
       50
102
RTVSPost2010PropOp47
 70
     1
102
RTVSPost2010Prop48
 90
       50
102
RTVSPost2010PropOp48
 70
     1
102
RTVSPost2010Prop49
280
     0
102
RTVSPost2010PropOp49
 70
     1
102
RTVSPost2010Prop50
 90
       50
102
RTVSPost2010PropOp50
 70
     1
102
RTVSPost2010Prop51ColorIndex
 90
      256
102
RTVSPost2010Prop51ColorRGB
 90
-16777216
102
RTVSPost2010PropOp51
 70
     0
102
RTVSPost2010Prop52
140
1.0
102
RTVSPost2010PropOp52
 70
     0
102
RTVSPost2010Prop53
 90
        2
102
RTVSPost2010PropOp53
 70
     1
102
RTVSPost2010Prop54
  1
strokes_ogs.tif
102
RTVSPost2010PropOp54
 70
     1
102
RTVSPost2010Prop55
280
     0
102
RTVSPost2010PropOp55
 70
     1
102
RTVSPost2010Prop56
140
1.0
102
RTVSPost2010PropOp56
 70
     1
102
RTVSPost2010Prop57
140
1.0
102
RTVSPost2010PropOp57
 70
     1
  0
XRECORD
  5
183
102
{ACAD_REACTORS
330
182
102
}
330
182
100
AcDbXrecord
280
     1
102
RTVSPost2010Prop28
280
     0
102
RTVSPost2010PropOp28
 70
     1
102
RTVSPost2010Prop29
280
     1
102
RTVSPost2010PropOp29
 70
     1
102
RTVSPost2010Prop30
280
     1
102
RTVSPost2010PropOp30
 70
     1
102
RTVSPost2010Prop31
280
     0
102
RTVSPost2010PropOp31
 70
     1
102
RTVSPost2010Prop32
280
     0
102
RTVSPost2010PropOp32
 70
     1
102
RTVSPost2010Prop33
280
     0
102
RTVSPost2010PropOp33
 70
     1
102
RTVSPost2010Prop34
280
     0
102
RTVSPost2010PropOp34
 70
     1
102
RTVSPost2010Prop35
280
     0
102
RTVSPost2010PropOp35
 70
     1
102
RTVSPost2010Prop36
280
     0
102
RTVSPost2010PropOp36
 70
     1
102
RTVSPost2010Prop37
 90
       50
102
RTVSPost2010PropOp37
 70
     1
102
RTVSPost2010Prop38
140
0.0
102
RTVSPost2010PropOp38
 70
     1
102
RTVSPost2010Prop39
140
1.0
102
RTVSPost2010PropOp39
 70
     1
102
RTVSPost2010Prop40
 90
        0
102
RTVSPost2010PropOp40
 70
     1
102
RTVSPost2010Prop41ColorIndex
 90
       18
102
RTVSPost2010Prop41ColorRGB
 90
        0
102
RTVSPost2010PropOp41
 70
     1
102
RTVSPost2010Prop42
 90
       50
102
RTVSPost2010PropOp42
 70
     1
102
RTVSPost2010Prop43
 90
        3
102
RTVSPost2010PropOp43
 70
     1
102
RTVSPost2010Prop44ColorIndex
 90
        5
102
RTVSPost2010Prop44ColorRGB
 90
      255
102
RTVSPost2010PropOp44
 70
     1
102
RTVSPost2010Prop45
280
     0
102
RTVSPost2010PropOp45
 70
     1
102
RTVSPost2010Prop46
 90
       50
102
RTVSPost2010PropOp46
 70
     1
102
RTVSPost2010Prop47
 90
       50
102
RTVSPost2010PropOp47
 70
     1
102
RTVSPost2010Prop48
 90
       50
102
RTVSPost2010PropOp48
 70
     1
102
RTVSPost2010Prop49
280
     0
102
RTVSPost2010PropOp49
 70
     1
102
RTVSPost2010Prop50
 90
       50
102
RTVSPost2010PropOp50
 70
     1
102
RTVSPost2010Prop51ColorIndex
 90
      256
102
RTVSPost2010Prop51ColorRGB
 90
-16777216
102
RTVSPost2010PropOp51
 70
     0
102
RTVSPost2010Prop52
140
1.0
102
RTVSPost2010PropOp52
 70
     0
102
RTVSPost2010Prop53
 90
        2
102
RTVSPost2010PropOp53
 70
     1
102
RTVSPost2010Prop54
  1
strokes_ogs.tif
102
RTVSPost2010PropOp54
 70
     1
102
RTVSPost2010Prop55
280
     0
102
RTVSPost2010PropOp55
 70
     1
102
RTVSPost2010Prop56
140
1.0
102
RTVSPost2010PropOp56
 70
     1
102
RTVSPost2010Prop57
140
1.0
102
RTVSPost2010PropOp57
 70
     1
  0
XRECORD
  5
181
102
{ACAD_REACTORS
330
180
102
}
330
180
100
AcDbXrecord
280
     1
102
RTVSPost2010Prop28
280
     0
102
RTVSPost2010PropOp28
 70
     1
102
RTVSPost2010Prop29
280
     1
102
RTVSPost2010PropOp29
 70
     1
102
RTVSPost2010Prop30
280
     1
102
RTVSPost2010PropOp30
 70
     1
102
RTVSPost2010Prop31
280
     0
102
RTVSPost2010PropOp31
 70
     1
102
RTVSPost2010Prop32
280
     0
102
RTVSPost2010PropOp32
 70
     1
102
RTVSPost2010Prop33
280
     0
102
RTVSPost2010PropOp33
 70
     1
102
RTVSPost2010Prop34
280
     0
102
RTVSPost2010PropOp34
 70
     1
102
RTVSPost2010Prop35
280
     0
102
RTVSPost2010PropOp35
 70
     1
102
RTVSPost2010Prop36
280
     0
102
RTVSPost2010PropOp36
 70
     1
102
RTVSPost2010Prop37
 90
       50
102
RTVSPost2010PropOp37
 70
     1
102
RTVSPost2010Prop38
140
0.0
102
RTVSPost2010PropOp38
 70
     1
102
RTVSPost2010Prop39
140
1.0
102
RTVSPost2010PropOp39
 70
     1
102
RTVSPost2010Prop40
 90
        0
102
RTVSPost2010PropOp40
 70
     1
102
RTVSPost2010Prop41ColorIndex
 90
       18
102
RTVSPost2010Prop41ColorRGB
 90
        0
102
RTVSPost2010PropOp41
 70
     1
102
RTVSPost2010Prop42
 90
       50
102
RTVSPost2010PropOp42
 70
     1
102
RTVSPost2010Prop43
 90
        3
102
RTVSPost2010PropOp43
 70
     1
102
RTVSPost2010Prop44ColorIndex
 90
        5
102
RTVSPost2010Prop44ColorRGB
 90
      255
102
RTVSPost2010PropOp44
 70
     1
102
RTVSPost2010Prop45
280
     0
102
RTVSPost2010PropOp45
 70
     1
102
RTVSPost2010Prop46
 90
       50
102
RTVSPost2010PropOp46
 70
     1
102
RTVSPost2010Prop47
 90
       50
102
RTVSPost2010PropOp47
 70
     1
102
RTVSPost2010Prop48
 90
       50
102
RTVSPost2010PropOp48
 70
     1
102
RTVSPost2010Prop49
280
     0
102
RTVSPost2010PropOp49
 70
     1
102
RTVSPost2010Prop50
 90
       50
102
RTVSPost2010PropOp50
 70
     1
102
RTVSPost2010Prop51ColorIndex
 90
      256
102
RTVSPost2010Prop51ColorRGB
 90
-16777216
102
RTVSPost2010PropOp51
 70
     0
102
RTVSPost2010Prop52
140
1.0
102
RTVSPost2010PropOp52
 70
     0
102
RTVSPost2010Prop53
 90
        2
102
RTVSPost2010PropOp53
 70
     1
102
RTVSPost2010Prop54
  1
strokes_ogs.tif
102
RTVSPost2010PropOp54
 70
     1
102
RTVSPost2010Prop55
280
     0
102
RTVSPost2010PropOp55
 70
     1
102
RTVSPost2010Prop56
140
1.0
102
RTVSPost2010PropOp56
 70
     1
102
RTVSPost2010Prop57
140
1.0
102
RTVSPost2010PropOp57
 70
     1
  0
XRECORD
  5
17B
102
{ACAD_REACTORS
330
17A
102
}
330
17A
100
AcDbXrecord
280
     1
102
RTVSPost2010Prop28
280
     0
102
RTVSPost2010PropOp28
 70
     1
102
RTVSPost2010Prop29
280
     1
102
RTVSPost2010PropOp29
 70
     1
102
RTVSPost2010Prop30
280
     1
102
RTVSPost2010PropOp30
 70
     1
102
RTVSPost2010Prop31
280
     0
102
RTVSPost2010PropOp31
 70
     1
102
RTVSPost2010Prop32
280
     0
102
RTVSPost2010PropOp32
 70
     1
102
RTVSPost2010Prop33
280
     0
102
RTVSPost2010PropOp33
 70
     1
102
RTVSPost2010Prop34
280
     0
102
RTVSPost2010PropOp34
 70
     1
102
RTVSPost2010Prop35
280
     0
102
RTVSPost2010PropOp35
 70
     1
102
RTVSPost2010Prop36
280
     0
102
RTVSPost2010PropOp36
 70
     1
102
RTVSPost2010Prop37
 90
       50
102
RTVSPost2010PropOp37
 70
     1
102
RTVSPost2010Prop38
140
0.0
102
RTVSPost2010PropOp38
 70
     1
102
RTVSPost2010Prop39
140
1.0
102
RTVSPost2010PropOp39
 70
     1
102
RTVSPost2010Prop40
 90
        0
102
RTVSPost2010PropOp40
 70
     1
102
RTVSPost2010Prop41ColorIndex
 90
       18
102
RTVSPost2010Prop41ColorRGB
 90
        0
102
RTVSPost2010PropOp41
 70
     1
102
RTVSPost2010Prop42
 90
       50
102
RTVSPost2010PropOp42
 70
     1
102
RTVSPost2010Prop43
 90
        3
102
RTVSPost2010PropOp43
 70
     1
102
RTVSPost2010Prop44ColorIndex
 90
        5
102
RTVSPost2010Prop44ColorRGB
 90
      255
102
RTVSPost2010PropOp44
 70
     1
102
RTVSPost2010Prop45
280
     0
102
RTVSPost2010PropOp45
 70
     1
102
RTVSPost2010Prop46
 90
       50
102
RTVSPost2010PropOp46
 70
     1
102
RTVSPost2010Prop47
 90
       50
102
RTVSPost2010PropOp47
 70
     1
102
RTVSPost2010Prop48
 90
       50
102
RTVSPost2010PropOp48
 70
     1
102
RTVSPost2010Prop49
280
     0
102
RTVSPost2010PropOp49
 70
     1
102
RTVSPost2010Prop50
 90
       50
102
RTVSPost2010PropOp50
 70
     1
102
RTVSPost2010Prop51ColorIndex
 90
      256
102
RTVSPost2010Prop51ColorRGB
 90
-16777216
102
RTVSPost2010PropOp51
 70
     0
102
RTVSPost2010Prop52
140
1.0
102
RTVSPost2010PropOp52
 70
     0
102
RTVSPost2010Prop53
 90
        2
102
RTVSPost2010PropOp53
 70
     1
102
RTVSPost2010Prop54
  1
strokes_ogs.tif
102
RTVSPost2010PropOp54
 70
     1
102
RTVSPost2010Prop55
280
     0
102
RTVSPost2010PropOp55
 70
     1
102
RTVSPost2010Prop56
140
1.0
102
RTVSPost2010PropOp56
 70
     1
102
RTVSPost2010Prop57
140
1.0
102
RTVSPost2010PropOp57
 70
     1
  0
XRECORD
  5
17D
102
{ACAD_REACTORS
330
17C
102
}
330
17C
100
AcDbXrecord
280
     1
102
RTVSPost2010Prop28
280
     0
102
RTVSPost2010PropOp28
 70
     1
102
RTVSPost2010Prop29
280
     1
102
RTVSPost2010PropOp29
 70
     1
102
RTVSPost2010Prop30
280
     1
102
RTVSPost2010PropOp30
 70
     1
102
RTVSPost2010Prop31
280
     0
102
RTVSPost2010PropOp31
 70
     1
102
RTVSPost2010Prop32
280
     0
102
RTVSPost2010PropOp32
 70
     1
102
RTVSPost2010Prop33
280
     0
102
RTVSPost2010PropOp33
 70
     1
102
RTVSPost2010Prop34
280
     0
102
RTVSPost2010PropOp34
 70
     1
102
RTVSPost2010Prop35
280
     0
102
RTVSPost2010PropOp35
 70
     1
102
RTVSPost2010Prop36
280
     0
102
RTVSPost2010PropOp36
 70
     1
102
RTVSPost2010Prop37
 90
       50
102
RTVSPost2010PropOp37
 70
     1
102
RTVSPost2010Prop38
140
0.0
102
RTVSPost2010PropOp38
 70
     1
102
RTVSPost2010Prop39
140
1.0
102
RTVSPost2010PropOp39
 70
     1
102
RTVSPost2010Prop40
 90
        0
102
RTVSPost2010PropOp40
 70
     1
102
RTVSPost2010Prop41ColorIndex
 90
       18
102
RTVSPost2010Prop41ColorRGB
 90
        0
102
RTVSPost2010PropOp41
 70
     1
102
RTVSPost2010Prop42
 90
       50
102
RTVSPost2010PropOp42
 70
     1
102
RTVSPost2010Prop43
 90
        3
102
RTVSPost2010PropOp43
 70
     1
102
RTVSPost2010Prop44ColorIndex
 90
        5
102
RTVSPost2010Prop44ColorRGB
 90
      255
102
RTVSPost2010PropOp44
 70
     1
102
RTVSPost2010Prop45
280
     0
102
RTVSPost2010PropOp45
 70
     1
102
RTVSPost2010Prop46
 90
       50
102
RTVSPost2010PropOp46
 70
     1
102
RTVSPost2010Prop47
 90
       50
102
RTVSPost2010PropOp47
 70
     1
102
RTVSPost2010Prop48
 90
       50
102
RTVSPost2010PropOp48
 70
     1
102
RTVSPost2010Prop49
280
     0
102
RTVSPost2010PropOp49
 70
     1
102
RTVSPost2010Prop50
 90
       50
102
RTVSPost2010PropOp50
 70
     1
102
RTVSPost2010Prop51ColorIndex
 90
      256
102
RTVSPost2010Prop51ColorRGB
 90
-16777216
102
RTVSPost2010PropOp51
 70
     0
102
RTVSPost2010Prop52
140
1.0
102
RTVSPost2010PropOp52
 70
     0
102
RTVSPost2010Prop53
 90
        2
102
RTVSPost2010PropOp53
 70
     1
102
RTVSPost2010Prop54
  1
strokes_ogs.tif
102
RTVSPost2010PropOp54
 70
     1
102
RTVSPost2010Prop55
280
     0
102
RTVSPost2010PropOp55
 70
     1
102
RTVSPost2010Prop56
140
1.0
102
RTVSPost2010PropOp56
 70
     1
102
RTVSPost2010Prop57
140
1.0
102
RTVSPost2010PropOp57
 70
     1
  0
XRECORD
  5
173
102
{ACAD_REACTORS
330
172
102
}
330
172
100
AcDbXrecord
280
     1
102
RTVSPost2010Prop28
280
     0
102
RTVSPost2010PropOp28
 70
     1
102
RTVSPost2010Prop29
280
     1
102
RTVSPost2010PropOp29
 70
     1
102
RTVSPost2010Prop30
280
     1
102
RTVSPost2010PropOp30
 70
     1
102
RTVSPost2010Prop31
280
     0
102
RTVSPost2010PropOp31
 70
     1
102
RTVSPost2010Prop32
280
     0
102
RTVSPost2010PropOp32
 70
     1
102
RTVSPost2010Prop33
280
     0
102
RTVSPost2010PropOp33
 70
     1
102
RTVSPost2010Prop34
280
     0
102
RTVSPost2010PropOp34
 70
     1
102
RTVSPost2010Prop35
280
     0
102
RTVSPost2010PropOp35
 70
     1
102
RTVSPost2010Prop36
280
     0
102
RTVSPost2010PropOp36
 70
     1
102
RTVSPost2010Prop37
 90
       50
102
RTVSPost2010PropOp37
 70
     1
102
RTVSPost2010Prop38
140
0.0
102
RTVSPost2010PropOp38
 70
     1
102
RTVSPost2010Prop39
140
1.0
102
RTVSPost2010PropOp39
 70
     1
102
RTVSPost2010Prop40
 90
        0
102
RTVSPost2010PropOp40
 70
     1
102
RTVSPost2010Prop41ColorIndex
 90
       18
102
RTVSPost2010Prop41ColorRGB
 90
        0
102
RTVSPost2010PropOp41
 70
     1
102
RTVSPost2010Prop42
 90
       50
102
RTVSPost2010PropOp42
 70
     1
102
RTVSPost2010Prop43
 90
        3
102
RTVSPost2010PropOp43
 70
     1
102
RTVSPost2010Prop44ColorIndex
 90
        5
102
RTVSPost2010Prop44ColorRGB
 90
      255
102
RTVSPost2010PropOp44
 70
     1
102
RTVSPost2010Prop45
280
     0
102
RTVSPost2010PropOp45
 70
     1
102
RTVSPost2010Prop46
 90
       50
102
RTVSPost2010PropOp46
 70
     1
102
RTVSPost2010Prop47
 90
       50
102
RTVSPost2010PropOp47
 70
     1
102
RTVSPost2010Prop48
 90
       50
102
RTVSPost2010PropOp48
 70
     1
102
RTVSPost2010Prop49
280
     0
102
RTVSPost2010PropOp49
 70
     1
102
RTVSPost2010Prop50
 90
       50
102
RTVSPost2010PropOp50
 70
     1
102
RTVSPost2010Prop51ColorIndex
 90
      256
102
RTVSPost2010Prop51ColorRGB
 90
-16777216
102
RTVSPost2010PropOp51
 70
     0
102
RTVSPost2010Prop52
140
1.0
102
RTVSPost2010PropOp52
 70
     0
102
RTVSPost2010Prop53
 90
        2
102
RTVSPost2010PropOp53
 70
     1
102
RTVSPost2010Prop54
  1
strokes_ogs.tif
102
RTVSPost2010PropOp54
 70
     1
102
RTVSPost2010Prop55
280
     0
102
RTVSPost2010PropOp55
 70
     1
102
RTVSPost2010Prop56
140
1.0
102
RTVSPost2010PropOp56
 70
     1
102
RTVSPost2010Prop57
140
1.0
102
RTVSPost2010PropOp57
 70
     1
  0
XRECORD
  5
167
102
{ACAD_REACTORS
330
166
102
}
330
166
100
AcDbXrecord
280
     1
102
RTVSPost2010Prop28
280
     0
102
RTVSPost2010PropOp28
 70
     1
102
RTVSPost2010Prop29
280
     1
102
RTVSPost2010PropOp29
 70
     1
102
RTVSPost2010Prop30
280
     1
102
RTVSPost2010PropOp30
 70
     1
102
RTVSPost2010Prop31
280
     0
102
RTVSPost2010PropOp31
 70
     1
102
RTVSPost2010Prop32
280
     0
102
RTVSPost2010PropOp32
 70
     1
102
RTVSPost2010Prop33
280
     0
102
RTVSPost2010PropOp33
 70
     1
102
RTVSPost2010Prop34
280
     0
102
RTVSPost2010PropOp34
 70
     1
102
RTVSPost2010Prop35
280
     0
102
RTVSPost2010PropOp35
 70
     1
102
RTVSPost2010Prop36
280
     0
102
RTVSPost2010PropOp36
 70
     1
102
RTVSPost2010Prop37
 90
       50
102
RTVSPost2010PropOp37
 70
     1
102
RTVSPost2010Prop38
140
0.0
102
RTVSPost2010PropOp38
 70
     1
102
RTVSPost2010Prop39
140
1.0
102
RTVSPost2010PropOp39
 70
     1
102
RTVSPost2010Prop40
 90
        0
102
RTVSPost2010PropOp40
 70
     1
102
RTVSPost2010Prop41ColorIndex
 90
       18
102
RTVSPost2010Prop41ColorRGB
 90
        0
102
RTVSPost2010PropOp41
 70
     1
102
RTVSPost2010Prop42
 90
       50
102
RTVSPost2010PropOp42
 70
     1
102
RTVSPost2010Prop43
 90
        3
102
RTVSPost2010PropOp43
 70
     1
102
RTVSPost2010Prop44ColorIndex
 90
        5
102
RTVSPost2010Prop44ColorRGB
 90
      255
102
RTVSPost2010PropOp44
 70
     1
102
RTVSPost2010Prop45
280
     0
102
RTVSPost2010PropOp45
 70
     1
102
RTVSPost2010Prop46
 90
       50
102
RTVSPost2010PropOp46
 70
     1
102
RTVSPost2010Prop47
 90
       50
102
RTVSPost2010PropOp47
 70
     1
102
RTVSPost2010Prop48
 90
       50
102
RTVSPost2010PropOp48
 70
     1
102
RTVSPost2010Prop49
280
     0
102
RTVSPost2010PropOp49
 70
     1
102
RTVSPost2010Prop50
 90
       50
102
RTVSPost2010PropOp50
 70
     1
102
RTVSPost2010Prop51ColorIndex
 90
      256
102
RTVSPost2010Prop51ColorRGB
 90
-16777216
102
RTVSPost2010PropOp51
 70
     0
102
RTVSPost2010Prop52
140
1.0
102
RTVSPost2010PropOp52
 70
     0
102
RTVSPost2010Prop53
 90
        2
102
RTVSPost2010PropOp53
 70
     1
102
RTVSPost2010Prop54
  1
strokes_ogs.tif
102
RTVSPost2010PropOp54
 70
     1
102
RTVSPost2010Prop55
280
     0
102
RTVSPost2010PropOp55
 70
     1
102
RTVSPost2010Prop56
140
1.0
102
RTVSPost2010PropOp56
 70
     1
102
RTVSPost2010Prop57
140
1.0
102
RTVSPost2010PropOp57
 70
     1
  0
XRECORD
  5
17F
102
{ACAD_REACTORS
330
17E
102
}
330
17E
100
AcDbXrecord
280
     1
102
RTVSPost2010Prop28
280
     0
102
RTVSPost2010PropOp28
 70
     1
102
RTVSPost2010Prop29
280
     1
102
RTVSPost2010PropOp29
 70
     1
102
RTVSPost2010Prop30
280
     1
102
RTVSPost2010PropOp30
 70
     1
102
RTVSPost2010Prop31
280
     0
102
RTVSPost2010PropOp31
 70
     1
102
RTVSPost2010Prop32
280
     0
102
RTVSPost2010PropOp32
 70
     1
102
RTVSPost2010Prop33
280
     0
102
RTVSPost2010PropOp33
 70
     1
102
RTVSPost2010Prop34
280
     0
102
RTVSPost2010PropOp34
 70
     1
102
RTVSPost2010Prop35
280
     0
102
RTVSPost2010PropOp35
 70
     1
102
RTVSPost2010Prop36
280
     0
102
RTVSPost2010PropOp36
 70
     1
102
RTVSPost2010Prop37
 90
       50
102
RTVSPost2010PropOp37
 70
     1
102
RTVSPost2010Prop38
140
0.0
102
RTVSPost2010PropOp38
 70
     1
102
RTVSPost2010Prop39
140
1.0
102
RTVSPost2010PropOp39
 70
     1
102
RTVSPost2010Prop40
 90
        0
102
RTVSPost2010PropOp40
 70
     1
102
RTVSPost2010Prop41ColorIndex
 90
       18
102
RTVSPost2010Prop41ColorRGB
 90
        0
102
RTVSPost2010PropOp41
 70
     1
102
RTVSPost2010Prop42
 90
       50
102
RTVSPost2010PropOp42
 70
     1
102
RTVSPost2010Prop43
 90
        3
102
RTVSPost2010PropOp43
 70
     1
102
RTVSPost2010Prop44ColorIndex
 90
        5
102
RTVSPost2010Prop44ColorRGB
 90
      255
102
RTVSPost2010PropOp44
 70
     1
102
RTVSPost2010Prop45
280
     0
102
RTVSPost2010PropOp45
 70
     1
102
RTVSPost2010Prop46
 90
       50
102
RTVSPost2010PropOp46
 70
     1
102
RTVSPost2010Prop47
 90
       50
102
RTVSPost2010PropOp47
 70
     1
102
RTVSPost2010Prop48
 90
       50
102
RTVSPost2010PropOp48
 70
     1
102
RTVSPost2010Prop49
280
     0
102
RTVSPost2010PropOp49
 70
     1
102
RTVSPost2010Prop50
 90
       50
102
RTVSPost2010PropOp50
 70
     1
102
RTVSPost2010Prop51ColorIndex
 90
      256
102
RTVSPost2010Prop51ColorRGB
 90
-16777216
102
RTVSPost2010PropOp51
 70
     0
102
RTVSPost2010Prop52
140
1.0
102
RTVSPost2010PropOp52
 70
     0
102
RTVSPost2010Prop53
 90
        2
102
RTVSPost2010PropOp53
 70
     1
102
RTVSPost2010Prop54
  1
strokes_ogs.tif
102
RTVSPost2010PropOp54
 70
     1
102
RTVSPost2010Prop55
280
     0
102
RTVSPost2010PropOp55
 70
     1
102
RTVSPost2010Prop56
140
1.0
102
RTVSPost2010PropOp56
 70
     1
102
RTVSPost2010Prop57
140
1.0
102
RTVSPost2010PropOp57
 70
     1
  0
ENDSEC
  0
EOF
