  0
SECTION
  2
HEADER
  9
$ACADVER
  1
AC1024
  9
$ACADMAINTVER
 70
   226
  9
$DWGCODEPAGE
  3
ANSI_932
  9
$INSBASE
 10
0.0
 20
0.0
 30
0.0
  9
$EXTMIN
 10
1.000000000000000E+20
 20
1.000000000000000E+20
 30
1.000000000000000E+20
  9
$EXTMAX
 10
-1.000000000000000E+20
 20
-1.000000000000000E+20
 30
-1.000000000000000E+20
  9
$LIMMIN
 10
0.0
 20
0.0
  9
$LIMMAX
 10
12.0
 20
9.0
  9
$ORTHOMODE
 70
     0
  9
$REGENMODE
 70
     1
  9
$FILLMODE
 70
     1
  9
$QTEXTMODE
 70
     0
  9
$MIRRTEXT
 70
     0
  9
$LTSCALE
 40
1.0
  9
$ATTMODE
 70
     1
  9
$TEXTSIZE
 40
0.2
  9
$TRACEWID
 40
0.05
  9
$TEXTSTYLE
  7
Standard
  9
$CLAYER
  8
0
  9
$CELTYPE
  6
ByLayer
  9
$CECOLOR
 62
   256
  9
$CELTSCALE
 40
1.0
  9
$DISPSILH
 70
     0
  9
$DIMSCALE
 40
1.0
  9
$DIMASZ
 40
0.18
  9
$DIMEXO
 40
0.0625
  9
$DIMDLI
 40
0.38
  9
$DIMRND
 40
0.0
  9
$DIMDLE
 40
0.0
  9
$DIMEXE
 40
0.18
  9
$DIMTP
 40
0.0
  9
$DIMTM
 40
0.0
  9
$DIMTXT
 40
0.18
  9
$DIMCEN
 40
0.09
  9
$DIMTSZ
 40
0.0
  9
$DIMTOL
 70
     0
  9
$DIMLIM
 70
     0
  9
$DIMTIH
 70
     1
  9
$DIMTOH
 70
     1
  9
$DIMSE1
 70
     0
  9
$DIMSE2
 70
     0
  9
$DIMTAD
 70
     0
  9
$DIMZIN
 70
     0
  9
$DIMBLK
  1

  9
$DIMASO
 70
     1
  9
$DIMSHO
 70
     1
  9
$DIMPOST
  1

  9
$DIMAPOST
  1

  9
$DIMALT
 70
     0
  9
$DIMALTD
 70
     2
  9
$DIMALTF
 40
25.4
  9
$DIMLFAC
 40
1.0
  9
$DIMTOFL
 70
     0
  9
$DIMTVP
 40
0.0
  9
$DIMTIX
 70
     0
  9
$DIMSOXD
 70
     0
  9
$DIMSAH
 70
     0
  9
$DIMBLK1
  1

  9
$DIMBLK2
  1

  9
$DIMSTYLE
  2
Standard
  9
$DIMCLRD
 70
     0
  9
$DIMCLRE
 70
     0
  9
$DIMCLRT
 70
     0
  9
$DIMTFAC
 40
1.0
  9
$DIMGAP
 40
0.09
  9
$DIMJUST
 70
     0
  9
$DIMSD1
 70
     0
  9
$DIMSD2
 70
     0
  9
$DIMTOLJ
 70
     1
  9
$DIMTZIN
 70
     0
  9
$DIMALTZ
 70
     0
  9
$DIMALTTZ
 70
     0
  9
$DIMUPT
 70
     0
  9
$DIMDEC
 70
     4
  9
$DIMTDEC
 70
     4
  9
$DIMALTU
 70
     2
  9
$DIMALTTD
 70
     2
  9
$DIMTXSTY
  7
Standard
  9
$DIMAUNIT
 70
     0
  9
$DIMADEC
 70
     0
  9
$DIMALTRND
 40
0.0
  9
$DIMAZIN
 70
     0
  9
$DIMDSEP
 70
    46
  9
$DIMATFIT
 70
     3
  9
$DIMFRAC
 70
     0
  9
$DIMLDRBLK
  1

  9
$DIMLUNIT
 70
     2
  9
$DIMLWD
 70
    -2
  9
$DIMLWE
 70
    -2
  9
$DIMTMOVE
 70
     0
  9
$DIMFXL
 40
1.0
  9
$DIMFXLON
 70
     0
  9
$DIMJOGANG
 40
0.7853981633974483
  9
$DIMTFILL
 70
     0
  9
$DIMTFILLCLR
 70
     0
  9
$DIMARCSYM
 70
     0
  9
$DIMLTYPE
  6

  9
$DIMLTEX1
  6

  9
$DIMLTEX2
  6

  9
$DIMTXTDIRECTION
 70
     0
  9
$LUNITS
 70
     2
  9
$LUPREC
 70
     4
  9
$SKETCHINC
 40
0.1
  9
$FILLETRAD
 40
0.0
  9
$AUNITS
 70
     0
  9
$AUPREC
 70
     0
  9
$MENU
  1
.
  9
$ELEVATION
 40
0.0
  9
$PELEVATION
 40
0.0
  9
$THICKNESS
 40
0.0
  9
$LIMCHECK
 70
     0
  9
$CHAMFERA
 40
0.0
  9
$CHAMFERB
 40
0.0
  9
$CHAMFERC
 40
0.0
  9
$CHAMFERD
 40
0.0
  9
$SKPOLY
 70
     0
  9
$TDCREATE
 40
2459569.503865741
  9
$TDUCREATE
 40
2459569.128865741
  9
$TDUPDATE
 40
2459569.503865741
  9
$TDUUPDATE
 40
2459569.128865741
  9
$TDINDWG
 40
0.0000000000
  9
$TDUSRTIMER
 40
0.0000000000
  9
$USRTIMER
 70
     1
  9
$ANGBASE
 50
0.0
  9
$ANGDIR
 70
     0
  9
$PDMODE
 70
     0
  9
$PDSIZE
 40
0.0
  9
$PLINEWID
 40
0.0
  9
$SPLFRAME
 70
     0
  9
$SPLINETYPE
 70
     6
  9
$SPLINESEGS
 70
     8
  9
$HANDSEED
  5
1B3
  9
$SURFTAB1
 70
     6
  9
$SURFTAB2
 70
     6
  9
$SURFTYPE
 70
     6
  9
$SURFU
 70
     6
  9
$SURFV
 70
     6
  9
$UCSBASE
  2

  9
$UCSNAME
  2

  9
$UCSORG
 10
0.0
 20
0.0
 30
0.0
  9
$UCSXDIR
 10
1.0
 20
0.0
 30
0.0
  9
$UCSYDIR
 10
0.0
 20
1.0
 30
0.0
  9
$UCSORTHOREF
  2

  9
$UCSORTHOVIEW
 70
     0
  9
$UCSORGTOP
 10
0.0
 20
0.0
 30
0.0
  9
$UCSORGBOTTOM
 10
0.0
 20
0.0
 30
0.0
  9
$UCSORGLEFT
 10
0.0
 20
0.0
 30
0.0
  9
$UCSORGRIGHT
 10
0.0
 20
0.0
 30
0.0
  9
$UCSORGFRONT
 10
0.0
 20
0.0
 30
0.0
  9
$UCSORGBACK
 10
0.0
 20
0.0
 30
0.0
  9
$PUCSBASE
  2

  9
$PUCSNAME
  2

  9
$PUCSORG
 10
0.0
 20
0.0
 30
0.0
  9
$PUCSXDIR
 10
1.0
 20
0.0
 30
0.0
  9
$PUCSYDIR
 10
0.0
 20
1.0
 30
0.0
  9
$PUCSORTHOREF
  2

  9
$PUCSORTHOVIEW
 70
     0
  9
$PUCSORGTOP
 10
0.0
 20
0.0
 30
0.0
  9
$PUCSORGBOTTOM
 10
0.0
 20
0.0
 30
0.0
  9
$PUCSORGLEFT
 10
0.0
 20
0.0
 30
0.0
  9
$PUCSORGRIGHT
 10
0.0
 20
0.0
 30
0.0
  9
$PUCSORGFRONT
 10
0.0
 20
0.0
 30
0.0
  9
$PUCSORGBACK
 10
0.0
 20
0.0
 30
0.0
  9
$USERI1
 70
     0
  9
$USERI2
 70
     0
  9
$USERI3
 70
     0
  9
$USERI4
 70
     0
  9
$USERI5
 70
     0
  9
$USERR1
 40
0.0
  9
$USERR2
 40
0.0
  9
$USERR3
 40
0.0
  9
$USERR4
 40
0.0
  9
$USERR5
 40
0.0
  9
$WORLDVIEW
 70
     1
  9
$SHADEDGE
 70
     3
  9
$SHADEDIF
 70
    70
  9
$TILEMODE
 70
     1
  9
$MAXACTVP
 70
    64
  9
$PINSBASE
 10
0.0
 20
0.0
 30
0.0
  9
$PLIMCHECK
 70
     0
  9
$PEXTMIN
 10
1.000000000000000E+20
 20
1.000000000000000E+20
 30
1.000000000000000E+20
  9
$PEXTMAX
 10
-1.000000000000000E+20
 20
-1.000000000000000E+20
 30
-1.000000000000000E+20
  9
$PLIMMIN
 10
0.0
 20
0.0
  9
$PLIMMAX
 10
12.0
 20
9.0
  9
$UNITMODE
 70
     0
  9
$VISRETAIN
 70
     1
  9
$PLINEGEN
 70
     0
  9
$PSLTSCALE
 70
     1
  9
$TREEDEPTH
 70
  3020
  9
$CMLSTYLE
  2
Standard
  9
$CMLJUST
 70
     0
  9
$CMLSCALE
 40
1.0
  9
$PROXYGRAPHICS
 70
     1
  9
$MEASUREMENT
 70
     0
  9
$CELWEIGHT
370
    -1
  9
$ENDCAPS
280
     0
  9
$JOINSTYLE
280
     0
  9
$LWDISPLAY
290
     1
  9
$INSUNITS
 70
     4
  9
$HYPERLINKBASE
  1

  9
$STYLESHEET
  1

  9
$XEDIT
290
     1
  9
$CEPSNTYPE
380
     0
  9
$PSTYLEMODE
290
     1
  9
$FINGERPRINTGUID
  2
{F2F3E47D-38DF-7249-B2FA-DE315A397CBD}
  9
$VERSIONGUID
  2
{42A0EE74-6A41-EC49-A54C-56FDA577EB45}
  9
$EXTNAMES
290
     1
  9
$PSVPSCALE
 40
0.0
  9
$OLESTARTUP
290
     0
  9
$SORTENTS
280
   127
  9
$INDEXCTL
280
     0
  9
$HIDETEXT
280
     1
  9
$XCLIPFRAME
280
     2
  9
$HALOGAP
280
     0
  9
$OBSCOLOR
 70
   257
  9
$OBSLTYPE
280
     0
  9
$INTERSECTIONDISPLAY
280
     0
  9
$INTERSECTIONCOLOR
 70
   257
  9
$DIMASSOC
280
     2
  9
$PROJECTNAME
  1

  9
$CAMERADISPLAY
290
     0
  9
$LENSLENGTH
 40
50.0
  9
$CAMERAHEIGHT
 40
0.0
  9
$STEPSPERSEC
 40
2.0
  9
$STEPSIZE
 40
6.0
  9
$3DDWFPREC
 40
2.0
  9
$PSOLWIDTH
 40
0.25
  9
$PSOLHEIGHT
 40
4.0
  9
$LOFTANG1
 40
1.570796326794896
  9
$LOFTANG2
 40
1.570796326794896
  9
$LOFTMAG1
 40
0.0
  9
$LOFTMAG2
 40
0.0
  9
$LOFTPARAM
 70
     7
  9
$LOFTNORMALS
280
     1
  9
$LATITUDE
 40
37.795
  9
$LONGITUDE
 40
-122.394
  9
$NORTHDIRECTION
 40
0.0
  9
$TIMEZONE
 70
 -8000
  9
$LIGHTGLYPHDISPLAY
280
     1
  9
$TILEMODELIGHTSYNCH
280
     1
  9
$CMATERIAL
347
11
  9
$SOLIDHIST
280
     0
  9
$SHOWHIST
280
     1
  9
$DWFFRAME
280
     2
  9
$DGNFRAME
280
     0
  9
$REALWORLDSCALE
290
     1
  9
$INTERFERECOLOR
 62
     1
  9
$INTERFEREOBJVS
345
33
  9
$INTERFEREVPVS
346
30
  9
$CSHADOW
280
     0
  9
$SHADOWPLANELOCATION
 40
0.0
  0
ENDSEC
  0
SECTION
  2
CLASSES
  0
CLASS
  1
ACDBDICTIONARYWDFLT
  2
AcDbDictionaryWithDefault
  3
ObjectDBX Classes
 90
        0
 91
        1
280
     0
281
     0
  0
CLASS
  1
MATERIAL
  2
AcDbMaterial
  3
ObjectDBX Classes
 90
     1153
 91
        3
280
     0
281
     0
  0
CLASS
  1
VISUALSTYLE
  2
AcDbVisualStyle
  3
ObjectDBX Classes
 90
     4095
 91
       24
280
     0
281
     0
  0
CLASS
  1
SCALE
  2
AcDbScale
  3
ObjectDBX Classes
 90
     1153
 91
       17
280
     0
281
     0
  0
CLASS
  1
TABLESTYLE
  2
AcDbTableStyle
  3
ObjectDBX Classes
 90
     4095
 91
        1
280
     0
281
     0
  0
CLASS
  1
MLEADERSTYLE
  2
AcDbMLeaderStyle
  3
ACDB_MLEADERSTYLE_CLASS
 90
     4095
 91
        1
280
     0
281
     0
  0
CLASS
  1
ACDBSECTIONVIEWSTYLE
  2
AcDbSectionViewStyle
  3
ObjectDBX Classes
 90
     1025
 91
        1
280
     0
281
     0
  0
CLASS
  1
ACDBDETAILVIEWSTYLE
  2
AcDbDetailViewStyle
  3
ObjectDBX Classes
 90
     1025
 91
        1
280
     0
281
     0
  0
CLASS
  1
DICTIONARYVAR
  2
AcDbDictionaryVar
  3
ObjectDBX Classes
 90
        0
 91
        5
280
     0
281
     0
  0
CLASS
  1
CELLSTYLEMAP
  2
AcDbCellStyleMap
  3
ObjectDBX Classes
 90
     1152
 91
        1
280
     0
281
     0
  0
ENDSEC
  0
SECTION
  2
TABLES
  0
TABLE
  2
VPORT
  5
8
330
0
100
AcDbSymbolTable
 70
     1
  0
VPORT
  5
57
330
8
100
AcDbSymbolTableRecord
100
AcDbViewportTableRecord
  2
*Active
 70
     0
 10
0.0
 20
0.0
 11
1.0
 21
1.0
 12
0.0
 22
0.0
 13
0.0
 23
0.0
 14
1.0
 24
1.0
 15
0.0
 25
0.0
 16
0.0
 26
0.0
 36
1.0
 17
104.9999999737534
 27
-148.4999999628701
 37
0.0
 40
302.939999924255
 41
0.7070707070707534
 42
50.0
 43
0.0
 44
0.0
 50
0.0
 51
0.0
 71
     0
 72
   100
 73
     1
 74
     0
 75
     1
 76
     0
 77
     0
 78
     0
281
     0
 65
     1
110
0.0
120
0.0
130
0.0
111
1.0
121
0.0
131
0.0
112
0.0
122
1.0
132
0.0
 79
     0
146
0.0
 60
     3
 61
     5
292
     1
282
     1
141
0.0
142
0.0
 63
   250
421
  3355443
  0
ENDTAB
  0
TABLE
  2
LTYPE
  5
5
330
0
100
AcDbSymbolTable
 70
     3
  0
LTYPE
  5
5B
330
5
100
AcDbSymbolTableRecord
100
AcDbLinetypeTableRecord
  2
ByBlock
 70
     0
  3

 72
    65
 73
     0
 40
0.0
  0
LTYPE
  5
5C
330
5
100
AcDbSymbolTableRecord
100
AcDbLinetypeTableRecord
  2
ByLayer
 70
     0
  3

 72
    65
 73
     0
 40
0.0
  0
LTYPE
  5
5D
330
5
100
AcDbSymbolTableRecord
100
AcDbLinetypeTableRecord
  2
Continuous
 70
     0
  3
Solid line
 72
    65
 73
     0
 40
0.0
  0
LTYPE
  5
7A
330
5
100
AcDbSymbolTableRecord
100
AcDbLinetypeTableRecord
  2
AI-Linetype-0
 70
     0
  3
Adobe Illustrator Linetype No. 0
 72
    65
 73
     2
 40
1.411111110758333
 49
0.7055555553791667
 74
     0
 49
-0.7055555553791667
 74
     0
  0
LTYPE
  5
7C
330
5
100
AcDbSymbolTableRecord
100
AcDbLinetypeTableRecord
  2
AI-Linetype-1
 70
     0
  3
Adobe Illustrator Linetype No. 1
 72
    65
 73
     2
 40
1.411111110758333
 49
0.7055555553791667
 74
     0
 49
-0.7055555553791667
 74
     0
  0
ENDTAB
  0
TABLE
  2
LAYER
  5
2
330
0
100
AcDbSymbolTable
 70
     2
  0
LAYER
  5
54
330
2
100
AcDbSymbolTableRecord
100
AcDbLayerTableRecord
  2
0
 70
     0
 62
     7
  6
Continuous
370
    -3
390
F
347
21
  0
LAYER
  5
78
330
2
100
AcDbSymbolTableRecord
100
AcDbLayerTableRecord
  2
レイヤー 1
 70
     0
 62
     7
  6
Continuous
370
     0
390
F
347
21
  0
ENDTAB
  0
TABLE
  2
STYLE
  5
3
330
0
100
AcDbSymbolTable
 70
     2
  0
STYLE
  5
55
330
3
100
AcDbSymbolTableRecord
100
AcDbTextStyleTableRecord
  2
Standard
 70
     0
 40
0.0
 41
1.0
 50
0.0
 71
     0
 42
0.2
  3
txt
  4

  0
STYLE
  5
5A
330
3
100
AcDbSymbolTableRecord
100
AcDbTextStyleTableRecord
  2
Annotative
 70
     0
 40
0.0
 41
1.0
 50
0.0
 71
     0
 42
0.2
  3
txt
  4

1001
AcadAnnotative
1000
AnnotativeData
1002
{
1070
     1
1070
     1
1002
}
  0
ENDTAB
  0
TABLE
  2
VIEW
  5
6
330
0
100
AcDbSymbolTable
 70
     0
  0
ENDTAB
  0
TABLE
  2
UCS
  5
7
330
0
100
AcDbSymbolTable
 70
     0
  0
ENDTAB
  0
TABLE
  2
APPID
  5
9
330
0
100
AcDbSymbolTable
 70
     2
  0
APPID
  5
56
330
9
100
AcDbSymbolTableRecord
100
AcDbRegAppTableRecord
  2
ACAD
 70
     0
  0
APPID
  5
5E
330
9
100
AcDbSymbolTableRecord
100
AcDbRegAppTableRecord
  2
AcadAnnotative
 70
     0
  0
ENDTAB
  0
TABLE
  2
DIMSTYLE
  5
A
330
0
100
AcDbSymbolTable
 70
     2
100
AcDbDimStyleTable
 71
     0
  0
DIMSTYLE
105
58
330
A
100
AcDbSymbolTableRecord
100
AcDbDimStyleTableRecord
  2
Standard
 70
     0
340
55
  0
DIMSTYLE
105
59
330
A
100
AcDbSymbolTableRecord
100
AcDbDimStyleTableRecord
  2
Annotative
 70
     0
340
55
1001
AcadAnnotative
1000
AnnotativeData
1002
{
1070
     1
1070
     1
1002
}
  0
ENDTAB
  0
TABLE
  2
BLOCK_RECORD
  5
1
330
0
100
AcDbSymbolTable
 70
    17
  0
BLOCK_RECORD
  5
70
330
1
100
AcDbSymbolTableRecord
100
AcDbBlockTableRecord
  2
*Model_Space
340
73
 70
     0
280
     1
281
     0
  0
BLOCK_RECORD
  5
6C
330
1
100
AcDbSymbolTableRecord
100
AcDbBlockTableRecord
  2
*Paper_Space
340
6F
 70
     0
280
     1
281
     0
  0
BLOCK_RECORD
  5
74
330
1
100
AcDbSymbolTableRecord
100
AcDbBlockTableRecord
  2
*Paper_Space0
340
77
 70
     0
280
     1
281
     0
  0
BLOCK_RECORD
  5
7D
330
1
100
AcDbSymbolTableRecord
100
AcDbBlockTableRecord
  2
Block_0
340
0
102
{BLKREFS
331
7E
102
}
 70
     0
280
     1
281
     0
  0
BLOCK_RECORD
  5
EB
330
1
100
AcDbSymbolTableRecord
100
AcDbBlockTableRecord
  2
Block_1
340
0
102
{BLKREFS
331
EC
102
}
 70
     0
280
     1
281
     0
  0
BLOCK_RECORD
  5
EF
330
1
100
AcDbSymbolTableRecord
100
AcDbBlockTableRecord
  2
Block_2
340
0
102
{BLKREFS
331
F0
102
}
 70
     0
280
     1
281
     0
  0
BLOCK_RECORD
  5
FC
330
1
100
AcDbSymbolTableRecord
100
AcDbBlockTableRecord
  2
Block_3
340
0
102
{BLKREFS
331
FD
102
}
 70
     0
280
     1
281
     0
  0
BLOCK_RECORD
  5
100
330
1
100
AcDbSymbolTableRecord
100
AcDbBlockTableRecord
  2
Block_4
340
0
102
{BLKREFS
331
101
102
}
 70
     0
280
     1
281
     0
  0
BLOCK_RECORD
  5
10A
330
1
100
AcDbSymbolTableRecord
100
AcDbBlockTableRecord
  2
Block_5
340
0
102
{BLKREFS
331
10B
102
}
 70
     0
280
     1
281
     0
  0
BLOCK_RECORD
  5
113
330
1
100
AcDbSymbolTableRecord
100
AcDbBlockTableRecord
  2
Block_6
340
0
102
{BLKREFS
331
114
102
}
 70
     0
280
     1
281
     0
  0
BLOCK_RECORD
  5
117
330
1
100
AcDbSymbolTableRecord
100
AcDbBlockTableRecord
  2
Block_7
340
0
102
{BLKREFS
331
118
102
}
 70
     0
280
     1
281
     0
  0
BLOCK_RECORD
  5
122
330
1
100
AcDbSymbolTableRecord
100
AcDbBlockTableRecord
  2
Block_8
340
0
102
{BLKREFS
331
123
102
}
 70
     0
280
     1
281
     0
  0
BLOCK_RECORD
  5
12D
330
1
100
AcDbSymbolTableRecord
100
AcDbBlockTableRecord
  2
Block_9
340
0
102
{BLKREFS
331
12E
102
}
 70
     0
280
     1
281
     0
  0
BLOCK_RECORD
  5
134
330
1
100
AcDbSymbolTableRecord
100
AcDbBlockTableRecord
  2
Block_10
340
0
102
{BLKREFS
331
135
102
}
 70
     0
280
     1
281
     0
  0
BLOCK_RECORD
  5
13A
330
1
100
AcDbSymbolTableRecord
100
AcDbBlockTableRecord
  2
Block_11
340
0
102
{BLKREFS
331
13B
102
}
 70
     0
280
     1
281
     0
  0
BLOCK_RECORD
  5
141
330
1
100
AcDbSymbolTableRecord
100
AcDbBlockTableRecord
  2
Block_12
340
0
102
{BLKREFS
331
142
102
}
 70
     0
280
     1
281
     0
  0
BLOCK_RECORD
  5
145
330
1
100
AcDbSymbolTableRecord
100
AcDbBlockTableRecord
  2
Block_13
340
0
102
{BLKREFS
331
146
102
}
 70
     0
280
     1
281
     0
  0
BLOCK_RECORD
  5
159
330
1
100
AcDbSymbolTableRecord
100
AcDbBlockTableRecord
  2
Block_14
340
0
102
{BLKREFS
331
15A
102
}
 70
     0
280
     1
281
     0
  0
BLOCK_RECORD
  5
15D
330
1
100
AcDbSymbolTableRecord
100
AcDbBlockTableRecord
  2
Block_15
340
0
102
{BLKREFS
331
15E
102
}
 70
     0
280
     1
281
     0
  0
ENDTAB
  0
ENDSEC
  0
SECTION
  2
BLOCKS
  0
BLOCK
  5
71
330
70
100
AcDbEntity
  8
0
100
AcDbBlockBegin
  2
*Model_Space
 70
     0
 10
0.0
 20
0.0
 30
0.0
  3
*Model_Space
  1

  0
ENDBLK
  5
72
330
70
100
AcDbEntity
  8
0
100
AcDbBlockEnd
  0
BLOCK
  5
6D
330
6C
100
AcDbEntity
 67
     1
  8
0
100
AcDbBlockBegin
  2
*Paper_Space
 70
     0
 10
0.0
 20
0.0
 30
0.0
  3
*Paper_Space
  1

  0
ENDBLK
  5
6E
330
6C
100
AcDbEntity
 67
     1
  8
0
100
AcDbBlockEnd
  0
BLOCK
  5
75
330
74
100
AcDbEntity
 67
     1
  8
0
100
AcDbBlockBegin
  2
*Paper_Space0
 70
     0
 10
0.0
 20
0.0
 30
0.0
  3
*Paper_Space0
  1

  0
ENDBLK
  5
76
330
74
100
AcDbEntity
 67
     1
  8
0
100
AcDbBlockEnd
  0
BLOCK
  5
7F
330
7D
100
AcDbEntity
  8
0
100
AcDbBlockBegin
  2
Block_0
 70
     0
 10
0.0
 20
0.0
 30
0.0
  3
Block_0
  1

  0
LINE
  5
81
330
7D
100
AcDbEntity
  8
レイヤー 1
 62
    18
420
        0
370
     9
100
AcDbLine
 10
122.7647499844477
 20
-148.53320921646
 30
0.0
 11
123.5760682970826
 21
-149.1178325496473
 31
0.0
  0
LINE
  5
82
330
7D
100
AcDbEntity
  8
レイヤー 1
 62
    18
420
        0
370
     9
100
AcDbLine
 10
122.7647499844477
 20
-148.53320921646
 30
0.0
 11
125.3423560297986
 21
-151.6902881045596
 31
0.0
  0
LINE
  5
83
330
7D
100
AcDbEntity
  8
レイヤー 1
 62
    18
420
        0
370
     9
100
AcDbLine
 10
122.7647499844477
 20
-148.53320921646
 30
0.0
 11
123.1750305295361
 21
-149.4452808828983
 31
0.0
  0
ENDBLK
  5
80
330
7D
100
AcDbEntity
  8
0
100
AcDbBlockEnd
  0
BLOCK
  5
ED
330
EB
100
AcDbEntity
  8
0
100
AcDbBlockBegin
  2
Block_1
 70
     0
 10
0.0
 20
0.0
 30
0.0
  3
Block_1
  1

  0
INSERT
  5
F0
330
EB
100
AcDbEntity
  8
レイヤー 1
100
AcDbBlockReference
  2
Block_2
 10
0.0
 20
0.0
 30
0.0
  0
ENDBLK
  5
EE
330
EB
100
AcDbEntity
  8
0
100
AcDbBlockEnd
  0
BLOCK
  5
F1
330
EF
100
AcDbEntity
  8
0
100
AcDbBlockBegin
  2
Block_2
 70
     0
 10
0.0
 20
0.0
 30
0.0
  3
Block_2
  1

  0
SPLINE
  5
F3
330
EF
100
AcDbEntity
  8
レイヤー 1
100
AcDbSpline
210
0.0
220
0.0
230
1.0
 70
     9
 71
     3
 72
    17
 73
    13
 74
     0
 42
0.0000000001
 43
0.0000000001
 40
0.0
 40
0.0
 40
0.0
 40
0.0
 40
1.0
 40
1.0
 40
1.0
 40
2.0
 40
2.0
 40
2.0
 40
3.0
 40
3.0
 40
3.0
 40
4.0
 40
4.0
 40
4.0
 40
4.0
 10
76.59566919743095
 20
-147.8121663041928
 30
0.0
 10
76.59566919743095
 20
-148.0619357268734
 30
0.0
 10
76.87902830109274
 20
-148.1084445159243
 30
0.0
 10
77.22388235916625
 20
-148.1084445159243
 30
0.0
 10
77.54341496542318
 20
-148.1084445159243
 30
0.0
 10
77.85226777567583
 20
-148.0722710133291
 30
0.0
 10
77.85226777567583
 20
-147.8121663041928
 30
0.0
 10
77.85226777567583
 20
-147.5644639388033
 30
0.0
 10
77.57080347453092
 20
-147.5158880924613
 30
0.0
 10
77.22388235916625
 20
-147.5158880924613
 30
0.0
 10
76.90452200768359
 20
-147.5158880924613
 30
0.0
 10
76.59566919743095
 20
-147.5541286523476
 30
0.0
 10
76.59566919743095
 20
-147.8121663041928
 30
0.0
  0
SPLINE
  5
F4
330
EF
100
AcDbEntity
  8
レイヤー 1
100
AcDbSpline
210
0.0
220
0.0
230
1.0
 70
     9
 71
     3
 72
    29
 73
    25
 74
     0
 42
0.0000000001
 43
0.0000000001
 40
0.0
 40
0.0
 40
0.0
 40
0.0
 40
1.0
 40
1.0
 40
1.0
 40
2.0
 40
2.0
 40
2.0
 40
3.0
 40
3.0
 40
3.0
 40
4.0
 40
4.0
 40
4.0
 40
5.0
 40
5.0
 40
5.0
 40
6.0
 40
6.0
 40
6.0
 40
7.0
 40
7.0
 40
7.0
 40
8.0
 40
8.0
 40
8.0
 40
8.0
 10
77.81833358514612
 20
-147.4142577756464
 30
0.0
 10
78.0277953906493
 20
-147.5224337738833
 30
0.0
 10
78.04691567059244
 20
-147.6957220767913
 30
0.0
 10
78.04691567059244
 20
-147.8121663041928
 30
0.0
 10
78.04691567059244
 20
-147.9730522633539
 30
0.0
 10
78.00040688154156
 20
-148.1146456877977
 30
0.0
 10
77.81833358514612
 20
-148.2097303231906
 30
0.0
 10
77.62385794500376
 20
-148.3134276972966
 30
0.0
 10
77.38683537561858
 20
-148.332720232014
 30
0.0
 10
77.22388235916625
 20
-148.332720232014
 30
0.0
 10
77.08004962265707
 20
-148.332720232014
 30
0.0
 10
76.82838539745957
 20
-148.3154947545878
 30
0.0
 10
76.6294311331864
 20
-148.2097303231906
 30
0.0
 10
76.42634275433092
 20
-148.1018988345023
 30
0.0
 10
76.40308835980547
 20
-147.9410128753411
 30
0.0
 10
76.40308835980547
 20
-147.8121663041928
 30
0.0
 10
76.40308835980547
 20
-147.6533474023228
 30
0.0
 10
76.4475300915652
 20
-147.5096869205878
 30
0.0
 10
76.6294311331864
 20
-147.4142577756464
 30
0.0
 10
76.82201197081186
 20
-147.3150390256712
 30
0.0
 10
77.05042180148392
 20
-147.2916123763715
 30
0.0
 10
77.22388235916625
 20
-147.2916123763715
 30
0.0
 10
77.39527585955743
 20
-147.2916123763715
 30
0.0
 10
77.62592500229491
 20
-147.3129719683801
 30
0.0
 10
77.81833358514612
 20
-147.4142577756464
 30
0.0
  0
HATCH
  5
F5
330
EF
100
AcDbEntity
  8
レイヤー 1
 62
    18
420
        0
440
 33554687
100
AcDbHatch
 10
0.0
 20
0.0
 30
0.0
210
0.0
220
0.0
230
1.0
  2
SOLID
 70
     1
 71
     1
 91
        2
 92
        1
 93
        1
 72
     4
 94
        3
 73
     0
 74
     0
 95
       17
 96
       13
 40
0.0
 40
0.0
 40
0.0
 40
0.0
 40
1.0
 40
1.0
 40
1.0
 40
2.0
 40
2.0
 40
2.0
 40
3.0
 40
3.0
 40
3.0
 40
4.0
 40
4.0
 40
4.0
 40
4.0
 10
76.59566919743095
 20
-147.8121663041928
 10
76.59566919743095
 20
-148.0619357268734
 10
76.87902830109274
 20
-148.1084445159243
 10
77.22388235916625
 20
-148.1084445159243
 10
77.54341496542318
 20
-148.1084445159243
 10
77.85226777567583
 20
-148.0722710133291
 10
77.85226777567583
 20
-147.8121663041928
 10
77.85226777567583
 20
-147.5644639388033
 10
77.57080347453092
 20
-147.5158880924613
 10
77.22388235916625
 20
-147.5158880924613
 10
76.90452200768359
 20
-147.5158880924613
 10
76.59566919743095
 20
-147.5541286523476
 10
76.59566919743095
 20
-147.8121663041928
 97
        0
 97
        1
330
F3
 92
        1
 93
        1
 72
     4
 94
        3
 73
     0
 74
     0
 95
       29
 96
       25
 40
0.0
 40
0.0
 40
0.0
 40
0.0
 40
1.0
 40
1.0
 40
1.0
 40
2.0
 40
2.0
 40
2.0
 40
3.0
 40
3.0
 40
3.0
 40
4.0
 40
4.0
 40
4.0
 40
5.0
 40
5.0
 40
5.0
 40
6.0
 40
6.0
 40
6.0
 40
7.0
 40
7.0
 40
7.0
 40
8.0
 40
8.0
 40
8.0
 40
8.0
 10
77.81833358514612
 20
-147.4142577756464
 10
78.0277953906493
 20
-147.5224337738833
 10
78.04691567059244
 20
-147.6957220767913
 10
78.04691567059244
 20
-147.8121663041928
 10
78.04691567059244
 20
-147.9730522633539
 10
78.00040688154156
 20
-148.1146456877977
 10
77.81833358514612
 20
-148.2097303231906
 10
77.62385794500376
 20
-148.3134276972966
 10
77.38683537561858
 20
-148.332720232014
 10
77.22388235916625
 20
-148.332720232014
 10
77.08004962265707
 20
-148.332720232014
 10
76.82838539745957
 20
-148.3154947545878
 10
76.6294311331864
 20
-148.2097303231906
 10
76.42634275433092
 20
-148.1018988345023
 10
76.40308835980547
 20
-147.9410128753411
 10
76.40308835980547
 20
-147.8121663041928
 10
76.40308835980547
 20
-147.6533474023228
 10
76.4475300915652
 20
-147.5096869205878
 10
76.6294311331864
 20
-147.4142577756464
 10
76.82201197081186
 20
-147.3150390256712
 10
77.05042180148392
 20
-147.2916123763715
 10
77.22388235916625
 20
-147.2916123763715
 10
77.39527585955743
 20
-147.2916123763715
 10
77.62592500229491
 20
-147.3129719683801
 10
77.81833358514612
 20
-147.4142577756464
 97
        0
 97
        1
330
F4
 75
     2
 76
     1
 98
        1
 10
0.0
 20
0.0
450
        0
451
        0
460
0.0
461
0.0
452
        0
462
0.0
453
        0
470

  0
SPLINE
  5
F6
330
EF
100
AcDbEntity
  8
レイヤー 1
100
AcDbSpline
210
0.0
220
0.0
230
1.0
 70
    11
 71
     3
 72
    17
 73
    13
 74
     0
 42
0.0000000001
 43
0.0000000001
 40
0.0
 40
0.0
 40
0.0
 40
0.0
 40
1.0
 40
1.0
 40
1.0
 40
2.0
 40
2.0
 40
2.0
 40
3.0
 40
3.0
 40
3.0
 40
4.0
 40
4.0
 40
4.0
 40
4.0
 10
77.996100512185
 20
-147.0752603798978
 30
0.0
 10
77.996100512185
 20
-147.0752603798978
 30
0.0
 10
77.74443628698751
 20
-147.0752603798978
 30
0.0
 10
77.74443628698751
 20
-147.0752603798978
 30
0.0
 10
77.74443628698751
 20
-147.0752603798978
 30
0.0
 10
77.74443628698751
 20
-146.8234238999261
 30
0.0
 10
77.74443628698751
 20
-146.8234238999261
 30
0.0
 10
77.74443628698751
 20
-146.8234238999261
 30
0.0
 10
77.996100512185
 20
-146.8234238999261
 30
0.0
 10
77.996100512185
 20
-146.8234238999261
 30
0.0
 10
77.996100512185
 20
-146.8234238999261
 30
0.0
 10
77.996100512185
 20
-147.0752603798978
 30
0.0
 10
77.996100512185
 20
-147.0752603798978
 30
0.0
  0
HATCH
  5
F7
330
EF
100
AcDbEntity
  8
レイヤー 1
 62
    18
420
        0
440
 33554687
100
AcDbHatch
 10
0.0
 20
0.0
 30
0.0
210
0.0
220
0.0
230
1.0
  2
SOLID
 70
     1
 71
     1
 91
        1
 92
        1
 93
        1
 72
     4
 94
        3
 73
     0
 74
     0
 95
       17
 96
       13
 40
0.0
 40
0.0
 40
0.0
 40
0.0
 40
1.0
 40
1.0
 40
1.0
 40
2.0
 40
2.0
 40
2.0
 40
3.0
 40
3.0
 40
3.0
 40
4.0
 40
4.0
 40
4.0
 40
4.0
 10
77.996100512185
 20
-147.0752603798978
 10
77.996100512185
 20
-147.0752603798978
 10
77.74443628698751
 20
-147.0752603798978
 10
77.74443628698751
 20
-147.0752603798978
 10
77.74443628698751
 20
-147.0752603798978
 10
77.74443628698751
 20
-146.8234238999261
 10
77.74443628698751
 20
-146.8234238999261
 10
77.74443628698751
 20
-146.8234238999261
 10
77.996100512185
 20
-146.8234238999261
 10
77.996100512185
 20
-146.8234238999261
 10
77.996100512185
 20
-146.8234238999261
 10
77.996100512185
 20
-147.0752603798978
 10
77.996100512185
 20
-147.0752603798978
 97
        0
 97
        1
330
F6
 75
     2
 76
     1
 98
        1
 10
0.0
 20
0.0
450
        0
451
        0
460
0.0
461
0.0
452
        0
462
0.0
453
        0
470

  0
SPLINE
  5
F8
330
EF
100
AcDbEntity
  8
レイヤー 1
100
AcDbSpline
210
0.0
220
0.0
230
1.0
 70
     9
 71
     3
 72
    53
 73
    49
 74
     0
 42
0.0000000001
 43
0.0000000001
 40
0.0
 40
0.0
 40
0.0
 40
0.0
 40
1.0
 40
1.0
 40
1.0
 40
2.0
 40
2.0
 40
2.0
 40
3.0
 40
3.0
 40
3.0
 40
4.0
 40
4.0
 40
4.0
 40
5.0
 40
5.0
 40
5.0
 40
6.0
 40
6.0
 40
6.0
 40
7.0
 40
7.0
 40
7.0
 40
8.0
 40
8.0
 40
8.0
 40
9.0
 40
9.0
 40
9.0
 40
10.0
 40
10.0
 40
10.0
 40
11.0
 40
11.0
 40
11.0
 40
12.0
 40
12.0
 40
12.0
 40
13.0
 40
13.0
 40
13.0
 40
14.0
 40
14.0
 40
14.0
 40
15.0
 40
15.0
 40
15.0
 40
16.0
 40
16.0
 40
16.0
 40
16.0
 10
78.04691567059244
 20
-146.106155019897
 30
0.0
 10
78.04691567059244
 20
-146.1843586874122
 30
0.0
 10
78.03003470271471
 20
-146.2859890042271
 30
0.0
 10
77.96647269101185
 20
-146.387619321042
 30
0.0
 10
77.85640189025812
 20
-146.56090762395
 30
0.0
 10
77.72531600704437
 20
-146.5822672159586
 30
0.0
 10
77.61748451835605
 20
-146.6012152411274
 30
0.0
 10
77.61748451835605
 20
-146.6012152411274
 30
0.0
 10
77.61748451835605
 20
-146.3790065823288
 30
0.0
 10
77.61748451835605
 20
-146.3790065823288
 30
0.0
 10
77.81626652785496
 20
-146.3242295641133
 30
0.0
 10
77.84589434902811
 20
-146.1971055407076
 30
0.0
 10
77.84589434902811
 20
-146.1040879626059
 30
0.0
 10
77.84589434902811
 20
-145.9645615954533
 30
0.0
 10
77.74650334427865
 20
-145.8122883750052
 30
0.0
 10
77.51378714425003
 20
-145.8122883750052
 30
0.0
 10
77.25781654969596
 20
-145.8122883750052
 30
0.0
 10
77.18805336611966
 20
-145.9921223593353
 30
0.0
 10
77.18805336611966
 20
-146.112700701319
 30
0.0
 10
77.18805336611966
 20
-146.1443955797833
 30
0.0
 10
77.18805336611966
 20
-146.2859890042271
 30
0.0
 10
77.31707219204226
 20
-146.3748724677465
 30
0.0
 10
77.31707219204226
 20
-146.3748724677465
 30
0.0
 10
77.29795191209912
 20
-146.5505723374943
 30
0.0
 10
77.29795191209912
 20
-146.5505723374943
 30
0.0
 10
77.29795191209912
 20
-146.5505723374943
 30
0.0
 10
76.45183646092177
 20
-146.4299939955105
 30
0.0
 10
76.45183646092177
 20
-146.4299939955105
 30
0.0
 10
76.45183646092177
 20
-146.4299939955105
 30
0.0
 10
76.45183646092177
 20
-145.6514024158441
 30
0.0
 10
76.45183646092177
 20
-145.6514024158441
 30
0.0
 10
76.45183646092177
 20
-145.6514024158441
 30
0.0
 10
76.64648435583838
 20
-145.6514024158441
 30
0.0
 10
76.64648435583838
 20
-145.6514024158441
 30
0.0
 10
76.64648435583838
 20
-145.6514024158441
 30
0.0
 10
76.64648435583838
 20
-146.2670409790582
 30
0.0
 10
76.64648435583838
 20
-146.2670409790582
 30
0.0
 10
76.64648435583838
 20
-146.2670409790582
 30
0.0
 10
77.06954208142706
 20
-146.332497793278
 30
0.0
 10
77.06954208142706
 20
-146.332497793278
 30
0.0
 10
77.03560789089735
 20
-146.2711750936405
 30
0.0
 10
76.99547252849419
 20
-146.188837311543
 30
0.0
 10
76.99547252849419
 20
-146.0703260268505
 30
0.0
 10
76.99547252849419
 20
-145.8164224895876
 30
0.0
 10
77.18167993947194
 20
-145.5793999202024
 30
0.0
 10
77.4946668643069
 20
-145.5793999202024
 30
0.0
 10
77.81213241327266
 20
-145.5793999202024
 30
0.0
 10
78.04691567059244
 20
-145.8036756362921
 30
0.0
 10
78.04691567059244
 20
-146.106155019897
 30
0.0
  0
HATCH
  5
F9
330
EF
100
AcDbEntity
  8
レイヤー 1
 62
    18
420
        0
440
 33554687
100
AcDbHatch
 10
0.0
 20
0.0
 30
0.0
210
0.0
220
0.0
230
1.0
  2
SOLID
 70
     1
 71
     1
 91
        1
 92
        1
 93
        1
 72
     4
 94
        3
 73
     0
 74
     0
 95
       53
 96
       49
 40
0.0
 40
0.0
 40
0.0
 40
0.0
 40
1.0
 40
1.0
 40
1.0
 40
2.0
 40
2.0
 40
2.0
 40
3.0
 40
3.0
 40
3.0
 40
4.0
 40
4.0
 40
4.0
 40
5.0
 40
5.0
 40
5.0
 40
6.0
 40
6.0
 40
6.0
 40
7.0
 40
7.0
 40
7.0
 40
8.0
 40
8.0
 40
8.0
 40
9.0
 40
9.0
 40
9.0
 40
10.0
 40
10.0
 40
10.0
 40
11.0
 40
11.0
 40
11.0
 40
12.0
 40
12.0
 40
12.0
 40
13.0
 40
13.0
 40
13.0
 40
14.0
 40
14.0
 40
14.0
 40
15.0
 40
15.0
 40
15.0
 40
16.0
 40
16.0
 40
16.0
 40
16.0
 10
78.04691567059244
 20
-146.106155019897
 10
78.04691567059244
 20
-146.1843586874122
 10
78.03003470271471
 20
-146.2859890042271
 10
77.96647269101185
 20
-146.387619321042
 10
77.85640189025812
 20
-146.56090762395
 10
77.72531600704437
 20
-146.5822672159586
 10
77.61748451835605
 20
-146.6012152411274
 10
77.61748451835605
 20
-146.6012152411274
 10
77.61748451835605
 20
-146.3790065823288
 10
77.61748451835605
 20
-146.3790065823288
 10
77.81626652785496
 20
-146.3242295641133
 10
77.84589434902811
 20
-146.1971055407076
 10
77.84589434902811
 20
-146.1040879626059
 10
77.84589434902811
 20
-145.9645615954533
 10
77.74650334427865
 20
-145.8122883750052
 10
77.51378714425003
 20
-145.8122883750052
 10
77.25781654969596
 20
-145.8122883750052
 10
77.18805336611966
 20
-145.9921223593353
 10
77.18805336611966
 20
-146.112700701319
 10
77.18805336611966
 20
-146.1443955797833
 10
77.18805336611966
 20
-146.2859890042271
 10
77.31707219204226
 20
-146.3748724677465
 10
77.31707219204226
 20
-146.3748724677465
 10
77.29795191209912
 20
-146.5505723374943
 10
77.29795191209912
 20
-146.5505723374943
 10
77.29795191209912
 20
-146.5505723374943
 10
76.45183646092177
 20
-146.4299939955105
 10
76.45183646092177
 20
-146.4299939955105
 10
76.45183646092177
 20
-146.4299939955105
 10
76.45183646092177
 20
-145.6514024158441
 10
76.45183646092177
 20
-145.6514024158441
 10
76.45183646092177
 20
-145.6514024158441
 10
76.64648435583838
 20
-145.6514024158441
 10
76.64648435583838
 20
-145.6514024158441
 10
76.64648435583838
 20
-145.6514024158441
 10
76.64648435583838
 20
-146.2670409790582
 10
76.64648435583838
 20
-146.2670409790582
 10
76.64648435583838
 20
-146.2670409790582
 10
77.06954208142706
 20
-146.332497793278
 10
77.06954208142706
 20
-146.332497793278
 10
77.03560789089735
 20
-146.2711750936405
 10
76.99547252849419
 20
-146.188837311543
 10
76.99547252849419
 20
-146.0703260268505
 10
76.99547252849419
 20
-145.8164224895876
 10
77.18167993947194
 20
-145.5793999202024
 10
77.4946668643069
 20
-145.5793999202024
 10
77.81213241327266
 20
-145.5793999202024
 10
78.04691567059244
 20
-145.8036756362921
 10
78.04691567059244
 20
-146.106155019897
 97
        0
 97
        1
330
F8
 75
     2
 76
     1
 98
        1
 10
0.0
 20
0.0
450
        0
451
        0
460
0.0
461
0.0
452
        0
462
0.0
453
        0
470

  0
ENDBLK
  5
F2
330
EF
100
AcDbEntity
  8
0
100
AcDbBlockEnd
  0
BLOCK
  5
FE
330
FC
100
AcDbEntity
  8
0
100
AcDbBlockBegin
  2
Block_3
 70
     0
 10
0.0
 20
0.0
 30
0.0
  3
Block_3
  1

  0
INSERT
  5
101
330
FC
100
AcDbEntity
  8
レイヤー 1
100
AcDbBlockReference
  2
Block_4
 10
0.0
 20
0.0
 30
0.0
  0
ENDBLK
  5
FF
330
FC
100
AcDbEntity
  8
0
100
AcDbBlockEnd
  0
BLOCK
  5
102
330
100
100
AcDbEntity
  8
0
100
AcDbBlockBegin
  2
Block_4
 70
     0
 10
0.0
 20
0.0
 30
0.0
  3
Block_4
  1

  0
SPLINE
  5
104
330
100
100
AcDbEntity
  8
レイヤー 1
100
AcDbSpline
210
0.0
220
0.0
230
1.0
 70
     9
 71
     3
 72
    44
 73
    40
 74
     0
 42
0.0000000001
 43
0.0000000001
 40
0.0
 40
0.0
 40
0.0
 40
0.0
 40
1.0
 40
1.0
 40
1.0
 40
2.0
 40
2.0
 40
2.0
 40
3.0
 40
3.0
 40
3.0
 40
4.0
 40
4.0
 40
4.0
 40
5.0
 40
5.0
 40
5.0
 40
6.0
 40
6.0
 40
6.0
 40
7.0
 40
7.0
 40
7.0
 40
8.0
 40
8.0
 40
8.0
 40
9.0
 40
9.0
 40
9.0
 40
10.0
 40
10.0
 40
10.0
 40
11.0
 40
11.0
 40
11.0
 40
12.0
 40
12.0
 40
12.0
 40
13.0
 40
13.0
 40
13.0
 40
13.0
 10
93.36932235078961
 20
-140.5998589058222
 30
0.0
 10
93.15142006134756
 20
-140.758505552918
 30
0.0
 10
93.05823022847155
 20
-140.8325751058509
 30
0.0
 10
93.00965438212953
 20
-140.97640784236
 30
0.0
 10
93.00965438212953
 20
-140.97640784236
 30
0.0
 10
93.78807370702174
 20
-140.97640784236
 30
0.0
 10
93.78807370702174
 20
-140.97640784236
 30
0.0
 10
93.78807370702174
 20
-140.97640784236
 30
0.0
 10
93.78807370702174
 20
-141.1815632785067
 30
0.0
 10
93.78807370702174
 20
-141.1815632785067
 30
0.0
 10
93.78807370702174
 20
-141.1815632785067
 30
0.0
 10
92.76005721422318
 20
-141.1815632785067
 30
0.0
 10
92.76005721422318
 20
-141.1815632785067
 30
0.0
 10
92.79175209268748
 20
-140.8239623671377
 30
0.0
 10
92.85720890690724
 20
-140.7457586996226
 30
0.0
 10
93.24237058215816
 20
-140.4474134305999
 30
0.0
 10
93.49834117671223
 20
-140.248631421101
 30
0.0
 10
93.56379799093197
 20
-140.1809352948159
 30
0.0
 10
93.56379799093197
 20
-140.0434759849544
 30
0.0
 10
93.56379799093197
 20
-139.9249647002618
 30
0.0
 10
93.49196775006452
 20
-139.7937065622738
 30
0.0
 10
93.29525279785675
 20
-139.7937065622738
 30
0.0
 10
93.03497583394612
 20
-139.7937065622738
 30
0.0
 10
93.02653535000727
 20
-140.0243557050113
 30
0.0
 10
93.02222898065069
 20
-140.1407999324127
 30
0.0
 10
93.02222898065069
 20
-140.1407999324127
 30
0.0
 10
92.7981255193352
 20
-140.1407999324127
 30
0.0
 10
92.7981255193352
 20
-140.1407999324127
 30
0.0
 10
92.80656600327406
 20
-140.0138481637812
 30
0.0
 10
92.81707354450407
 20
-139.9017103057363
 30
0.0
 10
92.89751652408465
 20
-139.7831990210438
 30
0.0
 10
93.00741507006412
 20
-139.6224853166569
 30
0.0
 10
93.19362248104187
 20
-139.5885511261272
 30
0.0
 10
93.31006670844331
 20
-139.5885511261272
 30
0.0
 10
93.58722464023166
 20
-139.5885511261272
 30
0.0
 10
93.79444713366945
 20
-139.7726914798137
 30
0.0
 10
93.79444713366945
 20
-140.0455430422455
 30
0.0
 10
93.79444713366945
 20
-140.2739528729176
 30
0.0
 10
93.67817516104226
 20
-140.3735161324413
 30
0.0
 10
93.36932235078961
 20
-140.5998589058222
 30
0.0
  0
HATCH
  5
105
330
100
100
AcDbEntity
  8
レイヤー 1
 62
    18
420
        0
440
 33554687
100
AcDbHatch
 10
0.0
 20
0.0
 30
0.0
210
0.0
220
0.0
230
1.0
  2
SOLID
 70
     1
 71
     1
 91
        1
 92
        1
 93
        1
 72
     4
 94
        3
 73
     0
 74
     0
 95
       44
 96
       40
 40
0.0
 40
0.0
 40
0.0
 40
0.0
 40
1.0
 40
1.0
 40
1.0
 40
2.0
 40
2.0
 40
2.0
 40
3.0
 40
3.0
 40
3.0
 40
4.0
 40
4.0
 40
4.0
 40
5.0
 40
5.0
 40
5.0
 40
6.0
 40
6.0
 40
6.0
 40
7.0
 40
7.0
 40
7.0
 40
8.0
 40
8.0
 40
8.0
 40
9.0
 40
9.0
 40
9.0
 40
10.0
 40
10.0
 40
10.0
 40
11.0
 40
11.0
 40
11.0
 40
12.0
 40
12.0
 40
12.0
 40
13.0
 40
13.0
 40
13.0
 40
13.0
 10
93.36932235078961
 20
-140.5998589058222
 10
93.15142006134756
 20
-140.758505552918
 10
93.05823022847155
 20
-140.8325751058509
 10
93.00965438212953
 20
-140.97640784236
 10
93.00965438212953
 20
-140.97640784236
 10
93.78807370702174
 20
-140.97640784236
 10
93.78807370702174
 20
-140.97640784236
 10
93.78807370702174
 20
-140.97640784236
 10
93.78807370702174
 20
-141.1815632785067
 10
93.78807370702174
 20
-141.1815632785067
 10
93.78807370702174
 20
-141.1815632785067
 10
92.76005721422318
 20
-141.1815632785067
 10
92.76005721422318
 20
-141.1815632785067
 10
92.79175209268748
 20
-140.8239623671377
 10
92.85720890690724
 20
-140.7457586996226
 10
93.24237058215816
 20
-140.4474134305999
 10
93.49834117671223
 20
-140.248631421101
 10
93.56379799093197
 20
-140.1809352948159
 10
93.56379799093197
 20
-140.0434759849544
 10
93.56379799093197
 20
-139.9249647002618
 10
93.49196775006452
 20
-139.7937065622738
 10
93.29525279785675
 20
-139.7937065622738
 10
93.03497583394612
 20
-139.7937065622738
 10
93.02653535000727
 20
-140.0243557050113
 10
93.02222898065069
 20
-140.1407999324127
 10
93.02222898065069
 20
-140.1407999324127
 10
92.7981255193352
 20
-140.1407999324127
 10
92.7981255193352
 20
-140.1407999324127
 10
92.80656600327406
 20
-140.0138481637812
 10
92.81707354450407
 20
-139.9017103057363
 10
92.89751652408465
 20
-139.7831990210438
 10
93.00741507006412
 20
-139.6224853166569
 10
93.19362248104187
 20
-139.5885511261272
 10
93.31006670844331
 20
-139.5885511261272
 10
93.58722464023166
 20
-139.5885511261272
 10
93.79444713366945
 20
-139.7726914798137
 10
93.79444713366945
 20
-140.0455430422455
 10
93.79444713366945
 20
-140.2739528729176
 10
93.67817516104226
 20
-140.3735161324413
 10
93.36932235078961
 20
-140.5998589058222
 97
        0
 97
        1
330
104
 75
     2
 76
     1
 98
        1
 10
0.0
 20
0.0
450
        0
451
        0
460
0.0
461
0.0
452
        0
462
0.0
453
        0
470

  0
SPLINE
  5
106
330
100
100
AcDbEntity
  8
レイヤー 1
100
AcDbSpline
210
0.0
220
0.0
230
1.0
 70
    11
 71
     3
 72
    26
 73
    22
 74
     0
 42
0.0000000001
 43
0.0000000001
 40
0.0
 40
0.0
 40
0.0
 40
0.0
 40
1.0
 40
1.0
 40
1.0
 40
2.0
 40
2.0
 40
2.0
 40
3.0
 40
3.0
 40
3.0
 40
4.0
 40
4.0
 40
4.0
 40
5.0
 40
5.0
 40
5.0
 40
6.0
 40
6.0
 40
6.0
 40
7.0
 40
7.0
 40
7.0
 40
7.0
 10
94.40440128933294
 20
-141.1815632785067
 30
0.0
 10
94.40440128933294
 20
-141.1815632785067
 30
0.0
 10
94.40440128933294
 20
-140.0772379207098
 30
0.0
 10
94.40440128933294
 20
-140.0772379207098
 30
0.0
 10
94.40440128933294
 20
-140.0772379207098
 30
0.0
 10
94.074361141846
 20
-140.0772379207098
 30
0.0
 10
94.074361141846
 20
-140.0772379207098
 30
0.0
 10
94.074361141846
 20
-140.0772379207098
 30
0.0
 10
94.074361141846
 20
-139.9290988148441
 30
0.0
 10
94.074361141846
 20
-139.9290988148441
 30
0.0
 10
94.40646834662407
 20
-139.9144571590318
 30
0.0
 10
94.45297713567496
 20
-139.7515041425795
 30
0.0
 10
94.48260495684811
 20
-139.6372992272434
 30
0.0
 10
94.48260495684811
 20
-139.6372992272434
 30
0.0
 10
94.6286770054227
 20
-139.6372992272434
 30
0.0
 10
94.6286770054227
 20
-139.6372992272434
 30
0.0
 10
94.6286770054227
 20
-139.6372992272434
 30
0.0
 10
94.6286770054227
 20
-141.1815632785067
 30
0.0
 10
94.6286770054227
 20
-141.1815632785067
 30
0.0
 10
94.6286770054227
 20
-141.1815632785067
 30
0.0
 10
94.40440128933294
 20
-141.1815632785067
 30
0.0
 10
94.40440128933294
 20
-141.1815632785067
 30
0.0
  0
HATCH
  5
107
330
100
100
AcDbEntity
  8
レイヤー 1
 62
    18
420
        0
440
 33554687
100
AcDbHatch
 10
0.0
 20
0.0
 30
0.0
210
0.0
220
0.0
230
1.0
  2
SOLID
 70
     1
 71
     1
 91
        1
 92
        1
 93
        1
 72
     4
 94
        3
 73
     0
 74
     0
 95
       26
 96
       22
 40
0.0
 40
0.0
 40
0.0
 40
0.0
 40
1.0
 40
1.0
 40
1.0
 40
2.0
 40
2.0
 40
2.0
 40
3.0
 40
3.0
 40
3.0
 40
4.0
 40
4.0
 40
4.0
 40
5.0
 40
5.0
 40
5.0
 40
6.0
 40
6.0
 40
6.0
 40
7.0
 40
7.0
 40
7.0
 40
7.0
 10
94.40440128933294
 20
-141.1815632785067
 10
94.40440128933294
 20
-141.1815632785067
 10
94.40440128933294
 20
-140.0772379207098
 10
94.40440128933294
 20
-140.0772379207098
 10
94.40440128933294
 20
-140.0772379207098
 10
94.074361141846
 20
-140.0772379207098
 10
94.074361141846
 20
-140.0772379207098
 10
94.074361141846
 20
-140.0772379207098
 10
94.074361141846
 20
-139.9290988148441
 10
94.074361141846
 20
-139.9290988148441
 10
94.40646834662407
 20
-139.9144571590318
 10
94.45297713567496
 20
-139.7515041425795
 10
94.48260495684811
 20
-139.6372992272434
 10
94.48260495684811
 20
-139.6372992272434
 10
94.6286770054227
 20
-139.6372992272434
 10
94.6286770054227
 20
-139.6372992272434
 10
94.6286770054227
 20
-139.6372992272434
 10
94.6286770054227
 20
-141.1815632785067
 10
94.6286770054227
 20
-141.1815632785067
 10
94.6286770054227
 20
-141.1815632785067
 10
94.40440128933294
 20
-141.1815632785067
 10
94.40440128933294
 20
-141.1815632785067
 97
        0
 97
        1
330
106
 75
     2
 76
     1
 98
        1
 10
0.0
 20
0.0
450
        0
451
        0
460
0.0
461
0.0
452
        0
462
0.0
453
        0
470

  0
ENDBLK
  5
103
330
100
100
AcDbEntity
  8
0
100
AcDbBlockEnd
  0
BLOCK
  5
10C
330
10A
100
AcDbEntity
  8
0
100
AcDbBlockBegin
  2
Block_5
 70
     0
 10
0.0
 20
0.0
 30
0.0
  3
Block_5
  1

  0
SPLINE
  5
10E
330
10A
100
AcDbEntity
  8
レイヤー 1
100
AcDbSpline
210
0.0
220
0.0
230
1.0
 70
     9
 71
     3
 72
    17
 73
    13
 74
     0
 42
0.0000000001
 43
0.0000000001
 40
0.0
 40
0.0
 40
0.0
 40
0.0
 40
1.0
 40
1.0
 40
1.0
 40
2.0
 40
2.0
 40
2.0
 40
3.0
 40
3.0
 40
3.0
 40
4.0
 40
4.0
 40
4.0
 40
4.0
 10
77.91841360899262
 20
-150.1338161517026
 30
0.0
 10
77.91841360899262
 20
-150.3963324276787
 30
0.0
 10
78.12994247178696
 20
-150.4342284780164
 30
0.0
 10
78.24621444441415
 20
-150.4342284780164
 30
0.0
 10
78.42174205938762
 20
-150.4342284780164
 30
0.0
 10
78.58469507583994
 20
-150.3391438426235
 30
0.0
 10
78.58469507583994
 20
-150.1551757437112
 30
0.0
 10
78.58469507583994
 20
-150.0345974017274
 30
0.0
 10
78.52543943349364
 20
-149.8588975319797
 30
0.0
 10
78.23984101776644
 20
-149.8588975319797
 30
0.0
 10
78.01556530167667
 20
-149.8588975319797
 30
0.0
 10
77.91841360899262
 20
-149.9987684086808
 30
0.0
 10
77.91841360899262
 20
-150.1338161517026
 30
0.0
  0
SPLINE
  5
10F
330
10A
100
AcDbEntity
  8
レイヤー 1
100
AcDbSpline
210
0.0
220
0.0
230
1.0
 70
     9
 71
     3
 72
    32
 73
    28
 74
     0
 42
0.0000000001
 43
0.0000000001
 40
0.0
 40
0.0
 40
0.0
 40
0.0
 40
1.0
 40
1.0
 40
1.0
 40
2.0
 40
2.0
 40
2.0
 40
3.0
 40
3.0
 40
3.0
 40
4.0
 40
4.0
 40
4.0
 40
5.0
 40
5.0
 40
5.0
 40
6.0
 40
6.0
 40
6.0
 40
7.0
 40
7.0
 40
7.0
 40
8.0
 40
8.0
 40
8.0
 40
9.0
 40
9.0
 40
9.0
 40
9.0
 10
78.7772759134654
 20
-150.1510416291289
 30
0.0
 10
78.7772759134654
 20
-150.6671169328193
 30
0.0
 10
78.22296004988871
 20
-150.6753851619839
 30
0.0
 10
78.00936412980322
 20
-150.6753851619839
 30
0.0
 10
77.77871498706574
 20
-150.6753851619839
 30
0.0
 10
77.1313815453873
 20
-150.656437136815
 30
0.0
 10
77.1313815453873
 20
-150.1128010692426
 30
0.0
 10
77.1313815453873
 20
-149.9395127663345
 30
0.0
 10
77.20114472896361
 20
-149.6938774582362
 30
0.0
 10
77.5332519337417
 20
-149.6559814078985
 30
0.0
 10
77.5332519337417
 20
-149.6559814078985
 30
0.0
 10
77.5332519337417
 20
-149.869577327984
 30
0.0
 10
77.5332519337417
 20
-149.869577327984
 30
0.0
 10
77.47623560346081
 20
-149.8802571239883
 30
0.0
 10
77.32809649759507
 20
-149.9119520024525
 30
0.0
 10
77.32809649759507
 20
-150.1148681265338
 30
0.0
 10
77.32809649759507
 20
-150.407012223683
 30
0.0
 10
77.65606958779085
 20
-150.4469753313119
 30
0.0
 10
77.86122502393748
 20
-150.4597221846073
 30
0.0
 10
77.78302135642231
 20
-150.3667046065055
 30
0.0
 10
77.72376571407601
 20
-150.2988362254461
 30
0.0
 10
77.72376571407601
 20
-150.1169351838249
 30
0.0
 10
77.72376571407601
 20
-149.9371011994949
 30
0.0
 10
77.83159720276433
 20
-149.6346218158899
 30
0.0
 10
78.23777396047528
 20
-149.6346218158899
 30
0.0
 10
78.55713431195794
 20
-149.6346218158899
 30
0.0
 10
78.7772759134654
 20
-149.8337483349374
 30
0.0
 10
78.7772759134654
 20
-150.1510416291289
 30
0.0
  0
HATCH
  5
110
330
10A
100
AcDbEntity
  8
レイヤー 1
 62
    18
420
        0
440
 33554687
100
AcDbHatch
 10
0.0
 20
0.0
 30
0.0
210
0.0
220
0.0
230
1.0
  2
SOLID
 70
     1
 71
     1
 91
        2
 92
        1
 93
        1
 72
     4
 94
        3
 73
     0
 74
     0
 95
       17
 96
       13
 40
0.0
 40
0.0
 40
0.0
 40
0.0
 40
1.0
 40
1.0
 40
1.0
 40
2.0
 40
2.0
 40
2.0
 40
3.0
 40
3.0
 40
3.0
 40
4.0
 40
4.0
 40
4.0
 40
4.0
 10
77.91841360899262
 20
-150.1338161517026
 10
77.91841360899262
 20
-150.3963324276787
 10
78.12994247178696
 20
-150.4342284780164
 10
78.24621444441415
 20
-150.4342284780164
 10
78.42174205938762
 20
-150.4342284780164
 10
78.58469507583994
 20
-150.3391438426235
 10
78.58469507583994
 20
-150.1551757437112
 10
78.58469507583994
 20
-150.0345974017274
 10
78.52543943349364
 20
-149.8588975319797
 10
78.23984101776644
 20
-149.8588975319797
 10
78.01556530167667
 20
-149.8588975319797
 10
77.91841360899262
 20
-149.9987684086808
 10
77.91841360899262
 20
-150.1338161517026
 97
        0
 97
        1
330
10E
 92
        1
 93
        1
 72
     4
 94
        3
 73
     0
 74
     0
 95
       32
 96
       28
 40
0.0
 40
0.0
 40
0.0
 40
0.0
 40
1.0
 40
1.0
 40
1.0
 40
2.0
 40
2.0
 40
2.0
 40
3.0
 40
3.0
 40
3.0
 40
4.0
 40
4.0
 40
4.0
 40
5.0
 40
5.0
 40
5.0
 40
6.0
 40
6.0
 40
6.0
 40
7.0
 40
7.0
 40
7.0
 40
8.0
 40
8.0
 40
8.0
 40
9.0
 40
9.0
 40
9.0
 40
9.0
 10
78.7772759134654
 20
-150.1510416291289
 10
78.7772759134654
 20
-150.6671169328193
 10
78.22296004988871
 20
-150.6753851619839
 10
78.00936412980322
 20
-150.6753851619839
 10
77.77871498706574
 20
-150.6753851619839
 10
77.1313815453873
 20
-150.656437136815
 10
77.1313815453873
 20
-150.1128010692426
 10
77.1313815453873
 20
-149.9395127663345
 10
77.20114472896361
 20
-149.6938774582362
 10
77.5332519337417
 20
-149.6559814078985
 10
77.5332519337417
 20
-149.6559814078985
 10
77.5332519337417
 20
-149.869577327984
 10
77.5332519337417
 20
-149.869577327984
 10
77.47623560346081
 20
-149.8802571239883
 10
77.32809649759507
 20
-149.9119520024525
 10
77.32809649759507
 20
-150.1148681265338
 10
77.32809649759507
 20
-150.407012223683
 10
77.65606958779085
 20
-150.4469753313119
 10
77.86122502393748
 20
-150.4597221846073
 10
77.78302135642231
 20
-150.3667046065055
 10
77.72376571407601
 20
-150.2988362254461
 10
77.72376571407601
 20
-150.1169351838249
 10
77.72376571407601
 20
-149.9371011994949
 10
77.83159720276433
 20
-149.6346218158899
 10
78.23777396047528
 20
-149.6346218158899
 10
78.55713431195794
 20
-149.6346218158899
 10
78.7772759134654
 20
-149.8337483349374
 10
78.7772759134654
 20
-150.1510416291289
 97
        0
 97
        1
330
10F
 75
     2
 76
     1
 98
        1
 10
0.0
 20
0.0
450
        0
451
        0
460
0.0
461
0.0
452
        0
462
0.0
453
        0
470

  0
ENDBLK
  5
10D
330
10A
100
AcDbEntity
  8
0
100
AcDbBlockEnd
  0
BLOCK
  5
115
330
113
100
AcDbEntity
  8
0
100
AcDbBlockBegin
  2
Block_6
 70
     0
 10
0.0
 20
0.0
 30
0.0
  3
Block_6
  1

  0
INSERT
  5
118
330
113
100
AcDbEntity
  8
レイヤー 1
100
AcDbBlockReference
  2
Block_7
 10
0.0
 20
0.0
 30
0.0
  0
ENDBLK
  5
116
330
113
100
AcDbEntity
  8
0
100
AcDbBlockEnd
  0
BLOCK
  5
119
330
117
100
AcDbEntity
  8
0
100
AcDbBlockBegin
  2
Block_7
 70
     0
 10
0.0
 20
0.0
 30
0.0
  3
Block_7
  1

  0
SPLINE
  5
11B
330
117
100
AcDbEntity
  8
レイヤー 1
100
AcDbSpline
210
0.0
220
0.0
230
1.0
 70
     9
 71
     3
 72
    44
 73
    40
 74
     0
 42
0.0000000001
 43
0.0000000001
 40
0.0
 40
0.0
 40
0.0
 40
0.0
 40
1.0
 40
1.0
 40
1.0
 40
2.0
 40
2.0
 40
2.0
 40
3.0
 40
3.0
 40
3.0
 40
4.0
 40
4.0
 40
4.0
 40
5.0
 40
5.0
 40
5.0
 40
6.0
 40
6.0
 40
6.0
 40
7.0
 40
7.0
 40
7.0
 40
8.0
 40
8.0
 40
8.0
 40
9.0
 40
9.0
 40
9.0
 40
10.0
 40
10.0
 40
10.0
 40
11.0
 40
11.0
 40
11.0
 40
12.0
 40
12.0
 40
12.0
 40
13.0
 40
13.0
 40
13.0
 40
13.0
 10
117.4705213465004
 20
-140.5998589058222
 30
0.0
 10
117.2527913118326
 20
-140.758505552918
 30
0.0
 10
117.1597737337309
 20
-140.8325751058509
 30
0.0
 10
117.1108533778403
 20
-140.97640784236
 30
0.0
 10
117.1108533778403
 20
-140.97640784236
 30
0.0
 10
117.8894449575068
 20
-140.97640784236
 30
0.0
 10
117.8894449575068
 20
-140.97640784236
 30
0.0
 10
117.8894449575068
 20
-140.97640784236
 30
0.0
 10
117.8894449575068
 20
-141.1815632785067
 30
0.0
 10
117.8894449575068
 20
-141.1815632785067
 30
0.0
 10
117.8894449575068
 20
-141.1815632785067
 30
0.0
 10
116.8614284647082
 20
-141.1815632785067
 30
0.0
 10
116.8614284647082
 20
-141.1815632785067
 30
0.0
 10
116.8931233431725
 20
-140.8239623671377
 30
0.0
 10
116.9585801573923
 20
-140.7457586996226
 30
0.0
 10
117.3437418326432
 20
-140.4474134305999
 30
0.0
 10
117.5997124271973
 20
-140.248631421101
 30
0.0
 10
117.665169241417
 20
-140.1809352948159
 30
0.0
 10
117.665169241417
 20
-140.0434759849544
 30
0.0
 10
117.665169241417
 20
-139.9249647002618
 30
0.0
 10
117.5931667457753
 20
-139.7937065622738
 30
0.0
 10
117.3964517935675
 20
-139.7937065622738
 30
0.0
 10
117.1363470844312
 20
-139.7937065622738
 30
0.0
 10
117.1280788552666
 20
-140.0243557050113
 30
0.0
 10
117.1236002311357
 20
-140.1407999324127
 30
0.0
 10
117.1236002311357
 20
-140.1407999324127
 30
0.0
 10
116.899324515046
 20
-140.1407999324127
 30
0.0
 10
116.899324515046
 20
-140.1407999324127
 30
0.0
 10
116.9079372537591
 20
-140.0138481637812
 30
0.0
 10
116.9186170497634
 20
-139.9017103057363
 30
0.0
 10
116.9988877745697
 20
-139.7831990210438
 30
0.0
 10
117.1087863205492
 20
-139.6224853166569
 30
0.0
 10
117.2951659863012
 20
-139.5885511261272
 30
0.0
 10
117.4112657041541
 20
-139.5885511261272
 30
0.0
 10
117.6885958907167
 20
-139.5885511261272
 30
0.0
 10
117.8959906389287
 20
-139.7726914798137
 30
0.0
 10
117.8959906389287
 20
-140.0455430422455
 30
0.0
 10
117.8959906389287
 20
-140.2739528729176
 30
0.0
 10
117.7795464115273
 20
-140.3735161324413
 30
0.0
 10
117.4705213465004
 20
-140.5998589058222
 30
0.0
  0
HATCH
  5
11C
330
117
100
AcDbEntity
  8
レイヤー 1
 62
    18
420
        0
440
 33554687
100
AcDbHatch
 10
0.0
 20
0.0
 30
0.0
210
0.0
220
0.0
230
1.0
  2
SOLID
 70
     1
 71
     1
 91
        1
 92
        1
 93
        1
 72
     4
 94
        3
 73
     0
 74
     0
 95
       44
 96
       40
 40
0.0
 40
0.0
 40
0.0
 40
0.0
 40
1.0
 40
1.0
 40
1.0
 40
2.0
 40
2.0
 40
2.0
 40
3.0
 40
3.0
 40
3.0
 40
4.0
 40
4.0
 40
4.0
 40
5.0
 40
5.0
 40
5.0
 40
6.0
 40
6.0
 40
6.0
 40
7.0
 40
7.0
 40
7.0
 40
8.0
 40
8.0
 40
8.0
 40
9.0
 40
9.0
 40
9.0
 40
10.0
 40
10.0
 40
10.0
 40
11.0
 40
11.0
 40
11.0
 40
12.0
 40
12.0
 40
12.0
 40
13.0
 40
13.0
 40
13.0
 40
13.0
 10
117.4705213465004
 20
-140.5998589058222
 10
117.2527913118326
 20
-140.758505552918
 10
117.1597737337309
 20
-140.8325751058509
 10
117.1108533778403
 20
-140.97640784236
 10
117.1108533778403
 20
-140.97640784236
 10
117.8894449575068
 20
-140.97640784236
 10
117.8894449575068
 20
-140.97640784236
 10
117.8894449575068
 20
-140.97640784236
 10
117.8894449575068
 20
-141.1815632785067
 10
117.8894449575068
 20
-141.1815632785067
 10
117.8894449575068
 20
-141.1815632785067
 10
116.8614284647082
 20
-141.1815632785067
 10
116.8614284647082
 20
-141.1815632785067
 10
116.8931233431725
 20
-140.8239623671377
 10
116.9585801573923
 20
-140.7457586996226
 10
117.3437418326432
 20
-140.4474134305999
 10
117.5997124271973
 20
-140.248631421101
 10
117.665169241417
 20
-140.1809352948159
 10
117.665169241417
 20
-140.0434759849544
 10
117.665169241417
 20
-139.9249647002618
 10
117.5931667457753
 20
-139.7937065622738
 10
117.3964517935675
 20
-139.7937065622738
 10
117.1363470844312
 20
-139.7937065622738
 10
117.1280788552666
 20
-140.0243557050113
 10
117.1236002311357
 20
-140.1407999324127
 10
117.1236002311357
 20
-140.1407999324127
 10
116.899324515046
 20
-140.1407999324127
 10
116.899324515046
 20
-140.1407999324127
 10
116.9079372537591
 20
-140.0138481637812
 10
116.9186170497634
 20
-139.9017103057363
 10
116.9988877745697
 20
-139.7831990210438
 10
117.1087863205492
 20
-139.6224853166569
 10
117.2951659863012
 20
-139.5885511261272
 10
117.4112657041541
 20
-139.5885511261272
 10
117.6885958907167
 20
-139.5885511261272
 10
117.8959906389287
 20
-139.7726914798137
 10
117.8959906389287
 20
-140.0455430422455
 10
117.8959906389287
 20
-140.2739528729176
 10
117.7795464115273
 20
-140.3735161324413
 10
117.4705213465004
 20
-140.5998589058222
 97
        0
 97
        1
330
11B
 75
     2
 76
     1
 98
        1
 10
0.0
 20
0.0
450
        0
451
        0
460
0.0
461
0.0
452
        0
462
0.0
453
        0
470

  0
SPLINE
  5
11D
330
117
100
AcDbEntity
  8
レイヤー 1
100
AcDbSpline
210
0.0
220
0.0
230
1.0
 70
    11
 71
     3
 72
    26
 73
    22
 74
     0
 42
0.0000000001
 43
0.0000000001
 40
0.0
 40
0.0
 40
0.0
 40
0.0
 40
1.0
 40
1.0
 40
1.0
 40
2.0
 40
2.0
 40
2.0
 40
3.0
 40
3.0
 40
3.0
 40
4.0
 40
4.0
 40
4.0
 40
5.0
 40
5.0
 40
5.0
 40
6.0
 40
6.0
 40
6.0
 40
7.0
 40
7.0
 40
7.0
 40
7.0
 10
118.505772539818
 20
-141.1815632785067
 30
0.0
 10
118.505772539818
 20
-141.1815632785067
 30
0.0
 10
118.505772539818
 20
-140.0772379207098
 30
0.0
 10
118.505772539818
 20
-140.0772379207098
 30
0.0
 10
118.505772539818
 20
-140.0772379207098
 30
0.0
 10
118.1757323923311
 20
-140.0772379207098
 30
0.0
 10
118.1757323923311
 20
-140.0772379207098
 30
0.0
 10
118.1757323923311
 20
-140.0772379207098
 30
0.0
 10
118.1757323923311
 20
-139.9290988148441
 30
0.0
 10
118.1757323923311
 20
-139.9290988148441
 30
0.0
 10
118.5078395971091
 20
-139.9144571590318
 30
0.0
 10
118.55434838616
 20
-139.7515041425795
 30
0.0
 10
118.5839762073332
 20
-139.6372992272434
 30
0.0
 10
118.5839762073332
 20
-139.6372992272434
 30
0.0
 10
118.7300482559078
 20
-139.6372992272434
 30
0.0
 10
118.7300482559078
 20
-139.6372992272434
 30
0.0
 10
118.7300482559078
 20
-139.6372992272434
 30
0.0
 10
118.7300482559078
 20
-141.1815632785067
 30
0.0
 10
118.7300482559078
 20
-141.1815632785067
 30
0.0
 10
118.7300482559078
 20
-141.1815632785067
 30
0.0
 10
118.505772539818
 20
-141.1815632785067
 30
0.0
 10
118.505772539818
 20
-141.1815632785067
 30
0.0
  0
HATCH
  5
11E
330
117
100
AcDbEntity
  8
レイヤー 1
 62
    18
420
        0
440
 33554687
100
AcDbHatch
 10
0.0
 20
0.0
 30
0.0
210
0.0
220
0.0
230
1.0
  2
SOLID
 70
     1
 71
     1
 91
        1
 92
        1
 93
        1
 72
     4
 94
        3
 73
     0
 74
     0
 95
       26
 96
       22
 40
0.0
 40
0.0
 40
0.0
 40
0.0
 40
1.0
 40
1.0
 40
1.0
 40
2.0
 40
2.0
 40
2.0
 40
3.0
 40
3.0
 40
3.0
 40
4.0
 40
4.0
 40
4.0
 40
5.0
 40
5.0
 40
5.0
 40
6.0
 40
6.0
 40
6.0
 40
7.0
 40
7.0
 40
7.0
 40
7.0
 10
118.505772539818
 20
-141.1815632785067
 10
118.505772539818
 20
-141.1815632785067
 10
118.505772539818
 20
-140.0772379207098
 10
118.505772539818
 20
-140.0772379207098
 10
118.505772539818
 20
-140.0772379207098
 10
118.1757323923311
 20
-140.0772379207098
 10
118.1757323923311
 20
-140.0772379207098
 10
118.1757323923311
 20
-140.0772379207098
 10
118.1757323923311
 20
-139.9290988148441
 10
118.1757323923311
 20
-139.9290988148441
 10
118.5078395971091
 20
-139.9144571590318
 10
118.55434838616
 20
-139.7515041425795
 10
118.5839762073332
 20
-139.6372992272434
 10
118.5839762073332
 20
-139.6372992272434
 10
118.7300482559078
 20
-139.6372992272434
 10
118.7300482559078
 20
-139.6372992272434
 10
118.7300482559078
 20
-139.6372992272434
 10
118.7300482559078
 20
-141.1815632785067
 10
118.7300482559078
 20
-141.1815632785067
 10
118.7300482559078
 20
-141.1815632785067
 10
118.505772539818
 20
-141.1815632785067
 10
118.505772539818
 20
-141.1815632785067
 97
        0
 97
        1
330
11D
 75
     2
 76
     1
 98
        1
 10
0.0
 20
0.0
450
        0
451
        0
460
0.0
461
0.0
452
        0
462
0.0
453
        0
470

  0
ENDBLK
  5
11A
330
117
100
AcDbEntity
  8
0
100
AcDbBlockEnd
  0
BLOCK
  5
124
330
122
100
AcDbEntity
  8
0
100
AcDbBlockBegin
  2
Block_8
 70
     0
 10
0.0
 20
0.0
 30
0.0
  3
Block_8
  1

  0
SPLINE
  5
126
330
122
100
AcDbEntity
  8
レイヤー 1
100
AcDbSpline
210
0.0
220
0.0
230
1.0
 70
     9
 71
     3
 72
    62
 73
    58
 74
     0
 42
0.0000000001
 43
0.0000000001
 40
0.0
 40
0.0
 40
0.0
 40
0.0
 40
1.0
 40
1.0
 40
1.0
 40
2.0
 40
2.0
 40
2.0
 40
3.0
 40
3.0
 40
3.0
 40
4.0
 40
4.0
 40
4.0
 40
5.0
 40
5.0
 40
5.0
 40
6.0
 40
6.0
 40
6.0
 40
7.0
 40
7.0
 40
7.0
 40
8.0
 40
8.0
 40
8.0
 40
9.0
 40
9.0
 40
9.0
 40
10.0
 40
10.0
 40
10.0
 40
11.0
 40
11.0
 40
11.0
 40
12.0
 40
12.0
 40
12.0
 40
13.0
 40
13.0
 40
13.0
 40
14.0
 40
14.0
 40
14.0
 40
15.0
 40
15.0
 40
15.0
 40
16.0
 40
16.0
 40
16.0
 40
17.0
 40
17.0
 40
17.0
 40
18.0
 40
18.0
 40
18.0
 40
19.0
 40
19.0
 40
19.0
 40
19.0
 10
105.9325520568502
 20
-141.2323784369141
 30
0.0
 10
105.8374674214573
 20
-141.2323784369141
 30
0.0
 10
105.619392877241
 20
-141.2111910996798
 30
0.0
 10
105.4946804206749
 20
-141.0249836887021
 30
0.0
 10
105.4206108677421
 20
-140.9128458306572
 30
0.0
 10
105.4163044983855
 20
-140.8134548259077
 30
0.0
 10
105.4121703838032
 20
-140.7288777317448
 30
0.0
 10
105.4121703838032
 20
-140.7288777317448
 30
0.0
 10
105.6321397305364
 20
-140.7288777317448
 30
0.0
 10
105.6321397305364
 20
-140.7288777317448
 30
0.0
 10
105.6342067878276
 20
-140.8029472846777
 30
0.0
 10
105.6448865838318
 20
-141.0377305419975
 30
0.0
 10
105.9284179422679
 20
-141.0377305419975
 30
0.0
 10
106.0658772521293
 20
-141.0377305419975
 30
0.0
 10
106.2181504725774
 20
-140.9679673584212
 30
0.0
 10
106.2181504725774
 20
-140.7393852729749
 30
0.0
 10
106.2181504725774
 20
-140.6231133003477
 30
0.0
 10
106.1799099126911
 20
-140.5743651992314
 30
0.0
 10
106.1482150342268
 20
-140.5426703207671
 30
0.0
 10
106.0741454812939
 20
-140.4686007678342
 30
0.0
 10
105.958045763441
 20
-140.4560261693131
 30
0.0
 10
105.902924235677
 20
-140.4560261693131
 30
0.0
 10
105.8839762105082
 20
-140.4560261693131
 30
0.0
 10
105.847802707913
 20
-140.4580932266042
 30
0.0
 10
105.8205864535796
 20
-140.4622273411865
 30
0.0
 10
105.8205864535796
 20
-140.4622273411865
 30
0.0
 10
105.8205864535796
 20
-140.2677517010442
 30
0.0
 10
105.8205864535796
 20
-140.2677517010442
 30
0.0
 10
105.8584825039173
 20
-140.2739528729176
 30
0.0
 10
105.9008571783859
 20
-140.276192184983
 30
0.0
 10
105.9070583502593
 20
-140.276192184983
 30
0.0
 10
105.9728596740276
 20
-140.276192184983
 30
0.0
 10
106.1716416835265
 20
-140.2550048477487
 30
0.0
 10
106.1716416835265
 20
-140.0179822783635
 30
0.0
 10
106.1716416835265
 20
-139.8403876060989
 30
0.0
 10
106.0403835455385
 20
-139.7852660783349
 30
0.0
 10
105.930484999559
 20
-139.7852660783349
 30
0.0
 10
105.6659016662918
 20
-139.7852660783349
 30
0.0
 10
105.6576334371272
 20
-140.0179822783635
 30
0.0
 10
105.6531548129964
 20
-140.0899847740053
 30
0.0
 10
105.6531548129964
 20
-140.0899847740053
 30
0.0
 10
105.4502386889152
 20
-140.0899847740053
 30
0.0
 10
105.4502386889152
 20
-140.0899847740053
 30
0.0
 10
105.4586791728541
 20
-139.965100062665
 30
0.0
 10
105.4860676819618
 20
-139.5885511261272
 30
0.0
 10
105.9432318528545
 20
-139.5885511261272
 30
0.0
 10
106.1675075689442
 20
-139.5885511261272
 30
0.0
 10
106.4086642529117
 20
-139.7155028947586
 30
0.0
 10
106.4086642529117
 20
-140.0116088517158
 30
0.0
 10
106.4086642529117
 20
-140.1978162626936
 30
0.0
 10
106.3132351079703
 20
-140.2803262995653
 30
0.0
 10
106.2140163579951
 20
-140.3416489992028
 30
0.0
 10
106.2753390576325
 20
-140.3692097630848
 30
0.0
 10
106.4572400992537
 20
-140.4496527426653
 30
0.0
 10
106.4572400992537
 20
-140.7268106744537
 30
0.0
 10
106.4572400992537
 20
-141.0652913058795
 30
0.0
 10
106.2095377338643
 20
-141.2323784369141
 30
0.0
 10
105.9325520568502
 20
-141.2323784369141
 30
0.0
  0
HATCH
  5
127
330
122
100
AcDbEntity
  8
レイヤー 1
 62
    18
420
        0
440
 33554687
100
AcDbHatch
 10
0.0
 20
0.0
 30
0.0
210
0.0
220
0.0
230
1.0
  2
SOLID
 70
     1
 71
     1
 91
        1
 92
        1
 93
        1
 72
     4
 94
        3
 73
     0
 74
     0
 95
       62
 96
       58
 40
0.0
 40
0.0
 40
0.0
 40
0.0
 40
1.0
 40
1.0
 40
1.0
 40
2.0
 40
2.0
 40
2.0
 40
3.0
 40
3.0
 40
3.0
 40
4.0
 40
4.0
 40
4.0
 40
5.0
 40
5.0
 40
5.0
 40
6.0
 40
6.0
 40
6.0
 40
7.0
 40
7.0
 40
7.0
 40
8.0
 40
8.0
 40
8.0
 40
9.0
 40
9.0
 40
9.0
 40
10.0
 40
10.0
 40
10.0
 40
11.0
 40
11.0
 40
11.0
 40
12.0
 40
12.0
 40
12.0
 40
13.0
 40
13.0
 40
13.0
 40
14.0
 40
14.0
 40
14.0
 40
15.0
 40
15.0
 40
15.0
 40
16.0
 40
16.0
 40
16.0
 40
17.0
 40
17.0
 40
17.0
 40
18.0
 40
18.0
 40
18.0
 40
19.0
 40
19.0
 40
19.0
 40
19.0
 10
105.9325520568502
 20
-141.2323784369141
 10
105.8374674214573
 20
-141.2323784369141
 10
105.619392877241
 20
-141.2111910996798
 10
105.4946804206749
 20
-141.0249836887021
 10
105.4206108677421
 20
-140.9128458306572
 10
105.4163044983855
 20
-140.8134548259077
 10
105.4121703838032
 20
-140.7288777317448
 10
105.4121703838032
 20
-140.7288777317448
 10
105.6321397305364
 20
-140.7288777317448
 10
105.6321397305364
 20
-140.7288777317448
 10
105.6342067878276
 20
-140.8029472846777
 10
105.6448865838318
 20
-141.0377305419975
 10
105.9284179422679
 20
-141.0377305419975
 10
106.0658772521293
 20
-141.0377305419975
 10
106.2181504725774
 20
-140.9679673584212
 10
106.2181504725774
 20
-140.7393852729749
 10
106.2181504725774
 20
-140.6231133003477
 10
106.1799099126911
 20
-140.5743651992314
 10
106.1482150342268
 20
-140.5426703207671
 10
106.0741454812939
 20
-140.4686007678342
 10
105.958045763441
 20
-140.4560261693131
 10
105.902924235677
 20
-140.4560261693131
 10
105.8839762105082
 20
-140.4560261693131
 10
105.847802707913
 20
-140.4580932266042
 10
105.8205864535796
 20
-140.4622273411865
 10
105.8205864535796
 20
-140.4622273411865
 10
105.8205864535796
 20
-140.2677517010442
 10
105.8205864535796
 20
-140.2677517010442
 10
105.8584825039173
 20
-140.2739528729176
 10
105.9008571783859
 20
-140.276192184983
 10
105.9070583502593
 20
-140.276192184983
 10
105.9728596740276
 20
-140.276192184983
 10
106.1716416835265
 20
-140.2550048477487
 10
106.1716416835265
 20
-140.0179822783635
 10
106.1716416835265
 20
-139.8403876060989
 10
106.0403835455385
 20
-139.7852660783349
 10
105.930484999559
 20
-139.7852660783349
 10
105.6659016662918
 20
-139.7852660783349
 10
105.6576334371272
 20
-140.0179822783635
 10
105.6531548129964
 20
-140.0899847740053
 10
105.6531548129964
 20
-140.0899847740053
 10
105.4502386889152
 20
-140.0899847740053
 10
105.4502386889152
 20
-140.0899847740053
 10
105.4586791728541
 20
-139.965100062665
 10
105.4860676819618
 20
-139.5885511261272
 10
105.9432318528545
 20
-139.5885511261272
 10
106.1675075689442
 20
-139.5885511261272
 10
106.4086642529117
 20
-139.7155028947586
 10
106.4086642529117
 20
-140.0116088517158
 10
106.4086642529117
 20
-140.1978162626936
 10
106.3132351079703
 20
-140.2803262995653
 10
106.2140163579951
 20
-140.3416489992028
 10
106.2753390576325
 20
-140.3692097630848
 10
106.4572400992537
 20
-140.4496527426653
 10
106.4572400992537
 20
-140.7268106744537
 10
106.4572400992537
 20
-141.0652913058795
 10
106.2095377338643
 20
-141.2323784369141
 10
105.9325520568502
 20
-141.2323784369141
 97
        0
 97
        1
330
126
 75
     2
 76
     1
 98
        1
 10
0.0
 20
0.0
450
        0
451
        0
460
0.0
461
0.0
452
        0
462
0.0
453
        0
470

  0
ENDBLK
  5
125
330
122
100
AcDbEntity
  8
0
100
AcDbBlockEnd
  0
BLOCK
  5
12F
330
12D
100
AcDbEntity
  8
0
100
AcDbBlockBegin
  2
Block_9
 70
     0
 10
0.0
 20
0.0
 30
0.0
  3
Block_9
  1

  0
SPLINE
  5
131
330
12D
100
AcDbEntity
  8
レイヤー 1
100
AcDbSpline
210
0.0
220
0.0
230
1.0
 70
     9
 71
     3
 72
    53
 73
    49
 74
     0
 42
0.0000000001
 43
0.0000000001
 40
0.0
 40
0.0
 40
0.0
 40
0.0
 40
1.0
 40
1.0
 40
1.0
 40
2.0
 40
2.0
 40
2.0
 40
3.0
 40
3.0
 40
3.0
 40
4.0
 40
4.0
 40
4.0
 40
5.0
 40
5.0
 40
5.0
 40
6.0
 40
6.0
 40
6.0
 40
7.0
 40
7.0
 40
7.0
 40
8.0
 40
8.0
 40
8.0
 40
9.0
 40
9.0
 40
9.0
 40
10.0
 40
10.0
 40
10.0
 40
11.0
 40
11.0
 40
11.0
 40
12.0
 40
12.0
 40
12.0
 40
13.0
 40
13.0
 40
13.0
 40
14.0
 40
14.0
 40
14.0
 40
15.0
 40
15.0
 40
15.0
 40
16.0
 40
16.0
 40
16.0
 40
16.0
 10
106.08206920091
 20
-156.6078395875841
 30
0.0
 10
106.0038655333948
 20
-156.6078395875841
 30
0.0
 10
105.90223521658
 20
-156.5909586197064
 30
0.0
 10
105.8006048997651
 20
-156.5275688627778
 30
0.0
 10
105.627316596857
 20
-156.4176703167983
 30
0.0
 10
105.6059570048485
 20
-156.2864121788103
 30
0.0
 10
105.5870089796796
 20
-156.178580690122
 30
0.0
 10
105.5870089796796
 20
-156.178580690122
 30
0.0
 10
105.8092176384782
 20
-156.178580690122
 30
0.0
 10
105.8092176384782
 20
-156.178580690122
 30
0.0
 10
105.8639946566937
 20
-156.3773626996209
 30
0.0
 10
105.9911186800994
 20
-156.4069905207941
 30
0.0
 10
106.0841362582012
 20
-156.4069905207941
 30
0.0
 10
106.2236626253538
 20
-156.4069905207941
 30
0.0
 10
106.3759358458018
 20
-156.3074272612703
 30
0.0
 10
106.3759358458018
 20
-156.074883316016
 30
0.0
 10
106.3759358458018
 20
-155.8189127214619
 30
0.0
 10
106.1961018614718
 20
-155.7489772831113
 30
0.0
 10
106.0755235194881
 20
-155.7489772831113
 30
0.0
 10
106.0438286410237
 20
-155.7489772831113
 30
0.0
 10
105.90223521658
 20
-155.7489772831113
 30
0.0
 10
105.8133517530605
 20
-155.8781683638082
 30
0.0
 10
105.8133517530605
 20
-155.8781683638082
 30
0.0
 10
105.6376518833128
 20
-155.8592203386393
 30
0.0
 10
105.6376518833128
 20
-155.8592203386393
 30
0.0
 10
105.6376518833128
 20
-155.8592203386393
 30
0.0
 10
105.7582302252965
 20
-155.0127603779135
 30
0.0
 10
105.7582302252965
 20
-155.0127603779135
 30
0.0
 10
105.7582302252965
 20
-155.0127603779135
 30
0.0
 10
106.536821804963
 20
-155.0127603779135
 30
0.0
 10
106.536821804963
 20
-155.0127603779135
 30
0.0
 10
106.536821804963
 20
-155.0127603779135
 30
0.0
 10
106.536821804963
 20
-155.2074082728301
 30
0.0
 10
106.536821804963
 20
-155.2074082728301
 30
0.0
 10
106.536821804963
 20
-155.2074082728301
 30
0.0
 10
105.9211832417489
 20
-155.2074082728301
 30
0.0
 10
105.9211832417489
 20
-155.2074082728301
 30
0.0
 10
105.9211832417489
 20
-155.2074082728301
 30
0.0
 10
105.8557264275291
 20
-155.6304659984187
 30
0.0
 10
105.8557264275291
 20
-155.6304659984187
 30
0.0
 10
105.9170491271665
 20
-155.5967040626633
 30
0.0
 10
105.999386909264
 20
-155.5563964454859
 30
0.0
 10
106.1178981939566
 20
-155.5563964454859
 30
0.0
 10
106.3718017312195
 20
-155.5563964454859
 30
0.0
 10
106.6088243006047
 20
-155.7427761112379
 30
0.0
 10
106.6088243006047
 20
-156.0559352908471
 30
0.0
 10
106.6088243006047
 20
-156.3732285850386
 30
0.0
 10
106.384548584515
 20
-156.6078395875841
 30
0.0
 10
106.08206920091
 20
-156.6078395875841
 30
0.0
  0
HATCH
  5
132
330
12D
100
AcDbEntity
  8
レイヤー 1
 62
    18
420
        0
440
 33554687
100
AcDbHatch
 10
0.0
 20
0.0
 30
0.0
210
0.0
220
0.0
230
1.0
  2
SOLID
 70
     1
 71
     1
 91
        1
 92
        1
 93
        1
 72
     4
 94
        3
 73
     0
 74
     0
 95
       53
 96
       49
 40
0.0
 40
0.0
 40
0.0
 40
0.0
 40
1.0
 40
1.0
 40
1.0
 40
2.0
 40
2.0
 40
2.0
 40
3.0
 40
3.0
 40
3.0
 40
4.0
 40
4.0
 40
4.0
 40
5.0
 40
5.0
 40
5.0
 40
6.0
 40
6.0
 40
6.0
 40
7.0
 40
7.0
 40
7.0
 40
8.0
 40
8.0
 40
8.0
 40
9.0
 40
9.0
 40
9.0
 40
10.0
 40
10.0
 40
10.0
 40
11.0
 40
11.0
 40
11.0
 40
12.0
 40
12.0
 40
12.0
 40
13.0
 40
13.0
 40
13.0
 40
14.0
 40
14.0
 40
14.0
 40
15.0
 40
15.0
 40
15.0
 40
16.0
 40
16.0
 40
16.0
 40
16.0
 10
106.08206920091
 20
-156.6078395875841
 10
106.0038655333948
 20
-156.6078395875841
 10
105.90223521658
 20
-156.5909586197064
 10
105.8006048997651
 20
-156.5275688627778
 10
105.627316596857
 20
-156.4176703167983
 10
105.6059570048485
 20
-156.2864121788103
 10
105.5870089796796
 20
-156.178580690122
 10
105.5870089796796
 20
-156.178580690122
 10
105.8092176384782
 20
-156.178580690122
 10
105.8092176384782
 20
-156.178580690122
 10
105.8639946566937
 20
-156.3773626996209
 10
105.9911186800994
 20
-156.4069905207941
 10
106.0841362582012
 20
-156.4069905207941
 10
106.2236626253538
 20
-156.4069905207941
 10
106.3759358458018
 20
-156.3074272612703
 10
106.3759358458018
 20
-156.074883316016
 10
106.3759358458018
 20
-155.8189127214619
 10
106.1961018614718
 20
-155.7489772831113
 10
106.0755235194881
 20
-155.7489772831113
 10
106.0438286410237
 20
-155.7489772831113
 10
105.90223521658
 20
-155.7489772831113
 10
105.8133517530605
 20
-155.8781683638082
 10
105.8133517530605
 20
-155.8781683638082
 10
105.6376518833128
 20
-155.8592203386393
 10
105.6376518833128
 20
-155.8592203386393
 10
105.6376518833128
 20
-155.8592203386393
 10
105.7582302252965
 20
-155.0127603779135
 10
105.7582302252965
 20
-155.0127603779135
 10
105.7582302252965
 20
-155.0127603779135
 10
106.536821804963
 20
-155.0127603779135
 10
106.536821804963
 20
-155.0127603779135
 10
106.536821804963
 20
-155.0127603779135
 10
106.536821804963
 20
-155.2074082728301
 10
106.536821804963
 20
-155.2074082728301
 10
106.536821804963
 20
-155.2074082728301
 10
105.9211832417489
 20
-155.2074082728301
 10
105.9211832417489
 20
-155.2074082728301
 10
105.9211832417489
 20
-155.2074082728301
 10
105.8557264275291
 20
-155.6304659984187
 10
105.8557264275291
 20
-155.6304659984187
 10
105.9170491271665
 20
-155.5967040626633
 10
105.999386909264
 20
-155.5563964454859
 10
106.1178981939566
 20
-155.5563964454859
 10
106.3718017312195
 20
-155.5563964454859
 10
106.6088243006047
 20
-155.7427761112379
 10
106.6088243006047
 20
-156.0559352908471
 10
106.6088243006047
 20
-156.3732285850386
 10
106.384548584515
 20
-156.6078395875841
 10
106.08206920091
 20
-156.6078395875841
 97
        0
 97
        1
330
131
 75
     2
 76
     1
 98
        1
 10
0.0
 20
0.0
450
        0
451
        0
460
0.0
461
0.0
452
        0
462
0.0
453
        0
470

  0
ENDBLK
  5
130
330
12D
100
AcDbEntity
  8
0
100
AcDbBlockEnd
  0
BLOCK
  5
136
330
134
100
AcDbEntity
  8
0
100
AcDbBlockBegin
  2
Block_10
 70
     0
 10
0.0
 20
0.0
 30
0.0
  3
Block_10
  1

  0
SPLINE
  5
138
330
134
100
AcDbEntity
  8
レイヤー 1
100
AcDbSpline
210
0.0
220
0.0
230
1.0
 70
    11
 71
     3
 72
    26
 73
    22
 74
     0
 42
0.0000000001
 43
0.0000000001
 40
0.0
 40
0.0
 40
0.0
 40
0.0
 40
1.0
 40
1.0
 40
1.0
 40
2.0
 40
2.0
 40
2.0
 40
3.0
 40
3.0
 40
3.0
 40
4.0
 40
4.0
 40
4.0
 40
5.0
 40
5.0
 40
5.0
 40
6.0
 40
6.0
 40
6.0
 40
7.0
 40
7.0
 40
7.0
 40
7.0
 10
110.3729356277887
 20
-149.5347140468177
 30
0.0
 10
110.3729356277887
 20
-149.5347140468177
 30
0.0
 10
110.3729356277887
 20
-148.4303886890208
 30
0.0
 10
110.3729356277887
 20
-148.4303886890208
 30
0.0
 10
110.3729356277887
 20
-148.4303886890208
 30
0.0
 10
110.0428954803017
 20
-148.4303886890208
 30
0.0
 10
110.0428954803017
 20
-148.4303886890208
 30
0.0
 10
110.0428954803017
 20
-148.4303886890208
 30
0.0
 10
110.0428954803017
 20
-148.2822495831551
 30
0.0
 10
110.0428954803017
 20
-148.2822495831551
 30
0.0
 10
110.3750026850798
 20
-148.2676079273428
 30
0.0
 10
110.4215114741307
 20
-148.1046549108905
 30
0.0
 10
110.4511392953039
 20
-147.9904499955545
 30
0.0
 10
110.4511392953039
 20
-147.9904499955545
 30
0.0
 10
110.5972113438784
 20
-147.9904499955545
 30
0.0
 10
110.5972113438784
 20
-147.9904499955545
 30
0.0
 10
110.5972113438784
 20
-147.9904499955545
 30
0.0
 10
110.5972113438784
 20
-149.5347140468177
 30
0.0
 10
110.5972113438784
 20
-149.5347140468177
 30
0.0
 10
110.5972113438784
 20
-149.5347140468177
 30
0.0
 10
110.3729356277887
 20
-149.5347140468177
 30
0.0
 10
110.3729356277887
 20
-149.5347140468177
 30
0.0
  0
HATCH
  5
139
330
134
100
AcDbEntity
  8
レイヤー 1
 62
    18
420
        0
440
 33554687
100
AcDbHatch
 10
0.0
 20
0.0
 30
0.0
210
0.0
220
0.0
230
1.0
  2
SOLID
 70
     1
 71
     1
 91
        1
 92
        1
 93
        1
 72
     4
 94
        3
 73
     0
 74
     0
 95
       26
 96
       22
 40
0.0
 40
0.0
 40
0.0
 40
0.0
 40
1.0
 40
1.0
 40
1.0
 40
2.0
 40
2.0
 40
2.0
 40
3.0
 40
3.0
 40
3.0
 40
4.0
 40
4.0
 40
4.0
 40
5.0
 40
5.0
 40
5.0
 40
6.0
 40
6.0
 40
6.0
 40
7.0
 40
7.0
 40
7.0
 40
7.0
 10
110.3729356277887
 20
-149.5347140468177
 10
110.3729356277887
 20
-149.5347140468177
 10
110.3729356277887
 20
-148.4303886890208
 10
110.3729356277887
 20
-148.4303886890208
 10
110.3729356277887
 20
-148.4303886890208
 10
110.0428954803017
 20
-148.4303886890208
 10
110.0428954803017
 20
-148.4303886890208
 10
110.0428954803017
 20
-148.4303886890208
 10
110.0428954803017
 20
-148.2822495831551
 10
110.0428954803017
 20
-148.2822495831551
 10
110.3750026850798
 20
-148.2676079273428
 10
110.4215114741307
 20
-148.1046549108905
 10
110.4511392953039
 20
-147.9904499955545
 10
110.4511392953039
 20
-147.9904499955545
 10
110.5972113438784
 20
-147.9904499955545
 10
110.5972113438784
 20
-147.9904499955545
 10
110.5972113438784
 20
-147.9904499955545
 10
110.5972113438784
 20
-149.5347140468177
 10
110.5972113438784
 20
-149.5347140468177
 10
110.5972113438784
 20
-149.5347140468177
 10
110.3729356277887
 20
-149.5347140468177
 10
110.3729356277887
 20
-149.5347140468177
 97
        0
 97
        1
330
138
 75
     2
 76
     1
 98
        1
 10
0.0
 20
0.0
450
        0
451
        0
460
0.0
461
0.0
452
        0
462
0.0
453
        0
470

  0
ENDBLK
  5
137
330
134
100
AcDbEntity
  8
0
100
AcDbBlockEnd
  0
BLOCK
  5
13C
330
13A
100
AcDbEntity
  8
0
100
AcDbBlockBegin
  2
Block_11
 70
     0
 10
0.0
 20
0.0
 30
0.0
  3
Block_11
  1

  0
LWPOLYLINE
  5
13E
330
13A
100
AcDbEntity
  8
レイヤー 1
 62
   250
420
  2299925
370
     9
100
AcDbPolyline
 90
        4
 70
     1
 43
0.0
 10
108.896494255864
 20
-152.8881450487047
 10
109.4583958794767
 20
-152.8810894931508
 10
108.5678436799743
 20
-152.5654944932298
 10
108.8720439499913
 20
-153.4800003263347
  0
HATCH
  5
13F
330
13A
100
AcDbEntity
  8
レイヤー 1
 62
   250
420
  2299925
440
 33554687
100
AcDbHatch
 10
0.0
 20
0.0
 30
0.0
210
0.0
220
0.0
230
1.0
  2
SOLID
 70
     1
 71
     1
 91
        1
 92
        1
 93
        4
 72
     1
 10
108.896494255864
 20
-152.8881450487047
 11
109.4583958794767
 21
-152.8810894931508
 72
     1
 10
109.4583958794767
 20
-152.8810894931508
 11
108.5678436799743
 21
-152.5654944932298
 72
     1
 10
108.5678436799743
 20
-152.5654944932298
 11
108.8720439499913
 21
-153.4800003263347
 72
     1
 10
108.8720439499913
 20
-153.4800003263347
 11
108.896494255864
 21
-152.8881450487047
 97
        1
330
13E
 75
     2
 76
     1
 98
        1
 10
0.0
 20
0.0
450
        0
451
        0
460
0.0
461
0.0
452
        0
462
0.0
453
        0
470

  0
LINE
  5
140
330
13A
100
AcDbEntity
  8
レイヤー 1
 62
   250
420
  2299925
370
     9
100
AcDbLine
 10
108.896494255864
 20
-152.8881450487047
 30
0.0
 11
111.3008483324718
 21
-155.2772972703296
 31
0.0
  0
ENDBLK
  5
13D
330
13A
100
AcDbEntity
  8
0
100
AcDbBlockEnd
  0
BLOCK
  5
143
330
141
100
AcDbEntity
  8
0
100
AcDbBlockBegin
  2
Block_12
 70
     0
 10
0.0
 20
0.0
 30
0.0
  3
Block_12
  1

  0
INSERT
  5
146
330
141
100
AcDbEntity
  8
レイヤー 1
100
AcDbBlockReference
  2
Block_13
 10
0.0
 20
0.0
 30
0.0
  0
ENDBLK
  5
144
330
141
100
AcDbEntity
  8
0
100
AcDbBlockEnd
  0
BLOCK
  5
147
330
145
100
AcDbEntity
  8
0
100
AcDbBlockBegin
  2
Block_13
 70
     0
 10
0.0
 20
0.0
 30
0.0
  3
Block_13
  1

  0
SPLINE
  5
149
330
145
100
AcDbEntity
  8
レイヤー 1
100
AcDbSpline
210
0.0
220
0.0
230
1.0
 70
     9
 71
     3
 72
    38
 73
    34
 74
     0
 42
0.0000000001
 43
0.0000000001
 40
0.0
 40
0.0
 40
0.0
 40
0.0
 40
1.0
 40
1.0
 40
1.0
 40
2.0
 40
2.0
 40
2.0
 40
3.0
 40
3.0
 40
3.0
 40
4.0
 40
4.0
 40
4.0
 40
5.0
 40
5.0
 40
5.0
 40
6.0
 40
6.0
 40
6.0
 40
7.0
 40
7.0
 40
7.0
 40
8.0
 40
8.0
 40
8.0
 40
9.0
 40
9.0
 40
9.0
 40
10.0
 40
10.0
 40
10.0
 40
11.0
 40
11.0
 40
11.0
 40
11.0
 10
111.832622584889
 20
-156.358414674452
 30
0.0
 10
111.9256401629908
 20
-156.2357692751771
 30
0.0
 10
112.0506971291054
 20
-156.0559352908471
 30
0.0
 10
112.1457817644982
 20
-155.6073838586676
 30
0.0
 10
112.1457817644982
 20
-155.6073838586676
 30
0.0
 10
112.3128688955329
 20
-155.626676393385
 30
0.0
 10
112.3128688955329
 20
-155.626676393385
 30
0.0
 10
112.287375188942
 20
-155.7472547353687
 30
0.0
 10
112.2642930491908
 20
-155.8382052561793
 30
0.0
 10
112.2260524893046
 20
-155.9460367448676
 30
0.0
 10
112.2260524893046
 20
-155.9460367448676
 30
0.0
 10
112.8544379058141
 20
-155.9460367448676
 30
0.0
 10
112.8544379058141
 20
-155.9460367448676
 30
0.0
 10
112.8544379058141
 20
-155.9460367448676
 30
0.0
 10
112.8544379058141
 20
-156.0983099653157
 30
0.0
 10
112.8544379058141
 20
-156.0983099653157
 30
0.0
 10
112.8206759700587
 20
-156.2399033897594
 30
0.0
 10
112.7252468251173
 20
-156.4982855511532
 30
0.0
 10
112.6511772721844
 20
-156.6167968358458
 30
0.0
 10
112.6511772721844
 20
-156.6167968358458
 30
0.0
 10
112.4989040517364
 20
-156.5382486587821
 30
0.0
 10
112.4989040517364
 20
-156.5382486587821
 30
0.0
 10
112.5943331966778
 20
-156.4028564062118
 30
0.0
 10
112.6597900108975
 20
-156.2147541927171
 30
0.0
 10
112.6873507747795
 20
-156.1048556467377
 30
0.0
 10
112.6873507747795
 20
-156.1048556467377
 30
0.0
 10
112.1688639042494
 20
-156.1048556467377
 30
0.0
 10
112.1688639042494
 20
-156.1048556467377
 30
0.0
 10
112.0696451542742
 20
-156.3460123307051
 30
0.0
 10
111.9955756013414
 20
-156.4345512846761
 30
0.0
 10
111.9573350414551
 20
-156.4789930164358
 30
0.0
 10
111.9573350414551
 20
-156.4789930164358
 30
0.0
 10
111.832622584889
 20
-156.358414674452
 30
0.0
 10
111.832622584889
 20
-156.358414674452
 30
0.0
  0
SPLINE
  5
14A
330
145
100
AcDbEntity
  8
レイヤー 1
100
AcDbSpline
210
0.0
220
0.0
230
1.0
 70
     9
 71
     3
 72
    38
 73
    34
 74
     0
 42
0.0000000001
 43
0.0000000001
 40
0.0
 40
0.0
 40
0.0
 40
0.0
 40
1.0
 40
1.0
 40
1.0
 40
2.0
 40
2.0
 40
2.0
 40
3.0
 40
3.0
 40
3.0
 40
4.0
 40
4.0
 40
4.0
 40
5.0
 40
5.0
 40
5.0
 40
6.0
 40
6.0
 40
6.0
 40
7.0
 40
7.0
 40
7.0
 40
8.0
 40
8.0
 40
8.0
 40
9.0
 40
9.0
 40
9.0
 40
10.0
 40
10.0
 40
10.0
 40
11.0
 40
11.0
 40
11.0
 40
11.0
 10
111.7182454147787
 20
-157.4312174085588
 30
0.0
 10
111.8009277064248
 20
-157.378162938086
 30
0.0
 10
111.9659477801682
 20
-157.2703314493977
 30
0.0
 10
112.0717122115654
 20
-157.0629367011856
 30
0.0
 10
112.2198513174311
 20
-156.771137113585
 30
0.0
 10
112.2198513174311
 20
-156.544794340204
 30
0.0
 10
112.2198513174311
 20
-156.4600449912669
 30
0.0
 10
112.2198513174311
 20
-156.4600449912669
 30
0.0
 10
112.2198513174311
 20
-156.2254339887214
 30
0.0
 10
112.2198513174311
 20
-156.2254339887214
 30
0.0
 10
112.2198513174311
 20
-156.2254339887214
 30
0.0
 10
112.3848713911746
 20
-156.2254339887214
 30
0.0
 10
112.3848713911746
 20
-156.2254339887214
 30
0.0
 10
112.3848713911746
 20
-156.2254339887214
 30
0.0
 10
112.3848713911746
 20
-156.4517767621023
 30
0.0
 10
112.3848713911746
 20
-156.4517767621023
 30
0.0
 10
112.3848713911746
 20
-156.6505587716012
 30
0.0
 10
112.4503282053944
 20
-156.8875813409864
 30
0.0
 10
112.5519585222092
 20
-157.0608696438945
 30
0.0
 10
112.6684027496106
 20
-157.2596516533934
 30
0.0
 10
112.797249320759
 20
-157.3592149129171
 30
0.0
 10
112.8819986696961
 20
-157.4205376125546
 30
0.0
 10
112.8819986696961
 20
-157.4205376125546
 30
0.0
 10
112.7741671810078
 20
-157.5707437757115
 30
0.0
 10
112.7741671810078
 20
-157.5707437757115
 30
0.0
 10
112.5964002539689
 20
-157.4415526950146
 30
0.0
 10
112.39761824447
 20
-157.2024630683383
 30
0.0
 10
112.3190700674063
 20
-156.8493407811001
 30
0.0
 10
112.2536132531866
 20
-157.0884304077765
 30
0.0
 10
112.1519829363717
 20
-157.357147855626
 30
0.0
 10
111.8433023808933
 20
-157.5666096611292
 30
0.0
 10
111.8433023808933
 20
-157.5666096611292
 30
0.0
 10
111.7182454147787
 20
-157.4312174085588
 30
0.0
 10
111.7182454147787
 20
-157.4312174085588
 30
0.0
  0
SPLINE
  5
14B
330
145
100
AcDbEntity
  8
レイヤー 1
100
AcDbSpline
210
0.0
220
0.0
230
1.0
 70
    11
 71
     3
 72
    17
 73
    13
 74
     0
 42
0.0000000001
 43
0.0000000001
 40
0.0
 40
0.0
 40
0.0
 40
0.0
 40
1.0
 40
1.0
 40
1.0
 40
2.0
 40
2.0
 40
2.0
 40
3.0
 40
3.0
 40
3.0
 40
4.0
 40
4.0
 40
4.0
 40
4.0
 10
111.6762152498587
 20
-156.5427272829129
 30
0.0
 10
111.6762152498587
 20
-156.5427272829129
 30
0.0
 10
111.4646863870644
 20
-156.5427272829129
 30
0.0
 10
111.4646863870644
 20
-156.5427272829129
 30
0.0
 10
111.4646863870644
 20
-156.5427272829129
 30
0.0
 10
111.4646863870644
 20
-156.7497775215764
 30
0.0
 10
111.4646863870644
 20
-156.7497775215764
 30
0.0
 10
111.4646863870644
 20
-156.7497775215764
 30
0.0
 10
111.6762152498587
 20
-156.7497775215764
 30
0.0
 10
111.6762152498587
 20
-156.7497775215764
 30
0.0
 10
111.6762152498587
 20
-156.7497775215764
 30
0.0
 10
111.6762152498587
 20
-156.5427272829129
 30
0.0
 10
111.6762152498587
 20
-156.5427272829129
 30
0.0
  0
SPLINE
  5
14C
330
145
100
AcDbEntity
  8
レイヤー 1
100
AcDbSpline
210
0.0
220
0.0
230
1.0
 70
    11
 71
     3
 72
    17
 73
    13
 74
     0
 42
0.0000000001
 43
0.0000000001
 40
0.0
 40
0.0
 40
0.0
 40
0.0
 40
1.0
 40
1.0
 40
1.0
 40
2.0
 40
2.0
 40
2.0
 40
3.0
 40
3.0
 40
3.0
 40
4.0
 40
4.0
 40
4.0
 40
4.0
 10
111.6762152498587
 20
-156.2168212500083
 30
0.0
 10
111.6762152498587
 20
-156.2168212500083
 30
0.0
 10
111.4646863870644
 20
-156.2168212500083
 30
0.0
 10
111.4646863870644
 20
-156.2168212500083
 30
0.0
 10
111.4646863870644
 20
-156.2168212500083
 30
0.0
 10
111.4646863870644
 20
-156.4197373740895
 30
0.0
 10
111.4646863870644
 20
-156.4197373740895
 30
0.0
 10
111.4646863870644
 20
-156.4197373740895
 30
0.0
 10
111.6762152498587
 20
-156.4197373740895
 30
0.0
 10
111.6762152498587
 20
-156.4197373740895
 30
0.0
 10
111.6762152498587
 20
-156.4197373740895
 30
0.0
 10
111.6762152498587
 20
-156.2168212500083
 30
0.0
 10
111.6762152498587
 20
-156.2168212500083
 30
0.0
  0
SPLINE
  5
14D
330
145
100
AcDbEntity
  8
レイヤー 1
100
AcDbSpline
210
0.0
220
0.0
230
1.0
 70
    11
 71
     3
 72
    17
 73
    13
 74
     0
 42
0.0000000001
 43
0.0000000001
 40
0.0
 40
0.0
 40
0.0
 40
0.0
 40
1.0
 40
1.0
 40
1.0
 40
2.0
 40
2.0
 40
2.0
 40
3.0
 40
3.0
 40
3.0
 40
4.0
 40
4.0
 40
4.0
 40
4.0
 10
111.3100015997766
 20
-156.5427272829129
 30
0.0
 10
111.3100015997766
 20
-156.5427272829129
 30
0.0
 10
111.1029513611131
 20
-156.5427272829129
 30
0.0
 10
111.1029513611131
 20
-156.5427272829129
 30
0.0
 10
111.1029513611131
 20
-156.5427272829129
 30
0.0
 10
111.1029513611131
 20
-156.7497775215764
 30
0.0
 10
111.1029513611131
 20
-156.7497775215764
 30
0.0
 10
111.1029513611131
 20
-156.7497775215764
 30
0.0
 10
111.3100015997766
 20
-156.7497775215764
 30
0.0
 10
111.3100015997766
 20
-156.7497775215764
 30
0.0
 10
111.3100015997766
 20
-156.7497775215764
 30
0.0
 10
111.3100015997766
 20
-156.5427272829129
 30
0.0
 10
111.3100015997766
 20
-156.5427272829129
 30
0.0
  0
SPLINE
  5
14E
330
145
100
AcDbEntity
  8
レイヤー 1
100
AcDbSpline
210
0.0
220
0.0
230
1.0
 70
    11
 71
     3
 72
    17
 73
    13
 74
     0
 42
0.0000000001
 43
0.0000000001
 40
0.0
 40
0.0
 40
0.0
 40
0.0
 40
1.0
 40
1.0
 40
1.0
 40
2.0
 40
2.0
 40
2.0
 40
3.0
 40
3.0
 40
3.0
 40
4.0
 40
4.0
 40
4.0
 40
4.0
 10
111.3100015997766
 20
-156.2168212500083
 30
0.0
 10
111.3100015997766
 20
-156.2168212500083
 30
0.0
 10
111.1029513611131
 20
-156.2168212500083
 30
0.0
 10
111.1029513611131
 20
-156.2168212500083
 30
0.0
 10
111.1029513611131
 20
-156.2168212500083
 30
0.0
 10
111.1029513611131
 20
-156.4197373740895
 30
0.0
 10
111.1029513611131
 20
-156.4197373740895
 30
0.0
 10
111.1029513611131
 20
-156.4197373740895
 30
0.0
 10
111.3100015997766
 20
-156.4197373740895
 30
0.0
 10
111.3100015997766
 20
-156.4197373740895
 30
0.0
 10
111.3100015997766
 20
-156.4197373740895
 30
0.0
 10
111.3100015997766
 20
-156.2168212500083
 30
0.0
 10
111.3100015997766
 20
-156.2168212500083
 30
0.0
  0
SPLINE
  5
14F
330
145
100
AcDbEntity
  8
レイヤー 1
100
AcDbSpline
210
0.0
220
0.0
230
1.0
 70
    11
 71
     3
 72
    89
 73
    85
 74
     0
 42
0.0000000001
 43
0.0000000001
 40
0.0
 40
0.0
 40
0.0
 40
0.0
 40
1.0
 40
1.0
 40
1.0
 40
2.0
 40
2.0
 40
2.0
 40
3.0
 40
3.0
 40
3.0
 40
4.0
 40
4.0
 40
4.0
 40
5.0
 40
5.0
 40
5.0
 40
6.0
 40
6.0
 40
6.0
 40
7.0
 40
7.0
 40
7.0
 40
8.0
 40
8.0
 40
8.0
 40
9.0
 40
9.0
 40
9.0
 40
10.0
 40
10.0
 40
10.0
 40
11.0
 40
11.0
 40
11.0
 40
12.0
 40
12.0
 40
12.0
 40
13.0
 40
13.0
 40
13.0
 40
14.0
 40
14.0
 40
14.0
 40
15.0
 40
15.0
 40
15.0
 40
16.0
 40
16.0
 40
16.0
 40
17.0
 40
17.0
 40
17.0
 40
18.0
 40
18.0
 40
18.0
 40
19.0
 40
19.0
 40
19.0
 40
20.0
 40
20.0
 40
20.0
 40
21.0
 40
21.0
 40
21.0
 40
22.0
 40
22.0
 40
22.0
 40
23.0
 40
23.0
 40
23.0
 40
24.0
 40
24.0
 40
24.0
 40
25.0
 40
25.0
 40
25.0
 40
26.0
 40
26.0
 40
26.0
 40
27.0
 40
27.0
 40
27.0
 40
28.0
 40
28.0
 40
28.0
 40
28.0
 10
111.3100015997766
 20
-155.7682698178288
 30
0.0
 10
111.3100015997766
 20
-155.7682698178288
 30
0.0
 10
111.3100015997766
 20
-155.6073838586676
 30
0.0
 10
111.3100015997766
 20
-155.6073838586676
 30
0.0
 10
111.3100015997766
 20
-155.6073838586676
 30
0.0
 10
111.4646863870644
 20
-155.6073838586676
 30
0.0
 10
111.4646863870644
 20
-155.6073838586676
 30
0.0
 10
111.4646863870644
 20
-155.6073838586676
 30
0.0
 10
111.4646863870644
 20
-155.7682698178288
 30
0.0
 10
111.4646863870644
 20
-155.7682698178288
 30
0.0
 10
111.4646863870644
 20
-155.7682698178288
 30
0.0
 10
111.8581162914799
 20
-155.7682698178288
 30
0.0
 10
111.8581162914799
 20
-155.7682698178288
 30
0.0
 10
111.8581162914799
 20
-155.7682698178288
 30
0.0
 10
111.8581162914799
 20
-155.9226100955679
 30
0.0
 10
111.8581162914799
 20
-155.9226100955679
 30
0.0
 10
111.8581162914799
 20
-155.9226100955679
 30
0.0
 10
111.4646863870644
 20
-155.9226100955679
 30
0.0
 10
111.4646863870644
 20
-155.9226100955679
 30
0.0
 10
111.4646863870644
 20
-155.9226100955679
 30
0.0
 10
111.4646863870644
 20
-156.0772948828557
 30
0.0
 10
111.4646863870644
 20
-156.0772948828557
 30
0.0
 10
111.4646863870644
 20
-156.0772948828557
 30
0.0
 10
111.8198757315936
 20
-156.0772948828557
 30
0.0
 10
111.8198757315936
 20
-156.0772948828557
 30
0.0
 10
111.8198757315936
 20
-156.0772948828557
 30
0.0
 10
111.8198757315936
 20
-156.8896483982776
 30
0.0
 10
111.8198757315936
 20
-156.8896483982776
 30
0.0
 10
111.8198757315936
 20
-156.8896483982776
 30
0.0
 10
111.4646863870644
 20
-156.8896483982776
 30
0.0
 10
111.4646863870644
 20
-156.8896483982776
 30
0.0
 10
111.4646863870644
 20
-156.8896483982776
 30
0.0
 10
111.4646863870644
 20
-157.0588025866033
 30
0.0
 10
111.4646863870644
 20
-157.0588025866033
 30
0.0
 10
111.4646863870644
 20
-157.0588025866033
 30
0.0
 10
111.8729302020665
 20
-157.0588025866033
 30
0.0
 10
111.8729302020665
 20
-157.0588025866033
 30
0.0
 10
111.8729302020665
 20
-157.0588025866033
 30
0.0
 10
111.8729302020665
 20
-157.2131428643425
 30
0.0
 10
111.8729302020665
 20
-157.2131428643425
 30
0.0
 10
111.8729302020665
 20
-157.2131428643425
 30
0.0
 10
111.4646863870644
 20
-157.2131428643425
 30
0.0
 10
111.4646863870644
 20
-157.2131428643425
 30
0.0
 10
111.4646863870644
 20
-157.2131428643425
 30
0.0
 10
111.4646863870644
 20
-157.5666096611292
 30
0.0
 10
111.4646863870644
 20
-157.5666096611292
 30
0.0
 10
111.4646863870644
 20
-157.5666096611292
 30
0.0
 10
111.3100015997766
 20
-157.5666096611292
 30
0.0
 10
111.3100015997766
 20
-157.5666096611292
 30
0.0
 10
111.3100015997766
 20
-157.5666096611292
 30
0.0
 10
111.3100015997766
 20
-157.2131428643425
 30
0.0
 10
111.3100015997766
 20
-157.2131428643425
 30
0.0
 10
111.3100015997766
 20
-157.2131428643425
 30
0.0
 10
110.8996907274834
 20
-157.2131428643425
 30
0.0
 10
110.8996907274834
 20
-157.2131428643425
 30
0.0
 10
110.8996907274834
 20
-157.2131428643425
 30
0.0
 10
110.8996907274834
 20
-157.0588025866033
 30
0.0
 10
110.8996907274834
 20
-157.0588025866033
 30
0.0
 10
110.8996907274834
 20
-157.0588025866033
 30
0.0
 10
111.3100015997766
 20
-157.0588025866033
 30
0.0
 10
111.3100015997766
 20
-157.0588025866033
 30
0.0
 10
111.3100015997766
 20
-157.0588025866033
 30
0.0
 10
111.3100015997766
 20
-156.8896483982776
 30
0.0
 10
111.3100015997766
 20
-156.8896483982776
 30
0.0
 10
111.3100015997766
 20
-156.8896483982776
 30
0.0
 10
110.9610134271208
 20
-156.8896483982776
 30
0.0
 10
110.9610134271208
 20
-156.8896483982776
 30
0.0
 10
110.9610134271208
 20
-156.8896483982776
 30
0.0
 10
110.9610134271208
 20
-156.0772948828557
 30
0.0
 10
110.9610134271208
 20
-156.0772948828557
 30
0.0
 10
110.9610134271208
 20
-156.0772948828557
 30
0.0
 10
111.3100015997766
 20
-156.0772948828557
 30
0.0
 10
111.3100015997766
 20
-156.0772948828557
 30
0.0
 10
111.3100015997766
 20
-156.0772948828557
 30
0.0
 10
111.3100015997766
 20
-155.9226100955679
 30
0.0
 10
111.3100015997766
 20
-155.9226100955679
 30
0.0
 10
111.3100015997766
 20
-155.9226100955679
 30
0.0
 10
110.9207058099434
 20
-155.9226100955679
 30
0.0
 10
110.9207058099434
 20
-155.9226100955679
 30
0.0
 10
110.9207058099434
 20
-155.9226100955679
 30
0.0
 10
110.9207058099434
 20
-155.7682698178288
 30
0.0
 10
110.9207058099434
 20
-155.7682698178288
 30
0.0
 10
110.9207058099434
 20
-155.7682698178288
 30
0.0
 10
111.3100015997766
 20
-155.7682698178288
 30
0.0
 10
111.3100015997766
 20
-155.7682698178288
 30
0.0
  0
HATCH
  5
150
330
145
100
AcDbEntity
  8
レイヤー 1
 62
    12
420
 15007762
440
 33554687
100
AcDbHatch
 10
0.0
 20
0.0
 30
0.0
210
0.0
220
0.0
230
1.0
  2
SOLID
 70
     1
 71
     1
 91
        7
 92
        1
 93
        1
 72
     4
 94
        3
 73
     0
 74
     0
 95
       38
 96
       34
 40
0.0
 40
0.0
 40
0.0
 40
0.0
 40
1.0
 40
1.0
 40
1.0
 40
2.0
 40
2.0
 40
2.0
 40
3.0
 40
3.0
 40
3.0
 40
4.0
 40
4.0
 40
4.0
 40
5.0
 40
5.0
 40
5.0
 40
6.0
 40
6.0
 40
6.0
 40
7.0
 40
7.0
 40
7.0
 40
8.0
 40
8.0
 40
8.0
 40
9.0
 40
9.0
 40
9.0
 40
10.0
 40
10.0
 40
10.0
 40
11.0
 40
11.0
 40
11.0
 40
11.0
 10
111.832622584889
 20
-156.358414674452
 10
111.9256401629908
 20
-156.2357692751771
 10
112.0506971291054
 20
-156.0559352908471
 10
112.1457817644982
 20
-155.6073838586676
 10
112.1457817644982
 20
-155.6073838586676
 10
112.3128688955329
 20
-155.626676393385
 10
112.3128688955329
 20
-155.626676393385
 10
112.287375188942
 20
-155.7472547353687
 10
112.2642930491908
 20
-155.8382052561793
 10
112.2260524893046
 20
-155.9460367448676
 10
112.2260524893046
 20
-155.9460367448676
 10
112.8544379058141
 20
-155.9460367448676
 10
112.8544379058141
 20
-155.9460367448676
 10
112.8544379058141
 20
-155.9460367448676
 10
112.8544379058141
 20
-156.0983099653157
 10
112.8544379058141
 20
-156.0983099653157
 10
112.8206759700587
 20
-156.2399033897594
 10
112.7252468251173
 20
-156.4982855511532
 10
112.6511772721844
 20
-156.6167968358458
 10
112.6511772721844
 20
-156.6167968358458
 10
112.4989040517364
 20
-156.5382486587821
 10
112.4989040517364
 20
-156.5382486587821
 10
112.5943331966778
 20
-156.4028564062118
 10
112.6597900108975
 20
-156.2147541927171
 10
112.6873507747795
 20
-156.1048556467377
 10
112.6873507747795
 20
-156.1048556467377
 10
112.1688639042494
 20
-156.1048556467377
 10
112.1688639042494
 20
-156.1048556467377
 10
112.0696451542742
 20
-156.3460123307051
 10
111.9955756013414
 20
-156.4345512846761
 10
111.9573350414551
 20
-156.4789930164358
 10
111.9573350414551
 20
-156.4789930164358
 10
111.832622584889
 20
-156.358414674452
 10
111.832622584889
 20
-156.358414674452
 97
        0
 97
        1
330
149
 92
        1
 93
        1
 72
     4
 94
        3
 73
     0
 74
     0
 95
       38
 96
       34
 40
0.0
 40
0.0
 40
0.0
 40
0.0
 40
1.0
 40
1.0
 40
1.0
 40
2.0
 40
2.0
 40
2.0
 40
3.0
 40
3.0
 40
3.0
 40
4.0
 40
4.0
 40
4.0
 40
5.0
 40
5.0
 40
5.0
 40
6.0
 40
6.0
 40
6.0
 40
7.0
 40
7.0
 40
7.0
 40
8.0
 40
8.0
 40
8.0
 40
9.0
 40
9.0
 40
9.0
 40
10.0
 40
10.0
 40
10.0
 40
11.0
 40
11.0
 40
11.0
 40
11.0
 10
111.7182454147787
 20
-157.4312174085588
 10
111.8009277064248
 20
-157.378162938086
 10
111.9659477801682
 20
-157.2703314493977
 10
112.0717122115654
 20
-157.0629367011856
 10
112.2198513174311
 20
-156.771137113585
 10
112.2198513174311
 20
-156.544794340204
 10
112.2198513174311
 20
-156.4600449912669
 10
112.2198513174311
 20
-156.4600449912669
 10
112.2198513174311
 20
-156.2254339887214
 10
112.2198513174311
 20
-156.2254339887214
 10
112.2198513174311
 20
-156.2254339887214
 10
112.3848713911746
 20
-156.2254339887214
 10
112.3848713911746
 20
-156.2254339887214
 10
112.3848713911746
 20
-156.2254339887214
 10
112.3848713911746
 20
-156.4517767621023
 10
112.3848713911746
 20
-156.4517767621023
 10
112.3848713911746
 20
-156.6505587716012
 10
112.4503282053944
 20
-156.8875813409864
 10
112.5519585222092
 20
-157.0608696438945
 10
112.6684027496106
 20
-157.2596516533934
 10
112.797249320759
 20
-157.3592149129171
 10
112.8819986696961
 20
-157.4205376125546
 10
112.8819986696961
 20
-157.4205376125546
 10
112.7741671810078
 20
-157.5707437757115
 10
112.7741671810078
 20
-157.5707437757115
 10
112.5964002539689
 20
-157.4415526950146
 10
112.39761824447
 20
-157.2024630683383
 10
112.3190700674063
 20
-156.8493407811001
 10
112.2536132531866
 20
-157.0884304077765
 10
112.1519829363717
 20
-157.357147855626
 10
111.8433023808933
 20
-157.5666096611292
 10
111.8433023808933
 20
-157.5666096611292
 10
111.7182454147787
 20
-157.4312174085588
 10
111.7182454147787
 20
-157.4312174085588
 97
        0
 97
        1
330
14A
 92
        1
 93
        1
 72
     4
 94
        3
 73
     0
 74
     0
 95
       17
 96
       13
 40
0.0
 40
0.0
 40
0.0
 40
0.0
 40
1.0
 40
1.0
 40
1.0
 40
2.0
 40
2.0
 40
2.0
 40
3.0
 40
3.0
 40
3.0
 40
4.0
 40
4.0
 40
4.0
 40
4.0
 10
111.6762152498587
 20
-156.5427272829129
 10
111.6762152498587
 20
-156.5427272829129
 10
111.4646863870644
 20
-156.5427272829129
 10
111.4646863870644
 20
-156.5427272829129
 10
111.4646863870644
 20
-156.5427272829129
 10
111.4646863870644
 20
-156.7497775215764
 10
111.4646863870644
 20
-156.7497775215764
 10
111.4646863870644
 20
-156.7497775215764
 10
111.6762152498587
 20
-156.7497775215764
 10
111.6762152498587
 20
-156.7497775215764
 10
111.6762152498587
 20
-156.7497775215764
 10
111.6762152498587
 20
-156.5427272829129
 10
111.6762152498587
 20
-156.5427272829129
 97
        0
 97
        1
330
14B
 92
        1
 93
        1
 72
     4
 94
        3
 73
     0
 74
     0
 95
       17
 96
       13
 40
0.0
 40
0.0
 40
0.0
 40
0.0
 40
1.0
 40
1.0
 40
1.0
 40
2.0
 40
2.0
 40
2.0
 40
3.0
 40
3.0
 40
3.0
 40
4.0
 40
4.0
 40
4.0
 40
4.0
 10
111.6762152498587
 20
-156.2168212500083
 10
111.6762152498587
 20
-156.2168212500083
 10
111.4646863870644
 20
-156.2168212500083
 10
111.4646863870644
 20
-156.2168212500083
 10
111.4646863870644
 20
-156.2168212500083
 10
111.4646863870644
 20
-156.4197373740895
 10
111.4646863870644
 20
-156.4197373740895
 10
111.4646863870644
 20
-156.4197373740895
 10
111.6762152498587
 20
-156.4197373740895
 10
111.6762152498587
 20
-156.4197373740895
 10
111.6762152498587
 20
-156.4197373740895
 10
111.6762152498587
 20
-156.2168212500083
 10
111.6762152498587
 20
-156.2168212500083
 97
        0
 97
        1
330
14C
 92
        1
 93
        1
 72
     4
 94
        3
 73
     0
 74
     0
 95
       17
 96
       13
 40
0.0
 40
0.0
 40
0.0
 40
0.0
 40
1.0
 40
1.0
 40
1.0
 40
2.0
 40
2.0
 40
2.0
 40
3.0
 40
3.0
 40
3.0
 40
4.0
 40
4.0
 40
4.0
 40
4.0
 10
111.3100015997766
 20
-156.5427272829129
 10
111.3100015997766
 20
-156.5427272829129
 10
111.1029513611131
 20
-156.5427272829129
 10
111.1029513611131
 20
-156.5427272829129
 10
111.1029513611131
 20
-156.5427272829129
 10
111.1029513611131
 20
-156.7497775215764
 10
111.1029513611131
 20
-156.7497775215764
 10
111.1029513611131
 20
-156.7497775215764
 10
111.3100015997766
 20
-156.7497775215764
 10
111.3100015997766
 20
-156.7497775215764
 10
111.3100015997766
 20
-156.7497775215764
 10
111.3100015997766
 20
-156.5427272829129
 10
111.3100015997766
 20
-156.5427272829129
 97
        0
 97
        1
330
14D
 92
        1
 93
        1
 72
     4
 94
        3
 73
     0
 74
     0
 95
       17
 96
       13
 40
0.0
 40
0.0
 40
0.0
 40
0.0
 40
1.0
 40
1.0
 40
1.0
 40
2.0
 40
2.0
 40
2.0
 40
3.0
 40
3.0
 40
3.0
 40
4.0
 40
4.0
 40
4.0
 40
4.0
 10
111.3100015997766
 20
-156.2168212500083
 10
111.3100015997766
 20
-156.2168212500083
 10
111.1029513611131
 20
-156.2168212500083
 10
111.1029513611131
 20
-156.2168212500083
 10
111.1029513611131
 20
-156.2168212500083
 10
111.1029513611131
 20
-156.4197373740895
 10
111.1029513611131
 20
-156.4197373740895
 10
111.1029513611131
 20
-156.4197373740895
 10
111.3100015997766
 20
-156.4197373740895
 10
111.3100015997766
 20
-156.4197373740895
 10
111.3100015997766
 20
-156.4197373740895
 10
111.3100015997766
 20
-156.2168212500083
 10
111.3100015997766
 20
-156.2168212500083
 97
        0
 97
        1
330
14E
 92
        1
 93
        1
 72
     4
 94
        3
 73
     0
 74
     0
 95
       89
 96
       85
 40
0.0
 40
0.0
 40
0.0
 40
0.0
 40
1.0
 40
1.0
 40
1.0
 40
2.0
 40
2.0
 40
2.0
 40
3.0
 40
3.0
 40
3.0
 40
4.0
 40
4.0
 40
4.0
 40
5.0
 40
5.0
 40
5.0
 40
6.0
 40
6.0
 40
6.0
 40
7.0
 40
7.0
 40
7.0
 40
8.0
 40
8.0
 40
8.0
 40
9.0
 40
9.0
 40
9.0
 40
10.0
 40
10.0
 40
10.0
 40
11.0
 40
11.0
 40
11.0
 40
12.0
 40
12.0
 40
12.0
 40
13.0
 40
13.0
 40
13.0
 40
14.0
 40
14.0
 40
14.0
 40
15.0
 40
15.0
 40
15.0
 40
16.0
 40
16.0
 40
16.0
 40
17.0
 40
17.0
 40
17.0
 40
18.0
 40
18.0
 40
18.0
 40
19.0
 40
19.0
 40
19.0
 40
20.0
 40
20.0
 40
20.0
 40
21.0
 40
21.0
 40
21.0
 40
22.0
 40
22.0
 40
22.0
 40
23.0
 40
23.0
 40
23.0
 40
24.0
 40
24.0
 40
24.0
 40
25.0
 40
25.0
 40
25.0
 40
26.0
 40
26.0
 40
26.0
 40
27.0
 40
27.0
 40
27.0
 40
28.0
 40
28.0
 40
28.0
 40
28.0
 10
111.3100015997766
 20
-155.7682698178288
 10
111.3100015997766
 20
-155.7682698178288
 10
111.3100015997766
 20
-155.6073838586676
 10
111.3100015997766
 20
-155.6073838586676
 10
111.3100015997766
 20
-155.6073838586676
 10
111.4646863870644
 20
-155.6073838586676
 10
111.4646863870644
 20
-155.6073838586676
 10
111.4646863870644
 20
-155.6073838586676
 10
111.4646863870644
 20
-155.7682698178288
 10
111.4646863870644
 20
-155.7682698178288
 10
111.4646863870644
 20
-155.7682698178288
 10
111.8581162914799
 20
-155.7682698178288
 10
111.8581162914799
 20
-155.7682698178288
 10
111.8581162914799
 20
-155.7682698178288
 10
111.8581162914799
 20
-155.9226100955679
 10
111.8581162914799
 20
-155.9226100955679
 10
111.8581162914799
 20
-155.9226100955679
 10
111.4646863870644
 20
-155.9226100955679
 10
111.4646863870644
 20
-155.9226100955679
 10
111.4646863870644
 20
-155.9226100955679
 10
111.4646863870644
 20
-156.0772948828557
 10
111.4646863870644
 20
-156.0772948828557
 10
111.4646863870644
 20
-156.0772948828557
 10
111.8198757315936
 20
-156.0772948828557
 10
111.8198757315936
 20
-156.0772948828557
 10
111.8198757315936
 20
-156.0772948828557
 10
111.8198757315936
 20
-156.8896483982776
 10
111.8198757315936
 20
-156.8896483982776
 10
111.8198757315936
 20
-156.8896483982776
 10
111.4646863870644
 20
-156.8896483982776
 10
111.4646863870644
 20
-156.8896483982776
 10
111.4646863870644
 20
-156.8896483982776
 10
111.4646863870644
 20
-157.0588025866033
 10
111.4646863870644
 20
-157.0588025866033
 10
111.4646863870644
 20
-157.0588025866033
 10
111.8729302020665
 20
-157.0588025866033
 10
111.8729302020665
 20
-157.0588025866033
 10
111.8729302020665
 20
-157.0588025866033
 10
111.8729302020665
 20
-157.2131428643425
 10
111.8729302020665
 20
-157.2131428643425
 10
111.8729302020665
 20
-157.2131428643425
 10
111.4646863870644
 20
-157.2131428643425
 10
111.4646863870644
 20
-157.2131428643425
 10
111.4646863870644
 20
-157.2131428643425
 10
111.4646863870644
 20
-157.5666096611292
 10
111.4646863870644
 20
-157.5666096611292
 10
111.4646863870644
 20
-157.5666096611292
 10
111.3100015997766
 20
-157.5666096611292
 10
111.3100015997766
 20
-157.5666096611292
 10
111.3100015997766
 20
-157.5666096611292
 10
111.3100015997766
 20
-157.2131428643425
 10
111.3100015997766
 20
-157.2131428643425
 10
111.3100015997766
 20
-157.2131428643425
 10
110.8996907274834
 20
-157.2131428643425
 10
110.8996907274834
 20
-157.2131428643425
 10
110.8996907274834
 20
-157.2131428643425
 10
110.8996907274834
 20
-157.0588025866033
 10
110.8996907274834
 20
-157.0588025866033
 10
110.8996907274834
 20
-157.0588025866033
 10
111.3100015997766
 20
-157.0588025866033
 10
111.3100015997766
 20
-157.0588025866033
 10
111.3100015997766
 20
-157.0588025866033
 10
111.3100015997766
 20
-156.8896483982776
 10
111.3100015997766
 20
-156.8896483982776
 10
111.3100015997766
 20
-156.8896483982776
 10
110.9610134271208
 20
-156.8896483982776
 10
110.9610134271208
 20
-156.8896483982776
 10
110.9610134271208
 20
-156.8896483982776
 10
110.9610134271208
 20
-156.0772948828557
 10
110.9610134271208
 20
-156.0772948828557
 10
110.9610134271208
 20
-156.0772948828557
 10
111.3100015997766
 20
-156.0772948828557
 10
111.3100015997766
 20
-156.0772948828557
 10
111.3100015997766
 20
-156.0772948828557
 10
111.3100015997766
 20
-155.9226100955679
 10
111.3100015997766
 20
-155.9226100955679
 10
111.3100015997766
 20
-155.9226100955679
 10
110.9207058099434
 20
-155.9226100955679
 10
110.9207058099434
 20
-155.9226100955679
 10
110.9207058099434
 20
-155.9226100955679
 10
110.9207058099434
 20
-155.7682698178288
 10
110.9207058099434
 20
-155.7682698178288
 10
110.9207058099434
 20
-155.7682698178288
 10
111.3100015997766
 20
-155.7682698178288
 10
111.3100015997766
 20
-155.7682698178288
 97
        0
 97
        1
330
14F
 75
     2
 76
     1
 98
        1
 10
0.0
 20
0.0
450
        0
451
        0
460
0.0
461
0.0
452
        0
462
0.0
453
        0
470

  0
SPLINE
  5
151
330
145
100
AcDbEntity
  8
レイヤー 1
100
AcDbSpline
210
0.0
220
0.0
230
1.0
 70
     9
 71
     3
 72
    17
 73
    13
 74
     0
 42
0.0000000001
 43
0.0000000001
 40
0.0
 40
0.0
 40
0.0
 40
0.0
 40
1.0
 40
1.0
 40
1.0
 40
2.0
 40
2.0
 40
2.0
 40
3.0
 40
3.0
 40
3.0
 40
4.0
 40
4.0
 40
4.0
 40
4.0
 10
114.3471977795729
 20
-157.2575845961023
 30
0.0
 10
114.5669948715318
 20
-157.3698947089214
 30
0.0
 10
114.8336452620902
 20
-157.4077907592591
 30
0.0
 10
114.9624918332385
 20
-157.4184705552634
 30
0.0
 10
114.9624918332385
 20
-157.4184705552634
 30
0.0
 10
114.8929009044365
 20
-157.5728108330026
 30
0.0
 10
114.8929009044365
 20
-157.5728108330026
 30
0.0
 10
114.7723225624527
 20
-157.557996922416
 30
0.0
 10
114.5098062864767
 20
-157.5176893052386
 30
0.0
 10
114.245567462758
 20
-157.3719617662125
 30
0.0
 10
114.245567462758
 20
-157.3719617662125
 30
0.0
 10
114.3471977795729
 20
-157.2575845961023
 30
0.0
 10
114.3471977795729
 20
-157.2575845961023
 30
0.0
  0
SPLINE
  5
152
330
145
100
AcDbEntity
  8
レイヤー 1
100
AcDbSpline
210
0.0
220
0.0
230
1.0
 70
    11
 71
     3
 72
    50
 73
    46
 74
     0
 42
0.0000000001
 43
0.0000000001
 40
0.0
 40
0.0
 40
0.0
 40
0.0
 40
1.0
 40
1.0
 40
1.0
 40
2.0
 40
2.0
 40
2.0
 40
3.0
 40
3.0
 40
3.0
 40
4.0
 40
4.0
 40
4.0
 40
5.0
 40
5.0
 40
5.0
 40
6.0
 40
6.0
 40
6.0
 40
7.0
 40
7.0
 40
7.0
 40
8.0
 40
8.0
 40
8.0
 40
9.0
 40
9.0
 40
9.0
 40
10.0
 40
10.0
 40
10.0
 40
11.0
 40
11.0
 40
11.0
 40
12.0
 40
12.0
 40
12.0
 40
13.0
 40
13.0
 40
13.0
 40
14.0
 40
14.0
 40
14.0
 40
15.0
 40
15.0
 40
15.0
 40
15.0
 10
114.2348876667538
 20
-155.9057291276902
 30
0.0
 10
114.2348876667538
 20
-155.9057291276902
 30
0.0
 10
114.9711045719516
 20
-155.9057291276902
 30
0.0
 10
114.9711045719516
 20
-155.9057291276902
 30
0.0
 10
114.9711045719516
 20
-155.9057291276902
 30
0.0
 10
114.9711045719516
 20
-156.0307860938048
 30
0.0
 10
114.9711045719516
 20
-156.0307860938048
 30
0.0
 10
114.9711045719516
 20
-156.0307860938048
 30
0.0
 10
114.6410644244647
 20
-156.0307860938048
 30
0.0
 10
114.6410644244647
 20
-156.0307860938048
 30
0.0
 10
114.6410644244647
 20
-156.0307860938048
 30
0.0
 10
114.6410644244647
 20
-156.3057047135277
 30
0.0
 10
114.6410644244647
 20
-156.3057047135277
 30
0.0
 10
114.6410644244647
 20
-156.3057047135277
 30
0.0
 10
114.4846570894344
 20
-156.3057047135277
 30
0.0
 10
114.4846570894344
 20
-156.3057047135277
 30
0.0
 10
114.4846570894344
 20
-156.3057047135277
 30
0.0
 10
114.4846570894344
 20
-156.0307860938048
 30
0.0
 10
114.4846570894344
 20
-156.0307860938048
 30
0.0
 10
114.4846570894344
 20
-156.0307860938048
 30
0.0
 10
114.2200737561672
 20
-156.0307860938048
 30
0.0
 10
114.2200737561672
 20
-156.0307860938048
 30
0.0
 10
114.1945800495763
 20
-156.1596326649531
 30
0.0
 10
114.1439371459432
 20
-156.2505831857637
 30
0.0
 10
114.0467854532591
 20
-156.3332654774097
 30
0.0
 10
114.0467854532591
 20
-156.3332654774097
 30
0.0
 10
113.9237955444357
 20
-156.2254339887214
 30
0.0
 10
113.9237955444357
 20
-156.2254339887214
 30
0.0
 10
114.059187797006
 20
-156.1151909331934
 30
0.0
 10
114.0826144463057
 20
-155.9777316233319
 30
0.0
 10
114.0826144463057
 20
-155.9036620703991
 30
0.0
 10
114.0826144463057
 20
-155.9036620703991
 30
0.0
 10
114.0826144463057
 20
-155.6604383291404
 30
0.0
 10
114.0826144463057
 20
-155.6604383291404
 30
0.0
 10
114.5521809609453
 20
-155.6604383291404
 30
0.0
 10
114.7192680919799
 20
-155.620130711963
 30
0.0
 10
114.8632730832633
 20
-155.5777560374944
 30
0.0
 10
114.8632730832633
 20
-155.5777560374944
 30
0.0
 10
114.9225287256096
 20
-155.7155598569044
 30
0.0
 10
114.9225287256096
 20
-155.7155598569044
 30
0.0
 10
114.651744220469
 20
-155.7851507857065
 30
0.0
 10
114.3365179835686
 20
-155.7896294098373
 30
0.0
 10
114.2348876667538
 20
-155.7896294098373
 30
0.0
 10
114.2348876667538
 20
-155.7896294098373
 30
0.0
 10
114.2348876667538
 20
-155.9057291276902
 30
0.0
 10
114.2348876667538
 20
-155.9057291276902
 30
0.0
  0
SPLINE
  5
153
330
145
100
AcDbEntity
  8
レイヤー 1
100
AcDbSpline
210
0.0
220
0.0
230
1.0
 70
    11
 71
     3
 72
    17
 73
    13
 74
     0
 42
0.0000000001
 43
0.0000000001
 40
0.0
 40
0.0
 40
0.0
 40
0.0
 40
1.0
 40
1.0
 40
1.0
 40
2.0
 40
2.0
 40
2.0
 40
3.0
 40
3.0
 40
3.0
 40
4.0
 40
4.0
 40
4.0
 40
4.0
 10
114.5711289861141
 20
-156.9761202949573
 30
0.0
 10
114.5711289861141
 20
-156.9761202949573
 30
0.0
 10
113.4118543553276
 20
-156.9761202949573
 30
0.0
 10
113.4118543553276
 20
-156.9761202949573
 30
0.0
 10
113.4118543553276
 20
-156.9761202949573
 30
0.0
 10
113.4118543553276
 20
-157.1159911716585
 30
0.0
 10
113.4118543553276
 20
-157.1159911716585
 30
0.0
 10
113.4118543553276
 20
-157.1159911716585
 30
0.0
 10
114.5711289861141
 20
-157.1159911716585
 30
0.0
 10
114.5711289861141
 20
-157.1159911716585
 30
0.0
 10
114.5711289861141
 20
-157.1159911716585
 30
0.0
 10
114.5711289861141
 20
-156.9761202949573
 30
0.0
 10
114.5711289861141
 20
-156.9761202949573
 30
0.0
  0
SPLINE
  5
154
330
145
100
AcDbEntity
  8
レイヤー 1
100
AcDbSpline
210
0.0
220
0.0
230
1.0
 70
    11
 71
     3
 72
    17
 73
    13
 74
     0
 42
0.0000000001
 43
0.0000000001
 40
0.0
 40
0.0
 40
0.0
 40
0.0
 40
1.0
 40
1.0
 40
1.0
 40
2.0
 40
2.0
 40
2.0
 40
3.0
 40
3.0
 40
3.0
 40
4.0
 40
4.0
 40
4.0
 40
4.0
 10
114.5711289861141
 20
-156.7246283245341
 30
0.0
 10
114.5711289861141
 20
-156.7246283245341
 30
0.0
 10
113.4118543553276
 20
-156.7246283245341
 30
0.0
 10
113.4118543553276
 20
-156.7246283245341
 30
0.0
 10
113.4118543553276
 20
-156.7246283245341
 30
0.0
 10
113.4118543553276
 20
-156.8662217489779
 30
0.0
 10
113.4118543553276
 20
-156.8662217489779
 30
0.0
 10
113.4118543553276
 20
-156.8662217489779
 30
0.0
 10
114.5711289861141
 20
-156.8662217489779
 30
0.0
 10
114.5711289861141
 20
-156.8662217489779
 30
0.0
 10
114.5711289861141
 20
-156.8662217489779
 30
0.0
 10
114.5711289861141
 20
-156.7246283245341
 30
0.0
 10
114.5711289861141
 20
-156.7246283245341
 30
0.0
  0
SPLINE
  5
155
330
145
100
AcDbEntity
  8
レイヤー 1
100
AcDbSpline
210
0.0
220
0.0
230
1.0
 70
    11
 71
     3
 72
    17
 73
    13
 74
     0
 42
0.0000000001
 43
0.0000000001
 40
0.0
 40
0.0
 40
0.0
 40
0.0
 40
1.0
 40
1.0
 40
1.0
 40
2.0
 40
2.0
 40
2.0
 40
3.0
 40
3.0
 40
3.0
 40
4.0
 40
4.0
 40
4.0
 40
4.0
 10
114.5711289861141
 20
-156.4855386978577
 30
0.0
 10
114.5711289861141
 20
-156.4855386978577
 30
0.0
 10
113.4118543553276
 20
-156.4855386978577
 30
0.0
 10
113.4118543553276
 20
-156.4855386978577
 30
0.0
 10
113.4118543553276
 20
-156.4855386978577
 30
0.0
 10
113.4118543553276
 20
-156.6143852690061
 30
0.0
 10
113.4118543553276
 20
-156.6143852690061
 30
0.0
 10
113.4118543553276
 20
-156.6143852690061
 30
0.0
 10
114.5711289861141
 20
-156.6143852690061
 30
0.0
 10
114.5711289861141
 20
-156.6143852690061
 30
0.0
 10
114.5711289861141
 20
-156.6143852690061
 30
0.0
 10
114.5711289861141
 20
-156.4855386978577
 30
0.0
 10
114.5711289861141
 20
-156.4855386978577
 30
0.0
  0
SPLINE
  5
156
330
145
100
AcDbEntity
  8
レイヤー 1
100
AcDbSpline
210
0.0
220
0.0
230
1.0
 70
    11
 71
     3
 72
    32
 73
    28
 74
     0
 42
0.0000000001
 43
0.0000000001
 40
0.0
 40
0.0
 40
0.0
 40
0.0
 40
1.0
 40
1.0
 40
1.0
 40
2.0
 40
2.0
 40
2.0
 40
3.0
 40
3.0
 40
3.0
 40
4.0
 40
4.0
 40
4.0
 40
5.0
 40
5.0
 40
5.0
 40
6.0
 40
6.0
 40
6.0
 40
7.0
 40
7.0
 40
7.0
 40
8.0
 40
8.0
 40
8.0
 40
9.0
 40
9.0
 40
9.0
 40
9.0
 10
113.2427001670018
 20
-157.2513834242288
 30
0.0
 10
113.2427001670018
 20
-157.2513834242288
 30
0.0
 10
113.2427001670018
 20
-156.3522135025786
 30
0.0
 10
113.2427001670018
 20
-156.3522135025786
 30
0.0
 10
113.2427001670018
 20
-156.3522135025786
 30
0.0
 10
114.7406276839884
 20
-156.3522135025786
 30
0.0
 10
114.7406276839884
 20
-156.3522135025786
 30
0.0
 10
114.7406276839884
 20
-156.3522135025786
 30
0.0
 10
114.7406276839884
 20
-157.2513834242288
 30
0.0
 10
114.7406276839884
 20
-157.2513834242288
 30
0.0
 10
114.7406276839884
 20
-157.2513834242288
 30
0.0
 10
113.5961669637884
 20
-157.2513834242288
 30
0.0
 10
113.5961669637884
 20
-157.2513834242288
 30
0.0
 10
113.5961669637884
 20
-157.2513834242288
 30
0.0
 10
113.7019313951856
 20
-157.3612819702083
 30
0.0
 10
113.7019313951856
 20
-157.3612819702083
 30
0.0
 10
113.5369113214421
 20
-157.4563666056012
 30
0.0
 10
113.3718912476987
 20
-157.5176893052386
 30
0.0
 10
113.0756130359672
 20
-157.5686767184203
 30
0.0
 10
113.0756130359672
 20
-157.5686767184203
 30
0.0
 10
113.0101562217474
 20
-157.4164034979722
 30
0.0
 10
113.0101562217474
 20
-157.4164034979722
 30
0.0
 10
113.3887722155764
 20
-157.3633490274994
 30
0.0
 10
113.5114176148513
 20
-157.2958251559885
 30
0.0
 10
113.5916883396576
 20
-157.2513834242288
 30
0.0
 10
113.5916883396576
 20
-157.2513834242288
 30
0.0
 10
113.2427001670018
 20
-157.2513834242288
 30
0.0
 10
113.2427001670018
 20
-157.2513834242288
 30
0.0
  0
SPLINE
  5
157
330
145
100
AcDbEntity
  8
レイヤー 1
100
AcDbSpline
210
0.0
220
0.0
230
1.0
 70
    11
 71
     3
 72
    50
 73
    46
 74
     0
 42
0.0000000001
 43
0.0000000001
 40
0.0
 40
0.0
 40
0.0
 40
0.0
 40
1.0
 40
1.0
 40
1.0
 40
2.0
 40
2.0
 40
2.0
 40
3.0
 40
3.0
 40
3.0
 40
4.0
 40
4.0
 40
4.0
 40
5.0
 40
5.0
 40
5.0
 40
6.0
 40
6.0
 40
6.0
 40
7.0
 40
7.0
 40
7.0
 40
8.0
 40
8.0
 40
8.0
 40
9.0
 40
9.0
 40
9.0
 40
10.0
 40
10.0
 40
10.0
 40
11.0
 40
11.0
 40
11.0
 40
12.0
 40
12.0
 40
12.0
 40
13.0
 40
13.0
 40
13.0
 40
14.0
 40
14.0
 40
14.0
 40
15.0
 40
15.0
 40
15.0
 40
15.0
 10
113.327449515939
 20
-155.9057291276902
 30
0.0
 10
113.327449515939
 20
-155.9057291276902
 30
0.0
 10
113.9789170721997
 20
-155.9057291276902
 30
0.0
 10
113.9789170721997
 20
-155.9057291276902
 30
0.0
 10
113.9789170721997
 20
-155.9057291276902
 30
0.0
 10
113.9789170721997
 20
-156.0307860938048
 30
0.0
 10
113.9789170721997
 20
-156.0307860938048
 30
0.0
 10
113.9789170721997
 20
-156.0307860938048
 30
0.0
 10
113.7019313951856
 20
-156.0307860938048
 30
0.0
 10
113.7019313951856
 20
-156.0307860938048
 30
0.0
 10
113.7019313951856
 20
-156.0307860938048
 30
0.0
 10
113.7019313951856
 20
-156.3057047135277
 30
0.0
 10
113.7019313951856
 20
-156.3057047135277
 30
0.0
 10
113.7019313951856
 20
-156.3057047135277
 30
0.0
 10
113.5410454360244
 20
-156.3057047135277
 30
0.0
 10
113.5410454360244
 20
-156.3057047135277
 30
0.0
 10
113.5410454360244
 20
-156.3057047135277
 30
0.0
 10
113.5410454360244
 20
-156.0307860938048
 30
0.0
 10
113.5410454360244
 20
-156.0307860938048
 30
0.0
 10
113.5410454360244
 20
-156.0307860938048
 30
0.0
 10
113.320903834517
 20
-156.0307860938048
 30
0.0
 10
113.320903834517
 20
-156.0307860938048
 30
0.0
 10
113.3105685480612
 20
-156.1003770226068
 30
0.0
 10
113.2850748414704
 20
-156.2950249175234
 30
0.0
 10
113.1307345637312
 20
-156.4452310806804
 30
0.0
 10
113.1307345637312
 20
-156.4452310806804
 30
0.0
 10
113.0080891644563
 20
-156.3353325347009
 30
0.0
 10
113.0080891644563
 20
-156.3353325347009
 30
0.0
 10
113.12866750644
 20
-156.2357692751771
 30
0.0
 10
113.1706976713601
 20
-156.0307860938048
 30
0.0
 10
113.1706976713601
 20
-155.9481038021588
 30
0.0
 10
113.1706976713601
 20
-155.9481038021588
 30
0.0
 10
113.1706976713601
 20
-155.6625053864316
 30
0.0
 10
113.1706976713601
 20
-155.6625053864316
 30
0.0
 10
113.6554226061347
 20
-155.6625053864316
 30
0.0
 10
113.8097628838739
 20
-155.6159965973807
 30
0.0
 10
113.9048475192668
 20
-155.5884358334987
 30
0.0
 10
113.9048475192668
 20
-155.5884358334987
 30
0.0
 10
113.9579019897397
 20
-155.7279622006513
 30
0.0
 10
113.9579019897397
 20
-155.7279622006513
 30
0.0
 10
113.7484401842365
 20
-155.7768825565419
 30
0.0
 10
113.5854871677842
 20
-155.7872178429976
 30
0.0
 10
113.327449515939
 20
-155.7916964671284
 30
0.0
 10
113.327449515939
 20
-155.7916964671284
 30
0.0
 10
113.327449515939
 20
-155.9057291276902
 30
0.0
 10
113.327449515939
 20
-155.9057291276902
 30
0.0
  0
HATCH
  5
158
330
145
100
AcDbEntity
  8
レイヤー 1
 62
    12
420
 15007762
440
 33554687
100
AcDbHatch
 10
0.0
 20
0.0
 30
0.0
210
0.0
220
0.0
230
1.0
  2
SOLID
 70
     1
 71
     1
 91
        7
 92
        1
 93
        1
 72
     4
 94
        3
 73
     0
 74
     0
 95
       17
 96
       13
 40
0.0
 40
0.0
 40
0.0
 40
0.0
 40
1.0
 40
1.0
 40
1.0
 40
2.0
 40
2.0
 40
2.0
 40
3.0
 40
3.0
 40
3.0
 40
4.0
 40
4.0
 40
4.0
 40
4.0
 10
114.3471977795729
 20
-157.2575845961023
 10
114.5669948715318
 20
-157.3698947089214
 10
114.8336452620902
 20
-157.4077907592591
 10
114.9624918332385
 20
-157.4184705552634
 10
114.9624918332385
 20
-157.4184705552634
 10
114.8929009044365
 20
-157.5728108330026
 10
114.8929009044365
 20
-157.5728108330026
 10
114.7723225624527
 20
-157.557996922416
 10
114.5098062864767
 20
-157.5176893052386
 10
114.245567462758
 20
-157.3719617662125
 10
114.245567462758
 20
-157.3719617662125
 10
114.3471977795729
 20
-157.2575845961023
 10
114.3471977795729
 20
-157.2575845961023
 97
        0
 97
        1
330
151
 92
        1
 93
        1
 72
     4
 94
        3
 73
     0
 74
     0
 95
       50
 96
       46
 40
0.0
 40
0.0
 40
0.0
 40
0.0
 40
1.0
 40
1.0
 40
1.0
 40
2.0
 40
2.0
 40
2.0
 40
3.0
 40
3.0
 40
3.0
 40
4.0
 40
4.0
 40
4.0
 40
5.0
 40
5.0
 40
5.0
 40
6.0
 40
6.0
 40
6.0
 40
7.0
 40
7.0
 40
7.0
 40
8.0
 40
8.0
 40
8.0
 40
9.0
 40
9.0
 40
9.0
 40
10.0
 40
10.0
 40
10.0
 40
11.0
 40
11.0
 40
11.0
 40
12.0
 40
12.0
 40
12.0
 40
13.0
 40
13.0
 40
13.0
 40
14.0
 40
14.0
 40
14.0
 40
15.0
 40
15.0
 40
15.0
 40
15.0
 10
114.2348876667538
 20
-155.9057291276902
 10
114.2348876667538
 20
-155.9057291276902
 10
114.9711045719516
 20
-155.9057291276902
 10
114.9711045719516
 20
-155.9057291276902
 10
114.9711045719516
 20
-155.9057291276902
 10
114.9711045719516
 20
-156.0307860938048
 10
114.9711045719516
 20
-156.0307860938048
 10
114.9711045719516
 20
-156.0307860938048
 10
114.6410644244647
 20
-156.0307860938048
 10
114.6410644244647
 20
-156.0307860938048
 10
114.6410644244647
 20
-156.0307860938048
 10
114.6410644244647
 20
-156.3057047135277
 10
114.6410644244647
 20
-156.3057047135277
 10
114.6410644244647
 20
-156.3057047135277
 10
114.4846570894344
 20
-156.3057047135277
 10
114.4846570894344
 20
-156.3057047135277
 10
114.4846570894344
 20
-156.3057047135277
 10
114.4846570894344
 20
-156.0307860938048
 10
114.4846570894344
 20
-156.0307860938048
 10
114.4846570894344
 20
-156.0307860938048
 10
114.2200737561672
 20
-156.0307860938048
 10
114.2200737561672
 20
-156.0307860938048
 10
114.1945800495763
 20
-156.1596326649531
 10
114.1439371459432
 20
-156.2505831857637
 10
114.0467854532591
 20
-156.3332654774097
 10
114.0467854532591
 20
-156.3332654774097
 10
113.9237955444357
 20
-156.2254339887214
 10
113.9237955444357
 20
-156.2254339887214
 10
114.059187797006
 20
-156.1151909331934
 10
114.0826144463057
 20
-155.9777316233319
 10
114.0826144463057
 20
-155.9036620703991
 10
114.0826144463057
 20
-155.9036620703991
 10
114.0826144463057
 20
-155.6604383291404
 10
114.0826144463057
 20
-155.6604383291404
 10
114.5521809609453
 20
-155.6604383291404
 10
114.7192680919799
 20
-155.620130711963
 10
114.8632730832633
 20
-155.5777560374944
 10
114.8632730832633
 20
-155.5777560374944
 10
114.9225287256096
 20
-155.7155598569044
 10
114.9225287256096
 20
-155.7155598569044
 10
114.651744220469
 20
-155.7851507857065
 10
114.3365179835686
 20
-155.7896294098373
 10
114.2348876667538
 20
-155.7896294098373
 10
114.2348876667538
 20
-155.7896294098373
 10
114.2348876667538
 20
-155.9057291276902
 10
114.2348876667538
 20
-155.9057291276902
 97
        0
 97
        1
330
152
 92
        1
 93
        1
 72
     4
 94
        3
 73
     0
 74
     0
 95
       17
 96
       13
 40
0.0
 40
0.0
 40
0.0
 40
0.0
 40
1.0
 40
1.0
 40
1.0
 40
2.0
 40
2.0
 40
2.0
 40
3.0
 40
3.0
 40
3.0
 40
4.0
 40
4.0
 40
4.0
 40
4.0
 10
114.5711289861141
 20
-156.9761202949573
 10
114.5711289861141
 20
-156.9761202949573
 10
113.4118543553276
 20
-156.9761202949573
 10
113.4118543553276
 20
-156.9761202949573
 10
113.4118543553276
 20
-156.9761202949573
 10
113.4118543553276
 20
-157.1159911716585
 10
113.4118543553276
 20
-157.1159911716585
 10
113.4118543553276
 20
-157.1159911716585
 10
114.5711289861141
 20
-157.1159911716585
 10
114.5711289861141
 20
-157.1159911716585
 10
114.5711289861141
 20
-157.1159911716585
 10
114.5711289861141
 20
-156.9761202949573
 10
114.5711289861141
 20
-156.9761202949573
 97
        0
 97
        1
330
153
 92
        1
 93
        1
 72
     4
 94
        3
 73
     0
 74
     0
 95
       17
 96
       13
 40
0.0
 40
0.0
 40
0.0
 40
0.0
 40
1.0
 40
1.0
 40
1.0
 40
2.0
 40
2.0
 40
2.0
 40
3.0
 40
3.0
 40
3.0
 40
4.0
 40
4.0
 40
4.0
 40
4.0
 10
114.5711289861141
 20
-156.7246283245341
 10
114.5711289861141
 20
-156.7246283245341
 10
113.4118543553276
 20
-156.7246283245341
 10
113.4118543553276
 20
-156.7246283245341
 10
113.4118543553276
 20
-156.7246283245341
 10
113.4118543553276
 20
-156.8662217489779
 10
113.4118543553276
 20
-156.8662217489779
 10
113.4118543553276
 20
-156.8662217489779
 10
114.5711289861141
 20
-156.8662217489779
 10
114.5711289861141
 20
-156.8662217489779
 10
114.5711289861141
 20
-156.8662217489779
 10
114.5711289861141
 20
-156.7246283245341
 10
114.5711289861141
 20
-156.7246283245341
 97
        0
 97
        1
330
154
 92
        1
 93
        1
 72
     4
 94
        3
 73
     0
 74
     0
 95
       17
 96
       13
 40
0.0
 40
0.0
 40
0.0
 40
0.0
 40
1.0
 40
1.0
 40
1.0
 40
2.0
 40
2.0
 40
2.0
 40
3.0
 40
3.0
 40
3.0
 40
4.0
 40
4.0
 40
4.0
 40
4.0
 10
114.5711289861141
 20
-156.4855386978577
 10
114.5711289861141
 20
-156.4855386978577
 10
113.4118543553276
 20
-156.4855386978577
 10
113.4118543553276
 20
-156.4855386978577
 10
113.4118543553276
 20
-156.4855386978577
 10
113.4118543553276
 20
-156.6143852690061
 10
113.4118543553276
 20
-156.6143852690061
 10
113.4118543553276
 20
-156.6143852690061
 10
114.5711289861141
 20
-156.6143852690061
 10
114.5711289861141
 20
-156.6143852690061
 10
114.5711289861141
 20
-156.6143852690061
 10
114.5711289861141
 20
-156.4855386978577
 10
114.5711289861141
 20
-156.4855386978577
 97
        0
 97
        1
330
155
 92
        1
 93
        1
 72
     4
 94
        3
 73
     0
 74
     0
 95
       32
 96
       28
 40
0.0
 40
0.0
 40
0.0
 40
0.0
 40
1.0
 40
1.0
 40
1.0
 40
2.0
 40
2.0
 40
2.0
 40
3.0
 40
3.0
 40
3.0
 40
4.0
 40
4.0
 40
4.0
 40
5.0
 40
5.0
 40
5.0
 40
6.0
 40
6.0
 40
6.0
 40
7.0
 40
7.0
 40
7.0
 40
8.0
 40
8.0
 40
8.0
 40
9.0
 40
9.0
 40
9.0
 40
9.0
 10
113.2427001670018
 20
-157.2513834242288
 10
113.2427001670018
 20
-157.2513834242288
 10
113.2427001670018
 20
-156.3522135025786
 10
113.2427001670018
 20
-156.3522135025786
 10
113.2427001670018
 20
-156.3522135025786
 10
114.7406276839884
 20
-156.3522135025786
 10
114.7406276839884
 20
-156.3522135025786
 10
114.7406276839884
 20
-156.3522135025786
 10
114.7406276839884
 20
-157.2513834242288
 10
114.7406276839884
 20
-157.2513834242288
 10
114.7406276839884
 20
-157.2513834242288
 10
113.5961669637884
 20
-157.2513834242288
 10
113.5961669637884
 20
-157.2513834242288
 10
113.5961669637884
 20
-157.2513834242288
 10
113.7019313951856
 20
-157.3612819702083
 10
113.7019313951856
 20
-157.3612819702083
 10
113.5369113214421
 20
-157.4563666056012
 10
113.3718912476987
 20
-157.5176893052386
 10
113.0756130359672
 20
-157.5686767184203
 10
113.0756130359672
 20
-157.5686767184203
 10
113.0101562217474
 20
-157.4164034979722
 10
113.0101562217474
 20
-157.4164034979722
 10
113.3887722155764
 20
-157.3633490274994
 10
113.5114176148513
 20
-157.2958251559885
 10
113.5916883396576
 20
-157.2513834242288
 10
113.5916883396576
 20
-157.2513834242288
 10
113.2427001670018
 20
-157.2513834242288
 10
113.2427001670018
 20
-157.2513834242288
 97
        0
 97
        1
330
156
 92
        1
 93
        1
 72
     4
 94
        3
 73
     0
 74
     0
 95
       50
 96
       46
 40
0.0
 40
0.0
 40
0.0
 40
0.0
 40
1.0
 40
1.0
 40
1.0
 40
2.0
 40
2.0
 40
2.0
 40
3.0
 40
3.0
 40
3.0
 40
4.0
 40
4.0
 40
4.0
 40
5.0
 40
5.0
 40
5.0
 40
6.0
 40
6.0
 40
6.0
 40
7.0
 40
7.0
 40
7.0
 40
8.0
 40
8.0
 40
8.0
 40
9.0
 40
9.0
 40
9.0
 40
10.0
 40
10.0
 40
10.0
 40
11.0
 40
11.0
 40
11.0
 40
12.0
 40
12.0
 40
12.0
 40
13.0
 40
13.0
 40
13.0
 40
14.0
 40
14.0
 40
14.0
 40
15.0
 40
15.0
 40
15.0
 40
15.0
 10
113.327449515939
 20
-155.9057291276902
 10
113.327449515939
 20
-155.9057291276902
 10
113.9789170721997
 20
-155.9057291276902
 10
113.9789170721997
 20
-155.9057291276902
 10
113.9789170721997
 20
-155.9057291276902
 10
113.9789170721997
 20
-156.0307860938048
 10
113.9789170721997
 20
-156.0307860938048
 10
113.9789170721997
 20
-156.0307860938048
 10
113.7019313951856
 20
-156.0307860938048
 10
113.7019313951856
 20
-156.0307860938048
 10
113.7019313951856
 20
-156.0307860938048
 10
113.7019313951856
 20
-156.3057047135277
 10
113.7019313951856
 20
-156.3057047135277
 10
113.7019313951856
 20
-156.3057047135277
 10
113.5410454360244
 20
-156.3057047135277
 10
113.5410454360244
 20
-156.3057047135277
 10
113.5410454360244
 20
-156.3057047135277
 10
113.5410454360244
 20
-156.0307860938048
 10
113.5410454360244
 20
-156.0307860938048
 10
113.5410454360244
 20
-156.0307860938048
 10
113.320903834517
 20
-156.0307860938048
 10
113.320903834517
 20
-156.0307860938048
 10
113.3105685480612
 20
-156.1003770226068
 10
113.2850748414704
 20
-156.2950249175234
 10
113.1307345637312
 20
-156.4452310806804
 10
113.1307345637312
 20
-156.4452310806804
 10
113.0080891644563
 20
-156.3353325347009
 10
113.0080891644563
 20
-156.3353325347009
 10
113.12866750644
 20
-156.2357692751771
 10
113.1706976713601
 20
-156.0307860938048
 10
113.1706976713601
 20
-155.9481038021588
 10
113.1706976713601
 20
-155.9481038021588
 10
113.1706976713601
 20
-155.6625053864316
 10
113.1706976713601
 20
-155.6625053864316
 10
113.6554226061347
 20
-155.6625053864316
 10
113.8097628838739
 20
-155.6159965973807
 10
113.9048475192668
 20
-155.5884358334987
 10
113.9048475192668
 20
-155.5884358334987
 10
113.9579019897397
 20
-155.7279622006513
 10
113.9579019897397
 20
-155.7279622006513
 10
113.7484401842365
 20
-155.7768825565419
 10
113.5854871677842
 20
-155.7872178429976
 10
113.327449515939
 20
-155.7916964671284
 10
113.327449515939
 20
-155.7916964671284
 10
113.327449515939
 20
-155.9057291276902
 10
113.327449515939
 20
-155.9057291276902
 97
        0
 97
        1
330
157
 75
     2
 76
     1
 98
        1
 10
0.0
 20
0.0
450
        0
451
        0
460
0.0
461
0.0
452
        0
462
0.0
453
        0
470

  0
ENDBLK
  5
148
330
145
100
AcDbEntity
  8
0
100
AcDbBlockEnd
  0
BLOCK
  5
15B
330
159
100
AcDbEntity
  8
0
100
AcDbBlockBegin
  2
Block_14
 70
     0
 10
0.0
 20
0.0
 30
0.0
  3
Block_14
  1

  0
INSERT
  5
15E
330
159
100
AcDbEntity
  8
レイヤー 1
100
AcDbBlockReference
  2
Block_15
 10
0.0
 20
0.0
 30
0.0
  0
ENDBLK
  5
15C
330
159
100
AcDbEntity
  8
0
100
AcDbBlockEnd
  0
BLOCK
  5
15F
330
15D
100
AcDbEntity
  8
0
100
AcDbBlockBegin
  2
Block_15
 70
     0
 10
0.0
 20
0.0
 30
0.0
  3
Block_15
  1

  0
SPLINE
  5
161
330
15D
100
AcDbEntity
  8
レイヤー 1
100
AcDbSpline
210
0.0
220
0.0
230
1.0
 70
     9
 71
     3
 72
    17
 73
    13
 74
     0
 42
0.0000000001
 43
0.0000000001
 40
0.0
 40
0.0
 40
0.0
 40
0.0
 40
1.0
 40
1.0
 40
1.0
 40
2.0
 40
2.0
 40
2.0
 40
3.0
 40
3.0
 40
3.0
 40
4.0
 40
4.0
 40
4.0
 40
4.0
 10
123.6823730159544
 20
-153.6671060813749
 30
0.0
 10
123.6654920480767
 20
-153.696733902548
 30
0.0
 10
123.6148491444435
 20
-153.7897514806498
 30
0.0
 10
123.6041693484392
 20
-153.8086995058186
 30
0.0
 10
123.7946831287735
 20
-153.8679551481649
 30
0.0
 10
123.8156982112336
 20
-153.8745008295869
 30
0.0
 10
123.8877007068753
 20
-153.9020615934689
 30
0.0
 10
123.9428222346393
 20
-153.8152451872406
 30
0.0
 10
123.9659043743905
 20
-153.7411756343078
 30
0.0
 10
123.980718284977
 20
-153.6671060813749
 30
0.0
 10
123.980718284977
 20
-153.6671060813749
 30
0.0
 10
123.6823730159544
 20
-153.6671060813749
 30
0.0
 10
123.6823730159544
 20
-153.6671060813749
 30
0.0
  0
SPLINE
  5
162
330
15D
100
AcDbEntity
  8
レイヤー 1
100
AcDbSpline
210
0.0
220
0.0
230
1.0
 70
    11
 71
     3
 72
    20
 73
    16
 74
     0
 42
0.0000000001
 43
0.0000000001
 40
0.0
 40
0.0
 40
0.0
 40
0.0
 40
1.0
 40
1.0
 40
1.0
 40
2.0
 40
2.0
 40
2.0
 40
3.0
 40
3.0
 40
3.0
 40
4.0
 40
4.0
 40
4.0
 40
5.0
 40
5.0
 40
5.0
 40
5.0
 10
123.6189832590258
 20
-152.8165120060667
 30
0.0
 10
123.6189832590258
 20
-152.8165120060667
 30
0.0
 10
123.5872883805615
 20
-152.8165120060667
 30
0.0
 10
123.5872883805615
 20
-152.8165120060667
 30
0.0
 10
123.6337971696124
 20
-152.9160752655904
 30
0.0
 10
123.6654920480767
 20
-152.9963459903967
 30
0.0
 10
123.6992539838321
 20
-153.1234700138024
 30
0.0
 10
123.6992539838321
 20
-153.1234700138024
 30
0.0
 10
123.9066487320442
 20
-153.1234700138024
 30
0.0
 10
123.9066487320442
 20
-153.1234700138024
 30
0.0
 10
123.9383436105084
 20
-153.0304524357007
 30
0.0
 10
123.9617702598081
 20
-152.9457030867636
 30
0.0
 10
123.9848523995593
 20
-152.8165120060667
 30
0.0
 10
123.9848523995593
 20
-152.8165120060667
 30
0.0
 10
123.6189832590258
 20
-152.8165120060667
 30
0.0
 10
123.6189832590258
 20
-152.8165120060667
 30
0.0
  0
SPLINE
  5
163
330
15D
100
AcDbEntity
  8
レイヤー 1
100
AcDbSpline
210
0.0
220
0.0
230
1.0
 70
     9
 71
     3
 72
   242
 73
   238
 74
     0
 42
0.0000000001
 43
0.0000000001
 40
0.0
 40
0.0
 40
0.0
 40
0.0
 40
1.0
 40
1.0
 40
1.0
 40
2.0
 40
2.0
 40
2.0
 40
3.0
 40
3.0
 40
3.0
 40
4.0
 40
4.0
 40
4.0
 40
5.0
 40
5.0
 40
5.0
 40
6.0
 40
6.0
 40
6.0
 40
7.0
 40
7.0
 40
7.0
 40
8.0
 40
8.0
 40
8.0
 40
9.0
 40
9.0
 40
9.0
 40
10.0
 40
10.0
 40
10.0
 40
11.0
 40
11.0
 40
11.0
 40
12.0
 40
12.0
 40
12.0
 40
13.0
 40
13.0
 40
13.0
 40
14.0
 40
14.0
 40
14.0
 40
15.0
 40
15.0
 40
15.0
 40
16.0
 40
16.0
 40
16.0
 40
17.0
 40
17.0
 40
17.0
 40
18.0
 40
18.0
 40
18.0
 40
19.0
 40
19.0
 40
19.0
 40
20.0
 40
20.0
 40
20.0
 40
21.0
 40
21.0
 40
21.0
 40
22.0
 40
22.0
 40
22.0
 40
23.0
 40
23.0
 40
23.0
 40
24.0
 40
24.0
 40
24.0
 40
25.0
 40
25.0
 40
25.0
 40
26.0
 40
26.0
 40
26.0
 40
27.0
 40
27.0
 40
27.0
 40
28.0
 40
28.0
 40
28.0
 40
29.0
 40
29.0
 40
29.0
 40
30.0
 40
30.0
 40
30.0
 40
31.0
 40
31.0
 40
31.0
 40
32.0
 40
32.0
 40
32.0
 40
33.0
 40
33.0
 40
33.0
 40
34.0
 40
34.0
 40
34.0
 40
35.0
 40
35.0
 40
35.0
 40
36.0
 40
36.0
 40
36.0
 40
37.0
 40
37.0
 40
37.0
 40
38.0
 40
38.0
 40
38.0
 40
39.0
 40
39.0
 40
39.0
 40
40.0
 40
40.0
 40
40.0
 40
41.0
 40
41.0
 40
41.0
 40
42.0
 40
42.0
 40
42.0
 40
43.0
 40
43.0
 40
43.0
 40
44.0
 40
44.0
 40
44.0
 40
45.0
 40
45.0
 40
45.0
 40
46.0
 40
46.0
 40
46.0
 40
47.0
 40
47.0
 40
47.0
 40
48.0
 40
48.0
 40
48.0
 40
49.0
 40
49.0
 40
49.0
 40
50.0
 40
50.0
 40
50.0
 40
51.0
 40
51.0
 40
51.0
 40
52.0
 40
52.0
 40
52.0
 40
53.0
 40
53.0
 40
53.0
 40
54.0
 40
54.0
 40
54.0
 40
55.0
 40
55.0
 40
55.0
 40
56.0
 40
56.0
 40
56.0
 40
57.0
 40
57.0
 40
57.0
 40
58.0
 40
58.0
 40
58.0
 40
59.0
 40
59.0
 40
59.0
 40
60.0
 40
60.0
 40
60.0
 40
61.0
 40
61.0
 40
61.0
 40
62.0
 40
62.0
 40
62.0
 40
63.0
 40
63.0
 40
63.0
 40
64.0
 40
64.0
 40
64.0
 40
65.0
 40
65.0
 40
65.0
 40
66.0
 40
66.0
 40
66.0
 40
67.0
 40
67.0
 40
67.0
 40
68.0
 40
68.0
 40
68.0
 40
69.0
 40
69.0
 40
69.0
 40
70.0
 40
70.0
 40
70.0
 40
71.0
 40
71.0
 40
71.0
 40
72.0
 40
72.0
 40
72.0
 40
73.0
 40
73.0
 40
73.0
 40
74.0
 40
74.0
 40
74.0
 40
75.0
 40
75.0
 40
75.0
 40
76.0
 40
76.0
 40
76.0
 40
77.0
 40
77.0
 40
77.0
 40
78.0
 40
78.0
 40
78.0
 40
79.0
 40
79.0
 40
79.0
 40
79.0
 10
124.2473686755354
 20
-153.2819444061239
 30
0.0
 10
124.2473686755354
 20
-153.2819444061239
 30
0.0
 10
123.9934651382724
 20
-153.2819444061239
 30
0.0
 10
123.9934651382724
 20
-153.2819444061239
 30
0.0
 10
123.9934651382724
 20
-153.2819444061239
 30
0.0
 10
123.7164794612584
 20
-153.2819444061239
 30
0.0
 10
123.7164794612584
 20
-153.2819444061239
 30
0.0
 10
123.7164794612584
 20
-153.2819444061239
 30
0.0
 10
123.8432589751155
 20
-153.3243190805925
 30
0.0
 10
123.8432589751155
 20
-153.3243190805925
 30
0.0
 10
123.8539387711198
 20
-153.3287977047234
 30
0.0
 10
123.8663411148667
 20
-153.3349988765968
 30
0.0
 10
123.8663411148667
 20
-153.3477457298922
 30
0.0
 10
123.8663411148667
 20
-153.3687608123522
 30
0.0
 10
123.8346462364024
 20
-153.3753064937742
 30
0.0
 10
123.8136311539424
 20
-153.3794406083565
 30
0.0
 10
123.8029513579381
 20
-153.4025227481077
 30
0.0
 10
123.773323536765
 20
-153.468324071876
 30
0.0
 10
123.7543755115961
 20
-153.5127658036357
 30
0.0
 10
123.7543755115961
 20
-153.5127658036357
 30
0.0
 10
124.0251600167368
 20
-153.5127658036357
 30
0.0
 10
124.0251600167368
 20
-153.5127658036357
 30
0.0
 10
124.1161105375473
 20
-153.5127658036357
 30
0.0
 10
124.3128254897551
 20
-153.5082871795049
 30
0.0
 10
124.4547634237474
 20
-153.5000189503403
 30
0.0
 10
124.4547634237474
 20
-153.5000189503403
 30
0.0
 10
124.4547634237474
 20
-153.6777858773791
 30
0.0
 10
124.4547634237474
 20
-153.6777858773791
 30
0.0
 10
124.3720811321014
 20
-153.6733072532483
 30
0.0
 10
124.3510660496414
 20
-153.6733072532483
 30
0.0
 10
124.1712320653113
 20
-153.669173138666
 30
0.0
 10
124.139537186847
 20
-153.8235134164052
 30
0.0
 10
124.0950954550873
 20
-153.9041286507601
 30
0.0
 10
124.0506537233276
 20
-153.9737195795621
 30
0.0
 10
124.1712320653113
 20
-154.0329752219084
 30
0.0
 10
124.2769964967085
 20
-154.1008436029678
 30
0.0
 10
124.3806938708145
 20
-154.1831813850653
 30
0.0
 10
124.3806938708145
 20
-154.1831813850653
 30
0.0
 10
124.2621825861219
 20
-154.3502685160999
 30
0.0
 10
124.2621825861219
 20
-154.3502685160999
 30
0.0
 10
124.2387559368222
 20
-154.331320490931
 30
0.0
 10
124.2260090835268
 20
-154.3230522617664
 30
0.0
 10
124.1140434802562
 20
-154.2383029128293
 30
0.0
 10
124.0654676339142
 20
-154.200062352943
 30
0.0
 10
124.0062119915679
 20
-154.1642333598964
 30
0.0
 10
123.925596757213
 20
-154.1197916281367
 30
0.0
 10
123.7140678944187
 20
-154.3058267843402
 30
0.0
 10
123.5090847130463
 20
-154.3292534336399
 30
0.0
 10
123.2190076731883
 20
-154.358881254813
 30
0.0
 10
123.2190076731883
 20
-154.358881254813
 30
0.0
 10
123.1156548086308
 20
-154.179047270483
 30
0.0
 10
123.1156548086308
 20
-154.179047270483
 30
0.0
 10
123.4329481028223
 20
-154.1749131559007
 30
0.0
 10
123.6083034630215
 20
-154.1494194493099
 30
0.0
 10
123.7605766834696
 20
-154.0395209033304
 30
0.0
 10
123.6424099083255
 20
-153.9885334901487
 30
0.0
 10
123.553526444806
 20
-153.9613172358152
 30
0.0
 10
123.5173529422109
 20
-153.9485703825198
 30
0.0
 10
123.498404917042
 20
-153.9761311464018
 30
0.0
 10
123.4835910064555
 20
-153.9950791715707
 30
0.0
 10
123.4560302425735
 20
-154.0288411073261
 30
0.0
 10
123.4560302425735
 20
-154.0288411073261
 30
0.0
 10
123.2593152903657
 20
-153.9465033252286
 30
0.0
 10
123.2593152903657
 20
-153.9465033252286
 30
0.0
 10
123.3419975820117
 20
-153.8658880908738
 30
0.0
 10
123.4033202816491
 20
-153.7708034554809
 30
0.0
 10
123.4605088667043
 20
-153.669173138666
 30
0.0
 10
123.26999508637
 20
-153.6733072532483
 30
0.0
 10
123.2486354943614
 20
-153.6733072532483
 30
0.0
 10
123.166297712264
 20
-153.6777858773791
 30
0.0
 10
123.166297712264
 20
-153.6777858773791
 30
0.0
 10
123.166297712264
 20
-153.5000189503403
 30
0.0
 10
123.166297712264
 20
-153.5000189503403
 30
0.0
 10
123.3058240794166
 20
-153.5062201222137
 30
0.0
 10
123.5152858849198
 20
-153.5106987463445
 30
0.0
 10
123.5407795915106
 20
-153.5106987463445
 30
0.0
 10
123.5576605593883
 20
-153.4765923010406
 30
0.0
 10
123.6127820871523
 20
-153.3560139590568
 30
0.0
 10
123.6317301123212
 20
-153.2819444061239
 30
0.0
 10
123.6127820871523
 20
-153.2819444061239
 30
0.0
 10
123.4350151601135
 20
-153.2884900875459
 30
0.0
 10
123.2403672651968
 20
-153.3012369408413
 30
0.0
 10
123.2403672651968
 20
-153.3012369408413
 30
0.0
 10
123.2403672651968
 20
-153.4345621361205
 30
0.0
 10
123.2403672651968
 20
-153.4345621361205
 30
0.0
 10
123.1917914188548
 20
-153.4597113331628
 30
0.0
 10
123.1325357765085
 20
-153.4914062116271
 30
0.0
 10
122.9992105812293
 20
-153.5572075353954
 30
0.0
 10
122.9992105812293
 20
-153.5572075353954
 30
0.0
 10
122.9992105812293
 20
-153.7029350744215
 30
0.0
 10
122.9992105812293
 20
-153.7029350744215
 30
0.0
 10
122.9992105812293
 20
-153.7029350744215
 30
0.0
 10
122.9992105812293
 20
-154.1704345317699
 30
0.0
 10
122.9992105812293
 20
-154.1704345317699
 30
0.0
 10
122.9992105812293
 20
-154.2975585551756
 30
0.0
 10
122.9630370786342
 20
-154.3568141975219
 30
0.0
 10
122.6798502297467
 20
-154.3482014588088
 30
0.0
 10
122.6798502297467
 20
-154.3482014588088
 30
0.0
 10
122.5761528556407
 20
-154.1411512201453
 30
0.0
 10
122.5761528556407
 20
-154.1411512201453
 30
0.0
 10
122.6395426125693
 20
-154.1535535638921
 30
0.0
 10
122.6881184589113
 20
-154.158032188023
 30
0.0
 10
122.7284260760887
 20
-154.158032188023
 30
0.0
 10
122.8045626863127
 20
-154.158032188023
 30
0.0
 10
122.815242482317
 20
-154.1346055387233
 30
0.0
 10
122.815242482317
 20
-154.0691487245035
 30
0.0
 10
122.815242482317
 20
-154.0691487245035
 30
0.0
 10
122.815242482317
 20
-153.6395453174929
 30
0.0
 10
122.815242482317
 20
-153.6395453174929
 30
0.0
 10
122.7177462800844
 20
-153.6798529346703
 30
0.0
 10
122.7008653122067
 20
-153.6860541065437
 30
0.0
 10
122.6543565231558
 20
-153.7053466412612
 30
0.0
 10
122.6502224085735
 20
-153.7263617237212
 30
0.0
 10
122.6457437844427
 20
-153.7559895448943
 30
0.0
 10
122.6267957592738
 20
-153.7559895448943
 30
0.0
 10
122.6185275301092
 20
-153.7559895448943
 30
0.0
 10
122.607847734105
 20
-153.751855430312
 30
0.0
 10
122.601302052683
 20
-153.7284287810123
 30
0.0
 10
122.601302052683
 20
-153.7284287810123
 30
0.0
 10
122.5485920917587
 20
-153.5358479433869
 30
0.0
 10
122.5485920917587
 20
-153.5358479433869
 30
0.0
 10
122.6946641403333
 20
-153.489339154336
 30
0.0
 10
122.760120954553
 20
-153.4662570145848
 30
0.0
 10
122.815242482317
 20
-153.4448974225762
 30
0.0
 10
122.815242482317
 20
-153.4448974225762
 30
0.0
 10
122.815242482317
 20
-153.0325194929918
 30
0.0
 10
122.815242482317
 20
-153.0325194929918
 30
0.0
 10
122.815242482317
 20
-153.0325194929918
 30
0.0
 10
122.7621880118441
 20
-153.0325194929918
 30
0.0
 10
122.7621880118441
 20
-153.0325194929918
 30
0.0
 10
122.7621880118441
 20
-153.0325194929918
 30
0.0
 10
122.683984344329
 20
-153.0325194929918
 30
0.0
 10
122.683984344329
 20
-153.0325194929918
 30
0.0
 10
122.6161159632696
 20
-153.0325194929918
 30
0.0
 10
122.607847734105
 20
-153.0325194929918
 30
0.0
 10
122.5716742315098
 20
-153.0387206648653
 30
0.0
 10
122.5716742315098
 20
-153.0387206648653
 30
0.0
 10
122.5716742315098
 20
-152.8440727699487
 30
0.0
 10
122.5716742315098
 20
-152.8440727699487
 30
0.0
 10
122.5992349953918
 20
-152.8506184513707
 30
0.0
 10
122.607847734105
 20
-152.8506184513707
 30
0.0
 10
122.677438662907
 20
-152.8506184513707
 30
0.0
 10
122.677438662907
 20
-152.8506184513707
 30
0.0
 10
122.8107638581862
 20
-152.8506184513707
 30
0.0
 10
122.8107638581862
 20
-152.8506184513707
 30
0.0
 10
122.8107638581862
 20
-152.7806830130201
 30
0.0
 10
122.8107638581862
 20
-152.6983452309226
 30
0.0
 10
122.808696800895
 20
-152.6938666067918
 30
0.0
 10
122.8004285717304
 20
-152.5140326224617
 30
0.0
 10
122.8004285717304
 20
-152.4950845972929
 30
0.0
 10
122.7980170048908
 20
-152.448575808242
 30
0.0
 10
122.7980170048908
 20
-152.448575808242
 30
0.0
 10
123.0140244918159
 20
-152.4571885469551
 30
0.0
 10
123.0140244918159
 20
-152.4571885469551
 30
0.0
 10
123.0247042878202
 20
-152.4571885469551
 30
0.0
 10
123.0457193702802
 20
-152.4592556042463
 30
0.0
 10
123.0457193702802
 20
-152.476136572124
 30
0.0
 10
123.0457193702802
 20
-152.4950845972929
 30
0.0
 10
123.0309054596936
 20
-152.5057643932971
 30
0.0
 10
123.0054117531028
 20
-152.524712418466
 30
0.0
 10
123.0054117531028
 20
-152.5753553220992
 30
0.0
 10
122.9992105812293
 20
-152.8041096623198
 30
0.0
 10
123.0012776385205
 20
-152.8506184513707
 30
0.0
 10
123.1304687192174
 20
-152.8506184513707
 30
0.0
 10
123.1428710629643
 20
-152.8506184513707
 30
0.0
 10
123.2403672651968
 20
-152.8420057126576
 30
0.0
 10
123.2403672651968
 20
-152.8420057126576
 30
0.0
 10
123.2403672651968
 20
-153.0366536075742
 30
0.0
 10
123.2403672651968
 20
-153.0366536075742
 30
0.0
 10
123.2021267053106
 20
-153.034586550283
 30
0.0
 10
123.1346028337997
 20
-153.0304524357007
 30
0.0
 10
122.9992105812293
 20
-153.0325194929918
 30
0.0
 10
122.9992105812293
 20
-153.0325194929918
 30
0.0
 10
122.9992105812293
 20
-153.3708278696434
 30
0.0
 10
122.9992105812293
 20
-153.3708278696434
 30
0.0
 10
123.0539875994448
 20
-153.3477457298922
 30
0.0
 10
123.1197889232131
 20
-153.3201849660102
 30
0.0
 10
123.1683647695551
 20
-153.2967583167105
 30
0.0
 10
123.1683647695551
 20
-153.2967583167105
 30
0.0
 10
123.1683647695551
 20
-153.1193358992202
 30
0.0
 10
123.1683647695551
 20
-153.1193358992202
 30
0.0
 10
123.2827419396654
 20
-153.131738242967
 30
0.0
 10
123.401253224358
 20
-153.131738242967
 30
0.0
 10
123.5173529422109
 20
-153.131738242967
 30
0.0
 10
123.4942708024597
 20
-153.0366536075742
 30
0.0
 10
123.4667100385777
 20
-152.9543158254767
 30
0.0
 10
123.4033202816491
 20
-152.8209906301975
 30
0.0
 10
123.3588785498894
 20
-152.8230576874887
 30
0.0
 10
123.2761962582434
 20
-152.827191802071
 30
0.0
 10
123.2383002079057
 20
-152.8292588593621
 30
0.0
 10
123.2383002079057
 20
-152.8292588593621
 30
0.0
 10
123.2383002079057
 20
-152.6494248750321
 30
0.0
 10
123.2383002079057
 20
-152.6494248750321
 30
0.0
 10
123.3630126644717
 20
-152.6580376137452
 30
0.0
 10
123.5366454769283
 20
-152.6621717283275
 30
0.0
 10
123.6189832590258
 20
-152.6621717283275
 30
0.0
 10
123.6189832590258
 20
-152.6621717283275
 30
0.0
 10
123.7016655506718
 20
-152.6621717283275
 30
0.0
 10
123.7016655506718
 20
-152.6621717283275
 30
0.0
 10
123.7016655506718
 20
-152.4992187118752
 30
0.0
 10
123.7016655506718
 20
-152.4888834254194
 30
0.0
 10
123.6992539838321
 20
-152.4337618976554
 30
0.0
 10
123.6992539838321
 20
-152.4337618976554
 30
0.0
 10
123.9235296999219
 20
-152.4592556042463
 30
0.0
 10
123.9235296999219
 20
-152.4592556042463
 30
0.0
 10
123.9280083240527
 20
-152.4592556042463
 30
0.0
 10
123.9490234065127
 20
-152.4613226615374
 30
0.0
 10
123.9490234065127
 20
-152.4782036294152
 30
0.0
 10
123.9490234065127
 20
-152.4930175400017
 30
0.0
 10
123.9383436105084
 20
-152.5016302787149
 30
0.0
 10
123.9107828466265
 20
-152.5164441893014
 30
0.0
 10
123.904581674753
 20
-152.5819010035212
 30
0.0
 10
123.9025146174618
 20
-152.6029160859812
 30
0.0
 10
123.9025146174618
 20
-152.6621717283275
 30
0.0
 10
123.9025146174618
 20
-152.6621717283275
 30
0.0
 10
123.9975992528547
 20
-152.6621717283275
 30
0.0
 10
123.9975992528547
 20
-152.6621717283275
 30
0.0
 10
124.0802815445007
 20
-152.6621717283275
 30
0.0
 10
124.2535698474088
 20
-152.6580376137452
 30
0.0
 10
124.3786268135234
 20
-152.6494248750321
 30
0.0
 10
124.3786268135234
 20
-152.6494248750321
 30
0.0
 10
124.3786268135234
 20
-152.8292588593621
 30
0.0
 10
124.3786268135234
 20
-152.8292588593621
 30
0.0
 10
124.3489989923502
 20
-152.827191802071
 30
0.0
 10
124.2304877076576
 20
-152.8230576874887
 30
0.0
 10
124.1901800904802
 20
-152.8209906301975
 30
0.0
 10
124.1753661798936
 20
-152.8716335338307
 30
0.0
 10
124.1416042441382
 20
-152.9839436466498
 30
0.0
 10
124.0758029203699
 20
-153.1234700138024
 30
0.0
 10
124.1181775948385
 20
-153.1234700138024
 30
0.0
 10
124.3955077814011
 20
-153.1045219886336
 30
0.0
 10
124.4568304810385
 20
-153.1021104217939
 30
0.0
 10
124.4568304810385
 20
-153.1021104217939
 30
0.0
 10
124.4568304810385
 20
-153.2864230302548
 30
0.0
 10
124.4568304810385
 20
-153.2864230302548
 30
0.0
 10
124.4272026598654
 20
-153.2864230302548
 30
0.0
 10
124.4103216919877
 20
-153.2819444061239
 30
0.0
 10
124.2473686755354
 20
-153.2819444061239
 30
0.0
  0
HATCH
  5
164
330
15D
100
AcDbEntity
  8
レイヤー 1
 62
    18
420
        0
440
 33554687
100
AcDbHatch
 10
0.0
 20
0.0
 30
0.0
210
0.0
220
0.0
230
1.0
  2
SOLID
 70
     1
 71
     1
 91
        3
 92
        1
 93
        1
 72
     4
 94
        3
 73
     0
 74
     0
 95
       17
 96
       13
 40
0.0
 40
0.0
 40
0.0
 40
0.0
 40
1.0
 40
1.0
 40
1.0
 40
2.0
 40
2.0
 40
2.0
 40
3.0
 40
3.0
 40
3.0
 40
4.0
 40
4.0
 40
4.0
 40
4.0
 10
123.6823730159544
 20
-153.6671060813749
 10
123.6654920480767
 20
-153.696733902548
 10
123.6148491444435
 20
-153.7897514806498
 10
123.6041693484392
 20
-153.8086995058186
 10
123.7946831287735
 20
-153.8679551481649
 10
123.8156982112336
 20
-153.8745008295869
 10
123.8877007068753
 20
-153.9020615934689
 10
123.9428222346393
 20
-153.8152451872406
 10
123.9659043743905
 20
-153.7411756343078
 10
123.980718284977
 20
-153.6671060813749
 10
123.980718284977
 20
-153.6671060813749
 10
123.6823730159544
 20
-153.6671060813749
 10
123.6823730159544
 20
-153.6671060813749
 97
        0
 97
        1
330
161
 92
        1
 93
        1
 72
     4
 94
        3
 73
     0
 74
     0
 95
       20
 96
       16
 40
0.0
 40
0.0
 40
0.0
 40
0.0
 40
1.0
 40
1.0
 40
1.0
 40
2.0
 40
2.0
 40
2.0
 40
3.0
 40
3.0
 40
3.0
 40
4.0
 40
4.0
 40
4.0
 40
5.0
 40
5.0
 40
5.0
 40
5.0
 10
123.6189832590258
 20
-152.8165120060667
 10
123.6189832590258
 20
-152.8165120060667
 10
123.5872883805615
 20
-152.8165120060667
 10
123.5872883805615
 20
-152.8165120060667
 10
123.6337971696124
 20
-152.9160752655904
 10
123.6654920480767
 20
-152.9963459903967
 10
123.6992539838321
 20
-153.1234700138024
 10
123.6992539838321
 20
-153.1234700138024
 10
123.9066487320442
 20
-153.1234700138024
 10
123.9066487320442
 20
-153.1234700138024
 10
123.9383436105084
 20
-153.0304524357007
 10
123.9617702598081
 20
-152.9457030867636
 10
123.9848523995593
 20
-152.8165120060667
 10
123.9848523995593
 20
-152.8165120060667
 10
123.6189832590258
 20
-152.8165120060667
 10
123.6189832590258
 20
-152.8165120060667
 97
        0
 97
        1
330
162
 92
        1
 93
        1
 72
     4
 94
        3
 73
     0
 74
     0
 95
      242
 96
      238
 40
0.0
 40
0.0
 40
0.0
 40
0.0
 40
1.0
 40
1.0
 40
1.0
 40
2.0
 40
2.0
 40
2.0
 40
3.0
 40
3.0
 40
3.0
 40
4.0
 40
4.0
 40
4.0
 40
5.0
 40
5.0
 40
5.0
 40
6.0
 40
6.0
 40
6.0
 40
7.0
 40
7.0
 40
7.0
 40
8.0
 40
8.0
 40
8.0
 40
9.0
 40
9.0
 40
9.0
 40
10.0
 40
10.0
 40
10.0
 40
11.0
 40
11.0
 40
11.0
 40
12.0
 40
12.0
 40
12.0
 40
13.0
 40
13.0
 40
13.0
 40
14.0
 40
14.0
 40
14.0
 40
15.0
 40
15.0
 40
15.0
 40
16.0
 40
16.0
 40
16.0
 40
17.0
 40
17.0
 40
17.0
 40
18.0
 40
18.0
 40
18.0
 40
19.0
 40
19.0
 40
19.0
 40
20.0
 40
20.0
 40
20.0
 40
21.0
 40
21.0
 40
21.0
 40
22.0
 40
22.0
 40
22.0
 40
23.0
 40
23.0
 40
23.0
 40
24.0
 40
24.0
 40
24.0
 40
25.0
 40
25.0
 40
25.0
 40
26.0
 40
26.0
 40
26.0
 40
27.0
 40
27.0
 40
27.0
 40
28.0
 40
28.0
 40
28.0
 40
29.0
 40
29.0
 40
29.0
 40
30.0
 40
30.0
 40
30.0
 40
31.0
 40
31.0
 40
31.0
 40
32.0
 40
32.0
 40
32.0
 40
33.0
 40
33.0
 40
33.0
 40
34.0
 40
34.0
 40
34.0
 40
35.0
 40
35.0
 40
35.0
 40
36.0
 40
36.0
 40
36.0
 40
37.0
 40
37.0
 40
37.0
 40
38.0
 40
38.0
 40
38.0
 40
39.0
 40
39.0
 40
39.0
 40
40.0
 40
40.0
 40
40.0
 40
41.0
 40
41.0
 40
41.0
 40
42.0
 40
42.0
 40
42.0
 40
43.0
 40
43.0
 40
43.0
 40
44.0
 40
44.0
 40
44.0
 40
45.0
 40
45.0
 40
45.0
 40
46.0
 40
46.0
 40
46.0
 40
47.0
 40
47.0
 40
47.0
 40
48.0
 40
48.0
 40
48.0
 40
49.0
 40
49.0
 40
49.0
 40
50.0
 40
50.0
 40
50.0
 40
51.0
 40
51.0
 40
51.0
 40
52.0
 40
52.0
 40
52.0
 40
53.0
 40
53.0
 40
53.0
 40
54.0
 40
54.0
 40
54.0
 40
55.0
 40
55.0
 40
55.0
 40
56.0
 40
56.0
 40
56.0
 40
57.0
 40
57.0
 40
57.0
 40
58.0
 40
58.0
 40
58.0
 40
59.0
 40
59.0
 40
59.0
 40
60.0
 40
60.0
 40
60.0
 40
61.0
 40
61.0
 40
61.0
 40
62.0
 40
62.0
 40
62.0
 40
63.0
 40
63.0
 40
63.0
 40
64.0
 40
64.0
 40
64.0
 40
65.0
 40
65.0
 40
65.0
 40
66.0
 40
66.0
 40
66.0
 40
67.0
 40
67.0
 40
67.0
 40
68.0
 40
68.0
 40
68.0
 40
69.0
 40
69.0
 40
69.0
 40
70.0
 40
70.0
 40
70.0
 40
71.0
 40
71.0
 40
71.0
 40
72.0
 40
72.0
 40
72.0
 40
73.0
 40
73.0
 40
73.0
 40
74.0
 40
74.0
 40
74.0
 40
75.0
 40
75.0
 40
75.0
 40
76.0
 40
76.0
 40
76.0
 40
77.0
 40
77.0
 40
77.0
 40
78.0
 40
78.0
 40
78.0
 40
79.0
 40
79.0
 40
79.0
 40
79.0
 10
124.2473686755354
 20
-153.2819444061239
 10
124.2473686755354
 20
-153.2819444061239
 10
123.9934651382724
 20
-153.2819444061239
 10
123.9934651382724
 20
-153.2819444061239
 10
123.9934651382724
 20
-153.2819444061239
 10
123.7164794612584
 20
-153.2819444061239
 10
123.7164794612584
 20
-153.2819444061239
 10
123.7164794612584
 20
-153.2819444061239
 10
123.8432589751155
 20
-153.3243190805925
 10
123.8432589751155
 20
-153.3243190805925
 10
123.8539387711198
 20
-153.3287977047234
 10
123.8663411148667
 20
-153.3349988765968
 10
123.8663411148667
 20
-153.3477457298922
 10
123.8663411148667
 20
-153.3687608123522
 10
123.8346462364024
 20
-153.3753064937742
 10
123.8136311539424
 20
-153.3794406083565
 10
123.8029513579381
 20
-153.4025227481077
 10
123.773323536765
 20
-153.468324071876
 10
123.7543755115961
 20
-153.5127658036357
 10
123.7543755115961
 20
-153.5127658036357
 10
124.0251600167368
 20
-153.5127658036357
 10
124.0251600167368
 20
-153.5127658036357
 10
124.1161105375473
 20
-153.5127658036357
 10
124.3128254897551
 20
-153.5082871795049
 10
124.4547634237474
 20
-153.5000189503403
 10
124.4547634237474
 20
-153.5000189503403
 10
124.4547634237474
 20
-153.6777858773791
 10
124.4547634237474
 20
-153.6777858773791
 10
124.3720811321014
 20
-153.6733072532483
 10
124.3510660496414
 20
-153.6733072532483
 10
124.1712320653113
 20
-153.669173138666
 10
124.139537186847
 20
-153.8235134164052
 10
124.0950954550873
 20
-153.9041286507601
 10
124.0506537233276
 20
-153.9737195795621
 10
124.1712320653113
 20
-154.0329752219084
 10
124.2769964967085
 20
-154.1008436029678
 10
124.3806938708145
 20
-154.1831813850653
 10
124.3806938708145
 20
-154.1831813850653
 10
124.2621825861219
 20
-154.3502685160999
 10
124.2621825861219
 20
-154.3502685160999
 10
124.2387559368222
 20
-154.331320490931
 10
124.2260090835268
 20
-154.3230522617664
 10
124.1140434802562
 20
-154.2383029128293
 10
124.0654676339142
 20
-154.200062352943
 10
124.0062119915679
 20
-154.1642333598964
 10
123.925596757213
 20
-154.1197916281367
 10
123.7140678944187
 20
-154.3058267843402
 10
123.5090847130463
 20
-154.3292534336399
 10
123.2190076731883
 20
-154.358881254813
 10
123.2190076731883
 20
-154.358881254813
 10
123.1156548086308
 20
-154.179047270483
 10
123.1156548086308
 20
-154.179047270483
 10
123.4329481028223
 20
-154.1749131559007
 10
123.6083034630215
 20
-154.1494194493099
 10
123.7605766834696
 20
-154.0395209033304
 10
123.6424099083255
 20
-153.9885334901487
 10
123.553526444806
 20
-153.9613172358152
 10
123.5173529422109
 20
-153.9485703825198
 10
123.498404917042
 20
-153.9761311464018
 10
123.4835910064555
 20
-153.9950791715707
 10
123.4560302425735
 20
-154.0288411073261
 10
123.4560302425735
 20
-154.0288411073261
 10
123.2593152903657
 20
-153.9465033252286
 10
123.2593152903657
 20
-153.9465033252286
 10
123.3419975820117
 20
-153.8658880908738
 10
123.4033202816491
 20
-153.7708034554809
 10
123.4605088667043
 20
-153.669173138666
 10
123.26999508637
 20
-153.6733072532483
 10
123.2486354943614
 20
-153.6733072532483
 10
123.166297712264
 20
-153.6777858773791
 10
123.166297712264
 20
-153.6777858773791
 10
123.166297712264
 20
-153.5000189503403
 10
123.166297712264
 20
-153.5000189503403
 10
123.3058240794166
 20
-153.5062201222137
 10
123.5152858849198
 20
-153.5106987463445
 10
123.5407795915106
 20
-153.5106987463445
 10
123.5576605593883
 20
-153.4765923010406
 10
123.6127820871523
 20
-153.3560139590568
 10
123.6317301123212
 20
-153.2819444061239
 10
123.6127820871523
 20
-153.2819444061239
 10
123.4350151601135
 20
-153.2884900875459
 10
123.2403672651968
 20
-153.3012369408413
 10
123.2403672651968
 20
-153.3012369408413
 10
123.2403672651968
 20
-153.4345621361205
 10
123.2403672651968
 20
-153.4345621361205
 10
123.1917914188548
 20
-153.4597113331628
 10
123.1325357765085
 20
-153.4914062116271
 10
122.9992105812293
 20
-153.5572075353954
 10
122.9992105812293
 20
-153.5572075353954
 10
122.9992105812293
 20
-153.7029350744215
 10
122.9992105812293
 20
-153.7029350744215
 10
122.9992105812293
 20
-153.7029350744215
 10
122.9992105812293
 20
-154.1704345317699
 10
122.9992105812293
 20
-154.1704345317699
 10
122.9992105812293
 20
-154.2975585551756
 10
122.9630370786342
 20
-154.3568141975219
 10
122.6798502297467
 20
-154.3482014588088
 10
122.6798502297467
 20
-154.3482014588088
 10
122.5761528556407
 20
-154.1411512201453
 10
122.5761528556407
 20
-154.1411512201453
 10
122.6395426125693
 20
-154.1535535638921
 10
122.6881184589113
 20
-154.158032188023
 10
122.7284260760887
 20
-154.158032188023
 10
122.8045626863127
 20
-154.158032188023
 10
122.815242482317
 20
-154.1346055387233
 10
122.815242482317
 20
-154.0691487245035
 10
122.815242482317
 20
-154.0691487245035
 10
122.815242482317
 20
-153.6395453174929
 10
122.815242482317
 20
-153.6395453174929
 10
122.7177462800844
 20
-153.6798529346703
 10
122.7008653122067
 20
-153.6860541065437
 10
122.6543565231558
 20
-153.7053466412612
 10
122.6502224085735
 20
-153.7263617237212
 10
122.6457437844427
 20
-153.7559895448943
 10
122.6267957592738
 20
-153.7559895448943
 10
122.6185275301092
 20
-153.7559895448943
 10
122.607847734105
 20
-153.751855430312
 10
122.601302052683
 20
-153.7284287810123
 10
122.601302052683
 20
-153.7284287810123
 10
122.5485920917587
 20
-153.5358479433869
 10
122.5485920917587
 20
-153.5358479433869
 10
122.6946641403333
 20
-153.489339154336
 10
122.760120954553
 20
-153.4662570145848
 10
122.815242482317
 20
-153.4448974225762
 10
122.815242482317
 20
-153.4448974225762
 10
122.815242482317
 20
-153.0325194929918
 10
122.815242482317
 20
-153.0325194929918
 10
122.815242482317
 20
-153.0325194929918
 10
122.7621880118441
 20
-153.0325194929918
 10
122.7621880118441
 20
-153.0325194929918
 10
122.7621880118441
 20
-153.0325194929918
 10
122.683984344329
 20
-153.0325194929918
 10
122.683984344329
 20
-153.0325194929918
 10
122.6161159632696
 20
-153.0325194929918
 10
122.607847734105
 20
-153.0325194929918
 10
122.5716742315098
 20
-153.0387206648653
 10
122.5716742315098
 20
-153.0387206648653
 10
122.5716742315098
 20
-152.8440727699487
 10
122.5716742315098
 20
-152.8440727699487
 10
122.5992349953918
 20
-152.8506184513707
 10
122.607847734105
 20
-152.8506184513707
 10
122.677438662907
 20
-152.8506184513707
 10
122.677438662907
 20
-152.8506184513707
 10
122.8107638581862
 20
-152.8506184513707
 10
122.8107638581862
 20
-152.8506184513707
 10
122.8107638581862
 20
-152.7806830130201
 10
122.8107638581862
 20
-152.6983452309226
 10
122.808696800895
 20
-152.6938666067918
 10
122.8004285717304
 20
-152.5140326224617
 10
122.8004285717304
 20
-152.4950845972929
 10
122.7980170048908
 20
-152.448575808242
 10
122.7980170048908
 20
-152.448575808242
 10
123.0140244918159
 20
-152.4571885469551
 10
123.0140244918159
 20
-152.4571885469551
 10
123.0247042878202
 20
-152.4571885469551
 10
123.0457193702802
 20
-152.4592556042463
 10
123.0457193702802
 20
-152.476136572124
 10
123.0457193702802
 20
-152.4950845972929
 10
123.0309054596936
 20
-152.5057643932971
 10
123.0054117531028
 20
-152.524712418466
 10
123.0054117531028
 20
-152.5753553220992
 10
122.9992105812293
 20
-152.8041096623198
 10
123.0012776385205
 20
-152.8506184513707
 10
123.1304687192174
 20
-152.8506184513707
 10
123.1428710629643
 20
-152.8506184513707
 10
123.2403672651968
 20
-152.8420057126576
 10
123.2403672651968
 20
-152.8420057126576
 10
123.2403672651968
 20
-153.0366536075742
 10
123.2403672651968
 20
-153.0366536075742
 10
123.2021267053106
 20
-153.034586550283
 10
123.1346028337997
 20
-153.0304524357007
 10
122.9992105812293
 20
-153.0325194929918
 10
122.9992105812293
 20
-153.0325194929918
 10
122.9992105812293
 20
-153.3708278696434
 10
122.9992105812293
 20
-153.3708278696434
 10
123.0539875994448
 20
-153.3477457298922
 10
123.1197889232131
 20
-153.3201849660102
 10
123.1683647695551
 20
-153.2967583167105
 10
123.1683647695551
 20
-153.2967583167105
 10
123.1683647695551
 20
-153.1193358992202
 10
123.1683647695551
 20
-153.1193358992202
 10
123.2827419396654
 20
-153.131738242967
 10
123.401253224358
 20
-153.131738242967
 10
123.5173529422109
 20
-153.131738242967
 10
123.4942708024597
 20
-153.0366536075742
 10
123.4667100385777
 20
-152.9543158254767
 10
123.4033202816491
 20
-152.8209906301975
 10
123.3588785498894
 20
-152.8230576874887
 10
123.2761962582434
 20
-152.827191802071
 10
123.2383002079057
 20
-152.8292588593621
 10
123.2383002079057
 20
-152.8292588593621
 10
123.2383002079057
 20
-152.6494248750321
 10
123.2383002079057
 20
-152.6494248750321
 10
123.3630126644717
 20
-152.6580376137452
 10
123.5366454769283
 20
-152.6621717283275
 10
123.6189832590258
 20
-152.6621717283275
 10
123.6189832590258
 20
-152.6621717283275
 10
123.7016655506718
 20
-152.6621717283275
 10
123.7016655506718
 20
-152.6621717283275
 10
123.7016655506718
 20
-152.4992187118752
 10
123.7016655506718
 20
-152.4888834254194
 10
123.6992539838321
 20
-152.4337618976554
 10
123.6992539838321
 20
-152.4337618976554
 10
123.9235296999219
 20
-152.4592556042463
 10
123.9235296999219
 20
-152.4592556042463
 10
123.9280083240527
 20
-152.4592556042463
 10
123.9490234065127
 20
-152.4613226615374
 10
123.9490234065127
 20
-152.4782036294152
 10
123.9490234065127
 20
-152.4930175400017
 10
123.9383436105084
 20
-152.5016302787149
 10
123.9107828466265
 20
-152.5164441893014
 10
123.904581674753
 20
-152.5819010035212
 10
123.9025146174618
 20
-152.6029160859812
 10
123.9025146174618
 20
-152.6621717283275
 10
123.9025146174618
 20
-152.6621717283275
 10
123.9975992528547
 20
-152.6621717283275
 10
123.9975992528547
 20
-152.6621717283275
 10
124.0802815445007
 20
-152.6621717283275
 10
124.2535698474088
 20
-152.6580376137452
 10
124.3786268135234
 20
-152.6494248750321
 10
124.3786268135234
 20
-152.6494248750321
 10
124.3786268135234
 20
-152.8292588593621
 10
124.3786268135234
 20
-152.8292588593621
 10
124.3489989923502
 20
-152.827191802071
 10
124.2304877076576
 20
-152.8230576874887
 10
124.1901800904802
 20
-152.8209906301975
 10
124.1753661798936
 20
-152.8716335338307
 10
124.1416042441382
 20
-152.9839436466498
 10
124.0758029203699
 20
-153.1234700138024
 10
124.1181775948385
 20
-153.1234700138024
 10
124.3955077814011
 20
-153.1045219886336
 10
124.4568304810385
 20
-153.1021104217939
 10
124.4568304810385
 20
-153.1021104217939
 10
124.4568304810385
 20
-153.2864230302548
 10
124.4568304810385
 20
-153.2864230302548
 10
124.4272026598654
 20
-153.2864230302548
 10
124.4103216919877
 20
-153.2819444061239
 10
124.2473686755354
 20
-153.2819444061239
 97
        0
 97
        1
330
163
 75
     2
 76
     1
 98
        1
 10
0.0
 20
0.0
450
        0
451
        0
460
0.0
461
0.0
452
        0
462
0.0
453
        0
470

  0
SPLINE
  5
165
330
15D
100
AcDbEntity
  8
レイヤー 1
100
AcDbSpline
210
0.0
220
0.0
230
1.0
 70
    11
 71
     3
 72
    17
 73
    13
 74
     0
 42
0.0000000001
 43
0.0000000001
 40
0.0
 40
0.0
 40
0.0
 40
0.0
 40
1.0
 40
1.0
 40
1.0
 40
2.0
 40
2.0
 40
2.0
 40
3.0
 40
3.0
 40
3.0
 40
4.0
 40
4.0
 40
4.0
 40
4.0
 10
126.1039306325365
 20
-154.081895577799
 30
0.0
 10
126.1039306325365
 20
-154.081895577799
 30
0.0
 10
125.3973415485118
 20
-154.081895577799
 30
0.0
 10
125.3973415485118
 20
-154.081895577799
 30
0.0
 10
125.3973415485118
 20
-154.081895577799
 30
0.0
 10
125.3973415485118
 20
-154.1959282383607
 30
0.0
 10
125.3973415485118
 20
-154.1959282383607
 30
0.0
 10
125.3973415485118
 20
-154.1959282383607
 30
0.0
 10
126.1039306325365
 20
-154.1959282383607
 30
0.0
 10
126.1039306325365
 20
-154.1959282383607
 30
0.0
 10
126.1039306325365
 20
-154.1959282383607
 30
0.0
 10
126.1039306325365
 20
-154.081895577799
 30
0.0
 10
126.1039306325365
 20
-154.081895577799
 30
0.0
  0
SPLINE
  5
166
330
15D
100
AcDbEntity
  8
レイヤー 1
100
AcDbSpline
210
0.0
220
0.0
230
1.0
 70
    11
 71
     3
 72
    17
 73
    13
 74
     0
 42
0.0000000001
 43
0.0000000001
 40
0.0
 40
0.0
 40
0.0
 40
0.0
 40
1.0
 40
1.0
 40
1.0
 40
2.0
 40
2.0
 40
2.0
 40
3.0
 40
3.0
 40
3.0
 40
4.0
 40
4.0
 40
4.0
 40
4.0
 10
126.1039306325365
 20
-153.8383273269918
 30
0.0
 10
126.1039306325365
 20
-153.8383273269918
 30
0.0
 10
125.3973415485118
 20
-153.8383273269918
 30
0.0
 10
125.3973415485118
 20
-153.8383273269918
 30
0.0
 10
125.3973415485118
 20
-153.8383273269918
 30
0.0
 10
125.3973415485118
 20
-153.9527044971021
 30
0.0
 10
125.3973415485118
 20
-153.9527044971021
 30
0.0
 10
125.3973415485118
 20
-153.9527044971021
 30
0.0
 10
126.1039306325365
 20
-153.9527044971021
 30
0.0
 10
126.1039306325365
 20
-153.9527044971021
 30
0.0
 10
126.1039306325365
 20
-153.9527044971021
 30
0.0
 10
126.1039306325365
 20
-153.8383273269918
 30
0.0
 10
126.1039306325365
 20
-153.8383273269918
 30
0.0
  0
SPLINE
  5
167
330
15D
100
AcDbEntity
  8
レイヤー 1
100
AcDbSpline
210
0.0
220
0.0
230
1.0
 70
    11
 71
     3
 72
    17
 73
    13
 74
     0
 42
0.0000000001
 43
0.0000000001
 40
0.0
 40
0.0
 40
0.0
 40
0.0
 40
1.0
 40
1.0
 40
1.0
 40
2.0
 40
2.0
 40
2.0
 40
3.0
 40
3.0
 40
3.0
 40
4.0
 40
4.0
 40
4.0
 40
4.0
 10
126.1039306325365
 20
-153.6057833817374
 30
0.0
 10
126.1039306325365
 20
-153.6057833817374
 30
0.0
 10
125.3973415485118
 20
-153.6057833817374
 30
0.0
 10
125.3973415485118
 20
-153.6057833817374
 30
0.0
 10
125.3973415485118
 20
-153.6057833817374
 30
0.0
 10
125.3973415485118
 20
-153.7136148704258
 30
0.0
 10
125.3973415485118
 20
-153.7136148704258
 30
0.0
 10
125.3973415485118
 20
-153.7136148704258
 30
0.0
 10
126.1039306325365
 20
-153.7136148704258
 30
0.0
 10
126.1039306325365
 20
-153.7136148704258
 30
0.0
 10
126.1039306325365
 20
-153.7136148704258
 30
0.0
 10
126.1039306325365
 20
-153.6057833817374
 30
0.0
 10
126.1039306325365
 20
-153.6057833817374
 30
0.0
  0
SPLINE
  5
168
330
15D
100
AcDbEntity
  8
レイヤー 1
100
AcDbSpline
210
0.0
220
0.0
230
1.0
 70
     9
 71
     3
 72
   203
 73
   199
 74
     0
 42
0.0000000001
 43
0.0000000001
 40
0.0
 40
0.0
 40
0.0
 40
0.0
 40
1.0
 40
1.0
 40
1.0
 40
2.0
 40
2.0
 40
2.0
 40
3.0
 40
3.0
 40
3.0
 40
4.0
 40
4.0
 40
4.0
 40
5.0
 40
5.0
 40
5.0
 40
6.0
 40
6.0
 40
6.0
 40
7.0
 40
7.0
 40
7.0
 40
8.0
 40
8.0
 40
8.0
 40
9.0
 40
9.0
 40
9.0
 40
10.0
 40
10.0
 40
10.0
 40
11.0
 40
11.0
 40
11.0
 40
12.0
 40
12.0
 40
12.0
 40
13.0
 40
13.0
 40
13.0
 40
14.0
 40
14.0
 40
14.0
 40
15.0
 40
15.0
 40
15.0
 40
16.0
 40
16.0
 40
16.0
 40
17.0
 40
17.0
 40
17.0
 40
18.0
 40
18.0
 40
18.0
 40
19.0
 40
19.0
 40
19.0
 40
20.0
 40
20.0
 40
20.0
 40
21.0
 40
21.0
 40
21.0
 40
22.0
 40
22.0
 40
22.0
 40
23.0
 40
23.0
 40
23.0
 40
24.0
 40
24.0
 40
24.0
 40
25.0
 40
25.0
 40
25.0
 40
26.0
 40
26.0
 40
26.0
 40
27.0
 40
27.0
 40
27.0
 40
28.0
 40
28.0
 40
28.0
 40
29.0
 40
29.0
 40
29.0
 40
30.0
 40
30.0
 40
30.0
 40
31.0
 40
31.0
 40
31.0
 40
32.0
 40
32.0
 40
32.0
 40
33.0
 40
33.0
 40
33.0
 40
34.0
 40
34.0
 40
34.0
 40
35.0
 40
35.0
 40
35.0
 40
36.0
 40
36.0
 40
36.0
 40
37.0
 40
37.0
 40
37.0
 40
38.0
 40
38.0
 40
38.0
 40
39.0
 40
39.0
 40
39.0
 40
40.0
 40
40.0
 40
40.0
 40
41.0
 40
41.0
 40
41.0
 40
42.0
 40
42.0
 40
42.0
 40
43.0
 40
43.0
 40
43.0
 40
44.0
 40
44.0
 40
44.0
 40
45.0
 40
45.0
 40
45.0
 40
46.0
 40
46.0
 40
46.0
 40
47.0
 40
47.0
 40
47.0
 40
48.0
 40
48.0
 40
48.0
 40
49.0
 40
49.0
 40
49.0
 40
50.0
 40
50.0
 40
50.0
 40
51.0
 40
51.0
 40
51.0
 40
52.0
 40
52.0
 40
52.0
 40
53.0
 40
53.0
 40
53.0
 40
54.0
 40
54.0
 40
54.0
 40
55.0
 40
55.0
 40
55.0
 40
56.0
 40
56.0
 40
56.0
 40
57.0
 40
57.0
 40
57.0
 40
58.0
 40
58.0
 40
58.0
 40
59.0
 40
59.0
 40
59.0
 40
60.0
 40
60.0
 40
60.0
 40
61.0
 40
61.0
 40
61.0
 40
62.0
 40
62.0
 40
62.0
 40
63.0
 40
63.0
 40
63.0
 40
64.0
 40
64.0
 40
64.0
 40
65.0
 40
65.0
 40
65.0
 40
66.0
 40
66.0
 40
66.0
 40
66.0
 10
125.938910558793
 20
-153.3498127871834
 30
0.0
 10
125.938910558793
 20
-153.3498127871834
 30
0.0
 10
125.3801160710855
 20
-153.3498127871834
 30
0.0
 10
125.3801160710855
 20
-153.3498127871834
 30
0.0
 10
125.3697807846298
 20
-153.3942545189431
 30
0.0
 10
125.3611680459166
 20
-153.4259493974074
 30
0.0
 10
125.3484211926212
 20
-153.4641899572937
 30
0.0
 10
125.3739148992121
 20
-153.4641899572937
 30
0.0
 10
125.3887288097986
 20
-153.4662570145848
 30
0.0
 10
125.3949299816721
 20
-153.4662570145848
 30
0.0
 10
125.3949299816721
 20
-153.4662570145848
 30
0.0
 10
125.5833767047153
 20
-153.4662570145848
 30
0.0
 10
125.5833767047153
 20
-153.4662570145848
 30
0.0
 10
125.5833767047153
 20
-153.4662570145848
 30
0.0
 10
125.9578585839619
 20
-153.4662570145848
 30
0.0
 10
125.9578585839619
 20
-153.4662570145848
 30
0.0
 10
126.0085014875951
 20
-153.4662570145848
 30
0.0
 10
126.2920328460311
 20
-153.4535101612894
 30
0.0
 10
126.3237277244954
 20
-153.4535101612894
 30
0.0
 10
126.3216606672043
 20
-153.4810709251714
 30
0.0
 10
126.3195936099132
 20
-153.5000189503403
 30
0.0
 10
126.3195936099132
 20
-153.5296467715134
 30
0.0
 10
126.317526552622
 20
-153.5613416499777
 30
0.0
 10
126.317526552622
 20
-153.696733902548
 30
0.0
 10
126.317526552622
 20
-153.72429466643
 30
0.0
 10
126.317526552622
 20
-153.72429466643
 30
0.0
 10
126.317526552622
 20
-153.9695854649798
 30
0.0
 10
126.317526552622
 20
-153.9695854649798
 30
0.0
 10
126.317526552622
 20
-154.0140271967395
 30
0.0
 10
126.3216606672043
 20
-154.2107421489473
 30
0.0
 10
126.3257947817866
 20
-154.3630153693953
 30
0.0
 10
126.3257947817866
 20
-154.3630153693953
 30
0.0
 10
126.0994520084057
 20
-154.3630153693953
 30
0.0
 10
126.0994520084057
 20
-154.3630153693953
 30
0.0
 10
126.0994520084057
 20
-154.3630153693953
 30
0.0
 10
126.1015190656968
 20
-154.3292534336399
 30
0.0
 10
126.1015190656968
 20
-154.3292534336399
 30
0.0
 10
126.1015190656968
 20
-154.3292534336399
 30
0.0
 10
125.3994086058029
 20
-154.3292534336399
 30
0.0
 10
125.3994086058029
 20
-154.3292534336399
 30
0.0
 10
125.3994086058029
 20
-154.3292534336399
 30
0.0
 10
125.401475663094
 20
-154.3630153693953
 30
0.0
 10
125.401475663094
 20
-154.3630153693953
 30
0.0
 10
125.401475663094
 20
-154.3630153693953
 30
0.0
 10
125.1834011188778
 20
-154.3630153693953
 30
0.0
 10
125.1834011188778
 20
-154.3630153693953
 30
0.0
 10
125.1878797430086
 20
-154.3082383511799
 30
0.0
 10
125.1878797430086
 20
-154.2954914978844
 30
0.0
 10
125.194080914882
 20
-154.1811143277741
 30
0.0
 10
125.1961479721732
 20
-154.1535535638921
 30
0.0
 10
125.1982150294643
 20
-154.0205728781615
 30
0.0
 10
125.1982150294643
 20
-154.0012803434441
 30
0.0
 10
125.1982150294643
 20
-154.0012803434441
 30
0.0
 10
125.1982150294643
 20
-153.7983642193629
 30
0.0
 10
125.1982150294643
 20
-153.7983642193629
 30
0.0
 10
125.0586886623117
 20
-154.047789132495
 30
0.0
 10
124.8895344739859
 20
-154.179047270483
 30
0.0
 10
124.7837700425888
 20
-154.2445040847028
 30
0.0
 10
124.7837700425888
 20
-154.2445040847028
 30
0.0
 10
124.6101372301322
 20
-154.1049777175501
 30
0.0
 10
124.6101372301322
 20
-154.1049777175501
 30
0.0
 10
124.6990206936516
 20
-154.0543348139169
 30
0.0
 10
124.8430256849351
 20
-153.9675184076887
 30
0.0
 10
124.9804849947965
 20
-153.7728705127721
 30
0.0
 10
125.0714355156071
 20
-153.6460909989149
 30
0.0
 10
125.1368923298269
 20
-153.5020860076314
 30
0.0
 10
125.1706542655823
 20
-153.3498127871834
 30
0.0
 10
124.9422444349103
 20
-153.3518798444745
 30
0.0
 10
124.7624104505802
 20
-153.358081016348
 30
0.0
 10
124.6673258151873
 20
-153.3604925831876
 30
0.0
 10
124.6673258151873
 20
-153.3604925831876
 30
0.0
 10
124.6673258151873
 20
-153.1827256561487
 30
0.0
 10
124.6673258151873
 20
-153.1827256561487
 30
0.0
 10
124.8640407673951
 20
-153.1889268280222
 30
0.0
 10
125.1475721258312
 20
-153.193405452153
 30
0.0
 10
125.297778288988
 20
-153.193405452153
 30
0.0
 10
125.297778288988
 20
-153.193405452153
 30
0.0
 10
125.5113742090735
 20
-153.193405452153
 30
0.0
 10
125.5113742090735
 20
-153.193405452153
 30
0.0
 10
125.5113742090735
 20
-153.193405452153
 30
0.0
 10
125.5113742090735
 20
-153.0852294539162
 30
0.0
 10
125.5113742090735
 20
-153.0852294539162
 30
0.0
 10
125.5113742090735
 20
-153.0852294539162
 30
0.0
 10
125.3653021604989
 20
-153.0852294539162
 30
0.0
 10
125.3653021604989
 20
-153.0852294539162
 30
0.0
 10
125.1961479721732
 20
-153.0852294539162
 30
0.0
 10
125.0269937838474
 20
-153.089708078047
 30
0.0
 10
124.8599066528128
 20
-153.0959092499205
 30
0.0
 10
124.8599066528128
 20
-153.0959092499205
 30
0.0
 10
124.8599066528128
 20
-152.9246880043035
 30
0.0
 10
124.8599066528128
 20
-152.9246880043035
 30
0.0
 10
125.014246930552
 20
-152.9350232907593
 30
0.0
 10
125.2002820867555
 20
-152.9350232907593
 30
0.0
 10
125.3653021604989
 20
-152.9350232907593
 30
0.0
 10
125.3653021604989
 20
-152.9350232907593
 30
0.0
 10
125.5113742090735
 20
-152.9350232907593
 30
0.0
 10
125.5113742090735
 20
-152.9350232907593
 30
0.0
 10
125.5113742090735
 20
-152.9350232907593
 30
0.0
 10
125.5113742090735
 20
-152.8165120060667
 30
0.0
 10
125.5113742090735
 20
-152.8165120060667
 30
0.0
 10
125.5113742090735
 20
-152.8165120060667
 30
0.0
 10
125.3801160710855
 20
-152.8165120060667
 30
0.0
 10
125.3801160710855
 20
-152.8165120060667
 30
0.0
 10
125.3336072820346
 20
-152.8165120060667
 30
0.0
 10
125.1306911579534
 20
-152.8251247447798
 30
0.0
 10
125.0883164834849
 20
-152.8251247447798
 30
0.0
 10
124.8854003594036
 20
-152.8292588593621
 30
0.0
 10
124.8089192396311
 20
-152.8313259166533
 30
0.0
 10
124.7307155721159
 20
-152.8337374834929
 30
0.0
 10
124.7307155721159
 20
-152.8337374834929
 30
0.0
 10
124.7307155721159
 20
-152.6494248750321
 30
0.0
 10
124.7307155721159
 20
-152.6494248750321
 30
0.0
 10
124.8450927422262
 20
-152.6580376137452
 30
0.0
 10
124.8895344739859
 20
-152.6580376137452
 30
0.0
 10
125.2722845823972
 20
-152.6666503524583
 30
0.0
 10
125.2088948254686
 20
-152.5712212075169
 30
0.0
 10
125.1813340615866
 20
-152.5436604436349
 30
0.0
 10
125.14550506854
 20
-152.5078314505883
 30
0.0
 10
125.14550506854
 20
-152.5078314505883
 30
0.0
 10
125.3208604287392
 20
-152.4251491589423
 30
0.0
 10
125.3208604287392
 20
-152.4251491589423
 30
0.0
 10
125.3611680459166
 20
-152.4613226615374
 30
0.0
 10
125.4056097776764
 20
-152.503697336006
 30
0.0
 10
125.4796793306092
 20
-152.6135958819855
 30
0.0
 10
125.4796793306092
 20
-152.6135958819855
 30
0.0
 10
125.3653021604989
 20
-152.6687174097495
 30
0.0
 10
125.3653021604989
 20
-152.6687174097495
 30
0.0
 10
125.3653021604989
 20
-152.6687174097495
 30
0.0
 10
125.3759819565032
 20
-152.6687174097495
 30
0.0
 10
125.3759819565032
 20
-152.6687174097495
 30
0.0
 10
125.3759819565032
 20
-152.6687174097495
 30
0.0
 10
125.8986029416156
 20
-152.6687174097495
 30
0.0
 10
125.8986029416156
 20
-152.6687174097495
 30
0.0
 10
125.8986029416156
 20
-152.6687174097495
 30
0.0
 10
125.8035183062227
 20
-152.6242756779898
 30
0.0
 10
125.8035183062227
 20
-152.6242756779898
 30
0.0
 10
125.8307345605562
 20
-152.5860351181035
 30
0.0
 10
125.8879231456113
 20
-152.5057643932971
 30
0.0
 10
125.9027370561979
 20
-152.4316948403643
 30
0.0
 10
125.9027370561979
 20
-152.4316948403643
 30
0.0
 10
126.1163329762834
 20
-152.4950845972929
 30
0.0
 10
126.1163329762834
 20
-152.4950845972929
 30
0.0
 10
126.1249457149965
 20
-152.497151654584
 30
0.0
 10
126.1459607974565
 20
-152.5078314505883
 30
0.0
 10
126.1459607974565
 20
-152.5288465330483
 30
0.0
 10
126.1459607974565
 20
-152.5670870929346
 30
0.0
 10
126.0805039832368
 20
-152.5670870929346
 30
0.0
 10
126.0615559580679
 20
-152.5670870929346
 30
0.0
 10
126.0508761620636
 20
-152.5860351181035
 30
0.0
 10
126.027449512764
 20
-152.6263427352809
 30
0.0
 10
125.9978216915908
 20
-152.6666503524583
 30
0.0
 10
126.3977972774283
 20
-152.6601046710364
 30
0.0
 10
126.4274250986015
 20
-152.6580376137452
 30
0.0
 10
126.5035617088255
 20
-152.6518364418718
 30
0.0
 10
126.5035617088255
 20
-152.6518364418718
 30
0.0
 10
126.5035617088255
 20
-152.8337374834929
 30
0.0
 10
126.5035617088255
 20
-152.8337374834929
 30
0.0
 10
126.4846136836566
 20
-152.8337374834929
 30
0.0
 10
126.4591199770658
 20
-152.8313259166533
 30
0.0
 10
126.2393228851068
 20
-152.8230576874887
 30
0.0
 10
126.1883354719251
 20
-152.8209906301975
 30
0.0
 10
125.9685383799662
 20
-152.8165120060667
 30
0.0
 10
125.9240966482065
 20
-152.8165120060667
 30
0.0
 10
125.9240966482065
 20
-152.8165120060667
 30
0.0
 10
125.7080891612813
 20
-152.8165120060667
 30
0.0
 10
125.7080891612813
 20
-152.8165120060667
 30
0.0
 10
125.7080891612813
 20
-152.8165120060667
 30
0.0
 10
125.7080891612813
 20
-152.9350232907593
 30
0.0
 10
125.7080891612813
 20
-152.9350232907593
 30
0.0
 10
125.7080891612813
 20
-152.9350232907593
 30
0.0
 10
125.8817219737379
 20
-152.9350232907593
 30
0.0
 10
125.8817219737379
 20
-152.9350232907593
 30
0.0
 10
126.0446749901902
 20
-152.9350232907593
 30
0.0
 10
126.234844260976
 20
-152.9350232907593
 30
0.0
 10
126.3915961055549
 20
-152.9246880043035
 30
0.0
 10
126.3915961055549
 20
-152.9246880043035
 30
0.0
 10
126.3915961055549
 20
-153.0959092499205
 30
0.0
 10
126.3915961055549
 20
-153.0959092499205
 30
0.0
 10
126.1821343000517
 20
-153.0872965112073
 30
0.0
 10
125.9854193478439
 20
-153.0852294539162
 30
0.0
 10
125.8817219737379
 20
-153.0852294539162
 30
0.0
 10
125.8817219737379
 20
-153.0852294539162
 30
0.0
 10
125.7080891612813
 20
-153.0852294539162
 30
0.0
 10
125.7080891612813
 20
-153.0852294539162
 30
0.0
 10
125.7080891612813
 20
-153.0852294539162
 30
0.0
 10
125.7080891612813
 20
-153.193405452153
 30
0.0
 10
125.7080891612813
 20
-153.193405452153
 30
0.0
 10
125.7080891612813
 20
-153.193405452153
 30
0.0
 10
125.938910558793
 20
-153.193405452153
 30
0.0
 10
125.938910558793
 20
-153.193405452153
 30
0.0
 10
126.0718912445237
 20
-153.193405452153
 30
0.0
 10
126.3599012270906
 20
-153.1889268280222
 30
0.0
 10
126.5690185230452
 20
-153.1827256561487
 30
0.0
 10
126.5690185230452
 20
-153.1827256561487
 30
0.0
 10
126.5690185230452
 20
-153.3604925831876
 30
0.0
 10
126.5690185230452
 20
-153.3604925831876
 30
0.0
 10
126.3767821949683
 20
-153.3539469017657
 30
0.0
 10
126.0636230153591
 20
-153.3498127871834
 30
0.0
 10
125.938910558793
 20
-153.3498127871834
 30
0.0
  0
HATCH
  5
169
330
15D
100
AcDbEntity
  8
レイヤー 1
 62
    18
420
        0
440
 33554687
100
AcDbHatch
 10
0.0
 20
0.0
 30
0.0
210
0.0
220
0.0
230
1.0
  2
SOLID
 70
     1
 71
     1
 91
        4
 92
        1
 93
        1
 72
     4
 94
        3
 73
     0
 74
     0
 95
       17
 96
       13
 40
0.0
 40
0.0
 40
0.0
 40
0.0
 40
1.0
 40
1.0
 40
1.0
 40
2.0
 40
2.0
 40
2.0
 40
3.0
 40
3.0
 40
3.0
 40
4.0
 40
4.0
 40
4.0
 40
4.0
 10
126.1039306325365
 20
-154.081895577799
 10
126.1039306325365
 20
-154.081895577799
 10
125.3973415485118
 20
-154.081895577799
 10
125.3973415485118
 20
-154.081895577799
 10
125.3973415485118
 20
-154.081895577799
 10
125.3973415485118
 20
-154.1959282383607
 10
125.3973415485118
 20
-154.1959282383607
 10
125.3973415485118
 20
-154.1959282383607
 10
126.1039306325365
 20
-154.1959282383607
 10
126.1039306325365
 20
-154.1959282383607
 10
126.1039306325365
 20
-154.1959282383607
 10
126.1039306325365
 20
-154.081895577799
 10
126.1039306325365
 20
-154.081895577799
 97
        0
 97
        1
330
165
 92
        1
 93
        1
 72
     4
 94
        3
 73
     0
 74
     0
 95
       17
 96
       13
 40
0.0
 40
0.0
 40
0.0
 40
0.0
 40
1.0
 40
1.0
 40
1.0
 40
2.0
 40
2.0
 40
2.0
 40
3.0
 40
3.0
 40
3.0
 40
4.0
 40
4.0
 40
4.0
 40
4.0
 10
126.1039306325365
 20
-153.8383273269918
 10
126.1039306325365
 20
-153.8383273269918
 10
125.3973415485118
 20
-153.8383273269918
 10
125.3973415485118
 20
-153.8383273269918
 10
125.3973415485118
 20
-153.8383273269918
 10
125.3973415485118
 20
-153.9527044971021
 10
125.3973415485118
 20
-153.9527044971021
 10
125.3973415485118
 20
-153.9527044971021
 10
126.1039306325365
 20
-153.9527044971021
 10
126.1039306325365
 20
-153.9527044971021
 10
126.1039306325365
 20
-153.9527044971021
 10
126.1039306325365
 20
-153.8383273269918
 10
126.1039306325365
 20
-153.8383273269918
 97
        0
 97
        1
330
166
 92
        1
 93
        1
 72
     4
 94
        3
 73
     0
 74
     0
 95
       17
 96
       13
 40
0.0
 40
0.0
 40
0.0
 40
0.0
 40
1.0
 40
1.0
 40
1.0
 40
2.0
 40
2.0
 40
2.0
 40
3.0
 40
3.0
 40
3.0
 40
4.0
 40
4.0
 40
4.0
 40
4.0
 10
126.1039306325365
 20
-153.6057833817374
 10
126.1039306325365
 20
-153.6057833817374
 10
125.3973415485118
 20
-153.6057833817374
 10
125.3973415485118
 20
-153.6057833817374
 10
125.3973415485118
 20
-153.6057833817374
 10
125.3973415485118
 20
-153.7136148704258
 10
125.3973415485118
 20
-153.7136148704258
 10
125.3973415485118
 20
-153.7136148704258
 10
126.1039306325365
 20
-153.7136148704258
 10
126.1039306325365
 20
-153.7136148704258
 10
126.1039306325365
 20
-153.7136148704258
 10
126.1039306325365
 20
-153.6057833817374
 10
126.1039306325365
 20
-153.6057833817374
 97
        0
 97
        1
330
167
 92
        1
 93
        1
 72
     4
 94
        3
 73
     0
 74
     0
 95
      203
 96
      199
 40
0.0
 40
0.0
 40
0.0
 40
0.0
 40
1.0
 40
1.0
 40
1.0
 40
2.0
 40
2.0
 40
2.0
 40
3.0
 40
3.0
 40
3.0
 40
4.0
 40
4.0
 40
4.0
 40
5.0
 40
5.0
 40
5.0
 40
6.0
 40
6.0
 40
6.0
 40
7.0
 40
7.0
 40
7.0
 40
8.0
 40
8.0
 40
8.0
 40
9.0
 40
9.0
 40
9.0
 40
10.0
 40
10.0
 40
10.0
 40
11.0
 40
11.0
 40
11.0
 40
12.0
 40
12.0
 40
12.0
 40
13.0
 40
13.0
 40
13.0
 40
14.0
 40
14.0
 40
14.0
 40
15.0
 40
15.0
 40
15.0
 40
16.0
 40
16.0
 40
16.0
 40
17.0
 40
17.0
 40
17.0
 40
18.0
 40
18.0
 40
18.0
 40
19.0
 40
19.0
 40
19.0
 40
20.0
 40
20.0
 40
20.0
 40
21.0
 40
21.0
 40
21.0
 40
22.0
 40
22.0
 40
22.0
 40
23.0
 40
23.0
 40
23.0
 40
24.0
 40
24.0
 40
24.0
 40
25.0
 40
25.0
 40
25.0
 40
26.0
 40
26.0
 40
26.0
 40
27.0
 40
27.0
 40
27.0
 40
28.0
 40
28.0
 40
28.0
 40
29.0
 40
29.0
 40
29.0
 40
30.0
 40
30.0
 40
30.0
 40
31.0
 40
31.0
 40
31.0
 40
32.0
 40
32.0
 40
32.0
 40
33.0
 40
33.0
 40
33.0
 40
34.0
 40
34.0
 40
34.0
 40
35.0
 40
35.0
 40
35.0
 40
36.0
 40
36.0
 40
36.0
 40
37.0
 40
37.0
 40
37.0
 40
38.0
 40
38.0
 40
38.0
 40
39.0
 40
39.0
 40
39.0
 40
40.0
 40
40.0
 40
40.0
 40
41.0
 40
41.0
 40
41.0
 40
42.0
 40
42.0
 40
42.0
 40
43.0
 40
43.0
 40
43.0
 40
44.0
 40
44.0
 40
44.0
 40
45.0
 40
45.0
 40
45.0
 40
46.0
 40
46.0
 40
46.0
 40
47.0
 40
47.0
 40
47.0
 40
48.0
 40
48.0
 40
48.0
 40
49.0
 40
49.0
 40
49.0
 40
50.0
 40
50.0
 40
50.0
 40
51.0
 40
51.0
 40
51.0
 40
52.0
 40
52.0
 40
52.0
 40
53.0
 40
53.0
 40
53.0
 40
54.0
 40
54.0
 40
54.0
 40
55.0
 40
55.0
 40
55.0
 40
56.0
 40
56.0
 40
56.0
 40
57.0
 40
57.0
 40
57.0
 40
58.0
 40
58.0
 40
58.0
 40
59.0
 40
59.0
 40
59.0
 40
60.0
 40
60.0
 40
60.0
 40
61.0
 40
61.0
 40
61.0
 40
62.0
 40
62.0
 40
62.0
 40
63.0
 40
63.0
 40
63.0
 40
64.0
 40
64.0
 40
64.0
 40
65.0
 40
65.0
 40
65.0
 40
66.0
 40
66.0
 40
66.0
 40
66.0
 10
125.938910558793
 20
-153.3498127871834
 10
125.938910558793
 20
-153.3498127871834
 10
125.3801160710855
 20
-153.3498127871834
 10
125.3801160710855
 20
-153.3498127871834
 10
125.3697807846298
 20
-153.3942545189431
 10
125.3611680459166
 20
-153.4259493974074
 10
125.3484211926212
 20
-153.4641899572937
 10
125.3739148992121
 20
-153.4641899572937
 10
125.3887288097986
 20
-153.4662570145848
 10
125.3949299816721
 20
-153.4662570145848
 10
125.3949299816721
 20
-153.4662570145848
 10
125.5833767047153
 20
-153.4662570145848
 10
125.5833767047153
 20
-153.4662570145848
 10
125.5833767047153
 20
-153.4662570145848
 10
125.9578585839619
 20
-153.4662570145848
 10
125.9578585839619
 20
-153.4662570145848
 10
126.0085014875951
 20
-153.4662570145848
 10
126.2920328460311
 20
-153.4535101612894
 10
126.3237277244954
 20
-153.4535101612894
 10
126.3216606672043
 20
-153.4810709251714
 10
126.3195936099132
 20
-153.5000189503403
 10
126.3195936099132
 20
-153.5296467715134
 10
126.317526552622
 20
-153.5613416499777
 10
126.317526552622
 20
-153.696733902548
 10
126.317526552622
 20
-153.72429466643
 10
126.317526552622
 20
-153.72429466643
 10
126.317526552622
 20
-153.9695854649798
 10
126.317526552622
 20
-153.9695854649798
 10
126.317526552622
 20
-154.0140271967395
 10
126.3216606672043
 20
-154.2107421489473
 10
126.3257947817866
 20
-154.3630153693953
 10
126.3257947817866
 20
-154.3630153693953
 10
126.0994520084057
 20
-154.3630153693953
 10
126.0994520084057
 20
-154.3630153693953
 10
126.0994520084057
 20
-154.3630153693953
 10
126.1015190656968
 20
-154.3292534336399
 10
126.1015190656968
 20
-154.3292534336399
 10
126.1015190656968
 20
-154.3292534336399
 10
125.3994086058029
 20
-154.3292534336399
 10
125.3994086058029
 20
-154.3292534336399
 10
125.3994086058029
 20
-154.3292534336399
 10
125.401475663094
 20
-154.3630153693953
 10
125.401475663094
 20
-154.3630153693953
 10
125.401475663094
 20
-154.3630153693953
 10
125.1834011188778
 20
-154.3630153693953
 10
125.1834011188778
 20
-154.3630153693953
 10
125.1878797430086
 20
-154.3082383511799
 10
125.1878797430086
 20
-154.2954914978844
 10
125.194080914882
 20
-154.1811143277741
 10
125.1961479721732
 20
-154.1535535638921
 10
125.1982150294643
 20
-154.0205728781615
 10
125.1982150294643
 20
-154.0012803434441
 10
125.1982150294643
 20
-154.0012803434441
 10
125.1982150294643
 20
-153.7983642193629
 10
125.1982150294643
 20
-153.7983642193629
 10
125.0586886623117
 20
-154.047789132495
 10
124.8895344739859
 20
-154.179047270483
 10
124.7837700425888
 20
-154.2445040847028
 10
124.7837700425888
 20
-154.2445040847028
 10
124.6101372301322
 20
-154.1049777175501
 10
124.6101372301322
 20
-154.1049777175501
 10
124.6990206936516
 20
-154.0543348139169
 10
124.8430256849351
 20
-153.9675184076887
 10
124.9804849947965
 20
-153.7728705127721
 10
125.0714355156071
 20
-153.6460909989149
 10
125.1368923298269
 20
-153.5020860076314
 10
125.1706542655823
 20
-153.3498127871834
 10
124.9422444349103
 20
-153.3518798444745
 10
124.7624104505802
 20
-153.358081016348
 10
124.6673258151873
 20
-153.3604925831876
 10
124.6673258151873
 20
-153.3604925831876
 10
124.6673258151873
 20
-153.1827256561487
 10
124.6673258151873
 20
-153.1827256561487
 10
124.8640407673951
 20
-153.1889268280222
 10
125.1475721258312
 20
-153.193405452153
 10
125.297778288988
 20
-153.193405452153
 10
125.297778288988
 20
-153.193405452153
 10
125.5113742090735
 20
-153.193405452153
 10
125.5113742090735
 20
-153.193405452153
 10
125.5113742090735
 20
-153.193405452153
 10
125.5113742090735
 20
-153.0852294539162
 10
125.5113742090735
 20
-153.0852294539162
 10
125.5113742090735
 20
-153.0852294539162
 10
125.3653021604989
 20
-153.0852294539162
 10
125.3653021604989
 20
-153.0852294539162
 10
125.1961479721732
 20
-153.0852294539162
 10
125.0269937838474
 20
-153.089708078047
 10
124.8599066528128
 20
-153.0959092499205
 10
124.8599066528128
 20
-153.0959092499205
 10
124.8599066528128
 20
-152.9246880043035
 10
124.8599066528128
 20
-152.9246880043035
 10
125.014246930552
 20
-152.9350232907593
 10
125.2002820867555
 20
-152.9350232907593
 10
125.3653021604989
 20
-152.9350232907593
 10
125.3653021604989
 20
-152.9350232907593
 10
125.5113742090735
 20
-152.9350232907593
 10
125.5113742090735
 20
-152.9350232907593
 10
125.5113742090735
 20
-152.9350232907593
 10
125.5113742090735
 20
-152.8165120060667
 10
125.5113742090735
 20
-152.8165120060667
 10
125.5113742090735
 20
-152.8165120060667
 10
125.3801160710855
 20
-152.8165120060667
 10
125.3801160710855
 20
-152.8165120060667
 10
125.3336072820346
 20
-152.8165120060667
 10
125.1306911579534
 20
-152.8251247447798
 10
125.0883164834849
 20
-152.8251247447798
 10
124.8854003594036
 20
-152.8292588593621
 10
124.8089192396311
 20
-152.8313259166533
 10
124.7307155721159
 20
-152.8337374834929
 10
124.7307155721159
 20
-152.8337374834929
 10
124.7307155721159
 20
-152.6494248750321
 10
124.7307155721159
 20
-152.6494248750321
 10
124.8450927422262
 20
-152.6580376137452
 10
124.8895344739859
 20
-152.6580376137452
 10
125.2722845823972
 20
-152.6666503524583
 10
125.2088948254686
 20
-152.5712212075169
 10
125.1813340615866
 20
-152.5436604436349
 10
125.14550506854
 20
-152.5078314505883
 10
125.14550506854
 20
-152.5078314505883
 10
125.3208604287392
 20
-152.4251491589423
 10
125.3208604287392
 20
-152.4251491589423
 10
125.3611680459166
 20
-152.4613226615374
 10
125.4056097776764
 20
-152.503697336006
 10
125.4796793306092
 20
-152.6135958819855
 10
125.4796793306092
 20
-152.6135958819855
 10
125.3653021604989
 20
-152.6687174097495
 10
125.3653021604989
 20
-152.6687174097495
 10
125.3653021604989
 20
-152.6687174097495
 10
125.3759819565032
 20
-152.6687174097495
 10
125.3759819565032
 20
-152.6687174097495
 10
125.3759819565032
 20
-152.6687174097495
 10
125.8986029416156
 20
-152.6687174097495
 10
125.8986029416156
 20
-152.6687174097495
 10
125.8986029416156
 20
-152.6687174097495
 10
125.8035183062227
 20
-152.6242756779898
 10
125.8035183062227
 20
-152.6242756779898
 10
125.8307345605562
 20
-152.5860351181035
 10
125.8879231456113
 20
-152.5057643932971
 10
125.9027370561979
 20
-152.4316948403643
 10
125.9027370561979
 20
-152.4316948403643
 10
126.1163329762834
 20
-152.4950845972929
 10
126.1163329762834
 20
-152.4950845972929
 10
126.1249457149965
 20
-152.497151654584
 10
126.1459607974565
 20
-152.5078314505883
 10
126.1459607974565
 20
-152.5288465330483
 10
126.1459607974565
 20
-152.5670870929346
 10
126.0805039832368
 20
-152.5670870929346
 10
126.0615559580679
 20
-152.5670870929346
 10
126.0508761620636
 20
-152.5860351181035
 10
126.027449512764
 20
-152.6263427352809
 10
125.9978216915908
 20
-152.6666503524583
 10
126.3977972774283
 20
-152.6601046710364
 10
126.4274250986015
 20
-152.6580376137452
 10
126.5035617088255
 20
-152.6518364418718
 10
126.5035617088255
 20
-152.6518364418718
 10
126.5035617088255
 20
-152.8337374834929
 10
126.5035617088255
 20
-152.8337374834929
 10
126.4846136836566
 20
-152.8337374834929
 10
126.4591199770658
 20
-152.8313259166533
 10
126.2393228851068
 20
-152.8230576874887
 10
126.1883354719251
 20
-152.8209906301975
 10
125.9685383799662
 20
-152.8165120060667
 10
125.9240966482065
 20
-152.8165120060667
 10
125.9240966482065
 20
-152.8165120060667
 10
125.7080891612813
 20
-152.8165120060667
 10
125.7080891612813
 20
-152.8165120060667
 10
125.7080891612813
 20
-152.8165120060667
 10
125.7080891612813
 20
-152.9350232907593
 10
125.7080891612813
 20
-152.9350232907593
 10
125.7080891612813
 20
-152.9350232907593
 10
125.8817219737379
 20
-152.9350232907593
 10
125.8817219737379
 20
-152.9350232907593
 10
126.0446749901902
 20
-152.9350232907593
 10
126.234844260976
 20
-152.9350232907593
 10
126.3915961055549
 20
-152.9246880043035
 10
126.3915961055549
 20
-152.9246880043035
 10
126.3915961055549
 20
-153.0959092499205
 10
126.3915961055549
 20
-153.0959092499205
 10
126.1821343000517
 20
-153.0872965112073
 10
125.9854193478439
 20
-153.0852294539162
 10
125.8817219737379
 20
-153.0852294539162
 10
125.8817219737379
 20
-153.0852294539162
 10
125.7080891612813
 20
-153.0852294539162
 10
125.7080891612813
 20
-153.0852294539162
 10
125.7080891612813
 20
-153.0852294539162
 10
125.7080891612813
 20
-153.193405452153
 10
125.7080891612813
 20
-153.193405452153
 10
125.7080891612813
 20
-153.193405452153
 10
125.938910558793
 20
-153.193405452153
 10
125.938910558793
 20
-153.193405452153
 10
126.0718912445237
 20
-153.193405452153
 10
126.3599012270906
 20
-153.1889268280222
 10
126.5690185230452
 20
-153.1827256561487
 10
126.5690185230452
 20
-153.1827256561487
 10
126.5690185230452
 20
-153.3604925831876
 10
126.5690185230452
 20
-153.3604925831876
 10
126.3767821949683
 20
-153.3539469017657
 10
126.0636230153591
 20
-153.3498127871834
 10
125.938910558793
 20
-153.3498127871834
 97
        0
 97
        1
330
168
 75
     2
 76
     1
 98
        1
 10
0.0
 20
0.0
450
        0
451
        0
460
0.0
461
0.0
452
        0
462
0.0
453
        0
470

  0
SPLINE
  5
16A
330
15D
100
AcDbEntity
  8
レイヤー 1
100
AcDbSpline
210
0.0
220
0.0
230
1.0
 70
     9
 71
     3
 72
    29
 73
    25
 74
     0
 42
0.0000000001
 43
0.0000000001
 40
0.0
 40
0.0
 40
0.0
 40
0.0
 40
1.0
 40
1.0
 40
1.0
 40
2.0
 40
2.0
 40
2.0
 40
3.0
 40
3.0
 40
3.0
 40
4.0
 40
4.0
 40
4.0
 40
5.0
 40
5.0
 40
5.0
 40
6.0
 40
6.0
 40
6.0
 40
7.0
 40
7.0
 40
7.0
 40
8.0
 40
8.0
 40
8.0
 40
8.0
 10
127.8140760314145
 20
-152.7975639808978
 30
0.0
 10
127.8140760314145
 20
-152.7975639808978
 30
0.0
 10
127.4609537441764
 20
-152.7975639808978
 30
0.0
 10
127.4609537441764
 20
-152.7975639808978
 30
0.0
 10
127.3486436313573
 20
-152.7975639808978
 30
0.0
 10
127.2091172642046
 20
-152.8041096623198
 30
0.0
 10
127.1012857755163
 20
-152.8165120060667
 30
0.0
 10
127.1012857755163
 20
-152.8165120060667
 30
0.0
 10
127.1012857755163
 20
-152.5819010035212
 30
0.0
 10
127.1012857755163
 20
-152.5819010035212
 30
0.0
 10
127.2194525506604
 20
-152.5967149141077
 30
0.0
 10
127.4037651591213
 20
-152.6008490286901
 30
0.0
 10
127.4609537441764
 20
-152.6008490286901
 30
0.0
 10
127.4609537441764
 20
-152.6008490286901
 30
0.0
 10
127.8140760314145
 20
-152.6008490286901
 30
0.0
 10
127.8140760314145
 20
-152.6008490286901
 30
0.0
 10
127.8330240565834
 20
-152.6008490286901
 30
0.0
 10
128.0362846902131
 20
-152.6008490286901
 30
0.0
 10
128.1778781146569
 20
-152.5819010035212
 30
0.0
 10
128.1778781146569
 20
-152.5819010035212
 30
0.0
 10
128.1778781146569
 20
-152.8165120060667
 30
0.0
 10
128.1778781146569
 20
-152.8165120060667
 30
0.0
 10
128.0214707796266
 20
-152.7975639808978
 30
0.0
 10
127.8309569992923
 20
-152.7975639808978
 30
0.0
 10
127.8140760314145
 20
-152.7975639808978
 30
0.0
  0
SPLINE
  5
16B
330
15D
100
AcDbEntity
  8
レイヤー 1
100
AcDbSpline
210
0.0
220
0.0
230
1.0
 70
     9
 71
     3
 72
    47
 73
    43
 74
     0
 42
0.0000000001
 43
0.0000000001
 40
0.0
 40
0.0
 40
0.0
 40
0.0
 40
1.0
 40
1.0
 40
1.0
 40
2.0
 40
2.0
 40
2.0
 40
3.0
 40
3.0
 40
3.0
 40
4.0
 40
4.0
 40
4.0
 40
5.0
 40
5.0
 40
5.0
 40
6.0
 40
6.0
 40
6.0
 40
7.0
 40
7.0
 40
7.0
 40
8.0
 40
8.0
 40
8.0
 40
9.0
 40
9.0
 40
9.0
 40
10.0
 40
10.0
 40
10.0
 40
11.0
 40
11.0
 40
11.0
 40
12.0
 40
12.0
 40
12.0
 40
13.0
 40
13.0
 40
13.0
 40
14.0
 40
14.0
 40
14.0
 40
14.0
 10
127.9157063482294
 20
-153.3263861378837
 30
0.0
 10
127.9157063482294
 20
-153.3263861378837
 30
0.0
 10
127.8140760314145
 20
-153.3263861378837
 30
0.0
 10
127.8140760314145
 20
-153.3263861378837
 30
0.0
 10
127.8140760314145
 20
-153.413202544112
 30
0.0
 10
127.7930609489545
 20
-153.8024983339452
 30
0.0
 10
127.5960014871982
 20
-154.0226399354527
 30
0.0
 10
127.4437282667502
 20
-154.1917941237784
 30
0.0
 10
127.2366780280866
 20
-154.261729562129
 30
0.0
 10
127.1519286791495
 20
-154.2889458164625
 30
0.0
 10
127.1519286791495
 20
-154.2889458164625
 30
0.0
 10
126.9572807842329
 20
-154.1218586854278
 30
0.0
 10
126.9572807842329
 20
-154.1218586854278
 30
0.0
 10
127.0544324769169
 20
-154.1091118321324
 30
0.0
 10
127.2301323466647
 20
-154.0860296923813
 30
0.0
 10
127.4185790697078
 20
-153.8975829693381
 30
0.0
 10
127.4926486226407
 20
-153.8259249832449
 30
0.0
 10
127.5960014871982
 20
-153.6860541065437
 30
0.0
 10
127.5960014871982
 20
-153.3263861378837
 30
0.0
 10
127.5960014871982
 20
-153.3263861378837
 30
0.0
 10
127.365524599235
 20
-153.3263861378837
 30
0.0
 10
127.365524599235
 20
-153.3263861378837
 30
0.0
 10
127.1794894430315
 20
-153.3263861378837
 30
0.0
 10
126.9931097772795
 20
-153.3308647620145
 30
0.0
 10
126.807074621076
 20
-153.3456786726011
 30
0.0
 10
126.807074621076
 20
-153.3456786726011
 30
0.0
 10
126.807074621076
 20
-153.1255370710936
 30
0.0
 10
126.807074621076
 20
-153.1255370710936
 30
0.0
 10
126.9955213441191
 20
-153.1403509816802
 30
0.0
 10
127.2811197598464
 20
-153.1444850962625
 30
0.0
 10
127.365524599235
 20
-153.1444850962625
 30
0.0
 10
127.365524599235
 20
-153.1444850962625
 30
0.0
 10
127.9157063482294
 20
-153.1444850962625
 30
0.0
 10
127.9157063482294
 20
-153.1444850962625
 30
0.0
 10
127.9346543733983
 20
-153.1444850962625
 30
0.0
 10
128.2519476675898
 20
-153.1444850962625
 30
0.0
 10
128.4803574982618
 20
-153.1255370710936
 30
0.0
 10
128.4803574982618
 20
-153.1255370710936
 30
0.0
 10
128.4803574982618
 20
-153.3456786726011
 30
0.0
 10
128.4803574982618
 20
-153.3456786726011
 30
0.0
 10
128.2922552847672
 20
-153.3308647620145
 30
0.0
 10
128.103808561724
 20
-153.3263861378837
 30
0.0
 10
127.9157063482294
 20
-153.3263861378837
 30
0.0
  0
HATCH
  5
16C
330
15D
100
AcDbEntity
  8
レイヤー 1
 62
    18
420
        0
440
 33554687
100
AcDbHatch
 10
0.0
 20
0.0
 30
0.0
210
0.0
220
0.0
230
1.0
  2
SOLID
 70
     1
 71
     1
 91
        2
 92
        1
 93
        1
 72
     4
 94
        3
 73
     0
 74
     0
 95
       29
 96
       25
 40
0.0
 40
0.0
 40
0.0
 40
0.0
 40
1.0
 40
1.0
 40
1.0
 40
2.0
 40
2.0
 40
2.0
 40
3.0
 40
3.0
 40
3.0
 40
4.0
 40
4.0
 40
4.0
 40
5.0
 40
5.0
 40
5.0
 40
6.0
 40
6.0
 40
6.0
 40
7.0
 40
7.0
 40
7.0
 40
8.0
 40
8.0
 40
8.0
 40
8.0
 10
127.8140760314145
 20
-152.7975639808978
 10
127.8140760314145
 20
-152.7975639808978
 10
127.4609537441764
 20
-152.7975639808978
 10
127.4609537441764
 20
-152.7975639808978
 10
127.3486436313573
 20
-152.7975639808978
 10
127.2091172642046
 20
-152.8041096623198
 10
127.1012857755163
 20
-152.8165120060667
 10
127.1012857755163
 20
-152.8165120060667
 10
127.1012857755163
 20
-152.5819010035212
 10
127.1012857755163
 20
-152.5819010035212
 10
127.2194525506604
 20
-152.5967149141077
 10
127.4037651591213
 20
-152.6008490286901
 10
127.4609537441764
 20
-152.6008490286901
 10
127.4609537441764
 20
-152.6008490286901
 10
127.8140760314145
 20
-152.6008490286901
 10
127.8140760314145
 20
-152.6008490286901
 10
127.8330240565834
 20
-152.6008490286901
 10
128.0362846902131
 20
-152.6008490286901
 10
128.1778781146569
 20
-152.5819010035212
 10
128.1778781146569
 20
-152.5819010035212
 10
128.1778781146569
 20
-152.8165120060667
 10
128.1778781146569
 20
-152.8165120060667
 10
128.0214707796266
 20
-152.7975639808978
 10
127.8309569992923
 20
-152.7975639808978
 10
127.8140760314145
 20
-152.7975639808978
 97
        0
 97
        1
330
16A
 92
        1
 93
        1
 72
     4
 94
        3
 73
     0
 74
     0
 95
       47
 96
       43
 40
0.0
 40
0.0
 40
0.0
 40
0.0
 40
1.0
 40
1.0
 40
1.0
 40
2.0
 40
2.0
 40
2.0
 40
3.0
 40
3.0
 40
3.0
 40
4.0
 40
4.0
 40
4.0
 40
5.0
 40
5.0
 40
5.0
 40
6.0
 40
6.0
 40
6.0
 40
7.0
 40
7.0
 40
7.0
 40
8.0
 40
8.0
 40
8.0
 40
9.0
 40
9.0
 40
9.0
 40
10.0
 40
10.0
 40
10.0
 40
11.0
 40
11.0
 40
11.0
 40
12.0
 40
12.0
 40
12.0
 40
13.0
 40
13.0
 40
13.0
 40
14.0
 40
14.0
 40
14.0
 40
14.0
 10
127.9157063482294
 20
-153.3263861378837
 10
127.9157063482294
 20
-153.3263861378837
 10
127.8140760314145
 20
-153.3263861378837
 10
127.8140760314145
 20
-153.3263861378837
 10
127.8140760314145
 20
-153.413202544112
 10
127.7930609489545
 20
-153.8024983339452
 10
127.5960014871982
 20
-154.0226399354527
 10
127.4437282667502
 20
-154.1917941237784
 10
127.2366780280866
 20
-154.261729562129
 10
127.1519286791495
 20
-154.2889458164625
 10
127.1519286791495
 20
-154.2889458164625
 10
126.9572807842329
 20
-154.1218586854278
 10
126.9572807842329
 20
-154.1218586854278
 10
127.0544324769169
 20
-154.1091118321324
 10
127.2301323466647
 20
-154.0860296923813
 10
127.4185790697078
 20
-153.8975829693381
 10
127.4926486226407
 20
-153.8259249832449
 10
127.5960014871982
 20
-153.6860541065437
 10
127.5960014871982
 20
-153.3263861378837
 10
127.5960014871982
 20
-153.3263861378837
 10
127.365524599235
 20
-153.3263861378837
 10
127.365524599235
 20
-153.3263861378837
 10
127.1794894430315
 20
-153.3263861378837
 10
126.9931097772795
 20
-153.3308647620145
 10
126.807074621076
 20
-153.3456786726011
 10
126.807074621076
 20
-153.3456786726011
 10
126.807074621076
 20
-153.1255370710936
 10
126.807074621076
 20
-153.1255370710936
 10
126.9955213441191
 20
-153.1403509816802
 10
127.2811197598464
 20
-153.1444850962625
 10
127.365524599235
 20
-153.1444850962625
 10
127.365524599235
 20
-153.1444850962625
 10
127.9157063482294
 20
-153.1444850962625
 10
127.9157063482294
 20
-153.1444850962625
 10
127.9346543733983
 20
-153.1444850962625
 10
128.2519476675898
 20
-153.1444850962625
 10
128.4803574982618
 20
-153.1255370710936
 10
128.4803574982618
 20
-153.1255370710936
 10
128.4803574982618
 20
-153.3456786726011
 10
128.4803574982618
 20
-153.3456786726011
 10
128.2922552847672
 20
-153.3308647620145
 10
128.103808561724
 20
-153.3263861378837
 10
127.9157063482294
 20
-153.3263861378837
 97
        0
 97
        1
330
16B
 75
     2
 76
     1
 98
        1
 10
0.0
 20
0.0
450
        0
451
        0
460
0.0
461
0.0
452
        0
462
0.0
453
        0
470

  0
SPLINE
  5
16D
330
15D
100
AcDbEntity
  8
レイヤー 1
100
AcDbSpline
210
0.0
220
0.0
230
1.0
 70
     9
 71
     3
 72
    29
 73
    25
 74
     0
 42
0.0000000001
 43
0.0000000001
 40
0.0
 40
0.0
 40
0.0
 40
0.0
 40
1.0
 40
1.0
 40
1.0
 40
2.0
 40
2.0
 40
2.0
 40
3.0
 40
3.0
 40
3.0
 40
4.0
 40
4.0
 40
4.0
 40
5.0
 40
5.0
 40
5.0
 40
6.0
 40
6.0
 40
6.0
 40
7.0
 40
7.0
 40
7.0
 40
8.0
 40
8.0
 40
8.0
 40
8.0
 10
129.7615885092262
 20
-153.489339154336
 30
0.0
 10
129.7615885092262
 20
-153.489339154336
 30
0.0
 10
129.2772080840001
 20
-153.489339154336
 30
0.0
 10
129.2772080840001
 20
-153.489339154336
 30
0.0
 10
129.2496473201181
 20
-153.489339154336
 30
0.0
 10
128.9323540259266
 20
-153.489339154336
 30
0.0
 10
128.7208251631323
 20
-153.5148328609268
 30
0.0
 10
128.7208251631323
 20
-153.5148328609268
 30
0.0
 10
128.7208251631323
 20
-153.2843559729636
 30
0.0
 10
128.7208251631323
 20
-153.2843559729636
 30
0.0
 10
128.8792995554538
 20
-153.3074381127148
 30
0.0
 10
129.0698133357881
 20
-153.3095051700059
 30
0.0
 10
129.2772080840001
 20
-153.3095051700059
 30
0.0
 10
129.2772080840001
 20
-153.3095051700059
 30
0.0
 10
129.7615885092262
 20
-153.3095051700059
 30
0.0
 10
129.7615885092262
 20
-153.3095051700059
 30
0.0
 10
129.9476236654298
 20
-153.3095051700059
 30
0.0
 10
130.1340033311818
 20
-153.3074381127148
 30
0.0
 10
130.3179714300941
 20
-153.2843559729636
 30
0.0
 10
130.3179714300941
 20
-153.2843559729636
 30
0.0
 10
130.3179714300941
 20
-153.5148328609268
 30
0.0
 10
130.3179714300941
 20
-153.5148328609268
 30
0.0
 10
130.1340033311818
 20
-153.4914062116271
 30
0.0
 10
129.8863009657923
 20
-153.489339154336
 30
0.0
 10
129.7615885092262
 20
-153.489339154336
 30
0.0
  0
HATCH
  5
16E
330
15D
100
AcDbEntity
  8
レイヤー 1
 62
    18
420
        0
440
 33554687
100
AcDbHatch
 10
0.0
 20
0.0
 30
0.0
210
0.0
220
0.0
230
1.0
  2
SOLID
 70
     1
 71
     1
 91
        1
 92
        1
 93
        1
 72
     4
 94
        3
 73
     0
 74
     0
 95
       29
 96
       25
 40
0.0
 40
0.0
 40
0.0
 40
0.0
 40
1.0
 40
1.0
 40
1.0
 40
2.0
 40
2.0
 40
2.0
 40
3.0
 40
3.0
 40
3.0
 40
4.0
 40
4.0
 40
4.0
 40
5.0
 40
5.0
 40
5.0
 40
6.0
 40
6.0
 40
6.0
 40
7.0
 40
7.0
 40
7.0
 40
8.0
 40
8.0
 40
8.0
 40
8.0
 10
129.7615885092262
 20
-153.489339154336
 10
129.7615885092262
 20
-153.489339154336
 10
129.2772080840001
 20
-153.489339154336
 10
129.2772080840001
 20
-153.489339154336
 10
129.2496473201181
 20
-153.489339154336
 10
128.9323540259266
 20
-153.489339154336
 10
128.7208251631323
 20
-153.5148328609268
 10
128.7208251631323
 20
-153.5148328609268
 10
128.7208251631323
 20
-153.2843559729636
 10
128.7208251631323
 20
-153.2843559729636
 10
128.8792995554538
 20
-153.3074381127148
 10
129.0698133357881
 20
-153.3095051700059
 10
129.2772080840001
 20
-153.3095051700059
 10
129.2772080840001
 20
-153.3095051700059
 10
129.7615885092262
 20
-153.3095051700059
 10
129.7615885092262
 20
-153.3095051700059
 10
129.9476236654298
 20
-153.3095051700059
 10
130.1340033311818
 20
-153.3074381127148
 10
130.3179714300941
 20
-153.2843559729636
 10
130.3179714300941
 20
-153.2843559729636
 10
130.3179714300941
 20
-153.5148328609268
 10
130.3179714300941
 20
-153.5148328609268
 10
130.1340033311818
 20
-153.4914062116271
 10
129.8863009657923
 20
-153.489339154336
 10
129.7615885092262
 20
-153.489339154336
 97
        0
 97
        1
330
16D
 75
     2
 76
     1
 98
        1
 10
0.0
 20
0.0
450
        0
451
        0
460
0.0
461
0.0
452
        0
462
0.0
453
        0
470

  0
SPLINE
  5
16F
330
15D
100
AcDbEntity
  8
レイヤー 1
100
AcDbSpline
210
0.0
220
0.0
230
1.0
 70
     9
 71
     3
 72
    47
 73
    43
 74
     0
 42
0.0000000001
 43
0.0000000001
 40
0.0
 40
0.0
 40
0.0
 40
0.0
 40
1.0
 40
1.0
 40
1.0
 40
2.0
 40
2.0
 40
2.0
 40
3.0
 40
3.0
 40
3.0
 40
4.0
 40
4.0
 40
4.0
 40
5.0
 40
5.0
 40
5.0
 40
6.0
 40
6.0
 40
6.0
 40
7.0
 40
7.0
 40
7.0
 40
8.0
 40
8.0
 40
8.0
 40
9.0
 40
9.0
 40
9.0
 40
10.0
 40
10.0
 40
10.0
 40
11.0
 40
11.0
 40
11.0
 40
12.0
 40
12.0
 40
12.0
 40
13.0
 40
13.0
 40
13.0
 40
14.0
 40
14.0
 40
14.0
 40
14.0
 10
131.9816080399212
 20
-152.8950601831304
 30
0.0
 10
131.9116726015707
 20
-153.1741129174356
 30
0.0
 10
131.8355359913467
 20
-153.4790038678802
 30
0.0
 10
131.5223768117375
 20
-153.8111110726583
 30
0.0
 10
131.2856987519008
 20
-154.0605359857904
 30
0.0
 10
131.0400634438025
 20
-154.1600992453141
 30
0.0
 10
130.9342990124053
 20
-154.2024739197827
 30
0.0
 10
130.9342990124053
 20
-154.2024739197827
 30
0.0
 10
130.7396511174887
 20
-154.0205728781615
 30
0.0
 10
130.7396511174887
 20
-154.0205728781615
 30
0.0
 10
130.9260307832407
 20
-153.9737195795621
 30
0.0
 10
131.2877658091919
 20
-153.8807020014604
 30
0.0
 10
131.5836995113749
 20
-153.3856417802299
 30
0.0
 10
131.7445854705361
 20
-153.1193358992202
 30
0.0
 10
131.7573323238315
 20
-152.9457030867636
 30
0.0
 10
131.7659450625446
 20
-152.854752565953
 30
0.0
 10
131.7659450625446
 20
-152.854752565953
 30
0.0
 10
131.2602050453099
 20
-152.854752565953
 30
0.0
 10
131.2602050453099
 20
-152.854752565953
 30
0.0
 10
131.1416937606173
 20
-152.854752565953
 30
0.0
 10
130.7207030923198
 20
-152.8737005911218
 30
0.0
 10
130.5684298718718
 20
-152.8843803871261
 30
0.0
 10
130.5684298718718
 20
-152.8843803871261
 30
0.0
 10
130.5684298718718
 20
-152.6749185816229
 30
0.0
 10
130.5684298718718
 20
-152.6749185816229
 30
0.0
 10
130.7100232963156
 20
-152.6876654349183
 30
0.0
 10
130.9873534828781
 20
-152.6917995495006
 30
0.0
 10
131.1037977102796
 20
-152.6917995495006
 30
0.0
 10
131.1037977102796
 20
-152.6917995495006
 30
0.0
 10
131.4589870548088
 20
-152.6917995495006
 30
0.0
 10
131.4589870548088
 20
-152.6917995495006
 30
0.0
 10
131.4865478186908
 20
-152.6917995495006
 30
0.0
 10
131.647433777852
 20
-152.6897324922095
 30
0.0
 10
131.7573323238315
 20
-152.6749185816229
 30
0.0
 10
131.8145209088866
 20
-152.6687174097495
 30
0.0
 10
131.8314018767644
 20
-152.6494248750321
 30
0.0
 10
131.8544840165155
 20
-152.6263427352809
 30
0.0
 10
131.8544840165155
 20
-152.6263427352809
 30
0.0
 10
132.0429307395587
 20
-152.7765488984378
 30
0.0
 10
132.0429307395587
 20
-152.7765488984378
 30
0.0
 10
132.0281168289721
 20
-152.8061767196109
 30
0.0
 10
132.0174370329679
 20
-152.8251247447798
 30
0.0
 10
131.9816080399212
 20
-152.8950601831304
 30
0.0
  0
HATCH
  5
170
330
15D
100
AcDbEntity
  8
レイヤー 1
 62
    18
420
        0
440
 33554687
100
AcDbHatch
 10
0.0
 20
0.0
 30
0.0
210
0.0
220
0.0
230
1.0
  2
SOLID
 70
     1
 71
     1
 91
        1
 92
        1
 93
        1
 72
     4
 94
        3
 73
     0
 74
     0
 95
       47
 96
       43
 40
0.0
 40
0.0
 40
0.0
 40
0.0
 40
1.0
 40
1.0
 40
1.0
 40
2.0
 40
2.0
 40
2.0
 40
3.0
 40
3.0
 40
3.0
 40
4.0
 40
4.0
 40
4.0
 40
5.0
 40
5.0
 40
5.0
 40
6.0
 40
6.0
 40
6.0
 40
7.0
 40
7.0
 40
7.0
 40
8.0
 40
8.0
 40
8.0
 40
9.0
 40
9.0
 40
9.0
 40
10.0
 40
10.0
 40
10.0
 40
11.0
 40
11.0
 40
11.0
 40
12.0
 40
12.0
 40
12.0
 40
13.0
 40
13.0
 40
13.0
 40
14.0
 40
14.0
 40
14.0
 40
14.0
 10
131.9816080399212
 20
-152.8950601831304
 10
131.9116726015707
 20
-153.1741129174356
 10
131.8355359913467
 20
-153.4790038678802
 10
131.5223768117375
 20
-153.8111110726583
 10
131.2856987519008
 20
-154.0605359857904
 10
131.0400634438025
 20
-154.1600992453141
 10
130.9342990124053
 20
-154.2024739197827
 10
130.9342990124053
 20
-154.2024739197827
 10
130.7396511174887
 20
-154.0205728781615
 10
130.7396511174887
 20
-154.0205728781615
 10
130.9260307832407
 20
-153.9737195795621
 10
131.2877658091919
 20
-153.8807020014604
 10
131.5836995113749
 20
-153.3856417802299
 10
131.7445854705361
 20
-153.1193358992202
 10
131.7573323238315
 20
-152.9457030867636
 10
131.7659450625446
 20
-152.854752565953
 10
131.7659450625446
 20
-152.854752565953
 10
131.2602050453099
 20
-152.854752565953
 10
131.2602050453099
 20
-152.854752565953
 10
131.1416937606173
 20
-152.854752565953
 10
130.7207030923198
 20
-152.8737005911218
 10
130.5684298718718
 20
-152.8843803871261
 10
130.5684298718718
 20
-152.8843803871261
 10
130.5684298718718
 20
-152.6749185816229
 10
130.5684298718718
 20
-152.6749185816229
 10
130.7100232963156
 20
-152.6876654349183
 10
130.9873534828781
 20
-152.6917995495006
 10
131.1037977102796
 20
-152.6917995495006
 10
131.1037977102796
 20
-152.6917995495006
 10
131.4589870548088
 20
-152.6917995495006
 10
131.4589870548088
 20
-152.6917995495006
 10
131.4865478186908
 20
-152.6917995495006
 10
131.647433777852
 20
-152.6897324922095
 10
131.7573323238315
 20
-152.6749185816229
 10
131.8145209088866
 20
-152.6687174097495
 10
131.8314018767644
 20
-152.6494248750321
 10
131.8544840165155
 20
-152.6263427352809
 10
131.8544840165155
 20
-152.6263427352809
 10
132.0429307395587
 20
-152.7765488984378
 10
132.0429307395587
 20
-152.7765488984378
 10
132.0281168289721
 20
-152.8061767196109
 10
132.0174370329679
 20
-152.8251247447798
 10
131.9816080399212
 20
-152.8950601831304
 97
        0
 97
        1
330
16F
 75
     2
 76
     1
 98
        1
 10
0.0
 20
0.0
450
        0
451
        0
460
0.0
461
0.0
452
        0
462
0.0
453
        0
470

  0
SPLINE
  5
171
330
15D
100
AcDbEntity
  8
レイヤー 1
100
AcDbSpline
210
0.0
220
0.0
230
1.0
 70
    11
 71
     3
 72
    17
 73
    13
 74
     0
 42
0.0000000001
 43
0.0000000001
 40
0.0
 40
0.0
 40
0.0
 40
0.0
 40
1.0
 40
1.0
 40
1.0
 40
2.0
 40
2.0
 40
2.0
 40
3.0
 40
3.0
 40
3.0
 40
4.0
 40
4.0
 40
4.0
 40
4.0
 10
132.3719373584001
 20
-152.6769856389141
 30
0.0
 10
132.3719373584001
 20
-152.7362412812604
 30
0.0
 10
132.4184461474509
 20
-152.7827500703113
 30
0.0
 10
132.4777017897972
 20
-152.7827500703113
 30
0.0
 10
132.5369574321435
 20
-152.7827500703113
 30
0.0
 10
132.5855332784855
 20
-152.7362412812604
 30
0.0
 10
132.5855332784855
 20
-152.6769856389141
 30
0.0
 10
132.5855332784855
 20
-152.6177299965678
 30
0.0
 10
132.5369574321435
 20
-152.5691541502258
 30
0.0
 10
132.4777017897972
 20
-152.5691541502258
 30
0.0
 10
132.4184461474509
 20
-152.5691541502258
 30
0.0
 10
132.3719373584001
 20
-152.6177299965678
 30
0.0
 10
132.3719373584001
 20
-152.6769856389141
 30
0.0
  0
SPLINE
  5
172
330
15D
100
AcDbEntity
  8
レイヤー 1
100
AcDbSpline
210
0.0
220
0.0
230
1.0
 70
     9
 71
     3
 72
    17
 73
    13
 74
     0
 42
0.0000000001
 43
0.0000000001
 40
0.0
 40
0.0
 40
0.0
 40
0.0
 40
1.0
 40
1.0
 40
1.0
 40
2.0
 40
2.0
 40
2.0
 40
3.0
 40
3.0
 40
3.0
 40
4.0
 40
4.0
 40
4.0
 40
4.0
 10
132.6871635953004
 20
-152.6769856389141
 30
0.0
 10
132.6871635953004
 20
-152.7913628090244
 30
0.0
 10
132.5941460171986
 20
-152.8864474444173
 30
0.0
 10
132.4777017897972
 20
-152.8864474444173
 30
0.0
 10
132.3636691292355
 20
-152.8864474444173
 30
0.0
 10
132.268239984294
 20
-152.7913628090244
 30
0.0
 10
132.268239984294
 20
-152.6769856389141
 30
0.0
 10
132.268239984294
 20
-152.5605414115126
 30
0.0
 10
132.3636691292355
 20
-152.4675238334109
 30
0.0
 10
132.4777017897972
 20
-152.4675238334109
 30
0.0
 10
132.5920789599075
 20
-152.4675238334109
 30
0.0
 10
132.6871635953004
 20
-152.5605414115126
 30
0.0
 10
132.6871635953004
 20
-152.6769856389141
 30
0.0
  0
HATCH
  5
173
330
15D
100
AcDbEntity
  8
レイヤー 1
 62
    18
420
        0
440
 33554687
100
AcDbHatch
 10
0.0
 20
0.0
 30
0.0
210
0.0
220
0.0
230
1.0
  2
SOLID
 70
     1
 71
     1
 91
        2
 92
        1
 93
        1
 72
     4
 94
        3
 73
     0
 74
     0
 95
       17
 96
       13
 40
0.0
 40
0.0
 40
0.0
 40
0.0
 40
1.0
 40
1.0
 40
1.0
 40
2.0
 40
2.0
 40
2.0
 40
3.0
 40
3.0
 40
3.0
 40
4.0
 40
4.0
 40
4.0
 40
4.0
 10
132.3719373584001
 20
-152.6769856389141
 10
132.3719373584001
 20
-152.7362412812604
 10
132.4184461474509
 20
-152.7827500703113
 10
132.4777017897972
 20
-152.7827500703113
 10
132.5369574321435
 20
-152.7827500703113
 10
132.5855332784855
 20
-152.7362412812604
 10
132.5855332784855
 20
-152.6769856389141
 10
132.5855332784855
 20
-152.6177299965678
 10
132.5369574321435
 20
-152.5691541502258
 10
132.4777017897972
 20
-152.5691541502258
 10
132.4184461474509
 20
-152.5691541502258
 10
132.3719373584001
 20
-152.6177299965678
 10
132.3719373584001
 20
-152.6769856389141
 97
        0
 97
        1
330
171
 92
        1
 93
        1
 72
     4
 94
        3
 73
     0
 74
     0
 95
       17
 96
       13
 40
0.0
 40
0.0
 40
0.0
 40
0.0
 40
1.0
 40
1.0
 40
1.0
 40
2.0
 40
2.0
 40
2.0
 40
3.0
 40
3.0
 40
3.0
 40
4.0
 40
4.0
 40
4.0
 40
4.0
 10
132.6871635953004
 20
-152.6769856389141
 10
132.6871635953004
 20
-152.7913628090244
 10
132.5941460171986
 20
-152.8864474444173
 10
132.4777017897972
 20
-152.8864474444173
 10
132.3636691292355
 20
-152.8864474444173
 10
132.268239984294
 20
-152.7913628090244
 10
132.268239984294
 20
-152.6769856389141
 10
132.268239984294
 20
-152.5605414115126
 10
132.3636691292355
 20
-152.4675238334109
 10
132.4777017897972
 20
-152.4675238334109
 10
132.5920789599075
 20
-152.4675238334109
 10
132.6871635953004
 20
-152.5605414115126
 10
132.6871635953004
 20
-152.6769856389141
 97
        0
 97
        1
330
172
 75
     2
 76
     1
 98
        1
 10
0.0
 20
0.0
450
        0
451
        0
460
0.0
461
0.0
452
        0
462
0.0
453
        0
470

  0
ENDBLK
  5
160
330
15D
100
AcDbEntity
  8
0
100
AcDbBlockEnd
  0
ENDSEC
  0
SECTION
  2
ENTITIES
  0
LINE
  5
79
330
70
100
AcDbEntity
  8
レイヤー 1
  6
AI-Linetype-0
 62
   154
420
    23468
370
    25
100
AcDbLine
 10
83.44001237659426
 20
-148.1582064387759
 30
0.0
 11
98.43994671613661
 21
-148.1582064387759
 31
0.0
  0
LINE
  5
7B
330
70
100
AcDbEntity
  8
レイヤー 1
  6
AI-Linetype-1
 62
   154
420
    23468
370
    25
100
AcDbLine
 10
113.4436910555811
 20
-148.1582064387759
 30
0.0
 11
128.4436253951231
 21
-148.1582064387759
 31
0.0
  0
INSERT
  5
7E
330
70
100
AcDbEntity
  8
レイヤー 1
100
AcDbBlockReference
  2
Block_0
 10
0.0
 20
0.0
 30
0.0
  0
LINE
  5
84
330
70
100
AcDbEntity
  8
レイヤー 1
 62
    18
420
        0
370
    25
100
AcDbLine
 10
108.4417637004219
 20
-153.1580553264153
 30
0.0
 11
103.4415240885354
 21
-153.1580553264153
 31
0.0
  0
LINE
  5
85
330
70
100
AcDbEntity
  8
レイヤー 1
 62
    18
420
        0
370
    25
100
AcDbLine
 10
83.44001237659426
 20
-146.6578425502622
 30
0.0
 11
83.44001237659426
 21
-147.1580814390259
 31
0.0
  0
LINE
  5
86
330
70
100
AcDbEntity
  8
レイヤー 1
 62
    18
420
        0
370
    25
100
AcDbLine
 10
104.3772318424413
 20
-147.1580814390259
 30
0.0
 11
83.44001237659426
 21
-147.1580814390259
 31
0.0
  0
LINE
  5
87
330
70
100
AcDbEntity
  8
レイヤー 1
 62
    18
420
        0
370
    25
100
AcDbLine
 10
83.44001237659426
 20
-146.6578425502622
 30
0.0
 11
83.95400958570364
 21
-147.0399008834999
 31
0.0
  0
LINE
  5
88
330
70
100
AcDbEntity
  8
レイヤー 1
 62
    18
420
        0
370
    25
100
AcDbLine
 10
83.95400958570364
 20
-147.0399008834999
 30
0.0
 11
84.43943179554139
 21
-146.6223883836042
 31
0.0
  0
LINE
  5
89
330
70
100
AcDbEntity
  8
レイヤー 1
 62
    18
420
        0
370
    25
100
AcDbLine
 10
84.95342900465045
 20
-147.0044467168422
 30
0.0
 11
85.43902760337322
 21
-146.586546161391
 31
0.0
  0
LINE
  5
8A
330
70
100
AcDbEntity
  8
レイヤー 1
 62
    18
420
        0
370
    25
100
AcDbLine
 10
84.43943179554139
 20
-146.6223883836042
 30
0.0
 11
84.95342900465045
 21
-147.0044467168422
 31
0.0
  0
LINE
  5
8B
330
70
100
AcDbEntity
  8
レイヤー 1
 62
    18
420
        0
370
    25
100
AcDbLine
 10
85.43902760337322
 20
-146.586546161391
 30
0.0
 11
85.95302481248197
 21
-146.968604494629
 31
0.0
  0
LINE
  5
8C
330
70
100
AcDbEntity
  8
レイヤー 1
 62
    18
420
        0
370
    25
100
AcDbLine
 10
85.95302481248197
 20
-146.968604494629
 30
0.0
 11
86.43809424455126
 21
-146.5510567169555
 31
0.0
  0
LINE
  5
8D
330
70
100
AcDbEntity
  8
レイヤー 1
 62
    18
420
        0
370
    25
100
AcDbLine
 10
86.43809424455126
 20
-146.5510567169555
 30
0.0
 11
86.95209145366034
 21
-146.9327622724158
 31
0.0
  0
LINE
  5
8E
330
70
100
AcDbEntity
  8
レイヤー 1
 62
    18
420
        0
370
    25
100
AcDbLine
 10
86.95209145366034
 20
-146.9327622724158
 30
0.0
 11
87.43786644126718
 21
-146.5152144947422
 31
0.0
  0
LINE
  5
8F
330
70
100
AcDbEntity
  8
レイヤー 1
 62
    18
420
        0
370
    25
100
AcDbLine
 10
87.43786644126718
 20
-146.5152144947422
 30
0.0
 11
87.95186365037624
 21
-146.8969553279803
 31
0.0
  0
LINE
  5
90
330
70
100
AcDbEntity
  8
レイヤー 1
 62
    18
420
        0
370
    25
100
AcDbLine
 10
87.95186365037624
 20
-146.8969553279803
 30
0.0
 11
88.43693308244553
 21
-146.4794075503068
 31
0.0
  0
LINE
  5
91
330
70
100
AcDbEntity
  8
レイヤー 1
 62
    18
420
        0
370
    25
100
AcDbLine
 10
88.43693308244553
 20
-146.4794075503068
 30
0.0
 11
88.95096556933179
 21
-146.8614658835445
 31
0.0
  0
LINE
  5
92
330
70
100
AcDbEntity
  8
レイヤー 1
 62
    18
420
        0
370
    25
100
AcDbLine
 10
88.95096556933179
 20
-146.8614658835445
 30
0.0
 11
89.43670527916143
 21
-146.4439181058714
 31
0.0
  0
LINE
  5
93
330
70
100
AcDbEntity
  8
レイヤー 1
 62
    18
420
        0
370
    25
100
AcDbLine
 10
89.43670527916143
 20
-146.4439181058714
 30
0.0
 11
89.95003221050982
 21
-146.825976439109
 31
0.0
  0
LINE
  5
94
330
70
100
AcDbEntity
  8
レイヤー 1
 62
    18
420
        0
370
    25
100
AcDbLine
 10
89.95003221050982
 20
-146.825976439109
 30
0.0
 11
90.43577192033978
 21
-146.4080758836581
 31
0.0
  0
LINE
  5
95
330
70
100
AcDbEntity
  8
レイヤー 1
 62
    18
420
        0
370
    25
100
AcDbLine
 10
90.94980440722572
 20
-146.7901342168958
 30
0.0
 11
91.43487383929501
 21
-146.3725864392223
 31
0.0
  0
LINE
  5
96
330
70
100
AcDbEntity
  8
レイヤー 1
 62
    18
420
        0
370
    25
100
AcDbLine
 10
90.43577192033978
 20
-146.4080758836581
 30
0.0
 11
90.94980440722572
 21
-146.7901342168958
 31
0.0
  0
LINE
  5
97
330
70
100
AcDbEntity
  8
レイヤー 1
 62
    18
420
        0
370
    25
100
AcDbLine
 10
91.43487383929501
 20
-146.3725864392223
 30
0.0
 11
91.94887104840409
 21
-146.7543272724604
 31
0.0
  0
LINE
  5
98
330
70
100
AcDbEntity
  8
レイヤー 1
 62
    18
420
        0
370
    25
100
AcDbLine
 10
91.94887104840409
 20
-146.7543272724604
 30
0.0
 11
92.43464603601093
 21
-146.3367794947872
 31
0.0
  0
LINE
  5
99
330
70
100
AcDbEntity
  8
レイヤー 1
 62
    18
420
        0
370
    25
100
AcDbLine
 10
92.94864324511999
 20
-146.7184850502472
 30
0.0
 11
93.43353870417407
 21
-146.300937272574
 31
0.0
  0
LINE
  5
9A
330
70
100
AcDbEntity
  8
レイヤー 1
 62
    18
420
        0
370
    25
100
AcDbLine
 10
92.43464603601093
 20
-146.3367794947872
 30
0.0
 11
92.94864324511999
 21
-146.7184850502472
 31
0.0
  0
LINE
  5
9B
330
70
100
AcDbEntity
  8
レイヤー 1
 62
    18
420
        0
370
    25
100
AcDbLine
 10
93.94753592626761
 20
-146.6829956058113
 30
0.0
 11
94.43331092614631
 21
-146.2654478281381
 31
0.0
  0
LINE
  5
9C
330
70
100
AcDbEntity
  8
レイヤー 1
 62
    18
420
        0
370
    25
100
AcDbLine
 10
93.43353870417407
 20
-146.300937272574
 30
0.0
 11
93.94753592626761
 21
-146.6829956058113
 31
0.0
  0
LINE
  5
9D
330
70
100
AcDbEntity
  8
レイヤー 1
 62
    18
420
        0
370
    25
100
AcDbLine
 10
94.43331092614631
 20
-146.2654478281381
 30
0.0
 11
94.94730814823981
 21
-146.6475061613758
 31
0.0
  0
LINE
  5
9E
330
70
100
AcDbEntity
  8
レイヤー 1
 62
    18
420
        0
370
    25
100
AcDbLine
 10
94.94730814823981
 20
-146.6475061613758
 30
0.0
 11
95.432377592563
 21
-146.2296408837024
 31
0.0
  0
LINE
  5
9F
330
70
100
AcDbEntity
  8
レイヤー 1
 62
    18
420
        0
370
    25
100
AcDbLine
 10
95.432377592563
 20
-146.2296408837024
 30
0.0
 11
95.94640761308509
 21
-146.6116992169404
 31
0.0
  0
LINE
  5
A0
330
70
100
AcDbEntity
  8
レイヤー 1
 62
    18
420
        0
370
    25
100
AcDbLine
 10
95.94640761308509
 20
-146.6116992169404
 30
0.0
 11
96.43147704515438
 21
-146.1941514392669
 31
0.0
  0
LINE
  5
A1
330
70
100
AcDbEntity
  8
レイヤー 1
 62
    18
420
        0
370
    25
100
AcDbLine
 10
96.43147704515438
 20
-146.1941514392669
 30
0.0
 11
96.94547425426344
 21
-146.5758569947272
 31
0.0
  0
LINE
  5
A2
330
70
100
AcDbEntity
  8
レイヤー 1
 62
    18
420
        0
370
    25
100
AcDbLine
 10
96.94547425426344
 20
-146.5758569947272
 30
0.0
 11
97.43121648095224
 21
-146.1583092170537
 31
0.0
  0
LINE
  5
A3
330
70
100
AcDbEntity
  8
レイヤー 1
 62
    18
420
        0
370
    25
100
AcDbLine
 10
97.43121648095224
 20
-146.1583092170537
 30
0.0
 11
97.94524645097968
 21
-146.5400500502918
 31
0.0
  0
LINE
  5
A4
330
70
100
AcDbEntity
  8
レイヤー 1
 62
    18
420
        0
370
    25
100
AcDbLine
 10
97.94524645097968
 20
-146.5400500502918
 30
0.0
 11
98.43031588304866
 21
-146.1225022726183
 31
0.0
  0
LINE
  5
A5
330
70
100
AcDbEntity
  8
レイヤー 1
 62
    18
420
        0
370
    25
100
AcDbLine
 10
98.43031588304866
 20
-146.1225022726183
 30
0.0
 11
98.94431309215772
 21
-146.504560605856
 31
0.0
  0
LINE
  5
A6
330
70
100
AcDbEntity
  8
レイヤー 1
 62
    18
420
        0
370
    25
100
AcDbLine
 10
98.94431309215772
 20
-146.504560605856
 30
0.0
 11
99.43008807976456
 21
-146.0870128281828
 31
0.0
  0
LINE
  5
A7
330
70
100
AcDbEntity
  8
レイヤー 1
 62
    18
420
        0
370
    25
100
AcDbLine
 10
99.43008807976456
 20
-146.0870128281828
 30
0.0
 11
99.94408528887362
 21
-146.4690711614208
 31
0.0
  0
LINE
  5
A8
330
70
100
AcDbEntity
  8
レイヤー 1
 62
    18
420
        0
370
    25
100
AcDbLine
 10
99.94408528887362
 20
-146.4690711614208
 30
0.0
 11
100.4291547209429
 21
-146.0511706059696
 31
0.0
  0
LINE
  5
A9
330
70
100
AcDbEntity
  8
レイヤー 1
 62
    18
420
        0
370
    25
100
AcDbLine
 10
100.4291547209429
 20
-146.0511706059696
 30
0.0
 11
100.9431519300519
 21
-146.4332289392076
 31
0.0
  0
LINE
  5
AA
330
70
100
AcDbEntity
  8
レイヤー 1
 62
    18
420
        0
370
    25
100
AcDbLine
 10
100.9431519300519
 20
-146.4332289392076
 30
0.0
 11
101.4289269176588
 21
-146.0156811615337
 31
0.0
  0
LINE
  5
AB
330
70
100
AcDbEntity
  8
レイヤー 1
 62
    18
420
        0
370
    25
100
AcDbLine
 10
101.4289269176588
 20
-146.0156811615337
 30
0.0
 11
101.9429241267679
 21
-146.3974219947718
 31
0.0
  0
LINE
  5
AC
330
70
100
AcDbEntity
  8
レイヤー 1
 62
    18
420
        0
370
    25
100
AcDbLine
 10
101.9429241267679
 20
-146.3974219947718
 30
0.0
 11
102.4279935588372
 21
-145.9798742170987
 31
0.0
  0
LINE
  5
AD
330
70
100
AcDbEntity
  8
レイヤー 1
 62
    18
420
        0
370
    25
100
AcDbLine
 10
102.4279935588372
 20
-145.9798742170987
 30
0.0
 11
102.9419907679462
 21
-146.3615797725586
 31
0.0
  0
LINE
  5
AE
330
70
100
AcDbEntity
  8
レイヤー 1
 62
    18
420
        0
370
    25
100
AcDbLine
 10
102.9419907679462
 20
-146.3615797725586
 30
0.0
 11
103.4277657555531
 21
-145.9440319948851
 31
0.0
  0
LINE
  5
AF
330
70
100
AcDbEntity
  8
レイヤー 1
 62
    18
420
        0
370
    25
100
AcDbLine
 10
103.5017629647711
 20
-145.8958072726752
 30
0.0
 11
104.4412962852513
 21
-145.8958072726752
 31
0.0
  0
LINE
  5
B0
330
70
100
AcDbEntity
  8
レイヤー 1
 62
    18
420
        0
370
    25
100
AcDbLine
 10
104.4412962852513
 20
-145.8958072726752
 30
0.0
 11
104.4412962852513
 21
-152.1579656044425
 31
0.0
  0
LINE
  5
B1
330
70
100
AcDbEntity
  8
レイヤー 1
 62
    18
420
        0
370
    25
100
AcDbLine
 10
103.4415240885354
 20
-147.1580814390259
 30
0.0
 11
103.4415240885354
 21
-153.1580553264153
 31
0.0
  0
LINE
  5
B2
330
70
100
AcDbEntity
  8
レイヤー 1
 62
    18
420
        0
370
    25
100
AcDbLine
 10
107.4419914784493
 20
-152.1579656044425
 30
0.0
 11
104.4412962852513
 21
-152.1579656044425
 31
0.0
  0
LINE
  5
B3
330
70
100
AcDbEntity
  8
レイヤー 1
 62
    18
420
        0
370
    25
100
AcDbLine
 10
118.449078427883
 20
-146.300937272574
 30
0.0
 11
117.9357514965346
 21
-146.6829956058113
 31
0.0
  0
LINE
  5
B4
330
70
100
AcDbEntity
  8
レイヤー 1
 62
    18
420
        0
370
    25
100
AcDbLine
 10
123.4465283003874
 20
-146.4794075503068
 30
0.0
 11
122.9324958135015
 21
-146.8614658835445
 31
0.0
  0
LINE
  5
B5
330
70
100
AcDbEntity
  8
レイヤー 1
 62
    18
420
        0
370
    25
100
AcDbLine
 10
118.934818137713
 20
-146.7184850502472
 30
0.0
 11
118.449078427883
 21
-146.300937272574
 31
0.0
  0
LINE
  5
B6
330
70
100
AcDbEntity
  8
レイヤー 1
 62
    18
420
        0
370
    25
100
AcDbLine
 10
119.9338847788913
 20
-146.7543272724604
 30
0.0
 11
119.448815346822
 21
-146.3367794947872
 31
0.0
  0
LINE
  5
B7
330
70
100
AcDbEntity
  8
レイヤー 1
 62
    18
420
        0
370
    25
100
AcDbLine
 10
117.9357514965346
 20
-146.6829956058113
 30
0.0
 11
117.4499765089278
 21
-146.2654478281381
 31
0.0
  0
LINE
  5
B8
330
70
100
AcDbEntity
  8
レイヤー 1
 62
    18
420
        0
370
    25
100
AcDbLine
 10
119.448815346822
 20
-146.3367794947872
 30
0.0
 11
118.934818137713
 21
-146.7184850502472
 31
0.0
  0
LINE
  5
B9
330
70
100
AcDbEntity
  8
レイヤー 1
 62
    18
420
        0
370
    25
100
AcDbLine
 10
127.4435356984153
 20
-146.6223883836042
 30
0.0
 11
126.9295032115293
 21
-147.0044467168422
 31
0.0
  0
LINE
  5
BA
330
70
100
AcDbEntity
  8
レイヤー 1
 62
    18
420
        0
370
    25
100
AcDbLine
 10
120.4479172657773
 20
-146.3725864392223
 30
0.0
 11
119.9338847788913
 21
-146.7543272724604
 31
0.0
  0
LINE
  5
BB
330
70
100
AcDbEntity
  8
レイヤー 1
 62
    18
420
        0
370
    25
100
AcDbLine
 10
121.4476894624932
 20
-146.4080758836581
 30
0.0
 11
120.9336569756072
 21
-146.7901342168958
 31
0.0
  0
LINE
  5
BC
330
70
100
AcDbEntity
  8
レイヤー 1
 62
    18
420
        0
370
    25
100
AcDbLine
 10
107.4419914784493
 20
-145.8958072726752
 30
0.0
 11
107.4419914784493
 21
-152.1579656044425
 31
0.0
  0
LINE
  5
BD
330
70
100
AcDbEntity
  8
レイヤー 1
 62
    18
420
        0
370
    25
100
AcDbLine
 10
120.9336569756072
 20
-146.7901342168958
 30
0.0
 11
120.4479172657773
 21
-146.3725864392223
 31
0.0
  0
LINE
  5
BE
330
70
100
AcDbEntity
  8
レイヤー 1
 62
    18
420
        0
370
    25
100
AcDbLine
 10
121.9327588945624
 20
-146.825976439109
 30
0.0
 11
121.4476894624932
 21
-146.4080758836581
 31
0.0
  0
LINE
  5
BF
330
70
100
AcDbEntity
  8
レイヤー 1
 62
    18
420
        0
370
    25
100
AcDbLine
 10
126.9295032115293
 20
-147.0044467168422
 30
0.0
 11
126.44443377946
 21
-146.586546161391
 31
0.0
  0
LINE
  5
C0
330
70
100
AcDbEntity
  8
レイヤー 1
 62
    18
420
        0
370
    25
100
AcDbLine
 10
122.4467561036715
 20
-146.4439181058714
 30
0.0
 11
121.9327588945624
 21
-146.825976439109
 31
0.0
  0
LINE
  5
C1
330
70
100
AcDbEntity
  8
レイヤー 1
 62
    18
420
        0
370
    25
100
AcDbLine
 10
122.9324958135015
 20
-146.8614658835445
 30
0.0
 11
122.4467561036715
 21
-146.4439181058714
 31
0.0
  0
LINE
  5
C2
330
70
100
AcDbEntity
  8
レイヤー 1
 62
    18
420
        0
370
    25
100
AcDbLine
 10
127.9292754082453
 20
-147.0399008834999
 30
0.0
 11
127.4435356984153
 21
-146.6223883836042
 31
0.0
  0
LINE
  5
C3
330
70
100
AcDbEntity
  8
レイヤー 1
 62
    18
420
        0
370
    25
100
AcDbLine
 10
124.4455949415658
 20
-146.5152144947422
 30
0.0
 11
123.9315977324567
 21
-146.8969553279803
 31
0.0
  0
LINE
  5
C4
330
70
100
AcDbEntity
  8
レイヤー 1
 62
    18
420
        0
370
    25
100
AcDbLine
 10
125.4446615827441
 20
-146.5510567169555
 30
0.0
 11
124.9306643736351
 21
-146.9327622724158
 31
0.0
  0
LINE
  5
C5
330
70
100
AcDbEntity
  8
レイヤー 1
 62
    18
420
        0
370
    25
100
AcDbLine
 10
124.9306643736351
 20
-146.9327622724158
 30
0.0
 11
124.4455949415658
 21
-146.5152144947422
 31
0.0
  0
LINE
  5
C6
330
70
100
AcDbEntity
  8
レイヤー 1
 62
    18
420
        0
370
    25
100
AcDbLine
 10
128.4432726173543
 20
-146.6578425502622
 30
0.0
 11
127.9292754082453
 21
-147.0399008834999
 31
0.0
  0
LINE
  5
C7
330
70
100
AcDbEntity
  8
レイヤー 1
 62
    18
420
        0
370
    25
100
AcDbLine
 10
123.9315977324567
 20
-146.8969553279803
 30
0.0
 11
123.4465283003874
 21
-146.4794075503068
 31
0.0
  0
LINE
  5
C8
330
70
100
AcDbEntity
  8
レイヤー 1
 62
    18
420
        0
370
    25
100
AcDbLine
 10
126.44443377946
 20
-146.586546161391
 30
0.0
 11
125.930436570351
 21
-146.968604494629
 31
0.0
  0
LINE
  5
C9
330
70
100
AcDbEntity
  8
レイヤー 1
 62
    18
420
        0
370
    25
100
AcDbLine
 10
125.930436570351
 20
-146.968604494629
 30
0.0
 11
125.4446615827441
 21
-146.5510567169555
 31
0.0
  0
LINE
  5
CA
330
70
100
AcDbEntity
  8
レイヤー 1
 62
    18
420
        0
370
    25
100
AcDbLine
 10
128.4432726173543
 20
-146.6578425502622
 30
0.0
 11
128.4432726173543
 21
-147.1580814390259
 31
0.0
  0
LINE
  5
CB
330
70
100
AcDbEntity
  8
レイヤー 1
 62
    18
420
        0
370
    25
100
AcDbLine
 10
107.5522317614403
 20
-147.1580814390259
 30
0.0
 11
128.4432726173543
 21
-147.1580814390259
 31
0.0
  0
LINE
  5
CC
330
70
100
AcDbEntity
  8
レイヤー 1
 62
    18
420
        0
370
    25
100
AcDbLine
 10
117.4499765089278
 20
-146.2654478281381
 30
0.0
 11
116.9359792998187
 21
-146.6475061613758
 31
0.0
  0
LINE
  5
CD
330
70
100
AcDbEntity
  8
レイヤー 1
 62
    18
420
        0
370
    25
100
AcDbLine
 10
116.9359792998187
 20
-146.6475061613758
 30
0.0
 11
116.4509098677494
 21
-146.2296408837024
 31
0.0
  0
LINE
  5
CE
330
70
100
AcDbEntity
  8
レイヤー 1
 62
    18
420
        0
370
    25
100
AcDbLine
 10
116.4509098677494
 20
-146.2296408837024
 30
0.0
 11
115.9369126586404
 21
-146.6116992169404
 31
0.0
  0
LINE
  5
CF
330
70
100
AcDbEntity
  8
レイヤー 1
 62
    18
420
        0
370
    25
100
AcDbLine
 10
115.9369126586404
 20
-146.6116992169404
 30
0.0
 11
115.4511376710335
 21
-146.1941514392669
 31
0.0
  0
LINE
  5
D0
330
70
100
AcDbEntity
  8
レイヤー 1
 62
    18
420
        0
370
    25
100
AcDbLine
 10
115.4511376710335
 20
-146.1941514392669
 30
0.0
 11
114.9371404619244
 21
-146.5758569947272
 31
0.0
  0
LINE
  5
D1
330
70
100
AcDbEntity
  8
レイヤー 1
 62
    18
420
        0
370
    25
100
AcDbLine
 10
114.9371404619244
 20
-146.5758569947272
 30
0.0
 11
114.4520710298551
 21
-146.1583092170537
 31
0.0
  0
LINE
  5
D2
330
70
100
AcDbEntity
  8
レイヤー 1
 62
    18
420
        0
370
    25
100
AcDbLine
 10
114.4520710298551
 20
-146.1583092170537
 30
0.0
 11
113.9380738207461
 21
-146.5400500502918
 31
0.0
  0
LINE
  5
D3
330
70
100
AcDbEntity
  8
レイヤー 1
 62
    18
420
        0
370
    25
100
AcDbLine
 10
113.9380738207461
 20
-146.5400500502918
 30
0.0
 11
113.4522988331392
 21
-146.1225022726183
 31
0.0
  0
LINE
  5
D4
330
70
100
AcDbEntity
  8
レイヤー 1
 62
    18
420
        0
370
    25
100
AcDbLine
 10
113.4522988331392
 20
-146.1225022726183
 30
0.0
 11
112.9383016240302
 21
-146.504560605856
 31
0.0
  0
LINE
  5
D5
330
70
100
AcDbEntity
  8
レイヤー 1
 62
    18
420
        0
370
    25
100
AcDbLine
 10
112.9383016240302
 20
-146.504560605856
 30
0.0
 11
112.4532321919609
 21
-146.0870128281828
 31
0.0
  0
LINE
  5
D6
330
70
100
AcDbEntity
  8
レイヤー 1
 62
    18
420
        0
370
    25
100
AcDbLine
 10
112.4532321919609
 20
-146.0870128281828
 30
0.0
 11
111.9392025884367
 21
-146.4690711614208
 31
0.0
  0
LINE
  5
D7
330
70
100
AcDbEntity
  8
レイヤー 1
 62
    18
420
        0
370
    25
100
AcDbLine
 10
111.9392025884367
 20
-146.4690711614208
 30
0.0
 11
111.4541331441135
 21
-146.0511706059696
 31
0.0
  0
LINE
  5
D8
330
70
100
AcDbEntity
  8
レイヤー 1
 62
    18
420
        0
370
    25
100
AcDbLine
 10
111.4541331441135
 20
-146.0511706059696
 30
0.0
 11
110.9401359220196
 21
-146.4332289392076
 31
0.0
  0
LINE
  5
D9
330
70
100
AcDbEntity
  8
レイヤー 1
 62
    18
420
        0
370
    25
100
AcDbLine
 10
110.9401359220196
 20
-146.4332289392076
 30
0.0
 11
110.4543933540666
 21
-146.0156811615337
 31
0.0
  0
LINE
  5
DA
330
70
100
AcDbEntity
  8
レイヤー 1
 62
    18
420
        0
370
    25
100
AcDbLine
 10
110.4543933540666
 20
-146.0156811615337
 30
0.0
 11
109.9403637000471
 21
-146.3974219947718
 31
0.0
  0
LINE
  5
DB
330
70
100
AcDbEntity
  8
レイヤー 1
 62
    18
420
        0
370
    25
100
AcDbLine
 10
109.9403637000471
 20
-146.3974219947718
 30
0.0
 11
109.4552942557239
 21
-145.9798742170987
 31
0.0
  0
LINE
  5
DC
330
70
100
AcDbEntity
  8
レイヤー 1
 62
    18
420
        0
370
    25
100
AcDbLine
 10
109.4552942557239
 20
-145.9798742170987
 30
0.0
 11
108.9412970336301
 21
-146.3615797725586
 31
0.0
  0
LINE
  5
DD
330
70
100
AcDbEntity
  8
レイヤー 1
 62
    18
420
        0
370
    25
100
AcDbLine
 10
108.9412970336301
 20
-146.3615797725586
 30
0.0
 11
108.455522033752
 21
-145.9440319948851
 31
0.0
  0
LINE
  5
DE
330
70
100
AcDbEntity
  8
レイヤー 1
 62
    18
420
        0
370
    25
100
AcDbLine
 10
108.3815248115492
 20
-145.8958072726752
 30
0.0
 11
107.4419914784493
 21
-145.8958072726752
 31
0.0
  0
LINE
  5
DF
330
70
100
AcDbEntity
  8
レイヤー 1
 62
    18
420
        0
370
    25
100
AcDbLine
 10
108.4417637004219
 20
-147.1580814390259
 30
0.0
 11
108.4417637004219
 21
-153.1580553264153
 31
0.0
  0
SPLINE
  5
E0
330
70
100
AcDbEntity
  8
レイヤー 1
 62
    18
420
        0
370
     9
100
AcDbSpline
210
0.0
220
0.0
230
1.0
 70
     9
 71
     3
 72
    17
 73
    13
 74
     0
 42
0.0000000001
 43
0.0000000001
 40
0.0
 40
0.0
 40
0.0
 40
0.0
 40
1.0
 40
1.0
 40
1.0
 40
2.0
 40
2.0
 40
2.0
 40
3.0
 40
3.0
 40
3.0
 40
4.0
 40
4.0
 40
4.0
 40
4.0
 10
83.53991904071209
 20
-141.8960481070083
 30
0.0
 10
83.53991904071209
 20
-141.8405914403554
 30
0.0
 10
83.49511626407734
 20
-141.795788662589
 30
0.0
 10
83.44001237659426
 20
-141.795788662589
 30
0.0
 10
83.38487321133431
 20
-141.795788662589
 30
0.0
 10
83.34010571247643
 20
-141.8405914403554
 30
0.0
 10
83.34010571247643
 20
-141.8960481070083
 30
0.0
 10
83.34010571247643
 20
-141.9511519958833
 30
0.0
 10
83.38487321133431
 20
-141.99595477365
 30
0.0
 10
83.44001237659426
 20
-141.99595477365
 30
0.0
 10
83.49511626407734
 20
-141.99595477365
 30
0.0
 10
83.53991904071209
 20
-141.9511519958833
 30
0.0
 10
83.53991904071209
 20
-141.8960481070083
 30
0.0
  0
SPLINE
  5
E1
330
70
100
AcDbEntity
  8
レイヤー 1
 62
    18
420
        0
370
     9
100
AcDbSpline
210
0.0
220
0.0
230
1.0
 70
     9
 71
     3
 72
    17
 73
    13
 74
     0
 42
0.0000000001
 43
0.0000000001
 40
0.0
 40
0.0
 40
0.0
 40
0.0
 40
1.0
 40
1.0
 40
1.0
 40
2.0
 40
2.0
 40
2.0
 40
3.0
 40
3.0
 40
3.0
 40
4.0
 40
4.0
 40
4.0
 40
4.0
 10
79.54015997608779
 20
-146.6578425502622
 30
0.0
 10
79.54015997608779
 20
-146.602738661387
 30
0.0
 10
79.49535719945302
 20
-146.5579358836206
 30
0.0
 10
79.440255374339
 20
-146.5579358836206
 30
0.0
 10
79.38511414670999
 20
-146.5579358836206
 30
0.0
 10
79.34034664785212
 20
-146.602738661387
 30
0.0
 10
79.34034664785212
 20
-146.6578425502622
 30
0.0
 10
79.34034664785212
 20
-146.712981716915
 30
0.0
 10
79.38511414670999
 20
-146.7577492169039
 30
0.0
 10
79.440255374339
 20
-146.7577492169039
 30
0.0
 10
79.49535719945302
 20
-146.7577492169039
 30
0.0
 10
79.54015997608779
 20
-146.712981716915
 30
0.0
 10
79.54015997608779
 20
-146.6578425502622
 30
0.0
  0
SPLINE
  5
E2
330
70
100
AcDbEntity
  8
レイヤー 1
 62
    18
420
        0
370
     9
100
AcDbSpline
210
0.0
220
0.0
230
1.0
 70
     9
 71
     3
 72
    17
 73
    13
 74
     0
 42
0.0000000001
 43
0.0000000001
 40
0.0
 40
0.0
 40
0.0
 40
0.0
 40
1.0
 40
1.0
 40
1.0
 40
2.0
 40
2.0
 40
2.0
 40
3.0
 40
3.0
 40
3.0
 40
4.0
 40
4.0
 40
4.0
 40
4.0
 10
79.54015997608779
 20
-147.1580814390259
 30
0.0
 10
79.54015997608779
 20
-147.102977550151
 30
0.0
 10
79.49535719945302
 20
-147.0581747723843
 30
0.0
 10
79.440255374339
 20
-147.0581747723843
 30
0.0
 10
79.38511414670999
 20
-147.0581747723843
 30
0.0
 10
79.34034664785212
 20
-147.102977550151
 30
0.0
 10
79.34034664785212
 20
-147.1580814390259
 30
0.0
 10
79.34034664785212
 20
-147.213220605679
 30
0.0
 10
79.38511414670999
 20
-147.2579881056676
 30
0.0
 10
79.440255374339
 20
-147.2579881056676
 30
0.0
 10
79.49535719945302
 20
-147.2579881056676
 30
0.0
 10
79.54015997608779
 20
-147.213220605679
 30
0.0
 10
79.54015997608779
 20
-147.1580814390259
 30
0.0
  0
SPLINE
  5
E3
330
70
100
AcDbEntity
  8
レイヤー 1
 62
    18
420
        0
370
     9
100
AcDbSpline
210
0.0
220
0.0
230
1.0
 70
     9
 71
     3
 72
    17
 73
    13
 74
     0
 42
0.0000000001
 43
0.0000000001
 40
0.0
 40
0.0
 40
0.0
 40
0.0
 40
1.0
 40
1.0
 40
1.0
 40
2.0
 40
2.0
 40
2.0
 40
3.0
 40
3.0
 40
3.0
 40
4.0
 40
4.0
 40
4.0
 40
4.0
 10
79.54015997608779
 20
-153.1580553264153
 30
0.0
 10
79.54015997608779
 20
-153.1029514375397
 30
0.0
 10
79.49535719945302
 20
-153.058148659773
 30
0.0
 10
79.440255374339
 20
-153.058148659773
 30
0.0
 10
79.38511414670999
 20
-153.058148659773
 30
0.0
 10
79.34034664785212
 20
-153.1029514375397
 30
0.0
 10
79.34034664785212
 20
-153.1580553264153
 30
0.0
 10
79.34034664785212
 20
-153.2131944930677
 30
0.0
 10
79.38511414670999
 20
-153.2579619930562
 30
0.0
 10
79.440255374339
 20
-153.2579619930562
 30
0.0
 10
79.49535719945302
 20
-153.2579619930562
 30
0.0
 10
79.54015997608779
 20
-153.2131944930677
 30
0.0
 10
79.54015997608779
 20
-153.1580553264153
 30
0.0
  0
SPLINE
  5
E4
330
70
100
AcDbEntity
  8
レイヤー 1
 62
    18
420
        0
370
     9
100
AcDbSpline
210
0.0
220
0.0
230
1.0
 70
     9
 71
     3
 72
    17
 73
    13
 74
     0
 42
0.0000000001
 43
0.0000000001
 40
0.0
 40
0.0
 40
0.0
 40
0.0
 40
1.0
 40
1.0
 40
1.0
 40
2.0
 40
2.0
 40
2.0
 40
3.0
 40
3.0
 40
3.0
 40
4.0
 40
4.0
 40
4.0
 40
4.0
 10
104.5412029493695
 20
-141.8960481070083
 30
0.0
 10
104.5412029493695
 20
-141.8405914403554
 30
0.0
 10
104.4964354505113
 20
-141.795788662589
 30
0.0
 10
104.4412962852513
 20
-141.795788662589
 30
0.0
 10
104.3861923977682
 20
-141.795788662589
 30
0.0
 10
104.3413896211335
 20
-141.8405914403554
 30
0.0
 10
104.3413896211335
 20
-141.8960481070083
 30
0.0
 10
104.3413896211335
 20
-141.9511519958833
 30
0.0
 10
104.3861923977682
 20
-141.99595477365
 30
0.0
 10
104.4412962852513
 20
-141.99595477365
 30
0.0
 10
104.4964354505113
 20
-141.99595477365
 30
0.0
 10
104.5412029493695
 20
-141.9511519958833
 30
0.0
 10
104.5412029493695
 20
-141.8960481070083
 30
0.0
  0
SPLINE
  5
E5
330
70
100
AcDbEntity
  8
レイヤー 1
 62
    18
420
        0
370
     9
100
AcDbSpline
210
0.0
220
0.0
230
1.0
 70
     9
 71
     3
 72
    17
 73
    13
 74
     0
 42
0.0000000001
 43
0.0000000001
 40
0.0
 40
0.0
 40
0.0
 40
0.0
 40
1.0
 40
1.0
 40
1.0
 40
2.0
 40
2.0
 40
2.0
 40
3.0
 40
3.0
 40
3.0
 40
4.0
 40
4.0
 40
4.0
 40
4.0
 10
128.64308594559
 20
-141.8960481070083
 30
0.0
 10
128.64308594559
 20
-141.8405914403554
 30
0.0
 10
128.5983184467321
 20
-141.795788662589
 30
0.0
 10
128.5431792814721
 20
-141.795788662589
 30
0.0
 10
128.4873698384515
 20
-141.795788662589
 30
0.0
 10
128.4426023395936
 20
-141.8405914403554
 30
0.0
 10
128.4426023395936
 20
-141.8960481070083
 30
0.0
 10
128.4426023395936
 20
-141.9511519958833
 30
0.0
 10
128.4873698384515
 20
-141.99595477365
 30
0.0
 10
128.5431792814721
 20
-141.99595477365
 30
0.0
 10
128.5983184467321
 20
-141.99595477365
 30
0.0
 10
128.64308594559
 20
-141.9511519958833
 30
0.0
 10
128.64308594559
 20
-141.8960481070083
 30
0.0
  0
SPLINE
  5
E6
330
70
100
AcDbEntity
  8
レイヤー 1
 62
    18
420
        0
370
     9
100
AcDbSpline
210
0.0
220
0.0
230
1.0
 70
     9
 71
     3
 72
    17
 73
    13
 74
     0
 42
0.0000000001
 43
0.0000000001
 40
0.0
 40
0.0
 40
0.0
 40
0.0
 40
1.0
 40
1.0
 40
1.0
 40
2.0
 40
2.0
 40
2.0
 40
3.0
 40
3.0
 40
3.0
 40
4.0
 40
4.0
 40
4.0
 40
4.0
 10
107.6418020369329
 20
-141.8960481070083
 30
0.0
 10
107.6418020369329
 20
-141.8405914403554
 30
0.0
 10
107.5969992602981
 20
-141.795788662589
 30
0.0
 10
107.5418953728151
 20
-141.795788662589
 30
0.0
 10
107.4867562075551
 20
-141.795788662589
 30
0.0
 10
107.4419914784493
 20
-141.8405914403554
 30
0.0
 10
107.4419914784493
 20
-141.8960481070083
 30
0.0
 10
107.4419914784493
 20
-141.9511519958833
 30
0.0
 10
107.4867562075551
 20
-141.99595477365
 30
0.0
 10
107.5418953728151
 20
-141.99595477365
 30
0.0
 10
107.5969992602981
 20
-141.99595477365
 30
0.0
 10
107.6418020369329
 20
-141.9511519958833
 30
0.0
 10
107.6418020369329
 20
-141.8960481070083
 30
0.0
  0
LINE
  5
E7
330
70
100
AcDbEntity
  8
レイヤー 1
 62
    18
420
        0
370
     9
100
AcDbLine
 10
79.440255374339
 20
-146.6578425502622
 30
0.0
 11
79.440255374339
 21
-141.3999367182433
 31
0.0
  0
LINE
  5
E8
330
70
100
AcDbEntity
  8
レイヤー 1
 62
    18
420
        0
370
     9
100
AcDbLine
 10
79.440255374339
 20
-146.6578425502622
 30
0.0
 11
79.440255374339
 21
-147.1580814390259
 31
0.0
  0
LINE
  5
E9
330
70
100
AcDbEntity
  8
レイヤー 1
 62
    18
420
        0
370
     9
100
AcDbLine
 10
80.90029466361039
 20
-146.6578425502622
 30
0.0
 11
78.44013037458903
 21
-146.6578425502622
 31
0.0
  0
LINE
  5
EA
330
70
100
AcDbEntity
  8
レイヤー 1
 62
    18
420
        0
370
     9
100
AcDbLine
 10
80.90029466361039
 20
-147.1580814390259
 30
0.0
 11
78.44013037458903
 21
-147.1580814390259
 31
0.0
  0
INSERT
  5
EC
330
70
100
AcDbEntity
  8
レイヤー 1
100
AcDbBlockReference
  2
Block_1
 10
0.0
 20
0.0
 30
0.0
  0
LINE
  5
FA
330
70
100
AcDbEntity
  8
レイヤー 1
 62
    18
420
        0
370
     9
100
AcDbLine
 10
83.44001237659426
 20
-141.8960481070083
 30
0.0
 11
104.4412962852513
 21
-141.8960481070083
 31
0.0
  0
LINE
  5
FB
330
70
100
AcDbEntity
  8
レイヤー 1
 62
    18
420
        0
370
     9
100
AcDbLine
 10
83.44001237659426
 20
-144.1181247731197
 30
0.0
 11
83.44001237659426
 21
-140.8959231072584
 31
0.0
  0
INSERT
  5
FD
330
70
100
AcDbEntity
  8
レイヤー 1
100
AcDbBlockReference
  2
Block_3
 10
0.0
 20
0.0
 30
0.0
  0
LINE
  5
108
330
70
100
AcDbEntity
  8
レイヤー 1
 62
    18
420
        0
370
     9
100
AcDbLine
 10
79.440255374339
 20
-147.1580814390259
 30
0.0
 11
79.440255374339
 21
-153.1580553264153
 31
0.0
  0
LINE
  5
109
330
70
100
AcDbEntity
  8
レイヤー 1
 62
    18
420
        0
370
     9
100
AcDbLine
 10
100.9018063755512
 20
-153.1580553264153
 30
0.0
 11
78.44013037458903
 21
-153.1580553264153
 31
0.0
  0
INSERT
  5
10B
330
70
100
AcDbEntity
  8
レイヤー 1
100
AcDbBlockReference
  2
Block_5
 10
0.0
 20
0.0
 30
0.0
  0
LINE
  5
111
330
70
100
AcDbEntity
  8
レイヤー 1
 62
    18
420
        0
370
     9
100
AcDbLine
 10
128.5431792814721
 20
-141.8960481070083
 30
0.0
 11
107.5418953728151
 21
-141.8960481070083
 31
0.0
  0
LINE
  5
112
330
70
100
AcDbEntity
  8
レイヤー 1
 62
    18
420
        0
370
     9
100
AcDbLine
 10
128.5431792814721
 20
-144.1181247731197
 30
0.0
 11
128.5431792814721
 21
-140.8959231072584
 31
0.0
  0
INSERT
  5
114
330
70
100
AcDbEntity
  8
レイヤー 1
100
AcDbBlockReference
  2
Block_6
 10
0.0
 20
0.0
 30
0.0
  0
LINE
  5
11F
330
70
100
AcDbEntity
  8
レイヤー 1
 62
    18
420
        0
370
     9
100
AcDbLine
 10
104.4412962852513
 20
-141.8960481070083
 30
0.0
 11
107.4419914784493
 21
-141.8960481070083
 31
0.0
  0
LINE
  5
120
330
70
100
AcDbEntity
  8
レイヤー 1
 62
    18
420
        0
370
     9
100
AcDbLine
 10
104.4412962852513
 20
-143.3560894955324
 30
0.0
 11
104.4412962852513
 21
-140.8959231072584
 31
0.0
  0
LINE
  5
121
330
70
100
AcDbEntity
  8
レイヤー 1
 62
    18
420
        0
370
     9
100
AcDbLine
 10
107.5418953728151
 20
-143.3560894955324
 30
0.0
 11
107.5418953728151
 21
-140.8959231072584
 31
0.0
  0
INSERT
  5
123
330
70
100
AcDbEntity
  8
レイヤー 1
100
AcDbBlockReference
  2
Block_8
 10
0.0
 20
0.0
 30
0.0
  0
SPLINE
  5
128
330
70
100
AcDbEntity
  8
レイヤー 1
 62
    18
420
        0
370
     9
100
AcDbSpline
210
0.0
220
0.0
230
1.0
 70
     9
 71
     3
 72
    17
 73
    13
 74
     0
 42
0.0000000001
 43
0.0000000001
 40
0.0
 40
0.0
 40
0.0
 40
0.0
 40
1.0
 40
1.0
 40
1.0
 40
2.0
 40
2.0
 40
2.0
 40
3.0
 40
3.0
 40
3.0
 40
4.0
 40
4.0
 40
4.0
 40
4.0
 10
103.7254043590708
 20
-157.2715147698308
 30
0.0
 10
103.7254043590708
 20
-157.2163756031783
 30
0.0
 10
103.6695949160501
 20
-157.1716081031898
 30
0.0
 10
103.6014029733454
 20
-157.1716081031898
 30
0.0
 10
103.5325081460932
 20
-157.1716081031898
 30
0.0
 10
103.4773663098432
 20
-157.2163756031783
 30
0.0
 10
103.4773663098432
 20
-157.2715147698308
 30
0.0
 10
103.4773663098432
 20
-157.3266186587063
 30
0.0
 10
103.5325081460932
 20
-157.371421436473
 30
0.0
 10
103.6014029733454
 20
-157.371421436473
 30
0.0
 10
103.6695949160501
 20
-157.371421436473
 30
0.0
 10
103.7254043590708
 20
-157.3266186587063
 30
0.0
 10
103.7254043590708
 20
-157.2715147698308
 30
0.0
  0
SPLINE
  5
129
330
70
100
AcDbEntity
  8
レイヤー 1
 62
    18
420
        0
370
     9
100
AcDbSpline
210
0.0
220
0.0
230
1.0
 70
     9
 71
     3
 72
    17
 73
    13
 74
     0
 42
0.0000000001
 43
0.0000000001
 40
0.0
 40
0.0
 40
0.0
 40
0.0
 40
1.0
 40
1.0
 40
1.0
 40
2.0
 40
2.0
 40
2.0
 40
3.0
 40
3.0
 40
3.0
 40
4.0
 40
4.0
 40
4.0
 40
4.0
 10
108.7263114537092
 20
-157.2715147698308
 30
0.0
 10
108.7263114537092
 20
-157.2163756031783
 30
0.0
 10
108.6705020106886
 20
-157.1716081031898
 30
0.0
 10
108.6016045124463
 20
-157.1716081031898
 30
0.0
 10
108.532707014204
 20
-157.1716081031898
 30
0.0
 10
108.4775678489441
 20
-157.2163756031783
 30
0.0
 10
108.4775678489441
 20
-157.2715147698308
 30
0.0
 10
108.4775678489441
 20
-157.3266186587063
 30
0.0
 10
108.532707014204
 20
-157.371421436473
 30
0.0
 10
108.6016045124463
 20
-157.371421436473
 30
0.0
 10
108.6705020106886
 20
-157.371421436473
 30
0.0
 10
108.7263114537092
 20
-157.3266186587063
 30
0.0
 10
108.7263114537092
 20
-157.2715147698308
 30
0.0
  0
LINE
  5
12A
330
70
100
AcDbEntity
  8
レイヤー 1
 62
    18
420
        0
370
     9
100
AcDbLine
 10
108.6016045124463
 20
-157.2715147698308
 30
0.0
 11
103.6014029733454
 21
-157.2715147698308
 31
0.0
  0
LINE
  5
12B
330
70
100
AcDbEntity
  8
レイヤー 1
 62
    18
420
        0
370
     9
100
AcDbLine
 10
108.6016045124463
 20
-155.811473381307
 30
0.0
 11
108.6016045124463
 21
-158.2716044918035
 31
0.0
  0
LINE
  5
12C
330
70
100
AcDbEntity
  8
レイヤー 1
 62
    18
420
        0
370
     9
100
AcDbLine
 10
103.6014029733454
 20
-155.811473381307
 30
0.0
 11
103.6014029733454
 21
-158.2716044918035
 31
0.0
  0
INSERT
  5
12E
330
70
100
AcDbEntity
  8
レイヤー 1
100
AcDbBlockReference
  2
Block_9
 10
0.0
 20
0.0
 30
0.0
  0
LINE
  5
133
330
70
100
AcDbEntity
  8
レイヤー 1
 62
    18
420
        0
370
     9
100
AcDbLine
 10
106.4132914787068
 20
-150.3036244937955
 30
0.0
 11
113.413704945235
 21
-150.3036244937955
 31
0.0
  0
INSERT
  5
135
330
70
100
AcDbEntity
  8
レイヤー 1
100
AcDbBlockReference
  2
Block_10
 10
0.0
 20
0.0
 30
0.0
  0
INSERT
  5
13B
330
70
100
AcDbEntity
  8
レイヤー 1
100
AcDbBlockReference
  2
Block_11
 10
0.0
 20
0.0
 30
0.0
  0
INSERT
  5
142
330
70
100
AcDbEntity
  8
レイヤー 1
100
AcDbBlockReference
  2
Block_12
 10
0.0
 20
0.0
 30
0.0
  0
INSERT
  5
15A
330
70
100
AcDbEntity
  8
レイヤー 1
100
AcDbBlockReference
  2
Block_14
 10
0.0
 20
0.0
 30
0.0
  0
ENDSEC
  0
SECTION
  2
OBJECTS
  0
DICTIONARY
  5
C
330
0
100
AcDbDictionary
281
     1
  3
ACAD_COLOR
350
63
  3
ACAD_DETAILVIEWSTYLE
350
6A
  3
ACAD_GROUP
350
D
  3
ACAD_LAYOUT
350
62
  3
ACAD_MATERIAL
350
10
  3
ACAD_MLEADERSTYLE
350
66
  3
ACAD_MLINESTYLE
350
5F
  3
ACAD_PLOTSETTINGS
350
61
  3
ACAD_PLOTSTYLENAME
350
E
  3
ACAD_SCALELIST
350
42
  3
ACAD_SECTIONVIEWSTYLE
350
68
  3
ACAD_TABLESTYLE
350
64
  3
ACAD_VISUALSTYLE
350
29
  3
ACDB_RECOMPOSE_DATA
350
17C
  3
AcDbVariableDictionary
350
174
  0
DICTIONARY
  5
63
102
{ACAD_REACTORS
330
C
102
}
330
C
100
AcDbDictionary
281
     1
  0
DICTIONARY
  5
6A
102
{ACAD_REACTORS
330
C
102
}
330
C
100
AcDbDictionary
281
     1
  3
Imperial24
350
6B
  0
DICTIONARY
  5
D
102
{ACAD_REACTORS
330
C
102
}
330
C
100
AcDbDictionary
281
     1
  0
DICTIONARY
  5
62
102
{ACAD_REACTORS
330
C
102
}
330
C
100
AcDbDictionary
281
     1
  3
Layout1
350
6F
  3
Layout2
350
77
  3
Model
350
73
  0
DICTIONARY
  5
10
102
{ACAD_REACTORS
330
C
102
}
330
C
100
AcDbDictionary
281
     1
  3
ByBlock
350
19
  3
ByLayer
350
11
  3
Global
350
21
  0
DICTIONARY
  5
66
102
{ACAD_REACTORS
330
C
102
}
330
C
100
AcDbDictionary
281
     1
  3
Standard
350
67
  0
DICTIONARY
  5
5F
102
{ACAD_REACTORS
330
C
102
}
330
C
100
AcDbDictionary
281
     1
  3
Standard
350
60
  0
DICTIONARY
  5
61
102
{ACAD_REACTORS
330
C
102
}
330
C
100
AcDbDictionary
281
     1
  0
ACDBDICTIONARYWDFLT
  5
E
102
{ACAD_REACTORS
330
C
102
}
330
C
100
AcDbDictionary
281
     1
  3
Normal
350
F
100
AcDbDictionaryWithDefault
340
F
  0
DICTIONARY
  5
42
102
{ACAD_REACTORS
330
C
102
}
330
C
100
AcDbDictionary
281
     1
  3
A0
350
43
  3
A1
350
44
  3
A2
350
45
  3
A3
350
46
  3
A4
350
47
  3
A5
350
48
  3
A6
350
49
  3
A7
350
4A
  3
A8
350
4B
  3
A9
350
4C
  3
B0
350
4D
  3
B1
350
4E
  3
B2
350
4F
  3
B3
350
50
  3
B4
350
51
  3
B5
350
52
  3
B6
350
53
  0
DICTIONARY
  5
68
102
{ACAD_REACTORS
330
C
102
}
330
C
100
AcDbDictionary
281
     1
  3
Imperial24
350
69
  0
DICTIONARY
  5
64
102
{ACAD_REACTORS
330
C
102
}
330
C
100
AcDbDictionary
281
     1
  3
Standard
350
65
  0
DICTIONARY
  5
29
102
{ACAD_REACTORS
330
C
102
}
330
C
100
AcDbDictionary
281
     1
  3
2dWireframe
350
2F
  3
Basic
350
2E
  3
Brighten
350
35
  3
ColorChange
350
39
  3
Conceptual
350
32
  3
Dim
350
34
  3
EdgeColorOff
350
41
  3
Facepattern
350
38
  3
Flat
350
2A
  3
FlatWithEdges
350
2B
  3
Gouraud
350
2C
  3
GouraudWithEdges
350
2D
  3
Hidden
350
31
  3
JitterOff
350
3F
  3
Linepattern
350
37
  3
OverhangOff
350
40
  3
Realistic
350
33
  3
Shaded
350
3E
  3
Shaded with edges
350
3D
  3
Shades of Gray
350
3A
  3
Sketchy
350
3B
  3
Thicken
350
36
  3
Wireframe
350
30
  3
X-Ray
350
3C
  0
XRECORD
  5
17C
102
{ACAD_REACTORS
330
C
102
}
330
C
100
AcDbXrecord
280
     1
 90
        1
330
65
  0
DICTIONARY
  5
174
102
{ACAD_REACTORS
330
C
102
}
330
C
100
AcDbDictionary
281
     1
  3
CANNOSCALE
350
179
  3
CMLEADERSTYLE
350
176
  3
CTABLESTYLE
350
175
  3
CVIEWDETAILSTYLE
350
177
  3
CVIEWSECTIONSTYLE
350
178
  0
ACDBDETAILVIEWSTYLE
  5
6B
102
{ACAD_XDICTIONARY
360
1B1
102
}
102
{ACAD_REACTORS
330
6A
102
}
330
6A
100
AcDbModelDocViewStyle
 70
     0
  3
Imperial24
290
     0
100
AcDbDetailViewStyle
 70
     0
 71
     0
 90
        3
 71
     1
340
55
 62
   256
 40
0.24
340
0
 62
   256
 40
0.24
300

 40
0.36
280
     3
 71
     2
340
5D
 90
       25
 62
   256
 71
     3
340
55
 62
   256
 40
0.24
 90
        1
 40
0.75
 90
        1
300
%<\AcVar ViewType \f "%tc1">% %<\AcVar ViewDetailId>%\PSCALE %<\AcVar ViewScale \f "%sn">%
 71
     4
340
5D
 90
       25
 62
   256
340
5D
 90
       25
 62
   256
280
     0
  0
LAYOUT
  5
6F
102
{ACAD_REACTORS
330
62
102
}
330
62
100
AcDbPlotSettings
  1

  2

  4

  6

 40
0.0
 41
0.0
 42
0.0
 43
0.0
 44
0.0
 45
0.0
 46
0.0
 47
0.0
 48
0.0
 49
0.0
140
0.0
141
0.0
142
1.0
143
1.0
 70
   688
 72
     0
 73
     0
 74
     5
  7

 75
    16
147
1.0
 76
     0
 77
     2
 78
   300
148
0.0
149
0.0
100
AcDbLayout
  1
Layout1
 70
     1
 71
     1
 10
0.0
 20
0.0
 11
12.0
 21
9.0
 12
0.0
 22
0.0
 32
0.0
 14
0.0
 24
0.0
 34
0.0
 15
0.0
 25
0.0
 35
0.0
146
0.0
 13
0.0
 23
0.0
 33
0.0
 16
1.0
 26
0.0
 36
0.0
 17
0.0
 27
1.0
 37
0.0
 76
     0
330
6C
  0
LAYOUT
  5
77
102
{ACAD_REACTORS
330
62
102
}
330
62
100
AcDbPlotSettings
  1

  2

  4

  6

 40
0.0
 41
0.0
 42
0.0
 43
0.0
 44
0.0
 45
0.0
 46
0.0
 47
0.0
 48
0.0
 49
0.0
140
0.0
141
0.0
142
1.0
143
1.0
 70
   688
 72
     0
 73
     0
 74
     5
  7

 75
    16
147
1.0
 76
     0
 77
     2
 78
   300
148
0.0
149
0.0
100
AcDbLayout
  1
Layout2
 70
     1
 71
     2
 10
0.0
 20
0.0
 11
12.0
 21
9.0
 12
0.0
 22
0.0
 32
0.0
 14
0.0
 24
0.0
 34
0.0
 15
0.0
 25
0.0
 35
0.0
146
0.0
 13
0.0
 23
0.0
 33
0.0
 16
1.0
 26
0.0
 36
0.0
 17
0.0
 27
1.0
 37
0.0
 76
     0
330
74
  0
LAYOUT
  5
73
102
{ACAD_REACTORS
330
62
102
}
330
62
100
AcDbPlotSettings
  1

  2

  4

  6

 40
0.0
 41
0.0
 42
0.0
 43
0.0
 44
0.0
 45
0.0
 46
0.0
 47
0.0
 48
0.0
 49
0.0
140
0.0
141
0.0
142
1.0
143
1.0
 70
  1712
 72
     0
 73
     0
 74
     0
  7

 75
     0
147
1.0
 76
     0
 77
     2
 78
   300
148
0.0
149
0.0
100
AcDbLayout
  1
Model
 70
     1
 71
     0
 10
0.0
 20
0.0
 11
12.0
 21
9.0
 12
0.0
 22
0.0
 32
0.0
 14
0.0
 24
0.0
 34
0.0
 15
0.0
 25
0.0
 35
0.0
146
0.0
 13
0.0
 23
0.0
 33
0.0
 16
1.0
 26
0.0
 36
0.0
 17
0.0
 27
1.0
 37
0.0
 76
     0
330
70
  0
MATERIAL
  5
19
102
{ACAD_XDICTIONARY
360
1A
102
}
102
{ACAD_REACTORS
330
10
102
}
330
10
100
AcDbMaterial
  1
ByBlock
 72
     0
 43
0.0208333333333333
 43
0.0
 43
0.0
 43
0.0
 43
0.0
 43
0.0208333333333333
 43
0.0
 43
0.0
 43
0.0
 43
0.0
 43
1.0
 43
0.0
 43
0.0
 43
0.0
 43
0.0
 43
1.0
 77
     0
 47
0.0208333333333333
 47
0.0
 47
0.0
 47
0.0
 47
0.0
 47
0.0208333333333333
 47
0.0
 47
0.0
 47
0.0
 47
0.0
 47
1.0
 47
0.0
 47
0.0
 47
0.0
 47
0.0
 47
1.0
171
     0
 49
0.0208333333333333
 49
0.0
 49
0.0
 49
0.0
 49
0.0
 49
0.0208333333333333
 49
0.0
 49
0.0
 49
0.0
 49
0.0
 49
1.0
 49
0.0
 49
0.0
 49
0.0
 49
0.0
 49
1.0
175
     0
142
0.0208333333333333
142
0.0
142
0.0
142
0.0
142
0.0
142
0.0208333333333333
142
0.0
142
0.0
142
0.0
142
0.0
142
1.0
142
0.0
142
0.0
142
0.0
142
0.0
142
1.0
179
     0
144
0.0208333333333333
144
0.0
144
0.0
144
0.0
144
0.0
144
0.0208333333333333
144
0.0
144
0.0
144
0.0
144
0.0
144
1.0
144
0.0
144
0.0
144
0.0
144
0.0
144
1.0
147
0.0208333333333333
147
0.0
147
0.0
147
0.0
147
0.0
147
0.0208333333333333
147
0.0
147
0.0
147
0.0
147
0.0
147
1.0
147
0.0
147
0.0
147
0.0
147
0.0
147
1.0
  0
MATERIAL
  5
11
102
{ACAD_XDICTIONARY
360
12
102
}
102
{ACAD_REACTORS
330
10
102
}
330
10
100
AcDbMaterial
  1
ByLayer
 72
     0
 43
0.0208333333333333
 43
0.0
 43
0.0
 43
0.0
 43
0.0
 43
0.0208333333333333
 43
0.0
 43
0.0
 43
0.0
 43
0.0
 43
1.0
 43
0.0
 43
0.0
 43
0.0
 43
0.0
 43
1.0
 77
     0
 47
0.0208333333333333
 47
0.0
 47
0.0
 47
0.0
 47
0.0
 47
0.0208333333333333
 47
0.0
 47
0.0
 47
0.0
 47
0.0
 47
1.0
 47
0.0
 47
0.0
 47
0.0
 47
0.0
 47
1.0
171
     0
 49
0.0208333333333333
 49
0.0
 49
0.0
 49
0.0
 49
0.0
 49
0.0208333333333333
 49
0.0
 49
0.0
 49
0.0
 49
0.0
 49
1.0
 49
0.0
 49
0.0
 49
0.0
 49
0.0
 49
1.0
175
     0
142
0.0208333333333333
142
0.0
142
0.0
142
0.0
142
0.0
142
0.0208333333333333
142
0.0
142
0.0
142
0.0
142
0.0
142
1.0
142
0.0
142
0.0
142
0.0
142
0.0
142
1.0
179
     0
144
0.0208333333333333
144
0.0
144
0.0
144
0.0
144
0.0
144
0.0208333333333333
144
0.0
144
0.0
144
0.0
144
0.0
144
1.0
144
0.0
144
0.0
144
0.0
144
0.0
144
1.0
147
0.0208333333333333
147
0.0
147
0.0
147
0.0
147
0.0
147
0.0208333333333333
147
0.0
147
0.0
147
0.0
147
0.0
147
1.0
147
0.0
147
0.0
147
0.0
147
0.0
147
1.0
  0
MATERIAL
  5
21
102
{ACAD_XDICTIONARY
360
22
102
}
102
{ACAD_REACTORS
330
10
102
}
330
10
100
AcDbMaterial
  1
Global
 72
     0
 43
0.0208333333333333
 43
0.0
 43
0.0
 43
0.0
 43
0.0
 43
0.0208333333333333
 43
0.0
 43
0.0
 43
0.0
 43
0.0
 43
1.0
 43
0.0
 43
0.0
 43
0.0
 43
0.0
 43
1.0
 77
     0
 47
0.0208333333333333
 47
0.0
 47
0.0
 47
0.0
 47
0.0
 47
0.0208333333333333
 47
0.0
 47
0.0
 47
0.0
 47
0.0
 47
1.0
 47
0.0
 47
0.0
 47
0.0
 47
0.0
 47
1.0
171
     0
 49
0.0208333333333333
 49
0.0
 49
0.0
 49
0.0
 49
0.0
 49
0.0208333333333333
 49
0.0
 49
0.0
 49
0.0
 49
0.0
 49
1.0
 49
0.0
 49
0.0
 49
0.0
 49
0.0
 49
1.0
175
     0
142
0.0208333333333333
142
0.0
142
0.0
142
0.0
142
0.0
142
0.0208333333333333
142
0.0
142
0.0
142
0.0
142
0.0
142
1.0
142
0.0
142
0.0
142
0.0
142
0.0
142
1.0
179
     0
144
0.0208333333333333
144
0.0
144
0.0
144
0.0
144
0.0
144
0.0208333333333333
144
0.0
144
0.0
144
0.0
144
0.0
144
1.0
144
0.0
144
0.0
144
0.0
144
0.0
144
1.0
147
0.0208333333333333
147
0.0
147
0.0
147
0.0
147
0.0
147
0.0208333333333333
147
0.0
147
0.0
147
0.0
147
0.0
147
1.0
147
0.0
147
0.0
147
0.0
147
0.0
147
1.0
  0
MLEADERSTYLE
  5
67
102
{ACAD_XDICTIONARY
360
1AD
102
}
102
{ACAD_REACTORS
330
66
102
}
330
66
100
AcDbMLeaderStyle
179
     2
170
     2
171
     1
172
     0
 90
        2
 40
0.0
 41
0.0
173
     1
 91
-1056964608
340
5B
 92
       -2
290
     1
 42
0.09
291
     1
 43
0.36
  3
Standard
 44
0.18
300

342
55
174
     1
178
     6
175
     1
176
     0
 93
-1056964608
 45
0.18
292
     0
297
     0
 46
0.18
 94
-1056964608
 47
1.0
 49
1.0
140
1.0
293
     1
141
0.0
294
     1
177
     0
142
1.0
295
     0
296
     0
143
0.125
271
     0
272
     9
273
     9
  0
MLINESTYLE
  5
60
102
{ACAD_REACTORS
330
5F
102
}
330
5F
100
AcDbMlineStyle
  2
STANDARD
 70
     0
  3

 62
   256
 51
90.0
 52
90.0
 71
     2
 49
0.5
 62
   256
  6
BYLAYER
 49
-0.5
 62
   256
  6
BYLAYER
  0
ACDBPLACEHOLDER
  5
F
102
{ACAD_REACTORS
330
E
102
}
330
E
  0
SCALE
  5
43
102
{ACAD_REACTORS
330
42
102
}
330
42
100
AcDbScale
 70
     0
300
1:1
140
1.0
141
1.0
290
     1
  0
SCALE
  5
44
102
{ACAD_REACTORS
330
42
102
}
330
42
100
AcDbScale
 70
     0
300
1/128" = 1'-0"
140
0.0078125
141
12.0
290
     0
  0
SCALE
  5
45
102
{ACAD_REACTORS
330
42
102
}
330
42
100
AcDbScale
 70
     0
300
1/64" = 1'-0"
140
0.015625
141
12.0
290
     0
  0
SCALE
  5
46
102
{ACAD_REACTORS
330
42
102
}
330
42
100
AcDbScale
 70
     0
300
1/32" = 1'-0"
140
0.03125
141
12.0
290
     0
  0
SCALE
  5
47
102
{ACAD_REACTORS
330
42
102
}
330
42
100
AcDbScale
 70
     0
300
1/16" = 1'-0"
140
0.0625
141
12.0
290
     0
  0
SCALE
  5
48
102
{ACAD_REACTORS
330
42
102
}
330
42
100
AcDbScale
 70
     0
300
3/32" = 1'-0"
140
0.09375
141
12.0
290
     0
  0
SCALE
  5
49
102
{ACAD_REACTORS
330
42
102
}
330
42
100
AcDbScale
 70
     0
300
1/8" = 1'-0"
140
0.125
141
12.0
290
     0
  0
SCALE
  5
4A
102
{ACAD_REACTORS
330
42
102
}
330
42
100
AcDbScale
 70
     0
300
3/16" = 1'-0"
140
0.1875
141
12.0
290
     0
  0
SCALE
  5
4B
102
{ACAD_REACTORS
330
42
102
}
330
42
100
AcDbScale
 70
     0
300
1/4" = 1'-0"
140
0.25
141
12.0
290
     0
  0
SCALE
  5
4C
102
{ACAD_REACTORS
330
42
102
}
330
42
100
AcDbScale
 70
     0
300
3/8" = 1'-0"
140
0.375
141
12.0
290
     0
  0
SCALE
  5
4D
102
{ACAD_REACTORS
330
42
102
}
330
42
100
AcDbScale
 70
     0
300
1/2" = 1'-0"
140
0.5
141
12.0
290
     0
  0
SCALE
  5
4E
102
{ACAD_REACTORS
330
42
102
}
330
42
100
AcDbScale
 70
     0
300
3/4" = 1'-0"
140
0.75
141
12.0
290
     0
  0
SCALE
  5
4F
102
{ACAD_REACTORS
330
42
102
}
330
42
100
AcDbScale
 70
     0
300
1" = 1'-0"
140
1.0
141
12.0
290
     0
  0
SCALE
  5
50
102
{ACAD_REACTORS
330
42
102
}
330
42
100
AcDbScale
 70
     0
300
1-1/2" = 1'-0"
140
1.5
141
12.0
290
     0
  0
SCALE
  5
51
102
{ACAD_REACTORS
330
42
102
}
330
42
100
AcDbScale
 70
     0
300
3" = 1'-0"
140
3.0
141
12.0
290
     0
  0
SCALE
  5
52
102
{ACAD_REACTORS
330
42
102
}
330
42
100
AcDbScale
 70
     0
300
6" = 1'-0"
140
6.0
141
12.0
290
     0
  0
SCALE
  5
53
102
{ACAD_REACTORS
330
42
102
}
330
42
100
AcDbScale
 70
     0
300
1'-0" = 1'-0"
140
12.0
141
12.0
290
     0
  0
ACDBSECTIONVIEWSTYLE
  5
69
102
{ACAD_XDICTIONARY
360
1AF
102
}
102
{ACAD_REACTORS
330
68
102
}
330
68
100
AcDbModelDocViewStyle
 70
     0
  3
Imperial24
290
     0
100
AcDbSectionViewStyle
 70
     0
 71
     0
 90
       78
 71
     1
340
55
 62
   256
 40
0.24
340
0
340
0
 62
   256
 40
0.24
300
I, O, Q, S, X, Z
 40
0.48
 90
        3
 40
0.18
 90
        1
 71
     2
340
5D
 90
       25
 62
   256
340
5D
 90
       50
 62
   256
 40
0.24
 40
0.0
 40
0.24
 71
     3
340
55
 62
   256
 40
0.24
 90
        1
 40
0.75
 90
        1
300
%<\AcVar ViewType \f "%tc1">% %<\AcVar ViewSectionStartId>%-%<\AcVar ViewSectionEndId>%\PSCALE %<\AcVar ViewScale \f "%sn">%
 71
     4
 62
   256
 62
   257
300
ANSI31
 40
1.0
 90
        0
290
     0
290
     0
 90
        6
 40
0.0
 40
1.570796326794896
 40
0.2617993877991494
 40
1.308996938995747
 40
-0.2617993877991494
 40
1.832595714594046
  0
TABLESTYLE
  5
65
102
{ACAD_XDICTIONARY
360
17A
102
}
102
{ACAD_REACTORS
330
64
102
}
330
64
100
AcDbTableStyle
280
     0
  3
Standard
 70
     0
 71
     0
 40
0.06
 41
0.06
280
     0
281
     0
  7
Standard
140
0.18
170
     2
 62
     0
 63
     7
283
     0
 90
      512
 91
        0
  1

274
    -2
284
     1
 64
     0
275
    -2
285
     1
 65
     0
276
    -2
286
     1
 66
     0
277
    -2
287
     1
 67
     0
278
    -2
288
     1
 68
     0
279
    -2
289
     1
 69
     0
  7
Standard
140
0.25
170
     5
 62
     0
 63
     7
283
     0
 90
      512
 91
        0
  1

274
    -2
284
     1
 64
     0
275
    -2
285
     1
 65
     0
276
    -2
286
     1
 66
     0
277
    -2
287
     1
 67
     0
278
    -2
288
     1
 68
     0
279
    -2
289
     1
 69
     0
  7
Standard
140
0.18
170
     5
 62
     0
 63
     7
283
     0
 90
      512
 91
        0
  1

274
    -2
284
     1
 64
     0
275
    -2
285
     1
 65
     0
276
    -2
286
     1
 66
     0
277
    -2
287
     1
 67
     0
278
    -2
288
     1
 68
     0
279
    -2
289
     1
 69
     0
  0
VISUALSTYLE
  5
2F
102
{ACAD_XDICTIONARY
360
187
102
}
102
{ACAD_REACTORS
330
29
102
}
330
29
100
AcDbVisualStyle
  2
2dWireframe
 70
     4
177
     2
291
     0
 71
     0
176
     1
 72
     2
176
     1
 73
     0
176
     1
 90
        0
176
     1
 40
0.6
176
     1
 41
30.0
176
     1
 63
     7
421
 16777215
176
     1
 74
     1
176
     1
 91
        4
176
     1
 64
     7
176
     1
 65
   257
176
     1
 75
     1
176
     1
175
     1
176
     1
 42
1.0
176
     1
 92
        0
176
     1
 66
   257
176
     1
 43
1.0
176
     1
 76
     1
176
     1
 77
     6
176
     1
 78
     2
176
     1
 67
     7
176
     1
 79
     5
176
     1
170
     0
176
     1
171
     0
176
     1
290
     0
176
     1
 93
        1
176
     1
 44
0.0
176
     1
173
     0
176
     1
1001
ACAD
1000
AcDbSavedByObjectVersion
1070
     0
  0
VISUALSTYLE
  5
2E
102
{ACAD_XDICTIONARY
360
185
102
}
102
{ACAD_REACTORS
330
29
102
}
330
29
100
AcDbVisualStyle
  2
Basic
 70
     7
177
     2
291
     1
 71
     1
176
     1
 72
     0
176
     1
 73
     1
176
     1
 90
        0
176
     1
 40
0.6
176
     1
 41
30.0
176
     1
 63
     7
421
 16777215
176
     1
 74
     0
176
     1
 91
        4
176
     1
 64
     7
176
     1
 65
   257
176
     1
 75
     1
176
     1
175
     1
176
     1
 42
1.0
176
     1
 92
        8
176
     1
 66
     7
176
     1
 43
1.0
176
     1
 76
     1
176
     1
 77
     6
176
     1
 78
     2
176
     1
 67
     7
176
     1
 79
     5
176
     1
170
     0
176
     1
171
     0
176
     1
290
     0
176
     1
 93
        1
176
     1
 44
0.0
176
     1
173
     0
176
     1
1001
ACAD
1000
AcDbSavedByObjectVersion
1070
     0
  0
VISUALSTYLE
  5
35
102
{ACAD_XDICTIONARY
360
193
102
}
102
{ACAD_REACTORS
330
29
102
}
330
29
100
AcDbVisualStyle
  2
Brighten
 70
    12
177
     2
291
     1
 71
     2
176
     1
 72
     2
176
     1
 73
     0
176
     1
 90
        0
176
     1
 40
0.6
176
     1
 41
30.0
176
     1
 63
     7
421
 16777215
176
     1
 74
     1
176
     1
 91
        4
176
     1
 64
     7
176
     1
 65
   257
176
     1
 75
     1
176
     1
175
     1
176
     1
 42
1.0
176
     1
 92
        8
176
     1
 66
     7
176
     1
 43
1.0
176
     1
 76
     1
176
     1
 77
     6
176
     1
 78
     2
176
     1
 67
     7
176
     1
 79
     5
176
     1
170
     0
176
     1
171
     0
176
     1
290
     0
176
     1
 93
        1
176
     1
 44
50.0
176
     1
173
     0
176
     1
1001
ACAD
1000
AcDbSavedByObjectVersion
1070
     0
  0
VISUALSTYLE
  5
39
102
{ACAD_XDICTIONARY
360
19B
102
}
102
{ACAD_REACTORS
330
29
102
}
330
29
100
AcDbVisualStyle
  2
ColorChange
 70
    16
177
     2
291
     1
 71
     2
176
     1
 72
     2
176
     1
 73
     3
176
     1
 90
        0
176
     1
 40
0.6
176
     1
 41
30.0
176
     1
 63
     8
421
  8421504
176
     1
 74
     1
176
     1
 91
        4
176
     1
 64
     7
176
     1
 65
   257
176
     1
 75
     1
176
     1
175
     1
176
     1
 42
1.0
176
     1
 92
        8
176
     1
 66
     8
424
  8421504
176
     1
 43
1.0
176
     1
 76
     1
176
     1
 77
     6
176
     1
 78
     2
176
     1
 67
     7
176
     1
 79
     5
176
     1
170
     0
176
     1
171
     0
176
     1
290
     0
176
     1
 93
        1
176
     1
 44
0.0
176
     1
173
     0
176
     1
1001
ACAD
1000
AcDbSavedByObjectVersion
1070
     0
  0
VISUALSTYLE
  5
32
102
{ACAD_XDICTIONARY
360
18D
102
}
102
{ACAD_REACTORS
330
29
102
}
330
29
100
AcDbVisualStyle
  2
Conceptual
 70
     9
177
     2
291
     0
 71
     3
176
     1
 72
     2
176
     1
 73
     0
176
     1
 90
        0
176
     1
 40
0.6
176
     1
 41
30.0
176
     1
 63
     7
421
 16777215
176
     1
 74
     2
176
     1
 91
        2
176
     1
 64
     7
176
     1
 65
   257
176
     1
 75
     1
176
     1
175
     1
176
     1
 42
179.0
176
     1
 92
        8
176
     1
 66
     7
176
     1
 43
1.0
176
     1
 76
     1
176
     1
 77
     6
176
     1
 78
     2
176
     1
 67
     7
176
     1
 79
     3
176
     1
170
     0
176
     1
171
     0
176
     1
290
     0
176
     1
 93
        1
176
     1
 44
0.0
176
     1
173
     0
176
     1
1001
ACAD
1000
AcDbSavedByObjectVersion
1070
     0
  0
VISUALSTYLE
  5
34
102
{ACAD_XDICTIONARY
360
191
102
}
102
{ACAD_REACTORS
330
29
102
}
330
29
100
AcDbVisualStyle
  2
Dim
 70
    11
177
     2
291
     1
 71
     2
176
     1
 72
     2
176
     1
 73
     0
176
     1
 90
        0
176
     1
 40
0.6
176
     1
 41
30.0
176
     1
 63
     7
421
 16777215
176
     1
 74
     1
176
     1
 91
        4
176
     1
 64
     7
176
     1
 65
   257
176
     1
 75
     1
176
     1
175
     1
176
     1
 42
1.0
176
     1
 92
        8
176
     1
 66
     7
176
     1
 43
1.0
176
     1
 76
     1
176
     1
 77
     6
176
     1
 78
     2
176
     1
 67
     7
176
     1
 79
     5
176
     1
170
     0
176
     1
171
     0
176
     1
290
     0
176
     1
 93
        1
176
     1
 44
-50.0
176
     1
173
     0
176
     1
1001
ACAD
1000
AcDbSavedByObjectVersion
1070
     0
  0
VISUALSTYLE
  5
41
102
{ACAD_XDICTIONARY
360
1AB
102
}
102
{ACAD_REACTORS
330
29
102
}
330
29
100
AcDbVisualStyle
  2
EdgeColorOff
 70
    22
177
     2
291
     1
 71
     2
176
     0
 72
     2
176
     0
 73
     0
176
     0
 90
        0
176
     0
 40
0.6
176
     0
 41
30.0
176
     0
 63
     7
421
 16777215
176
     0
 74
     1
176
     0
 91
        4
176
     0
 64
     7
176
     0
 65
   257
176
     0
 75
     1
176
     0
175
     1
176
     0
 42
1.0
176
     0
 92
        8
176
     2
 66
     7
176
     0
 43
1.0
176
     0
 76
     1
176
     0
 77
     6
176
     0
 78
     2
176
     0
 67
     7
176
     0
 79
     5
176
     0
170
     0
176
     0
171
     0
176
     0
290
     0
176
     0
 93
        1
176
     0
 44
0.0
176
     0
173
     0
176
     0
1001
ACAD
1000
AcDbSavedByObjectVersion
1070
     0
  0
VISUALSTYLE
  5
38
102
{ACAD_XDICTIONARY
360
199
102
}
102
{ACAD_REACTORS
330
29
102
}
330
29
100
AcDbVisualStyle
  2
Facepattern
 70
    15
177
     2
291
     1
 71
     2
176
     1
 72
     2
176
     1
 73
     0
176
     1
 90
        0
176
     1
 40
0.6
176
     1
 41
30.0
176
     1
 63
     7
421
 16777215
176
     1
 74
     1
176
     1
 91
        4
176
     1
 64
     7
176
     1
 65
   257
176
     1
 75
     1
176
     1
175
     1
176
     1
 42
1.0
176
     1
 92
        8
176
     1
 66
     7
176
     1
 43
1.0
176
     1
 76
     1
176
     1
 77
     6
176
     1
 78
     2
176
     1
 67
     7
176
     1
 79
     5
176
     1
170
     0
176
     1
171
     0
176
     1
290
     0
176
     1
 93
        1
176
     1
 44
0.0
176
     1
173
     0
176
     1
1001
ACAD
1000
AcDbSavedByObjectVersion
1070
     0
  0
VISUALSTYLE
  5
2A
102
{ACAD_XDICTIONARY
360
17D
102
}
102
{ACAD_REACTORS
330
29
102
}
330
29
100
AcDbVisualStyle
  2
Flat
 70
     0
177
     2
291
     1
 71
     2
176
     1
 72
     1
176
     1
 73
     1
176
     1
 90
        2
176
     1
 40
0.6
176
     1
 41
30.0
176
     1
 63
     7
421
 16777215
176
     1
 74
     0
176
     1
 91
        0
176
     1
 64
     7
176
     1
 65
   257
176
     1
 75
     1
176
     1
175
     1
176
     1
 42
1.0
176
     1
 92
        8
176
     1
 66
     7
176
     1
 43
1.0
176
     1
 76
     1
176
     1
 77
     6
176
     1
 78
     2
176
     1
 67
     7
176
     1
 79
     5
176
     1
170
     0
176
     1
171
     0
176
     1
290
     0
176
     1
 93
       13
176
     1
 44
0.0
176
     1
173
     0
176
     1
1001
ACAD
1000
AcDbSavedByObjectVersion
1070
     0
  0
VISUALSTYLE
  5
2B
102
{ACAD_XDICTIONARY
360
17F
102
}
102
{ACAD_REACTORS
330
29
102
}
330
29
100
AcDbVisualStyle
  2
FlatWithEdges
 70
     1
177
     2
291
     1
 71
     2
176
     1
 72
     1
176
     1
 73
     1
176
     1
 90
        2
176
     1
 40
0.6
176
     1
 41
30.0
176
     1
 63
     7
421
 16777215
176
     1
 74
     1
176
     1
 91
        0
176
     1
 64
     7
176
     1
 65
   257
176
     1
 75
     1
176
     1
175
     1
176
     1
 42
1.0
176
     1
 92
        0
176
     1
 66
   257
176
     1
 43
1.0
176
     1
 76
     1
176
     1
 77
     6
176
     1
 78
     2
176
     1
 67
     7
176
     1
 79
     5
176
     1
170
     0
176
     1
171
     0
176
     1
290
     0
176
     1
 93
       13
176
     1
 44
0.0
176
     1
173
     0
176
     1
1001
ACAD
1000
AcDbSavedByObjectVersion
1070
     0
  0
VISUALSTYLE
  5
2C
102
{ACAD_XDICTIONARY
360
181
102
}
102
{ACAD_REACTORS
330
29
102
}
330
29
100
AcDbVisualStyle
  2
Gouraud
 70
     2
177
     2
291
     1
 71
     2
176
     1
 72
     2
176
     1
 73
     1
176
     1
 90
        2
176
     1
 40
0.6
176
     1
 41
30.0
176
     1
 63
     7
421
 16777215
176
     1
 74
     0
176
     1
 91
        0
176
     1
 64
     7
176
     1
 65
   257
176
     1
 75
     1
176
     1
175
     1
176
     1
 42
1.0
176
     1
 92
        0
176
     1
 66
     7
176
     1
 43
1.0
176
     1
 76
     1
176
     1
 77
     6
176
     1
 78
     2
176
     1
 67
     7
176
     1
 79
     5
176
     1
170
     0
176
     1
171
     0
176
     1
290
     0
176
     1
 93
       13
176
     1
 44
0.0
176
     1
173
     0
176
     1
1001
ACAD
1000
AcDbSavedByObjectVersion
1070
     0
  0
VISUALSTYLE
  5
2D
102
{ACAD_XDICTIONARY
360
183
102
}
102
{ACAD_REACTORS
330
29
102
}
330
29
100
AcDbVisualStyle
  2
GouraudWithEdges
 70
     3
177
     2
291
     1
 71
     2
176
     1
 72
     2
176
     1
 73
     1
176
     1
 90
        2
176
     1
 40
0.6
176
     1
 41
30.0
176
     1
 63
     7
421
 16777215
176
     1
 74
     1
176
     1
 91
        0
176
     1
 64
     7
176
     1
 65
   257
176
     1
 75
     1
176
     1
175
     1
176
     1
 42
1.0
176
     1
 92
        0
176
     1
 66
   257
176
     1
 43
1.0
176
     1
 76
     1
176
     1
 77
     6
176
     1
 78
     2
176
     1
 67
     7
176
     1
 79
     5
176
     1
170
     0
176
     1
171
     0
176
     1
290
     0
176
     1
 93
       13
176
     1
 44
0.0
176
     1
173
     0
176
     1
1001
ACAD
1000
AcDbSavedByObjectVersion
1070
     0
  0
VISUALSTYLE
  5
31
102
{ACAD_XDICTIONARY
360
18B
102
}
102
{ACAD_REACTORS
330
29
102
}
330
29
100
AcDbVisualStyle
  2
Hidden
 70
     6
177
     2
291
     0
 71
     1
176
     1
 72
     2
176
     1
 73
     2
176
     1
 90
        0
176
     1
 40
0.6
176
     1
 41
30.0
176
     1
 63
     7
421
 16777215
176
     1
 74
     2
176
     1
 91
        2
176
     1
 64
     7
176
     1
 65
   257
176
     1
 75
     2
176
     1
175
     1
176
     1
 42
40.0
176
     1
 92
        0
176
     1
 66
   257
176
     1
 43
1.0
176
     1
 76
     1
176
     1
 77
     6
176
     1
 78
     2
176
     1
 67
     7
176
     1
 79
     3
176
     1
170
     0
176
     1
171
     0
176
     1
290
     0
176
     1
 93
        1
176
     1
 44
0.0
176
     1
173
     0
176
     1
1001
ACAD
1000
AcDbSavedByObjectVersion
1070
     0
  0
VISUALSTYLE
  5
3F
102
{ACAD_XDICTIONARY
360
1A7
102
}
102
{ACAD_REACTORS
330
29
102
}
330
29
100
AcDbVisualStyle
  2
JitterOff
 70
    20
177
     2
291
     1
 71
     2
176
     0
 72
     2
176
     0
 73
     0
176
     0
 90
        0
176
     0
 40
0.6
176
     0
 41
30.0
176
     0
 63
     7
421
 16777215
176
     0
 74
     1
176
     0
 91
        4
176
     0
 64
     7
176
     0
 65
   257
176
     0
 75
     1
176
     0
175
     1
176
     0
 42
1.0
176
     0
 92
       10
176
     2
 66
     7
176
     0
 43
1.0
176
     0
 76
     1
176
     0
 77
     6
176
     0
 78
     2
176
     0
 67
     7
176
     0
 79
     5
176
     0
170
     0
176
     0
171
     0
176
     0
290
     0
176
     0
 93
        1
176
     0
 44
0.0
176
     0
173
     0
176
     0
1001
ACAD
1000
AcDbSavedByObjectVersion
1070
     0
  0
VISUALSTYLE
  5
37
102
{ACAD_XDICTIONARY
360
197
102
}
102
{ACAD_REACTORS
330
29
102
}
330
29
100
AcDbVisualStyle
  2
Linepattern
 70
    14
177
     2
291
     1
 71
     2
176
     1
 72
     2
176
     1
 73
     0
176
     1
 90
        0
176
     1
 40
0.6
176
     1
 41
30.0
176
     1
 63
     7
421
 16777215
176
     1
 74
     1
176
     1
 91
        4
176
     1
 64
     7
176
     1
 65
   257
176
     1
 75
     7
176
     1
175
     7
176
     1
 42
1.0
176
     1
 92
        8
176
     1
 66
     7
176
     1
 43
1.0
176
     1
 76
     1
176
     1
 77
     6
176
     1
 78
     2
176
     1
 67
     7
176
     1
 79
     5
176
     1
170
     0
176
     1
171
     0
176
     1
290
     0
176
     1
 93
        1
176
     1
 44
0.0
176
     1
173
     0
176
     1
1001
ACAD
1000
AcDbSavedByObjectVersion
1070
     0
  0
VISUALSTYLE
  5
40
102
{ACAD_XDICTIONARY
360
1A9
102
}
102
{ACAD_REACTORS
330
29
102
}
330
29
100
AcDbVisualStyle
  2
OverhangOff
 70
    21
177
     2
291
     1
 71
     2
176
     0
 72
     2
176
     0
 73
     0
176
     0
 90
        0
176
     0
 40
0.6
176
     0
 41
30.0
176
     0
 63
     7
421
 16777215
176
     0
 74
     1
176
     0
 91
        4
176
     0
 64
     7
176
     0
 65
   257
176
     0
 75
     1
176
     0
175
     1
176
     0
 42
1.0
176
     0
 92
        9
176
     2
 66
     7
176
     0
 43
1.0
176
     0
 76
     1
176
     0
 77
     6
176
     0
 78
     2
176
     0
 67
     7
176
     0
 79
     5
176
     0
170
     0
176
     0
171
     0
176
     0
290
     0
176
     0
 93
        1
176
     0
 44
0.0
176
     0
173
     0
176
     0
1001
ACAD
1000
AcDbSavedByObjectVersion
1070
     0
  0
VISUALSTYLE
  5
33
102
{ACAD_XDICTIONARY
360
18F
102
}
102
{ACAD_REACTORS
330
29
102
}
330
29
100
AcDbVisualStyle
  2
Realistic
 70
     8
177
     2
291
     0
 71
     2
176
     1
 72
     3
176
     1
 73
     0
176
     1
 90
        2
176
     1
 40
0.6
176
     1
 41
30.0
176
     1
 63
     7
421
 16777215
176
     1
 74
     0
176
     1
 91
        0
176
     1
 64
     7
176
     1
 65
   257
176
     1
 75
     1
176
     1
175
     1
176
     1
 42
1.0
176
     1
 92
        8
176
     1
 66
   257
176
     1
 43
1.0
176
     1
 76
     1
176
     1
 77
     6
176
     1
 78
     2
176
     1
 67
     7
176
     1
 79
     3
176
     1
170
     0
176
     1
171
     0
176
     1
290
     0
176
     1
 93
       13
176
     1
 44
0.0
176
     1
173
     0
176
     1
1001
ACAD
1000
AcDbSavedByObjectVersion
1070
     0
  0
VISUALSTYLE
  5
3E
102
{ACAD_XDICTIONARY
360
1A5
102
}
102
{ACAD_REACTORS
330
29
102
}
330
29
100
AcDbVisualStyle
  2
Shaded
 70
    27
177
     2
291
     0
 71
     2
176
     1
 72
     2
176
     1
 73
     1
176
     1
 90
        2
176
     1
 40
0.6
176
     1
 41
30.0
176
     1
 63
     7
421
 16777215
176
     1
 74
     0
176
     1
 91
        4
176
     1
 64
     7
176
     1
 65
   257
176
     1
 75
     1
176
     1
175
     1
176
     1
 42
1.0
176
     1
 92
        8
176
     1
 66
   257
176
     1
 43
1.0
176
     1
 76
     1
176
     1
 77
     6
176
     1
 78
     2
176
     1
 67
     8
425
  7895160
176
     1
 79
     3
176
     1
170
     0
176
     1
171
     0
176
     1
290
     0
176
     1
 93
        5
176
     1
 44
0.0
176
     1
173
     0
176
     1
1001
ACAD
1000
AcDbSavedByObjectVersion
1070
     0
  0
VISUALSTYLE
  5
3D
102
{ACAD_XDICTIONARY
360
1A3
102
}
102
{ACAD_REACTORS
330
29
102
}
330
29
100
AcDbVisualStyle
  2
Shaded with edges
 70
    26
177
     2
291
     0
 71
     2
176
     1
 72
     2
176
     1
 73
     1
176
     1
 90
        2
176
     1
 40
0.6
176
     1
 41
30.0
176
     1
 63
     7
421
 16777215
176
     1
 74
     1
176
     1
 91
        2
176
     1
 64
     7
176
     1
 65
   257
176
     1
 75
     2
176
     1
175
     1
176
     1
 42
1.0
176
     1
 92
        8
176
     1
 66
   257
176
     1
 43
1.0
176
     1
 76
     1
176
     1
 77
     6
176
     1
 78
     2
176
     1
 67
     7
176
     1
 79
     3
176
     1
170
     0
176
     1
171
     0
176
     1
290
     0
176
     1
 93
        5
176
     1
 44
0.0
176
     1
173
     0
176
     1
1001
ACAD
1000
AcDbSavedByObjectVersion
1070
     0
  0
VISUALSTYLE
  5
3A
102
{ACAD_XDICTIONARY
360
19D
102
}
102
{ACAD_REACTORS
330
29
102
}
330
29
100
AcDbVisualStyle
  2
Shades of Gray
 70
    23
177
     2
291
     0
 71
     2
176
     1
 72
     2
176
     1
 73
     3
176
     1
 90
        0
176
     1
 40
0.6
176
     1
 41
30.0
176
     1
 63
     7
421
 16777215
176
     1
 74
     2
176
     1
 91
        2
176
     1
 64
     7
176
     1
 65
     7
176
     1
 75
     1
176
     1
175
     1
176
     1
 42
40.0
176
     1
 92
        8
176
     1
 66
     7
176
     1
 43
1.0
176
     1
 76
     1
176
     1
 77
     6
176
     1
 78
     2
176
     1
 67
     7
176
     1
 79
     3
176
     1
170
     0
176
     1
171
     0
176
     1
290
     0
176
     1
 93
        1
176
     1
 44
0.0
176
     1
173
     0
176
     1
1001
ACAD
1000
AcDbSavedByObjectVersion
1070
     0
  0
VISUALSTYLE
  5
3B
102
{ACAD_XDICTIONARY
360
19F
102
}
102
{ACAD_REACTORS
330
29
102
}
330
29
100
AcDbVisualStyle
  2
Sketchy
 70
    24
177
     2
291
     0
 71
     1
176
     1
 72
     2
176
     1
 73
     2
176
     1
 90
        0
176
     1
 40
0.6
176
     1
 41
30.0
176
     1
 63
     7
421
 16777215
176
     1
 74
     2
176
     1
 91
        2
176
     1
 64
     7
176
     1
 65
     7
176
     1
 75
     1
176
     1
175
     1
176
     1
 42
40.0
176
     1
 92
       11
176
     1
 66
     7
176
     1
 43
1.0
176
     1
 76
     1
176
     1
 77
     6
176
     1
 78
     2
176
     1
 67
     7
176
     1
 79
     6
176
     1
170
     0
176
     1
171
     0
176
     1
290
     0
176
     1
 93
        1
176
     1
 44
0.0
176
     1
173
     0
176
     1
1001
ACAD
1000
AcDbSavedByObjectVersion
1070
     0
  0
VISUALSTYLE
  5
36
102
{ACAD_XDICTIONARY
360
195
102
}
102
{ACAD_REACTORS
330
29
102
}
330
29
100
AcDbVisualStyle
  2
Thicken
 70
    13
177
     2
291
     1
 71
     2
176
     1
 72
     2
176
     1
 73
     0
176
     1
 90
        0
176
     1
 40
0.6
176
     1
 41
30.0
176
     1
 63
     7
421
 16777215
176
     1
 74
     1
176
     1
 91
        4
176
     1
 64
     7
176
     1
 65
   257
176
     1
 75
     1
176
     1
175
     1
176
     1
 42
1.0
176
     1
 92
       12
176
     1
 66
     7
176
     1
 43
1.0
176
     1
 76
     1
176
     1
 77
     6
176
     1
 78
     2
176
     1
 67
     7
176
     1
 79
     5
176
     1
170
     0
176
     1
171
     0
176
     1
290
     0
176
     1
 93
        1
176
     1
 44
0.0
176
     1
173
     0
176
     1
1001
ACAD
1000
AcDbSavedByObjectVersion
1070
     0
  0
VISUALSTYLE
  5
30
102
{ACAD_XDICTIONARY
360
189
102
}
102
{ACAD_REACTORS
330
29
102
}
330
29
100
AcDbVisualStyle
  2
Wireframe
 70
     5
177
     2
291
     0
 71
     0
176
     1
 72
     2
176
     1
 73
     0
176
     1
 90
        0
176
     1
 40
0.6
176
     1
 41
30.0
176
     1
 63
     7
421
 16777215
176
     1
 74
     1
176
     1
 91
        4
176
     1
 64
     7
176
     1
 65
   257
176
     1
 75
     1
176
     1
175
     1
176
     1
 42
1.0
176
     1
 92
        0
176
     1
 66
   257
176
     1
 43
1.0
176
     1
 76
     1
176
     1
 77
     6
176
     1
 78
     2
176
     1
 67
     7
176
     1
 79
     3
176
     1
170
     0
176
     1
171
     0
176
     1
290
     0
176
     1
 93
        1
176
     1
 44
0.0
176
     1
173
     0
176
     1
1001
ACAD
1000
AcDbSavedByObjectVersion
1070
     0
  0
VISUALSTYLE
  5
3C
102
{ACAD_XDICTIONARY
360
1A1
102
}
102
{ACAD_REACTORS
330
29
102
}
330
29
100
AcDbVisualStyle
  2
X-Ray
 70
    25
177
     2
291
     0
 71
     2
176
     1
 72
     2
176
     1
 73
     1
176
     1
 90
        1
176
     1
 40
0.5
176
     1
 41
30.0
176
     1
 63
     7
421
 16777215
176
     1
 74
     1
176
     1
 91
        0
176
     1
 64
     7
176
     1
 65
   257
176
     1
 75
     1
176
     1
175
     1
176
     1
 42
1.0
176
     1
 92
        8
176
     1
 66
     7
176
     1
 43
1.0
176
     1
 76
     1
176
     1
 77
     6
176
     1
 78
     2
176
     1
 67
     7
176
     1
 79
     3
176
     1
170
     0
176
     1
171
     0
176
     1
290
     0
176
     1
 93
       13
176
     1
 44
0.0
176
     1
173
     0
176
     1
1001
ACAD
1000
AcDbSavedByObjectVersion
1070
     0
  0
DICTIONARYVAR
  5
179
102
{ACAD_REACTORS
330
174
102
}
330
174
100
DictionaryVariables
280
     0
  1
1:1
  0
DICTIONARYVAR
  5
176
102
{ACAD_REACTORS
330
174
102
}
330
174
100
DictionaryVariables
280
     0
  1
STANDARD
  0
DICTIONARYVAR
  5
175
102
{ACAD_REACTORS
330
174
102
}
330
174
100
DictionaryVariables
280
     0
  1
STANDARD
  0
DICTIONARYVAR
  5
177
102
{ACAD_REACTORS
330
174
102
}
330
174
100
DictionaryVariables
280
     0
  1
Imperial24
  0
DICTIONARYVAR
  5
178
102
{ACAD_REACTORS
330
174
102
}
330
174
100
DictionaryVariables
280
     0
  1
Imperial24
  0
DICTIONARY
  5
1B1
330
6B
100
AcDbDictionary
280
     1
281
     1
  3
ACAD_XREC_ROUNDTRIP
360
1B2
  0
DICTIONARY
  5
1A
330
19
100
AcDbDictionary
280
     1
281
     1
  3
BUMPTILE
360
1C
  3
DIFFUSETILE
360
1B
  3
OPACITYTILE
360
1F
  3
REFLECTIONTILE
360
1E
  3
REFRACTIONTILE
360
20
  3
SPECULARTILE
360
1D
  0
DICTIONARY
  5
12
330
11
100
AcDbDictionary
280
     1
281
     1
  3
BUMPTILE
360
14
  3
DIFFUSETILE
360
13
  3
OPACITYTILE
360
17
  3
REFLECTIONTILE
360
16
  3
REFRACTIONTILE
360
18
  3
SPECULARTILE
360
15
  0
DICTIONARY
  5
22
330
21
100
AcDbDictionary
280
     1
281
     1
  3
BUMPTILE
360
24
  3
DIFFUSETILE
360
23
  3
OPACITYTILE
360
27
  3
REFLECTIONTILE
360
26
  3
REFRACTIONTILE
360
28
  3
SPECULARTILE
360
25
  0
DICTIONARY
  5
1AD
330
67
100
AcDbDictionary
280
     1
281
     1
  3
ACAD_XREC_ROUNDTRIP
360
1AE
  0
DICTIONARY
  5
1AF
330
69
100
AcDbDictionary
280
     1
281
     1
  3
ACAD_XREC_ROUNDTRIP
360
1B0
  0
DICTIONARY
  5
17A
330
65
100
AcDbDictionary
280
     1
281
     1
  3
ACAD_ROUNDTRIP_2008_TABLESTYLE_CELLSTYLEMAP
360
17B
  0
DICTIONARY
  5
187
330
2F
100
AcDbDictionary
280
     1
281
     1
  3
ACAD_XREC_ROUNDTRIP
360
188
  0
DICTIONARY
  5
185
330
2E
100
AcDbDictionary
280
     1
281
     1
  3
ACAD_XREC_ROUNDTRIP
360
186
  0
DICTIONARY
  5
193
330
35
100
AcDbDictionary
280
     1
281
     1
  3
ACAD_XREC_ROUNDTRIP
360
194
  0
DICTIONARY
  5
19B
330
39
100
AcDbDictionary
280
     1
281
     1
  3
ACAD_XREC_ROUNDTRIP
360
19C
  0
DICTIONARY
  5
18D
330
32
100
AcDbDictionary
280
     1
281
     1
  3
ACAD_XREC_ROUNDTRIP
360
18E
  0
DICTIONARY
  5
191
330
34
100
AcDbDictionary
280
     1
281
     1
  3
ACAD_XREC_ROUNDTRIP
360
192
  0
DICTIONARY
  5
1AB
330
41
100
AcDbDictionary
280
     1
281
     1
  3
ACAD_XREC_ROUNDTRIP
360
1AC
  0
DICTIONARY
  5
199
330
38
100
AcDbDictionary
280
     1
281
     1
  3
ACAD_XREC_ROUNDTRIP
360
19A
  0
DICTIONARY
  5
17D
330
2A
100
AcDbDictionary
280
     1
281
     1
  3
ACAD_XREC_ROUNDTRIP
360
17E
  0
DICTIONARY
  5
17F
330
2B
100
AcDbDictionary
280
     1
281
     1
  3
ACAD_XREC_ROUNDTRIP
360
180
  0
DICTIONARY
  5
181
330
2C
100
AcDbDictionary
280
     1
281
     1
  3
ACAD_XREC_ROUNDTRIP
360
182
  0
DICTIONARY
  5
183
330
2D
100
AcDbDictionary
280
     1
281
     1
  3
ACAD_XREC_ROUNDTRIP
360
184
  0
DICTIONARY
  5
18B
330
31
100
AcDbDictionary
280
     1
281
     1
  3
ACAD_XREC_ROUNDTRIP
360
18C
  0
DICTIONARY
  5
1A7
330
3F
100
AcDbDictionary
280
     1
281
     1
  3
ACAD_XREC_ROUNDTRIP
360
1A8
  0
DICTIONARY
  5
197
330
37
100
AcDbDictionary
280
     1
281
     1
  3
ACAD_XREC_ROUNDTRIP
360
198
  0
DICTIONARY
  5
1A9
330
40
100
AcDbDictionary
280
     1
281
     1
  3
ACAD_XREC_ROUNDTRIP
360
1AA
  0
DICTIONARY
  5
18F
330
33
100
AcDbDictionary
280
     1
281
     1
  3
ACAD_XREC_ROUNDTRIP
360
190
  0
DICTIONARY
  5
1A5
330
3E
100
AcDbDictionary
280
     1
281
     1
  3
ACAD_XREC_ROUNDTRIP
360
1A6
  0
DICTIONARY
  5
1A3
330
3D
100
AcDbDictionary
280
     1
281
     1
  3
ACAD_XREC_ROUNDTRIP
360
1A4
  0
DICTIONARY
  5
19D
330
3A
100
AcDbDictionary
280
     1
281
     1
  3
ACAD_XREC_ROUNDTRIP
360
19E
  0
DICTIONARY
  5
19F
330
3B
100
AcDbDictionary
280
     1
281
     1
  3
ACAD_XREC_ROUNDTRIP
360
1A0
  0
DICTIONARY
  5
195
330
36
100
AcDbDictionary
280
     1
281
     1
  3
ACAD_XREC_ROUNDTRIP
360
196
  0
DICTIONARY
  5
189
330
30
100
AcDbDictionary
280
     1
281
     1
  3
ACAD_XREC_ROUNDTRIP
360
18A
  0
DICTIONARY
  5
1A1
330
3C
100
AcDbDictionary
280
     1
281
     1
  3
ACAD_XREC_ROUNDTRIP
360
1A2
  0
XRECORD
  5
1B2
102
{ACAD_REACTORS
330
1B1
102
}
330
1B1
100
AcDbXrecord
280
     1
102
DISPLAYNAME
  1
Imperial24
102
FLAGS
 90
        0
  0
XRECORD
  5
1C
102
{ACAD_REACTORS
330
1A
102
}
330
1A
100
AcDbXrecord
280
     1
270
     1
271
     1
  0
XRECORD
  5
1B
102
{ACAD_REACTORS
330
1A
102
}
330
1A
100
AcDbXrecord
280
     1
270
     1
271
     1
  0
XRECORD
  5
1F
102
{ACAD_REACTORS
330
1A
102
}
330
1A
100
AcDbXrecord
280
     1
270
     1
271
     1
  0
XRECORD
  5
1E
102
{ACAD_REACTORS
330
1A
102
}
330
1A
100
AcDbXrecord
280
     1
270
     1
271
     1
  0
XRECORD
  5
20
102
{ACAD_REACTORS
330
1A
102
}
330
1A
100
AcDbXrecord
280
     1
270
     1
271
     1
  0
XRECORD
  5
1D
102
{ACAD_REACTORS
330
1A
102
}
330
1A
100
AcDbXrecord
280
     1
270
     1
271
     1
  0
XRECORD
  5
14
102
{ACAD_REACTORS
330
12
102
}
330
12
100
AcDbXrecord
280
     1
270
     1
271
     1
  0
XRECORD
  5
13
102
{ACAD_REACTORS
330
12
102
}
330
12
100
AcDbXrecord
280
     1
270
     1
271
     1
  0
XRECORD
  5
17
102
{ACAD_REACTORS
330
12
102
}
330
12
100
AcDbXrecord
280
     1
270
     1
271
     1
  0
XRECORD
  5
16
102
{ACAD_REACTORS
330
12
102
}
330
12
100
AcDbXrecord
280
     1
270
     1
271
     1
  0
XRECORD
  5
18
102
{ACAD_REACTORS
330
12
102
}
330
12
100
AcDbXrecord
280
     1
270
     1
271
     1
  0
XRECORD
  5
15
102
{ACAD_REACTORS
330
12
102
}
330
12
100
AcDbXrecord
280
     1
270
     1
271
     1
  0
XRECORD
  5
24
102
{ACAD_REACTORS
330
22
102
}
330
22
100
AcDbXrecord
280
     1
270
     1
271
     1
  0
XRECORD
  5
23
102
{ACAD_REACTORS
330
22
102
}
330
22
100
AcDbXrecord
280
     1
270
     1
271
     1
  0
XRECORD
  5
27
102
{ACAD_REACTORS
330
22
102
}
330
22
100
AcDbXrecord
280
     1
270
     1
271
     1
  0
XRECORD
  5
26
102
{ACAD_REACTORS
330
22
102
}
330
22
100
AcDbXrecord
280
     1
270
     1
271
     1
  0
XRECORD
  5
28
102
{ACAD_REACTORS
330
22
102
}
330
22
100
AcDbXrecord
280
     1
270
     1
271
     1
  0
XRECORD
  5
25
102
{ACAD_REACTORS
330
22
102
}
330
22
100
AcDbXrecord
280
     1
270
     1
271
     1
  0
XRECORD
  5
1AE
102
{ACAD_REACTORS
330
1AD
102
}
330
1AD
100
AcDbXrecord
280
     1
102
ACAD_ROUNDTRIP_2012_MLEADER_STYLE
298
     1
  0
XRECORD
  5
1B0
102
{ACAD_REACTORS
330
1AF
102
}
330
1AF
100
AcDbXrecord
280
     1
102
DISPLAYNAME
  1
Imperial24
102
FLAGS
 90
        0
  0
CELLSTYLEMAP
  5
17B
102
{ACAD_REACTORS
330
17A
102
}
330
17A
100
AcDbCellStyleMap
 90
        3
300
CELLSTYLE
  1
TABLEFORMAT_BEGIN
 90
        5
170
     1
 91
        0
 92
    32768
 62
   257
 93
        1
300
CONTENTFORMAT
  1
CONTENTFORMAT_BEGIN
 90
        0
 91
        0
 92
      512
 93
        0
300

 40
0.0
140
1.0
 94
        5
 62
     0
340
55
144
0.25
309
CONTENTFORMAT_END
171
     0
 94
        0
309
TABLEFORMAT_END
  1
CELLSTYLE_BEGIN
 90
        1
 91
        1
300
_TITLE
309
CELLSTYLE_END
300
CELLSTYLE
  1
TABLEFORMAT_BEGIN
 90
        5
170
     1
 91
        0
 92
        0
 62
   257
 93
        1
300
CONTENTFORMAT
  1
CONTENTFORMAT_BEGIN
 90
        0
 91
        0
 92
      512
 93
        0
300

 40
0.0
140
1.0
 94
        5
 62
     0
340
55
144
0.18
309
CONTENTFORMAT_END
171
     0
 94
        0
309
TABLEFORMAT_END
  1
CELLSTYLE_BEGIN
 90
        2
 91
        1
300
_HEADER
309
CELLSTYLE_END
300
CELLSTYLE
  1
TABLEFORMAT_BEGIN
 90
        5
170
     1
 91
        0
 92
        0
 62
   257
 93
        1
300
CONTENTFORMAT
  1
CONTENTFORMAT_BEGIN
 90
        0
 91
        0
 92
      512
 93
        0
300

 40
0.0
140
1.0
 94
        2
 62
     0
340
55
144
0.18
309
CONTENTFORMAT_END
171
     0
 94
        0
309
TABLEFORMAT_END
  1
CELLSTYLE_BEGIN
 90
        3
 91
        2
300
_DATA
309
CELLSTYLE_END
  0
XRECORD
  5
188
102
{ACAD_REACTORS
330
187
102
}
330
187
100
AcDbXrecord
280
     1
102
RTVSPost2010Prop28
280
     1
102
RTVSPost2010PropOp28
 70
     1
102
RTVSPost2010Prop29
280
     1
102
RTVSPost2010PropOp29
 70
     1
102
RTVSPost2010Prop30
280
     0
102
RTVSPost2010PropOp30
 70
     1
102
RTVSPost2010Prop31
280
     0
102
RTVSPost2010PropOp31
 70
     1
102
RTVSPost2010Prop32
280
     0
102
RTVSPost2010PropOp32
 70
     1
102
RTVSPost2010Prop33
280
     0
102
RTVSPost2010PropOp33
 70
     1
102
RTVSPost2010Prop34
280
     0
102
RTVSPost2010PropOp34
 70
     1
102
RTVSPost2010Prop35
280
     0
102
RTVSPost2010PropOp35
 70
     1
102
RTVSPost2010Prop36
280
     0
102
RTVSPost2010PropOp36
 70
     1
102
RTVSPost2010Prop37
 90
       50
102
RTVSPost2010PropOp37
 70
     1
102
RTVSPost2010Prop38
140
0.0
102
RTVSPost2010PropOp38
 70
     1
102
RTVSPost2010Prop39
140
1.0
102
RTVSPost2010PropOp39
 70
     1
102
RTVSPost2010Prop40
 90
        0
102
RTVSPost2010PropOp40
 70
     1
102
RTVSPost2010Prop41ColorIndex
 90
       18
102
RTVSPost2010Prop41ColorRGB
 90
        0
102
RTVSPost2010PropOp41
 70
     1
102
RTVSPost2010Prop42
 90
       50
102
RTVSPost2010PropOp42
 70
     1
102
RTVSPost2010Prop43
 90
        3
102
RTVSPost2010PropOp43
 70
     1
102
RTVSPost2010Prop44ColorIndex
 90
        5
102
RTVSPost2010Prop44ColorRGB
 90
      255
102
RTVSPost2010PropOp44
 70
     1
102
RTVSPost2010Prop45
280
     0
102
RTVSPost2010PropOp45
 70
     1
102
RTVSPost2010Prop46
 90
       50
102
RTVSPost2010PropOp46
 70
     1
102
RTVSPost2010Prop47
 90
       50
102
RTVSPost2010PropOp47
 70
     1
102
RTVSPost2010Prop48
 90
       50
102
RTVSPost2010PropOp48
 70
     1
102
RTVSPost2010Prop49
280
     0
102
RTVSPost2010PropOp49
 70
     1
102
RTVSPost2010Prop50
 90
       50
102
RTVSPost2010PropOp50
 70
     1
102
RTVSPost2010Prop51ColorIndex
 90
      256
102
RTVSPost2010Prop51ColorRGB
 90
-16777216
102
RTVSPost2010PropOp51
 70
     0
102
RTVSPost2010Prop52
140
1.0
102
RTVSPost2010PropOp52
 70
     0
102
RTVSPost2010Prop53
 90
        2
102
RTVSPost2010PropOp53
 70
     1
102
RTVSPost2010Prop54
  1
strokes_ogs.tif
102
RTVSPost2010PropOp54
 70
     1
102
RTVSPost2010Prop55
280
     0
102
RTVSPost2010PropOp55
 70
     1
102
RTVSPost2010Prop56
140
1.0
102
RTVSPost2010PropOp56
 70
     1
102
RTVSPost2010Prop57
140
1.0
102
RTVSPost2010PropOp57
 70
     1
  0
XRECORD
  5
186
102
{ACAD_REACTORS
330
185
102
}
330
185
100
AcDbXrecord
280
     1
102
RTVSPost2010Prop28
280
     0
102
RTVSPost2010PropOp28
 70
     1
102
RTVSPost2010Prop29
280
     1
102
RTVSPost2010PropOp29
 70
     1
102
RTVSPost2010Prop30
280
     1
102
RTVSPost2010PropOp30
 70
     1
102
RTVSPost2010Prop31
280
     0
102
RTVSPost2010PropOp31
 70
     1
102
RTVSPost2010Prop32
280
     0
102
RTVSPost2010PropOp32
 70
     1
102
RTVSPost2010Prop33
280
     0
102
RTVSPost2010PropOp33
 70
     1
102
RTVSPost2010Prop34
280
     0
102
RTVSPost2010PropOp34
 70
     1
102
RTVSPost2010Prop35
280
     0
102
RTVSPost2010PropOp35
 70
     1
102
RTVSPost2010Prop36
280
     0
102
RTVSPost2010PropOp36
 70
     1
102
RTVSPost2010Prop37
 90
       50
102
RTVSPost2010PropOp37
 70
     1
102
RTVSPost2010Prop38
140
0.0
102
RTVSPost2010PropOp38
 70
     1
102
RTVSPost2010Prop39
140
1.0
102
RTVSPost2010PropOp39
 70
     1
102
RTVSPost2010Prop40
 90
        0
102
RTVSPost2010PropOp40
 70
     1
102
RTVSPost2010Prop41ColorIndex
 90
       18
102
RTVSPost2010Prop41ColorRGB
 90
        0
102
RTVSPost2010PropOp41
 70
     1
102
RTVSPost2010Prop42
 90
       50
102
RTVSPost2010PropOp42
 70
     1
102
RTVSPost2010Prop43
 90
        3
102
RTVSPost2010PropOp43
 70
     1
102
RTVSPost2010Prop44ColorIndex
 90
        5
102
RTVSPost2010Prop44ColorRGB
 90
      255
102
RTVSPost2010PropOp44
 70
     1
102
RTVSPost2010Prop45
280
     0
102
RTVSPost2010PropOp45
 70
     1
102
RTVSPost2010Prop46
 90
       50
102
RTVSPost2010PropOp46
 70
     1
102
RTVSPost2010Prop47
 90
       50
102
RTVSPost2010PropOp47
 70
     1
102
RTVSPost2010Prop48
 90
       50
102
RTVSPost2010PropOp48
 70
     1
102
RTVSPost2010Prop49
280
     0
102
RTVSPost2010PropOp49
 70
     1
102
RTVSPost2010Prop50
 90
       50
102
RTVSPost2010PropOp50
 70
     1
102
RTVSPost2010Prop51ColorIndex
 90
      256
102
RTVSPost2010Prop51ColorRGB
 90
-16777216
102
RTVSPost2010PropOp51
 70
     0
102
RTVSPost2010Prop52
140
1.0
102
RTVSPost2010PropOp52
 70
     0
102
RTVSPost2010Prop53
 90
        2
102
RTVSPost2010PropOp53
 70
     1
102
RTVSPost2010Prop54
  1
strokes_ogs.tif
102
RTVSPost2010PropOp54
 70
     1
102
RTVSPost2010Prop55
280
     0
102
RTVSPost2010PropOp55
 70
     1
102
RTVSPost2010Prop56
140
1.0
102
RTVSPost2010PropOp56
 70
     1
102
RTVSPost2010Prop57
140
1.0
102
RTVSPost2010PropOp57
 70
     1
  0
XRECORD
  5
194
102
{ACAD_REACTORS
330
193
102
}
330
193
100
AcDbXrecord
280
     1
102
RTVSPost2010Prop28
280
     0
102
RTVSPost2010PropOp28
 70
     1
102
RTVSPost2010Prop29
280
     1
102
RTVSPost2010PropOp29
 70
     1
102
RTVSPost2010Prop30
280
     1
102
RTVSPost2010PropOp30
 70
     1
102
RTVSPost2010Prop31
280
     0
102
RTVSPost2010PropOp31
 70
     1
102
RTVSPost2010Prop32
280
     0
102
RTVSPost2010PropOp32
 70
     1
102
RTVSPost2010Prop33
280
     0
102
RTVSPost2010PropOp33
 70
     1
102
RTVSPost2010Prop34
280
     0
102
RTVSPost2010PropOp34
 70
     1
102
RTVSPost2010Prop35
280
     0
102
RTVSPost2010PropOp35
 70
     1
102
RTVSPost2010Prop36
280
     0
102
RTVSPost2010PropOp36
 70
     1
102
RTVSPost2010Prop37
 90
       50
102
RTVSPost2010PropOp37
 70
     1
102
RTVSPost2010Prop38
140
0.0
102
RTVSPost2010PropOp38
 70
     1
102
RTVSPost2010Prop39
140
1.0
102
RTVSPost2010PropOp39
 70
     1
102
RTVSPost2010Prop40
 90
        0
102
RTVSPost2010PropOp40
 70
     1
102
RTVSPost2010Prop41ColorIndex
 90
       18
102
RTVSPost2010Prop41ColorRGB
 90
        0
102
RTVSPost2010PropOp41
 70
     1
102
RTVSPost2010Prop42
 90
       50
102
RTVSPost2010PropOp42
 70
     1
102
RTVSPost2010Prop43
 90
        3
102
RTVSPost2010PropOp43
 70
     1
102
RTVSPost2010Prop44ColorIndex
 90
        5
102
RTVSPost2010Prop44ColorRGB
 90
      255
102
RTVSPost2010PropOp44
 70
     1
102
RTVSPost2010Prop45
280
     0
102
RTVSPost2010PropOp45
 70
     1
102
RTVSPost2010Prop46
 90
       50
102
RTVSPost2010PropOp46
 70
     1
102
RTVSPost2010Prop47
 90
       50
102
RTVSPost2010PropOp47
 70
     1
102
RTVSPost2010Prop48
 90
       50
102
RTVSPost2010PropOp48
 70
     1
102
RTVSPost2010Prop49
280
     0
102
RTVSPost2010PropOp49
 70
     1
102
RTVSPost2010Prop50
 90
       50
102
RTVSPost2010PropOp50
 70
     1
102
RTVSPost2010Prop51ColorIndex
 90
      256
102
RTVSPost2010Prop51ColorRGB
 90
-16777216
102
RTVSPost2010PropOp51
 70
     0
102
RTVSPost2010Prop52
140
1.0
102
RTVSPost2010PropOp52
 70
     0
102
RTVSPost2010Prop53
 90
        2
102
RTVSPost2010PropOp53
 70
     1
102
RTVSPost2010Prop54
  1
strokes_ogs.tif
102
RTVSPost2010PropOp54
 70
     1
102
RTVSPost2010Prop55
280
     0
102
RTVSPost2010PropOp55
 70
     1
102
RTVSPost2010Prop56
140
1.0
102
RTVSPost2010PropOp56
 70
     1
102
RTVSPost2010Prop57
140
1.0
102
RTVSPost2010PropOp57
 70
     1
  0
XRECORD
  5
19C
102
{ACAD_REACTORS
330
19B
102
}
330
19B
100
AcDbXrecord
280
     1
102
RTVSPost2010Prop28
280
     0
102
RTVSPost2010PropOp28
 70
     1
102
RTVSPost2010Prop29
280
     1
102
RTVSPost2010PropOp29
 70
     1
102
RTVSPost2010Prop30
280
     1
102
RTVSPost2010PropOp30
 70
     1
102
RTVSPost2010Prop31
280
     0
102
RTVSPost2010PropOp31
 70
     1
102
RTVSPost2010Prop32
280
     0
102
RTVSPost2010PropOp32
 70
     1
102
RTVSPost2010Prop33
280
     0
102
RTVSPost2010PropOp33
 70
     1
102
RTVSPost2010Prop34
280
     0
102
RTVSPost2010PropOp34
 70
     1
102
RTVSPost2010Prop35
280
     0
102
RTVSPost2010PropOp35
 70
     1
102
RTVSPost2010Prop36
280
     0
102
RTVSPost2010PropOp36
 70
     1
102
RTVSPost2010Prop37
 90
       50
102
RTVSPost2010PropOp37
 70
     1
102
RTVSPost2010Prop38
140
0.0
102
RTVSPost2010PropOp38
 70
     1
102
RTVSPost2010Prop39
140
1.0
102
RTVSPost2010PropOp39
 70
     1
102
RTVSPost2010Prop40
 90
        0
102
RTVSPost2010PropOp40
 70
     1
102
RTVSPost2010Prop41ColorIndex
 90
       18
102
RTVSPost2010Prop41ColorRGB
 90
        0
102
RTVSPost2010PropOp41
 70
     1
102
RTVSPost2010Prop42
 90
       50
102
RTVSPost2010PropOp42
 70
     1
102
RTVSPost2010Prop43
 90
        3
102
RTVSPost2010PropOp43
 70
     1
102
RTVSPost2010Prop44ColorIndex
 90
        5
102
RTVSPost2010Prop44ColorRGB
 90
      255
102
RTVSPost2010PropOp44
 70
     1
102
RTVSPost2010Prop45
280
     0
102
RTVSPost2010PropOp45
 70
     1
102
RTVSPost2010Prop46
 90
       50
102
RTVSPost2010PropOp46
 70
     1
102
RTVSPost2010Prop47
 90
       50
102
RTVSPost2010PropOp47
 70
     1
102
RTVSPost2010Prop48
 90
       50
102
RTVSPost2010PropOp48
 70
     1
102
RTVSPost2010Prop49
280
     0
102
RTVSPost2010PropOp49
 70
     1
102
RTVSPost2010Prop50
 90
       50
102
RTVSPost2010PropOp50
 70
     1
102
RTVSPost2010Prop51ColorIndex
 90
      256
102
RTVSPost2010Prop51ColorRGB
 90
-16777216
102
RTVSPost2010PropOp51
 70
     0
102
RTVSPost2010Prop52
140
1.0
102
RTVSPost2010PropOp52
 70
     0
102
RTVSPost2010Prop53
 90
        2
102
RTVSPost2010PropOp53
 70
     1
102
RTVSPost2010Prop54
  1
strokes_ogs.tif
102
RTVSPost2010PropOp54
 70
     1
102
RTVSPost2010Prop55
280
     0
102
RTVSPost2010PropOp55
 70
     1
102
RTVSPost2010Prop56
140
1.0
102
RTVSPost2010PropOp56
 70
     1
102
RTVSPost2010Prop57
140
1.0
102
RTVSPost2010PropOp57
 70
     1
  0
XRECORD
  5
18E
102
{ACAD_REACTORS
330
18D
102
}
330
18D
100
AcDbXrecord
280
     1
102
RTVSPost2010Prop28
280
     0
102
RTVSPost2010PropOp28
 70
     1
102
RTVSPost2010Prop29
280
     1
102
RTVSPost2010PropOp29
 70
     1
102
RTVSPost2010Prop30
280
     1
102
RTVSPost2010PropOp30
 70
     1
102
RTVSPost2010Prop31
280
     0
102
RTVSPost2010PropOp31
 70
     1
102
RTVSPost2010Prop32
280
     0
102
RTVSPost2010PropOp32
 70
     1
102
RTVSPost2010Prop33
280
     0
102
RTVSPost2010PropOp33
 70
     1
102
RTVSPost2010Prop34
280
     0
102
RTVSPost2010PropOp34
 70
     1
102
RTVSPost2010Prop35
280
     0
102
RTVSPost2010PropOp35
 70
     1
102
RTVSPost2010Prop36
280
     0
102
RTVSPost2010PropOp36
 70
     1
102
RTVSPost2010Prop37
 90
       50
102
RTVSPost2010PropOp37
 70
     1
102
RTVSPost2010Prop38
140
0.0
102
RTVSPost2010PropOp38
 70
     1
102
RTVSPost2010Prop39
140
1.0
102
RTVSPost2010PropOp39
 70
     1
102
RTVSPost2010Prop40
 90
        0
102
RTVSPost2010PropOp40
 70
     1
102
RTVSPost2010Prop41ColorIndex
 90
       18
102
RTVSPost2010Prop41ColorRGB
 90
        0
102
RTVSPost2010PropOp41
 70
     1
102
RTVSPost2010Prop42
 90
       50
102
RTVSPost2010PropOp42
 70
     1
102
RTVSPost2010Prop43
 90
        3
102
RTVSPost2010PropOp43
 70
     1
102
RTVSPost2010Prop44ColorIndex
 90
        5
102
RTVSPost2010Prop44ColorRGB
 90
      255
102
RTVSPost2010PropOp44
 70
     1
102
RTVSPost2010Prop45
280
     0
102
RTVSPost2010PropOp45
 70
     1
102
RTVSPost2010Prop46
 90
       50
102
RTVSPost2010PropOp46
 70
     1
102
RTVSPost2010Prop47
 90
       50
102
RTVSPost2010PropOp47
 70
     1
102
RTVSPost2010Prop48
 90
       50
102
RTVSPost2010PropOp48
 70
     1
102
RTVSPost2010Prop49
280
     0
102
RTVSPost2010PropOp49
 70
     1
102
RTVSPost2010Prop50
 90
       50
102
RTVSPost2010PropOp50
 70
     1
102
RTVSPost2010Prop51ColorIndex
 90
      256
102
RTVSPost2010Prop51ColorRGB
 90
-16777216
102
RTVSPost2010PropOp51
 70
     0
102
RTVSPost2010Prop52
140
1.0
102
RTVSPost2010PropOp52
 70
     0
102
RTVSPost2010Prop53
 90
        2
102
RTVSPost2010PropOp53
 70
     1
102
RTVSPost2010Prop54
  1
strokes_ogs.tif
102
RTVSPost2010PropOp54
 70
     1
102
RTVSPost2010Prop55
280
     0
102
RTVSPost2010PropOp55
 70
     1
102
RTVSPost2010Prop56
140
1.0
102
RTVSPost2010PropOp56
 70
     1
102
RTVSPost2010Prop57
140
1.0
102
RTVSPost2010PropOp57
 70
     1
  0
XRECORD
  5
192
102
{ACAD_REACTORS
330
191
102
}
330
191
100
AcDbXrecord
280
     1
102
RTVSPost2010Prop28
280
     0
102
RTVSPost2010PropOp28
 70
     1
102
RTVSPost2010Prop29
280
     1
102
RTVSPost2010PropOp29
 70
     1
102
RTVSPost2010Prop30
280
     1
102
RTVSPost2010PropOp30
 70
     1
102
RTVSPost2010Prop31
280
     0
102
RTVSPost2010PropOp31
 70
     1
102
RTVSPost2010Prop32
280
     0
102
RTVSPost2010PropOp32
 70
     1
102
RTVSPost2010Prop33
280
     0
102
RTVSPost2010PropOp33
 70
     1
102
RTVSPost2010Prop34
280
     0
102
RTVSPost2010PropOp34
 70
     1
102
RTVSPost2010Prop35
280
     0
102
RTVSPost2010PropOp35
 70
     1
102
RTVSPost2010Prop36
280
     0
102
RTVSPost2010PropOp36
 70
     1
102
RTVSPost2010Prop37
 90
       50
102
RTVSPost2010PropOp37
 70
     1
102
RTVSPost2010Prop38
140
0.0
102
RTVSPost2010PropOp38
 70
     1
102
RTVSPost2010Prop39
140
1.0
102
RTVSPost2010PropOp39
 70
     1
102
RTVSPost2010Prop40
 90
        0
102
RTVSPost2010PropOp40
 70
     1
102
RTVSPost2010Prop41ColorIndex
 90
       18
102
RTVSPost2010Prop41ColorRGB
 90
        0
102
RTVSPost2010PropOp41
 70
     1
102
RTVSPost2010Prop42
 90
       50
102
RTVSPost2010PropOp42
 70
     1
102
RTVSPost2010Prop43
 90
        3
102
RTVSPost2010PropOp43
 70
     1
102
RTVSPost2010Prop44ColorIndex
 90
        5
102
RTVSPost2010Prop44ColorRGB
 90
      255
102
RTVSPost2010PropOp44
 70
     1
102
RTVSPost2010Prop45
280
     0
102
RTVSPost2010PropOp45
 70
     1
102
RTVSPost2010Prop46
 90
       50
102
RTVSPost2010PropOp46
 70
     1
102
RTVSPost2010Prop47
 90
       50
102
RTVSPost2010PropOp47
 70
     1
102
RTVSPost2010Prop48
 90
       50
102
RTVSPost2010PropOp48
 70
     1
102
RTVSPost2010Prop49
280
     0
102
RTVSPost2010PropOp49
 70
     1
102
RTVSPost2010Prop50
 90
       50
102
RTVSPost2010PropOp50
 70
     1
102
RTVSPost2010Prop51ColorIndex
 90
      256
102
RTVSPost2010Prop51ColorRGB
 90
-16777216
102
RTVSPost2010PropOp51
 70
     0
102
RTVSPost2010Prop52
140
1.0
102
RTVSPost2010PropOp52
 70
     0
102
RTVSPost2010Prop53
 90
        2
102
RTVSPost2010PropOp53
 70
     1
102
RTVSPost2010Prop54
  1
strokes_ogs.tif
102
RTVSPost2010PropOp54
 70
     1
102
RTVSPost2010Prop55
280
     0
102
RTVSPost2010PropOp55
 70
     1
102
RTVSPost2010Prop56
140
1.0
102
RTVSPost2010PropOp56
 70
     1
102
RTVSPost2010Prop57
140
1.0
102
RTVSPost2010PropOp57
 70
     1
  0
XRECORD
  5
1AC
102
{ACAD_REACTORS
330
1AB
102
}
330
1AB
100
AcDbXrecord
280
     1
102
RTVSPost2010Prop28
280
     0
102
RTVSPost2010PropOp28
 70
     0
102
RTVSPost2010Prop29
280
     1
102
RTVSPost2010PropOp29
 70
     0
102
RTVSPost2010Prop30
280
     1
102
RTVSPost2010PropOp30
 70
     0
102
RTVSPost2010Prop31
280
     0
102
RTVSPost2010PropOp31
 70
     0
102
RTVSPost2010Prop32
280
     0
102
RTVSPost2010PropOp32
 70
     0
102
RTVSPost2010Prop33
280
     0
102
RTVSPost2010PropOp33
 70
     0
102
RTVSPost2010Prop34
280
     0
102
RTVSPost2010PropOp34
 70
     0
102
RTVSPost2010Prop35
280
     0
102
RTVSPost2010PropOp35
 70
     0
102
RTVSPost2010Prop36
280
     0
102
RTVSPost2010PropOp36
 70
     0
102
RTVSPost2010Prop37
 90
       50
102
RTVSPost2010PropOp37
 70
     0
102
RTVSPost2010Prop38
140
0.0
102
RTVSPost2010PropOp38
 70
     0
102
RTVSPost2010Prop39
140
1.0
102
RTVSPost2010PropOp39
 70
     0
102
RTVSPost2010Prop40
 90
        0
102
RTVSPost2010PropOp40
 70
     0
102
RTVSPost2010Prop41ColorIndex
 90
       18
102
RTVSPost2010Prop41ColorRGB
 90
        0
102
RTVSPost2010PropOp41
 70
     0
102
RTVSPost2010Prop42
 90
       50
102
RTVSPost2010PropOp42
 70
     0
102
RTVSPost2010Prop43
 90
        3
102
RTVSPost2010PropOp43
 70
     0
102
RTVSPost2010Prop44ColorIndex
 90
        5
102
RTVSPost2010Prop44ColorRGB
 90
      255
102
RTVSPost2010PropOp44
 70
     0
102
RTVSPost2010Prop45
280
     0
102
RTVSPost2010PropOp45
 70
     0
102
RTVSPost2010Prop46
 90
       50
102
RTVSPost2010PropOp46
 70
     0
102
RTVSPost2010Prop47
 90
       50
102
RTVSPost2010PropOp47
 70
     0
102
RTVSPost2010Prop48
 90
       50
102
RTVSPost2010PropOp48
 70
     0
102
RTVSPost2010Prop49
280
     0
102
RTVSPost2010PropOp49
 70
     0
102
RTVSPost2010Prop50
 90
       50
102
RTVSPost2010PropOp50
 70
     0
102
RTVSPost2010Prop51ColorIndex
 90
      256
102
RTVSPost2010Prop51ColorRGB
 90
-16777216
102
RTVSPost2010PropOp51
 70
     0
102
RTVSPost2010Prop52
140
1.0
102
RTVSPost2010PropOp52
 70
     0
102
RTVSPost2010Prop53
 90
        2
102
RTVSPost2010PropOp53
 70
     0
102
RTVSPost2010Prop54
  1
strokes_ogs.tif
102
RTVSPost2010PropOp54
 70
     0
102
RTVSPost2010Prop55
280
     0
102
RTVSPost2010PropOp55
 70
     0
102
RTVSPost2010Prop56
140
1.0
102
RTVSPost2010PropOp56
 70
     0
102
RTVSPost2010Prop57
140
1.0
102
RTVSPost2010PropOp57
 70
     0
  0
XRECORD
  5
19A
102
{ACAD_REACTORS
330
199
102
}
330
199
100
AcDbXrecord
280
     1
102
RTVSPost2010Prop28
280
     0
102
RTVSPost2010PropOp28
 70
     1
102
RTVSPost2010Prop29
280
     1
102
RTVSPost2010PropOp29
 70
     1
102
RTVSPost2010Prop30
280
     1
102
RTVSPost2010PropOp30
 70
     1
102
RTVSPost2010Prop31
280
     0
102
RTVSPost2010PropOp31
 70
     1
102
RTVSPost2010Prop32
280
     0
102
RTVSPost2010PropOp32
 70
     1
102
RTVSPost2010Prop33
280
     0
102
RTVSPost2010PropOp33
 70
     1
102
RTVSPost2010Prop34
280
     0
102
RTVSPost2010PropOp34
 70
     1
102
RTVSPost2010Prop35
280
     0
102
RTVSPost2010PropOp35
 70
     1
102
RTVSPost2010Prop36
280
     0
102
RTVSPost2010PropOp36
 70
     1
102
RTVSPost2010Prop37
 90
       50
102
RTVSPost2010PropOp37
 70
     1
102
RTVSPost2010Prop38
140
0.0
102
RTVSPost2010PropOp38
 70
     1
102
RTVSPost2010Prop39
140
1.0
102
RTVSPost2010PropOp39
 70
     1
102
RTVSPost2010Prop40
 90
        0
102
RTVSPost2010PropOp40
 70
     1
102
RTVSPost2010Prop41ColorIndex
 90
       18
102
RTVSPost2010Prop41ColorRGB
 90
        0
102
RTVSPost2010PropOp41
 70
     1
102
RTVSPost2010Prop42
 90
       50
102
RTVSPost2010PropOp42
 70
     1
102
RTVSPost2010Prop43
 90
        3
102
RTVSPost2010PropOp43
 70
     1
102
RTVSPost2010Prop44ColorIndex
 90
        5
102
RTVSPost2010Prop44ColorRGB
 90
      255
102
RTVSPost2010PropOp44
 70
     1
102
RTVSPost2010Prop45
280
     0
102
RTVSPost2010PropOp45
 70
     1
102
RTVSPost2010Prop46
 90
       50
102
RTVSPost2010PropOp46
 70
     1
102
RTVSPost2010Prop47
 90
       50
102
RTVSPost2010PropOp47
 70
     1
102
RTVSPost2010Prop48
 90
       50
102
RTVSPost2010PropOp48
 70
     1
102
RTVSPost2010Prop49
280
     0
102
RTVSPost2010PropOp49
 70
     1
102
RTVSPost2010Prop50
 90
       50
102
RTVSPost2010PropOp50
 70
     1
102
RTVSPost2010Prop51ColorIndex
 90
      256
102
RTVSPost2010Prop51ColorRGB
 90
-16777216
102
RTVSPost2010PropOp51
 70
     0
102
RTVSPost2010Prop52
140
1.0
102
RTVSPost2010PropOp52
 70
     0
102
RTVSPost2010Prop53
 90
        2
102
RTVSPost2010PropOp53
 70
     1
102
RTVSPost2010Prop54
  1
strokes_ogs.tif
102
RTVSPost2010PropOp54
 70
     1
102
RTVSPost2010Prop55
280
     0
102
RTVSPost2010PropOp55
 70
     1
102
RTVSPost2010Prop56
140
1.0
102
RTVSPost2010PropOp56
 70
     1
102
RTVSPost2010Prop57
140
1.0
102
RTVSPost2010PropOp57
 70
     1
  0
XRECORD
  5
17E
102
{ACAD_REACTORS
330
17D
102
}
330
17D
100
AcDbXrecord
280
     1
102
RTVSPost2010Prop28
280
     0
102
RTVSPost2010PropOp28
 70
     1
102
RTVSPost2010Prop29
280
     1
102
RTVSPost2010PropOp29
 70
     1
102
RTVSPost2010Prop30
280
     1
102
RTVSPost2010PropOp30
 70
     1
102
RTVSPost2010Prop31
280
     0
102
RTVSPost2010PropOp31
 70
     1
102
RTVSPost2010Prop32
280
     0
102
RTVSPost2010PropOp32
 70
     1
102
RTVSPost2010Prop33
280
     0
102
RTVSPost2010PropOp33
 70
     1
102
RTVSPost2010Prop34
280
     0
102
RTVSPost2010PropOp34
 70
     1
102
RTVSPost2010Prop35
280
     0
102
RTVSPost2010PropOp35
 70
     1
102
RTVSPost2010Prop36
280
     0
102
RTVSPost2010PropOp36
 70
     1
102
RTVSPost2010Prop37
 90
       50
102
RTVSPost2010PropOp37
 70
     1
102
RTVSPost2010Prop38
140
0.0
102
RTVSPost2010PropOp38
 70
     1
102
RTVSPost2010Prop39
140
1.0
102
RTVSPost2010PropOp39
 70
     1
102
RTVSPost2010Prop40
 90
        0
102
RTVSPost2010PropOp40
 70
     1
102
RTVSPost2010Prop41ColorIndex
 90
       18
102
RTVSPost2010Prop41ColorRGB
 90
        0
102
RTVSPost2010PropOp41
 70
     1
102
RTVSPost2010Prop42
 90
       50
102
RTVSPost2010PropOp42
 70
     1
102
RTVSPost2010Prop43
 90
        3
102
RTVSPost2010PropOp43
 70
     1
102
RTVSPost2010Prop44ColorIndex
 90
        5
102
RTVSPost2010Prop44ColorRGB
 90
      255
102
RTVSPost2010PropOp44
 70
     1
102
RTVSPost2010Prop45
280
     0
102
RTVSPost2010PropOp45
 70
     1
102
RTVSPost2010Prop46
 90
       50
102
RTVSPost2010PropOp46
 70
     1
102
RTVSPost2010Prop47
 90
       50
102
RTVSPost2010PropOp47
 70
     1
102
RTVSPost2010Prop48
 90
       50
102
RTVSPost2010PropOp48
 70
     1
102
RTVSPost2010Prop49
280
     0
102
RTVSPost2010PropOp49
 70
     1
102
RTVSPost2010Prop50
 90
       50
102
RTVSPost2010PropOp50
 70
     1
102
RTVSPost2010Prop51ColorIndex
 90
      256
102
RTVSPost2010Prop51ColorRGB
 90
-16777216
102
RTVSPost2010PropOp51
 70
     0
102
RTVSPost2010Prop52
140
1.0
102
RTVSPost2010PropOp52
 70
     0
102
RTVSPost2010Prop53
 90
        2
102
RTVSPost2010PropOp53
 70
     1
102
RTVSPost2010Prop54
  1
strokes_ogs.tif
102
RTVSPost2010PropOp54
 70
     1
102
RTVSPost2010Prop55
280
     0
102
RTVSPost2010PropOp55
 70
     1
102
RTVSPost2010Prop56
140
1.0
102
RTVSPost2010PropOp56
 70
     1
102
RTVSPost2010Prop57
140
1.0
102
RTVSPost2010PropOp57
 70
     1
  0
XRECORD
  5
180
102
{ACAD_REACTORS
330
17F
102
}
330
17F
100
AcDbXrecord
280
     1
102
RTVSPost2010Prop28
280
     0
102
RTVSPost2010PropOp28
 70
     1
102
RTVSPost2010Prop29
280
     1
102
RTVSPost2010PropOp29
 70
     1
102
RTVSPost2010Prop30
280
     1
102
RTVSPost2010PropOp30
 70
     1
102
RTVSPost2010Prop31
280
     0
102
RTVSPost2010PropOp31
 70
     1
102
RTVSPost2010Prop32
280
     0
102
RTVSPost2010PropOp32
 70
     1
102
RTVSPost2010Prop33
280
     0
102
RTVSPost2010PropOp33
 70
     1
102
RTVSPost2010Prop34
280
     0
102
RTVSPost2010PropOp34
 70
     1
102
RTVSPost2010Prop35
280
     0
102
RTVSPost2010PropOp35
 70
     1
102
RTVSPost2010Prop36
280
     0
102
RTVSPost2010PropOp36
 70
     1
102
RTVSPost2010Prop37
 90
       50
102
RTVSPost2010PropOp37
 70
     1
102
RTVSPost2010Prop38
140
0.0
102
RTVSPost2010PropOp38
 70
     1
102
RTVSPost2010Prop39
140
1.0
102
RTVSPost2010PropOp39
 70
     1
102
RTVSPost2010Prop40
 90
        0
102
RTVSPost2010PropOp40
 70
     1
102
RTVSPost2010Prop41ColorIndex
 90
       18
102
RTVSPost2010Prop41ColorRGB
 90
        0
102
RTVSPost2010PropOp41
 70
     1
102
RTVSPost2010Prop42
 90
       50
102
RTVSPost2010PropOp42
 70
     1
102
RTVSPost2010Prop43
 90
        3
102
RTVSPost2010PropOp43
 70
     1
102
RTVSPost2010Prop44ColorIndex
 90
        5
102
RTVSPost2010Prop44ColorRGB
 90
      255
102
RTVSPost2010PropOp44
 70
     1
102
RTVSPost2010Prop45
280
     0
102
RTVSPost2010PropOp45
 70
     1
102
RTVSPost2010Prop46
 90
       50
102
RTVSPost2010PropOp46
 70
     1
102
RTVSPost2010Prop47
 90
       50
102
RTVSPost2010PropOp47
 70
     1
102
RTVSPost2010Prop48
 90
       50
102
RTVSPost2010PropOp48
 70
     1
102
RTVSPost2010Prop49
280
     0
102
RTVSPost2010PropOp49
 70
     1
102
RTVSPost2010Prop50
 90
       50
102
RTVSPost2010PropOp50
 70
     1
102
RTVSPost2010Prop51ColorIndex
 90
      256
102
RTVSPost2010Prop51ColorRGB
 90
-16777216
102
RTVSPost2010PropOp51
 70
     0
102
RTVSPost2010Prop52
140
1.0
102
RTVSPost2010PropOp52
 70
     0
102
RTVSPost2010Prop53
 90
        2
102
RTVSPost2010PropOp53
 70
     1
102
RTVSPost2010Prop54
  1
strokes_ogs.tif
102
RTVSPost2010PropOp54
 70
     1
102
RTVSPost2010Prop55
280
     0
102
RTVSPost2010PropOp55
 70
     1
102
RTVSPost2010Prop56
140
1.0
102
RTVSPost2010PropOp56
 70
     1
102
RTVSPost2010Prop57
140
1.0
102
RTVSPost2010PropOp57
 70
     1
  0
XRECORD
  5
182
102
{ACAD_REACTORS
330
181
102
}
330
181
100
AcDbXrecord
280
     1
102
RTVSPost2010Prop28
280
     0
102
RTVSPost2010PropOp28
 70
     1
102
RTVSPost2010Prop29
280
     1
102
RTVSPost2010PropOp29
 70
     1
102
RTVSPost2010Prop30
280
     1
102
RTVSPost2010PropOp30
 70
     1
102
RTVSPost2010Prop31
280
     0
102
RTVSPost2010PropOp31
 70
     1
102
RTVSPost2010Prop32
280
     0
102
RTVSPost2010PropOp32
 70
     1
102
RTVSPost2010Prop33
280
     0
102
RTVSPost2010PropOp33
 70
     1
102
RTVSPost2010Prop34
280
     0
102
RTVSPost2010PropOp34
 70
     1
102
RTVSPost2010Prop35
280
     0
102
RTVSPost2010PropOp35
 70
     1
102
RTVSPost2010Prop36
280
     0
102
RTVSPost2010PropOp36
 70
     1
102
RTVSPost2010Prop37
 90
       50
102
RTVSPost2010PropOp37
 70
     1
102
RTVSPost2010Prop38
140
0.0
102
RTVSPost2010PropOp38
 70
     1
102
RTVSPost2010Prop39
140
1.0
102
RTVSPost2010PropOp39
 70
     1
102
RTVSPost2010Prop40
 90
        0
102
RTVSPost2010PropOp40
 70
     1
102
RTVSPost2010Prop41ColorIndex
 90
       18
102
RTVSPost2010Prop41ColorRGB
 90
        0
102
RTVSPost2010PropOp41
 70
     1
102
RTVSPost2010Prop42
 90
       50
102
RTVSPost2010PropOp42
 70
     1
102
RTVSPost2010Prop43
 90
        3
102
RTVSPost2010PropOp43
 70
     1
102
RTVSPost2010Prop44ColorIndex
 90
        5
102
RTVSPost2010Prop44ColorRGB
 90
      255
102
RTVSPost2010PropOp44
 70
     1
102
RTVSPost2010Prop45
280
     0
102
RTVSPost2010PropOp45
 70
     1
102
RTVSPost2010Prop46
 90
       50
102
RTVSPost2010PropOp46
 70
     1
102
RTVSPost2010Prop47
 90
       50
102
RTVSPost2010PropOp47
 70
     1
102
RTVSPost2010Prop48
 90
       50
102
RTVSPost2010PropOp48
 70
     1
102
RTVSPost2010Prop49
280
     0
102
RTVSPost2010PropOp49
 70
     1
102
RTVSPost2010Prop50
 90
       50
102
RTVSPost2010PropOp50
 70
     1
102
RTVSPost2010Prop51ColorIndex
 90
      256
102
RTVSPost2010Prop51ColorRGB
 90
-16777216
102
RTVSPost2010PropOp51
 70
     0
102
RTVSPost2010Prop52
140
1.0
102
RTVSPost2010PropOp52
 70
     0
102
RTVSPost2010Prop53
 90
        2
102
RTVSPost2010PropOp53
 70
     1
102
RTVSPost2010Prop54
  1
strokes_ogs.tif
102
RTVSPost2010PropOp54
 70
     1
102
RTVSPost2010Prop55
280
     0
102
RTVSPost2010PropOp55
 70
     1
102
RTVSPost2010Prop56
140
1.0
102
RTVSPost2010PropOp56
 70
     1
102
RTVSPost2010Prop57
140
1.0
102
RTVSPost2010PropOp57
 70
     1
  0
XRECORD
  5
184
102
{ACAD_REACTORS
330
183
102
}
330
183
100
AcDbXrecord
280
     1
102
RTVSPost2010Prop28
280
     0
102
RTVSPost2010PropOp28
 70
     1
102
RTVSPost2010Prop29
280
     1
102
RTVSPost2010PropOp29
 70
     1
102
RTVSPost2010Prop30
280
     1
102
RTVSPost2010PropOp30
 70
     1
102
RTVSPost2010Prop31
280
     0
102
RTVSPost2010PropOp31
 70
     1
102
RTVSPost2010Prop32
280
     0
102
RTVSPost2010PropOp32
 70
     1
102
RTVSPost2010Prop33
280
     0
102
RTVSPost2010PropOp33
 70
     1
102
RTVSPost2010Prop34
280
     0
102
RTVSPost2010PropOp34
 70
     1
102
RTVSPost2010Prop35
280
     0
102
RTVSPost2010PropOp35
 70
     1
102
RTVSPost2010Prop36
280
     0
102
RTVSPost2010PropOp36
 70
     1
102
RTVSPost2010Prop37
 90
       50
102
RTVSPost2010PropOp37
 70
     1
102
RTVSPost2010Prop38
140
0.0
102
RTVSPost2010PropOp38
 70
     1
102
RTVSPost2010Prop39
140
1.0
102
RTVSPost2010PropOp39
 70
     1
102
RTVSPost2010Prop40
 90
        0
102
RTVSPost2010PropOp40
 70
     1
102
RTVSPost2010Prop41ColorIndex
 90
       18
102
RTVSPost2010Prop41ColorRGB
 90
        0
102
RTVSPost2010PropOp41
 70
     1
102
RTVSPost2010Prop42
 90
       50
102
RTVSPost2010PropOp42
 70
     1
102
RTVSPost2010Prop43
 90
        3
102
RTVSPost2010PropOp43
 70
     1
102
RTVSPost2010Prop44ColorIndex
 90
        5
102
RTVSPost2010Prop44ColorRGB
 90
      255
102
RTVSPost2010PropOp44
 70
     1
102
RTVSPost2010Prop45
280
     0
102
RTVSPost2010PropOp45
 70
     1
102
RTVSPost2010Prop46
 90
       50
102
RTVSPost2010PropOp46
 70
     1
102
RTVSPost2010Prop47
 90
       50
102
RTVSPost2010PropOp47
 70
     1
102
RTVSPost2010Prop48
 90
       50
102
RTVSPost2010PropOp48
 70
     1
102
RTVSPost2010Prop49
280
     0
102
RTVSPost2010PropOp49
 70
     1
102
RTVSPost2010Prop50
 90
       50
102
RTVSPost2010PropOp50
 70
     1
102
RTVSPost2010Prop51ColorIndex
 90
      256
102
RTVSPost2010Prop51ColorRGB
 90
-16777216
102
RTVSPost2010PropOp51
 70
     0
102
RTVSPost2010Prop52
140
1.0
102
RTVSPost2010PropOp52
 70
     0
102
RTVSPost2010Prop53
 90
        2
102
RTVSPost2010PropOp53
 70
     1
102
RTVSPost2010Prop54
  1
strokes_ogs.tif
102
RTVSPost2010PropOp54
 70
     1
102
RTVSPost2010Prop55
280
     0
102
RTVSPost2010PropOp55
 70
     1
102
RTVSPost2010Prop56
140
1.0
102
RTVSPost2010PropOp56
 70
     1
102
RTVSPost2010Prop57
140
1.0
102
RTVSPost2010PropOp57
 70
     1
  0
XRECORD
  5
18C
102
{ACAD_REACTORS
330
18B
102
}
330
18B
100
AcDbXrecord
280
     1
102
RTVSPost2010Prop28
280
     0
102
RTVSPost2010PropOp28
 70
     1
102
RTVSPost2010Prop29
280
     1
102
RTVSPost2010PropOp29
 70
     1
102
RTVSPost2010Prop30
280
     1
102
RTVSPost2010PropOp30
 70
     1
102
RTVSPost2010Prop31
280
     0
102
RTVSPost2010PropOp31
 70
     1
102
RTVSPost2010Prop32
280
     0
102
RTVSPost2010PropOp32
 70
     1
102
RTVSPost2010Prop33
280
     0
102
RTVSPost2010PropOp33
 70
     1
102
RTVSPost2010Prop34
280
     0
102
RTVSPost2010PropOp34
 70
     1
102
RTVSPost2010Prop35
280
     0
102
RTVSPost2010PropOp35
 70
     1
102
RTVSPost2010Prop36
280
     0
102
RTVSPost2010PropOp36
 70
     1
102
RTVSPost2010Prop37
 90
       50
102
RTVSPost2010PropOp37
 70
     1
102
RTVSPost2010Prop38
140
0.0
102
RTVSPost2010PropOp38
 70
     1
102
RTVSPost2010Prop39
140
1.0
102
RTVSPost2010PropOp39
 70
     1
102
RTVSPost2010Prop40
 90
        0
102
RTVSPost2010PropOp40
 70
     1
102
RTVSPost2010Prop41ColorIndex
 90
       18
102
RTVSPost2010Prop41ColorRGB
 90
        0
102
RTVSPost2010PropOp41
 70
     1
102
RTVSPost2010Prop42
 90
       50
102
RTVSPost2010PropOp42
 70
     1
102
RTVSPost2010Prop43
 90
        3
102
RTVSPost2010PropOp43
 70
     1
102
RTVSPost2010Prop44ColorIndex
 90
        5
102
RTVSPost2010Prop44ColorRGB
 90
      255
102
RTVSPost2010PropOp44
 70
     1
102
RTVSPost2010Prop45
280
     0
102
RTVSPost2010PropOp45
 70
     1
102
RTVSPost2010Prop46
 90
       50
102
RTVSPost2010PropOp46
 70
     1
102
RTVSPost2010Prop47
 90
       50
102
RTVSPost2010PropOp47
 70
     1
102
RTVSPost2010Prop48
 90
       50
102
RTVSPost2010PropOp48
 70
     1
102
RTVSPost2010Prop49
280
     0
102
RTVSPost2010PropOp49
 70
     1
102
RTVSPost2010Prop50
 90
       50
102
RTVSPost2010PropOp50
 70
     1
102
RTVSPost2010Prop51ColorIndex
 90
      256
102
RTVSPost2010Prop51ColorRGB
 90
-16777216
102
RTVSPost2010PropOp51
 70
     0
102
RTVSPost2010Prop52
140
1.0
102
RTVSPost2010PropOp52
 70
     0
102
RTVSPost2010Prop53
 90
        2
102
RTVSPost2010PropOp53
 70
     1
102
RTVSPost2010Prop54
  1
strokes_ogs.tif
102
RTVSPost2010PropOp54
 70
     1
102
RTVSPost2010Prop55
280
     0
102
RTVSPost2010PropOp55
 70
     1
102
RTVSPost2010Prop56
140
1.0
102
RTVSPost2010PropOp56
 70
     1
102
RTVSPost2010Prop57
140
1.0
102
RTVSPost2010PropOp57
 70
     1
  0
XRECORD
  5
1A8
102
{ACAD_REACTORS
330
1A7
102
}
330
1A7
100
AcDbXrecord
280
     1
102
RTVSPost2010Prop28
280
     0
102
RTVSPost2010PropOp28
 70
     0
102
RTVSPost2010Prop29
280
     1
102
RTVSPost2010PropOp29
 70
     0
102
RTVSPost2010Prop30
280
     1
102
RTVSPost2010PropOp30
 70
     0
102
RTVSPost2010Prop31
280
     0
102
RTVSPost2010PropOp31
 70
     0
102
RTVSPost2010Prop32
280
     0
102
RTVSPost2010PropOp32
 70
     0
102
RTVSPost2010Prop33
280
     0
102
RTVSPost2010PropOp33
 70
     0
102
RTVSPost2010Prop34
280
     0
102
RTVSPost2010PropOp34
 70
     0
102
RTVSPost2010Prop35
280
     0
102
RTVSPost2010PropOp35
 70
     0
102
RTVSPost2010Prop36
280
     0
102
RTVSPost2010PropOp36
 70
     0
102
RTVSPost2010Prop37
 90
       50
102
RTVSPost2010PropOp37
 70
     0
102
RTVSPost2010Prop38
140
0.0
102
RTVSPost2010PropOp38
 70
     0
102
RTVSPost2010Prop39
140
1.0
102
RTVSPost2010PropOp39
 70
     0
102
RTVSPost2010Prop40
 90
        0
102
RTVSPost2010PropOp40
 70
     0
102
RTVSPost2010Prop41ColorIndex
 90
       18
102
RTVSPost2010Prop41ColorRGB
 90
        0
102
RTVSPost2010PropOp41
 70
     0
102
RTVSPost2010Prop42
 90
       50
102
RTVSPost2010PropOp42
 70
     0
102
RTVSPost2010Prop43
 90
        3
102
RTVSPost2010PropOp43
 70
     0
102
RTVSPost2010Prop44ColorIndex
 90
        5
102
RTVSPost2010Prop44ColorRGB
 90
      255
102
RTVSPost2010PropOp44
 70
     0
102
RTVSPost2010Prop45
280
     0
102
RTVSPost2010PropOp45
 70
     0
102
RTVSPost2010Prop46
 90
       50
102
RTVSPost2010PropOp46
 70
     0
102
RTVSPost2010Prop47
 90
       50
102
RTVSPost2010PropOp47
 70
     0
102
RTVSPost2010Prop48
 90
       50
102
RTVSPost2010PropOp48
 70
     0
102
RTVSPost2010Prop49
280
     0
102
RTVSPost2010PropOp49
 70
     0
102
RTVSPost2010Prop50
 90
       50
102
RTVSPost2010PropOp50
 70
     0
102
RTVSPost2010Prop51ColorIndex
 90
      256
102
RTVSPost2010Prop51ColorRGB
 90
-16777216
102
RTVSPost2010PropOp51
 70
     0
102
RTVSPost2010Prop52
140
1.0
102
RTVSPost2010PropOp52
 70
     0
102
RTVSPost2010Prop53
 90
        2
102
RTVSPost2010PropOp53
 70
     0
102
RTVSPost2010Prop54
  1
strokes_ogs.tif
102
RTVSPost2010PropOp54
 70
     0
102
RTVSPost2010Prop55
280
     0
102
RTVSPost2010PropOp55
 70
     0
102
RTVSPost2010Prop56
140
1.0
102
RTVSPost2010PropOp56
 70
     0
102
RTVSPost2010Prop57
140
1.0
102
RTVSPost2010PropOp57
 70
     0
  0
XRECORD
  5
198
102
{ACAD_REACTORS
330
197
102
}
330
197
100
AcDbXrecord
280
     1
102
RTVSPost2010Prop28
280
     0
102
RTVSPost2010PropOp28
 70
     1
102
RTVSPost2010Prop29
280
     1
102
RTVSPost2010PropOp29
 70
     1
102
RTVSPost2010Prop30
280
     1
102
RTVSPost2010PropOp30
 70
     1
102
RTVSPost2010Prop31
280
     0
102
RTVSPost2010PropOp31
 70
     1
102
RTVSPost2010Prop32
280
     0
102
RTVSPost2010PropOp32
 70
     1
102
RTVSPost2010Prop33
280
     0
102
RTVSPost2010PropOp33
 70
     1
102
RTVSPost2010Prop34
280
     0
102
RTVSPost2010PropOp34
 70
     1
102
RTVSPost2010Prop35
280
     0
102
RTVSPost2010PropOp35
 70
     1
102
RTVSPost2010Prop36
280
     0
102
RTVSPost2010PropOp36
 70
     1
102
RTVSPost2010Prop37
 90
       50
102
RTVSPost2010PropOp37
 70
     1
102
RTVSPost2010Prop38
140
0.0
102
RTVSPost2010PropOp38
 70
     1
102
RTVSPost2010Prop39
140
1.0
102
RTVSPost2010PropOp39
 70
     1
102
RTVSPost2010Prop40
 90
        0
102
RTVSPost2010PropOp40
 70
     1
102
RTVSPost2010Prop41ColorIndex
 90
       18
102
RTVSPost2010Prop41ColorRGB
 90
        0
102
RTVSPost2010PropOp41
 70
     1
102
RTVSPost2010Prop42
 90
       50
102
RTVSPost2010PropOp42
 70
     1
102
RTVSPost2010Prop43
 90
        3
102
RTVSPost2010PropOp43
 70
     1
102
RTVSPost2010Prop44ColorIndex
 90
        5
102
RTVSPost2010Prop44ColorRGB
 90
      255
102
RTVSPost2010PropOp44
 70
     1
102
RTVSPost2010Prop45
280
     0
102
RTVSPost2010PropOp45
 70
     1
102
RTVSPost2010Prop46
 90
       50
102
RTVSPost2010PropOp46
 70
     1
102
RTVSPost2010Prop47
 90
       50
102
RTVSPost2010PropOp47
 70
     1
102
RTVSPost2010Prop48
 90
       50
102
RTVSPost2010PropOp48
 70
     1
102
RTVSPost2010Prop49
280
     0
102
RTVSPost2010PropOp49
 70
     1
102
RTVSPost2010Prop50
 90
       50
102
RTVSPost2010PropOp50
 70
     1
102
RTVSPost2010Prop51ColorIndex
 90
      256
102
RTVSPost2010Prop51ColorRGB
 90
-16777216
102
RTVSPost2010PropOp51
 70
     0
102
RTVSPost2010Prop52
140
1.0
102
RTVSPost2010PropOp52
 70
     0
102
RTVSPost2010Prop53
 90
        2
102
RTVSPost2010PropOp53
 70
     1
102
RTVSPost2010Prop54
  1
strokes_ogs.tif
102
RTVSPost2010PropOp54
 70
     1
102
RTVSPost2010Prop55
280
     0
102
RTVSPost2010PropOp55
 70
     1
102
RTVSPost2010Prop56
140
1.0
102
RTVSPost2010PropOp56
 70
     1
102
RTVSPost2010Prop57
140
1.0
102
RTVSPost2010PropOp57
 70
     1
  0
XRECORD
  5
1AA
102
{ACAD_REACTORS
330
1A9
102
}
330
1A9
100
AcDbXrecord
280
     1
102
RTVSPost2010Prop28
280
     0
102
RTVSPost2010PropOp28
 70
     0
102
RTVSPost2010Prop29
280
     1
102
RTVSPost2010PropOp29
 70
     0
102
RTVSPost2010Prop30
280
     1
102
RTVSPost2010PropOp30
 70
     0
102
RTVSPost2010Prop31
280
     0
102
RTVSPost2010PropOp31
 70
     0
102
RTVSPost2010Prop32
280
     0
102
RTVSPost2010PropOp32
 70
     0
102
RTVSPost2010Prop33
280
     0
102
RTVSPost2010PropOp33
 70
     0
102
RTVSPost2010Prop34
280
     0
102
RTVSPost2010PropOp34
 70
     0
102
RTVSPost2010Prop35
280
     0
102
RTVSPost2010PropOp35
 70
     0
102
RTVSPost2010Prop36
280
     0
102
RTVSPost2010PropOp36
 70
     0
102
RTVSPost2010Prop37
 90
       50
102
RTVSPost2010PropOp37
 70
     0
102
RTVSPost2010Prop38
140
0.0
102
RTVSPost2010PropOp38
 70
     0
102
RTVSPost2010Prop39
140
1.0
102
RTVSPost2010PropOp39
 70
     0
102
RTVSPost2010Prop40
 90
        0
102
RTVSPost2010PropOp40
 70
     0
102
RTVSPost2010Prop41ColorIndex
 90
       18
102
RTVSPost2010Prop41ColorRGB
 90
        0
102
RTVSPost2010PropOp41
 70
     0
102
RTVSPost2010Prop42
 90
       50
102
RTVSPost2010PropOp42
 70
     0
102
RTVSPost2010Prop43
 90
        3
102
RTVSPost2010PropOp43
 70
     0
102
RTVSPost2010Prop44ColorIndex
 90
        5
102
RTVSPost2010Prop44ColorRGB
 90
      255
102
RTVSPost2010PropOp44
 70
     0
102
RTVSPost2010Prop45
280
     0
102
RTVSPost2010PropOp45
 70
     0
102
RTVSPost2010Prop46
 90
       50
102
RTVSPost2010PropOp46
 70
     0
102
RTVSPost2010Prop47
 90
       50
102
RTVSPost2010PropOp47
 70
     0
102
RTVSPost2010Prop48
 90
       50
102
RTVSPost2010PropOp48
 70
     0
102
RTVSPost2010Prop49
280
     0
102
RTVSPost2010PropOp49
 70
     0
102
RTVSPost2010Prop50
 90
       50
102
RTVSPost2010PropOp50
 70
     0
102
RTVSPost2010Prop51ColorIndex
 90
      256
102
RTVSPost2010Prop51ColorRGB
 90
-16777216
102
RTVSPost2010PropOp51
 70
     0
102
RTVSPost2010Prop52
140
1.0
102
RTVSPost2010PropOp52
 70
     0
102
RTVSPost2010Prop53
 90
        2
102
RTVSPost2010PropOp53
 70
     0
102
RTVSPost2010Prop54
  1
strokes_ogs.tif
102
RTVSPost2010PropOp54
 70
     0
102
RTVSPost2010Prop55
280
     0
102
RTVSPost2010PropOp55
 70
     0
102
RTVSPost2010Prop56
140
1.0
102
RTVSPost2010PropOp56
 70
     0
102
RTVSPost2010Prop57
140
1.0
102
RTVSPost2010PropOp57
 70
     0
  0
XRECORD
  5
190
102
{ACAD_REACTORS
330
18F
102
}
330
18F
100
AcDbXrecord
280
     1
102
RTVSPost2010Prop28
280
     0
102
RTVSPost2010PropOp28
 70
     1
102
RTVSPost2010Prop29
280
     1
102
RTVSPost2010PropOp29
 70
     1
102
RTVSPost2010Prop30
280
     1
102
RTVSPost2010PropOp30
 70
     1
102
RTVSPost2010Prop31
280
     0
102
RTVSPost2010PropOp31
 70
     1
102
RTVSPost2010Prop32
280
     0
102
RTVSPost2010PropOp32
 70
     1
102
RTVSPost2010Prop33
280
     0
102
RTVSPost2010PropOp33
 70
     1
102
RTVSPost2010Prop34
280
     0
102
RTVSPost2010PropOp34
 70
     1
102
RTVSPost2010Prop35
280
     0
102
RTVSPost2010PropOp35
 70
     1
102
RTVSPost2010Prop36
280
     0
102
RTVSPost2010PropOp36
 70
     1
102
RTVSPost2010Prop37
 90
       50
102
RTVSPost2010PropOp37
 70
     1
102
RTVSPost2010Prop38
140
0.0
102
RTVSPost2010PropOp38
 70
     1
102
RTVSPost2010Prop39
140
1.0
102
RTVSPost2010PropOp39
 70
     1
102
RTVSPost2010Prop40
 90
        0
102
RTVSPost2010PropOp40
 70
     1
102
RTVSPost2010Prop41ColorIndex
 90
       18
102
RTVSPost2010Prop41ColorRGB
 90
        0
102
RTVSPost2010PropOp41
 70
     1
102
RTVSPost2010Prop42
 90
       50
102
RTVSPost2010PropOp42
 70
     1
102
RTVSPost2010Prop43
 90
        3
102
RTVSPost2010PropOp43
 70
     1
102
RTVSPost2010Prop44ColorIndex
 90
        5
102
RTVSPost2010Prop44ColorRGB
 90
      255
102
RTVSPost2010PropOp44
 70
     1
102
RTVSPost2010Prop45
280
     0
102
RTVSPost2010PropOp45
 70
     1
102
RTVSPost2010Prop46
 90
       50
102
RTVSPost2010PropOp46
 70
     1
102
RTVSPost2010Prop47
 90
       50
102
RTVSPost2010PropOp47
 70
     1
102
RTVSPost2010Prop48
 90
       50
102
RTVSPost2010PropOp48
 70
     1
102
RTVSPost2010Prop49
280
     0
102
RTVSPost2010PropOp49
 70
     1
102
RTVSPost2010Prop50
 90
       50
102
RTVSPost2010PropOp50
 70
     1
102
RTVSPost2010Prop51ColorIndex
 90
      256
102
RTVSPost2010Prop51ColorRGB
 90
-16777216
102
RTVSPost2010PropOp51
 70
     0
102
RTVSPost2010Prop52
140
1.0
102
RTVSPost2010PropOp52
 70
     0
102
RTVSPost2010Prop53
 90
        2
102
RTVSPost2010PropOp53
 70
     1
102
RTVSPost2010Prop54
  1
strokes_ogs.tif
102
RTVSPost2010PropOp54
 70
     1
102
RTVSPost2010Prop55
280
     0
102
RTVSPost2010PropOp55
 70
     1
102
RTVSPost2010Prop56
140
1.0
102
RTVSPost2010PropOp56
 70
     1
102
RTVSPost2010Prop57
140
1.0
102
RTVSPost2010PropOp57
 70
     1
  0
XRECORD
  5
1A6
102
{ACAD_REACTORS
330
1A5
102
}
330
1A5
100
AcDbXrecord
280
     1
102
RTVSPost2010Prop28
280
     0
102
RTVSPost2010PropOp28
 70
     1
102
RTVSPost2010Prop29
280
     1
102
RTVSPost2010PropOp29
 70
     1
102
RTVSPost2010Prop30
280
     1
102
RTVSPost2010PropOp30
 70
     1
102
RTVSPost2010Prop31
280
     0
102
RTVSPost2010PropOp31
 70
     1
102
RTVSPost2010Prop32
280
     0
102
RTVSPost2010PropOp32
 70
     1
102
RTVSPost2010Prop33
280
     0
102
RTVSPost2010PropOp33
 70
     1
102
RTVSPost2010Prop34
280
     0
102
RTVSPost2010PropOp34
 70
     1
102
RTVSPost2010Prop35
280
     0
102
RTVSPost2010PropOp35
 70
     1
102
RTVSPost2010Prop36
280
     0
102
RTVSPost2010PropOp36
 70
     1
102
RTVSPost2010Prop37
 90
       50
102
RTVSPost2010PropOp37
 70
     1
102
RTVSPost2010Prop38
140
0.0
102
RTVSPost2010PropOp38
 70
     1
102
RTVSPost2010Prop39
140
1.0
102
RTVSPost2010PropOp39
 70
     1
102
RTVSPost2010Prop40
 90
        0
102
RTVSPost2010PropOp40
 70
     1
102
RTVSPost2010Prop41ColorIndex
 90
       18
102
RTVSPost2010Prop41ColorRGB
 90
        0
102
RTVSPost2010PropOp41
 70
     1
102
RTVSPost2010Prop42
 90
       50
102
RTVSPost2010PropOp42
 70
     1
102
RTVSPost2010Prop43
 90
        3
102
RTVSPost2010PropOp43
 70
     1
102
RTVSPost2010Prop44ColorIndex
 90
        5
102
RTVSPost2010Prop44ColorRGB
 90
      255
102
RTVSPost2010PropOp44
 70
     1
102
RTVSPost2010Prop45
280
     0
102
RTVSPost2010PropOp45
 70
     1
102
RTVSPost2010Prop46
 90
       50
102
RTVSPost2010PropOp46
 70
     1
102
RTVSPost2010Prop47
 90
       50
102
RTVSPost2010PropOp47
 70
     1
102
RTVSPost2010Prop48
 90
       50
102
RTVSPost2010PropOp48
 70
     1
102
RTVSPost2010Prop49
280
     0
102
RTVSPost2010PropOp49
 70
     1
102
RTVSPost2010Prop50
 90
       50
102
RTVSPost2010PropOp50
 70
     1
102
RTVSPost2010Prop51ColorIndex
 90
      256
102
RTVSPost2010Prop51ColorRGB
 90
-16777216
102
RTVSPost2010PropOp51
 70
     0
102
RTVSPost2010Prop52
140
1.0
102
RTVSPost2010PropOp52
 70
     0
102
RTVSPost2010Prop53
 90
        2
102
RTVSPost2010PropOp53
 70
     1
102
RTVSPost2010Prop54
  1
strokes_ogs.tif
102
RTVSPost2010PropOp54
 70
     1
102
RTVSPost2010Prop55
280
     0
102
RTVSPost2010PropOp55
 70
     1
102
RTVSPost2010Prop56
140
1.0
102
RTVSPost2010PropOp56
 70
     1
102
RTVSPost2010Prop57
140
1.0
102
RTVSPost2010PropOp57
 70
     1
  0
XRECORD
  5
1A4
102
{ACAD_REACTORS
330
1A3
102
}
330
1A3
100
AcDbXrecord
280
     1
102
RTVSPost2010Prop28
280
     0
102
RTVSPost2010PropOp28
 70
     1
102
RTVSPost2010Prop29
280
     1
102
RTVSPost2010PropOp29
 70
     1
102
RTVSPost2010Prop30
280
     1
102
RTVSPost2010PropOp30
 70
     1
102
RTVSPost2010Prop31
280
     0
102
RTVSPost2010PropOp31
 70
     1
102
RTVSPost2010Prop32
280
     0
102
RTVSPost2010PropOp32
 70
     1
102
RTVSPost2010Prop33
280
     0
102
RTVSPost2010PropOp33
 70
     1
102
RTVSPost2010Prop34
280
     0
102
RTVSPost2010PropOp34
 70
     1
102
RTVSPost2010Prop35
280
     0
102
RTVSPost2010PropOp35
 70
     1
102
RTVSPost2010Prop36
280
     0
102
RTVSPost2010PropOp36
 70
     1
102
RTVSPost2010Prop37
 90
       50
102
RTVSPost2010PropOp37
 70
     1
102
RTVSPost2010Prop38
140
0.0
102
RTVSPost2010PropOp38
 70
     1
102
RTVSPost2010Prop39
140
1.0
102
RTVSPost2010PropOp39
 70
     1
102
RTVSPost2010Prop40
 90
        0
102
RTVSPost2010PropOp40
 70
     1
102
RTVSPost2010Prop41ColorIndex
 90
       18
102
RTVSPost2010Prop41ColorRGB
 90
        0
102
RTVSPost2010PropOp41
 70
     1
102
RTVSPost2010Prop42
 90
       50
102
RTVSPost2010PropOp42
 70
     1
102
RTVSPost2010Prop43
 90
        3
102
RTVSPost2010PropOp43
 70
     1
102
RTVSPost2010Prop44ColorIndex
 90
        5
102
RTVSPost2010Prop44ColorRGB
 90
      255
102
RTVSPost2010PropOp44
 70
     1
102
RTVSPost2010Prop45
280
     0
102
RTVSPost2010PropOp45
 70
     1
102
RTVSPost2010Prop46
 90
       50
102
RTVSPost2010PropOp46
 70
     1
102
RTVSPost2010Prop47
 90
       50
102
RTVSPost2010PropOp47
 70
     1
102
RTVSPost2010Prop48
 90
       50
102
RTVSPost2010PropOp48
 70
     1
102
RTVSPost2010Prop49
280
     0
102
RTVSPost2010PropOp49
 70
     1
102
RTVSPost2010Prop50
 90
       50
102
RTVSPost2010PropOp50
 70
     1
102
RTVSPost2010Prop51ColorIndex
 90
      256
102
RTVSPost2010Prop51ColorRGB
 90
-16777216
102
RTVSPost2010PropOp51
 70
     0
102
RTVSPost2010Prop52
140
1.0
102
RTVSPost2010PropOp52
 70
     0
102
RTVSPost2010Prop53
 90
        2
102
RTVSPost2010PropOp53
 70
     1
102
RTVSPost2010Prop54
  1
strokes_ogs.tif
102
RTVSPost2010PropOp54
 70
     1
102
RTVSPost2010Prop55
280
     0
102
RTVSPost2010PropOp55
 70
     1
102
RTVSPost2010Prop56
140
1.0
102
RTVSPost2010PropOp56
 70
     1
102
RTVSPost2010Prop57
140
1.0
102
RTVSPost2010PropOp57
 70
     1
  0
XRECORD
  5
19E
102
{ACAD_REACTORS
330
19D
102
}
330
19D
100
AcDbXrecord
280
     1
102
RTVSPost2010Prop28
280
     0
102
RTVSPost2010PropOp28
 70
     1
102
RTVSPost2010Prop29
280
     1
102
RTVSPost2010PropOp29
 70
     1
102
RTVSPost2010Prop30
280
     1
102
RTVSPost2010PropOp30
 70
     1
102
RTVSPost2010Prop31
280
     0
102
RTVSPost2010PropOp31
 70
     1
102
RTVSPost2010Prop32
280
     0
102
RTVSPost2010PropOp32
 70
     1
102
RTVSPost2010Prop33
280
     0
102
RTVSPost2010PropOp33
 70
     1
102
RTVSPost2010Prop34
280
     0
102
RTVSPost2010PropOp34
 70
     1
102
RTVSPost2010Prop35
280
     0
102
RTVSPost2010PropOp35
 70
     1
102
RTVSPost2010Prop36
280
     0
102
RTVSPost2010PropOp36
 70
     1
102
RTVSPost2010Prop37
 90
       50
102
RTVSPost2010PropOp37
 70
     1
102
RTVSPost2010Prop38
140
0.0
102
RTVSPost2010PropOp38
 70
     1
102
RTVSPost2010Prop39
140
1.0
102
RTVSPost2010PropOp39
 70
     1
102
RTVSPost2010Prop40
 90
        0
102
RTVSPost2010PropOp40
 70
     1
102
RTVSPost2010Prop41ColorIndex
 90
       18
102
RTVSPost2010Prop41ColorRGB
 90
        0
102
RTVSPost2010PropOp41
 70
     1
102
RTVSPost2010Prop42
 90
       50
102
RTVSPost2010PropOp42
 70
     1
102
RTVSPost2010Prop43
 90
        3
102
RTVSPost2010PropOp43
 70
     1
102
RTVSPost2010Prop44ColorIndex
 90
        5
102
RTVSPost2010Prop44ColorRGB
 90
      255
102
RTVSPost2010PropOp44
 70
     1
102
RTVSPost2010Prop45
280
     0
102
RTVSPost2010PropOp45
 70
     1
102
RTVSPost2010Prop46
 90
       50
102
RTVSPost2010PropOp46
 70
     1
102
RTVSPost2010Prop47
 90
       50
102
RTVSPost2010PropOp47
 70
     1
102
RTVSPost2010Prop48
 90
       50
102
RTVSPost2010PropOp48
 70
     1
102
RTVSPost2010Prop49
280
     0
102
RTVSPost2010PropOp49
 70
     1
102
RTVSPost2010Prop50
 90
       50
102
RTVSPost2010PropOp50
 70
     1
102
RTVSPost2010Prop51ColorIndex
 90
      256
102
RTVSPost2010Prop51ColorRGB
 90
-16777216
102
RTVSPost2010PropOp51
 70
     0
102
RTVSPost2010Prop52
140
1.0
102
RTVSPost2010PropOp52
 70
     0
102
RTVSPost2010Prop53
 90
        2
102
RTVSPost2010PropOp53
 70
     1
102
RTVSPost2010Prop54
  1
strokes_ogs.tif
102
RTVSPost2010PropOp54
 70
     1
102
RTVSPost2010Prop55
280
     0
102
RTVSPost2010PropOp55
 70
     1
102
RTVSPost2010Prop56
140
1.0
102
RTVSPost2010PropOp56
 70
     1
102
RTVSPost2010Prop57
140
1.0
102
RTVSPost2010PropOp57
 70
     1
  0
XRECORD
  5
1A0
102
{ACAD_REACTORS
330
19F
102
}
330
19F
100
AcDbXrecord
280
     1
102
RTVSPost2010Prop28
280
     0
102
RTVSPost2010PropOp28
 70
     1
102
RTVSPost2010Prop29
280
     1
102
RTVSPost2010PropOp29
 70
     1
102
RTVSPost2010Prop30
280
     1
102
RTVSPost2010PropOp30
 70
     1
102
RTVSPost2010Prop31
280
     0
102
RTVSPost2010PropOp31
 70
     1
102
RTVSPost2010Prop32
280
     0
102
RTVSPost2010PropOp32
 70
     1
102
RTVSPost2010Prop33
280
     0
102
RTVSPost2010PropOp33
 70
     1
102
RTVSPost2010Prop34
280
     0
102
RTVSPost2010PropOp34
 70
     1
102
RTVSPost2010Prop35
280
     0
102
RTVSPost2010PropOp35
 70
     1
102
RTVSPost2010Prop36
280
     0
102
RTVSPost2010PropOp36
 70
     1
102
RTVSPost2010Prop37
 90
       50
102
RTVSPost2010PropOp37
 70
     1
102
RTVSPost2010Prop38
140
0.0
102
RTVSPost2010PropOp38
 70
     1
102
RTVSPost2010Prop39
140
1.0
102
RTVSPost2010PropOp39
 70
     1
102
RTVSPost2010Prop40
 90
        0
102
RTVSPost2010PropOp40
 70
     1
102
RTVSPost2010Prop41ColorIndex
 90
       18
102
RTVSPost2010Prop41ColorRGB
 90
        0
102
RTVSPost2010PropOp41
 70
     1
102
RTVSPost2010Prop42
 90
       50
102
RTVSPost2010PropOp42
 70
     1
102
RTVSPost2010Prop43
 90
        3
102
RTVSPost2010PropOp43
 70
     1
102
RTVSPost2010Prop44ColorIndex
 90
        5
102
RTVSPost2010Prop44ColorRGB
 90
      255
102
RTVSPost2010PropOp44
 70
     1
102
RTVSPost2010Prop45
280
     0
102
RTVSPost2010PropOp45
 70
     1
102
RTVSPost2010Prop46
 90
       50
102
RTVSPost2010PropOp46
 70
     1
102
RTVSPost2010Prop47
 90
       50
102
RTVSPost2010PropOp47
 70
     1
102
RTVSPost2010Prop48
 90
       50
102
RTVSPost2010PropOp48
 70
     1
102
RTVSPost2010Prop49
280
     0
102
RTVSPost2010PropOp49
 70
     1
102
RTVSPost2010Prop50
 90
       50
102
RTVSPost2010PropOp50
 70
     1
102
RTVSPost2010Prop51ColorIndex
 90
      256
102
RTVSPost2010Prop51ColorRGB
 90
-16777216
102
RTVSPost2010PropOp51
 70
     0
102
RTVSPost2010Prop52
140
1.0
102
RTVSPost2010PropOp52
 70
     0
102
RTVSPost2010Prop53
 90
        2
102
RTVSPost2010PropOp53
 70
     1
102
RTVSPost2010Prop54
  1
strokes_ogs.tif
102
RTVSPost2010PropOp54
 70
     1
102
RTVSPost2010Prop55
280
     0
102
RTVSPost2010PropOp55
 70
     1
102
RTVSPost2010Prop56
140
1.0
102
RTVSPost2010PropOp56
 70
     1
102
RTVSPost2010Prop57
140
1.0
102
RTVSPost2010PropOp57
 70
     1
  0
XRECORD
  5
196
102
{ACAD_REACTORS
330
195
102
}
330
195
100
AcDbXrecord
280
     1
102
RTVSPost2010Prop28
280
     0
102
RTVSPost2010PropOp28
 70
     1
102
RTVSPost2010Prop29
280
     1
102
RTVSPost2010PropOp29
 70
     1
102
RTVSPost2010Prop30
280
     1
102
RTVSPost2010PropOp30
 70
     1
102
RTVSPost2010Prop31
280
     0
102
RTVSPost2010PropOp31
 70
     1
102
RTVSPost2010Prop32
280
     0
102
RTVSPost2010PropOp32
 70
     1
102
RTVSPost2010Prop33
280
     0
102
RTVSPost2010PropOp33
 70
     1
102
RTVSPost2010Prop34
280
     0
102
RTVSPost2010PropOp34
 70
     1
102
RTVSPost2010Prop35
280
     0
102
RTVSPost2010PropOp35
 70
     1
102
RTVSPost2010Prop36
280
     0
102
RTVSPost2010PropOp36
 70
     1
102
RTVSPost2010Prop37
 90
       50
102
RTVSPost2010PropOp37
 70
     1
102
RTVSPost2010Prop38
140
0.0
102
RTVSPost2010PropOp38
 70
     1
102
RTVSPost2010Prop39
140
1.0
102
RTVSPost2010PropOp39
 70
     1
102
RTVSPost2010Prop40
 90
        0
102
RTVSPost2010PropOp40
 70
     1
102
RTVSPost2010Prop41ColorIndex
 90
       18
102
RTVSPost2010Prop41ColorRGB
 90
        0
102
RTVSPost2010PropOp41
 70
     1
102
RTVSPost2010Prop42
 90
       50
102
RTVSPost2010PropOp42
 70
     1
102
RTVSPost2010Prop43
 90
        3
102
RTVSPost2010PropOp43
 70
     1
102
RTVSPost2010Prop44ColorIndex
 90
        5
102
RTVSPost2010Prop44ColorRGB
 90
      255
102
RTVSPost2010PropOp44
 70
     1
102
RTVSPost2010Prop45
280
     0
102
RTVSPost2010PropOp45
 70
     1
102
RTVSPost2010Prop46
 90
       50
102
RTVSPost2010PropOp46
 70
     1
102
RTVSPost2010Prop47
 90
       50
102
RTVSPost2010PropOp47
 70
     1
102
RTVSPost2010Prop48
 90
       50
102
RTVSPost2010PropOp48
 70
     1
102
RTVSPost2010Prop49
280
     0
102
RTVSPost2010PropOp49
 70
     1
102
RTVSPost2010Prop50
 90
       50
102
RTVSPost2010PropOp50
 70
     1
102
RTVSPost2010Prop51ColorIndex
 90
      256
102
RTVSPost2010Prop51ColorRGB
 90
-16777216
102
RTVSPost2010PropOp51
 70
     0
102
RTVSPost2010Prop52
140
1.0
102
RTVSPost2010PropOp52
 70
     0
102
RTVSPost2010Prop53
 90
        2
102
RTVSPost2010PropOp53
 70
     1
102
RTVSPost2010Prop54
  1
strokes_ogs.tif
102
RTVSPost2010PropOp54
 70
     1
102
RTVSPost2010Prop55
280
     0
102
RTVSPost2010PropOp55
 70
     1
102
RTVSPost2010Prop56
140
1.0
102
RTVSPost2010PropOp56
 70
     1
102
RTVSPost2010Prop57
140
1.0
102
RTVSPost2010PropOp57
 70
     1
  0
XRECORD
  5
18A
102
{ACAD_REACTORS
330
189
102
}
330
189
100
AcDbXrecord
280
     1
102
RTVSPost2010Prop28
280
     0
102
RTVSPost2010PropOp28
 70
     1
102
RTVSPost2010Prop29
280
     1
102
RTVSPost2010PropOp29
 70
     1
102
RTVSPost2010Prop30
280
     1
102
RTVSPost2010PropOp30
 70
     1
102
RTVSPost2010Prop31
280
     0
102
RTVSPost2010PropOp31
 70
     1
102
RTVSPost2010Prop32
280
     0
102
RTVSPost2010PropOp32
 70
     1
102
RTVSPost2010Prop33
280
     0
102
RTVSPost2010PropOp33
 70
     1
102
RTVSPost2010Prop34
280
     0
102
RTVSPost2010PropOp34
 70
     1
102
RTVSPost2010Prop35
280
     0
102
RTVSPost2010PropOp35
 70
     1
102
RTVSPost2010Prop36
280
     0
102
RTVSPost2010PropOp36
 70
     1
102
RTVSPost2010Prop37
 90
       50
102
RTVSPost2010PropOp37
 70
     1
102
RTVSPost2010Prop38
140
0.0
102
RTVSPost2010PropOp38
 70
     1
102
RTVSPost2010Prop39
140
1.0
102
RTVSPost2010PropOp39
 70
     1
102
RTVSPost2010Prop40
 90
        0
102
RTVSPost2010PropOp40
 70
     1
102
RTVSPost2010Prop41ColorIndex
 90
       18
102
RTVSPost2010Prop41ColorRGB
 90
        0
102
RTVSPost2010PropOp41
 70
     1
102
RTVSPost2010Prop42
 90
       50
102
RTVSPost2010PropOp42
 70
     1
102
RTVSPost2010Prop43
 90
        3
102
RTVSPost2010PropOp43
 70
     1
102
RTVSPost2010Prop44ColorIndex
 90
        5
102
RTVSPost2010Prop44ColorRGB
 90
      255
102
RTVSPost2010PropOp44
 70
     1
102
RTVSPost2010Prop45
280
     0
102
RTVSPost2010PropOp45
 70
     1
102
RTVSPost2010Prop46
 90
       50
102
RTVSPost2010PropOp46
 70
     1
102
RTVSPost2010Prop47
 90
       50
102
RTVSPost2010PropOp47
 70
     1
102
RTVSPost2010Prop48
 90
       50
102
RTVSPost2010PropOp48
 70
     1
102
RTVSPost2010Prop49
280
     0
102
RTVSPost2010PropOp49
 70
     1
102
RTVSPost2010Prop50
 90
       50
102
RTVSPost2010PropOp50
 70
     1
102
RTVSPost2010Prop51ColorIndex
 90
      256
102
RTVSPost2010Prop51ColorRGB
 90
-16777216
102
RTVSPost2010PropOp51
 70
     0
102
RTVSPost2010Prop52
140
1.0
102
RTVSPost2010PropOp52
 70
     0
102
RTVSPost2010Prop53
 90
        2
102
RTVSPost2010PropOp53
 70
     1
102
RTVSPost2010Prop54
  1
strokes_ogs.tif
102
RTVSPost2010PropOp54
 70
     1
102
RTVSPost2010Prop55
280
     0
102
RTVSPost2010PropOp55
 70
     1
102
RTVSPost2010Prop56
140
1.0
102
RTVSPost2010PropOp56
 70
     1
102
RTVSPost2010Prop57
140
1.0
102
RTVSPost2010PropOp57
 70
     1
  0
XRECORD
  5
1A2
102
{ACAD_REACTORS
330
1A1
102
}
330
1A1
100
AcDbXrecord
280
     1
102
RTVSPost2010Prop28
280
     0
102
RTVSPost2010PropOp28
 70
     1
102
RTVSPost2010Prop29
280
     1
102
RTVSPost2010PropOp29
 70
     1
102
RTVSPost2010Prop30
280
     1
102
RTVSPost2010PropOp30
 70
     1
102
RTVSPost2010Prop31
280
     0
102
RTVSPost2010PropOp31
 70
     1
102
RTVSPost2010Prop32
280
     0
102
RTVSPost2010PropOp32
 70
     1
102
RTVSPost2010Prop33
280
     0
102
RTVSPost2010PropOp33
 70
     1
102
RTVSPost2010Prop34
280
     0
102
RTVSPost2010PropOp34
 70
     1
102
RTVSPost2010Prop35
280
     0
102
RTVSPost2010PropOp35
 70
     1
102
RTVSPost2010Prop36
280
     0
102
RTVSPost2010PropOp36
 70
     1
102
RTVSPost2010Prop37
 90
       50
102
RTVSPost2010PropOp37
 70
     1
102
RTVSPost2010Prop38
140
0.0
102
RTVSPost2010PropOp38
 70
     1
102
RTVSPost2010Prop39
140
1.0
102
RTVSPost2010PropOp39
 70
     1
102
RTVSPost2010Prop40
 90
        0
102
RTVSPost2010PropOp40
 70
     1
102
RTVSPost2010Prop41ColorIndex
 90
       18
102
RTVSPost2010Prop41ColorRGB
 90
        0
102
RTVSPost2010PropOp41
 70
     1
102
RTVSPost2010Prop42
 90
       50
102
RTVSPost2010PropOp42
 70
     1
102
RTVSPost2010Prop43
 90
        3
102
RTVSPost2010PropOp43
 70
     1
102
RTVSPost2010Prop44ColorIndex
 90
        5
102
RTVSPost2010Prop44ColorRGB
 90
      255
102
RTVSPost2010PropOp44
 70
     1
102
RTVSPost2010Prop45
280
     0
102
RTVSPost2010PropOp45
 70
     1
102
RTVSPost2010Prop46
 90
       50
102
RTVSPost2010PropOp46
 70
     1
102
RTVSPost2010Prop47
 90
       50
102
RTVSPost2010PropOp47
 70
     1
102
RTVSPost2010Prop48
 90
       50
102
RTVSPost2010PropOp48
 70
     1
102
RTVSPost2010Prop49
280
     0
102
RTVSPost2010PropOp49
 70
     1
102
RTVSPost2010Prop50
 90
       50
102
RTVSPost2010PropOp50
 70
     1
102
RTVSPost2010Prop51ColorIndex
 90
      256
102
RTVSPost2010Prop51ColorRGB
 90
-16777216
102
RTVSPost2010PropOp51
 70
     0
102
RTVSPost2010Prop52
140
1.0
102
RTVSPost2010PropOp52
 70
     0
102
RTVSPost2010Prop53
 90
        2
102
RTVSPost2010PropOp53
 70
     1
102
RTVSPost2010Prop54
  1
strokes_ogs.tif
102
RTVSPost2010PropOp54
 70
     1
102
RTVSPost2010Prop55
280
     0
102
RTVSPost2010PropOp55
 70
     1
102
RTVSPost2010Prop56
140
1.0
102
RTVSPost2010PropOp56
 70
     1
102
RTVSPost2010Prop57
140
1.0
102
RTVSPost2010PropOp57
 70
     1
  0
ENDSEC
  0
EOF
