  0
SECTION
  2
HEADER
  9
$ACADVER
  1
AC1024
  9
$ACADMAINTVER
 70
   226
  9
$DWGCODEPAGE
  3
ANSI_932
  9
$INSBASE
 10
0.0
 20
0.0
 30
0.0
  9
$EXTMIN
 10
1.000000000000000E+20
 20
1.000000000000000E+20
 30
1.000000000000000E+20
  9
$EXTMAX
 10
-1.000000000000000E+20
 20
-1.000000000000000E+20
 30
-1.000000000000000E+20
  9
$LIMMIN
 10
0.0
 20
0.0
  9
$LIMMAX
 10
12.0
 20
9.0
  9
$ORTHOMODE
 70
     0
  9
$REGENMODE
 70
     1
  9
$FILLMODE
 70
     1
  9
$QTEXTMODE
 70
     0
  9
$MIRRTEXT
 70
     0
  9
$LTSCALE
 40
1.0
  9
$ATTMODE
 70
     1
  9
$TEXTSIZE
 40
0.2
  9
$TRACEWID
 40
0.05
  9
$TEXTSTYLE
  7
Standard
  9
$CLAYER
  8
0
  9
$CELTYPE
  6
ByLayer
  9
$CECOLOR
 62
   256
  9
$CELTSCALE
 40
1.0
  9
$DISPSILH
 70
     0
  9
$DIMSCALE
 40
1.0
  9
$DIMASZ
 40
0.18
  9
$DIMEXO
 40
0.0625
  9
$DIMDLI
 40
0.38
  9
$DIMRND
 40
0.0
  9
$DIMDLE
 40
0.0
  9
$DIMEXE
 40
0.18
  9
$DIMTP
 40
0.0
  9
$DIMTM
 40
0.0
  9
$DIMTXT
 40
0.18
  9
$DIMCEN
 40
0.09
  9
$DIMTSZ
 40
0.0
  9
$DIMTOL
 70
     0
  9
$DIMLIM
 70
     0
  9
$DIMTIH
 70
     1
  9
$DIMTOH
 70
     1
  9
$DIMSE1
 70
     0
  9
$DIMSE2
 70
     0
  9
$DIMTAD
 70
     0
  9
$DIMZIN
 70
     0
  9
$DIMBLK
  1

  9
$DIMASO
 70
     1
  9
$DIMSHO
 70
     1
  9
$DIMPOST
  1

  9
$DIMAPOST
  1

  9
$DIMALT
 70
     0
  9
$DIMALTD
 70
     2
  9
$DIMALTF
 40
25.4
  9
$DIMLFAC
 40
1.0
  9
$DIMTOFL
 70
     0
  9
$DIMTVP
 40
0.0
  9
$DIMTIX
 70
     0
  9
$DIMSOXD
 70
     0
  9
$DIMSAH
 70
     0
  9
$DIMBLK1
  1

  9
$DIMBLK2
  1

  9
$DIMSTYLE
  2
Standard
  9
$DIMCLRD
 70
     0
  9
$DIMCLRE
 70
     0
  9
$DIMCLRT
 70
     0
  9
$DIMTFAC
 40
1.0
  9
$DIMGAP
 40
0.09
  9
$DIMJUST
 70
     0
  9
$DIMSD1
 70
     0
  9
$DIMSD2
 70
     0
  9
$DIMTOLJ
 70
     1
  9
$DIMTZIN
 70
     0
  9
$DIMALTZ
 70
     0
  9
$DIMALTTZ
 70
     0
  9
$DIMUPT
 70
     0
  9
$DIMDEC
 70
     4
  9
$DIMTDEC
 70
     4
  9
$DIMALTU
 70
     2
  9
$DIMALTTD
 70
     2
  9
$DIMTXSTY
  7
Standard
  9
$DIMAUNIT
 70
     0
  9
$DIMADEC
 70
     0
  9
$DIMALTRND
 40
0.0
  9
$DIMAZIN
 70
     0
  9
$DIMDSEP
 70
    46
  9
$DIMATFIT
 70
     3
  9
$DIMFRAC
 70
     0
  9
$DIMLDRBLK
  1

  9
$DIMLUNIT
 70
     2
  9
$DIMLWD
 70
    -2
  9
$DIMLWE
 70
    -2
  9
$DIMTMOVE
 70
     0
  9
$DIMFXL
 40
1.0
  9
$DIMFXLON
 70
     0
  9
$DIMJOGANG
 40
0.7853981633974483
  9
$DIMTFILL
 70
     0
  9
$DIMTFILLCLR
 70
     0
  9
$DIMARCSYM
 70
     0
  9
$DIMLTYPE
  6

  9
$DIMLTEX1
  6

  9
$DIMLTEX2
  6

  9
$DIMTXTDIRECTION
 70
     0
  9
$LUNITS
 70
     2
  9
$LUPREC
 70
     4
  9
$SKETCHINC
 40
0.1
  9
$FILLETRAD
 40
0.0
  9
$AUNITS
 70
     0
  9
$AUPREC
 70
     0
  9
$MENU
  1
.
  9
$ELEVATION
 40
0.0
  9
$PELEVATION
 40
0.0
  9
$THICKNESS
 40
0.0
  9
$LIMCHECK
 70
     0
  9
$CHAMFERA
 40
0.0
  9
$CHAMFERB
 40
0.0
  9
$CHAMFERC
 40
0.0
  9
$CHAMFERD
 40
0.0
  9
$SKPOLY
 70
     0
  9
$TDCREATE
 40
2459569.503831019
  9
$TDUCREATE
 40
2459569.128831019
  9
$TDUPDATE
 40
2459569.503831019
  9
$TDUUPDATE
 40
2459569.128831019
  9
$TDINDWG
 40
0.0000115741
  9
$TDUSRTIMER
 40
0.0000115741
  9
$USRTIMER
 70
     1
  9
$ANGBASE
 50
0.0
  9
$ANGDIR
 70
     0
  9
$PDMODE
 70
     0
  9
$PDSIZE
 40
0.0
  9
$PLINEWID
 40
0.0
  9
$SPLFRAME
 70
     0
  9
$SPLINETYPE
 70
     6
  9
$SPLINESEGS
 70
     8
  9
$HANDSEED
  5
18D
  9
$SURFTAB1
 70
     6
  9
$SURFTAB2
 70
     6
  9
$SURFTYPE
 70
     6
  9
$SURFU
 70
     6
  9
$SURFV
 70
     6
  9
$UCSBASE
  2

  9
$UCSNAME
  2

  9
$UCSORG
 10
0.0
 20
0.0
 30
0.0
  9
$UCSXDIR
 10
1.0
 20
0.0
 30
0.0
  9
$UCSYDIR
 10
0.0
 20
1.0
 30
0.0
  9
$UCSORTHOREF
  2

  9
$UCSORTHOVIEW
 70
     0
  9
$UCSORGTOP
 10
0.0
 20
0.0
 30
0.0
  9
$UCSORGBOTTOM
 10
0.0
 20
0.0
 30
0.0
  9
$UCSORGLEFT
 10
0.0
 20
0.0
 30
0.0
  9
$UCSORGRIGHT
 10
0.0
 20
0.0
 30
0.0
  9
$UCSORGFRONT
 10
0.0
 20
0.0
 30
0.0
  9
$UCSORGBACK
 10
0.0
 20
0.0
 30
0.0
  9
$PUCSBASE
  2

  9
$PUCSNAME
  2

  9
$PUCSORG
 10
0.0
 20
0.0
 30
0.0
  9
$PUCSXDIR
 10
1.0
 20
0.0
 30
0.0
  9
$PUCSYDIR
 10
0.0
 20
1.0
 30
0.0
  9
$PUCSORTHOREF
  2

  9
$PUCSORTHOVIEW
 70
     0
  9
$PUCSORGTOP
 10
0.0
 20
0.0
 30
0.0
  9
$PUCSORGBOTTOM
 10
0.0
 20
0.0
 30
0.0
  9
$PUCSORGLEFT
 10
0.0
 20
0.0
 30
0.0
  9
$PUCSORGRIGHT
 10
0.0
 20
0.0
 30
0.0
  9
$PUCSORGFRONT
 10
0.0
 20
0.0
 30
0.0
  9
$PUCSORGBACK
 10
0.0
 20
0.0
 30
0.0
  9
$USERI1
 70
     0
  9
$USERI2
 70
     0
  9
$USERI3
 70
     0
  9
$USERI4
 70
     0
  9
$USERI5
 70
     0
  9
$USERR1
 40
0.0
  9
$USERR2
 40
0.0
  9
$USERR3
 40
0.0
  9
$USERR4
 40
0.0
  9
$USERR5
 40
0.0
  9
$WORLDVIEW
 70
     1
  9
$SHADEDGE
 70
     3
  9
$SHADEDIF
 70
    70
  9
$TILEMODE
 70
     1
  9
$MAXACTVP
 70
    64
  9
$PINSBASE
 10
0.0
 20
0.0
 30
0.0
  9
$PLIMCHECK
 70
     0
  9
$PEXTMIN
 10
1.000000000000000E+20
 20
1.000000000000000E+20
 30
1.000000000000000E+20
  9
$PEXTMAX
 10
-1.000000000000000E+20
 20
-1.000000000000000E+20
 30
-1.000000000000000E+20
  9
$PLIMMIN
 10
0.0
 20
0.0
  9
$PLIMMAX
 10
12.0
 20
9.0
  9
$UNITMODE
 70
     0
  9
$VISRETAIN
 70
     1
  9
$PLINEGEN
 70
     0
  9
$PSLTSCALE
 70
     1
  9
$TREEDEPTH
 70
  3020
  9
$CMLSTYLE
  2
Standard
  9
$CMLJUST
 70
     0
  9
$CMLSCALE
 40
1.0
  9
$PROXYGRAPHICS
 70
     1
  9
$MEASUREMENT
 70
     0
  9
$CELWEIGHT
370
    -1
  9
$ENDCAPS
280
     0
  9
$JOINSTYLE
280
     0
  9
$LWDISPLAY
290
     1
  9
$INSUNITS
 70
     4
  9
$HYPERLINKBASE
  1

  9
$STYLESHEET
  1

  9
$XEDIT
290
     1
  9
$CEPSNTYPE
380
     0
  9
$PSTYLEMODE
290
     1
  9
$FINGERPRINTGUID
  2
{F3D7D472-435A-E14B-833D-05592DD13629}
  9
$VERSIONGUID
  2
{025D7BD1-C118-FB49-8852-90496059B7C4}
  9
$EXTNAMES
290
     1
  9
$PSVPSCALE
 40
0.0
  9
$OLESTARTUP
290
     0
  9
$SORTENTS
280
   127
  9
$INDEXCTL
280
     0
  9
$HIDETEXT
280
     1
  9
$XCLIPFRAME
280
     2
  9
$HALOGAP
280
     0
  9
$OBSCOLOR
 70
   257
  9
$OBSLTYPE
280
     0
  9
$INTERSECTIONDISPLAY
280
     0
  9
$INTERSECTIONCOLOR
 70
   257
  9
$DIMASSOC
280
     2
  9
$PROJECTNAME
  1

  9
$CAMERADISPLAY
290
     0
  9
$LENSLENGTH
 40
50.0
  9
$CAMERAHEIGHT
 40
0.0
  9
$STEPSPERSEC
 40
2.0
  9
$STEPSIZE
 40
6.0
  9
$3DDWFPREC
 40
2.0
  9
$PSOLWIDTH
 40
0.25
  9
$PSOLHEIGHT
 40
4.0
  9
$LOFTANG1
 40
1.570796326794896
  9
$LOFTANG2
 40
1.570796326794896
  9
$LOFTMAG1
 40
0.0
  9
$LOFTMAG2
 40
0.0
  9
$LOFTPARAM
 70
     7
  9
$LOFTNORMALS
280
     1
  9
$LATITUDE
 40
37.795
  9
$LONGITUDE
 40
-122.394
  9
$NORTHDIRECTION
 40
0.0
  9
$TIMEZONE
 70
 -8000
  9
$LIGHTGLYPHDISPLAY
280
     1
  9
$TILEMODELIGHTSYNCH
280
     1
  9
$CMATERIAL
347
11
  9
$SOLIDHIST
280
     0
  9
$SHOWHIST
280
     1
  9
$DWFFRAME
280
     2
  9
$DGNFRAME
280
     0
  9
$REALWORLDSCALE
290
     1
  9
$INTERFERECOLOR
 62
     1
  9
$INTERFEREOBJVS
345
33
  9
$INTERFEREVPVS
346
30
  9
$CSHADOW
280
     0
  9
$SHADOWPLANELOCATION
 40
0.0
  0
ENDSEC
  0
SECTION
  2
CLASSES
  0
CLASS
  1
ACDBDICTIONARYWDFLT
  2
AcDbDictionaryWithDefault
  3
ObjectDBX Classes
 90
        0
 91
        1
280
     0
281
     0
  0
CLASS
  1
MATERIAL
  2
AcDbMaterial
  3
ObjectDBX Classes
 90
     1153
 91
        3
280
     0
281
     0
  0
CLASS
  1
VISUALSTYLE
  2
AcDbVisualStyle
  3
ObjectDBX Classes
 90
     4095
 91
       24
280
     0
281
     0
  0
CLASS
  1
SCALE
  2
AcDbScale
  3
ObjectDBX Classes
 90
     1153
 91
       17
280
     0
281
     0
  0
CLASS
  1
TABLESTYLE
  2
AcDbTableStyle
  3
ObjectDBX Classes
 90
     4095
 91
        1
280
     0
281
     0
  0
CLASS
  1
MLEADERSTYLE
  2
AcDbMLeaderStyle
  3
ACDB_MLEADERSTYLE_CLASS
 90
     4095
 91
        1
280
     0
281
     0
  0
CLASS
  1
ACDBSECTIONVIEWSTYLE
  2
AcDbSectionViewStyle
  3
ObjectDBX Classes
 90
     1025
 91
        1
280
     0
281
     0
  0
CLASS
  1
ACDBDETAILVIEWSTYLE
  2
AcDbDetailViewStyle
  3
ObjectDBX Classes
 90
     1025
 91
        1
280
     0
281
     0
  0
CLASS
  1
DICTIONARYVAR
  2
AcDbDictionaryVar
  3
ObjectDBX Classes
 90
        0
 91
        5
280
     0
281
     0
  0
CLASS
  1
CELLSTYLEMAP
  2
AcDbCellStyleMap
  3
ObjectDBX Classes
 90
     1152
 91
        1
280
     0
281
     0
  0
ENDSEC
  0
SECTION
  2
TABLES
  0
TABLE
  2
VPORT
  5
8
330
0
100
AcDbSymbolTable
 70
     1
  0
VPORT
  5
57
330
8
100
AcDbSymbolTableRecord
100
AcDbViewportTableRecord
  2
*Active
 70
     0
 10
0.0
 20
0.0
 11
1.0
 21
1.0
 12
0.0
 22
0.0
 13
0.0
 23
0.0
 14
1.0
 24
1.0
 15
0.0
 25
0.0
 16
0.0
 26
0.0
 36
1.0
 17
104.9999999737534
 27
-148.4999999628701
 37
0.0
 40
302.939999924255
 41
0.7070707070707534
 42
50.0
 43
0.0
 44
0.0
 50
0.0
 51
0.0
 71
     0
 72
   100
 73
     1
 74
     0
 75
     1
 76
     0
 77
     0
 78
     0
281
     0
 65
     1
110
0.0
120
0.0
130
0.0
111
1.0
121
0.0
131
0.0
112
0.0
122
1.0
132
0.0
 79
     0
146
0.0
 60
     3
 61
     5
292
     1
282
     1
141
0.0
142
0.0
 63
   250
421
  3355443
  0
ENDTAB
  0
TABLE
  2
LTYPE
  5
5
330
0
100
AcDbSymbolTable
 70
     1
  0
LTYPE
  5
5B
330
5
100
AcDbSymbolTableRecord
100
AcDbLinetypeTableRecord
  2
ByBlock
 70
     0
  3

 72
    65
 73
     0
 40
0.0
  0
LTYPE
  5
5C
330
5
100
AcDbSymbolTableRecord
100
AcDbLinetypeTableRecord
  2
ByLayer
 70
     0
  3

 72
    65
 73
     0
 40
0.0
  0
LTYPE
  5
5D
330
5
100
AcDbSymbolTableRecord
100
AcDbLinetypeTableRecord
  2
Continuous
 70
     0
  3
Solid line
 72
    65
 73
     0
 40
0.0
  0
ENDTAB
  0
TABLE
  2
LAYER
  5
2
330
0
100
AcDbSymbolTable
 70
     2
  0
LAYER
  5
54
330
2
100
AcDbSymbolTableRecord
100
AcDbLayerTableRecord
  2
0
 70
     0
 62
     7
  6
Continuous
370
    -3
390
F
347
21
  0
LAYER
  5
78
330
2
100
AcDbSymbolTableRecord
100
AcDbLayerTableRecord
  2
レイヤー 1
 70
     0
 62
     7
  6
Continuous
370
     0
390
F
347
21
  0
ENDTAB
  0
TABLE
  2
STYLE
  5
3
330
0
100
AcDbSymbolTable
 70
     2
  0
STYLE
  5
55
330
3
100
AcDbSymbolTableRecord
100
AcDbTextStyleTableRecord
  2
Standard
 70
     0
 40
0.0
 41
1.0
 50
0.0
 71
     0
 42
0.2
  3
txt
  4

  0
STYLE
  5
5A
330
3
100
AcDbSymbolTableRecord
100
AcDbTextStyleTableRecord
  2
Annotative
 70
     0
 40
0.0
 41
1.0
 50
0.0
 71
     0
 42
0.2
  3
txt
  4

1001
AcadAnnotative
1000
AnnotativeData
1002
{
1070
     1
1070
     1
1002
}
  0
ENDTAB
  0
TABLE
  2
VIEW
  5
6
330
0
100
AcDbSymbolTable
 70
     0
  0
ENDTAB
  0
TABLE
  2
UCS
  5
7
330
0
100
AcDbSymbolTable
 70
     0
  0
ENDTAB
  0
TABLE
  2
APPID
  5
9
330
0
100
AcDbSymbolTable
 70
     2
  0
APPID
  5
56
330
9
100
AcDbSymbolTableRecord
100
AcDbRegAppTableRecord
  2
ACAD
 70
     0
  0
APPID
  5
5E
330
9
100
AcDbSymbolTableRecord
100
AcDbRegAppTableRecord
  2
AcadAnnotative
 70
     0
  0
ENDTAB
  0
TABLE
  2
DIMSTYLE
  5
A
330
0
100
AcDbSymbolTable
 70
     2
100
AcDbDimStyleTable
 71
     0
  0
DIMSTYLE
105
58
330
A
100
AcDbSymbolTableRecord
100
AcDbDimStyleTableRecord
  2
Standard
 70
     0
340
55
  0
DIMSTYLE
105
59
330
A
100
AcDbSymbolTableRecord
100
AcDbDimStyleTableRecord
  2
Annotative
 70
     0
340
55
1001
AcadAnnotative
1000
AnnotativeData
1002
{
1070
     1
1070
     1
1002
}
  0
ENDTAB
  0
TABLE
  2
BLOCK_RECORD
  5
1
330
0
100
AcDbSymbolTable
 70
    14
  0
BLOCK_RECORD
  5
70
330
1
100
AcDbSymbolTableRecord
100
AcDbBlockTableRecord
  2
*Model_Space
340
73
 70
     0
280
     1
281
     0
  0
BLOCK_RECORD
  5
6C
330
1
100
AcDbSymbolTableRecord
100
AcDbBlockTableRecord
  2
*Paper_Space
340
6F
 70
     0
280
     1
281
     0
  0
BLOCK_RECORD
  5
74
330
1
100
AcDbSymbolTableRecord
100
AcDbBlockTableRecord
  2
*Paper_Space0
340
77
 70
     0
280
     1
281
     0
  0
BLOCK_RECORD
  5
E0
330
1
100
AcDbSymbolTableRecord
100
AcDbBlockTableRecord
  2
Block_0
340
0
102
{BLKREFS
331
E1
102
}
 70
     0
280
     1
281
     0
  0
BLOCK_RECORD
  5
E4
330
1
100
AcDbSymbolTableRecord
100
AcDbBlockTableRecord
  2
Block_1
340
0
102
{BLKREFS
331
E5
102
}
 70
     0
280
     1
281
     0
  0
BLOCK_RECORD
  5
F1
330
1
100
AcDbSymbolTableRecord
100
AcDbBlockTableRecord
  2
Block_2
340
0
102
{BLKREFS
331
F2
102
}
 70
     0
280
     1
281
     0
  0
BLOCK_RECORD
  5
F5
330
1
100
AcDbSymbolTableRecord
100
AcDbBlockTableRecord
  2
Block_3
340
0
102
{BLKREFS
331
F6
102
}
 70
     0
280
     1
281
     0
  0
BLOCK_RECORD
  5
FF
330
1
100
AcDbSymbolTableRecord
100
AcDbBlockTableRecord
  2
Block_4
340
0
102
{BLKREFS
331
100
102
}
 70
     0
280
     1
281
     0
  0
BLOCK_RECORD
  5
108
330
1
100
AcDbSymbolTableRecord
100
AcDbBlockTableRecord
  2
Block_5
340
0
102
{BLKREFS
331
109
102
}
 70
     0
280
     1
281
     0
  0
BLOCK_RECORD
  5
10C
330
1
100
AcDbSymbolTableRecord
100
AcDbBlockTableRecord
  2
Block_6
340
0
102
{BLKREFS
331
10D
102
}
 70
     0
280
     1
281
     0
  0
BLOCK_RECORD
  5
117
330
1
100
AcDbSymbolTableRecord
100
AcDbBlockTableRecord
  2
Block_7
340
0
102
{BLKREFS
331
118
102
}
 70
     0
280
     1
281
     0
  0
BLOCK_RECORD
  5
122
330
1
100
AcDbSymbolTableRecord
100
AcDbBlockTableRecord
  2
Block_8
340
0
102
{BLKREFS
331
123
102
}
 70
     0
280
     1
281
     0
  0
BLOCK_RECORD
  5
129
330
1
100
AcDbSymbolTableRecord
100
AcDbBlockTableRecord
  2
Block_9
340
0
102
{BLKREFS
331
12A
102
}
 70
     0
280
     1
281
     0
  0
BLOCK_RECORD
  5
12F
330
1
100
AcDbSymbolTableRecord
100
AcDbBlockTableRecord
  2
Block_10
340
0
102
{BLKREFS
331
130
102
}
 70
     0
280
     1
281
     0
  0
BLOCK_RECORD
  5
136
330
1
100
AcDbSymbolTableRecord
100
AcDbBlockTableRecord
  2
Block_11
340
0
102
{BLKREFS
331
137
102
}
 70
     0
280
     1
281
     0
  0
BLOCK_RECORD
  5
13A
330
1
100
AcDbSymbolTableRecord
100
AcDbBlockTableRecord
  2
Block_12
340
0
102
{BLKREFS
331
13B
102
}
 70
     0
280
     1
281
     0
  0
ENDTAB
  0
ENDSEC
  0
SECTION
  2
BLOCKS
  0
BLOCK
  5
71
330
70
100
AcDbEntity
  8
0
100
AcDbBlockBegin
  2
*Model_Space
 70
     0
 10
0.0
 20
0.0
 30
0.0
  3
*Model_Space
  1

  0
ENDBLK
  5
72
330
70
100
AcDbEntity
  8
0
100
AcDbBlockEnd
  0
BLOCK
  5
6D
330
6C
100
AcDbEntity
 67
     1
  8
0
100
AcDbBlockBegin
  2
*Paper_Space
 70
     0
 10
0.0
 20
0.0
 30
0.0
  3
*Paper_Space
  1

  0
ENDBLK
  5
6E
330
6C
100
AcDbEntity
 67
     1
  8
0
100
AcDbBlockEnd
  0
BLOCK
  5
75
330
74
100
AcDbEntity
 67
     1
  8
0
100
AcDbBlockBegin
  2
*Paper_Space0
 70
     0
 10
0.0
 20
0.0
 30
0.0
  3
*Paper_Space0
  1

  0
ENDBLK
  5
76
330
74
100
AcDbEntity
 67
     1
  8
0
100
AcDbBlockEnd
  0
BLOCK
  5
E2
330
E0
100
AcDbEntity
  8
0
100
AcDbBlockBegin
  2
Block_0
 70
     0
 10
0.0
 20
0.0
 30
0.0
  3
Block_0
  1

  0
INSERT
  5
E5
330
E0
100
AcDbEntity
  8
レイヤー 1
100
AcDbBlockReference
  2
Block_1
 10
0.0
 20
0.0
 30
0.0
  0
ENDBLK
  5
E3
330
E0
100
AcDbEntity
  8
0
100
AcDbBlockEnd
  0
BLOCK
  5
E6
330
E4
100
AcDbEntity
  8
0
100
AcDbBlockBegin
  2
Block_1
 70
     0
 10
0.0
 20
0.0
 30
0.0
  3
Block_1
  1

  0
SPLINE
  5
E8
330
E4
100
AcDbEntity
  8
レイヤー 1
100
AcDbSpline
210
0.0
220
0.0
230
1.0
 70
     9
 71
     3
 72
    17
 73
    13
 74
     0
 42
0.0000000001
 43
0.0000000001
 40
0.0
 40
0.0
 40
0.0
 40
0.0
 40
1.0
 40
1.0
 40
1.0
 40
2.0
 40
2.0
 40
2.0
 40
3.0
 40
3.0
 40
3.0
 40
4.0
 40
4.0
 40
4.0
 40
4.0
 10
79.41858043804467
 20
-147.8121663041928
 30
0.0
 10
79.41858043804467
 20
-148.0619357268734
 30
0.0
 10
79.70193954170646
 20
-148.1084445159243
 30
0.0
 10
80.04679359977997
 20
-148.1084445159243
 30
0.0
 10
80.36632620603688
 20
-148.1084445159243
 30
0.0
 10
80.67517901628955
 20
-148.0722710133291
 30
0.0
 10
80.67517901628955
 20
-147.8121663041928
 30
0.0
 10
80.67517901628955
 20
-147.5644639388033
 30
0.0
 10
80.39371471514462
 20
-147.5158880924613
 30
0.0
 10
80.04679359977997
 20
-147.5158880924613
 30
0.0
 10
79.72743324829732
 20
-147.5158880924613
 30
0.0
 10
79.41858043804467
 20
-147.5541286523476
 30
0.0
 10
79.41858043804467
 20
-147.8121663041928
 30
0.0
  0
SPLINE
  5
E9
330
E4
100
AcDbEntity
  8
レイヤー 1
100
AcDbSpline
210
0.0
220
0.0
230
1.0
 70
     9
 71
     3
 72
    29
 73
    25
 74
     0
 42
0.0000000001
 43
0.0000000001
 40
0.0
 40
0.0
 40
0.0
 40
0.0
 40
1.0
 40
1.0
 40
1.0
 40
2.0
 40
2.0
 40
2.0
 40
3.0
 40
3.0
 40
3.0
 40
4.0
 40
4.0
 40
4.0
 40
5.0
 40
5.0
 40
5.0
 40
6.0
 40
6.0
 40
6.0
 40
7.0
 40
7.0
 40
7.0
 40
8.0
 40
8.0
 40
8.0
 40
8.0
 10
80.64124482575982
 20
-147.4142577756464
 30
0.0
 10
80.85070663126302
 20
-147.5224337738833
 30
0.0
 10
80.86982691120615
 20
-147.6957220767913
 30
0.0
 10
80.86982691120615
 20
-147.8121663041928
 30
0.0
 10
80.86982691120615
 20
-147.9730522633539
 30
0.0
 10
80.82331812215528
 20
-148.1146456877977
 30
0.0
 10
80.64124482575982
 20
-148.2097303231906
 30
0.0
 10
80.44676918561748
 20
-148.3134276972966
 30
0.0
 10
80.20974661623229
 20
-148.332720232014
 30
0.0
 10
80.04679359977997
 20
-148.332720232014
 30
0.0
 10
79.90296086327079
 20
-148.332720232014
 30
0.0
 10
79.65129663807329
 20
-148.3154947545878
 30
0.0
 10
79.4523423738001
 20
-148.2097303231906
 30
0.0
 10
79.24925399494464
 20
-148.1018988345023
 30
0.0
 10
79.2259996004192
 20
-147.9410128753411
 30
0.0
 10
79.2259996004192
 20
-147.8121663041928
 30
0.0
 10
79.2259996004192
 20
-147.6533474023228
 30
0.0
 10
79.27044133217892
 20
-147.5096869205878
 30
0.0
 10
79.4523423738001
 20
-147.4142577756464
 30
0.0
 10
79.64492321142557
 20
-147.3150390256712
 30
0.0
 10
79.87333304209764
 20
-147.2916123763715
 30
0.0
 10
80.04679359977997
 20
-147.2916123763715
 30
0.0
 10
80.21818710017114
 20
-147.2916123763715
 30
0.0
 10
80.44883624290863
 20
-147.3129719683801
 30
0.0
 10
80.64124482575982
 20
-147.4142577756464
 30
0.0
  0
HATCH
  5
EA
330
E4
100
AcDbEntity
  8
レイヤー 1
 62
    18
420
        0
440
 33554687
100
AcDbHatch
 10
0.0
 20
0.0
 30
0.0
210
0.0
220
0.0
230
1.0
  2
SOLID
 70
     1
 71
     1
 91
        2
 92
        1
 93
        1
 72
     4
 94
        3
 73
     0
 74
     0
 95
       17
 96
       13
 40
0.0
 40
0.0
 40
0.0
 40
0.0
 40
1.0
 40
1.0
 40
1.0
 40
2.0
 40
2.0
 40
2.0
 40
3.0
 40
3.0
 40
3.0
 40
4.0
 40
4.0
 40
4.0
 40
4.0
 10
79.41858043804467
 20
-147.8121663041928
 10
79.41858043804467
 20
-148.0619357268734
 10
79.70193954170646
 20
-148.1084445159243
 10
80.04679359977997
 20
-148.1084445159243
 10
80.36632620603688
 20
-148.1084445159243
 10
80.67517901628955
 20
-148.0722710133291
 10
80.67517901628955
 20
-147.8121663041928
 10
80.67517901628955
 20
-147.5644639388033
 10
80.39371471514462
 20
-147.5158880924613
 10
80.04679359977997
 20
-147.5158880924613
 10
79.72743324829732
 20
-147.5158880924613
 10
79.41858043804467
 20
-147.5541286523476
 10
79.41858043804467
 20
-147.8121663041928
 97
        0
 97
        1
330
E8
 92
        1
 93
        1
 72
     4
 94
        3
 73
     0
 74
     0
 95
       29
 96
       25
 40
0.0
 40
0.0
 40
0.0
 40
0.0
 40
1.0
 40
1.0
 40
1.0
 40
2.0
 40
2.0
 40
2.0
 40
3.0
 40
3.0
 40
3.0
 40
4.0
 40
4.0
 40
4.0
 40
5.0
 40
5.0
 40
5.0
 40
6.0
 40
6.0
 40
6.0
 40
7.0
 40
7.0
 40
7.0
 40
8.0
 40
8.0
 40
8.0
 40
8.0
 10
80.64124482575982
 20
-147.4142577756464
 10
80.85070663126302
 20
-147.5224337738833
 10
80.86982691120615
 20
-147.6957220767913
 10
80.86982691120615
 20
-147.8121663041928
 10
80.86982691120615
 20
-147.9730522633539
 10
80.82331812215528
 20
-148.1146456877977
 10
80.64124482575982
 20
-148.2097303231906
 10
80.44676918561748
 20
-148.3134276972966
 10
80.20974661623229
 20
-148.332720232014
 10
80.04679359977997
 20
-148.332720232014
 10
79.90296086327079
 20
-148.332720232014
 10
79.65129663807329
 20
-148.3154947545878
 10
79.4523423738001
 20
-148.2097303231906
 10
79.24925399494464
 20
-148.1018988345023
 10
79.2259996004192
 20
-147.9410128753411
 10
79.2259996004192
 20
-147.8121663041928
 10
79.2259996004192
 20
-147.6533474023228
 10
79.27044133217892
 20
-147.5096869205878
 10
79.4523423738001
 20
-147.4142577756464
 10
79.64492321142557
 20
-147.3150390256712
 10
79.87333304209764
 20
-147.2916123763715
 10
80.04679359977997
 20
-147.2916123763715
 10
80.21818710017114
 20
-147.2916123763715
 10
80.44883624290863
 20
-147.3129719683801
 10
80.64124482575982
 20
-147.4142577756464
 97
        0
 97
        1
330
E9
 75
     2
 76
     1
 98
        1
 10
0.0
 20
0.0
450
        0
451
        0
460
0.0
461
0.0
452
        0
462
0.0
453
        0
470

  0
SPLINE
  5
EB
330
E4
100
AcDbEntity
  8
レイヤー 1
100
AcDbSpline
210
0.0
220
0.0
230
1.0
 70
    11
 71
     3
 72
    17
 73
    13
 74
     0
 42
0.0000000001
 43
0.0000000001
 40
0.0
 40
0.0
 40
0.0
 40
0.0
 40
1.0
 40
1.0
 40
1.0
 40
2.0
 40
2.0
 40
2.0
 40
3.0
 40
3.0
 40
3.0
 40
4.0
 40
4.0
 40
4.0
 40
4.0
 10
80.81901175279872
 20
-147.0752603798978
 30
0.0
 10
80.81901175279872
 20
-147.0752603798978
 30
0.0
 10
80.56734752760123
 20
-147.0752603798978
 30
0.0
 10
80.56734752760123
 20
-147.0752603798978
 30
0.0
 10
80.56734752760123
 20
-147.0752603798978
 30
0.0
 10
80.56734752760123
 20
-146.8234238999261
 30
0.0
 10
80.56734752760123
 20
-146.8234238999261
 30
0.0
 10
80.56734752760123
 20
-146.8234238999261
 30
0.0
 10
80.81901175279872
 20
-146.8234238999261
 30
0.0
 10
80.81901175279872
 20
-146.8234238999261
 30
0.0
 10
80.81901175279872
 20
-146.8234238999261
 30
0.0
 10
80.81901175279872
 20
-147.0752603798978
 30
0.0
 10
80.81901175279872
 20
-147.0752603798978
 30
0.0
  0
HATCH
  5
EC
330
E4
100
AcDbEntity
  8
レイヤー 1
 62
    18
420
        0
440
 33554687
100
AcDbHatch
 10
0.0
 20
0.0
 30
0.0
210
0.0
220
0.0
230
1.0
  2
SOLID
 70
     1
 71
     1
 91
        1
 92
        1
 93
        1
 72
     4
 94
        3
 73
     0
 74
     0
 95
       17
 96
       13
 40
0.0
 40
0.0
 40
0.0
 40
0.0
 40
1.0
 40
1.0
 40
1.0
 40
2.0
 40
2.0
 40
2.0
 40
3.0
 40
3.0
 40
3.0
 40
4.0
 40
4.0
 40
4.0
 40
4.0
 10
80.81901175279872
 20
-147.0752603798978
 10
80.81901175279872
 20
-147.0752603798978
 10
80.56734752760123
 20
-147.0752603798978
 10
80.56734752760123
 20
-147.0752603798978
 10
80.56734752760123
 20
-147.0752603798978
 10
80.56734752760123
 20
-146.8234238999261
 10
80.56734752760123
 20
-146.8234238999261
 10
80.56734752760123
 20
-146.8234238999261
 10
80.81901175279872
 20
-146.8234238999261
 10
80.81901175279872
 20
-146.8234238999261
 10
80.81901175279872
 20
-146.8234238999261
 10
80.81901175279872
 20
-147.0752603798978
 10
80.81901175279872
 20
-147.0752603798978
 97
        0
 97
        1
330
EB
 75
     2
 76
     1
 98
        1
 10
0.0
 20
0.0
450
        0
451
        0
460
0.0
461
0.0
452
        0
462
0.0
453
        0
470

  0
SPLINE
  5
ED
330
E4
100
AcDbEntity
  8
レイヤー 1
100
AcDbSpline
210
0.0
220
0.0
230
1.0
 70
     9
 71
     3
 72
    53
 73
    49
 74
     0
 42
0.0000000001
 43
0.0000000001
 40
0.0
 40
0.0
 40
0.0
 40
0.0
 40
1.0
 40
1.0
 40
1.0
 40
2.0
 40
2.0
 40
2.0
 40
3.0
 40
3.0
 40
3.0
 40
4.0
 40
4.0
 40
4.0
 40
5.0
 40
5.0
 40
5.0
 40
6.0
 40
6.0
 40
6.0
 40
7.0
 40
7.0
 40
7.0
 40
8.0
 40
8.0
 40
8.0
 40
9.0
 40
9.0
 40
9.0
 40
10.0
 40
10.0
 40
10.0
 40
11.0
 40
11.0
 40
11.0
 40
12.0
 40
12.0
 40
12.0
 40
13.0
 40
13.0
 40
13.0
 40
14.0
 40
14.0
 40
14.0
 40
15.0
 40
15.0
 40
15.0
 40
16.0
 40
16.0
 40
16.0
 40
16.0
 10
80.86982691120615
 20
-146.106155019897
 30
0.0
 10
80.86982691120615
 20
-146.1843586874122
 30
0.0
 10
80.85294594332843
 20
-146.2859890042271
 30
0.0
 10
80.78938393162557
 20
-146.387619321042
 30
0.0
 10
80.67931313087184
 20
-146.56090762395
 30
0.0
 10
80.54822724765809
 20
-146.5822672159586
 30
0.0
 10
80.44039575896977
 20
-146.6012152411274
 30
0.0
 10
80.44039575896977
 20
-146.6012152411274
 30
0.0
 10
80.44039575896977
 20
-146.3790065823288
 30
0.0
 10
80.44039575896977
 20
-146.3790065823288
 30
0.0
 10
80.63917776846869
 20
-146.3242295641133
 30
0.0
 10
80.66880558964184
 20
-146.1971055407076
 30
0.0
 10
80.66880558964184
 20
-146.1040879626059
 30
0.0
 10
80.66880558964184
 20
-145.9645615954533
 30
0.0
 10
80.56941458489237
 20
-145.8122883750052
 30
0.0
 10
80.33669838486375
 20
-145.8122883750052
 30
0.0
 10
80.08072779030968
 20
-145.8122883750052
 30
0.0
 10
80.01096460673336
 20
-145.9921223593353
 30
0.0
 10
80.01096460673336
 20
-146.112700701319
 30
0.0
 10
80.01096460673336
 20
-146.1443955797833
 30
0.0
 10
80.01096460673336
 20
-146.2859890042271
 30
0.0
 10
80.13998343265598
 20
-146.3748724677465
 30
0.0
 10
80.13998343265598
 20
-146.3748724677465
 30
0.0
 10
80.12086315271284
 20
-146.5505723374943
 30
0.0
 10
80.12086315271284
 20
-146.5505723374943
 30
0.0
 10
80.12086315271284
 20
-146.5505723374943
 30
0.0
 10
79.27474770153549
 20
-146.4299939955105
 30
0.0
 10
79.27474770153549
 20
-146.4299939955105
 30
0.0
 10
79.27474770153549
 20
-146.4299939955105
 30
0.0
 10
79.27474770153549
 20
-145.6514024158441
 30
0.0
 10
79.27474770153549
 20
-145.6514024158441
 30
0.0
 10
79.27474770153549
 20
-145.6514024158441
 30
0.0
 10
79.4693955964521
 20
-145.6514024158441
 30
0.0
 10
79.4693955964521
 20
-145.6514024158441
 30
0.0
 10
79.4693955964521
 20
-145.6514024158441
 30
0.0
 10
79.4693955964521
 20
-146.2670409790582
 30
0.0
 10
79.4693955964521
 20
-146.2670409790582
 30
0.0
 10
79.4693955964521
 20
-146.2670409790582
 30
0.0
 10
79.89245332204077
 20
-146.332497793278
 30
0.0
 10
79.89245332204077
 20
-146.332497793278
 30
0.0
 10
79.85851913151107
 20
-146.2711750936405
 30
0.0
 10
79.81838376910791
 20
-146.188837311543
 30
0.0
 10
79.81838376910791
 20
-146.0703260268505
 30
0.0
 10
79.81838376910791
 20
-145.8164224895876
 30
0.0
 10
80.00459118008565
 20
-145.5793999202024
 30
0.0
 10
80.31757810492061
 20
-145.5793999202024
 30
0.0
 10
80.63504365388638
 20
-145.5793999202024
 30
0.0
 10
80.86982691120615
 20
-145.8036756362921
 30
0.0
 10
80.86982691120615
 20
-146.106155019897
 30
0.0
  0
HATCH
  5
EE
330
E4
100
AcDbEntity
  8
レイヤー 1
 62
    18
420
        0
440
 33554687
100
AcDbHatch
 10
0.0
 20
0.0
 30
0.0
210
0.0
220
0.0
230
1.0
  2
SOLID
 70
     1
 71
     1
 91
        1
 92
        1
 93
        1
 72
     4
 94
        3
 73
     0
 74
     0
 95
       53
 96
       49
 40
0.0
 40
0.0
 40
0.0
 40
0.0
 40
1.0
 40
1.0
 40
1.0
 40
2.0
 40
2.0
 40
2.0
 40
3.0
 40
3.0
 40
3.0
 40
4.0
 40
4.0
 40
4.0
 40
5.0
 40
5.0
 40
5.0
 40
6.0
 40
6.0
 40
6.0
 40
7.0
 40
7.0
 40
7.0
 40
8.0
 40
8.0
 40
8.0
 40
9.0
 40
9.0
 40
9.0
 40
10.0
 40
10.0
 40
10.0
 40
11.0
 40
11.0
 40
11.0
 40
12.0
 40
12.0
 40
12.0
 40
13.0
 40
13.0
 40
13.0
 40
14.0
 40
14.0
 40
14.0
 40
15.0
 40
15.0
 40
15.0
 40
16.0
 40
16.0
 40
16.0
 40
16.0
 10
80.86982691120615
 20
-146.106155019897
 10
80.86982691120615
 20
-146.1843586874122
 10
80.85294594332843
 20
-146.2859890042271
 10
80.78938393162557
 20
-146.387619321042
 10
80.67931313087184
 20
-146.56090762395
 10
80.54822724765809
 20
-146.5822672159586
 10
80.44039575896977
 20
-146.6012152411274
 10
80.44039575896977
 20
-146.6012152411274
 10
80.44039575896977
 20
-146.3790065823288
 10
80.44039575896977
 20
-146.3790065823288
 10
80.63917776846869
 20
-146.3242295641133
 10
80.66880558964184
 20
-146.1971055407076
 10
80.66880558964184
 20
-146.1040879626059
 10
80.66880558964184
 20
-145.9645615954533
 10
80.56941458489237
 20
-145.8122883750052
 10
80.33669838486375
 20
-145.8122883750052
 10
80.08072779030968
 20
-145.8122883750052
 10
80.01096460673336
 20
-145.9921223593353
 10
80.01096460673336
 20
-146.112700701319
 10
80.01096460673336
 20
-146.1443955797833
 10
80.01096460673336
 20
-146.2859890042271
 10
80.13998343265598
 20
-146.3748724677465
 10
80.13998343265598
 20
-146.3748724677465
 10
80.12086315271284
 20
-146.5505723374943
 10
80.12086315271284
 20
-146.5505723374943
 10
80.12086315271284
 20
-146.5505723374943
 10
79.27474770153549
 20
-146.4299939955105
 10
79.27474770153549
 20
-146.4299939955105
 10
79.27474770153549
 20
-146.4299939955105
 10
79.27474770153549
 20
-145.6514024158441
 10
79.27474770153549
 20
-145.6514024158441
 10
79.27474770153549
 20
-145.6514024158441
 10
79.4693955964521
 20
-145.6514024158441
 10
79.4693955964521
 20
-145.6514024158441
 10
79.4693955964521
 20
-145.6514024158441
 10
79.4693955964521
 20
-146.2670409790582
 10
79.4693955964521
 20
-146.2670409790582
 10
79.4693955964521
 20
-146.2670409790582
 10
79.89245332204077
 20
-146.332497793278
 10
79.89245332204077
 20
-146.332497793278
 10
79.85851913151107
 20
-146.2711750936405
 10
79.81838376910791
 20
-146.188837311543
 10
79.81838376910791
 20
-146.0703260268505
 10
79.81838376910791
 20
-145.8164224895876
 10
80.00459118008565
 20
-145.5793999202024
 10
80.31757810492061
 20
-145.5793999202024
 10
80.63504365388638
 20
-145.5793999202024
 10
80.86982691120615
 20
-145.8036756362921
 10
80.86982691120615
 20
-146.106155019897
 97
        0
 97
        1
330
ED
 75
     2
 76
     1
 98
        1
 10
0.0
 20
0.0
450
        0
451
        0
460
0.0
461
0.0
452
        0
462
0.0
453
        0
470

  0
ENDBLK
  5
E7
330
E4
100
AcDbEntity
  8
0
100
AcDbBlockEnd
  0
BLOCK
  5
F3
330
F1
100
AcDbEntity
  8
0
100
AcDbBlockBegin
  2
Block_2
 70
     0
 10
0.0
 20
0.0
 30
0.0
  3
Block_2
  1

  0
INSERT
  5
F6
330
F1
100
AcDbEntity
  8
レイヤー 1
100
AcDbBlockReference
  2
Block_3
 10
0.0
 20
0.0
 30
0.0
  0
ENDBLK
  5
F4
330
F1
100
AcDbEntity
  8
0
100
AcDbBlockEnd
  0
BLOCK
  5
F7
330
F5
100
AcDbEntity
  8
0
100
AcDbBlockBegin
  2
Block_3
 70
     0
 10
0.0
 20
0.0
 30
0.0
  3
Block_3
  1

  0
SPLINE
  5
F9
330
F5
100
AcDbEntity
  8
レイヤー 1
100
AcDbSpline
210
0.0
220
0.0
230
1.0
 70
     9
 71
     3
 72
    44
 73
    40
 74
     0
 42
0.0000000001
 43
0.0000000001
 40
0.0
 40
0.0
 40
0.0
 40
0.0
 40
1.0
 40
1.0
 40
1.0
 40
2.0
 40
2.0
 40
2.0
 40
3.0
 40
3.0
 40
3.0
 40
4.0
 40
4.0
 40
4.0
 40
5.0
 40
5.0
 40
5.0
 40
6.0
 40
6.0
 40
6.0
 40
7.0
 40
7.0
 40
7.0
 40
8.0
 40
8.0
 40
8.0
 40
9.0
 40
9.0
 40
9.0
 40
10.0
 40
10.0
 40
10.0
 40
11.0
 40
11.0
 40
11.0
 40
12.0
 40
12.0
 40
12.0
 40
13.0
 40
13.0
 40
13.0
 40
13.0
 10
96.19223359140335
 20
-140.5998589058222
 30
0.0
 10
95.97433130196128
 20
-140.758505552918
 30
0.0
 10
95.88114146908528
 20
-140.8325751058509
 30
0.0
 10
95.83256562274325
 20
-140.97640784236
 30
0.0
 10
95.83256562274325
 20
-140.97640784236
 30
0.0
 10
96.61098494763546
 20
-140.97640784236
 30
0.0
 10
96.61098494763546
 20
-140.97640784236
 30
0.0
 10
96.61098494763546
 20
-140.97640784236
 30
0.0
 10
96.61098494763546
 20
-141.1815632785067
 30
0.0
 10
96.61098494763546
 20
-141.1815632785067
 30
0.0
 10
96.61098494763546
 20
-141.1815632785067
 30
0.0
 10
95.5829684548369
 20
-141.1815632785067
 30
0.0
 10
95.5829684548369
 20
-141.1815632785067
 30
0.0
 10
95.6146633333012
 20
-140.8239623671377
 30
0.0
 10
95.68012014752095
 20
-140.7457586996226
 30
0.0
 10
96.06528182277187
 20
-140.4474134305999
 30
0.0
 10
96.32125241732595
 20
-140.248631421101
 30
0.0
 10
96.3867092315457
 20
-140.1809352948159
 30
0.0
 10
96.3867092315457
 20
-140.0434759849544
 30
0.0
 10
96.3867092315457
 20
-139.9249647002618
 30
0.0
 10
96.31487899067822
 20
-139.7937065622738
 30
0.0
 10
96.11816403847047
 20
-139.7937065622738
 30
0.0
 10
95.85788707455984
 20
-139.7937065622738
 30
0.0
 10
95.84944659062097
 20
-140.0243557050113
 30
0.0
 10
95.84514022126441
 20
-140.1407999324127
 30
0.0
 10
95.84514022126441
 20
-140.1407999324127
 30
0.0
 10
95.6210367599489
 20
-140.1407999324127
 30
0.0
 10
95.6210367599489
 20
-140.1407999324127
 30
0.0
 10
95.62947724388777
 20
-140.0138481637812
 30
0.0
 10
95.63998478511779
 20
-139.9017103057363
 30
0.0
 10
95.72042776469837
 20
-139.7831990210438
 30
0.0
 10
95.83032631067784
 20
-139.6224853166569
 30
0.0
 10
96.01653372165559
 20
-139.5885511261272
 30
0.0
 10
96.13297794905705
 20
-139.5885511261272
 30
0.0
 10
96.4101358808454
 20
-139.5885511261272
 30
0.0
 10
96.61735837428317
 20
-139.7726914798137
 30
0.0
 10
96.61735837428317
 20
-140.0455430422455
 30
0.0
 10
96.61735837428317
 20
-140.2739528729176
 30
0.0
 10
96.50108640165598
 20
-140.3735161324413
 30
0.0
 10
96.19223359140335
 20
-140.5998589058222
 30
0.0
  0
HATCH
  5
FA
330
F5
100
AcDbEntity
  8
レイヤー 1
 62
    18
420
        0
440
 33554687
100
AcDbHatch
 10
0.0
 20
0.0
 30
0.0
210
0.0
220
0.0
230
1.0
  2
SOLID
 70
     1
 71
     1
 91
        1
 92
        1
 93
        1
 72
     4
 94
        3
 73
     0
 74
     0
 95
       44
 96
       40
 40
0.0
 40
0.0
 40
0.0
 40
0.0
 40
1.0
 40
1.0
 40
1.0
 40
2.0
 40
2.0
 40
2.0
 40
3.0
 40
3.0
 40
3.0
 40
4.0
 40
4.0
 40
4.0
 40
5.0
 40
5.0
 40
5.0
 40
6.0
 40
6.0
 40
6.0
 40
7.0
 40
7.0
 40
7.0
 40
8.0
 40
8.0
 40
8.0
 40
9.0
 40
9.0
 40
9.0
 40
10.0
 40
10.0
 40
10.0
 40
11.0
 40
11.0
 40
11.0
 40
12.0
 40
12.0
 40
12.0
 40
13.0
 40
13.0
 40
13.0
 40
13.0
 10
96.19223359140335
 20
-140.5998589058222
 10
95.97433130196128
 20
-140.758505552918
 10
95.88114146908528
 20
-140.8325751058509
 10
95.83256562274325
 20
-140.97640784236
 10
95.83256562274325
 20
-140.97640784236
 10
96.61098494763546
 20
-140.97640784236
 10
96.61098494763546
 20
-140.97640784236
 10
96.61098494763546
 20
-140.97640784236
 10
96.61098494763546
 20
-141.1815632785067
 10
96.61098494763546
 20
-141.1815632785067
 10
96.61098494763546
 20
-141.1815632785067
 10
95.5829684548369
 20
-141.1815632785067
 10
95.5829684548369
 20
-141.1815632785067
 10
95.6146633333012
 20
-140.8239623671377
 10
95.68012014752095
 20
-140.7457586996226
 10
96.06528182277187
 20
-140.4474134305999
 10
96.32125241732595
 20
-140.248631421101
 10
96.3867092315457
 20
-140.1809352948159
 10
96.3867092315457
 20
-140.0434759849544
 10
96.3867092315457
 20
-139.9249647002618
 10
96.31487899067822
 20
-139.7937065622738
 10
96.11816403847047
 20
-139.7937065622738
 10
95.85788707455984
 20
-139.7937065622738
 10
95.84944659062097
 20
-140.0243557050113
 10
95.84514022126441
 20
-140.1407999324127
 10
95.84514022126441
 20
-140.1407999324127
 10
95.6210367599489
 20
-140.1407999324127
 10
95.6210367599489
 20
-140.1407999324127
 10
95.62947724388777
 20
-140.0138481637812
 10
95.63998478511779
 20
-139.9017103057363
 10
95.72042776469837
 20
-139.7831990210438
 10
95.83032631067784
 20
-139.6224853166569
 10
96.01653372165559
 20
-139.5885511261272
 10
96.13297794905705
 20
-139.5885511261272
 10
96.4101358808454
 20
-139.5885511261272
 10
96.61735837428317
 20
-139.7726914798137
 10
96.61735837428317
 20
-140.0455430422455
 10
96.61735837428317
 20
-140.2739528729176
 10
96.50108640165598
 20
-140.3735161324413
 10
96.19223359140335
 20
-140.5998589058222
 97
        0
 97
        1
330
F9
 75
     2
 76
     1
 98
        1
 10
0.0
 20
0.0
450
        0
451
        0
460
0.0
461
0.0
452
        0
462
0.0
453
        0
470

  0
SPLINE
  5
FB
330
F5
100
AcDbEntity
  8
レイヤー 1
100
AcDbSpline
210
0.0
220
0.0
230
1.0
 70
    11
 71
     3
 72
    26
 73
    22
 74
     0
 42
0.0000000001
 43
0.0000000001
 40
0.0
 40
0.0
 40
0.0
 40
0.0
 40
1.0
 40
1.0
 40
1.0
 40
2.0
 40
2.0
 40
2.0
 40
3.0
 40
3.0
 40
3.0
 40
4.0
 40
4.0
 40
4.0
 40
5.0
 40
5.0
 40
5.0
 40
6.0
 40
6.0
 40
6.0
 40
7.0
 40
7.0
 40
7.0
 40
7.0
 10
97.22731252994664
 20
-141.1815632785067
 30
0.0
 10
97.22731252994664
 20
-141.1815632785067
 30
0.0
 10
97.22731252994664
 20
-140.0772379207098
 30
0.0
 10
97.22731252994664
 20
-140.0772379207098
 30
0.0
 10
97.22731252994664
 20
-140.0772379207098
 30
0.0
 10
96.89727238245971
 20
-140.0772379207098
 30
0.0
 10
96.89727238245971
 20
-140.0772379207098
 30
0.0
 10
96.89727238245971
 20
-140.0772379207098
 30
0.0
 10
96.89727238245971
 20
-139.9290988148441
 30
0.0
 10
96.89727238245971
 20
-139.9290988148441
 30
0.0
 10
97.22937958723781
 20
-139.9144571590318
 30
0.0
 10
97.27588837628868
 20
-139.7515041425795
 30
0.0
 10
97.30551619746181
 20
-139.6372992272434
 30
0.0
 10
97.30551619746181
 20
-139.6372992272434
 30
0.0
 10
97.45158824603642
 20
-139.6372992272434
 30
0.0
 10
97.45158824603642
 20
-139.6372992272434
 30
0.0
 10
97.45158824603642
 20
-139.6372992272434
 30
0.0
 10
97.45158824603642
 20
-141.1815632785067
 30
0.0
 10
97.45158824603642
 20
-141.1815632785067
 30
0.0
 10
97.45158824603642
 20
-141.1815632785067
 30
0.0
 10
97.22731252994664
 20
-141.1815632785067
 30
0.0
 10
97.22731252994664
 20
-141.1815632785067
 30
0.0
  0
HATCH
  5
FC
330
F5
100
AcDbEntity
  8
レイヤー 1
 62
    18
420
        0
440
 33554687
100
AcDbHatch
 10
0.0
 20
0.0
 30
0.0
210
0.0
220
0.0
230
1.0
  2
SOLID
 70
     1
 71
     1
 91
        1
 92
        1
 93
        1
 72
     4
 94
        3
 73
     0
 74
     0
 95
       26
 96
       22
 40
0.0
 40
0.0
 40
0.0
 40
0.0
 40
1.0
 40
1.0
 40
1.0
 40
2.0
 40
2.0
 40
2.0
 40
3.0
 40
3.0
 40
3.0
 40
4.0
 40
4.0
 40
4.0
 40
5.0
 40
5.0
 40
5.0
 40
6.0
 40
6.0
 40
6.0
 40
7.0
 40
7.0
 40
7.0
 40
7.0
 10
97.22731252994664
 20
-141.1815632785067
 10
97.22731252994664
 20
-141.1815632785067
 10
97.22731252994664
 20
-140.0772379207098
 10
97.22731252994664
 20
-140.0772379207098
 10
97.22731252994664
 20
-140.0772379207098
 10
96.89727238245971
 20
-140.0772379207098
 10
96.89727238245971
 20
-140.0772379207098
 10
96.89727238245971
 20
-140.0772379207098
 10
96.89727238245971
 20
-139.9290988148441
 10
96.89727238245971
 20
-139.9290988148441
 10
97.22937958723781
 20
-139.9144571590318
 10
97.27588837628868
 20
-139.7515041425795
 10
97.30551619746181
 20
-139.6372992272434
 10
97.30551619746181
 20
-139.6372992272434
 10
97.45158824603642
 20
-139.6372992272434
 10
97.45158824603642
 20
-139.6372992272434
 10
97.45158824603642
 20
-139.6372992272434
 10
97.45158824603642
 20
-141.1815632785067
 10
97.45158824603642
 20
-141.1815632785067
 10
97.45158824603642
 20
-141.1815632785067
 10
97.22731252994664
 20
-141.1815632785067
 10
97.22731252994664
 20
-141.1815632785067
 97
        0
 97
        1
330
FB
 75
     2
 76
     1
 98
        1
 10
0.0
 20
0.0
450
        0
451
        0
460
0.0
461
0.0
452
        0
462
0.0
453
        0
470

  0
ENDBLK
  5
F8
330
F5
100
AcDbEntity
  8
0
100
AcDbBlockEnd
  0
BLOCK
  5
101
330
FF
100
AcDbEntity
  8
0
100
AcDbBlockBegin
  2
Block_4
 70
     0
 10
0.0
 20
0.0
 30
0.0
  3
Block_4
  1

  0
SPLINE
  5
103
330
FF
100
AcDbEntity
  8
レイヤー 1
100
AcDbSpline
210
0.0
220
0.0
230
1.0
 70
     9
 71
     3
 72
    17
 73
    13
 74
     0
 42
0.0000000001
 43
0.0000000001
 40
0.0
 40
0.0
 40
0.0
 40
0.0
 40
1.0
 40
1.0
 40
1.0
 40
2.0
 40
2.0
 40
2.0
 40
3.0
 40
3.0
 40
3.0
 40
4.0
 40
4.0
 40
4.0
 40
4.0
 10
80.74132484960633
 20
-150.1338161517026
 30
0.0
 10
80.74132484960633
 20
-150.3963324276787
 30
0.0
 10
80.95285371240068
 20
-150.4342284780164
 30
0.0
 10
81.06912568502785
 20
-150.4342284780164
 30
0.0
 10
81.24465330000134
 20
-150.4342284780164
 30
0.0
 10
81.40760631645365
 20
-150.3391438426235
 30
0.0
 10
81.40760631645365
 20
-150.1551757437112
 30
0.0
 10
81.40760631645365
 20
-150.0345974017274
 30
0.0
 10
81.34835067410737
 20
-149.8588975319797
 30
0.0
 10
81.06275225838015
 20
-149.8588975319797
 30
0.0
 10
80.83847654229037
 20
-149.8588975319797
 30
0.0
 10
80.74132484960633
 20
-149.9987684086808
 30
0.0
 10
80.74132484960633
 20
-150.1338161517026
 30
0.0
  0
SPLINE
  5
104
330
FF
100
AcDbEntity
  8
レイヤー 1
100
AcDbSpline
210
0.0
220
0.0
230
1.0
 70
     9
 71
     3
 72
    32
 73
    28
 74
     0
 42
0.0000000001
 43
0.0000000001
 40
0.0
 40
0.0
 40
0.0
 40
0.0
 40
1.0
 40
1.0
 40
1.0
 40
2.0
 40
2.0
 40
2.0
 40
3.0
 40
3.0
 40
3.0
 40
4.0
 40
4.0
 40
4.0
 40
5.0
 40
5.0
 40
5.0
 40
6.0
 40
6.0
 40
6.0
 40
7.0
 40
7.0
 40
7.0
 40
8.0
 40
8.0
 40
8.0
 40
9.0
 40
9.0
 40
9.0
 40
9.0
 10
81.60018715407913
 20
-150.1510416291289
 30
0.0
 10
81.60018715407913
 20
-150.6671169328193
 30
0.0
 10
81.04587129050242
 20
-150.6753851619839
 30
0.0
 10
80.83227537041693
 20
-150.6753851619839
 30
0.0
 10
80.60162622767945
 20
-150.6753851619839
 30
0.0
 10
79.95429278600102
 20
-150.656437136815
 30
0.0
 10
79.95429278600102
 20
-150.1128010692426
 30
0.0
 10
79.95429278600102
 20
-149.9395127663345
 30
0.0
 10
80.02405596957732
 20
-149.6938774582362
 30
0.0
 10
80.3561631743554
 20
-149.6559814078985
 30
0.0
 10
80.3561631743554
 20
-149.6559814078985
 30
0.0
 10
80.3561631743554
 20
-149.869577327984
 30
0.0
 10
80.3561631743554
 20
-149.869577327984
 30
0.0
 10
80.29914684407453
 20
-149.8802571239883
 30
0.0
 10
80.15100773820877
 20
-149.9119520024525
 30
0.0
 10
80.15100773820877
 20
-150.1148681265338
 30
0.0
 10
80.15100773820877
 20
-150.407012223683
 30
0.0
 10
80.47898082840456
 20
-150.4469753313119
 30
0.0
 10
80.68413626455118
 20
-150.4597221846073
 30
0.0
 10
80.60593259703601
 20
-150.3667046065055
 30
0.0
 10
80.54667695468973
 20
-150.2988362254461
 30
0.0
 10
80.54667695468973
 20
-150.1169351838249
 30
0.0
 10
80.54667695468973
 20
-149.9371011994949
 30
0.0
 10
80.65450844337805
 20
-149.6346218158899
 30
0.0
 10
81.060685201089
 20
-149.6346218158899
 30
0.0
 10
81.38004555257166
 20
-149.6346218158899
 30
0.0
 10
81.60018715407913
 20
-149.8337483349374
 30
0.0
 10
81.60018715407913
 20
-150.1510416291289
 30
0.0
  0
HATCH
  5
105
330
FF
100
AcDbEntity
  8
レイヤー 1
 62
    18
420
        0
440
 33554687
100
AcDbHatch
 10
0.0
 20
0.0
 30
0.0
210
0.0
220
0.0
230
1.0
  2
SOLID
 70
     1
 71
     1
 91
        2
 92
        1
 93
        1
 72
     4
 94
        3
 73
     0
 74
     0
 95
       17
 96
       13
 40
0.0
 40
0.0
 40
0.0
 40
0.0
 40
1.0
 40
1.0
 40
1.0
 40
2.0
 40
2.0
 40
2.0
 40
3.0
 40
3.0
 40
3.0
 40
4.0
 40
4.0
 40
4.0
 40
4.0
 10
80.74132484960633
 20
-150.1338161517026
 10
80.74132484960633
 20
-150.3963324276787
 10
80.95285371240068
 20
-150.4342284780164
 10
81.06912568502785
 20
-150.4342284780164
 10
81.24465330000134
 20
-150.4342284780164
 10
81.40760631645365
 20
-150.3391438426235
 10
81.40760631645365
 20
-150.1551757437112
 10
81.40760631645365
 20
-150.0345974017274
 10
81.34835067410737
 20
-149.8588975319797
 10
81.06275225838015
 20
-149.8588975319797
 10
80.83847654229037
 20
-149.8588975319797
 10
80.74132484960633
 20
-149.9987684086808
 10
80.74132484960633
 20
-150.1338161517026
 97
        0
 97
        1
330
103
 92
        1
 93
        1
 72
     4
 94
        3
 73
     0
 74
     0
 95
       32
 96
       28
 40
0.0
 40
0.0
 40
0.0
 40
0.0
 40
1.0
 40
1.0
 40
1.0
 40
2.0
 40
2.0
 40
2.0
 40
3.0
 40
3.0
 40
3.0
 40
4.0
 40
4.0
 40
4.0
 40
5.0
 40
5.0
 40
5.0
 40
6.0
 40
6.0
 40
6.0
 40
7.0
 40
7.0
 40
7.0
 40
8.0
 40
8.0
 40
8.0
 40
9.0
 40
9.0
 40
9.0
 40
9.0
 10
81.60018715407913
 20
-150.1510416291289
 10
81.60018715407913
 20
-150.6671169328193
 10
81.04587129050242
 20
-150.6753851619839
 10
80.83227537041693
 20
-150.6753851619839
 10
80.60162622767945
 20
-150.6753851619839
 10
79.95429278600102
 20
-150.656437136815
 10
79.95429278600102
 20
-150.1128010692426
 10
79.95429278600102
 20
-149.9395127663345
 10
80.02405596957732
 20
-149.6938774582362
 10
80.3561631743554
 20
-149.6559814078985
 10
80.3561631743554
 20
-149.6559814078985
 10
80.3561631743554
 20
-149.869577327984
 10
80.3561631743554
 20
-149.869577327984
 10
80.29914684407453
 20
-149.8802571239883
 10
80.15100773820877
 20
-149.9119520024525
 10
80.15100773820877
 20
-150.1148681265338
 10
80.15100773820877
 20
-150.407012223683
 10
80.47898082840456
 20
-150.4469753313119
 10
80.68413626455118
 20
-150.4597221846073
 10
80.60593259703601
 20
-150.3667046065055
 10
80.54667695468973
 20
-150.2988362254461
 10
80.54667695468973
 20
-150.1169351838249
 10
80.54667695468973
 20
-149.9371011994949
 10
80.65450844337805
 20
-149.6346218158899
 10
81.060685201089
 20
-149.6346218158899
 10
81.38004555257166
 20
-149.6346218158899
 10
81.60018715407913
 20
-149.8337483349374
 10
81.60018715407913
 20
-150.1510416291289
 97
        0
 97
        1
330
104
 75
     2
 76
     1
 98
        1
 10
0.0
 20
0.0
450
        0
451
        0
460
0.0
461
0.0
452
        0
462
0.0
453
        0
470

  0
ENDBLK
  5
102
330
FF
100
AcDbEntity
  8
0
100
AcDbBlockEnd
  0
BLOCK
  5
10A
330
108
100
AcDbEntity
  8
0
100
AcDbBlockBegin
  2
Block_5
 70
     0
 10
0.0
 20
0.0
 30
0.0
  3
Block_5
  1

  0
INSERT
  5
10D
330
108
100
AcDbEntity
  8
レイヤー 1
100
AcDbBlockReference
  2
Block_6
 10
0.0
 20
0.0
 30
0.0
  0
ENDBLK
  5
10B
330
108
100
AcDbEntity
  8
0
100
AcDbBlockEnd
  0
BLOCK
  5
10E
330
10C
100
AcDbEntity
  8
0
100
AcDbBlockBegin
  2
Block_6
 70
     0
 10
0.0
 20
0.0
 30
0.0
  3
Block_6
  1

  0
SPLINE
  5
110
330
10C
100
AcDbEntity
  8
レイヤー 1
100
AcDbSpline
210
0.0
220
0.0
230
1.0
 70
     9
 71
     3
 72
    44
 73
    40
 74
     0
 42
0.0000000001
 43
0.0000000001
 40
0.0
 40
0.0
 40
0.0
 40
0.0
 40
1.0
 40
1.0
 40
1.0
 40
2.0
 40
2.0
 40
2.0
 40
3.0
 40
3.0
 40
3.0
 40
4.0
 40
4.0
 40
4.0
 40
5.0
 40
5.0
 40
5.0
 40
6.0
 40
6.0
 40
6.0
 40
7.0
 40
7.0
 40
7.0
 40
8.0
 40
8.0
 40
8.0
 40
9.0
 40
9.0
 40
9.0
 40
10.0
 40
10.0
 40
10.0
 40
11.0
 40
11.0
 40
11.0
 40
12.0
 40
12.0
 40
12.0
 40
13.0
 40
13.0
 40
13.0
 40
13.0
 10
120.2934325871141
 20
-140.5998589058222
 30
0.0
 10
120.0757025524463
 20
-140.758505552918
 30
0.0
 10
119.9826849743446
 20
-140.8325751058509
 30
0.0
 10
119.933764618454
 20
-140.97640784236
 30
0.0
 10
119.933764618454
 20
-140.97640784236
 30
0.0
 10
120.7123561981205
 20
-140.97640784236
 30
0.0
 10
120.7123561981205
 20
-140.97640784236
 30
0.0
 10
120.7123561981205
 20
-140.97640784236
 30
0.0
 10
120.7123561981205
 20
-141.1815632785067
 30
0.0
 10
120.7123561981205
 20
-141.1815632785067
 30
0.0
 10
120.7123561981205
 20
-141.1815632785067
 30
0.0
 10
119.6843397053219
 20
-141.1815632785067
 30
0.0
 10
119.6843397053219
 20
-141.1815632785067
 30
0.0
 10
119.7160345837863
 20
-140.8239623671377
 30
0.0
 10
119.781491398006
 20
-140.7457586996226
 30
0.0
 10
120.1666530732569
 20
-140.4474134305999
 30
0.0
 10
120.422623667811
 20
-140.248631421101
 30
0.0
 10
120.4880804820307
 20
-140.1809352948159
 30
0.0
 10
120.4880804820307
 20
-140.0434759849544
 30
0.0
 10
120.4880804820307
 20
-139.9249647002618
 30
0.0
 10
120.416077986389
 20
-139.7937065622738
 30
0.0
 10
120.2193630341813
 20
-139.7937065622738
 30
0.0
 10
119.9592583250449
 20
-139.7937065622738
 30
0.0
 10
119.9509900958803
 20
-140.0243557050113
 30
0.0
 10
119.9465114717495
 20
-140.1407999324127
 30
0.0
 10
119.9465114717495
 20
-140.1407999324127
 30
0.0
 10
119.7222357556597
 20
-140.1407999324127
 30
0.0
 10
119.7222357556597
 20
-140.1407999324127
 30
0.0
 10
119.7308484943728
 20
-140.0138481637812
 30
0.0
 10
119.7415282903771
 20
-139.9017103057363
 30
0.0
 10
119.8217990151834
 20
-139.7831990210438
 30
0.0
 10
119.9316975611629
 20
-139.6224853166569
 30
0.0
 10
120.1180772269149
 20
-139.5885511261272
 30
0.0
 10
120.2341769447678
 20
-139.5885511261272
 30
0.0
 10
120.5115071313304
 20
-139.5885511261272
 30
0.0
 10
120.7189018795425
 20
-139.7726914798137
 30
0.0
 10
120.7189018795425
 20
-140.0455430422455
 30
0.0
 10
120.7189018795425
 20
-140.2739528729176
 30
0.0
 10
120.602457652141
 20
-140.3735161324413
 30
0.0
 10
120.2934325871141
 20
-140.5998589058222
 30
0.0
  0
HATCH
  5
111
330
10C
100
AcDbEntity
  8
レイヤー 1
 62
    18
420
        0
440
 33554687
100
AcDbHatch
 10
0.0
 20
0.0
 30
0.0
210
0.0
220
0.0
230
1.0
  2
SOLID
 70
     1
 71
     1
 91
        1
 92
        1
 93
        1
 72
     4
 94
        3
 73
     0
 74
     0
 95
       44
 96
       40
 40
0.0
 40
0.0
 40
0.0
 40
0.0
 40
1.0
 40
1.0
 40
1.0
 40
2.0
 40
2.0
 40
2.0
 40
3.0
 40
3.0
 40
3.0
 40
4.0
 40
4.0
 40
4.0
 40
5.0
 40
5.0
 40
5.0
 40
6.0
 40
6.0
 40
6.0
 40
7.0
 40
7.0
 40
7.0
 40
8.0
 40
8.0
 40
8.0
 40
9.0
 40
9.0
 40
9.0
 40
10.0
 40
10.0
 40
10.0
 40
11.0
 40
11.0
 40
11.0
 40
12.0
 40
12.0
 40
12.0
 40
13.0
 40
13.0
 40
13.0
 40
13.0
 10
120.2934325871141
 20
-140.5998589058222
 10
120.0757025524463
 20
-140.758505552918
 10
119.9826849743446
 20
-140.8325751058509
 10
119.933764618454
 20
-140.97640784236
 10
119.933764618454
 20
-140.97640784236
 10
120.7123561981205
 20
-140.97640784236
 10
120.7123561981205
 20
-140.97640784236
 10
120.7123561981205
 20
-140.97640784236
 10
120.7123561981205
 20
-141.1815632785067
 10
120.7123561981205
 20
-141.1815632785067
 10
120.7123561981205
 20
-141.1815632785067
 10
119.6843397053219
 20
-141.1815632785067
 10
119.6843397053219
 20
-141.1815632785067
 10
119.7160345837863
 20
-140.8239623671377
 10
119.781491398006
 20
-140.7457586996226
 10
120.1666530732569
 20
-140.4474134305999
 10
120.422623667811
 20
-140.248631421101
 10
120.4880804820307
 20
-140.1809352948159
 10
120.4880804820307
 20
-140.0434759849544
 10
120.4880804820307
 20
-139.9249647002618
 10
120.416077986389
 20
-139.7937065622738
 10
120.2193630341813
 20
-139.7937065622738
 10
119.9592583250449
 20
-139.7937065622738
 10
119.9509900958803
 20
-140.0243557050113
 10
119.9465114717495
 20
-140.1407999324127
 10
119.9465114717495
 20
-140.1407999324127
 10
119.7222357556597
 20
-140.1407999324127
 10
119.7222357556597
 20
-140.1407999324127
 10
119.7308484943728
 20
-140.0138481637812
 10
119.7415282903771
 20
-139.9017103057363
 10
119.8217990151834
 20
-139.7831990210438
 10
119.9316975611629
 20
-139.6224853166569
 10
120.1180772269149
 20
-139.5885511261272
 10
120.2341769447678
 20
-139.5885511261272
 10
120.5115071313304
 20
-139.5885511261272
 10
120.7189018795425
 20
-139.7726914798137
 10
120.7189018795425
 20
-140.0455430422455
 10
120.7189018795425
 20
-140.2739528729176
 10
120.602457652141
 20
-140.3735161324413
 10
120.2934325871141
 20
-140.5998589058222
 97
        0
 97
        1
330
110
 75
     2
 76
     1
 98
        1
 10
0.0
 20
0.0
450
        0
451
        0
460
0.0
461
0.0
452
        0
462
0.0
453
        0
470

  0
SPLINE
  5
112
330
10C
100
AcDbEntity
  8
レイヤー 1
100
AcDbSpline
210
0.0
220
0.0
230
1.0
 70
    11
 71
     3
 72
    26
 73
    22
 74
     0
 42
0.0000000001
 43
0.0000000001
 40
0.0
 40
0.0
 40
0.0
 40
0.0
 40
1.0
 40
1.0
 40
1.0
 40
2.0
 40
2.0
 40
2.0
 40
3.0
 40
3.0
 40
3.0
 40
4.0
 40
4.0
 40
4.0
 40
5.0
 40
5.0
 40
5.0
 40
6.0
 40
6.0
 40
6.0
 40
7.0
 40
7.0
 40
7.0
 40
7.0
 10
121.3286837804317
 20
-141.1815632785067
 30
0.0
 10
121.3286837804317
 20
-141.1815632785067
 30
0.0
 10
121.3286837804317
 20
-140.0772379207098
 30
0.0
 10
121.3286837804317
 20
-140.0772379207098
 30
0.0
 10
121.3286837804317
 20
-140.0772379207098
 30
0.0
 10
120.9986436329448
 20
-140.0772379207098
 30
0.0
 10
120.9986436329448
 20
-140.0772379207098
 30
0.0
 10
120.9986436329448
 20
-140.0772379207098
 30
0.0
 10
120.9986436329448
 20
-139.9290988148441
 30
0.0
 10
120.9986436329448
 20
-139.9290988148441
 30
0.0
 10
121.3307508377228
 20
-139.9144571590318
 30
0.0
 10
121.3772596267737
 20
-139.7515041425795
 30
0.0
 10
121.4068874479469
 20
-139.6372992272434
 30
0.0
 10
121.4068874479469
 20
-139.6372992272434
 30
0.0
 10
121.5529594965214
 20
-139.6372992272434
 30
0.0
 10
121.5529594965214
 20
-139.6372992272434
 30
0.0
 10
121.5529594965214
 20
-139.6372992272434
 30
0.0
 10
121.5529594965214
 20
-141.1815632785067
 30
0.0
 10
121.5529594965214
 20
-141.1815632785067
 30
0.0
 10
121.5529594965214
 20
-141.1815632785067
 30
0.0
 10
121.3286837804317
 20
-141.1815632785067
 30
0.0
 10
121.3286837804317
 20
-141.1815632785067
 30
0.0
  0
HATCH
  5
113
330
10C
100
AcDbEntity
  8
レイヤー 1
 62
    18
420
        0
440
 33554687
100
AcDbHatch
 10
0.0
 20
0.0
 30
0.0
210
0.0
220
0.0
230
1.0
  2
SOLID
 70
     1
 71
     1
 91
        1
 92
        1
 93
        1
 72
     4
 94
        3
 73
     0
 74
     0
 95
       26
 96
       22
 40
0.0
 40
0.0
 40
0.0
 40
0.0
 40
1.0
 40
1.0
 40
1.0
 40
2.0
 40
2.0
 40
2.0
 40
3.0
 40
3.0
 40
3.0
 40
4.0
 40
4.0
 40
4.0
 40
5.0
 40
5.0
 40
5.0
 40
6.0
 40
6.0
 40
6.0
 40
7.0
 40
7.0
 40
7.0
 40
7.0
 10
121.3286837804317
 20
-141.1815632785067
 10
121.3286837804317
 20
-141.1815632785067
 10
121.3286837804317
 20
-140.0772379207098
 10
121.3286837804317
 20
-140.0772379207098
 10
121.3286837804317
 20
-140.0772379207098
 10
120.9986436329448
 20
-140.0772379207098
 10
120.9986436329448
 20
-140.0772379207098
 10
120.9986436329448
 20
-140.0772379207098
 10
120.9986436329448
 20
-139.9290988148441
 10
120.9986436329448
 20
-139.9290988148441
 10
121.3307508377228
 20
-139.9144571590318
 10
121.3772596267737
 20
-139.7515041425795
 10
121.4068874479469
 20
-139.6372992272434
 10
121.4068874479469
 20
-139.6372992272434
 10
121.5529594965214
 20
-139.6372992272434
 10
121.5529594965214
 20
-139.6372992272434
 10
121.5529594965214
 20
-139.6372992272434
 10
121.5529594965214
 20
-141.1815632785067
 10
121.5529594965214
 20
-141.1815632785067
 10
121.5529594965214
 20
-141.1815632785067
 10
121.3286837804317
 20
-141.1815632785067
 10
121.3286837804317
 20
-141.1815632785067
 97
        0
 97
        1
330
112
 75
     2
 76
     1
 98
        1
 10
0.0
 20
0.0
450
        0
451
        0
460
0.0
461
0.0
452
        0
462
0.0
453
        0
470

  0
ENDBLK
  5
10F
330
10C
100
AcDbEntity
  8
0
100
AcDbBlockEnd
  0
BLOCK
  5
119
330
117
100
AcDbEntity
  8
0
100
AcDbBlockBegin
  2
Block_7
 70
     0
 10
0.0
 20
0.0
 30
0.0
  3
Block_7
  1

  0
SPLINE
  5
11B
330
117
100
AcDbEntity
  8
レイヤー 1
100
AcDbSpline
210
0.0
220
0.0
230
1.0
 70
     9
 71
     3
 72
    62
 73
    58
 74
     0
 42
0.0000000001
 43
0.0000000001
 40
0.0
 40
0.0
 40
0.0
 40
0.0
 40
1.0
 40
1.0
 40
1.0
 40
2.0
 40
2.0
 40
2.0
 40
3.0
 40
3.0
 40
3.0
 40
4.0
 40
4.0
 40
4.0
 40
5.0
 40
5.0
 40
5.0
 40
6.0
 40
6.0
 40
6.0
 40
7.0
 40
7.0
 40
7.0
 40
8.0
 40
8.0
 40
8.0
 40
9.0
 40
9.0
 40
9.0
 40
10.0
 40
10.0
 40
10.0
 40
11.0
 40
11.0
 40
11.0
 40
12.0
 40
12.0
 40
12.0
 40
13.0
 40
13.0
 40
13.0
 40
14.0
 40
14.0
 40
14.0
 40
15.0
 40
15.0
 40
15.0
 40
16.0
 40
16.0
 40
16.0
 40
17.0
 40
17.0
 40
17.0
 40
18.0
 40
18.0
 40
18.0
 40
19.0
 40
19.0
 40
19.0
 40
19.0
 10
108.7554632974639
 20
-141.2323784369141
 30
0.0
 10
108.6600341525225
 20
-141.2323784369141
 30
0.0
 10
108.4423041178547
 20
-141.2111910996798
 30
0.0
 10
108.3172471517401
 20
-141.0249836887021
 30
0.0
 10
108.2435221083558
 20
-140.9128458306572
 30
0.0
 10
108.2390434842249
 20
-140.8134548259077
 30
0.0
 10
108.2349093696426
 20
-140.7288777317448
 30
0.0
 10
108.2349093696426
 20
-140.7288777317448
 30
0.0
 10
108.4550509711501
 20
-140.7288777317448
 30
0.0
 10
108.4550509711501
 20
-140.7288777317448
 30
0.0
 10
108.4571180284413
 20
-140.8029472846777
 30
0.0
 10
108.467453314897
 20
-141.0377305419975
 30
0.0
 10
108.7509846733331
 20
-141.0377305419975
 30
0.0
 10
108.8884439831945
 20
-141.0377305419975
 30
0.0
 10
109.0410617131911
 20
-140.9679673584212
 30
0.0
 10
109.0410617131911
 20
-140.7393852729749
 30
0.0
 10
109.0410617131911
 20
-140.6231133003477
 30
0.0
 10
109.0028211533048
 20
-140.5743651992314
 30
0.0
 10
108.9711262748405
 20
-140.5426703207671
 30
0.0
 10
108.8970567219077
 20
-140.4686007678342
 30
0.0
 10
108.7806124945062
 20
-140.4560261693131
 30
0.0
 10
108.7258354762908
 20
-140.4560261693131
 30
0.0
 10
108.7065429415734
 20
-140.4560261693131
 30
0.0
 10
108.6707139485267
 20
-140.4580932266042
 30
0.0
 10
108.6431531846447
 20
-140.4622273411865
 30
0.0
 10
108.6431531846447
 20
-140.4622273411865
 30
0.0
 10
108.6431531846447
 20
-140.2677517010442
 30
0.0
 10
108.6431531846447
 20
-140.2677517010442
 30
0.0
 10
108.681393744531
 20
-140.2739528729176
 30
0.0
 10
108.7234239094511
 20
-140.276192184983
 30
0.0
 10
108.729969590873
 20
-140.276192184983
 30
0.0
 10
108.7954264050928
 20
-140.276192184983
 30
0.0
 10
108.9942084145917
 20
-140.2550048477487
 30
0.0
 10
108.9942084145917
 20
-140.0179822783635
 30
0.0
 10
108.9942084145917
 20
-139.8403876060989
 30
0.0
 10
108.8632947861522
 20
-139.7852660783349
 30
0.0
 10
108.7530517306242
 20
-139.7852660783349
 30
0.0
 10
108.4888129069055
 20
-139.7852660783349
 30
0.0
 10
108.4802001681924
 20
-140.0179822783635
 30
0.0
 10
108.4760660536101
 20
-140.0899847740053
 30
0.0
 10
108.4760660536101
 20
-140.0899847740053
 30
0.0
 10
108.2728054199804
 20
-140.0899847740053
 30
0.0
 10
108.2728054199804
 20
-140.0899847740053
 30
0.0
 10
108.2814181586935
 20
-139.965100062665
 30
0.0
 10
108.3089789225755
 20
-139.5885511261272
 30
0.0
 10
108.7657985839196
 20
-139.5885511261272
 30
0.0
 10
108.9900743000094
 20
-139.5885511261272
 30
0.0
 10
109.2312309839769
 20
-139.7155028947586
 30
0.0
 10
109.2312309839769
 20
-140.0116088517158
 30
0.0
 10
109.2312309839769
 20
-140.1978162626936
 30
0.0
 10
109.136146348584
 20
-140.2803262995653
 30
0.0
 10
109.0365830890603
 20
-140.3416489992028
 30
0.0
 10
109.0979057886977
 20
-140.3692097630848
 30
0.0
 10
109.2798068303189
 20
-140.4496527426653
 30
0.0
 10
109.2798068303189
 20
-140.7268106744537
 30
0.0
 10
109.2798068303189
 20
-141.0652913058795
 30
0.0
 10
109.032448974478
 20
-141.2323784369141
 30
0.0
 10
108.7554632974639
 20
-141.2323784369141
 30
0.0
  0
HATCH
  5
11C
330
117
100
AcDbEntity
  8
レイヤー 1
 62
    18
420
        0
440
 33554687
100
AcDbHatch
 10
0.0
 20
0.0
 30
0.0
210
0.0
220
0.0
230
1.0
  2
SOLID
 70
     1
 71
     1
 91
        1
 92
        1
 93
        1
 72
     4
 94
        3
 73
     0
 74
     0
 95
       62
 96
       58
 40
0.0
 40
0.0
 40
0.0
 40
0.0
 40
1.0
 40
1.0
 40
1.0
 40
2.0
 40
2.0
 40
2.0
 40
3.0
 40
3.0
 40
3.0
 40
4.0
 40
4.0
 40
4.0
 40
5.0
 40
5.0
 40
5.0
 40
6.0
 40
6.0
 40
6.0
 40
7.0
 40
7.0
 40
7.0
 40
8.0
 40
8.0
 40
8.0
 40
9.0
 40
9.0
 40
9.0
 40
10.0
 40
10.0
 40
10.0
 40
11.0
 40
11.0
 40
11.0
 40
12.0
 40
12.0
 40
12.0
 40
13.0
 40
13.0
 40
13.0
 40
14.0
 40
14.0
 40
14.0
 40
15.0
 40
15.0
 40
15.0
 40
16.0
 40
16.0
 40
16.0
 40
17.0
 40
17.0
 40
17.0
 40
18.0
 40
18.0
 40
18.0
 40
19.0
 40
19.0
 40
19.0
 40
19.0
 10
108.7554632974639
 20
-141.2323784369141
 10
108.6600341525225
 20
-141.2323784369141
 10
108.4423041178547
 20
-141.2111910996798
 10
108.3172471517401
 20
-141.0249836887021
 10
108.2435221083558
 20
-140.9128458306572
 10
108.2390434842249
 20
-140.8134548259077
 10
108.2349093696426
 20
-140.7288777317448
 10
108.2349093696426
 20
-140.7288777317448
 10
108.4550509711501
 20
-140.7288777317448
 10
108.4550509711501
 20
-140.7288777317448
 10
108.4571180284413
 20
-140.8029472846777
 10
108.467453314897
 20
-141.0377305419975
 10
108.7509846733331
 20
-141.0377305419975
 10
108.8884439831945
 20
-141.0377305419975
 10
109.0410617131911
 20
-140.9679673584212
 10
109.0410617131911
 20
-140.7393852729749
 10
109.0410617131911
 20
-140.6231133003477
 10
109.0028211533048
 20
-140.5743651992314
 10
108.9711262748405
 20
-140.5426703207671
 10
108.8970567219077
 20
-140.4686007678342
 10
108.7806124945062
 20
-140.4560261693131
 10
108.7258354762908
 20
-140.4560261693131
 10
108.7065429415734
 20
-140.4560261693131
 10
108.6707139485267
 20
-140.4580932266042
 10
108.6431531846447
 20
-140.4622273411865
 10
108.6431531846447
 20
-140.4622273411865
 10
108.6431531846447
 20
-140.2677517010442
 10
108.6431531846447
 20
-140.2677517010442
 10
108.681393744531
 20
-140.2739528729176
 10
108.7234239094511
 20
-140.276192184983
 10
108.729969590873
 20
-140.276192184983
 10
108.7954264050928
 20
-140.276192184983
 10
108.9942084145917
 20
-140.2550048477487
 10
108.9942084145917
 20
-140.0179822783635
 10
108.9942084145917
 20
-139.8403876060989
 10
108.8632947861522
 20
-139.7852660783349
 10
108.7530517306242
 20
-139.7852660783349
 10
108.4888129069055
 20
-139.7852660783349
 10
108.4802001681924
 20
-140.0179822783635
 10
108.4760660536101
 20
-140.0899847740053
 10
108.4760660536101
 20
-140.0899847740053
 10
108.2728054199804
 20
-140.0899847740053
 10
108.2728054199804
 20
-140.0899847740053
 10
108.2814181586935
 20
-139.965100062665
 10
108.3089789225755
 20
-139.5885511261272
 10
108.7657985839196
 20
-139.5885511261272
 10
108.9900743000094
 20
-139.5885511261272
 10
109.2312309839769
 20
-139.7155028947586
 10
109.2312309839769
 20
-140.0116088517158
 10
109.2312309839769
 20
-140.1978162626936
 10
109.136146348584
 20
-140.2803262995653
 10
109.0365830890603
 20
-140.3416489992028
 10
109.0979057886977
 20
-140.3692097630848
 10
109.2798068303189
 20
-140.4496527426653
 10
109.2798068303189
 20
-140.7268106744537
 10
109.2798068303189
 20
-141.0652913058795
 10
109.032448974478
 20
-141.2323784369141
 10
108.7554632974639
 20
-141.2323784369141
 97
        0
 97
        1
330
11B
 75
     2
 76
     1
 98
        1
 10
0.0
 20
0.0
450
        0
451
        0
460
0.0
461
0.0
452
        0
462
0.0
453
        0
470

  0
ENDBLK
  5
11A
330
117
100
AcDbEntity
  8
0
100
AcDbBlockEnd
  0
BLOCK
  5
124
330
122
100
AcDbEntity
  8
0
100
AcDbBlockBegin
  2
Block_8
 70
     0
 10
0.0
 20
0.0
 30
0.0
  3
Block_8
  1

  0
SPLINE
  5
126
330
122
100
AcDbEntity
  8
レイヤー 1
100
AcDbSpline
210
0.0
220
0.0
230
1.0
 70
     9
 71
     3
 72
    53
 73
    49
 74
     0
 42
0.0000000001
 43
0.0000000001
 40
0.0
 40
0.0
 40
0.0
 40
0.0
 40
1.0
 40
1.0
 40
1.0
 40
2.0
 40
2.0
 40
2.0
 40
3.0
 40
3.0
 40
3.0
 40
4.0
 40
4.0
 40
4.0
 40
5.0
 40
5.0
 40
5.0
 40
6.0
 40
6.0
 40
6.0
 40
7.0
 40
7.0
 40
7.0
 40
8.0
 40
8.0
 40
8.0
 40
9.0
 40
9.0
 40
9.0
 40
10.0
 40
10.0
 40
10.0
 40
11.0
 40
11.0
 40
11.0
 40
12.0
 40
12.0
 40
12.0
 40
13.0
 40
13.0
 40
13.0
 40
14.0
 40
14.0
 40
14.0
 40
15.0
 40
15.0
 40
15.0
 40
16.0
 40
16.0
 40
16.0
 40
16.0
 10
108.9049804415237
 20
-156.6078395875841
 30
0.0
 10
108.8267767740086
 20
-156.6078395875841
 30
0.0
 10
108.7251464571937
 20
-156.5909586197064
 30
0.0
 10
108.6235161403788
 20
-156.5275688627778
 30
0.0
 10
108.4502278374708
 20
-156.4176703167983
 30
0.0
 10
108.4288682454622
 20
-156.2864121788103
 30
0.0
 10
108.4099202202933
 20
-156.178580690122
 30
0.0
 10
108.4099202202933
 20
-156.178580690122
 30
0.0
 10
108.6321288790919
 20
-156.178580690122
 30
0.0
 10
108.6321288790919
 20
-156.178580690122
 30
0.0
 10
108.6869058973074
 20
-156.3773626996209
 30
0.0
 10
108.8140299207131
 20
-156.4069905207941
 30
0.0
 10
108.9070474988149
 20
-156.4069905207941
 30
0.0
 10
109.0465738659675
 20
-156.4069905207941
 30
0.0
 10
109.1988470864155
 20
-156.3074272612703
 30
0.0
 10
109.1988470864155
 20
-156.074883316016
 30
0.0
 10
109.1988470864155
 20
-155.8189127214619
 30
0.0
 10
109.0190131020855
 20
-155.7489772831113
 30
0.0
 10
108.8984347601018
 20
-155.7489772831113
 30
0.0
 10
108.8667398816375
 20
-155.7489772831113
 30
0.0
 10
108.7251464571937
 20
-155.7489772831113
 30
0.0
 10
108.6362629936743
 20
-155.8781683638082
 30
0.0
 10
108.6362629936743
 20
-155.8781683638082
 30
0.0
 10
108.4605631239265
 20
-155.8592203386393
 30
0.0
 10
108.4605631239265
 20
-155.8592203386393
 30
0.0
 10
108.4605631239265
 20
-155.8592203386393
 30
0.0
 10
108.5811414659103
 20
-155.0127603779135
 30
0.0
 10
108.5811414659103
 20
-155.0127603779135
 30
0.0
 10
108.5811414659103
 20
-155.0127603779135
 30
0.0
 10
109.3597330455767
 20
-155.0127603779135
 30
0.0
 10
109.3597330455767
 20
-155.0127603779135
 30
0.0
 10
109.3597330455767
 20
-155.0127603779135
 30
0.0
 10
109.3597330455767
 20
-155.2074082728301
 30
0.0
 10
109.3597330455767
 20
-155.2074082728301
 30
0.0
 10
109.3597330455767
 20
-155.2074082728301
 30
0.0
 10
108.7440944823626
 20
-155.2074082728301
 30
0.0
 10
108.7440944823626
 20
-155.2074082728301
 30
0.0
 10
108.7440944823626
 20
-155.2074082728301
 30
0.0
 10
108.6786376681428
 20
-155.6304659984187
 30
0.0
 10
108.6786376681428
 20
-155.6304659984187
 30
0.0
 10
108.7399603677803
 20
-155.5967040626633
 30
0.0
 10
108.8222981498777
 20
-155.5563964454859
 30
0.0
 10
108.9408094345703
 20
-155.5563964454859
 30
0.0
 10
109.1947129718332
 20
-155.5563964454859
 30
0.0
 10
109.4317355412184
 20
-155.7427761112379
 30
0.0
 10
109.4317355412184
 20
-156.0559352908471
 30
0.0
 10
109.4317355412184
 20
-156.3732285850386
 30
0.0
 10
109.2074598251287
 20
-156.6078395875841
 30
0.0
 10
108.9049804415237
 20
-156.6078395875841
 30
0.0
  0
HATCH
  5
127
330
122
100
AcDbEntity
  8
レイヤー 1
 62
    18
420
        0
440
 33554687
100
AcDbHatch
 10
0.0
 20
0.0
 30
0.0
210
0.0
220
0.0
230
1.0
  2
SOLID
 70
     1
 71
     1
 91
        1
 92
        1
 93
        1
 72
     4
 94
        3
 73
     0
 74
     0
 95
       53
 96
       49
 40
0.0
 40
0.0
 40
0.0
 40
0.0
 40
1.0
 40
1.0
 40
1.0
 40
2.0
 40
2.0
 40
2.0
 40
3.0
 40
3.0
 40
3.0
 40
4.0
 40
4.0
 40
4.0
 40
5.0
 40
5.0
 40
5.0
 40
6.0
 40
6.0
 40
6.0
 40
7.0
 40
7.0
 40
7.0
 40
8.0
 40
8.0
 40
8.0
 40
9.0
 40
9.0
 40
9.0
 40
10.0
 40
10.0
 40
10.0
 40
11.0
 40
11.0
 40
11.0
 40
12.0
 40
12.0
 40
12.0
 40
13.0
 40
13.0
 40
13.0
 40
14.0
 40
14.0
 40
14.0
 40
15.0
 40
15.0
 40
15.0
 40
16.0
 40
16.0
 40
16.0
 40
16.0
 10
108.9049804415237
 20
-156.6078395875841
 10
108.8267767740086
 20
-156.6078395875841
 10
108.7251464571937
 20
-156.5909586197064
 10
108.6235161403788
 20
-156.5275688627778
 10
108.4502278374708
 20
-156.4176703167983
 10
108.4288682454622
 20
-156.2864121788103
 10
108.4099202202933
 20
-156.178580690122
 10
108.4099202202933
 20
-156.178580690122
 10
108.6321288790919
 20
-156.178580690122
 10
108.6321288790919
 20
-156.178580690122
 10
108.6869058973074
 20
-156.3773626996209
 10
108.8140299207131
 20
-156.4069905207941
 10
108.9070474988149
 20
-156.4069905207941
 10
109.0465738659675
 20
-156.4069905207941
 10
109.1988470864155
 20
-156.3074272612703
 10
109.1988470864155
 20
-156.074883316016
 10
109.1988470864155
 20
-155.8189127214619
 10
109.0190131020855
 20
-155.7489772831113
 10
108.8984347601018
 20
-155.7489772831113
 10
108.8667398816375
 20
-155.7489772831113
 10
108.7251464571937
 20
-155.7489772831113
 10
108.6362629936743
 20
-155.8781683638082
 10
108.6362629936743
 20
-155.8781683638082
 10
108.4605631239265
 20
-155.8592203386393
 10
108.4605631239265
 20
-155.8592203386393
 10
108.4605631239265
 20
-155.8592203386393
 10
108.5811414659103
 20
-155.0127603779135
 10
108.5811414659103
 20
-155.0127603779135
 10
108.5811414659103
 20
-155.0127603779135
 10
109.3597330455767
 20
-155.0127603779135
 10
109.3597330455767
 20
-155.0127603779135
 10
109.3597330455767
 20
-155.0127603779135
 10
109.3597330455767
 20
-155.2074082728301
 10
109.3597330455767
 20
-155.2074082728301
 10
109.3597330455767
 20
-155.2074082728301
 10
108.7440944823626
 20
-155.2074082728301
 10
108.7440944823626
 20
-155.2074082728301
 10
108.7440944823626
 20
-155.2074082728301
 10
108.6786376681428
 20
-155.6304659984187
 10
108.6786376681428
 20
-155.6304659984187
 10
108.7399603677803
 20
-155.5967040626633
 10
108.8222981498777
 20
-155.5563964454859
 10
108.9408094345703
 20
-155.5563964454859
 10
109.1947129718332
 20
-155.5563964454859
 10
109.4317355412184
 20
-155.7427761112379
 10
109.4317355412184
 20
-156.0559352908471
 10
109.4317355412184
 20
-156.3732285850386
 10
109.2074598251287
 20
-156.6078395875841
 10
108.9049804415237
 20
-156.6078395875841
 97
        0
 97
        1
330
126
 75
     2
 76
     1
 98
        1
 10
0.0
 20
0.0
450
        0
451
        0
460
0.0
461
0.0
452
        0
462
0.0
453
        0
470

  0
ENDBLK
  5
125
330
122
100
AcDbEntity
  8
0
100
AcDbBlockEnd
  0
BLOCK
  5
12B
330
129
100
AcDbEntity
  8
0
100
AcDbBlockBegin
  2
Block_9
 70
     0
 10
0.0
 20
0.0
 30
0.0
  3
Block_9
  1

  0
SPLINE
  5
12D
330
129
100
AcDbEntity
  8
レイヤー 1
100
AcDbSpline
210
0.0
220
0.0
230
1.0
 70
    11
 71
     3
 72
    26
 73
    22
 74
     0
 42
0.0000000001
 43
0.0000000001
 40
0.0
 40
0.0
 40
0.0
 40
0.0
 40
1.0
 40
1.0
 40
1.0
 40
2.0
 40
2.0
 40
2.0
 40
3.0
 40
3.0
 40
3.0
 40
4.0
 40
4.0
 40
4.0
 40
5.0
 40
5.0
 40
5.0
 40
6.0
 40
6.0
 40
6.0
 40
7.0
 40
7.0
 40
7.0
 40
7.0
 10
113.1958468684024
 20
-149.5347140468177
 30
0.0
 10
113.1958468684024
 20
-149.5347140468177
 30
0.0
 10
113.1958468684024
 20
-148.4303886890208
 30
0.0
 10
113.1958468684024
 20
-148.4303886890208
 30
0.0
 10
113.1958468684024
 20
-148.4303886890208
 30
0.0
 10
112.8658067209155
 20
-148.4303886890208
 30
0.0
 10
112.8658067209155
 20
-148.4303886890208
 30
0.0
 10
112.8658067209155
 20
-148.4303886890208
 30
0.0
 10
112.8658067209155
 20
-148.2822495831551
 30
0.0
 10
112.8658067209155
 20
-148.2822495831551
 30
0.0
 10
113.1979139256936
 20
-148.2676079273428
 30
0.0
 10
113.2444227147444
 20
-148.1046549108905
 30
0.0
 10
113.2740505359176
 20
-147.9904499955545
 30
0.0
 10
113.2740505359176
 20
-147.9904499955545
 30
0.0
 10
113.4201225844922
 20
-147.9904499955545
 30
0.0
 10
113.4201225844922
 20
-147.9904499955545
 30
0.0
 10
113.4201225844922
 20
-147.9904499955545
 30
0.0
 10
113.4201225844922
 20
-149.5347140468177
 30
0.0
 10
113.4201225844922
 20
-149.5347140468177
 30
0.0
 10
113.4201225844922
 20
-149.5347140468177
 30
0.0
 10
113.1958468684024
 20
-149.5347140468177
 30
0.0
 10
113.1958468684024
 20
-149.5347140468177
 30
0.0
  0
HATCH
  5
12E
330
129
100
AcDbEntity
  8
レイヤー 1
 62
    18
420
        0
440
 33554687
100
AcDbHatch
 10
0.0
 20
0.0
 30
0.0
210
0.0
220
0.0
230
1.0
  2
SOLID
 70
     1
 71
     1
 91
        1
 92
        1
 93
        1
 72
     4
 94
        3
 73
     0
 74
     0
 95
       26
 96
       22
 40
0.0
 40
0.0
 40
0.0
 40
0.0
 40
1.0
 40
1.0
 40
1.0
 40
2.0
 40
2.0
 40
2.0
 40
3.0
 40
3.0
 40
3.0
 40
4.0
 40
4.0
 40
4.0
 40
5.0
 40
5.0
 40
5.0
 40
6.0
 40
6.0
 40
6.0
 40
7.0
 40
7.0
 40
7.0
 40
7.0
 10
113.1958468684024
 20
-149.5347140468177
 10
113.1958468684024
 20
-149.5347140468177
 10
113.1958468684024
 20
-148.4303886890208
 10
113.1958468684024
 20
-148.4303886890208
 10
113.1958468684024
 20
-148.4303886890208
 10
112.8658067209155
 20
-148.4303886890208
 10
112.8658067209155
 20
-148.4303886890208
 10
112.8658067209155
 20
-148.4303886890208
 10
112.8658067209155
 20
-148.2822495831551
 10
112.8658067209155
 20
-148.2822495831551
 10
113.1979139256936
 20
-148.2676079273428
 10
113.2444227147444
 20
-148.1046549108905
 10
113.2740505359176
 20
-147.9904499955545
 10
113.2740505359176
 20
-147.9904499955545
 10
113.4201225844922
 20
-147.9904499955545
 10
113.4201225844922
 20
-147.9904499955545
 10
113.4201225844922
 20
-147.9904499955545
 10
113.4201225844922
 20
-149.5347140468177
 10
113.4201225844922
 20
-149.5347140468177
 10
113.4201225844922
 20
-149.5347140468177
 10
113.1958468684024
 20
-149.5347140468177
 10
113.1958468684024
 20
-149.5347140468177
 97
        0
 97
        1
330
12D
 75
     2
 76
     1
 98
        1
 10
0.0
 20
0.0
450
        0
451
        0
460
0.0
461
0.0
452
        0
462
0.0
453
        0
470

  0
ENDBLK
  5
12C
330
129
100
AcDbEntity
  8
0
100
AcDbBlockEnd
  0
BLOCK
  5
131
330
12F
100
AcDbEntity
  8
0
100
AcDbBlockBegin
  2
Block_10
 70
     0
 10
0.0
 20
0.0
 30
0.0
  3
Block_10
  1

  0
LWPOLYLINE
  5
133
330
12F
100
AcDbEntity
  8
レイヤー 1
 62
   250
420
  2299925
370
     9
100
AcDbPolyline
 90
        4
 70
     1
 43
0.0
 10
111.7194133918785
 20
-152.8881450487047
 10
112.2812825442107
 20
-152.8810894931508
 10
111.3907303447084
 20
-152.5654944932298
 10
111.6949306147253
 20
-153.4800003263347
  0
HATCH
  5
134
330
12F
100
AcDbEntity
  8
レイヤー 1
 62
   250
420
  2299925
440
 33554687
100
AcDbHatch
 10
0.0
 20
0.0
 30
0.0
210
0.0
220
0.0
230
1.0
  2
SOLID
 70
     1
 71
     1
 91
        1
 92
        1
 93
        4
 72
     1
 10
111.7194133918785
 20
-152.8881450487047
 11
112.2812825442107
 21
-152.8810894931508
 72
     1
 10
112.2812825442107
 20
-152.8810894931508
 11
111.3907303447084
 21
-152.5654944932298
 72
     1
 10
111.3907303447084
 20
-152.5654944932298
 11
111.6949306147253
 21
-153.4800003263347
 72
     1
 10
111.6949306147253
 20
-153.4800003263347
 11
111.7194133918785
 21
-152.8881450487047
 97
        1
330
133
 75
     2
 76
     1
 98
        1
 10
0.0
 20
0.0
450
        0
451
        0
460
0.0
461
0.0
452
        0
462
0.0
453
        0
470

  0
LINE
  5
135
330
12F
100
AcDbEntity
  8
レイヤー 1
 62
   250
420
  2299925
370
     9
100
AcDbLine
 10
111.7194133918785
 20
-152.8881450487047
 30
0.0
 11
114.1237363024364
 21
-155.2772972703296
 31
0.0
  0
ENDBLK
  5
132
330
12F
100
AcDbEntity
  8
0
100
AcDbBlockEnd
  0
BLOCK
  5
138
330
136
100
AcDbEntity
  8
0
100
AcDbBlockBegin
  2
Block_11
 70
     0
 10
0.0
 20
0.0
 30
0.0
  3
Block_11
  1

  0
INSERT
  5
13B
330
136
100
AcDbEntity
  8
レイヤー 1
100
AcDbBlockReference
  2
Block_12
 10
0.0
 20
0.0
 30
0.0
  0
ENDBLK
  5
139
330
136
100
AcDbEntity
  8
0
100
AcDbBlockEnd
  0
BLOCK
  5
13C
330
13A
100
AcDbEntity
  8
0
100
AcDbBlockBegin
  2
Block_12
 70
     0
 10
0.0
 20
0.0
 30
0.0
  3
Block_12
  1

  0
SPLINE
  5
13E
330
13A
100
AcDbEntity
  8
レイヤー 1
100
AcDbSpline
210
0.0
220
0.0
230
1.0
 70
     9
 71
     3
 72
    38
 73
    34
 74
     0
 42
0.0000000001
 43
0.0000000001
 40
0.0
 40
0.0
 40
0.0
 40
0.0
 40
1.0
 40
1.0
 40
1.0
 40
2.0
 40
2.0
 40
2.0
 40
3.0
 40
3.0
 40
3.0
 40
4.0
 40
4.0
 40
4.0
 40
5.0
 40
5.0
 40
5.0
 40
6.0
 40
6.0
 40
6.0
 40
7.0
 40
7.0
 40
7.0
 40
8.0
 40
8.0
 40
8.0
 40
9.0
 40
9.0
 40
9.0
 40
10.0
 40
10.0
 40
10.0
 40
11.0
 40
11.0
 40
11.0
 40
11.0
 10
114.6555338255028
 20
-156.358414674452
 30
0.0
 10
114.7485514036045
 20
-156.2357692751771
 30
0.0
 10
114.8736083697191
 20
-156.0559352908471
 30
0.0
 10
114.968693005112
 20
-155.6073838586676
 30
0.0
 10
114.968693005112
 20
-155.6073838586676
 30
0.0
 10
115.1357801361466
 20
-155.626676393385
 30
0.0
 10
115.1357801361466
 20
-155.626676393385
 30
0.0
 10
115.1102864295557
 20
-155.7472547353687
 30
0.0
 10
115.0872042898046
 20
-155.8382052561793
 30
0.0
 10
115.0489637299183
 20
-155.9460367448676
 30
0.0
 10
115.0489637299183
 20
-155.9460367448676
 30
0.0
 10
115.6773491464279
 20
-155.9460367448676
 30
0.0
 10
115.6773491464279
 20
-155.9460367448676
 30
0.0
 10
115.6773491464279
 20
-155.9460367448676
 30
0.0
 10
115.6773491464279
 20
-156.0983099653157
 30
0.0
 10
115.6773491464279
 20
-156.0983099653157
 30
0.0
 10
115.6435872106724
 20
-156.2399033897594
 30
0.0
 10
115.548158065731
 20
-156.4982855511532
 30
0.0
 10
115.4740885127981
 20
-156.6167968358458
 30
0.0
 10
115.4740885127981
 20
-156.6167968358458
 30
0.0
 10
115.3218152923501
 20
-156.5382486587821
 30
0.0
 10
115.3218152923501
 20
-156.5382486587821
 30
0.0
 10
115.4172444372915
 20
-156.4028564062118
 30
0.0
 10
115.4827012515112
 20
-156.2147541927171
 30
0.0
 10
115.5102620153932
 20
-156.1048556467377
 30
0.0
 10
115.5102620153932
 20
-156.1048556467377
 30
0.0
 10
114.9917751448631
 20
-156.1048556467377
 30
0.0
 10
114.9917751448631
 20
-156.1048556467377
 30
0.0
 10
114.892556394888
 20
-156.3460123307051
 30
0.0
 10
114.8184868419551
 20
-156.4345512846761
 30
0.0
 10
114.7802462820688
 20
-156.4789930164358
 30
0.0
 10
114.7802462820688
 20
-156.4789930164358
 30
0.0
 10
114.6555338255028
 20
-156.358414674452
 30
0.0
 10
114.6555338255028
 20
-156.358414674452
 30
0.0
  0
SPLINE
  5
13F
330
13A
100
AcDbEntity
  8
レイヤー 1
100
AcDbSpline
210
0.0
220
0.0
230
1.0
 70
     9
 71
     3
 72
    38
 73
    34
 74
     0
 42
0.0000000001
 43
0.0000000001
 40
0.0
 40
0.0
 40
0.0
 40
0.0
 40
1.0
 40
1.0
 40
1.0
 40
2.0
 40
2.0
 40
2.0
 40
3.0
 40
3.0
 40
3.0
 40
4.0
 40
4.0
 40
4.0
 40
5.0
 40
5.0
 40
5.0
 40
6.0
 40
6.0
 40
6.0
 40
7.0
 40
7.0
 40
7.0
 40
8.0
 40
8.0
 40
8.0
 40
9.0
 40
9.0
 40
9.0
 40
10.0
 40
10.0
 40
10.0
 40
11.0
 40
11.0
 40
11.0
 40
11.0
 10
114.5411566553925
 20
-157.4312174085588
 30
0.0
 10
114.6238389470385
 20
-157.378162938086
 30
0.0
 10
114.7888590207819
 20
-157.2703314493977
 30
0.0
 10
114.8946234521791
 20
-157.0629367011856
 30
0.0
 10
115.0427625580448
 20
-156.771137113585
 30
0.0
 10
115.0427625580448
 20
-156.544794340204
 30
0.0
 10
115.0427625580448
 20
-156.4600449912669
 30
0.0
 10
115.0427625580448
 20
-156.4600449912669
 30
0.0
 10
115.0427625580448
 20
-156.2254339887214
 30
0.0
 10
115.0427625580448
 20
-156.2254339887214
 30
0.0
 10
115.0427625580448
 20
-156.2254339887214
 30
0.0
 10
115.2077826317883
 20
-156.2254339887214
 30
0.0
 10
115.2077826317883
 20
-156.2254339887214
 30
0.0
 10
115.2077826317883
 20
-156.2254339887214
 30
0.0
 10
115.2077826317883
 20
-156.4517767621023
 30
0.0
 10
115.2077826317883
 20
-156.4517767621023
 30
0.0
 10
115.2077826317883
 20
-156.6505587716012
 30
0.0
 10
115.2732394460081
 20
-156.8875813409864
 30
0.0
 10
115.3748697628229
 20
-157.0608696438945
 30
0.0
 10
115.4913139902244
 20
-157.2596516533934
 30
0.0
 10
115.6201605613727
 20
-157.3592149129171
 30
0.0
 10
115.7049099103099
 20
-157.4205376125546
 30
0.0
 10
115.7049099103099
 20
-157.4205376125546
 30
0.0
 10
115.5970784216215
 20
-157.5707437757115
 30
0.0
 10
115.5970784216215
 20
-157.5707437757115
 30
0.0
 10
115.4193114945826
 20
-157.4415526950146
 30
0.0
 10
115.2205294850837
 20
-157.2024630683383
 30
0.0
 10
115.14198130802
 20
-156.8493407811001
 30
0.0
 10
115.0765244938003
 20
-157.0884304077765
 30
0.0
 10
114.9748941769854
 20
-157.357147855626
 30
0.0
 10
114.666213621507
 20
-157.5666096611292
 30
0.0
 10
114.666213621507
 20
-157.5666096611292
 30
0.0
 10
114.5411566553925
 20
-157.4312174085588
 30
0.0
 10
114.5411566553925
 20
-157.4312174085588
 30
0.0
  0
SPLINE
  5
140
330
13A
100
AcDbEntity
  8
レイヤー 1
100
AcDbSpline
210
0.0
220
0.0
230
1.0
 70
    11
 71
     3
 72
    17
 73
    13
 74
     0
 42
0.0000000001
 43
0.0000000001
 40
0.0
 40
0.0
 40
0.0
 40
0.0
 40
1.0
 40
1.0
 40
1.0
 40
2.0
 40
2.0
 40
2.0
 40
3.0
 40
3.0
 40
3.0
 40
4.0
 40
4.0
 40
4.0
 40
4.0
 10
114.4991264904724
 20
-156.5427272829129
 30
0.0
 10
114.4991264904724
 20
-156.5427272829129
 30
0.0
 10
114.2875976276781
 20
-156.5427272829129
 30
0.0
 10
114.2875976276781
 20
-156.5427272829129
 30
0.0
 10
114.2875976276781
 20
-156.5427272829129
 30
0.0
 10
114.2875976276781
 20
-156.7497775215764
 30
0.0
 10
114.2875976276781
 20
-156.7497775215764
 30
0.0
 10
114.2875976276781
 20
-156.7497775215764
 30
0.0
 10
114.4991264904724
 20
-156.7497775215764
 30
0.0
 10
114.4991264904724
 20
-156.7497775215764
 30
0.0
 10
114.4991264904724
 20
-156.7497775215764
 30
0.0
 10
114.4991264904724
 20
-156.5427272829129
 30
0.0
 10
114.4991264904724
 20
-156.5427272829129
 30
0.0
  0
SPLINE
  5
141
330
13A
100
AcDbEntity
  8
レイヤー 1
100
AcDbSpline
210
0.0
220
0.0
230
1.0
 70
    11
 71
     3
 72
    17
 73
    13
 74
     0
 42
0.0000000001
 43
0.0000000001
 40
0.0
 40
0.0
 40
0.0
 40
0.0
 40
1.0
 40
1.0
 40
1.0
 40
2.0
 40
2.0
 40
2.0
 40
3.0
 40
3.0
 40
3.0
 40
4.0
 40
4.0
 40
4.0
 40
4.0
 10
114.4991264904724
 20
-156.2168212500083
 30
0.0
 10
114.4991264904724
 20
-156.2168212500083
 30
0.0
 10
114.2875976276781
 20
-156.2168212500083
 30
0.0
 10
114.2875976276781
 20
-156.2168212500083
 30
0.0
 10
114.2875976276781
 20
-156.2168212500083
 30
0.0
 10
114.2875976276781
 20
-156.4197373740895
 30
0.0
 10
114.2875976276781
 20
-156.4197373740895
 30
0.0
 10
114.2875976276781
 20
-156.4197373740895
 30
0.0
 10
114.4991264904724
 20
-156.4197373740895
 30
0.0
 10
114.4991264904724
 20
-156.4197373740895
 30
0.0
 10
114.4991264904724
 20
-156.4197373740895
 30
0.0
 10
114.4991264904724
 20
-156.2168212500083
 30
0.0
 10
114.4991264904724
 20
-156.2168212500083
 30
0.0
  0
SPLINE
  5
142
330
13A
100
AcDbEntity
  8
レイヤー 1
100
AcDbSpline
210
0.0
220
0.0
230
1.0
 70
    11
 71
     3
 72
    17
 73
    13
 74
     0
 42
0.0000000001
 43
0.0000000001
 40
0.0
 40
0.0
 40
0.0
 40
0.0
 40
1.0
 40
1.0
 40
1.0
 40
2.0
 40
2.0
 40
2.0
 40
3.0
 40
3.0
 40
3.0
 40
4.0
 40
4.0
 40
4.0
 40
4.0
 10
114.1329128403904
 20
-156.5427272829129
 30
0.0
 10
114.1329128403904
 20
-156.5427272829129
 30
0.0
 10
113.9258626017269
 20
-156.5427272829129
 30
0.0
 10
113.9258626017269
 20
-156.5427272829129
 30
0.0
 10
113.9258626017269
 20
-156.5427272829129
 30
0.0
 10
113.9258626017269
 20
-156.7497775215764
 30
0.0
 10
113.9258626017269
 20
-156.7497775215764
 30
0.0
 10
113.9258626017269
 20
-156.7497775215764
 30
0.0
 10
114.1329128403904
 20
-156.7497775215764
 30
0.0
 10
114.1329128403904
 20
-156.7497775215764
 30
0.0
 10
114.1329128403904
 20
-156.7497775215764
 30
0.0
 10
114.1329128403904
 20
-156.5427272829129
 30
0.0
 10
114.1329128403904
 20
-156.5427272829129
 30
0.0
  0
SPLINE
  5
143
330
13A
100
AcDbEntity
  8
レイヤー 1
100
AcDbSpline
210
0.0
220
0.0
230
1.0
 70
    11
 71
     3
 72
    17
 73
    13
 74
     0
 42
0.0000000001
 43
0.0000000001
 40
0.0
 40
0.0
 40
0.0
 40
0.0
 40
1.0
 40
1.0
 40
1.0
 40
2.0
 40
2.0
 40
2.0
 40
3.0
 40
3.0
 40
3.0
 40
4.0
 40
4.0
 40
4.0
 40
4.0
 10
114.1329128403904
 20
-156.2168212500083
 30
0.0
 10
114.1329128403904
 20
-156.2168212500083
 30
0.0
 10
113.9258626017269
 20
-156.2168212500083
 30
0.0
 10
113.9258626017269
 20
-156.2168212500083
 30
0.0
 10
113.9258626017269
 20
-156.2168212500083
 30
0.0
 10
113.9258626017269
 20
-156.4197373740895
 30
0.0
 10
113.9258626017269
 20
-156.4197373740895
 30
0.0
 10
113.9258626017269
 20
-156.4197373740895
 30
0.0
 10
114.1329128403904
 20
-156.4197373740895
 30
0.0
 10
114.1329128403904
 20
-156.4197373740895
 30
0.0
 10
114.1329128403904
 20
-156.4197373740895
 30
0.0
 10
114.1329128403904
 20
-156.2168212500083
 30
0.0
 10
114.1329128403904
 20
-156.2168212500083
 30
0.0
  0
SPLINE
  5
144
330
13A
100
AcDbEntity
  8
レイヤー 1
100
AcDbSpline
210
0.0
220
0.0
230
1.0
 70
    11
 71
     3
 72
    89
 73
    85
 74
     0
 42
0.0000000001
 43
0.0000000001
 40
0.0
 40
0.0
 40
0.0
 40
0.0
 40
1.0
 40
1.0
 40
1.0
 40
2.0
 40
2.0
 40
2.0
 40
3.0
 40
3.0
 40
3.0
 40
4.0
 40
4.0
 40
4.0
 40
5.0
 40
5.0
 40
5.0
 40
6.0
 40
6.0
 40
6.0
 40
7.0
 40
7.0
 40
7.0
 40
8.0
 40
8.0
 40
8.0
 40
9.0
 40
9.0
 40
9.0
 40
10.0
 40
10.0
 40
10.0
 40
11.0
 40
11.0
 40
11.0
 40
12.0
 40
12.0
 40
12.0
 40
13.0
 40
13.0
 40
13.0
 40
14.0
 40
14.0
 40
14.0
 40
15.0
 40
15.0
 40
15.0
 40
16.0
 40
16.0
 40
16.0
 40
17.0
 40
17.0
 40
17.0
 40
18.0
 40
18.0
 40
18.0
 40
19.0
 40
19.0
 40
19.0
 40
20.0
 40
20.0
 40
20.0
 40
21.0
 40
21.0
 40
21.0
 40
22.0
 40
22.0
 40
22.0
 40
23.0
 40
23.0
 40
23.0
 40
24.0
 40
24.0
 40
24.0
 40
25.0
 40
25.0
 40
25.0
 40
26.0
 40
26.0
 40
26.0
 40
27.0
 40
27.0
 40
27.0
 40
28.0
 40
28.0
 40
28.0
 40
28.0
 10
114.1329128403904
 20
-155.7682698178288
 30
0.0
 10
114.1329128403904
 20
-155.7682698178288
 30
0.0
 10
114.1329128403904
 20
-155.6073838586676
 30
0.0
 10
114.1329128403904
 20
-155.6073838586676
 30
0.0
 10
114.1329128403904
 20
-155.6073838586676
 30
0.0
 10
114.2875976276781
 20
-155.6073838586676
 30
0.0
 10
114.2875976276781
 20
-155.6073838586676
 30
0.0
 10
114.2875976276781
 20
-155.6073838586676
 30
0.0
 10
114.2875976276781
 20
-155.7682698178288
 30
0.0
 10
114.2875976276781
 20
-155.7682698178288
 30
0.0
 10
114.2875976276781
 20
-155.7682698178288
 30
0.0
 10
114.6810275320936
 20
-155.7682698178288
 30
0.0
 10
114.6810275320936
 20
-155.7682698178288
 30
0.0
 10
114.6810275320936
 20
-155.7682698178288
 30
0.0
 10
114.6810275320936
 20
-155.9226100955679
 30
0.0
 10
114.6810275320936
 20
-155.9226100955679
 30
0.0
 10
114.6810275320936
 20
-155.9226100955679
 30
0.0
 10
114.2875976276781
 20
-155.9226100955679
 30
0.0
 10
114.2875976276781
 20
-155.9226100955679
 30
0.0
 10
114.2875976276781
 20
-155.9226100955679
 30
0.0
 10
114.2875976276781
 20
-156.0772948828557
 30
0.0
 10
114.2875976276781
 20
-156.0772948828557
 30
0.0
 10
114.2875976276781
 20
-156.0772948828557
 30
0.0
 10
114.6427869722073
 20
-156.0772948828557
 30
0.0
 10
114.6427869722073
 20
-156.0772948828557
 30
0.0
 10
114.6427869722073
 20
-156.0772948828557
 30
0.0
 10
114.6427869722073
 20
-156.8896483982776
 30
0.0
 10
114.6427869722073
 20
-156.8896483982776
 30
0.0
 10
114.6427869722073
 20
-156.8896483982776
 30
0.0
 10
114.2875976276781
 20
-156.8896483982776
 30
0.0
 10
114.2875976276781
 20
-156.8896483982776
 30
0.0
 10
114.2875976276781
 20
-156.8896483982776
 30
0.0
 10
114.2875976276781
 20
-157.0588025866033
 30
0.0
 10
114.2875976276781
 20
-157.0588025866033
 30
0.0
 10
114.2875976276781
 20
-157.0588025866033
 30
0.0
 10
114.6958414426802
 20
-157.0588025866033
 30
0.0
 10
114.6958414426802
 20
-157.0588025866033
 30
0.0
 10
114.6958414426802
 20
-157.0588025866033
 30
0.0
 10
114.6958414426802
 20
-157.2131428643425
 30
0.0
 10
114.6958414426802
 20
-157.2131428643425
 30
0.0
 10
114.6958414426802
 20
-157.2131428643425
 30
0.0
 10
114.2875976276781
 20
-157.2131428643425
 30
0.0
 10
114.2875976276781
 20
-157.2131428643425
 30
0.0
 10
114.2875976276781
 20
-157.2131428643425
 30
0.0
 10
114.2875976276781
 20
-157.5666096611292
 30
0.0
 10
114.2875976276781
 20
-157.5666096611292
 30
0.0
 10
114.2875976276781
 20
-157.5666096611292
 30
0.0
 10
114.1329128403904
 20
-157.5666096611292
 30
0.0
 10
114.1329128403904
 20
-157.5666096611292
 30
0.0
 10
114.1329128403904
 20
-157.5666096611292
 30
0.0
 10
114.1329128403904
 20
-157.2131428643425
 30
0.0
 10
114.1329128403904
 20
-157.2131428643425
 30
0.0
 10
114.1329128403904
 20
-157.2131428643425
 30
0.0
 10
113.7226019680971
 20
-157.2131428643425
 30
0.0
 10
113.7226019680971
 20
-157.2131428643425
 30
0.0
 10
113.7226019680971
 20
-157.2131428643425
 30
0.0
 10
113.7226019680971
 20
-157.0588025866033
 30
0.0
 10
113.7226019680971
 20
-157.0588025866033
 30
0.0
 10
113.7226019680971
 20
-157.0588025866033
 30
0.0
 10
114.1329128403904
 20
-157.0588025866033
 30
0.0
 10
114.1329128403904
 20
-157.0588025866033
 30
0.0
 10
114.1329128403904
 20
-157.0588025866033
 30
0.0
 10
114.1329128403904
 20
-156.8896483982776
 30
0.0
 10
114.1329128403904
 20
-156.8896483982776
 30
0.0
 10
114.1329128403904
 20
-156.8896483982776
 30
0.0
 10
113.7839246677346
 20
-156.8896483982776
 30
0.0
 10
113.7839246677346
 20
-156.8896483982776
 30
0.0
 10
113.7839246677346
 20
-156.8896483982776
 30
0.0
 10
113.7839246677346
 20
-156.0772948828557
 30
0.0
 10
113.7839246677346
 20
-156.0772948828557
 30
0.0
 10
113.7839246677346
 20
-156.0772948828557
 30
0.0
 10
114.1329128403904
 20
-156.0772948828557
 30
0.0
 10
114.1329128403904
 20
-156.0772948828557
 30
0.0
 10
114.1329128403904
 20
-156.0772948828557
 30
0.0
 10
114.1329128403904
 20
-155.9226100955679
 30
0.0
 10
114.1329128403904
 20
-155.9226100955679
 30
0.0
 10
114.1329128403904
 20
-155.9226100955679
 30
0.0
 10
113.7436170505571
 20
-155.9226100955679
 30
0.0
 10
113.7436170505571
 20
-155.9226100955679
 30
0.0
 10
113.7436170505571
 20
-155.9226100955679
 30
0.0
 10
113.7436170505571
 20
-155.7682698178288
 30
0.0
 10
113.7436170505571
 20
-155.7682698178288
 30
0.0
 10
113.7436170505571
 20
-155.7682698178288
 30
0.0
 10
114.1329128403904
 20
-155.7682698178288
 30
0.0
 10
114.1329128403904
 20
-155.7682698178288
 30
0.0
  0
HATCH
  5
145
330
13A
100
AcDbEntity
  8
レイヤー 1
 62
    12
420
 15007762
440
 33554687
100
AcDbHatch
 10
0.0
 20
0.0
 30
0.0
210
0.0
220
0.0
230
1.0
  2
SOLID
 70
     1
 71
     1
 91
        7
 92
        1
 93
        1
 72
     4
 94
        3
 73
     0
 74
     0
 95
       38
 96
       34
 40
0.0
 40
0.0
 40
0.0
 40
0.0
 40
1.0
 40
1.0
 40
1.0
 40
2.0
 40
2.0
 40
2.0
 40
3.0
 40
3.0
 40
3.0
 40
4.0
 40
4.0
 40
4.0
 40
5.0
 40
5.0
 40
5.0
 40
6.0
 40
6.0
 40
6.0
 40
7.0
 40
7.0
 40
7.0
 40
8.0
 40
8.0
 40
8.0
 40
9.0
 40
9.0
 40
9.0
 40
10.0
 40
10.0
 40
10.0
 40
11.0
 40
11.0
 40
11.0
 40
11.0
 10
114.6555338255028
 20
-156.358414674452
 10
114.7485514036045
 20
-156.2357692751771
 10
114.8736083697191
 20
-156.0559352908471
 10
114.968693005112
 20
-155.6073838586676
 10
114.968693005112
 20
-155.6073838586676
 10
115.1357801361466
 20
-155.626676393385
 10
115.1357801361466
 20
-155.626676393385
 10
115.1102864295557
 20
-155.7472547353687
 10
115.0872042898046
 20
-155.8382052561793
 10
115.0489637299183
 20
-155.9460367448676
 10
115.0489637299183
 20
-155.9460367448676
 10
115.6773491464279
 20
-155.9460367448676
 10
115.6773491464279
 20
-155.9460367448676
 10
115.6773491464279
 20
-155.9460367448676
 10
115.6773491464279
 20
-156.0983099653157
 10
115.6773491464279
 20
-156.0983099653157
 10
115.6435872106724
 20
-156.2399033897594
 10
115.548158065731
 20
-156.4982855511532
 10
115.4740885127981
 20
-156.6167968358458
 10
115.4740885127981
 20
-156.6167968358458
 10
115.3218152923501
 20
-156.5382486587821
 10
115.3218152923501
 20
-156.5382486587821
 10
115.4172444372915
 20
-156.4028564062118
 10
115.4827012515112
 20
-156.2147541927171
 10
115.5102620153932
 20
-156.1048556467377
 10
115.5102620153932
 20
-156.1048556467377
 10
114.9917751448631
 20
-156.1048556467377
 10
114.9917751448631
 20
-156.1048556467377
 10
114.892556394888
 20
-156.3460123307051
 10
114.8184868419551
 20
-156.4345512846761
 10
114.7802462820688
 20
-156.4789930164358
 10
114.7802462820688
 20
-156.4789930164358
 10
114.6555338255028
 20
-156.358414674452
 10
114.6555338255028
 20
-156.358414674452
 97
        0
 97
        1
330
13E
 92
        1
 93
        1
 72
     4
 94
        3
 73
     0
 74
     0
 95
       38
 96
       34
 40
0.0
 40
0.0
 40
0.0
 40
0.0
 40
1.0
 40
1.0
 40
1.0
 40
2.0
 40
2.0
 40
2.0
 40
3.0
 40
3.0
 40
3.0
 40
4.0
 40
4.0
 40
4.0
 40
5.0
 40
5.0
 40
5.0
 40
6.0
 40
6.0
 40
6.0
 40
7.0
 40
7.0
 40
7.0
 40
8.0
 40
8.0
 40
8.0
 40
9.0
 40
9.0
 40
9.0
 40
10.0
 40
10.0
 40
10.0
 40
11.0
 40
11.0
 40
11.0
 40
11.0
 10
114.5411566553925
 20
-157.4312174085588
 10
114.6238389470385
 20
-157.378162938086
 10
114.7888590207819
 20
-157.2703314493977
 10
114.8946234521791
 20
-157.0629367011856
 10
115.0427625580448
 20
-156.771137113585
 10
115.0427625580448
 20
-156.544794340204
 10
115.0427625580448
 20
-156.4600449912669
 10
115.0427625580448
 20
-156.4600449912669
 10
115.0427625580448
 20
-156.2254339887214
 10
115.0427625580448
 20
-156.2254339887214
 10
115.0427625580448
 20
-156.2254339887214
 10
115.2077826317883
 20
-156.2254339887214
 10
115.2077826317883
 20
-156.2254339887214
 10
115.2077826317883
 20
-156.2254339887214
 10
115.2077826317883
 20
-156.4517767621023
 10
115.2077826317883
 20
-156.4517767621023
 10
115.2077826317883
 20
-156.6505587716012
 10
115.2732394460081
 20
-156.8875813409864
 10
115.3748697628229
 20
-157.0608696438945
 10
115.4913139902244
 20
-157.2596516533934
 10
115.6201605613727
 20
-157.3592149129171
 10
115.7049099103099
 20
-157.4205376125546
 10
115.7049099103099
 20
-157.4205376125546
 10
115.5970784216215
 20
-157.5707437757115
 10
115.5970784216215
 20
-157.5707437757115
 10
115.4193114945826
 20
-157.4415526950146
 10
115.2205294850837
 20
-157.2024630683383
 10
115.14198130802
 20
-156.8493407811001
 10
115.0765244938003
 20
-157.0884304077765
 10
114.9748941769854
 20
-157.357147855626
 10
114.666213621507
 20
-157.5666096611292
 10
114.666213621507
 20
-157.5666096611292
 10
114.5411566553925
 20
-157.4312174085588
 10
114.5411566553925
 20
-157.4312174085588
 97
        0
 97
        1
330
13F
 92
        1
 93
        1
 72
     4
 94
        3
 73
     0
 74
     0
 95
       17
 96
       13
 40
0.0
 40
0.0
 40
0.0
 40
0.0
 40
1.0
 40
1.0
 40
1.0
 40
2.0
 40
2.0
 40
2.0
 40
3.0
 40
3.0
 40
3.0
 40
4.0
 40
4.0
 40
4.0
 40
4.0
 10
114.4991264904724
 20
-156.5427272829129
 10
114.4991264904724
 20
-156.5427272829129
 10
114.2875976276781
 20
-156.5427272829129
 10
114.2875976276781
 20
-156.5427272829129
 10
114.2875976276781
 20
-156.5427272829129
 10
114.2875976276781
 20
-156.7497775215764
 10
114.2875976276781
 20
-156.7497775215764
 10
114.2875976276781
 20
-156.7497775215764
 10
114.4991264904724
 20
-156.7497775215764
 10
114.4991264904724
 20
-156.7497775215764
 10
114.4991264904724
 20
-156.7497775215764
 10
114.4991264904724
 20
-156.5427272829129
 10
114.4991264904724
 20
-156.5427272829129
 97
        0
 97
        1
330
140
 92
        1
 93
        1
 72
     4
 94
        3
 73
     0
 74
     0
 95
       17
 96
       13
 40
0.0
 40
0.0
 40
0.0
 40
0.0
 40
1.0
 40
1.0
 40
1.0
 40
2.0
 40
2.0
 40
2.0
 40
3.0
 40
3.0
 40
3.0
 40
4.0
 40
4.0
 40
4.0
 40
4.0
 10
114.4991264904724
 20
-156.2168212500083
 10
114.4991264904724
 20
-156.2168212500083
 10
114.2875976276781
 20
-156.2168212500083
 10
114.2875976276781
 20
-156.2168212500083
 10
114.2875976276781
 20
-156.2168212500083
 10
114.2875976276781
 20
-156.4197373740895
 10
114.2875976276781
 20
-156.4197373740895
 10
114.2875976276781
 20
-156.4197373740895
 10
114.4991264904724
 20
-156.4197373740895
 10
114.4991264904724
 20
-156.4197373740895
 10
114.4991264904724
 20
-156.4197373740895
 10
114.4991264904724
 20
-156.2168212500083
 10
114.4991264904724
 20
-156.2168212500083
 97
        0
 97
        1
330
141
 92
        1
 93
        1
 72
     4
 94
        3
 73
     0
 74
     0
 95
       17
 96
       13
 40
0.0
 40
0.0
 40
0.0
 40
0.0
 40
1.0
 40
1.0
 40
1.0
 40
2.0
 40
2.0
 40
2.0
 40
3.0
 40
3.0
 40
3.0
 40
4.0
 40
4.0
 40
4.0
 40
4.0
 10
114.1329128403904
 20
-156.5427272829129
 10
114.1329128403904
 20
-156.5427272829129
 10
113.9258626017269
 20
-156.5427272829129
 10
113.9258626017269
 20
-156.5427272829129
 10
113.9258626017269
 20
-156.5427272829129
 10
113.9258626017269
 20
-156.7497775215764
 10
113.9258626017269
 20
-156.7497775215764
 10
113.9258626017269
 20
-156.7497775215764
 10
114.1329128403904
 20
-156.7497775215764
 10
114.1329128403904
 20
-156.7497775215764
 10
114.1329128403904
 20
-156.7497775215764
 10
114.1329128403904
 20
-156.5427272829129
 10
114.1329128403904
 20
-156.5427272829129
 97
        0
 97
        1
330
142
 92
        1
 93
        1
 72
     4
 94
        3
 73
     0
 74
     0
 95
       17
 96
       13
 40
0.0
 40
0.0
 40
0.0
 40
0.0
 40
1.0
 40
1.0
 40
1.0
 40
2.0
 40
2.0
 40
2.0
 40
3.0
 40
3.0
 40
3.0
 40
4.0
 40
4.0
 40
4.0
 40
4.0
 10
114.1329128403904
 20
-156.2168212500083
 10
114.1329128403904
 20
-156.2168212500083
 10
113.9258626017269
 20
-156.2168212500083
 10
113.9258626017269
 20
-156.2168212500083
 10
113.9258626017269
 20
-156.2168212500083
 10
113.9258626017269
 20
-156.4197373740895
 10
113.9258626017269
 20
-156.4197373740895
 10
113.9258626017269
 20
-156.4197373740895
 10
114.1329128403904
 20
-156.4197373740895
 10
114.1329128403904
 20
-156.4197373740895
 10
114.1329128403904
 20
-156.4197373740895
 10
114.1329128403904
 20
-156.2168212500083
 10
114.1329128403904
 20
-156.2168212500083
 97
        0
 97
        1
330
143
 92
        1
 93
        1
 72
     4
 94
        3
 73
     0
 74
     0
 95
       89
 96
       85
 40
0.0
 40
0.0
 40
0.0
 40
0.0
 40
1.0
 40
1.0
 40
1.0
 40
2.0
 40
2.0
 40
2.0
 40
3.0
 40
3.0
 40
3.0
 40
4.0
 40
4.0
 40
4.0
 40
5.0
 40
5.0
 40
5.0
 40
6.0
 40
6.0
 40
6.0
 40
7.0
 40
7.0
 40
7.0
 40
8.0
 40
8.0
 40
8.0
 40
9.0
 40
9.0
 40
9.0
 40
10.0
 40
10.0
 40
10.0
 40
11.0
 40
11.0
 40
11.0
 40
12.0
 40
12.0
 40
12.0
 40
13.0
 40
13.0
 40
13.0
 40
14.0
 40
14.0
 40
14.0
 40
15.0
 40
15.0
 40
15.0
 40
16.0
 40
16.0
 40
16.0
 40
17.0
 40
17.0
 40
17.0
 40
18.0
 40
18.0
 40
18.0
 40
19.0
 40
19.0
 40
19.0
 40
20.0
 40
20.0
 40
20.0
 40
21.0
 40
21.0
 40
21.0
 40
22.0
 40
22.0
 40
22.0
 40
23.0
 40
23.0
 40
23.0
 40
24.0
 40
24.0
 40
24.0
 40
25.0
 40
25.0
 40
25.0
 40
26.0
 40
26.0
 40
26.0
 40
27.0
 40
27.0
 40
27.0
 40
28.0
 40
28.0
 40
28.0
 40
28.0
 10
114.1329128403904
 20
-155.7682698178288
 10
114.1329128403904
 20
-155.7682698178288
 10
114.1329128403904
 20
-155.6073838586676
 10
114.1329128403904
 20
-155.6073838586676
 10
114.1329128403904
 20
-155.6073838586676
 10
114.2875976276781
 20
-155.6073838586676
 10
114.2875976276781
 20
-155.6073838586676
 10
114.2875976276781
 20
-155.6073838586676
 10
114.2875976276781
 20
-155.7682698178288
 10
114.2875976276781
 20
-155.7682698178288
 10
114.2875976276781
 20
-155.7682698178288
 10
114.6810275320936
 20
-155.7682698178288
 10
114.6810275320936
 20
-155.7682698178288
 10
114.6810275320936
 20
-155.7682698178288
 10
114.6810275320936
 20
-155.9226100955679
 10
114.6810275320936
 20
-155.9226100955679
 10
114.6810275320936
 20
-155.9226100955679
 10
114.2875976276781
 20
-155.9226100955679
 10
114.2875976276781
 20
-155.9226100955679
 10
114.2875976276781
 20
-155.9226100955679
 10
114.2875976276781
 20
-156.0772948828557
 10
114.2875976276781
 20
-156.0772948828557
 10
114.2875976276781
 20
-156.0772948828557
 10
114.6427869722073
 20
-156.0772948828557
 10
114.6427869722073
 20
-156.0772948828557
 10
114.6427869722073
 20
-156.0772948828557
 10
114.6427869722073
 20
-156.8896483982776
 10
114.6427869722073
 20
-156.8896483982776
 10
114.6427869722073
 20
-156.8896483982776
 10
114.2875976276781
 20
-156.8896483982776
 10
114.2875976276781
 20
-156.8896483982776
 10
114.2875976276781
 20
-156.8896483982776
 10
114.2875976276781
 20
-157.0588025866033
 10
114.2875976276781
 20
-157.0588025866033
 10
114.2875976276781
 20
-157.0588025866033
 10
114.6958414426802
 20
-157.0588025866033
 10
114.6958414426802
 20
-157.0588025866033
 10
114.6958414426802
 20
-157.0588025866033
 10
114.6958414426802
 20
-157.2131428643425
 10
114.6958414426802
 20
-157.2131428643425
 10
114.6958414426802
 20
-157.2131428643425
 10
114.2875976276781
 20
-157.2131428643425
 10
114.2875976276781
 20
-157.2131428643425
 10
114.2875976276781
 20
-157.2131428643425
 10
114.2875976276781
 20
-157.5666096611292
 10
114.2875976276781
 20
-157.5666096611292
 10
114.2875976276781
 20
-157.5666096611292
 10
114.1329128403904
 20
-157.5666096611292
 10
114.1329128403904
 20
-157.5666096611292
 10
114.1329128403904
 20
-157.5666096611292
 10
114.1329128403904
 20
-157.2131428643425
 10
114.1329128403904
 20
-157.2131428643425
 10
114.1329128403904
 20
-157.2131428643425
 10
113.7226019680971
 20
-157.2131428643425
 10
113.7226019680971
 20
-157.2131428643425
 10
113.7226019680971
 20
-157.2131428643425
 10
113.7226019680971
 20
-157.0588025866033
 10
113.7226019680971
 20
-157.0588025866033
 10
113.7226019680971
 20
-157.0588025866033
 10
114.1329128403904
 20
-157.0588025866033
 10
114.1329128403904
 20
-157.0588025866033
 10
114.1329128403904
 20
-157.0588025866033
 10
114.1329128403904
 20
-156.8896483982776
 10
114.1329128403904
 20
-156.8896483982776
 10
114.1329128403904
 20
-156.8896483982776
 10
113.7839246677346
 20
-156.8896483982776
 10
113.7839246677346
 20
-156.8896483982776
 10
113.7839246677346
 20
-156.8896483982776
 10
113.7839246677346
 20
-156.0772948828557
 10
113.7839246677346
 20
-156.0772948828557
 10
113.7839246677346
 20
-156.0772948828557
 10
114.1329128403904
 20
-156.0772948828557
 10
114.1329128403904
 20
-156.0772948828557
 10
114.1329128403904
 20
-156.0772948828557
 10
114.1329128403904
 20
-155.9226100955679
 10
114.1329128403904
 20
-155.9226100955679
 10
114.1329128403904
 20
-155.9226100955679
 10
113.7436170505571
 20
-155.9226100955679
 10
113.7436170505571
 20
-155.9226100955679
 10
113.7436170505571
 20
-155.9226100955679
 10
113.7436170505571
 20
-155.7682698178288
 10
113.7436170505571
 20
-155.7682698178288
 10
113.7436170505571
 20
-155.7682698178288
 10
114.1329128403904
 20
-155.7682698178288
 10
114.1329128403904
 20
-155.7682698178288
 97
        0
 97
        1
330
144
 75
     2
 76
     1
 98
        1
 10
0.0
 20
0.0
450
        0
451
        0
460
0.0
461
0.0
452
        0
462
0.0
453
        0
470

  0
SPLINE
  5
146
330
13A
100
AcDbEntity
  8
レイヤー 1
100
AcDbSpline
210
0.0
220
0.0
230
1.0
 70
     9
 71
     3
 72
    17
 73
    13
 74
     0
 42
0.0000000001
 43
0.0000000001
 40
0.0
 40
0.0
 40
0.0
 40
0.0
 40
1.0
 40
1.0
 40
1.0
 40
2.0
 40
2.0
 40
2.0
 40
3.0
 40
3.0
 40
3.0
 40
4.0
 40
4.0
 40
4.0
 40
4.0
 10
117.1701090201866
 20
-157.2575845961023
 30
0.0
 10
117.3899061121456
 20
-157.3698947089214
 30
0.0
 10
117.6565565027039
 20
-157.4077907592591
 30
0.0
 10
117.7854030738522
 20
-157.4184705552634
 30
0.0
 10
117.7854030738522
 20
-157.4184705552634
 30
0.0
 10
117.7158121450502
 20
-157.5728108330026
 30
0.0
 10
117.7158121450502
 20
-157.5728108330026
 30
0.0
 10
117.5952338030665
 20
-157.557996922416
 30
0.0
 10
117.3327175270904
 20
-157.5176893052386
 30
0.0
 10
117.0684787033718
 20
-157.3719617662125
 30
0.0
 10
117.0684787033718
 20
-157.3719617662125
 30
0.0
 10
117.1701090201866
 20
-157.2575845961023
 30
0.0
 10
117.1701090201866
 20
-157.2575845961023
 30
0.0
  0
SPLINE
  5
147
330
13A
100
AcDbEntity
  8
レイヤー 1
100
AcDbSpline
210
0.0
220
0.0
230
1.0
 70
    11
 71
     3
 72
    50
 73
    46
 74
     0
 42
0.0000000001
 43
0.0000000001
 40
0.0
 40
0.0
 40
0.0
 40
0.0
 40
1.0
 40
1.0
 40
1.0
 40
2.0
 40
2.0
 40
2.0
 40
3.0
 40
3.0
 40
3.0
 40
4.0
 40
4.0
 40
4.0
 40
5.0
 40
5.0
 40
5.0
 40
6.0
 40
6.0
 40
6.0
 40
7.0
 40
7.0
 40
7.0
 40
8.0
 40
8.0
 40
8.0
 40
9.0
 40
9.0
 40
9.0
 40
10.0
 40
10.0
 40
10.0
 40
11.0
 40
11.0
 40
11.0
 40
12.0
 40
12.0
 40
12.0
 40
13.0
 40
13.0
 40
13.0
 40
14.0
 40
14.0
 40
14.0
 40
15.0
 40
15.0
 40
15.0
 40
15.0
 10
117.0577989073675
 20
-155.9057291276902
 30
0.0
 10
117.0577989073675
 20
-155.9057291276902
 30
0.0
 10
117.7940158125654
 20
-155.9057291276902
 30
0.0
 10
117.7940158125654
 20
-155.9057291276902
 30
0.0
 10
117.7940158125654
 20
-155.9057291276902
 30
0.0
 10
117.7940158125654
 20
-156.0307860938048
 30
0.0
 10
117.7940158125654
 20
-156.0307860938048
 30
0.0
 10
117.7940158125654
 20
-156.0307860938048
 30
0.0
 10
117.4639756650784
 20
-156.0307860938048
 30
0.0
 10
117.4639756650784
 20
-156.0307860938048
 30
0.0
 10
117.4639756650784
 20
-156.0307860938048
 30
0.0
 10
117.4639756650784
 20
-156.3057047135277
 30
0.0
 10
117.4639756650784
 20
-156.3057047135277
 30
0.0
 10
117.4639756650784
 20
-156.3057047135277
 30
0.0
 10
117.3075683300481
 20
-156.3057047135277
 30
0.0
 10
117.3075683300481
 20
-156.3057047135277
 30
0.0
 10
117.3075683300481
 20
-156.3057047135277
 30
0.0
 10
117.3075683300481
 20
-156.0307860938048
 30
0.0
 10
117.3075683300481
 20
-156.0307860938048
 30
0.0
 10
117.3075683300481
 20
-156.0307860938048
 30
0.0
 10
117.0429849967809
 20
-156.0307860938048
 30
0.0
 10
117.0429849967809
 20
-156.0307860938048
 30
0.0
 10
117.0174912901901
 20
-156.1596326649531
 30
0.0
 10
116.9668483865569
 20
-156.2505831857637
 30
0.0
 10
116.8696966938728
 20
-156.3332654774097
 30
0.0
 10
116.8696966938728
 20
-156.3332654774097
 30
0.0
 10
116.7467067850494
 20
-156.2254339887214
 30
0.0
 10
116.7467067850494
 20
-156.2254339887214
 30
0.0
 10
116.8820990376197
 20
-156.1151909331934
 30
0.0
 10
116.9055256869194
 20
-155.9777316233319
 30
0.0
 10
116.9055256869194
 20
-155.9036620703991
 30
0.0
 10
116.9055256869194
 20
-155.9036620703991
 30
0.0
 10
116.9055256869194
 20
-155.6604383291404
 30
0.0
 10
116.9055256869194
 20
-155.6604383291404
 30
0.0
 10
117.375092201559
 20
-155.6604383291404
 30
0.0
 10
117.5421793325936
 20
-155.620130711963
 30
0.0
 10
117.686184323877
 20
-155.5777560374944
 30
0.0
 10
117.686184323877
 20
-155.5777560374944
 30
0.0
 10
117.7454399662233
 20
-155.7155598569044
 30
0.0
 10
117.7454399662233
 20
-155.7155598569044
 30
0.0
 10
117.4746554610827
 20
-155.7851507857065
 30
0.0
 10
117.1594292241824
 20
-155.7896294098373
 30
0.0
 10
117.0577989073675
 20
-155.7896294098373
 30
0.0
 10
117.0577989073675
 20
-155.7896294098373
 30
0.0
 10
117.0577989073675
 20
-155.9057291276902
 30
0.0
 10
117.0577989073675
 20
-155.9057291276902
 30
0.0
  0
SPLINE
  5
148
330
13A
100
AcDbEntity
  8
レイヤー 1
100
AcDbSpline
210
0.0
220
0.0
230
1.0
 70
    11
 71
     3
 72
    17
 73
    13
 74
     0
 42
0.0000000001
 43
0.0000000001
 40
0.0
 40
0.0
 40
0.0
 40
0.0
 40
1.0
 40
1.0
 40
1.0
 40
2.0
 40
2.0
 40
2.0
 40
3.0
 40
3.0
 40
3.0
 40
4.0
 40
4.0
 40
4.0
 40
4.0
 10
117.3940402267279
 20
-156.9761202949573
 30
0.0
 10
117.3940402267279
 20
-156.9761202949573
 30
0.0
 10
116.2347655959413
 20
-156.9761202949573
 30
0.0
 10
116.2347655959413
 20
-156.9761202949573
 30
0.0
 10
116.2347655959413
 20
-156.9761202949573
 30
0.0
 10
116.2347655959413
 20
-157.1159911716585
 30
0.0
 10
116.2347655959413
 20
-157.1159911716585
 30
0.0
 10
116.2347655959413
 20
-157.1159911716585
 30
0.0
 10
117.3940402267279
 20
-157.1159911716585
 30
0.0
 10
117.3940402267279
 20
-157.1159911716585
 30
0.0
 10
117.3940402267279
 20
-157.1159911716585
 30
0.0
 10
117.3940402267279
 20
-156.9761202949573
 30
0.0
 10
117.3940402267279
 20
-156.9761202949573
 30
0.0
  0
SPLINE
  5
149
330
13A
100
AcDbEntity
  8
レイヤー 1
100
AcDbSpline
210
0.0
220
0.0
230
1.0
 70
    11
 71
     3
 72
    17
 73
    13
 74
     0
 42
0.0000000001
 43
0.0000000001
 40
0.0
 40
0.0
 40
0.0
 40
0.0
 40
1.0
 40
1.0
 40
1.0
 40
2.0
 40
2.0
 40
2.0
 40
3.0
 40
3.0
 40
3.0
 40
4.0
 40
4.0
 40
4.0
 40
4.0
 10
117.3940402267279
 20
-156.7246283245341
 30
0.0
 10
117.3940402267279
 20
-156.7246283245341
 30
0.0
 10
116.2347655959413
 20
-156.7246283245341
 30
0.0
 10
116.2347655959413
 20
-156.7246283245341
 30
0.0
 10
116.2347655959413
 20
-156.7246283245341
 30
0.0
 10
116.2347655959413
 20
-156.8662217489779
 30
0.0
 10
116.2347655959413
 20
-156.8662217489779
 30
0.0
 10
116.2347655959413
 20
-156.8662217489779
 30
0.0
 10
117.3940402267279
 20
-156.8662217489779
 30
0.0
 10
117.3940402267279
 20
-156.8662217489779
 30
0.0
 10
117.3940402267279
 20
-156.8662217489779
 30
0.0
 10
117.3940402267279
 20
-156.7246283245341
 30
0.0
 10
117.3940402267279
 20
-156.7246283245341
 30
0.0
  0
SPLINE
  5
14A
330
13A
100
AcDbEntity
  8
レイヤー 1
100
AcDbSpline
210
0.0
220
0.0
230
1.0
 70
    11
 71
     3
 72
    17
 73
    13
 74
     0
 42
0.0000000001
 43
0.0000000001
 40
0.0
 40
0.0
 40
0.0
 40
0.0
 40
1.0
 40
1.0
 40
1.0
 40
2.0
 40
2.0
 40
2.0
 40
3.0
 40
3.0
 40
3.0
 40
4.0
 40
4.0
 40
4.0
 40
4.0
 10
117.3940402267279
 20
-156.4855386978577
 30
0.0
 10
117.3940402267279
 20
-156.4855386978577
 30
0.0
 10
116.2347655959413
 20
-156.4855386978577
 30
0.0
 10
116.2347655959413
 20
-156.4855386978577
 30
0.0
 10
116.2347655959413
 20
-156.4855386978577
 30
0.0
 10
116.2347655959413
 20
-156.6143852690061
 30
0.0
 10
116.2347655959413
 20
-156.6143852690061
 30
0.0
 10
116.2347655959413
 20
-156.6143852690061
 30
0.0
 10
117.3940402267279
 20
-156.6143852690061
 30
0.0
 10
117.3940402267279
 20
-156.6143852690061
 30
0.0
 10
117.3940402267279
 20
-156.6143852690061
 30
0.0
 10
117.3940402267279
 20
-156.4855386978577
 30
0.0
 10
117.3940402267279
 20
-156.4855386978577
 30
0.0
  0
SPLINE
  5
14B
330
13A
100
AcDbEntity
  8
レイヤー 1
100
AcDbSpline
210
0.0
220
0.0
230
1.0
 70
    11
 71
     3
 72
    32
 73
    28
 74
     0
 42
0.0000000001
 43
0.0000000001
 40
0.0
 40
0.0
 40
0.0
 40
0.0
 40
1.0
 40
1.0
 40
1.0
 40
2.0
 40
2.0
 40
2.0
 40
3.0
 40
3.0
 40
3.0
 40
4.0
 40
4.0
 40
4.0
 40
5.0
 40
5.0
 40
5.0
 40
6.0
 40
6.0
 40
6.0
 40
7.0
 40
7.0
 40
7.0
 40
8.0
 40
8.0
 40
8.0
 40
9.0
 40
9.0
 40
9.0
 40
9.0
 10
116.0656114076155
 20
-157.2513834242288
 30
0.0
 10
116.0656114076155
 20
-157.2513834242288
 30
0.0
 10
116.0656114076155
 20
-156.3522135025786
 30
0.0
 10
116.0656114076155
 20
-156.3522135025786
 30
0.0
 10
116.0656114076155
 20
-156.3522135025786
 30
0.0
 10
117.5635389246021
 20
-156.3522135025786
 30
0.0
 10
117.5635389246021
 20
-156.3522135025786
 30
0.0
 10
117.5635389246021
 20
-156.3522135025786
 30
0.0
 10
117.5635389246021
 20
-157.2513834242288
 30
0.0
 10
117.5635389246021
 20
-157.2513834242288
 30
0.0
 10
117.5635389246021
 20
-157.2513834242288
 30
0.0
 10
116.4190782044022
 20
-157.2513834242288
 30
0.0
 10
116.4190782044022
 20
-157.2513834242288
 30
0.0
 10
116.4190782044022
 20
-157.2513834242288
 30
0.0
 10
116.5248426357993
 20
-157.3612819702083
 30
0.0
 10
116.5248426357993
 20
-157.3612819702083
 30
0.0
 10
116.3598225620559
 20
-157.4563666056012
 30
0.0
 10
116.1948024883124
 20
-157.5176893052386
 30
0.0
 10
115.8985242765809
 20
-157.5686767184203
 30
0.0
 10
115.8985242765809
 20
-157.5686767184203
 30
0.0
 10
115.8330674623612
 20
-157.4164034979722
 30
0.0
 10
115.8330674623612
 20
-157.4164034979722
 30
0.0
 10
116.2116834561901
 20
-157.3633490274994
 30
0.0
 10
116.334328855465
 20
-157.2958251559885
 30
0.0
 10
116.4145995802713
 20
-157.2513834242288
 30
0.0
 10
116.4145995802713
 20
-157.2513834242288
 30
0.0
 10
116.0656114076155
 20
-157.2513834242288
 30
0.0
 10
116.0656114076155
 20
-157.2513834242288
 30
0.0
  0
SPLINE
  5
14C
330
13A
100
AcDbEntity
  8
レイヤー 1
100
AcDbSpline
210
0.0
220
0.0
230
1.0
 70
    11
 71
     3
 72
    50
 73
    46
 74
     0
 42
0.0000000001
 43
0.0000000001
 40
0.0
 40
0.0
 40
0.0
 40
0.0
 40
1.0
 40
1.0
 40
1.0
 40
2.0
 40
2.0
 40
2.0
 40
3.0
 40
3.0
 40
3.0
 40
4.0
 40
4.0
 40
4.0
 40
5.0
 40
5.0
 40
5.0
 40
6.0
 40
6.0
 40
6.0
 40
7.0
 40
7.0
 40
7.0
 40
8.0
 40
8.0
 40
8.0
 40
9.0
 40
9.0
 40
9.0
 40
10.0
 40
10.0
 40
10.0
 40
11.0
 40
11.0
 40
11.0
 40
12.0
 40
12.0
 40
12.0
 40
13.0
 40
13.0
 40
13.0
 40
14.0
 40
14.0
 40
14.0
 40
15.0
 40
15.0
 40
15.0
 40
15.0
 10
116.1503607565527
 20
-155.9057291276902
 30
0.0
 10
116.1503607565527
 20
-155.9057291276902
 30
0.0
 10
116.8018283128134
 20
-155.9057291276902
 30
0.0
 10
116.8018283128134
 20
-155.9057291276902
 30
0.0
 10
116.8018283128134
 20
-155.9057291276902
 30
0.0
 10
116.8018283128134
 20
-156.0307860938048
 30
0.0
 10
116.8018283128134
 20
-156.0307860938048
 30
0.0
 10
116.8018283128134
 20
-156.0307860938048
 30
0.0
 10
116.5248426357993
 20
-156.0307860938048
 30
0.0
 10
116.5248426357993
 20
-156.0307860938048
 30
0.0
 10
116.5248426357993
 20
-156.0307860938048
 30
0.0
 10
116.5248426357993
 20
-156.3057047135277
 30
0.0
 10
116.5248426357993
 20
-156.3057047135277
 30
0.0
 10
116.5248426357993
 20
-156.3057047135277
 30
0.0
 10
116.3639566766382
 20
-156.3057047135277
 30
0.0
 10
116.3639566766382
 20
-156.3057047135277
 30
0.0
 10
116.3639566766382
 20
-156.3057047135277
 30
0.0
 10
116.3639566766382
 20
-156.0307860938048
 30
0.0
 10
116.3639566766382
 20
-156.0307860938048
 30
0.0
 10
116.3639566766382
 20
-156.0307860938048
 30
0.0
 10
116.1438150751307
 20
-156.0307860938048
 30
0.0
 10
116.1438150751307
 20
-156.0307860938048
 30
0.0
 10
116.133479788675
 20
-156.1003770226068
 30
0.0
 10
116.1079860820841
 20
-156.2950249175234
 30
0.0
 10
115.9536458043449
 20
-156.4452310806804
 30
0.0
 10
115.9536458043449
 20
-156.4452310806804
 30
0.0
 10
115.83100040507
 20
-156.3353325347009
 30
0.0
 10
115.83100040507
 20
-156.3353325347009
 30
0.0
 10
115.9515787470537
 20
-156.2357692751771
 30
0.0
 10
115.9936089119738
 20
-156.0307860938048
 30
0.0
 10
115.9936089119738
 20
-155.9481038021588
 30
0.0
 10
115.9936089119738
 20
-155.9481038021588
 30
0.0
 10
115.9936089119738
 20
-155.6625053864316
 30
0.0
 10
115.9936089119738
 20
-155.6625053864316
 30
0.0
 10
116.4783338467485
 20
-155.6625053864316
 30
0.0
 10
116.6326741244876
 20
-155.6159965973807
 30
0.0
 10
116.7277587598805
 20
-155.5884358334987
 30
0.0
 10
116.7277587598805
 20
-155.5884358334987
 30
0.0
 10
116.7808132303534
 20
-155.7279622006513
 30
0.0
 10
116.7808132303534
 20
-155.7279622006513
 30
0.0
 10
116.5713514248502
 20
-155.7768825565419
 30
0.0
 10
116.4083984083979
 20
-155.7872178429976
 30
0.0
 10
116.1503607565527
 20
-155.7916964671284
 30
0.0
 10
116.1503607565527
 20
-155.7916964671284
 30
0.0
 10
116.1503607565527
 20
-155.9057291276902
 30
0.0
 10
116.1503607565527
 20
-155.9057291276902
 30
0.0
  0
HATCH
  5
14D
330
13A
100
AcDbEntity
  8
レイヤー 1
 62
    12
420
 15007762
440
 33554687
100
AcDbHatch
 10
0.0
 20
0.0
 30
0.0
210
0.0
220
0.0
230
1.0
  2
SOLID
 70
     1
 71
     1
 91
        7
 92
        1
 93
        1
 72
     4
 94
        3
 73
     0
 74
     0
 95
       17
 96
       13
 40
0.0
 40
0.0
 40
0.0
 40
0.0
 40
1.0
 40
1.0
 40
1.0
 40
2.0
 40
2.0
 40
2.0
 40
3.0
 40
3.0
 40
3.0
 40
4.0
 40
4.0
 40
4.0
 40
4.0
 10
117.1701090201866
 20
-157.2575845961023
 10
117.3899061121456
 20
-157.3698947089214
 10
117.6565565027039
 20
-157.4077907592591
 10
117.7854030738522
 20
-157.4184705552634
 10
117.7854030738522
 20
-157.4184705552634
 10
117.7158121450502
 20
-157.5728108330026
 10
117.7158121450502
 20
-157.5728108330026
 10
117.5952338030665
 20
-157.557996922416
 10
117.3327175270904
 20
-157.5176893052386
 10
117.0684787033718
 20
-157.3719617662125
 10
117.0684787033718
 20
-157.3719617662125
 10
117.1701090201866
 20
-157.2575845961023
 10
117.1701090201866
 20
-157.2575845961023
 97
        0
 97
        1
330
146
 92
        1
 93
        1
 72
     4
 94
        3
 73
     0
 74
     0
 95
       50
 96
       46
 40
0.0
 40
0.0
 40
0.0
 40
0.0
 40
1.0
 40
1.0
 40
1.0
 40
2.0
 40
2.0
 40
2.0
 40
3.0
 40
3.0
 40
3.0
 40
4.0
 40
4.0
 40
4.0
 40
5.0
 40
5.0
 40
5.0
 40
6.0
 40
6.0
 40
6.0
 40
7.0
 40
7.0
 40
7.0
 40
8.0
 40
8.0
 40
8.0
 40
9.0
 40
9.0
 40
9.0
 40
10.0
 40
10.0
 40
10.0
 40
11.0
 40
11.0
 40
11.0
 40
12.0
 40
12.0
 40
12.0
 40
13.0
 40
13.0
 40
13.0
 40
14.0
 40
14.0
 40
14.0
 40
15.0
 40
15.0
 40
15.0
 40
15.0
 10
117.0577989073675
 20
-155.9057291276902
 10
117.0577989073675
 20
-155.9057291276902
 10
117.7940158125654
 20
-155.9057291276902
 10
117.7940158125654
 20
-155.9057291276902
 10
117.7940158125654
 20
-155.9057291276902
 10
117.7940158125654
 20
-156.0307860938048
 10
117.7940158125654
 20
-156.0307860938048
 10
117.7940158125654
 20
-156.0307860938048
 10
117.4639756650784
 20
-156.0307860938048
 10
117.4639756650784
 20
-156.0307860938048
 10
117.4639756650784
 20
-156.0307860938048
 10
117.4639756650784
 20
-156.3057047135277
 10
117.4639756650784
 20
-156.3057047135277
 10
117.4639756650784
 20
-156.3057047135277
 10
117.3075683300481
 20
-156.3057047135277
 10
117.3075683300481
 20
-156.3057047135277
 10
117.3075683300481
 20
-156.3057047135277
 10
117.3075683300481
 20
-156.0307860938048
 10
117.3075683300481
 20
-156.0307860938048
 10
117.3075683300481
 20
-156.0307860938048
 10
117.0429849967809
 20
-156.0307860938048
 10
117.0429849967809
 20
-156.0307860938048
 10
117.0174912901901
 20
-156.1596326649531
 10
116.9668483865569
 20
-156.2505831857637
 10
116.8696966938728
 20
-156.3332654774097
 10
116.8696966938728
 20
-156.3332654774097
 10
116.7467067850494
 20
-156.2254339887214
 10
116.7467067850494
 20
-156.2254339887214
 10
116.8820990376197
 20
-156.1151909331934
 10
116.9055256869194
 20
-155.9777316233319
 10
116.9055256869194
 20
-155.9036620703991
 10
116.9055256869194
 20
-155.9036620703991
 10
116.9055256869194
 20
-155.6604383291404
 10
116.9055256869194
 20
-155.6604383291404
 10
117.375092201559
 20
-155.6604383291404
 10
117.5421793325936
 20
-155.620130711963
 10
117.686184323877
 20
-155.5777560374944
 10
117.686184323877
 20
-155.5777560374944
 10
117.7454399662233
 20
-155.7155598569044
 10
117.7454399662233
 20
-155.7155598569044
 10
117.4746554610827
 20
-155.7851507857065
 10
117.1594292241824
 20
-155.7896294098373
 10
117.0577989073675
 20
-155.7896294098373
 10
117.0577989073675
 20
-155.7896294098373
 10
117.0577989073675
 20
-155.9057291276902
 10
117.0577989073675
 20
-155.9057291276902
 97
        0
 97
        1
330
147
 92
        1
 93
        1
 72
     4
 94
        3
 73
     0
 74
     0
 95
       17
 96
       13
 40
0.0
 40
0.0
 40
0.0
 40
0.0
 40
1.0
 40
1.0
 40
1.0
 40
2.0
 40
2.0
 40
2.0
 40
3.0
 40
3.0
 40
3.0
 40
4.0
 40
4.0
 40
4.0
 40
4.0
 10
117.3940402267279
 20
-156.9761202949573
 10
117.3940402267279
 20
-156.9761202949573
 10
116.2347655959413
 20
-156.9761202949573
 10
116.2347655959413
 20
-156.9761202949573
 10
116.2347655959413
 20
-156.9761202949573
 10
116.2347655959413
 20
-157.1159911716585
 10
116.2347655959413
 20
-157.1159911716585
 10
116.2347655959413
 20
-157.1159911716585
 10
117.3940402267279
 20
-157.1159911716585
 10
117.3940402267279
 20
-157.1159911716585
 10
117.3940402267279
 20
-157.1159911716585
 10
117.3940402267279
 20
-156.9761202949573
 10
117.3940402267279
 20
-156.9761202949573
 97
        0
 97
        1
330
148
 92
        1
 93
        1
 72
     4
 94
        3
 73
     0
 74
     0
 95
       17
 96
       13
 40
0.0
 40
0.0
 40
0.0
 40
0.0
 40
1.0
 40
1.0
 40
1.0
 40
2.0
 40
2.0
 40
2.0
 40
3.0
 40
3.0
 40
3.0
 40
4.0
 40
4.0
 40
4.0
 40
4.0
 10
117.3940402267279
 20
-156.7246283245341
 10
117.3940402267279
 20
-156.7246283245341
 10
116.2347655959413
 20
-156.7246283245341
 10
116.2347655959413
 20
-156.7246283245341
 10
116.2347655959413
 20
-156.7246283245341
 10
116.2347655959413
 20
-156.8662217489779
 10
116.2347655959413
 20
-156.8662217489779
 10
116.2347655959413
 20
-156.8662217489779
 10
117.3940402267279
 20
-156.8662217489779
 10
117.3940402267279
 20
-156.8662217489779
 10
117.3940402267279
 20
-156.8662217489779
 10
117.3940402267279
 20
-156.7246283245341
 10
117.3940402267279
 20
-156.7246283245341
 97
        0
 97
        1
330
149
 92
        1
 93
        1
 72
     4
 94
        3
 73
     0
 74
     0
 95
       17
 96
       13
 40
0.0
 40
0.0
 40
0.0
 40
0.0
 40
1.0
 40
1.0
 40
1.0
 40
2.0
 40
2.0
 40
2.0
 40
3.0
 40
3.0
 40
3.0
 40
4.0
 40
4.0
 40
4.0
 40
4.0
 10
117.3940402267279
 20
-156.4855386978577
 10
117.3940402267279
 20
-156.4855386978577
 10
116.2347655959413
 20
-156.4855386978577
 10
116.2347655959413
 20
-156.4855386978577
 10
116.2347655959413
 20
-156.4855386978577
 10
116.2347655959413
 20
-156.6143852690061
 10
116.2347655959413
 20
-156.6143852690061
 10
116.2347655959413
 20
-156.6143852690061
 10
117.3940402267279
 20
-156.6143852690061
 10
117.3940402267279
 20
-156.6143852690061
 10
117.3940402267279
 20
-156.6143852690061
 10
117.3940402267279
 20
-156.4855386978577
 10
117.3940402267279
 20
-156.4855386978577
 97
        0
 97
        1
330
14A
 92
        1
 93
        1
 72
     4
 94
        3
 73
     0
 74
     0
 95
       32
 96
       28
 40
0.0
 40
0.0
 40
0.0
 40
0.0
 40
1.0
 40
1.0
 40
1.0
 40
2.0
 40
2.0
 40
2.0
 40
3.0
 40
3.0
 40
3.0
 40
4.0
 40
4.0
 40
4.0
 40
5.0
 40
5.0
 40
5.0
 40
6.0
 40
6.0
 40
6.0
 40
7.0
 40
7.0
 40
7.0
 40
8.0
 40
8.0
 40
8.0
 40
9.0
 40
9.0
 40
9.0
 40
9.0
 10
116.0656114076155
 20
-157.2513834242288
 10
116.0656114076155
 20
-157.2513834242288
 10
116.0656114076155
 20
-156.3522135025786
 10
116.0656114076155
 20
-156.3522135025786
 10
116.0656114076155
 20
-156.3522135025786
 10
117.5635389246021
 20
-156.3522135025786
 10
117.5635389246021
 20
-156.3522135025786
 10
117.5635389246021
 20
-156.3522135025786
 10
117.5635389246021
 20
-157.2513834242288
 10
117.5635389246021
 20
-157.2513834242288
 10
117.5635389246021
 20
-157.2513834242288
 10
116.4190782044022
 20
-157.2513834242288
 10
116.4190782044022
 20
-157.2513834242288
 10
116.4190782044022
 20
-157.2513834242288
 10
116.5248426357993
 20
-157.3612819702083
 10
116.5248426357993
 20
-157.3612819702083
 10
116.3598225620559
 20
-157.4563666056012
 10
116.1948024883124
 20
-157.5176893052386
 10
115.8985242765809
 20
-157.5686767184203
 10
115.8985242765809
 20
-157.5686767184203
 10
115.8330674623612
 20
-157.4164034979722
 10
115.8330674623612
 20
-157.4164034979722
 10
116.2116834561901
 20
-157.3633490274994
 10
116.334328855465
 20
-157.2958251559885
 10
116.4145995802713
 20
-157.2513834242288
 10
116.4145995802713
 20
-157.2513834242288
 10
116.0656114076155
 20
-157.2513834242288
 10
116.0656114076155
 20
-157.2513834242288
 97
        0
 97
        1
330
14B
 92
        1
 93
        1
 72
     4
 94
        3
 73
     0
 74
     0
 95
       50
 96
       46
 40
0.0
 40
0.0
 40
0.0
 40
0.0
 40
1.0
 40
1.0
 40
1.0
 40
2.0
 40
2.0
 40
2.0
 40
3.0
 40
3.0
 40
3.0
 40
4.0
 40
4.0
 40
4.0
 40
5.0
 40
5.0
 40
5.0
 40
6.0
 40
6.0
 40
6.0
 40
7.0
 40
7.0
 40
7.0
 40
8.0
 40
8.0
 40
8.0
 40
9.0
 40
9.0
 40
9.0
 40
10.0
 40
10.0
 40
10.0
 40
11.0
 40
11.0
 40
11.0
 40
12.0
 40
12.0
 40
12.0
 40
13.0
 40
13.0
 40
13.0
 40
14.0
 40
14.0
 40
14.0
 40
15.0
 40
15.0
 40
15.0
 40
15.0
 10
116.1503607565527
 20
-155.9057291276902
 10
116.1503607565527
 20
-155.9057291276902
 10
116.8018283128134
 20
-155.9057291276902
 10
116.8018283128134
 20
-155.9057291276902
 10
116.8018283128134
 20
-155.9057291276902
 10
116.8018283128134
 20
-156.0307860938048
 10
116.8018283128134
 20
-156.0307860938048
 10
116.8018283128134
 20
-156.0307860938048
 10
116.5248426357993
 20
-156.0307860938048
 10
116.5248426357993
 20
-156.0307860938048
 10
116.5248426357993
 20
-156.0307860938048
 10
116.5248426357993
 20
-156.3057047135277
 10
116.5248426357993
 20
-156.3057047135277
 10
116.5248426357993
 20
-156.3057047135277
 10
116.3639566766382
 20
-156.3057047135277
 10
116.3639566766382
 20
-156.3057047135277
 10
116.3639566766382
 20
-156.3057047135277
 10
116.3639566766382
 20
-156.0307860938048
 10
116.3639566766382
 20
-156.0307860938048
 10
116.3639566766382
 20
-156.0307860938048
 10
116.1438150751307
 20
-156.0307860938048
 10
116.1438150751307
 20
-156.0307860938048
 10
116.133479788675
 20
-156.1003770226068
 10
116.1079860820841
 20
-156.2950249175234
 10
115.9536458043449
 20
-156.4452310806804
 10
115.9536458043449
 20
-156.4452310806804
 10
115.83100040507
 20
-156.3353325347009
 10
115.83100040507
 20
-156.3353325347009
 10
115.9515787470537
 20
-156.2357692751771
 10
115.9936089119738
 20
-156.0307860938048
 10
115.9936089119738
 20
-155.9481038021588
 10
115.9936089119738
 20
-155.9481038021588
 10
115.9936089119738
 20
-155.6625053864316
 10
115.9936089119738
 20
-155.6625053864316
 10
116.4783338467485
 20
-155.6625053864316
 10
116.6326741244876
 20
-155.6159965973807
 10
116.7277587598805
 20
-155.5884358334987
 10
116.7277587598805
 20
-155.5884358334987
 10
116.7808132303534
 20
-155.7279622006513
 10
116.7808132303534
 20
-155.7279622006513
 10
116.5713514248502
 20
-155.7768825565419
 10
116.4083984083979
 20
-155.7872178429976
 10
116.1503607565527
 20
-155.7916964671284
 10
116.1503607565527
 20
-155.7916964671284
 10
116.1503607565527
 20
-155.9057291276902
 10
116.1503607565527
 20
-155.9057291276902
 97
        0
 97
        1
330
14C
 75
     2
 76
     1
 98
        1
 10
0.0
 20
0.0
450
        0
451
        0
460
0.0
461
0.0
452
        0
462
0.0
453
        0
470

  0
ENDBLK
  5
13D
330
13A
100
AcDbEntity
  8
0
100
AcDbBlockEnd
  0
ENDSEC
  0
SECTION
  2
ENTITIES
  0
LINE
  5
79
330
70
100
AcDbEntity
  8
レイヤー 1
 62
    18
420
        0
370
    25
100
AcDbLine
 10
111.2644724142625
 20
-153.1580553264153
 30
0.0
 11
106.2646224199307
 21
-153.1580553264153
 31
0.0
  0
LINE
  5
7A
330
70
100
AcDbEntity
  8
レイヤー 1
 62
    18
420
        0
370
    25
100
AcDbLine
 10
86.26289964273508
 20
-146.6578425502622
 30
0.0
 11
86.26289964273508
 21
-147.1580814390259
 31
0.0
  0
LINE
  5
7B
330
70
100
AcDbEntity
  8
レイヤー 1
 62
    18
420
        0
370
    25
100
AcDbLine
 10
107.2002948960597
 20
-147.1580814390259
 30
0.0
 11
86.26289964273508
 21
-147.1580814390259
 31
0.0
  0
LINE
  5
7C
330
70
100
AcDbEntity
  8
レイヤー 1
 62
    18
420
        0
370
    25
100
AcDbLine
 10
86.26289964273508
 20
-146.6578425502622
 30
0.0
 11
86.77689686482892
 21
-147.0399008834999
 31
0.0
  0
LINE
  5
7D
330
70
100
AcDbEntity
  8
レイヤー 1
 62
    18
420
        0
370
    25
100
AcDbLine
 10
86.77689686482892
 20
-147.0399008834999
 30
0.0
 11
87.26231908692955
 21
-146.6223883836042
 31
0.0
  0
LINE
  5
7E
330
70
100
AcDbEntity
  8
レイヤー 1
 62
    18
420
        0
370
    25
100
AcDbLine
 10
87.77631630902371
 20
-147.0044467168422
 30
0.0
 11
88.26191492001321
 21
-146.586546161391
 31
0.0
  0
LINE
  5
7F
330
70
100
AcDbEntity
  8
レイヤー 1
 62
    18
420
        0
370
    25
100
AcDbLine
 10
87.26231908692955
 20
-146.6223883836042
 30
0.0
 11
87.77631630902371
 21
-147.0044467168422
 31
0.0
  0
LINE
  5
80
330
70
100
AcDbEntity
  8
レイヤー 1
 62
    18
420
        0
370
    25
100
AcDbLine
 10
88.26191492001321
 20
-146.586546161391
 30
0.0
 11
88.77591214210672
 21
-146.968604494629
 31
0.0
  0
LINE
  5
81
330
70
100
AcDbEntity
  8
レイヤー 1
 62
    18
420
        0
370
    25
100
AcDbLine
 10
88.77591214210672
 20
-146.968604494629
 30
0.0
 11
89.26098158642991
 21
-146.5510567169555
 31
0.0
  0
LINE
  5
82
330
70
100
AcDbEntity
  8
レイヤー 1
 62
    18
420
        0
370
    25
100
AcDbLine
 10
89.26098158642991
 20
-146.5510567169555
 30
0.0
 11
89.77501408630159
 21
-146.9327622724158
 31
0.0
  0
LINE
  5
83
330
70
100
AcDbEntity
  8
レイヤー 1
 62
    18
420
        0
370
    25
100
AcDbLine
 10
89.77501408630159
 20
-146.9327622724158
 30
0.0
 11
90.26075380840213
 21
-146.5152144947422
 31
0.0
  0
LINE
  5
84
330
70
100
AcDbEntity
  8
レイヤー 1
 62
    18
420
        0
370
    25
100
AcDbLine
 10
90.26075380840213
 20
-146.5152144947422
 30
0.0
 11
90.77475103049597
 21
-146.8969553279803
 31
0.0
  0
LINE
  5
85
330
70
100
AcDbEntity
  8
レイヤー 1
 62
    18
420
        0
370
    25
100
AcDbLine
 10
90.77475103049597
 20
-146.8969553279803
 30
0.0
 11
91.25982047481913
 21
-146.4794075503068
 31
0.0
  0
LINE
  5
86
330
70
100
AcDbEntity
  8
レイヤー 1
 62
    18
420
        0
370
    25
100
AcDbLine
 10
91.25982047481913
 20
-146.4794075503068
 30
0.0
 11
91.77385297469049
 21
-146.8614658835445
 31
0.0
  0
LINE
  5
87
330
70
100
AcDbEntity
  8
レイヤー 1
 62
    18
420
        0
370
    25
100
AcDbLine
 10
91.77385297469049
 20
-146.8614658835445
 30
0.0
 11
92.25959269679135
 21
-146.4439181058714
 31
0.0
  0
LINE
  5
88
330
70
100
AcDbEntity
  8
レイヤー 1
 62
    18
420
        0
370
    25
100
AcDbLine
 10
92.25959269679135
 20
-146.4439181058714
 30
0.0
 11
92.77291964110752
 21
-146.825976439109
 31
0.0
  0
LINE
  5
89
330
70
100
AcDbEntity
  8
レイヤー 1
 62
    18
420
        0
370
    25
100
AcDbLine
 10
92.77291964110752
 20
-146.825976439109
 30
0.0
 11
93.25869464098621
 21
-146.4080758836581
 31
0.0
  0
LINE
  5
8A
330
70
100
AcDbEntity
  8
レイヤー 1
 62
    18
420
        0
370
    25
100
AcDbLine
 10
93.77269186307975
 20
-146.7901342168958
 30
0.0
 11
94.25776130740292
 21
-146.3725864392223
 31
0.0
  0
LINE
  5
8B
330
70
100
AcDbEntity
  8
レイヤー 1
 62
    18
420
        0
370
    25
100
AcDbLine
 10
93.25869464098621
 20
-146.4080758836581
 30
0.0
 11
93.77269186307975
 21
-146.7901342168958
 31
0.0
  0
LINE
  5
8C
330
70
100
AcDbEntity
  8
レイヤー 1
 62
    18
420
        0
370
    25
100
AcDbLine
 10
94.25776130740292
 20
-146.3725864392223
 30
0.0
 11
94.77175852949676
 21
-146.7543272724604
 31
0.0
  0
LINE
  5
8D
330
70
100
AcDbEntity
  8
レイヤー 1
 62
    18
420
        0
370
    25
100
AcDbLine
 10
94.77175852949676
 20
-146.7543272724604
 30
0.0
 11
95.25753352937513
 21
-146.3367794947872
 31
0.0
  0
LINE
  5
8E
330
70
100
AcDbEntity
  8
レイヤー 1
 62
    18
420
        0
370
    25
100
AcDbLine
 10
95.77153075146897
 20
-146.7184850502472
 30
0.0
 11
96.25660019579216
 21
-146.300937272574
 31
0.0
  0
LINE
  5
8F
330
70
100
AcDbEntity
  8
レイヤー 1
 62
    18
420
        0
370
    25
100
AcDbLine
 10
95.25753352937513
 20
-146.3367794947872
 30
0.0
 11
95.77153075146897
 21
-146.7184850502472
 31
0.0
  0
LINE
  5
90
330
70
100
AcDbEntity
  8
レイヤー 1
 62
    18
420
        0
370
    25
100
AcDbLine
 10
96.770597417886
 20
-146.6829956058113
 30
0.0
 11
97.25637241776439
 21
-146.2654478281381
 31
0.0
  0
LINE
  5
91
330
70
100
AcDbEntity
  8
レイヤー 1
 62
    18
420
        0
370
    25
100
AcDbLine
 10
96.25660019579216
 20
-146.300937272574
 30
0.0
 11
96.770597417886
 21
-146.6829956058113
 31
0.0
  0
LINE
  5
92
330
70
100
AcDbEntity
  8
レイヤー 1
 62
    18
420
        0
370
    25
100
AcDbLine
 10
97.25637241776439
 20
-146.2654478281381
 30
0.0
 11
97.77036963985821
 21
-146.6475061613758
 31
0.0
  0
LINE
  5
93
330
70
100
AcDbEntity
  8
レイヤー 1
 62
    18
420
        0
370
    25
100
AcDbLine
 10
97.77036963985821
 20
-146.6475061613758
 30
0.0
 11
98.2554390841814
 21
-146.2296408837024
 31
0.0
  0
LINE
  5
94
330
70
100
AcDbEntity
  8
レイヤー 1
 62
    18
420
        0
370
    25
100
AcDbLine
 10
98.2554390841814
 20
-146.2296408837024
 30
0.0
 11
98.76947066670387
 21
-146.6116992169404
 31
0.0
  0
LINE
  5
95
330
70
100
AcDbEntity
  8
レイヤー 1
 62
    18
420
        0
370
    25
100
AcDbLine
 10
98.76947066670387
 20
-146.6116992169404
 30
0.0
 11
99.25454009877316
 21
-146.1941514392669
 31
0.0
  0
LINE
  5
96
330
70
100
AcDbEntity
  8
レイヤー 1
 62
    18
420
        0
370
    25
100
AcDbLine
 10
99.25454009877316
 20
-146.1941514392669
 30
0.0
 11
99.76853730788223
 21
-146.5758569947272
 31
0.0
  0
LINE
  5
97
330
70
100
AcDbEntity
  8
レイヤー 1
 62
    18
420
        0
370
    25
100
AcDbLine
 10
99.76853730788223
 20
-146.5758569947272
 30
0.0
 11
100.2542779725706
 21
-146.1583092170537
 31
0.0
  0
LINE
  5
98
330
70
100
AcDbEntity
  8
レイヤー 1
 62
    18
420
        0
370
    25
100
AcDbLine
 10
100.2542779725706
 20
-146.1583092170537
 30
0.0
 11
100.7683095045981
 21
-146.5400500502918
 31
0.0
  0
LINE
  5
99
330
70
100
AcDbEntity
  8
レイヤー 1
 62
    18
420
        0
370
    25
100
AcDbLine
 10
100.7683095045981
 20
-146.5400500502918
 30
0.0
 11
101.2533789366677
 21
-146.1225022726183
 31
0.0
  0
LINE
  5
9A
330
70
100
AcDbEntity
  8
レイヤー 1
 62
    18
420
        0
370
    25
100
AcDbLine
 10
101.2533789366677
 20
-146.1225022726183
 30
0.0
 11
101.7673761457765
 21
-146.504560605856
 31
0.0
  0
LINE
  5
9B
330
70
100
AcDbEntity
  8
レイヤー 1
 62
    18
420
        0
370
    25
100
AcDbLine
 10
101.7673761457765
 20
-146.504560605856
 30
0.0
 11
102.2531511333833
 21
-146.0870128281828
 31
0.0
  0
LINE
  5
9C
330
70
100
AcDbEntity
  8
レイヤー 1
 62
    18
420
        0
370
    25
100
AcDbLine
 10
102.2531511333833
 20
-146.0870128281828
 30
0.0
 11
102.7671483424924
 21
-146.4690711614208
 31
0.0
  0
LINE
  5
9D
330
70
100
AcDbEntity
  8
レイヤー 1
 62
    18
420
        0
370
    25
100
AcDbLine
 10
102.7671483424924
 20
-146.4690711614208
 30
0.0
 11
103.2522177745617
 21
-146.0511706059696
 31
0.0
  0
LINE
  5
9E
330
70
100
AcDbEntity
  8
レイヤー 1
 62
    18
420
        0
370
    25
100
AcDbLine
 10
103.2522177745617
 20
-146.0511706059696
 30
0.0
 11
103.7662149836707
 21
-146.4332289392076
 31
0.0
  0
LINE
  5
9F
330
70
100
AcDbEntity
  8
レイヤー 1
 62
    18
420
        0
370
    25
100
AcDbLine
 10
103.7662149836707
 20
-146.4332289392076
 30
0.0
 11
104.2519899712772
 21
-146.0156811615337
 31
0.0
  0
LINE
  5
A0
330
70
100
AcDbEntity
  8
レイヤー 1
 62
    18
420
        0
370
    25
100
AcDbLine
 10
104.2519899712772
 20
-146.0156811615337
 30
0.0
 11
104.7659871803869
 21
-146.3974219947718
 31
0.0
  0
LINE
  5
A1
330
70
100
AcDbEntity
  8
レイヤー 1
 62
    18
420
        0
370
    25
100
AcDbLine
 10
104.7659871803869
 20
-146.3974219947718
 30
0.0
 11
105.2510566124559
 21
-145.9798742170987
 31
0.0
  0
LINE
  5
A2
330
70
100
AcDbEntity
  8
レイヤー 1
 62
    18
420
        0
370
    25
100
AcDbLine
 10
105.2510566124559
 20
-145.9798742170987
 30
0.0
 11
105.7650538215647
 21
-146.3615797725586
 31
0.0
  0
LINE
  5
A3
330
70
100
AcDbEntity
  8
レイヤー 1
 62
    18
420
        0
370
    25
100
AcDbLine
 10
105.7650538215647
 20
-146.3615797725586
 30
0.0
 11
106.2508288091715
 21
-145.9440319948851
 31
0.0
  0
LINE
  5
A4
330
70
100
AcDbEntity
  8
レイヤー 1
 62
    18
420
        0
370
    25
100
AcDbLine
 10
106.3248260183908
 20
-145.8958072726752
 30
0.0
 11
107.2643593388697
 21
-145.8958072726752
 31
0.0
  0
LINE
  5
A5
330
70
100
AcDbEntity
  8
レイヤー 1
 62
    18
420
        0
370
    25
100
AcDbLine
 10
107.2643593388697
 20
-145.8958072726752
 30
0.0
 11
107.2643593388697
 21
-152.1579656044425
 31
0.0
  0
LINE
  5
A6
330
70
100
AcDbEntity
  8
レイヤー 1
 62
    18
420
        0
370
    25
100
AcDbLine
 10
106.2646224199307
 20
-147.1580814390259
 30
0.0
 11
106.2646224199307
 21
-153.1580553264153
 31
0.0
  0
LINE
  5
A7
330
70
100
AcDbEntity
  8
レイヤー 1
 62
    18
420
        0
370
    25
100
AcDbLine
 10
110.26470019229
 20
-152.1579656044425
 30
0.0
 11
107.2643593388697
 21
-152.1579656044425
 31
0.0
  0
LINE
  5
A8
330
70
100
AcDbEntity
  8
レイヤー 1
 62
    18
420
        0
370
    25
100
AcDbLine
 10
121.2717887037327
 20
-146.300937272574
 30
0.0
 11
120.7584617723843
 21
-146.6829956058113
 31
0.0
  0
LINE
  5
A9
330
70
100
AcDbEntity
  8
レイヤー 1
 62
    18
420
        0
370
    25
100
AcDbLine
 10
126.2692385762371
 20
-146.4794075503068
 30
0.0
 11
125.755241367128
 21
-146.8614658835445
 31
0.0
  0
LINE
  5
AA
330
70
100
AcDbEntity
  8
レイヤー 1
 62
    18
420
        0
370
    25
100
AcDbLine
 10
121.7575284135626
 20
-146.7184850502472
 30
0.0
 11
121.2717887037327
 21
-146.300937272574
 31
0.0
  0
LINE
  5
AB
330
70
100
AcDbEntity
  8
レイヤー 1
 62
    18
420
        0
370
    25
100
AcDbLine
 10
122.7566303325179
 20
-146.7543272724604
 30
0.0
 11
122.2715609004486
 21
-146.3367794947872
 31
0.0
  0
LINE
  5
AC
330
70
100
AcDbEntity
  8
レイヤー 1
 62
    18
420
        0
370
    25
100
AcDbLine
 10
120.7584617723843
 20
-146.6829956058113
 30
0.0
 11
120.2727220625543
 21
-146.2654478281381
 31
0.0
  0
LINE
  5
AD
330
70
100
AcDbEntity
  8
レイヤー 1
 62
    18
420
        0
370
    25
100
AcDbLine
 10
122.2715609004486
 20
-146.3367794947872
 30
0.0
 11
121.7575284135626
 21
-146.7184850502472
 31
0.0
  0
LINE
  5
AE
330
70
100
AcDbEntity
  8
レイヤー 1
 62
    18
420
        0
370
    25
100
AcDbLine
 10
130.266245974265
 20
-146.6223883836042
 30
0.0
 11
129.7522487651565
 21
-147.0044467168422
 31
0.0
  0
LINE
  5
AF
330
70
100
AcDbEntity
  8
レイヤー 1
 62
    18
420
        0
370
    25
100
AcDbLine
 10
123.2706275416269
 20
-146.3725864392223
 30
0.0
 11
122.7566303325179
 21
-146.7543272724604
 31
0.0
  0
LINE
  5
B0
330
70
100
AcDbEntity
  8
レイヤー 1
 62
    18
420
        0
370
    25
100
AcDbLine
 10
124.2703997383429
 20
-146.4080758836581
 30
0.0
 11
123.7564025292338
 21
-146.7901342168958
 31
0.0
  0
LINE
  5
B1
330
70
100
AcDbEntity
  8
レイヤー 1
 62
    18
420
        0
370
    25
100
AcDbLine
 10
110.26470019229
 20
-145.8958072726752
 30
0.0
 11
110.26470019229
 21
-152.1579656044425
 31
0.0
  0
LINE
  5
B2
330
70
100
AcDbEntity
  8
レイヤー 1
 62
    18
420
        0
370
    25
100
AcDbLine
 10
123.7564025292338
 20
-146.7901342168958
 30
0.0
 11
123.2706275416269
 21
-146.3725864392223
 31
0.0
  0
LINE
  5
B3
330
70
100
AcDbEntity
  8
レイヤー 1
 62
    18
420
        0
370
    25
100
AcDbLine
 10
124.7554691704122
 20
-146.825976439109
 30
0.0
 11
124.2703997383429
 21
-146.4080758836581
 31
0.0
  0
LINE
  5
B4
330
70
100
AcDbEntity
  8
レイヤー 1
 62
    18
420
        0
370
    25
100
AcDbLine
 10
129.7522487651565
 20
-147.0044467168422
 30
0.0
 11
129.2671793330866
 21
-146.586546161391
 31
0.0
  0
LINE
  5
B5
330
70
100
AcDbEntity
  8
レイヤー 1
 62
    18
420
        0
370
    25
100
AcDbLine
 10
125.2694663795212
 20
-146.4439181058714
 30
0.0
 11
124.7554691704122
 21
-146.825976439109
 31
0.0
  0
LINE
  5
B6
330
70
100
AcDbEntity
  8
レイヤー 1
 62
    18
420
        0
370
    25
100
AcDbLine
 10
125.755241367128
 20
-146.8614658835445
 30
0.0
 11
125.2694663795212
 21
-146.4439181058714
 31
0.0
  0
LINE
  5
B7
330
70
100
AcDbEntity
  8
レイヤー 1
 62
    18
420
        0
370
    25
100
AcDbLine
 10
130.7519856840949
 20
-147.0399008834999
 30
0.0
 11
130.266245974265
 21
-146.6223883836042
 31
0.0
  0
LINE
  5
B8
330
70
100
AcDbEntity
  8
レイヤー 1
 62
    18
420
        0
370
    25
100
AcDbLine
 10
127.2683052174155
 20
-146.5152144947422
 30
0.0
 11
126.7543080083064
 21
-146.8969553279803
 31
0.0
  0
LINE
  5
B9
330
70
100
AcDbEntity
  8
レイヤー 1
 62
    18
420
        0
370
    25
100
AcDbLine
 10
128.2674071363707
 20
-146.5510567169555
 30
0.0
 11
127.7533746494848
 21
-146.9327622724158
 31
0.0
  0
LINE
  5
BA
330
70
100
AcDbEntity
  8
レイヤー 1
 62
    18
420
        0
370
    25
100
AcDbLine
 10
127.7533746494848
 20
-146.9327622724158
 30
0.0
 11
127.2683052174155
 21
-146.5152144947422
 31
0.0
  0
LINE
  5
BB
330
70
100
AcDbEntity
  8
レイヤー 1
 62
    18
420
        0
370
    25
100
AcDbLine
 10
131.2660181709809
 20
-146.6578425502622
 30
0.0
 11
130.7519856840949
 21
-147.0399008834999
 31
0.0
  0
LINE
  5
BC
330
70
100
AcDbEntity
  8
レイヤー 1
 62
    18
420
        0
370
    25
100
AcDbLine
 10
126.7543080083064
 20
-146.8969553279803
 30
0.0
 11
126.2692385762371
 21
-146.4794075503068
 31
0.0
  0
LINE
  5
BD
330
70
100
AcDbEntity
  8
レイヤー 1
 62
    18
420
        0
370
    25
100
AcDbLine
 10
129.2671793330866
 20
-146.586546161391
 30
0.0
 11
128.7531468462006
 21
-146.968604494629
 31
0.0
  0
LINE
  5
BE
330
70
100
AcDbEntity
  8
レイヤー 1
 62
    18
420
        0
370
    25
100
AcDbLine
 10
128.7531468462006
 20
-146.968604494629
 30
0.0
 11
128.2674071363707
 21
-146.5510567169555
 31
0.0
  0
LINE
  5
BF
330
70
100
AcDbEntity
  8
レイヤー 1
 62
    18
420
        0
370
    25
100
AcDbLine
 10
131.2660181709809
 20
-146.6578425502622
 30
0.0
 11
131.2660181709809
 21
-147.1580814390259
 31
0.0
  0
LINE
  5
C0
330
70
100
AcDbEntity
  8
レイヤー 1
 62
    18
420
        0
370
    25
100
AcDbLine
 10
110.3752948150587
 20
-147.1580814390259
 30
0.0
 11
131.2660181709809
 21
-147.1580814390259
 31
0.0
  0
LINE
  5
C1
330
70
100
AcDbEntity
  8
レイヤー 1
 62
    18
420
        0
370
    25
100
AcDbLine
 10
120.2727220625543
 20
-146.2654478281381
 30
0.0
 11
119.7586895756684
 21
-146.6475061613758
 31
0.0
  0
LINE
  5
C2
330
70
100
AcDbEntity
  8
レイヤー 1
 62
    18
420
        0
370
    25
100
AcDbLine
 10
119.7586895756684
 20
-146.6475061613758
 30
0.0
 11
119.2736201435991
 21
-146.2296408837024
 31
0.0
  0
LINE
  5
C3
330
70
100
AcDbEntity
  8
レイヤー 1
 62
    18
420
        0
370
    25
100
AcDbLine
 10
119.2736201435991
 20
-146.2296408837024
 30
0.0
 11
118.75962293449
 21
-146.6116992169404
 31
0.0
  0
LINE
  5
C4
330
70
100
AcDbEntity
  8
レイヤー 1
 62
    18
420
        0
370
    25
100
AcDbLine
 10
118.75962293449
 20
-146.6116992169404
 30
0.0
 11
118.2738479468832
 21
-146.1941514392669
 31
0.0
  0
LINE
  5
C5
330
70
100
AcDbEntity
  8
レイヤー 1
 62
    18
420
        0
370
    25
100
AcDbLine
 10
118.2738479468832
 20
-146.1941514392669
 30
0.0
 11
117.7598507377741
 21
-146.5758569947272
 31
0.0
  0
LINE
  5
C6
330
70
100
AcDbEntity
  8
レイヤー 1
 62
    18
420
        0
370
    25
100
AcDbLine
 10
117.7598507377741
 20
-146.5758569947272
 30
0.0
 11
117.2747813057048
 21
-146.1583092170537
 31
0.0
  0
LINE
  5
C7
330
70
100
AcDbEntity
  8
レイヤー 1
 62
    18
420
        0
370
    25
100
AcDbLine
 10
117.2747813057048
 20
-146.1583092170537
 30
0.0
 11
116.7607840965958
 21
-146.5400500502918
 31
0.0
  0
LINE
  5
C8
330
70
100
AcDbEntity
  8
レイヤー 1
 62
    18
420
        0
370
    25
100
AcDbLine
 10
116.7607840965958
 20
-146.5400500502918
 30
0.0
 11
116.2750091089896
 21
-146.1225022726183
 31
0.0
  0
LINE
  5
C9
330
70
100
AcDbEntity
  8
レイヤー 1
 62
    18
420
        0
370
    25
100
AcDbLine
 10
116.2750091089896
 20
-146.1225022726183
 30
0.0
 11
115.7610118998799
 21
-146.504560605856
 31
0.0
  0
LINE
  5
CA
330
70
100
AcDbEntity
  8
レイヤー 1
 62
    18
420
        0
370
    25
100
AcDbLine
 10
115.7610118998799
 20
-146.504560605856
 30
0.0
 11
115.2759424678106
 21
-146.0870128281828
 31
0.0
  0
LINE
  5
CB
330
70
100
AcDbEntity
  8
レイヤー 1
 62
    18
420
        0
370
    25
100
AcDbLine
 10
115.2759424678106
 20
-146.0870128281828
 30
0.0
 11
114.7619452587015
 21
-146.4690711614208
 31
0.0
  0
LINE
  5
CC
330
70
100
AcDbEntity
  8
レイヤー 1
 62
    18
420
        0
370
    25
100
AcDbLine
 10
114.7619452587015
 20
-146.4690711614208
 30
0.0
 11
114.2768758266322
 21
-146.0511706059696
 31
0.0
  0
LINE
  5
CD
330
70
100
AcDbEntity
  8
レイヤー 1
 62
    18
420
        0
370
    25
100
AcDbLine
 10
114.2768758266322
 20
-146.0511706059696
 30
0.0
 11
113.7628446358603
 21
-146.4332289392076
 31
0.0
  0
LINE
  5
CE
330
70
100
AcDbEntity
  8
レイヤー 1
 62
    18
420
        0
370
    25
100
AcDbLine
 10
113.7628446358603
 20
-146.4332289392076
 30
0.0
 11
113.2771036299163
 21
-146.0156811615337
 31
0.0
  0
LINE
  5
CF
330
70
100
AcDbEntity
  8
レイヤー 1
 62
    18
420
        0
370
    25
100
AcDbLine
 10
113.2771036299163
 20
-146.0156811615337
 30
0.0
 11
112.7631064208072
 21
-146.3974219947718
 31
0.0
  0
LINE
  5
D0
330
70
100
AcDbEntity
  8
レイヤー 1
 62
    18
420
        0
370
    25
100
AcDbLine
 10
112.7631064208072
 20
-146.3974219947718
 30
0.0
 11
112.2780369887379
 21
-145.9798742170987
 31
0.0
  0
LINE
  5
D1
330
70
100
AcDbEntity
  8
レイヤー 1
 62
    18
420
        0
370
    25
100
AcDbLine
 10
112.2780369887379
 20
-145.9798742170987
 30
0.0
 11
111.7640057474707
 21
-146.3615797725586
 31
0.0
  0
LINE
  5
D2
330
70
100
AcDbEntity
  8
レイヤー 1
 62
    18
420
        0
370
    25
100
AcDbLine
 10
111.7640057474707
 20
-146.3615797725586
 30
0.0
 11
111.278264792022
 21
-145.9440319948851
 31
0.0
  0
LINE
  5
D3
330
70
100
AcDbEntity
  8
レイヤー 1
 62
    18
420
        0
370
    25
100
AcDbLine
 10
111.2042335253886
 20
-145.8958072726752
 30
0.0
 11
110.26470019229
 21
-145.8958072726752
 31
0.0
  0
LINE
  5
D4
330
70
100
AcDbEntity
  8
レイヤー 1
 62
    18
420
        0
370
    25
100
AcDbLine
 10
111.2644724142625
 20
-147.1580814390259
 30
0.0
 11
111.2644724142625
 21
-153.1580553264153
 31
0.0
  0
SPLINE
  5
D5
330
70
100
AcDbEntity
  8
レイヤー 1
 62
    18
420
        0
370
     9
100
AcDbSpline
210
0.0
220
0.0
230
1.0
 70
     9
 71
     3
 72
    17
 73
    13
 74
     0
 42
0.0000000001
 43
0.0000000001
 40
0.0
 40
0.0
 40
0.0
 40
0.0
 40
1.0
 40
1.0
 40
1.0
 40
2.0
 40
2.0
 40
2.0
 40
3.0
 40
3.0
 40
3.0
 40
4.0
 40
4.0
 40
4.0
 40
4.0
 10
86.36280630937672
 20
-141.8960481070083
 30
0.0
 10
86.36280630937672
 20
-141.8405914403554
 30
0.0
 10
86.31800353161033
 20
-141.795788662589
 30
0.0
 10
86.26289964273508
 20
-141.795788662589
 30
0.0
 10
86.20776047608233
 20
-141.795788662589
 30
0.0
 10
86.16299297609344
 20
-141.8405914403554
 30
0.0
 10
86.16299297609344
 20
-141.8960481070083
 30
0.0
 10
86.16299297609344
 20
-141.9511519958833
 30
0.0
 10
86.20776047608233
 20
-141.99595477365
 30
0.0
 10
86.26289964273508
 20
-141.99595477365
 30
0.0
 10
86.31800353161033
 20
-141.99595477365
 30
0.0
 10
86.36280630937672
 20
-141.9511519958833
 30
0.0
 10
86.36280630937672
 20
-141.8960481070083
 30
0.0
  0
CIRCLE
  5
D6
330
70
100
AcDbEntity
  8
レイヤー 1
 62
    18
420
        0
370
     9
100
AcDbCircle
 10
82.26314047706827
 20
-146.6578425502622
 30
0.0
 40
0.0999066666416778
  0
CIRCLE
  5
D7
330
70
100
AcDbEntity
  8
レイヤー 1
 62
    18
420
        0
370
     9
100
AcDbCircle
 10
82.26314047706827
 20
-147.1580814390259
 30
0.0
 40
0.0999066666416778
  0
CIRCLE
  5
D8
330
70
100
AcDbEntity
  8
レイヤー 1
 62
    18
420
        0
370
     9
100
AcDbCircle
 10
82.26314047706827
 20
-153.1580553264149
 30
0.0
 40
0.0999066666418382
  0
SPLINE
  5
D9
330
70
100
AcDbEntity
  8
レイヤー 1
 62
    18
420
        0
370
     9
100
AcDbSpline
210
0.0
220
0.0
230
1.0
 70
     9
 71
     3
 72
    17
 73
    13
 74
     0
 42
0.0000000001
 43
0.0000000001
 40
0.0
 40
0.0
 40
0.0
 40
0.0
 40
1.0
 40
1.0
 40
1.0
 40
2.0
 40
2.0
 40
2.0
 40
3.0
 40
3.0
 40
3.0
 40
4.0
 40
4.0
 40
4.0
 40
4.0
 10
107.3642660029876
 20
-141.8960481070083
 30
0.0
 10
107.3642660029876
 20
-141.8405914403554
 30
0.0
 10
107.3194985041297
 20
-141.795788662589
 30
0.0
 10
107.2643593388697
 20
-141.795788662589
 30
0.0
 10
107.2092554513867
 20
-141.795788662589
 30
0.0
 10
107.1644526747519
 20
-141.8405914403554
 30
0.0
 10
107.1644526747519
 20
-141.8960481070083
 30
0.0
 10
107.1644526747519
 20
-141.9511519958833
 30
0.0
 10
107.2092554513867
 20
-141.99595477365
 30
0.0
 10
107.2643593388697
 20
-141.99595477365
 30
0.0
 10
107.3194985041297
 20
-141.99595477365
 30
0.0
 10
107.3642660029876
 20
-141.9511519958833
 30
0.0
 10
107.3642660029876
 20
-141.8960481070083
 30
0.0
  0
SPLINE
  5
DA
330
70
100
AcDbEntity
  8
レイヤー 1
 62
    18
420
        0
370
     9
100
AcDbSpline
210
0.0
220
0.0
230
1.0
 70
     9
 71
     3
 72
    17
 73
    13
 74
     0
 42
0.0000000001
 43
0.0000000001
 40
0.0
 40
0.0
 40
0.0
 40
0.0
 40
1.0
 40
1.0
 40
1.0
 40
2.0
 40
2.0
 40
2.0
 40
3.0
 40
3.0
 40
3.0
 40
4.0
 40
4.0
 40
4.0
 40
4.0
 10
131.4658314992165
 20
-141.8960481070083
 30
0.0
 10
131.4658314992165
 20
-141.8405914403554
 30
0.0
 10
131.4210287225818
 20
-141.795788662589
 30
0.0
 10
131.3659248350987
 20
-141.795788662589
 30
0.0
 10
131.3101153920781
 20
-141.795788662589
 30
0.0
 10
131.2653126154433
 20
-141.8405914403554
 30
0.0
 10
131.2653126154433
 20
-141.8960481070083
 30
0.0
 10
131.2653126154433
 20
-141.9511519958833
 30
0.0
 10
131.3101153920781
 20
-141.99595477365
 30
0.0
 10
131.3659248350987
 20
-141.99595477365
 30
0.0
 10
131.4210287225818
 20
-141.99595477365
 30
0.0
 10
131.4658314992165
 20
-141.9511519958833
 30
0.0
 10
131.4658314992165
 20
-141.8960481070083
 30
0.0
  0
SPLINE
  5
DB
330
70
100
AcDbEntity
  8
レイヤー 1
 62
    18
420
        0
370
     9
100
AcDbSpline
210
0.0
220
0.0
230
1.0
 70
     9
 71
     3
 72
    17
 73
    13
 74
     0
 42
0.0000000001
 43
0.0000000001
 40
0.0
 40
0.0
 40
0.0
 40
0.0
 40
1.0
 40
1.0
 40
1.0
 40
2.0
 40
2.0
 40
2.0
 40
3.0
 40
3.0
 40
3.0
 40
4.0
 40
4.0
 40
4.0
 40
4.0
 10
110.4645123127826
 20
-141.8960481070083
 30
0.0
 10
110.4645123127826
 20
-141.8405914403554
 30
0.0
 10
110.4197448139247
 20
-141.795788662589
 30
0.0
 10
110.3646056486648
 20
-141.795788662589
 30
0.0
 10
110.3095029700567
 20
-141.795788662589
 30
0.0
 10
110.26470019229
 20
-141.8405914403554
 30
0.0
 10
110.26470019229
 20
-141.8960481070083
 30
0.0
 10
110.26470019229
 20
-141.9511519958833
 30
0.0
 10
110.3095029700567
 20
-141.99595477365
 30
0.0
 10
110.3646056486648
 20
-141.99595477365
 30
0.0
 10
110.4197448139247
 20
-141.99595477365
 30
0.0
 10
110.4645123127826
 20
-141.9511519958833
 30
0.0
 10
110.4645123127826
 20
-141.8960481070083
 30
0.0
  0
LINE
  5
DC
330
70
100
AcDbEntity
  8
レイヤー 1
 62
    18
420
        0
370
     9
100
AcDbLine
 10
82.2631404770682
 20
-146.6578425502622
 30
0.0
 11
82.2631404770682
 21
-141.3999367182433
 31
0.0
  0
LINE
  5
DD
330
70
100
AcDbEntity
  8
レイヤー 1
 62
    18
420
        0
370
     9
100
AcDbLine
 10
82.2631404770682
 20
-146.6578425502622
 30
0.0
 11
82.2631404770682
 21
-147.1580814390259
 31
0.0
  0
LINE
  5
DE
330
70
100
AcDbEntity
  8
レイヤー 1
 62
    18
420
        0
370
     9
100
AcDbLine
 10
83.72318186559255
 20
-146.6578425502622
 30
0.0
 11
81.26301547731822
 21
-146.6578425502622
 31
0.0
  0
LINE
  5
DF
330
70
100
AcDbEntity
  8
レイヤー 1
 62
    18
420
        0
370
     9
100
AcDbLine
 10
83.72318186559255
 20
-147.1580814390259
 30
0.0
 11
81.26301547731822
 21
-147.1580814390259
 31
0.0
  0
INSERT
  5
E1
330
70
100
AcDbEntity
  8
レイヤー 1
100
AcDbBlockReference
  2
Block_0
 10
0.0
 20
0.0
 30
0.0
  0
LINE
  5
EF
330
70
100
AcDbEntity
  8
レイヤー 1
 62
    18
420
        0
370
     9
100
AcDbLine
 10
86.26289964273508
 20
-141.8960481070083
 30
0.0
 11
107.2643593388697
 21
-141.8960481070083
 31
0.0
  0
LINE
  5
F0
330
70
100
AcDbEntity
  8
レイヤー 1
 62
    18
420
        0
370
     9
100
AcDbLine
 10
86.26289964273508
 20
-144.1181247731197
 30
0.0
 11
86.26289964273508
 21
-140.8959231072584
 31
0.0
  0
INSERT
  5
F2
330
70
100
AcDbEntity
  8
レイヤー 1
100
AcDbBlockReference
  2
Block_2
 10
0.0
 20
0.0
 30
0.0
  0
LINE
  5
FD
330
70
100
AcDbEntity
  8
レイヤー 1
 62
    18
420
        0
370
     9
100
AcDbLine
 10
82.2631404770682
 20
-147.1580814390259
 30
0.0
 11
82.2631404770682
 21
-153.1580553264153
 31
0.0
  0
LINE
  5
FE
330
70
100
AcDbEntity
  8
レイヤー 1
 62
    18
420
        0
370
     9
100
AcDbLine
 10
103.72486942917
 20
-153.1580553264153
 30
0.0
 11
81.26301547731822
 21
-153.1580553264153
 31
0.0
  0
INSERT
  5
100
330
70
100
AcDbEntity
  8
レイヤー 1
100
AcDbBlockReference
  2
Block_4
 10
0.0
 20
0.0
 30
0.0
  0
LINE
  5
106
330
70
100
AcDbEntity
  8
レイヤー 1
 62
    18
420
        0
370
     9
100
AcDbLine
 10
131.3659248350987
 20
-141.8960481070083
 30
0.0
 11
110.3646056486648
 21
-141.8960481070083
 31
0.0
  0
LINE
  5
107
330
70
100
AcDbEntity
  8
レイヤー 1
 62
    18
420
        0
370
     9
100
AcDbLine
 10
131.3659248350987
 20
-144.1181247731197
 30
0.0
 11
131.3659248350987
 21
-140.8959231072584
 31
0.0
  0
INSERT
  5
109
330
70
100
AcDbEntity
  8
レイヤー 1
100
AcDbBlockReference
  2
Block_5
 10
0.0
 20
0.0
 30
0.0
  0
LINE
  5
114
330
70
100
AcDbEntity
  8
レイヤー 1
 62
    18
420
        0
370
     9
100
AcDbLine
 10
107.2643593388697
 20
-141.8960481070083
 30
0.0
 11
110.26470019229
 21
-141.8960481070083
 31
0.0
  0
LINE
  5
115
330
70
100
AcDbEntity
  8
レイヤー 1
 62
    18
420
        0
370
     9
100
AcDbLine
 10
107.2643593388697
 20
-143.3560894955324
 30
0.0
 11
107.2643593388697
 21
-140.8959231072584
 31
0.0
  0
LINE
  5
116
330
70
100
AcDbEntity
  8
レイヤー 1
 62
    18
420
        0
370
     9
100
AcDbLine
 10
110.3646056486648
 20
-143.3560894955324
 30
0.0
 11
110.3646056486648
 21
-140.8959231072584
 31
0.0
  0
INSERT
  5
118
330
70
100
AcDbEntity
  8
レイヤー 1
100
AcDbBlockReference
  2
Block_7
 10
0.0
 20
0.0
 30
0.0
  0
SPLINE
  5
11D
330
70
100
AcDbEntity
  8
レイヤー 1
 62
    18
420
        0
370
     9
100
AcDbSpline
210
0.0
220
0.0
230
1.0
 70
     9
 71
     3
 72
    17
 73
    13
 74
     0
 42
0.0000000001
 43
0.0000000001
 40
0.0
 40
0.0
 40
0.0
 40
0.0
 40
1.0
 40
1.0
 40
1.0
 40
2.0
 40
2.0
 40
2.0
 40
3.0
 40
3.0
 40
3.0
 40
4.0
 40
4.0
 40
4.0
 40
4.0
 10
106.5484674126892
 20
-157.2715147698308
 30
0.0
 10
106.5484674126892
 20
-157.2163756031783
 30
0.0
 10
106.4926579696686
 20
-157.1716081031898
 30
0.0
 10
106.4244660269639
 20
-157.1716081031898
 30
0.0
 10
106.3555696377123
 20
-157.1716081031898
 30
0.0
 10
106.3004293634616
 20
-157.2163756031783
 30
0.0
 10
106.3004293634616
 20
-157.2715147698308
 30
0.0
 10
106.3004293634616
 20
-157.3266186587063
 30
0.0
 10
106.3555696377123
 20
-157.371421436473
 30
0.0
 10
106.4244660269639
 20
-157.371421436473
 30
0.0
 10
106.4926579696686
 20
-157.371421436473
 30
0.0
 10
106.5484674126892
 20
-157.3266186587063
 30
0.0
 10
106.5484674126892
 20
-157.2715147698308
 30
0.0
  0
SPLINE
  5
11E
330
70
100
AcDbEntity
  8
レイヤー 1
 62
    18
420
        0
370
     9
100
AcDbSpline
210
0.0
220
0.0
230
1.0
 70
     9
 71
     3
 72
    17
 73
    13
 74
     0
 42
0.0000000001
 43
0.0000000001
 40
0.0
 40
0.0
 40
0.0
 40
0.0
 40
1.0
 40
1.0
 40
1.0
 40
2.0
 40
2.0
 40
2.0
 40
3.0
 40
3.0
 40
3.0
 40
4.0
 40
4.0
 40
4.0
 40
4.0
 10
111.5490217295589
 20
-157.2715147698308
 30
0.0
 10
111.5490217295589
 20
-157.2163756031783
 30
0.0
 10
111.4932122865383
 20
-157.1716081031898
 30
0.0
 10
111.424314788296
 20
-157.1716081031898
 30
0.0
 10
111.3554172900537
 20
-157.1716081031898
 30
0.0
 10
111.3003134025706
 20
-157.2163756031783
 30
0.0
 10
111.3003134025706
 20
-157.2715147698308
 30
0.0
 10
111.3003134025706
 20
-157.3266186587063
 30
0.0
 10
111.3554172900537
 20
-157.371421436473
 30
0.0
 10
111.424314788296
 20
-157.371421436473
 30
0.0
 10
111.4932122865383
 20
-157.371421436473
 30
0.0
 10
111.5490217295589
 20
-157.3266186587063
 30
0.0
 10
111.5490217295589
 20
-157.2715147698308
 30
0.0
  0
LINE
  5
11F
330
70
100
AcDbEntity
  8
レイヤー 1
 62
    18
420
        0
370
     9
100
AcDbLine
 10
111.424314788296
 20
-157.2715147698308
 30
0.0
 11
106.4244660269639
 21
-157.2715147698308
 31
0.0
  0
LINE
  5
120
330
70
100
AcDbEntity
  8
レイヤー 1
 62
    18
420
        0
370
     9
100
AcDbLine
 10
111.424314788296
 20
-155.811473381307
 30
0.0
 11
111.424314788296
 21
-158.2716044918035
 31
0.0
  0
LINE
  5
121
330
70
100
AcDbEntity
  8
レイヤー 1
 62
    18
420
        0
370
     9
100
AcDbLine
 10
106.4244660269639
 20
-155.811473381307
 30
0.0
 11
106.4244660269639
 21
-158.2716044918035
 31
0.0
  0
INSERT
  5
123
330
70
100
AcDbEntity
  8
レイヤー 1
100
AcDbBlockReference
  2
Block_8
 10
0.0
 20
0.0
 30
0.0
  0
LINE
  5
128
330
70
100
AcDbEntity
  8
レイヤー 1
 62
    18
420
        0
370
     9
100
AcDbLine
 10
109.2361753996756
 20
-150.3036244937955
 30
0.0
 11
116.2364504988615
 21
-150.3036244937955
 31
0.0
  0
INSERT
  5
12A
330
70
100
AcDbEntity
  8
レイヤー 1
100
AcDbBlockReference
  2
Block_9
 10
0.0
 20
0.0
 30
0.0
  0
INSERT
  5
130
330
70
100
AcDbEntity
  8
レイヤー 1
100
AcDbBlockReference
  2
Block_10
 10
0.0
 20
0.0
 30
0.0
  0
INSERT
  5
137
330
70
100
AcDbEntity
  8
レイヤー 1
100
AcDbBlockReference
  2
Block_11
 10
0.0
 20
0.0
 30
0.0
  0
ENDSEC
  0
SECTION
  2
OBJECTS
  0
DICTIONARY
  5
C
330
0
100
AcDbDictionary
281
     1
  3
ACAD_COLOR
350
63
  3
ACAD_DETAILVIEWSTYLE
350
6A
  3
ACAD_GROUP
350
D
  3
ACAD_LAYOUT
350
62
  3
ACAD_MATERIAL
350
10
  3
ACAD_MLEADERSTYLE
350
66
  3
ACAD_MLINESTYLE
350
5F
  3
ACAD_PLOTSETTINGS
350
61
  3
ACAD_PLOTSTYLENAME
350
E
  3
ACAD_SCALELIST
350
42
  3
ACAD_SECTIONVIEWSTYLE
350
68
  3
ACAD_TABLESTYLE
350
64
  3
ACAD_VISUALSTYLE
350
29
  3
ACDB_RECOMPOSE_DATA
350
156
  3
AcDbVariableDictionary
350
14E
  0
DICTIONARY
  5
63
102
{ACAD_REACTORS
330
C
102
}
330
C
100
AcDbDictionary
281
     1
  0
DICTIONARY
  5
6A
102
{ACAD_REACTORS
330
C
102
}
330
C
100
AcDbDictionary
281
     1
  3
Imperial24
350
6B
  0
DICTIONARY
  5
D
102
{ACAD_REACTORS
330
C
102
}
330
C
100
AcDbDictionary
281
     1
  0
DICTIONARY
  5
62
102
{ACAD_REACTORS
330
C
102
}
330
C
100
AcDbDictionary
281
     1
  3
Layout1
350
6F
  3
Layout2
350
77
  3
Model
350
73
  0
DICTIONARY
  5
10
102
{ACAD_REACTORS
330
C
102
}
330
C
100
AcDbDictionary
281
     1
  3
ByBlock
350
19
  3
ByLayer
350
11
  3
Global
350
21
  0
DICTIONARY
  5
66
102
{ACAD_REACTORS
330
C
102
}
330
C
100
AcDbDictionary
281
     1
  3
Standard
350
67
  0
DICTIONARY
  5
5F
102
{ACAD_REACTORS
330
C
102
}
330
C
100
AcDbDictionary
281
     1
  3
Standard
350
60
  0
DICTIONARY
  5
61
102
{ACAD_REACTORS
330
C
102
}
330
C
100
AcDbDictionary
281
     1
  0
ACDBDICTIONARYWDFLT
  5
E
102
{ACAD_REACTORS
330
C
102
}
330
C
100
AcDbDictionary
281
     1
  3
Normal
350
F
100
AcDbDictionaryWithDefault
340
F
  0
DICTIONARY
  5
42
102
{ACAD_REACTORS
330
C
102
}
330
C
100
AcDbDictionary
281
     1
  3
A0
350
43
  3
A1
350
44
  3
A2
350
45
  3
A3
350
46
  3
A4
350
47
  3
A5
350
48
  3
A6
350
49
  3
A7
350
4A
  3
A8
350
4B
  3
A9
350
4C
  3
B0
350
4D
  3
B1
350
4E
  3
B2
350
4F
  3
B3
350
50
  3
B4
350
51
  3
B5
350
52
  3
B6
350
53
  0
DICTIONARY
  5
68
102
{ACAD_REACTORS
330
C
102
}
330
C
100
AcDbDictionary
281
     1
  3
Imperial24
350
69
  0
DICTIONARY
  5
64
102
{ACAD_REACTORS
330
C
102
}
330
C
100
AcDbDictionary
281
     1
  3
Standard
350
65
  0
DICTIONARY
  5
29
102
{ACAD_REACTORS
330
C
102
}
330
C
100
AcDbDictionary
281
     1
  3
2dWireframe
350
2F
  3
Basic
350
2E
  3
Brighten
350
35
  3
ColorChange
350
39
  3
Conceptual
350
32
  3
Dim
350
34
  3
EdgeColorOff
350
41
  3
Facepattern
350
38
  3
Flat
350
2A
  3
FlatWithEdges
350
2B
  3
Gouraud
350
2C
  3
GouraudWithEdges
350
2D
  3
Hidden
350
31
  3
JitterOff
350
3F
  3
Linepattern
350
37
  3
OverhangOff
350
40
  3
Realistic
350
33
  3
Shaded
350
3E
  3
Shaded with edges
350
3D
  3
Shades of Gray
350
3A
  3
Sketchy
350
3B
  3
Thicken
350
36
  3
Wireframe
350
30
  3
X-Ray
350
3C
  0
XRECORD
  5
156
102
{ACAD_REACTORS
330
C
102
}
330
C
100
AcDbXrecord
280
     1
 90
        1
330
65
  0
DICTIONARY
  5
14E
102
{ACAD_REACTORS
330
C
102
}
330
C
100
AcDbDictionary
281
     1
  3
CANNOSCALE
350
153
  3
CMLEADERSTYLE
350
150
  3
CTABLESTYLE
350
14F
  3
CVIEWDETAILSTYLE
350
151
  3
CVIEWSECTIONSTYLE
350
152
  0
ACDBDETAILVIEWSTYLE
  5
6B
102
{ACAD_XDICTIONARY
360
18B
102
}
102
{ACAD_REACTORS
330
6A
102
}
330
6A
100
AcDbModelDocViewStyle
 70
     0
  3
Imperial24
290
     0
100
AcDbDetailViewStyle
 70
     0
 71
     0
 90
        3
 71
     1
340
55
 62
   256
 40
0.24
340
0
 62
   256
 40
0.24
300

 40
0.36
280
     3
 71
     2
340
5D
 90
       25
 62
   256
 71
     3
340
55
 62
   256
 40
0.24
 90
        1
 40
0.75
 90
        1
300
%<\AcVar ViewType \f "%tc1">% %<\AcVar ViewDetailId>%\PSCALE %<\AcVar ViewScale \f "%sn">%
 71
     4
340
5D
 90
       25
 62
   256
340
5D
 90
       25
 62
   256
280
     0
  0
LAYOUT
  5
6F
102
{ACAD_REACTORS
330
62
102
}
330
62
100
AcDbPlotSettings
  1

  2

  4

  6

 40
0.0
 41
0.0
 42
0.0
 43
0.0
 44
0.0
 45
0.0
 46
0.0
 47
0.0
 48
0.0
 49
0.0
140
0.0
141
0.0
142
1.0
143
1.0
 70
   688
 72
     0
 73
     0
 74
     5
  7

 75
    16
147
1.0
 76
     0
 77
     2
 78
   300
148
0.0
149
0.0
100
AcDbLayout
  1
Layout1
 70
     1
 71
     1
 10
0.0
 20
0.0
 11
12.0
 21
9.0
 12
0.0
 22
0.0
 32
0.0
 14
0.0
 24
0.0
 34
0.0
 15
0.0
 25
0.0
 35
0.0
146
0.0
 13
0.0
 23
0.0
 33
0.0
 16
1.0
 26
0.0
 36
0.0
 17
0.0
 27
1.0
 37
0.0
 76
     0
330
6C
  0
LAYOUT
  5
77
102
{ACAD_REACTORS
330
62
102
}
330
62
100
AcDbPlotSettings
  1

  2

  4

  6

 40
0.0
 41
0.0
 42
0.0
 43
0.0
 44
0.0
 45
0.0
 46
0.0
 47
0.0
 48
0.0
 49
0.0
140
0.0
141
0.0
142
1.0
143
1.0
 70
   688
 72
     0
 73
     0
 74
     5
  7

 75
    16
147
1.0
 76
     0
 77
     2
 78
   300
148
0.0
149
0.0
100
AcDbLayout
  1
Layout2
 70
     1
 71
     2
 10
0.0
 20
0.0
 11
12.0
 21
9.0
 12
0.0
 22
0.0
 32
0.0
 14
0.0
 24
0.0
 34
0.0
 15
0.0
 25
0.0
 35
0.0
146
0.0
 13
0.0
 23
0.0
 33
0.0
 16
1.0
 26
0.0
 36
0.0
 17
0.0
 27
1.0
 37
0.0
 76
     0
330
74
  0
LAYOUT
  5
73
102
{ACAD_REACTORS
330
62
102
}
330
62
100
AcDbPlotSettings
  1

  2

  4

  6

 40
0.0
 41
0.0
 42
0.0
 43
0.0
 44
0.0
 45
0.0
 46
0.0
 47
0.0
 48
0.0
 49
0.0
140
0.0
141
0.0
142
1.0
143
1.0
 70
  1712
 72
     0
 73
     0
 74
     0
  7

 75
     0
147
1.0
 76
     0
 77
     2
 78
   300
148
0.0
149
0.0
100
AcDbLayout
  1
Model
 70
     1
 71
     0
 10
0.0
 20
0.0
 11
12.0
 21
9.0
 12
0.0
 22
0.0
 32
0.0
 14
0.0
 24
0.0
 34
0.0
 15
0.0
 25
0.0
 35
0.0
146
0.0
 13
0.0
 23
0.0
 33
0.0
 16
1.0
 26
0.0
 36
0.0
 17
0.0
 27
1.0
 37
0.0
 76
     0
330
70
  0
MATERIAL
  5
19
102
{ACAD_XDICTIONARY
360
1A
102
}
102
{ACAD_REACTORS
330
10
102
}
330
10
100
AcDbMaterial
  1
ByBlock
 72
     0
 43
0.0208333333333333
 43
0.0
 43
0.0
 43
0.0
 43
0.0
 43
0.0208333333333333
 43
0.0
 43
0.0
 43
0.0
 43
0.0
 43
1.0
 43
0.0
 43
0.0
 43
0.0
 43
0.0
 43
1.0
 77
     0
 47
0.0208333333333333
 47
0.0
 47
0.0
 47
0.0
 47
0.0
 47
0.0208333333333333
 47
0.0
 47
0.0
 47
0.0
 47
0.0
 47
1.0
 47
0.0
 47
0.0
 47
0.0
 47
0.0
 47
1.0
171
     0
 49
0.0208333333333333
 49
0.0
 49
0.0
 49
0.0
 49
0.0
 49
0.0208333333333333
 49
0.0
 49
0.0
 49
0.0
 49
0.0
 49
1.0
 49
0.0
 49
0.0
 49
0.0
 49
0.0
 49
1.0
175
     0
142
0.0208333333333333
142
0.0
142
0.0
142
0.0
142
0.0
142
0.0208333333333333
142
0.0
142
0.0
142
0.0
142
0.0
142
1.0
142
0.0
142
0.0
142
0.0
142
0.0
142
1.0
179
     0
144
0.0208333333333333
144
0.0
144
0.0
144
0.0
144
0.0
144
0.0208333333333333
144
0.0
144
0.0
144
0.0
144
0.0
144
1.0
144
0.0
144
0.0
144
0.0
144
0.0
144
1.0
147
0.0208333333333333
147
0.0
147
0.0
147
0.0
147
0.0
147
0.0208333333333333
147
0.0
147
0.0
147
0.0
147
0.0
147
1.0
147
0.0
147
0.0
147
0.0
147
0.0
147
1.0
  0
MATERIAL
  5
11
102
{ACAD_XDICTIONARY
360
12
102
}
102
{ACAD_REACTORS
330
10
102
}
330
10
100
AcDbMaterial
  1
ByLayer
 72
     0
 43
0.0208333333333333
 43
0.0
 43
0.0
 43
0.0
 43
0.0
 43
0.0208333333333333
 43
0.0
 43
0.0
 43
0.0
 43
0.0
 43
1.0
 43
0.0
 43
0.0
 43
0.0
 43
0.0
 43
1.0
 77
     0
 47
0.0208333333333333
 47
0.0
 47
0.0
 47
0.0
 47
0.0
 47
0.0208333333333333
 47
0.0
 47
0.0
 47
0.0
 47
0.0
 47
1.0
 47
0.0
 47
0.0
 47
0.0
 47
0.0
 47
1.0
171
     0
 49
0.0208333333333333
 49
0.0
 49
0.0
 49
0.0
 49
0.0
 49
0.0208333333333333
 49
0.0
 49
0.0
 49
0.0
 49
0.0
 49
1.0
 49
0.0
 49
0.0
 49
0.0
 49
0.0
 49
1.0
175
     0
142
0.0208333333333333
142
0.0
142
0.0
142
0.0
142
0.0
142
0.0208333333333333
142
0.0
142
0.0
142
0.0
142
0.0
142
1.0
142
0.0
142
0.0
142
0.0
142
0.0
142
1.0
179
     0
144
0.0208333333333333
144
0.0
144
0.0
144
0.0
144
0.0
144
0.0208333333333333
144
0.0
144
0.0
144
0.0
144
0.0
144
1.0
144
0.0
144
0.0
144
0.0
144
0.0
144
1.0
147
0.0208333333333333
147
0.0
147
0.0
147
0.0
147
0.0
147
0.0208333333333333
147
0.0
147
0.0
147
0.0
147
0.0
147
1.0
147
0.0
147
0.0
147
0.0
147
0.0
147
1.0
  0
MATERIAL
  5
21
102
{ACAD_XDICTIONARY
360
22
102
}
102
{ACAD_REACTORS
330
10
102
}
330
10
100
AcDbMaterial
  1
Global
 72
     0
 43
0.0208333333333333
 43
0.0
 43
0.0
 43
0.0
 43
0.0
 43
0.0208333333333333
 43
0.0
 43
0.0
 43
0.0
 43
0.0
 43
1.0
 43
0.0
 43
0.0
 43
0.0
 43
0.0
 43
1.0
 77
     0
 47
0.0208333333333333
 47
0.0
 47
0.0
 47
0.0
 47
0.0
 47
0.0208333333333333
 47
0.0
 47
0.0
 47
0.0
 47
0.0
 47
1.0
 47
0.0
 47
0.0
 47
0.0
 47
0.0
 47
1.0
171
     0
 49
0.0208333333333333
 49
0.0
 49
0.0
 49
0.0
 49
0.0
 49
0.0208333333333333
 49
0.0
 49
0.0
 49
0.0
 49
0.0
 49
1.0
 49
0.0
 49
0.0
 49
0.0
 49
0.0
 49
1.0
175
     0
142
0.0208333333333333
142
0.0
142
0.0
142
0.0
142
0.0
142
0.0208333333333333
142
0.0
142
0.0
142
0.0
142
0.0
142
1.0
142
0.0
142
0.0
142
0.0
142
0.0
142
1.0
179
     0
144
0.0208333333333333
144
0.0
144
0.0
144
0.0
144
0.0
144
0.0208333333333333
144
0.0
144
0.0
144
0.0
144
0.0
144
1.0
144
0.0
144
0.0
144
0.0
144
0.0
144
1.0
147
0.0208333333333333
147
0.0
147
0.0
147
0.0
147
0.0
147
0.0208333333333333
147
0.0
147
0.0
147
0.0
147
0.0
147
1.0
147
0.0
147
0.0
147
0.0
147
0.0
147
1.0
  0
MLEADERSTYLE
  5
67
102
{ACAD_XDICTIONARY
360
187
102
}
102
{ACAD_REACTORS
330
66
102
}
330
66
100
AcDbMLeaderStyle
179
     2
170
     2
171
     1
172
     0
 90
        2
 40
0.0
 41
0.0
173
     1
 91
-1056964608
340
5B
 92
       -2
290
     1
 42
0.09
291
     1
 43
0.36
  3
Standard
 44
0.18
300

342
55
174
     1
178
     6
175
     1
176
     0
 93
-1056964608
 45
0.18
292
     0
297
     0
 46
0.18
 94
-1056964608
 47
1.0
 49
1.0
140
1.0
293
     1
141
0.0
294
     1
177
     0
142
1.0
295
     0
296
     0
143
0.125
271
     0
272
     9
273
     9
  0
MLINESTYLE
  5
60
102
{ACAD_REACTORS
330
5F
102
}
330
5F
100
AcDbMlineStyle
  2
STANDARD
 70
     0
  3

 62
   256
 51
90.0
 52
90.0
 71
     2
 49
0.5
 62
   256
  6
BYLAYER
 49
-0.5
 62
   256
  6
BYLAYER
  0
ACDBPLACEHOLDER
  5
F
102
{ACAD_REACTORS
330
E
102
}
330
E
  0
SCALE
  5
43
102
{ACAD_REACTORS
330
42
102
}
330
42
100
AcDbScale
 70
     0
300
1:1
140
1.0
141
1.0
290
     1
  0
SCALE
  5
44
102
{ACAD_REACTORS
330
42
102
}
330
42
100
AcDbScale
 70
     0
300
1/128" = 1'-0"
140
0.0078125
141
12.0
290
     0
  0
SCALE
  5
45
102
{ACAD_REACTORS
330
42
102
}
330
42
100
AcDbScale
 70
     0
300
1/64" = 1'-0"
140
0.015625
141
12.0
290
     0
  0
SCALE
  5
46
102
{ACAD_REACTORS
330
42
102
}
330
42
100
AcDbScale
 70
     0
300
1/32" = 1'-0"
140
0.03125
141
12.0
290
     0
  0
SCALE
  5
47
102
{ACAD_REACTORS
330
42
102
}
330
42
100
AcDbScale
 70
     0
300
1/16" = 1'-0"
140
0.0625
141
12.0
290
     0
  0
SCALE
  5
48
102
{ACAD_REACTORS
330
42
102
}
330
42
100
AcDbScale
 70
     0
300
3/32" = 1'-0"
140
0.09375
141
12.0
290
     0
  0
SCALE
  5
49
102
{ACAD_REACTORS
330
42
102
}
330
42
100
AcDbScale
 70
     0
300
1/8" = 1'-0"
140
0.125
141
12.0
290
     0
  0
SCALE
  5
4A
102
{ACAD_REACTORS
330
42
102
}
330
42
100
AcDbScale
 70
     0
300
3/16" = 1'-0"
140
0.1875
141
12.0
290
     0
  0
SCALE
  5
4B
102
{ACAD_REACTORS
330
42
102
}
330
42
100
AcDbScale
 70
     0
300
1/4" = 1'-0"
140
0.25
141
12.0
290
     0
  0
SCALE
  5
4C
102
{ACAD_REACTORS
330
42
102
}
330
42
100
AcDbScale
 70
     0
300
3/8" = 1'-0"
140
0.375
141
12.0
290
     0
  0
SCALE
  5
4D
102
{ACAD_REACTORS
330
42
102
}
330
42
100
AcDbScale
 70
     0
300
1/2" = 1'-0"
140
0.5
141
12.0
290
     0
  0
SCALE
  5
4E
102
{ACAD_REACTORS
330
42
102
}
330
42
100
AcDbScale
 70
     0
300
3/4" = 1'-0"
140
0.75
141
12.0
290
     0
  0
SCALE
  5
4F
102
{ACAD_REACTORS
330
42
102
}
330
42
100
AcDbScale
 70
     0
300
1" = 1'-0"
140
1.0
141
12.0
290
     0
  0
SCALE
  5
50
102
{ACAD_REACTORS
330
42
102
}
330
42
100
AcDbScale
 70
     0
300
1-1/2" = 1'-0"
140
1.5
141
12.0
290
     0
  0
SCALE
  5
51
102
{ACAD_REACTORS
330
42
102
}
330
42
100
AcDbScale
 70
     0
300
3" = 1'-0"
140
3.0
141
12.0
290
     0
  0
SCALE
  5
52
102
{ACAD_REACTORS
330
42
102
}
330
42
100
AcDbScale
 70
     0
300
6" = 1'-0"
140
6.0
141
12.0
290
     0
  0
SCALE
  5
53
102
{ACAD_REACTORS
330
42
102
}
330
42
100
AcDbScale
 70
     0
300
1'-0" = 1'-0"
140
12.0
141
12.0
290
     0
  0
ACDBSECTIONVIEWSTYLE
  5
69
102
{ACAD_XDICTIONARY
360
189
102
}
102
{ACAD_REACTORS
330
68
102
}
330
68
100
AcDbModelDocViewStyle
 70
     0
  3
Imperial24
290
     0
100
AcDbSectionViewStyle
 70
     0
 71
     0
 90
       78
 71
     1
340
55
 62
   256
 40
0.24
340
0
340
0
 62
   256
 40
0.24
300
I, O, Q, S, X, Z
 40
0.48
 90
        3
 40
0.18
 90
        1
 71
     2
340
5D
 90
       25
 62
   256
340
5D
 90
       50
 62
   256
 40
0.24
 40
0.0
 40
0.24
 71
     3
340
55
 62
   256
 40
0.24
 90
        1
 40
0.75
 90
        1
300
%<\AcVar ViewType \f "%tc1">% %<\AcVar ViewSectionStartId>%-%<\AcVar ViewSectionEndId>%\PSCALE %<\AcVar ViewScale \f "%sn">%
 71
     4
 62
   256
 62
   257
300
ANSI31
 40
1.0
 90
        0
290
     0
290
     0
 90
        6
 40
0.0
 40
1.570796326794896
 40
0.2617993877991494
 40
1.308996938995747
 40
-0.2617993877991494
 40
1.832595714594046
  0
TABLESTYLE
  5
65
102
{ACAD_XDICTIONARY
360
154
102
}
102
{ACAD_REACTORS
330
64
102
}
330
64
100
AcDbTableStyle
280
     0
  3
Standard
 70
     0
 71
     0
 40
0.06
 41
0.06
280
     0
281
     0
  7
Standard
140
0.18
170
     2
 62
     0
 63
     7
283
     0
 90
      512
 91
        0
  1

274
    -2
284
     1
 64
     0
275
    -2
285
     1
 65
     0
276
    -2
286
     1
 66
     0
277
    -2
287
     1
 67
     0
278
    -2
288
     1
 68
     0
279
    -2
289
     1
 69
     0
  7
Standard
140
0.25
170
     5
 62
     0
 63
     7
283
     0
 90
      512
 91
        0
  1

274
    -2
284
     1
 64
     0
275
    -2
285
     1
 65
     0
276
    -2
286
     1
 66
     0
277
    -2
287
     1
 67
     0
278
    -2
288
     1
 68
     0
279
    -2
289
     1
 69
     0
  7
Standard
140
0.18
170
     5
 62
     0
 63
     7
283
     0
 90
      512
 91
        0
  1

274
    -2
284
     1
 64
     0
275
    -2
285
     1
 65
     0
276
    -2
286
     1
 66
     0
277
    -2
287
     1
 67
     0
278
    -2
288
     1
 68
     0
279
    -2
289
     1
 69
     0
  0
VISUALSTYLE
  5
2F
102
{ACAD_XDICTIONARY
360
161
102
}
102
{ACAD_REACTORS
330
29
102
}
330
29
100
AcDbVisualStyle
  2
2dWireframe
 70
     4
177
     2
291
     0
 71
     0
176
     1
 72
     2
176
     1
 73
     0
176
     1
 90
        0
176
     1
 40
0.6
176
     1
 41
30.0
176
     1
 63
     7
421
 16777215
176
     1
 74
     1
176
     1
 91
        4
176
     1
 64
     7
176
     1
 65
   257
176
     1
 75
     1
176
     1
175
     1
176
     1
 42
1.0
176
     1
 92
        0
176
     1
 66
   257
176
     1
 43
1.0
176
     1
 76
     1
176
     1
 77
     6
176
     1
 78
     2
176
     1
 67
     7
176
     1
 79
     5
176
     1
170
     0
176
     1
171
     0
176
     1
290
     0
176
     1
 93
        1
176
     1
 44
0.0
176
     1
173
     0
176
     1
1001
ACAD
1000
AcDbSavedByObjectVersion
1070
     0
  0
VISUALSTYLE
  5
2E
102
{ACAD_XDICTIONARY
360
15F
102
}
102
{ACAD_REACTORS
330
29
102
}
330
29
100
AcDbVisualStyle
  2
Basic
 70
     7
177
     2
291
     1
 71
     1
176
     1
 72
     0
176
     1
 73
     1
176
     1
 90
        0
176
     1
 40
0.6
176
     1
 41
30.0
176
     1
 63
     7
421
 16777215
176
     1
 74
     0
176
     1
 91
        4
176
     1
 64
     7
176
     1
 65
   257
176
     1
 75
     1
176
     1
175
     1
176
     1
 42
1.0
176
     1
 92
        8
176
     1
 66
     7
176
     1
 43
1.0
176
     1
 76
     1
176
     1
 77
     6
176
     1
 78
     2
176
     1
 67
     7
176
     1
 79
     5
176
     1
170
     0
176
     1
171
     0
176
     1
290
     0
176
     1
 93
        1
176
     1
 44
0.0
176
     1
173
     0
176
     1
1001
ACAD
1000
AcDbSavedByObjectVersion
1070
     0
  0
VISUALSTYLE
  5
35
102
{ACAD_XDICTIONARY
360
16D
102
}
102
{ACAD_REACTORS
330
29
102
}
330
29
100
AcDbVisualStyle
  2
Brighten
 70
    12
177
     2
291
     1
 71
     2
176
     1
 72
     2
176
     1
 73
     0
176
     1
 90
        0
176
     1
 40
0.6
176
     1
 41
30.0
176
     1
 63
     7
421
 16777215
176
     1
 74
     1
176
     1
 91
        4
176
     1
 64
     7
176
     1
 65
   257
176
     1
 75
     1
176
     1
175
     1
176
     1
 42
1.0
176
     1
 92
        8
176
     1
 66
     7
176
     1
 43
1.0
176
     1
 76
     1
176
     1
 77
     6
176
     1
 78
     2
176
     1
 67
     7
176
     1
 79
     5
176
     1
170
     0
176
     1
171
     0
176
     1
290
     0
176
     1
 93
        1
176
     1
 44
50.0
176
     1
173
     0
176
     1
1001
ACAD
1000
AcDbSavedByObjectVersion
1070
     0
  0
VISUALSTYLE
  5
39
102
{ACAD_XDICTIONARY
360
175
102
}
102
{ACAD_REACTORS
330
29
102
}
330
29
100
AcDbVisualStyle
  2
ColorChange
 70
    16
177
     2
291
     1
 71
     2
176
     1
 72
     2
176
     1
 73
     3
176
     1
 90
        0
176
     1
 40
0.6
176
     1
 41
30.0
176
     1
 63
     8
421
  8421504
176
     1
 74
     1
176
     1
 91
        4
176
     1
 64
     7
176
     1
 65
   257
176
     1
 75
     1
176
     1
175
     1
176
     1
 42
1.0
176
     1
 92
        8
176
     1
 66
     8
424
  8421504
176
     1
 43
1.0
176
     1
 76
     1
176
     1
 77
     6
176
     1
 78
     2
176
     1
 67
     7
176
     1
 79
     5
176
     1
170
     0
176
     1
171
     0
176
     1
290
     0
176
     1
 93
        1
176
     1
 44
0.0
176
     1
173
     0
176
     1
1001
ACAD
1000
AcDbSavedByObjectVersion
1070
     0
  0
VISUALSTYLE
  5
32
102
{ACAD_XDICTIONARY
360
167
102
}
102
{ACAD_REACTORS
330
29
102
}
330
29
100
AcDbVisualStyle
  2
Conceptual
 70
     9
177
     2
291
     0
 71
     3
176
     1
 72
     2
176
     1
 73
     0
176
     1
 90
        0
176
     1
 40
0.6
176
     1
 41
30.0
176
     1
 63
     7
421
 16777215
176
     1
 74
     2
176
     1
 91
        2
176
     1
 64
     7
176
     1
 65
   257
176
     1
 75
     1
176
     1
175
     1
176
     1
 42
179.0
176
     1
 92
        8
176
     1
 66
     7
176
     1
 43
1.0
176
     1
 76
     1
176
     1
 77
     6
176
     1
 78
     2
176
     1
 67
     7
176
     1
 79
     3
176
     1
170
     0
176
     1
171
     0
176
     1
290
     0
176
     1
 93
        1
176
     1
 44
0.0
176
     1
173
     0
176
     1
1001
ACAD
1000
AcDbSavedByObjectVersion
1070
     0
  0
VISUALSTYLE
  5
34
102
{ACAD_XDICTIONARY
360
16B
102
}
102
{ACAD_REACTORS
330
29
102
}
330
29
100
AcDbVisualStyle
  2
Dim
 70
    11
177
     2
291
     1
 71
     2
176
     1
 72
     2
176
     1
 73
     0
176
     1
 90
        0
176
     1
 40
0.6
176
     1
 41
30.0
176
     1
 63
     7
421
 16777215
176
     1
 74
     1
176
     1
 91
        4
176
     1
 64
     7
176
     1
 65
   257
176
     1
 75
     1
176
     1
175
     1
176
     1
 42
1.0
176
     1
 92
        8
176
     1
 66
     7
176
     1
 43
1.0
176
     1
 76
     1
176
     1
 77
     6
176
     1
 78
     2
176
     1
 67
     7
176
     1
 79
     5
176
     1
170
     0
176
     1
171
     0
176
     1
290
     0
176
     1
 93
        1
176
     1
 44
-50.0
176
     1
173
     0
176
     1
1001
ACAD
1000
AcDbSavedByObjectVersion
1070
     0
  0
VISUALSTYLE
  5
41
102
{ACAD_XDICTIONARY
360
185
102
}
102
{ACAD_REACTORS
330
29
102
}
330
29
100
AcDbVisualStyle
  2
EdgeColorOff
 70
    22
177
     2
291
     1
 71
     2
176
     0
 72
     2
176
     0
 73
     0
176
     0
 90
        0
176
     0
 40
0.6
176
     0
 41
30.0
176
     0
 63
     7
421
 16777215
176
     0
 74
     1
176
     0
 91
        4
176
     0
 64
     7
176
     0
 65
   257
176
     0
 75
     1
176
     0
175
     1
176
     0
 42
1.0
176
     0
 92
        8
176
     2
 66
     7
176
     0
 43
1.0
176
     0
 76
     1
176
     0
 77
     6
176
     0
 78
     2
176
     0
 67
     7
176
     0
 79
     5
176
     0
170
     0
176
     0
171
     0
176
     0
290
     0
176
     0
 93
        1
176
     0
 44
0.0
176
     0
173
     0
176
     0
1001
ACAD
1000
AcDbSavedByObjectVersion
1070
     0
  0
VISUALSTYLE
  5
38
102
{ACAD_XDICTIONARY
360
173
102
}
102
{ACAD_REACTORS
330
29
102
}
330
29
100
AcDbVisualStyle
  2
Facepattern
 70
    15
177
     2
291
     1
 71
     2
176
     1
 72
     2
176
     1
 73
     0
176
     1
 90
        0
176
     1
 40
0.6
176
     1
 41
30.0
176
     1
 63
     7
421
 16777215
176
     1
 74
     1
176
     1
 91
        4
176
     1
 64
     7
176
     1
 65
   257
176
     1
 75
     1
176
     1
175
     1
176
     1
 42
1.0
176
     1
 92
        8
176
     1
 66
     7
176
     1
 43
1.0
176
     1
 76
     1
176
     1
 77
     6
176
     1
 78
     2
176
     1
 67
     7
176
     1
 79
     5
176
     1
170
     0
176
     1
171
     0
176
     1
290
     0
176
     1
 93
        1
176
     1
 44
0.0
176
     1
173
     0
176
     1
1001
ACAD
1000
AcDbSavedByObjectVersion
1070
     0
  0
VISUALSTYLE
  5
2A
102
{ACAD_XDICTIONARY
360
157
102
}
102
{ACAD_REACTORS
330
29
102
}
330
29
100
AcDbVisualStyle
  2
Flat
 70
     0
177
     2
291
     1
 71
     2
176
     1
 72
     1
176
     1
 73
     1
176
     1
 90
        2
176
     1
 40
0.6
176
     1
 41
30.0
176
     1
 63
     7
421
 16777215
176
     1
 74
     0
176
     1
 91
        0
176
     1
 64
     7
176
     1
 65
   257
176
     1
 75
     1
176
     1
175
     1
176
     1
 42
1.0
176
     1
 92
        8
176
     1
 66
     7
176
     1
 43
1.0
176
     1
 76
     1
176
     1
 77
     6
176
     1
 78
     2
176
     1
 67
     7
176
     1
 79
     5
176
     1
170
     0
176
     1
171
     0
176
     1
290
     0
176
     1
 93
       13
176
     1
 44
0.0
176
     1
173
     0
176
     1
1001
ACAD
1000
AcDbSavedByObjectVersion
1070
     0
  0
VISUALSTYLE
  5
2B
102
{ACAD_XDICTIONARY
360
159
102
}
102
{ACAD_REACTORS
330
29
102
}
330
29
100
AcDbVisualStyle
  2
FlatWithEdges
 70
     1
177
     2
291
     1
 71
     2
176
     1
 72
     1
176
     1
 73
     1
176
     1
 90
        2
176
     1
 40
0.6
176
     1
 41
30.0
176
     1
 63
     7
421
 16777215
176
     1
 74
     1
176
     1
 91
        0
176
     1
 64
     7
176
     1
 65
   257
176
     1
 75
     1
176
     1
175
     1
176
     1
 42
1.0
176
     1
 92
        0
176
     1
 66
   257
176
     1
 43
1.0
176
     1
 76
     1
176
     1
 77
     6
176
     1
 78
     2
176
     1
 67
     7
176
     1
 79
     5
176
     1
170
     0
176
     1
171
     0
176
     1
290
     0
176
     1
 93
       13
176
     1
 44
0.0
176
     1
173
     0
176
     1
1001
ACAD
1000
AcDbSavedByObjectVersion
1070
     0
  0
VISUALSTYLE
  5
2C
102
{ACAD_XDICTIONARY
360
15B
102
}
102
{ACAD_REACTORS
330
29
102
}
330
29
100
AcDbVisualStyle
  2
Gouraud
 70
     2
177
     2
291
     1
 71
     2
176
     1
 72
     2
176
     1
 73
     1
176
     1
 90
        2
176
     1
 40
0.6
176
     1
 41
30.0
176
     1
 63
     7
421
 16777215
176
     1
 74
     0
176
     1
 91
        0
176
     1
 64
     7
176
     1
 65
   257
176
     1
 75
     1
176
     1
175
     1
176
     1
 42
1.0
176
     1
 92
        0
176
     1
 66
     7
176
     1
 43
1.0
176
     1
 76
     1
176
     1
 77
     6
176
     1
 78
     2
176
     1
 67
     7
176
     1
 79
     5
176
     1
170
     0
176
     1
171
     0
176
     1
290
     0
176
     1
 93
       13
176
     1
 44
0.0
176
     1
173
     0
176
     1
1001
ACAD
1000
AcDbSavedByObjectVersion
1070
     0
  0
VISUALSTYLE
  5
2D
102
{ACAD_XDICTIONARY
360
15D
102
}
102
{ACAD_REACTORS
330
29
102
}
330
29
100
AcDbVisualStyle
  2
GouraudWithEdges
 70
     3
177
     2
291
     1
 71
     2
176
     1
 72
     2
176
     1
 73
     1
176
     1
 90
        2
176
     1
 40
0.6
176
     1
 41
30.0
176
     1
 63
     7
421
 16777215
176
     1
 74
     1
176
     1
 91
        0
176
     1
 64
     7
176
     1
 65
   257
176
     1
 75
     1
176
     1
175
     1
176
     1
 42
1.0
176
     1
 92
        0
176
     1
 66
   257
176
     1
 43
1.0
176
     1
 76
     1
176
     1
 77
     6
176
     1
 78
     2
176
     1
 67
     7
176
     1
 79
     5
176
     1
170
     0
176
     1
171
     0
176
     1
290
     0
176
     1
 93
       13
176
     1
 44
0.0
176
     1
173
     0
176
     1
1001
ACAD
1000
AcDbSavedByObjectVersion
1070
     0
  0
VISUALSTYLE
  5
31
102
{ACAD_XDICTIONARY
360
165
102
}
102
{ACAD_REACTORS
330
29
102
}
330
29
100
AcDbVisualStyle
  2
Hidden
 70
     6
177
     2
291
     0
 71
     1
176
     1
 72
     2
176
     1
 73
     2
176
     1
 90
        0
176
     1
 40
0.6
176
     1
 41
30.0
176
     1
 63
     7
421
 16777215
176
     1
 74
     2
176
     1
 91
        2
176
     1
 64
     7
176
     1
 65
   257
176
     1
 75
     2
176
     1
175
     1
176
     1
 42
40.0
176
     1
 92
        0
176
     1
 66
   257
176
     1
 43
1.0
176
     1
 76
     1
176
     1
 77
     6
176
     1
 78
     2
176
     1
 67
     7
176
     1
 79
     3
176
     1
170
     0
176
     1
171
     0
176
     1
290
     0
176
     1
 93
        1
176
     1
 44
0.0
176
     1
173
     0
176
     1
1001
ACAD
1000
AcDbSavedByObjectVersion
1070
     0
  0
VISUALSTYLE
  5
3F
102
{ACAD_XDICTIONARY
360
181
102
}
102
{ACAD_REACTORS
330
29
102
}
330
29
100
AcDbVisualStyle
  2
JitterOff
 70
    20
177
     2
291
     1
 71
     2
176
     0
 72
     2
176
     0
 73
     0
176
     0
 90
        0
176
     0
 40
0.6
176
     0
 41
30.0
176
     0
 63
     7
421
 16777215
176
     0
 74
     1
176
     0
 91
        4
176
     0
 64
     7
176
     0
 65
   257
176
     0
 75
     1
176
     0
175
     1
176
     0
 42
1.0
176
     0
 92
       10
176
     2
 66
     7
176
     0
 43
1.0
176
     0
 76
     1
176
     0
 77
     6
176
     0
 78
     2
176
     0
 67
     7
176
     0
 79
     5
176
     0
170
     0
176
     0
171
     0
176
     0
290
     0
176
     0
 93
        1
176
     0
 44
0.0
176
     0
173
     0
176
     0
1001
ACAD
1000
AcDbSavedByObjectVersion
1070
     0
  0
VISUALSTYLE
  5
37
102
{ACAD_XDICTIONARY
360
171
102
}
102
{ACAD_REACTORS
330
29
102
}
330
29
100
AcDbVisualStyle
  2
Linepattern
 70
    14
177
     2
291
     1
 71
     2
176
     1
 72
     2
176
     1
 73
     0
176
     1
 90
        0
176
     1
 40
0.6
176
     1
 41
30.0
176
     1
 63
     7
421
 16777215
176
     1
 74
     1
176
     1
 91
        4
176
     1
 64
     7
176
     1
 65
   257
176
     1
 75
     7
176
     1
175
     7
176
     1
 42
1.0
176
     1
 92
        8
176
     1
 66
     7
176
     1
 43
1.0
176
     1
 76
     1
176
     1
 77
     6
176
     1
 78
     2
176
     1
 67
     7
176
     1
 79
     5
176
     1
170
     0
176
     1
171
     0
176
     1
290
     0
176
     1
 93
        1
176
     1
 44
0.0
176
     1
173
     0
176
     1
1001
ACAD
1000
AcDbSavedByObjectVersion
1070
     0
  0
VISUALSTYLE
  5
40
102
{ACAD_XDICTIONARY
360
183
102
}
102
{ACAD_REACTORS
330
29
102
}
330
29
100
AcDbVisualStyle
  2
OverhangOff
 70
    21
177
     2
291
     1
 71
     2
176
     0
 72
     2
176
     0
 73
     0
176
     0
 90
        0
176
     0
 40
0.6
176
     0
 41
30.0
176
     0
 63
     7
421
 16777215
176
     0
 74
     1
176
     0
 91
        4
176
     0
 64
     7
176
     0
 65
   257
176
     0
 75
     1
176
     0
175
     1
176
     0
 42
1.0
176
     0
 92
        9
176
     2
 66
     7
176
     0
 43
1.0
176
     0
 76
     1
176
     0
 77
     6
176
     0
 78
     2
176
     0
 67
     7
176
     0
 79
     5
176
     0
170
     0
176
     0
171
     0
176
     0
290
     0
176
     0
 93
        1
176
     0
 44
0.0
176
     0
173
     0
176
     0
1001
ACAD
1000
AcDbSavedByObjectVersion
1070
     0
  0
VISUALSTYLE
  5
33
102
{ACAD_XDICTIONARY
360
169
102
}
102
{ACAD_REACTORS
330
29
102
}
330
29
100
AcDbVisualStyle
  2
Realistic
 70
     8
177
     2
291
     0
 71
     2
176
     1
 72
     3
176
     1
 73
     0
176
     1
 90
        2
176
     1
 40
0.6
176
     1
 41
30.0
176
     1
 63
     7
421
 16777215
176
     1
 74
     0
176
     1
 91
        0
176
     1
 64
     7
176
     1
 65
   257
176
     1
 75
     1
176
     1
175
     1
176
     1
 42
1.0
176
     1
 92
        8
176
     1
 66
   257
176
     1
 43
1.0
176
     1
 76
     1
176
     1
 77
     6
176
     1
 78
     2
176
     1
 67
     7
176
     1
 79
     3
176
     1
170
     0
176
     1
171
     0
176
     1
290
     0
176
     1
 93
       13
176
     1
 44
0.0
176
     1
173
     0
176
     1
1001
ACAD
1000
AcDbSavedByObjectVersion
1070
     0
  0
VISUALSTYLE
  5
3E
102
{ACAD_XDICTIONARY
360
17F
102
}
102
{ACAD_REACTORS
330
29
102
}
330
29
100
AcDbVisualStyle
  2
Shaded
 70
    27
177
     2
291
     0
 71
     2
176
     1
 72
     2
176
     1
 73
     1
176
     1
 90
        2
176
     1
 40
0.6
176
     1
 41
30.0
176
     1
 63
     7
421
 16777215
176
     1
 74
     0
176
     1
 91
        4
176
     1
 64
     7
176
     1
 65
   257
176
     1
 75
     1
176
     1
175
     1
176
     1
 42
1.0
176
     1
 92
        8
176
     1
 66
   257
176
     1
 43
1.0
176
     1
 76
     1
176
     1
 77
     6
176
     1
 78
     2
176
     1
 67
     8
425
  7895160
176
     1
 79
     3
176
     1
170
     0
176
     1
171
     0
176
     1
290
     0
176
     1
 93
        5
176
     1
 44
0.0
176
     1
173
     0
176
     1
1001
ACAD
1000
AcDbSavedByObjectVersion
1070
     0
  0
VISUALSTYLE
  5
3D
102
{ACAD_XDICTIONARY
360
17D
102
}
102
{ACAD_REACTORS
330
29
102
}
330
29
100
AcDbVisualStyle
  2
Shaded with edges
 70
    26
177
     2
291
     0
 71
     2
176
     1
 72
     2
176
     1
 73
     1
176
     1
 90
        2
176
     1
 40
0.6
176
     1
 41
30.0
176
     1
 63
     7
421
 16777215
176
     1
 74
     1
176
     1
 91
        2
176
     1
 64
     7
176
     1
 65
   257
176
     1
 75
     2
176
     1
175
     1
176
     1
 42
1.0
176
     1
 92
        8
176
     1
 66
   257
176
     1
 43
1.0
176
     1
 76
     1
176
     1
 77
     6
176
     1
 78
     2
176
     1
 67
     7
176
     1
 79
     3
176
     1
170
     0
176
     1
171
     0
176
     1
290
     0
176
     1
 93
        5
176
     1
 44
0.0
176
     1
173
     0
176
     1
1001
ACAD
1000
AcDbSavedByObjectVersion
1070
     0
  0
VISUALSTYLE
  5
3A
102
{ACAD_XDICTIONARY
360
177
102
}
102
{ACAD_REACTORS
330
29
102
}
330
29
100
AcDbVisualStyle
  2
Shades of Gray
 70
    23
177
     2
291
     0
 71
     2
176
     1
 72
     2
176
     1
 73
     3
176
     1
 90
        0
176
     1
 40
0.6
176
     1
 41
30.0
176
     1
 63
     7
421
 16777215
176
     1
 74
     2
176
     1
 91
        2
176
     1
 64
     7
176
     1
 65
     7
176
     1
 75
     1
176
     1
175
     1
176
     1
 42
40.0
176
     1
 92
        8
176
     1
 66
     7
176
     1
 43
1.0
176
     1
 76
     1
176
     1
 77
     6
176
     1
 78
     2
176
     1
 67
     7
176
     1
 79
     3
176
     1
170
     0
176
     1
171
     0
176
     1
290
     0
176
     1
 93
        1
176
     1
 44
0.0
176
     1
173
     0
176
     1
1001
ACAD
1000
AcDbSavedByObjectVersion
1070
     0
  0
VISUALSTYLE
  5
3B
102
{ACAD_XDICTIONARY
360
179
102
}
102
{ACAD_REACTORS
330
29
102
}
330
29
100
AcDbVisualStyle
  2
Sketchy
 70
    24
177
     2
291
     0
 71
     1
176
     1
 72
     2
176
     1
 73
     2
176
     1
 90
        0
176
     1
 40
0.6
176
     1
 41
30.0
176
     1
 63
     7
421
 16777215
176
     1
 74
     2
176
     1
 91
        2
176
     1
 64
     7
176
     1
 65
     7
176
     1
 75
     1
176
     1
175
     1
176
     1
 42
40.0
176
     1
 92
       11
176
     1
 66
     7
176
     1
 43
1.0
176
     1
 76
     1
176
     1
 77
     6
176
     1
 78
     2
176
     1
 67
     7
176
     1
 79
     6
176
     1
170
     0
176
     1
171
     0
176
     1
290
     0
176
     1
 93
        1
176
     1
 44
0.0
176
     1
173
     0
176
     1
1001
ACAD
1000
AcDbSavedByObjectVersion
1070
     0
  0
VISUALSTYLE
  5
36
102
{ACAD_XDICTIONARY
360
16F
102
}
102
{ACAD_REACTORS
330
29
102
}
330
29
100
AcDbVisualStyle
  2
Thicken
 70
    13
177
     2
291
     1
 71
     2
176
     1
 72
     2
176
     1
 73
     0
176
     1
 90
        0
176
     1
 40
0.6
176
     1
 41
30.0
176
     1
 63
     7
421
 16777215
176
     1
 74
     1
176
     1
 91
        4
176
     1
 64
     7
176
     1
 65
   257
176
     1
 75
     1
176
     1
175
     1
176
     1
 42
1.0
176
     1
 92
       12
176
     1
 66
     7
176
     1
 43
1.0
176
     1
 76
     1
176
     1
 77
     6
176
     1
 78
     2
176
     1
 67
     7
176
     1
 79
     5
176
     1
170
     0
176
     1
171
     0
176
     1
290
     0
176
     1
 93
        1
176
     1
 44
0.0
176
     1
173
     0
176
     1
1001
ACAD
1000
AcDbSavedByObjectVersion
1070
     0
  0
VISUALSTYLE
  5
30
102
{ACAD_XDICTIONARY
360
163
102
}
102
{ACAD_REACTORS
330
29
102
}
330
29
100
AcDbVisualStyle
  2
Wireframe
 70
     5
177
     2
291
     0
 71
     0
176
     1
 72
     2
176
     1
 73
     0
176
     1
 90
        0
176
     1
 40
0.6
176
     1
 41
30.0
176
     1
 63
     7
421
 16777215
176
     1
 74
     1
176
     1
 91
        4
176
     1
 64
     7
176
     1
 65
   257
176
     1
 75
     1
176
     1
175
     1
176
     1
 42
1.0
176
     1
 92
        0
176
     1
 66
   257
176
     1
 43
1.0
176
     1
 76
     1
176
     1
 77
     6
176
     1
 78
     2
176
     1
 67
     7
176
     1
 79
     3
176
     1
170
     0
176
     1
171
     0
176
     1
290
     0
176
     1
 93
        1
176
     1
 44
0.0
176
     1
173
     0
176
     1
1001
ACAD
1000
AcDbSavedByObjectVersion
1070
     0
  0
VISUALSTYLE
  5
3C
102
{ACAD_XDICTIONARY
360
17B
102
}
102
{ACAD_REACTORS
330
29
102
}
330
29
100
AcDbVisualStyle
  2
X-Ray
 70
    25
177
     2
291
     0
 71
     2
176
     1
 72
     2
176
     1
 73
     1
176
     1
 90
        1
176
     1
 40
0.5
176
     1
 41
30.0
176
     1
 63
     7
421
 16777215
176
     1
 74
     1
176
     1
 91
        0
176
     1
 64
     7
176
     1
 65
   257
176
     1
 75
     1
176
     1
175
     1
176
     1
 42
1.0
176
     1
 92
        8
176
     1
 66
     7
176
     1
 43
1.0
176
     1
 76
     1
176
     1
 77
     6
176
     1
 78
     2
176
     1
 67
     7
176
     1
 79
     3
176
     1
170
     0
176
     1
171
     0
176
     1
290
     0
176
     1
 93
       13
176
     1
 44
0.0
176
     1
173
     0
176
     1
1001
ACAD
1000
AcDbSavedByObjectVersion
1070
     0
  0
DICTIONARYVAR
  5
153
102
{ACAD_REACTORS
330
14E
102
}
330
14E
100
DictionaryVariables
280
     0
  1
1:1
  0
DICTIONARYVAR
  5
150
102
{ACAD_REACTORS
330
14E
102
}
330
14E
100
DictionaryVariables
280
     0
  1
STANDARD
  0
DICTIONARYVAR
  5
14F
102
{ACAD_REACTORS
330
14E
102
}
330
14E
100
DictionaryVariables
280
     0
  1
STANDARD
  0
DICTIONARYVAR
  5
151
102
{ACAD_REACTORS
330
14E
102
}
330
14E
100
DictionaryVariables
280
     0
  1
Imperial24
  0
DICTIONARYVAR
  5
152
102
{ACAD_REACTORS
330
14E
102
}
330
14E
100
DictionaryVariables
280
     0
  1
Imperial24
  0
DICTIONARY
  5
18B
330
6B
100
AcDbDictionary
280
     1
281
     1
  3
ACAD_XREC_ROUNDTRIP
360
18C
  0
DICTIONARY
  5
1A
330
19
100
AcDbDictionary
280
     1
281
     1
  3
BUMPTILE
360
1C
  3
DIFFUSETILE
360
1B
  3
OPACITYTILE
360
1F
  3
REFLECTIONTILE
360
1E
  3
REFRACTIONTILE
360
20
  3
SPECULARTILE
360
1D
  0
DICTIONARY
  5
12
330
11
100
AcDbDictionary
280
     1
281
     1
  3
BUMPTILE
360
14
  3
DIFFUSETILE
360
13
  3
OPACITYTILE
360
17
  3
REFLECTIONTILE
360
16
  3
REFRACTIONTILE
360
18
  3
SPECULARTILE
360
15
  0
DICTIONARY
  5
22
330
21
100
AcDbDictionary
280
     1
281
     1
  3
BUMPTILE
360
24
  3
DIFFUSETILE
360
23
  3
OPACITYTILE
360
27
  3
REFLECTIONTILE
360
26
  3
REFRACTIONTILE
360
28
  3
SPECULARTILE
360
25
  0
DICTIONARY
  5
187
330
67
100
AcDbDictionary
280
     1
281
     1
  3
ACAD_XREC_ROUNDTRIP
360
188
  0
DICTIONARY
  5
189
330
69
100
AcDbDictionary
280
     1
281
     1
  3
ACAD_XREC_ROUNDTRIP
360
18A
  0
DICTIONARY
  5
154
330
65
100
AcDbDictionary
280
     1
281
     1
  3
ACAD_ROUNDTRIP_2008_TABLESTYLE_CELLSTYLEMAP
360
155
  0
DICTIONARY
  5
161
330
2F
100
AcDbDictionary
280
     1
281
     1
  3
ACAD_XREC_ROUNDTRIP
360
162
  0
DICTIONARY
  5
15F
330
2E
100
AcDbDictionary
280
     1
281
     1
  3
ACAD_XREC_ROUNDTRIP
360
160
  0
DICTIONARY
  5
16D
330
35
100
AcDbDictionary
280
     1
281
     1
  3
ACAD_XREC_ROUNDTRIP
360
16E
  0
DICTIONARY
  5
175
330
39
100
AcDbDictionary
280
     1
281
     1
  3
ACAD_XREC_ROUNDTRIP
360
176
  0
DICTIONARY
  5
167
330
32
100
AcDbDictionary
280
     1
281
     1
  3
ACAD_XREC_ROUNDTRIP
360
168
  0
DICTIONARY
  5
16B
330
34
100
AcDbDictionary
280
     1
281
     1
  3
ACAD_XREC_ROUNDTRIP
360
16C
  0
DICTIONARY
  5
185
330
41
100
AcDbDictionary
280
     1
281
     1
  3
ACAD_XREC_ROUNDTRIP
360
186
  0
DICTIONARY
  5
173
330
38
100
AcDbDictionary
280
     1
281
     1
  3
ACAD_XREC_ROUNDTRIP
360
174
  0
DICTIONARY
  5
157
330
2A
100
AcDbDictionary
280
     1
281
     1
  3
ACAD_XREC_ROUNDTRIP
360
158
  0
DICTIONARY
  5
159
330
2B
100
AcDbDictionary
280
     1
281
     1
  3
ACAD_XREC_ROUNDTRIP
360
15A
  0
DICTIONARY
  5
15B
330
2C
100
AcDbDictionary
280
     1
281
     1
  3
ACAD_XREC_ROUNDTRIP
360
15C
  0
DICTIONARY
  5
15D
330
2D
100
AcDbDictionary
280
     1
281
     1
  3
ACAD_XREC_ROUNDTRIP
360
15E
  0
DICTIONARY
  5
165
330
31
100
AcDbDictionary
280
     1
281
     1
  3
ACAD_XREC_ROUNDTRIP
360
166
  0
DICTIONARY
  5
181
330
3F
100
AcDbDictionary
280
     1
281
     1
  3
ACAD_XREC_ROUNDTRIP
360
182
  0
DICTIONARY
  5
171
330
37
100
AcDbDictionary
280
     1
281
     1
  3
ACAD_XREC_ROUNDTRIP
360
172
  0
DICTIONARY
  5
183
330
40
100
AcDbDictionary
280
     1
281
     1
  3
ACAD_XREC_ROUNDTRIP
360
184
  0
DICTIONARY
  5
169
330
33
100
AcDbDictionary
280
     1
281
     1
  3
ACAD_XREC_ROUNDTRIP
360
16A
  0
DICTIONARY
  5
17F
330
3E
100
AcDbDictionary
280
     1
281
     1
  3
ACAD_XREC_ROUNDTRIP
360
180
  0
DICTIONARY
  5
17D
330
3D
100
AcDbDictionary
280
     1
281
     1
  3
ACAD_XREC_ROUNDTRIP
360
17E
  0
DICTIONARY
  5
177
330
3A
100
AcDbDictionary
280
     1
281
     1
  3
ACAD_XREC_ROUNDTRIP
360
178
  0
DICTIONARY
  5
179
330
3B
100
AcDbDictionary
280
     1
281
     1
  3
ACAD_XREC_ROUNDTRIP
360
17A
  0
DICTIONARY
  5
16F
330
36
100
AcDbDictionary
280
     1
281
     1
  3
ACAD_XREC_ROUNDTRIP
360
170
  0
DICTIONARY
  5
163
330
30
100
AcDbDictionary
280
     1
281
     1
  3
ACAD_XREC_ROUNDTRIP
360
164
  0
DICTIONARY
  5
17B
330
3C
100
AcDbDictionary
280
     1
281
     1
  3
ACAD_XREC_ROUNDTRIP
360
17C
  0
XRECORD
  5
18C
102
{ACAD_REACTORS
330
18B
102
}
330
18B
100
AcDbXrecord
280
     1
102
DISPLAYNAME
  1
Imperial24
102
FLAGS
 90
        0
  0
XRECORD
  5
1C
102
{ACAD_REACTORS
330
1A
102
}
330
1A
100
AcDbXrecord
280
     1
270
     1
271
     1
  0
XRECORD
  5
1B
102
{ACAD_REACTORS
330
1A
102
}
330
1A
100
AcDbXrecord
280
     1
270
     1
271
     1
  0
XRECORD
  5
1F
102
{ACAD_REACTORS
330
1A
102
}
330
1A
100
AcDbXrecord
280
     1
270
     1
271
     1
  0
XRECORD
  5
1E
102
{ACAD_REACTORS
330
1A
102
}
330
1A
100
AcDbXrecord
280
     1
270
     1
271
     1
  0
XRECORD
  5
20
102
{ACAD_REACTORS
330
1A
102
}
330
1A
100
AcDbXrecord
280
     1
270
     1
271
     1
  0
XRECORD
  5
1D
102
{ACAD_REACTORS
330
1A
102
}
330
1A
100
AcDbXrecord
280
     1
270
     1
271
     1
  0
XRECORD
  5
14
102
{ACAD_REACTORS
330
12
102
}
330
12
100
AcDbXrecord
280
     1
270
     1
271
     1
  0
XRECORD
  5
13
102
{ACAD_REACTORS
330
12
102
}
330
12
100
AcDbXrecord
280
     1
270
     1
271
     1
  0
XRECORD
  5
17
102
{ACAD_REACTORS
330
12
102
}
330
12
100
AcDbXrecord
280
     1
270
     1
271
     1
  0
XRECORD
  5
16
102
{ACAD_REACTORS
330
12
102
}
330
12
100
AcDbXrecord
280
     1
270
     1
271
     1
  0
XRECORD
  5
18
102
{ACAD_REACTORS
330
12
102
}
330
12
100
AcDbXrecord
280
     1
270
     1
271
     1
  0
XRECORD
  5
15
102
{ACAD_REACTORS
330
12
102
}
330
12
100
AcDbXrecord
280
     1
270
     1
271
     1
  0
XRECORD
  5
24
102
{ACAD_REACTORS
330
22
102
}
330
22
100
AcDbXrecord
280
     1
270
     1
271
     1
  0
XRECORD
  5
23
102
{ACAD_REACTORS
330
22
102
}
330
22
100
AcDbXrecord
280
     1
270
     1
271
     1
  0
XRECORD
  5
27
102
{ACAD_REACTORS
330
22
102
}
330
22
100
AcDbXrecord
280
     1
270
     1
271
     1
  0
XRECORD
  5
26
102
{ACAD_REACTORS
330
22
102
}
330
22
100
AcDbXrecord
280
     1
270
     1
271
     1
  0
XRECORD
  5
28
102
{ACAD_REACTORS
330
22
102
}
330
22
100
AcDbXrecord
280
     1
270
     1
271
     1
  0
XRECORD
  5
25
102
{ACAD_REACTORS
330
22
102
}
330
22
100
AcDbXrecord
280
     1
270
     1
271
     1
  0
XRECORD
  5
188
102
{ACAD_REACTORS
330
187
102
}
330
187
100
AcDbXrecord
280
     1
102
ACAD_ROUNDTRIP_2012_MLEADER_STYLE
298
     1
  0
XRECORD
  5
18A
102
{ACAD_REACTORS
330
189
102
}
330
189
100
AcDbXrecord
280
     1
102
DISPLAYNAME
  1
Imperial24
102
FLAGS
 90
        0
  0
CELLSTYLEMAP
  5
155
102
{ACAD_REACTORS
330
154
102
}
330
154
100
AcDbCellStyleMap
 90
        3
300
CELLSTYLE
  1
TABLEFORMAT_BEGIN
 90
        5
170
     1
 91
        0
 92
    32768
 62
   257
 93
        1
300
CONTENTFORMAT
  1
CONTENTFORMAT_BEGIN
 90
        0
 91
        0
 92
      512
 93
        0
300

 40
0.0
140
1.0
 94
        5
 62
     0
340
55
144
0.25
309
CONTENTFORMAT_END
171
     0
 94
        0
309
TABLEFORMAT_END
  1
CELLSTYLE_BEGIN
 90
        1
 91
        1
300
_TITLE
309
CELLSTYLE_END
300
CELLSTYLE
  1
TABLEFORMAT_BEGIN
 90
        5
170
     1
 91
        0
 92
        0
 62
   257
 93
        1
300
CONTENTFORMAT
  1
CONTENTFORMAT_BEGIN
 90
        0
 91
        0
 92
      512
 93
        0
300

 40
0.0
140
1.0
 94
        5
 62
     0
340
55
144
0.18
309
CONTENTFORMAT_END
171
     0
 94
        0
309
TABLEFORMAT_END
  1
CELLSTYLE_BEGIN
 90
        2
 91
        1
300
_HEADER
309
CELLSTYLE_END
300
CELLSTYLE
  1
TABLEFORMAT_BEGIN
 90
        5
170
     1
 91
        0
 92
        0
 62
   257
 93
        1
300
CONTENTFORMAT
  1
CONTENTFORMAT_BEGIN
 90
        0
 91
        0
 92
      512
 93
        0
300

 40
0.0
140
1.0
 94
        2
 62
     0
340
55
144
0.18
309
CONTENTFORMAT_END
171
     0
 94
        0
309
TABLEFORMAT_END
  1
CELLSTYLE_BEGIN
 90
        3
 91
        2
300
_DATA
309
CELLSTYLE_END
  0
XRECORD
  5
162
102
{ACAD_REACTORS
330
161
102
}
330
161
100
AcDbXrecord
280
     1
102
RTVSPost2010Prop28
280
     1
102
RTVSPost2010PropOp28
 70
     1
102
RTVSPost2010Prop29
280
     1
102
RTVSPost2010PropOp29
 70
     1
102
RTVSPost2010Prop30
280
     0
102
RTVSPost2010PropOp30
 70
     1
102
RTVSPost2010Prop31
280
     0
102
RTVSPost2010PropOp31
 70
     1
102
RTVSPost2010Prop32
280
     0
102
RTVSPost2010PropOp32
 70
     1
102
RTVSPost2010Prop33
280
     0
102
RTVSPost2010PropOp33
 70
     1
102
RTVSPost2010Prop34
280
     0
102
RTVSPost2010PropOp34
 70
     1
102
RTVSPost2010Prop35
280
     0
102
RTVSPost2010PropOp35
 70
     1
102
RTVSPost2010Prop36
280
     0
102
RTVSPost2010PropOp36
 70
     1
102
RTVSPost2010Prop37
 90
       50
102
RTVSPost2010PropOp37
 70
     1
102
RTVSPost2010Prop38
140
0.0
102
RTVSPost2010PropOp38
 70
     1
102
RTVSPost2010Prop39
140
1.0
102
RTVSPost2010PropOp39
 70
     1
102
RTVSPost2010Prop40
 90
        0
102
RTVSPost2010PropOp40
 70
     1
102
RTVSPost2010Prop41ColorIndex
 90
       18
102
RTVSPost2010Prop41ColorRGB
 90
        0
102
RTVSPost2010PropOp41
 70
     1
102
RTVSPost2010Prop42
 90
       50
102
RTVSPost2010PropOp42
 70
     1
102
RTVSPost2010Prop43
 90
        3
102
RTVSPost2010PropOp43
 70
     1
102
RTVSPost2010Prop44ColorIndex
 90
        5
102
RTVSPost2010Prop44ColorRGB
 90
      255
102
RTVSPost2010PropOp44
 70
     1
102
RTVSPost2010Prop45
280
     0
102
RTVSPost2010PropOp45
 70
     1
102
RTVSPost2010Prop46
 90
       50
102
RTVSPost2010PropOp46
 70
     1
102
RTVSPost2010Prop47
 90
       50
102
RTVSPost2010PropOp47
 70
     1
102
RTVSPost2010Prop48
 90
       50
102
RTVSPost2010PropOp48
 70
     1
102
RTVSPost2010Prop49
280
     0
102
RTVSPost2010PropOp49
 70
     1
102
RTVSPost2010Prop50
 90
       50
102
RTVSPost2010PropOp50
 70
     1
102
RTVSPost2010Prop51ColorIndex
 90
      256
102
RTVSPost2010Prop51ColorRGB
 90
-16777216
102
RTVSPost2010PropOp51
 70
     0
102
RTVSPost2010Prop52
140
1.0
102
RTVSPost2010PropOp52
 70
     0
102
RTVSPost2010Prop53
 90
        2
102
RTVSPost2010PropOp53
 70
     1
102
RTVSPost2010Prop54
  1
strokes_ogs.tif
102
RTVSPost2010PropOp54
 70
     1
102
RTVSPost2010Prop55
280
     0
102
RTVSPost2010PropOp55
 70
     1
102
RTVSPost2010Prop56
140
1.0
102
RTVSPost2010PropOp56
 70
     1
102
RTVSPost2010Prop57
140
1.0
102
RTVSPost2010PropOp57
 70
     1
  0
XRECORD
  5
160
102
{ACAD_REACTORS
330
15F
102
}
330
15F
100
AcDbXrecord
280
     1
102
RTVSPost2010Prop28
280
     0
102
RTVSPost2010PropOp28
 70
     1
102
RTVSPost2010Prop29
280
     1
102
RTVSPost2010PropOp29
 70
     1
102
RTVSPost2010Prop30
280
     1
102
RTVSPost2010PropOp30
 70
     1
102
RTVSPost2010Prop31
280
     0
102
RTVSPost2010PropOp31
 70
     1
102
RTVSPost2010Prop32
280
     0
102
RTVSPost2010PropOp32
 70
     1
102
RTVSPost2010Prop33
280
     0
102
RTVSPost2010PropOp33
 70
     1
102
RTVSPost2010Prop34
280
     0
102
RTVSPost2010PropOp34
 70
     1
102
RTVSPost2010Prop35
280
     0
102
RTVSPost2010PropOp35
 70
     1
102
RTVSPost2010Prop36
280
     0
102
RTVSPost2010PropOp36
 70
     1
102
RTVSPost2010Prop37
 90
       50
102
RTVSPost2010PropOp37
 70
     1
102
RTVSPost2010Prop38
140
0.0
102
RTVSPost2010PropOp38
 70
     1
102
RTVSPost2010Prop39
140
1.0
102
RTVSPost2010PropOp39
 70
     1
102
RTVSPost2010Prop40
 90
        0
102
RTVSPost2010PropOp40
 70
     1
102
RTVSPost2010Prop41ColorIndex
 90
       18
102
RTVSPost2010Prop41ColorRGB
 90
        0
102
RTVSPost2010PropOp41
 70
     1
102
RTVSPost2010Prop42
 90
       50
102
RTVSPost2010PropOp42
 70
     1
102
RTVSPost2010Prop43
 90
        3
102
RTVSPost2010PropOp43
 70
     1
102
RTVSPost2010Prop44ColorIndex
 90
        5
102
RTVSPost2010Prop44ColorRGB
 90
      255
102
RTVSPost2010PropOp44
 70
     1
102
RTVSPost2010Prop45
280
     0
102
RTVSPost2010PropOp45
 70
     1
102
RTVSPost2010Prop46
 90
       50
102
RTVSPost2010PropOp46
 70
     1
102
RTVSPost2010Prop47
 90
       50
102
RTVSPost2010PropOp47
 70
     1
102
RTVSPost2010Prop48
 90
       50
102
RTVSPost2010PropOp48
 70
     1
102
RTVSPost2010Prop49
280
     0
102
RTVSPost2010PropOp49
 70
     1
102
RTVSPost2010Prop50
 90
       50
102
RTVSPost2010PropOp50
 70
     1
102
RTVSPost2010Prop51ColorIndex
 90
      256
102
RTVSPost2010Prop51ColorRGB
 90
-16777216
102
RTVSPost2010PropOp51
 70
     0
102
RTVSPost2010Prop52
140
1.0
102
RTVSPost2010PropOp52
 70
     0
102
RTVSPost2010Prop53
 90
        2
102
RTVSPost2010PropOp53
 70
     1
102
RTVSPost2010Prop54
  1
strokes_ogs.tif
102
RTVSPost2010PropOp54
 70
     1
102
RTVSPost2010Prop55
280
     0
102
RTVSPost2010PropOp55
 70
     1
102
RTVSPost2010Prop56
140
1.0
102
RTVSPost2010PropOp56
 70
     1
102
RTVSPost2010Prop57
140
1.0
102
RTVSPost2010PropOp57
 70
     1
  0
XRECORD
  5
16E
102
{ACAD_REACTORS
330
16D
102
}
330
16D
100
AcDbXrecord
280
     1
102
RTVSPost2010Prop28
280
     0
102
RTVSPost2010PropOp28
 70
     1
102
RTVSPost2010Prop29
280
     1
102
RTVSPost2010PropOp29
 70
     1
102
RTVSPost2010Prop30
280
     1
102
RTVSPost2010PropOp30
 70
     1
102
RTVSPost2010Prop31
280
     0
102
RTVSPost2010PropOp31
 70
     1
102
RTVSPost2010Prop32
280
     0
102
RTVSPost2010PropOp32
 70
     1
102
RTVSPost2010Prop33
280
     0
102
RTVSPost2010PropOp33
 70
     1
102
RTVSPost2010Prop34
280
     0
102
RTVSPost2010PropOp34
 70
     1
102
RTVSPost2010Prop35
280
     0
102
RTVSPost2010PropOp35
 70
     1
102
RTVSPost2010Prop36
280
     0
102
RTVSPost2010PropOp36
 70
     1
102
RTVSPost2010Prop37
 90
       50
102
RTVSPost2010PropOp37
 70
     1
102
RTVSPost2010Prop38
140
0.0
102
RTVSPost2010PropOp38
 70
     1
102
RTVSPost2010Prop39
140
1.0
102
RTVSPost2010PropOp39
 70
     1
102
RTVSPost2010Prop40
 90
        0
102
RTVSPost2010PropOp40
 70
     1
102
RTVSPost2010Prop41ColorIndex
 90
       18
102
RTVSPost2010Prop41ColorRGB
 90
        0
102
RTVSPost2010PropOp41
 70
     1
102
RTVSPost2010Prop42
 90
       50
102
RTVSPost2010PropOp42
 70
     1
102
RTVSPost2010Prop43
 90
        3
102
RTVSPost2010PropOp43
 70
     1
102
RTVSPost2010Prop44ColorIndex
 90
        5
102
RTVSPost2010Prop44ColorRGB
 90
      255
102
RTVSPost2010PropOp44
 70
     1
102
RTVSPost2010Prop45
280
     0
102
RTVSPost2010PropOp45
 70
     1
102
RTVSPost2010Prop46
 90
       50
102
RTVSPost2010PropOp46
 70
     1
102
RTVSPost2010Prop47
 90
       50
102
RTVSPost2010PropOp47
 70
     1
102
RTVSPost2010Prop48
 90
       50
102
RTVSPost2010PropOp48
 70
     1
102
RTVSPost2010Prop49
280
     0
102
RTVSPost2010PropOp49
 70
     1
102
RTVSPost2010Prop50
 90
       50
102
RTVSPost2010PropOp50
 70
     1
102
RTVSPost2010Prop51ColorIndex
 90
      256
102
RTVSPost2010Prop51ColorRGB
 90
-16777216
102
RTVSPost2010PropOp51
 70
     0
102
RTVSPost2010Prop52
140
1.0
102
RTVSPost2010PropOp52
 70
     0
102
RTVSPost2010Prop53
 90
        2
102
RTVSPost2010PropOp53
 70
     1
102
RTVSPost2010Prop54
  1
strokes_ogs.tif
102
RTVSPost2010PropOp54
 70
     1
102
RTVSPost2010Prop55
280
     0
102
RTVSPost2010PropOp55
 70
     1
102
RTVSPost2010Prop56
140
1.0
102
RTVSPost2010PropOp56
 70
     1
102
RTVSPost2010Prop57
140
1.0
102
RTVSPost2010PropOp57
 70
     1
  0
XRECORD
  5
176
102
{ACAD_REACTORS
330
175
102
}
330
175
100
AcDbXrecord
280
     1
102
RTVSPost2010Prop28
280
     0
102
RTVSPost2010PropOp28
 70
     1
102
RTVSPost2010Prop29
280
     1
102
RTVSPost2010PropOp29
 70
     1
102
RTVSPost2010Prop30
280
     1
102
RTVSPost2010PropOp30
 70
     1
102
RTVSPost2010Prop31
280
     0
102
RTVSPost2010PropOp31
 70
     1
102
RTVSPost2010Prop32
280
     0
102
RTVSPost2010PropOp32
 70
     1
102
RTVSPost2010Prop33
280
     0
102
RTVSPost2010PropOp33
 70
     1
102
RTVSPost2010Prop34
280
     0
102
RTVSPost2010PropOp34
 70
     1
102
RTVSPost2010Prop35
280
     0
102
RTVSPost2010PropOp35
 70
     1
102
RTVSPost2010Prop36
280
     0
102
RTVSPost2010PropOp36
 70
     1
102
RTVSPost2010Prop37
 90
       50
102
RTVSPost2010PropOp37
 70
     1
102
RTVSPost2010Prop38
140
0.0
102
RTVSPost2010PropOp38
 70
     1
102
RTVSPost2010Prop39
140
1.0
102
RTVSPost2010PropOp39
 70
     1
102
RTVSPost2010Prop40
 90
        0
102
RTVSPost2010PropOp40
 70
     1
102
RTVSPost2010Prop41ColorIndex
 90
       18
102
RTVSPost2010Prop41ColorRGB
 90
        0
102
RTVSPost2010PropOp41
 70
     1
102
RTVSPost2010Prop42
 90
       50
102
RTVSPost2010PropOp42
 70
     1
102
RTVSPost2010Prop43
 90
        3
102
RTVSPost2010PropOp43
 70
     1
102
RTVSPost2010Prop44ColorIndex
 90
        5
102
RTVSPost2010Prop44ColorRGB
 90
      255
102
RTVSPost2010PropOp44
 70
     1
102
RTVSPost2010Prop45
280
     0
102
RTVSPost2010PropOp45
 70
     1
102
RTVSPost2010Prop46
 90
       50
102
RTVSPost2010PropOp46
 70
     1
102
RTVSPost2010Prop47
 90
       50
102
RTVSPost2010PropOp47
 70
     1
102
RTVSPost2010Prop48
 90
       50
102
RTVSPost2010PropOp48
 70
     1
102
RTVSPost2010Prop49
280
     0
102
RTVSPost2010PropOp49
 70
     1
102
RTVSPost2010Prop50
 90
       50
102
RTVSPost2010PropOp50
 70
     1
102
RTVSPost2010Prop51ColorIndex
 90
      256
102
RTVSPost2010Prop51ColorRGB
 90
-16777216
102
RTVSPost2010PropOp51
 70
     0
102
RTVSPost2010Prop52
140
1.0
102
RTVSPost2010PropOp52
 70
     0
102
RTVSPost2010Prop53
 90
        2
102
RTVSPost2010PropOp53
 70
     1
102
RTVSPost2010Prop54
  1
strokes_ogs.tif
102
RTVSPost2010PropOp54
 70
     1
102
RTVSPost2010Prop55
280
     0
102
RTVSPost2010PropOp55
 70
     1
102
RTVSPost2010Prop56
140
1.0
102
RTVSPost2010PropOp56
 70
     1
102
RTVSPost2010Prop57
140
1.0
102
RTVSPost2010PropOp57
 70
     1
  0
XRECORD
  5
168
102
{ACAD_REACTORS
330
167
102
}
330
167
100
AcDbXrecord
280
     1
102
RTVSPost2010Prop28
280
     0
102
RTVSPost2010PropOp28
 70
     1
102
RTVSPost2010Prop29
280
     1
102
RTVSPost2010PropOp29
 70
     1
102
RTVSPost2010Prop30
280
     1
102
RTVSPost2010PropOp30
 70
     1
102
RTVSPost2010Prop31
280
     0
102
RTVSPost2010PropOp31
 70
     1
102
RTVSPost2010Prop32
280
     0
102
RTVSPost2010PropOp32
 70
     1
102
RTVSPost2010Prop33
280
     0
102
RTVSPost2010PropOp33
 70
     1
102
RTVSPost2010Prop34
280
     0
102
RTVSPost2010PropOp34
 70
     1
102
RTVSPost2010Prop35
280
     0
102
RTVSPost2010PropOp35
 70
     1
102
RTVSPost2010Prop36
280
     0
102
RTVSPost2010PropOp36
 70
     1
102
RTVSPost2010Prop37
 90
       50
102
RTVSPost2010PropOp37
 70
     1
102
RTVSPost2010Prop38
140
0.0
102
RTVSPost2010PropOp38
 70
     1
102
RTVSPost2010Prop39
140
1.0
102
RTVSPost2010PropOp39
 70
     1
102
RTVSPost2010Prop40
 90
        0
102
RTVSPost2010PropOp40
 70
     1
102
RTVSPost2010Prop41ColorIndex
 90
       18
102
RTVSPost2010Prop41ColorRGB
 90
        0
102
RTVSPost2010PropOp41
 70
     1
102
RTVSPost2010Prop42
 90
       50
102
RTVSPost2010PropOp42
 70
     1
102
RTVSPost2010Prop43
 90
        3
102
RTVSPost2010PropOp43
 70
     1
102
RTVSPost2010Prop44ColorIndex
 90
        5
102
RTVSPost2010Prop44ColorRGB
 90
      255
102
RTVSPost2010PropOp44
 70
     1
102
RTVSPost2010Prop45
280
     0
102
RTVSPost2010PropOp45
 70
     1
102
RTVSPost2010Prop46
 90
       50
102
RTVSPost2010PropOp46
 70
     1
102
RTVSPost2010Prop47
 90
       50
102
RTVSPost2010PropOp47
 70
     1
102
RTVSPost2010Prop48
 90
       50
102
RTVSPost2010PropOp48
 70
     1
102
RTVSPost2010Prop49
280
     0
102
RTVSPost2010PropOp49
 70
     1
102
RTVSPost2010Prop50
 90
       50
102
RTVSPost2010PropOp50
 70
     1
102
RTVSPost2010Prop51ColorIndex
 90
      256
102
RTVSPost2010Prop51ColorRGB
 90
-16777216
102
RTVSPost2010PropOp51
 70
     0
102
RTVSPost2010Prop52
140
1.0
102
RTVSPost2010PropOp52
 70
     0
102
RTVSPost2010Prop53
 90
        2
102
RTVSPost2010PropOp53
 70
     1
102
RTVSPost2010Prop54
  1
strokes_ogs.tif
102
RTVSPost2010PropOp54
 70
     1
102
RTVSPost2010Prop55
280
     0
102
RTVSPost2010PropOp55
 70
     1
102
RTVSPost2010Prop56
140
1.0
102
RTVSPost2010PropOp56
 70
     1
102
RTVSPost2010Prop57
140
1.0
102
RTVSPost2010PropOp57
 70
     1
  0
XRECORD
  5
16C
102
{ACAD_REACTORS
330
16B
102
}
330
16B
100
AcDbXrecord
280
     1
102
RTVSPost2010Prop28
280
     0
102
RTVSPost2010PropOp28
 70
     1
102
RTVSPost2010Prop29
280
     1
102
RTVSPost2010PropOp29
 70
     1
102
RTVSPost2010Prop30
280
     1
102
RTVSPost2010PropOp30
 70
     1
102
RTVSPost2010Prop31
280
     0
102
RTVSPost2010PropOp31
 70
     1
102
RTVSPost2010Prop32
280
     0
102
RTVSPost2010PropOp32
 70
     1
102
RTVSPost2010Prop33
280
     0
102
RTVSPost2010PropOp33
 70
     1
102
RTVSPost2010Prop34
280
     0
102
RTVSPost2010PropOp34
 70
     1
102
RTVSPost2010Prop35
280
     0
102
RTVSPost2010PropOp35
 70
     1
102
RTVSPost2010Prop36
280
     0
102
RTVSPost2010PropOp36
 70
     1
102
RTVSPost2010Prop37
 90
       50
102
RTVSPost2010PropOp37
 70
     1
102
RTVSPost2010Prop38
140
0.0
102
RTVSPost2010PropOp38
 70
     1
102
RTVSPost2010Prop39
140
1.0
102
RTVSPost2010PropOp39
 70
     1
102
RTVSPost2010Prop40
 90
        0
102
RTVSPost2010PropOp40
 70
     1
102
RTVSPost2010Prop41ColorIndex
 90
       18
102
RTVSPost2010Prop41ColorRGB
 90
        0
102
RTVSPost2010PropOp41
 70
     1
102
RTVSPost2010Prop42
 90
       50
102
RTVSPost2010PropOp42
 70
     1
102
RTVSPost2010Prop43
 90
        3
102
RTVSPost2010PropOp43
 70
     1
102
RTVSPost2010Prop44ColorIndex
 90
        5
102
RTVSPost2010Prop44ColorRGB
 90
      255
102
RTVSPost2010PropOp44
 70
     1
102
RTVSPost2010Prop45
280
     0
102
RTVSPost2010PropOp45
 70
     1
102
RTVSPost2010Prop46
 90
       50
102
RTVSPost2010PropOp46
 70
     1
102
RTVSPost2010Prop47
 90
       50
102
RTVSPost2010PropOp47
 70
     1
102
RTVSPost2010Prop48
 90
       50
102
RTVSPost2010PropOp48
 70
     1
102
RTVSPost2010Prop49
280
     0
102
RTVSPost2010PropOp49
 70
     1
102
RTVSPost2010Prop50
 90
       50
102
RTVSPost2010PropOp50
 70
     1
102
RTVSPost2010Prop51ColorIndex
 90
      256
102
RTVSPost2010Prop51ColorRGB
 90
-16777216
102
RTVSPost2010PropOp51
 70
     0
102
RTVSPost2010Prop52
140
1.0
102
RTVSPost2010PropOp52
 70
     0
102
RTVSPost2010Prop53
 90
        2
102
RTVSPost2010PropOp53
 70
     1
102
RTVSPost2010Prop54
  1
strokes_ogs.tif
102
RTVSPost2010PropOp54
 70
     1
102
RTVSPost2010Prop55
280
     0
102
RTVSPost2010PropOp55
 70
     1
102
RTVSPost2010Prop56
140
1.0
102
RTVSPost2010PropOp56
 70
     1
102
RTVSPost2010Prop57
140
1.0
102
RTVSPost2010PropOp57
 70
     1
  0
XRECORD
  5
186
102
{ACAD_REACTORS
330
185
102
}
330
185
100
AcDbXrecord
280
     1
102
RTVSPost2010Prop28
280
     0
102
RTVSPost2010PropOp28
 70
     0
102
RTVSPost2010Prop29
280
     1
102
RTVSPost2010PropOp29
 70
     0
102
RTVSPost2010Prop30
280
     1
102
RTVSPost2010PropOp30
 70
     0
102
RTVSPost2010Prop31
280
     0
102
RTVSPost2010PropOp31
 70
     0
102
RTVSPost2010Prop32
280
     0
102
RTVSPost2010PropOp32
 70
     0
102
RTVSPost2010Prop33
280
     0
102
RTVSPost2010PropOp33
 70
     0
102
RTVSPost2010Prop34
280
     0
102
RTVSPost2010PropOp34
 70
     0
102
RTVSPost2010Prop35
280
     0
102
RTVSPost2010PropOp35
 70
     0
102
RTVSPost2010Prop36
280
     0
102
RTVSPost2010PropOp36
 70
     0
102
RTVSPost2010Prop37
 90
       50
102
RTVSPost2010PropOp37
 70
     0
102
RTVSPost2010Prop38
140
0.0
102
RTVSPost2010PropOp38
 70
     0
102
RTVSPost2010Prop39
140
1.0
102
RTVSPost2010PropOp39
 70
     0
102
RTVSPost2010Prop40
 90
        0
102
RTVSPost2010PropOp40
 70
     0
102
RTVSPost2010Prop41ColorIndex
 90
       18
102
RTVSPost2010Prop41ColorRGB
 90
        0
102
RTVSPost2010PropOp41
 70
     0
102
RTVSPost2010Prop42
 90
       50
102
RTVSPost2010PropOp42
 70
     0
102
RTVSPost2010Prop43
 90
        3
102
RTVSPost2010PropOp43
 70
     0
102
RTVSPost2010Prop44ColorIndex
 90
        5
102
RTVSPost2010Prop44ColorRGB
 90
      255
102
RTVSPost2010PropOp44
 70
     0
102
RTVSPost2010Prop45
280
     0
102
RTVSPost2010PropOp45
 70
     0
102
RTVSPost2010Prop46
 90
       50
102
RTVSPost2010PropOp46
 70
     0
102
RTVSPost2010Prop47
 90
       50
102
RTVSPost2010PropOp47
 70
     0
102
RTVSPost2010Prop48
 90
       50
102
RTVSPost2010PropOp48
 70
     0
102
RTVSPost2010Prop49
280
     0
102
RTVSPost2010PropOp49
 70
     0
102
RTVSPost2010Prop50
 90
       50
102
RTVSPost2010PropOp50
 70
     0
102
RTVSPost2010Prop51ColorIndex
 90
      256
102
RTVSPost2010Prop51ColorRGB
 90
-16777216
102
RTVSPost2010PropOp51
 70
     0
102
RTVSPost2010Prop52
140
1.0
102
RTVSPost2010PropOp52
 70
     0
102
RTVSPost2010Prop53
 90
        2
102
RTVSPost2010PropOp53
 70
     0
102
RTVSPost2010Prop54
  1
strokes_ogs.tif
102
RTVSPost2010PropOp54
 70
     0
102
RTVSPost2010Prop55
280
     0
102
RTVSPost2010PropOp55
 70
     0
102
RTVSPost2010Prop56
140
1.0
102
RTVSPost2010PropOp56
 70
     0
102
RTVSPost2010Prop57
140
1.0
102
RTVSPost2010PropOp57
 70
     0
  0
XRECORD
  5
174
102
{ACAD_REACTORS
330
173
102
}
330
173
100
AcDbXrecord
280
     1
102
RTVSPost2010Prop28
280
     0
102
RTVSPost2010PropOp28
 70
     1
102
RTVSPost2010Prop29
280
     1
102
RTVSPost2010PropOp29
 70
     1
102
RTVSPost2010Prop30
280
     1
102
RTVSPost2010PropOp30
 70
     1
102
RTVSPost2010Prop31
280
     0
102
RTVSPost2010PropOp31
 70
     1
102
RTVSPost2010Prop32
280
     0
102
RTVSPost2010PropOp32
 70
     1
102
RTVSPost2010Prop33
280
     0
102
RTVSPost2010PropOp33
 70
     1
102
RTVSPost2010Prop34
280
     0
102
RTVSPost2010PropOp34
 70
     1
102
RTVSPost2010Prop35
280
     0
102
RTVSPost2010PropOp35
 70
     1
102
RTVSPost2010Prop36
280
     0
102
RTVSPost2010PropOp36
 70
     1
102
RTVSPost2010Prop37
 90
       50
102
RTVSPost2010PropOp37
 70
     1
102
RTVSPost2010Prop38
140
0.0
102
RTVSPost2010PropOp38
 70
     1
102
RTVSPost2010Prop39
140
1.0
102
RTVSPost2010PropOp39
 70
     1
102
RTVSPost2010Prop40
 90
        0
102
RTVSPost2010PropOp40
 70
     1
102
RTVSPost2010Prop41ColorIndex
 90
       18
102
RTVSPost2010Prop41ColorRGB
 90
        0
102
RTVSPost2010PropOp41
 70
     1
102
RTVSPost2010Prop42
 90
       50
102
RTVSPost2010PropOp42
 70
     1
102
RTVSPost2010Prop43
 90
        3
102
RTVSPost2010PropOp43
 70
     1
102
RTVSPost2010Prop44ColorIndex
 90
        5
102
RTVSPost2010Prop44ColorRGB
 90
      255
102
RTVSPost2010PropOp44
 70
     1
102
RTVSPost2010Prop45
280
     0
102
RTVSPost2010PropOp45
 70
     1
102
RTVSPost2010Prop46
 90
       50
102
RTVSPost2010PropOp46
 70
     1
102
RTVSPost2010Prop47
 90
       50
102
RTVSPost2010PropOp47
 70
     1
102
RTVSPost2010Prop48
 90
       50
102
RTVSPost2010PropOp48
 70
     1
102
RTVSPost2010Prop49
280
     0
102
RTVSPost2010PropOp49
 70
     1
102
RTVSPost2010Prop50
 90
       50
102
RTVSPost2010PropOp50
 70
     1
102
RTVSPost2010Prop51ColorIndex
 90
      256
102
RTVSPost2010Prop51ColorRGB
 90
-16777216
102
RTVSPost2010PropOp51
 70
     0
102
RTVSPost2010Prop52
140
1.0
102
RTVSPost2010PropOp52
 70
     0
102
RTVSPost2010Prop53
 90
        2
102
RTVSPost2010PropOp53
 70
     1
102
RTVSPost2010Prop54
  1
strokes_ogs.tif
102
RTVSPost2010PropOp54
 70
     1
102
RTVSPost2010Prop55
280
     0
102
RTVSPost2010PropOp55
 70
     1
102
RTVSPost2010Prop56
140
1.0
102
RTVSPost2010PropOp56
 70
     1
102
RTVSPost2010Prop57
140
1.0
102
RTVSPost2010PropOp57
 70
     1
  0
XRECORD
  5
158
102
{ACAD_REACTORS
330
157
102
}
330
157
100
AcDbXrecord
280
     1
102
RTVSPost2010Prop28
280
     0
102
RTVSPost2010PropOp28
 70
     1
102
RTVSPost2010Prop29
280
     1
102
RTVSPost2010PropOp29
 70
     1
102
RTVSPost2010Prop30
280
     1
102
RTVSPost2010PropOp30
 70
     1
102
RTVSPost2010Prop31
280
     0
102
RTVSPost2010PropOp31
 70
     1
102
RTVSPost2010Prop32
280
     0
102
RTVSPost2010PropOp32
 70
     1
102
RTVSPost2010Prop33
280
     0
102
RTVSPost2010PropOp33
 70
     1
102
RTVSPost2010Prop34
280
     0
102
RTVSPost2010PropOp34
 70
     1
102
RTVSPost2010Prop35
280
     0
102
RTVSPost2010PropOp35
 70
     1
102
RTVSPost2010Prop36
280
     0
102
RTVSPost2010PropOp36
 70
     1
102
RTVSPost2010Prop37
 90
       50
102
RTVSPost2010PropOp37
 70
     1
102
RTVSPost2010Prop38
140
0.0
102
RTVSPost2010PropOp38
 70
     1
102
RTVSPost2010Prop39
140
1.0
102
RTVSPost2010PropOp39
 70
     1
102
RTVSPost2010Prop40
 90
        0
102
RTVSPost2010PropOp40
 70
     1
102
RTVSPost2010Prop41ColorIndex
 90
       18
102
RTVSPost2010Prop41ColorRGB
 90
        0
102
RTVSPost2010PropOp41
 70
     1
102
RTVSPost2010Prop42
 90
       50
102
RTVSPost2010PropOp42
 70
     1
102
RTVSPost2010Prop43
 90
        3
102
RTVSPost2010PropOp43
 70
     1
102
RTVSPost2010Prop44ColorIndex
 90
        5
102
RTVSPost2010Prop44ColorRGB
 90
      255
102
RTVSPost2010PropOp44
 70
     1
102
RTVSPost2010Prop45
280
     0
102
RTVSPost2010PropOp45
 70
     1
102
RTVSPost2010Prop46
 90
       50
102
RTVSPost2010PropOp46
 70
     1
102
RTVSPost2010Prop47
 90
       50
102
RTVSPost2010PropOp47
 70
     1
102
RTVSPost2010Prop48
 90
       50
102
RTVSPost2010PropOp48
 70
     1
102
RTVSPost2010Prop49
280
     0
102
RTVSPost2010PropOp49
 70
     1
102
RTVSPost2010Prop50
 90
       50
102
RTVSPost2010PropOp50
 70
     1
102
RTVSPost2010Prop51ColorIndex
 90
      256
102
RTVSPost2010Prop51ColorRGB
 90
-16777216
102
RTVSPost2010PropOp51
 70
     0
102
RTVSPost2010Prop52
140
1.0
102
RTVSPost2010PropOp52
 70
     0
102
RTVSPost2010Prop53
 90
        2
102
RTVSPost2010PropOp53
 70
     1
102
RTVSPost2010Prop54
  1
strokes_ogs.tif
102
RTVSPost2010PropOp54
 70
     1
102
RTVSPost2010Prop55
280
     0
102
RTVSPost2010PropOp55
 70
     1
102
RTVSPost2010Prop56
140
1.0
102
RTVSPost2010PropOp56
 70
     1
102
RTVSPost2010Prop57
140
1.0
102
RTVSPost2010PropOp57
 70
     1
  0
XRECORD
  5
15A
102
{ACAD_REACTORS
330
159
102
}
330
159
100
AcDbXrecord
280
     1
102
RTVSPost2010Prop28
280
     0
102
RTVSPost2010PropOp28
 70
     1
102
RTVSPost2010Prop29
280
     1
102
RTVSPost2010PropOp29
 70
     1
102
RTVSPost2010Prop30
280
     1
102
RTVSPost2010PropOp30
 70
     1
102
RTVSPost2010Prop31
280
     0
102
RTVSPost2010PropOp31
 70
     1
102
RTVSPost2010Prop32
280
     0
102
RTVSPost2010PropOp32
 70
     1
102
RTVSPost2010Prop33
280
     0
102
RTVSPost2010PropOp33
 70
     1
102
RTVSPost2010Prop34
280
     0
102
RTVSPost2010PropOp34
 70
     1
102
RTVSPost2010Prop35
280
     0
102
RTVSPost2010PropOp35
 70
     1
102
RTVSPost2010Prop36
280
     0
102
RTVSPost2010PropOp36
 70
     1
102
RTVSPost2010Prop37
 90
       50
102
RTVSPost2010PropOp37
 70
     1
102
RTVSPost2010Prop38
140
0.0
102
RTVSPost2010PropOp38
 70
     1
102
RTVSPost2010Prop39
140
1.0
102
RTVSPost2010PropOp39
 70
     1
102
RTVSPost2010Prop40
 90
        0
102
RTVSPost2010PropOp40
 70
     1
102
RTVSPost2010Prop41ColorIndex
 90
       18
102
RTVSPost2010Prop41ColorRGB
 90
        0
102
RTVSPost2010PropOp41
 70
     1
102
RTVSPost2010Prop42
 90
       50
102
RTVSPost2010PropOp42
 70
     1
102
RTVSPost2010Prop43
 90
        3
102
RTVSPost2010PropOp43
 70
     1
102
RTVSPost2010Prop44ColorIndex
 90
        5
102
RTVSPost2010Prop44ColorRGB
 90
      255
102
RTVSPost2010PropOp44
 70
     1
102
RTVSPost2010Prop45
280
     0
102
RTVSPost2010PropOp45
 70
     1
102
RTVSPost2010Prop46
 90
       50
102
RTVSPost2010PropOp46
 70
     1
102
RTVSPost2010Prop47
 90
       50
102
RTVSPost2010PropOp47
 70
     1
102
RTVSPost2010Prop48
 90
       50
102
RTVSPost2010PropOp48
 70
     1
102
RTVSPost2010Prop49
280
     0
102
RTVSPost2010PropOp49
 70
     1
102
RTVSPost2010Prop50
 90
       50
102
RTVSPost2010PropOp50
 70
     1
102
RTVSPost2010Prop51ColorIndex
 90
      256
102
RTVSPost2010Prop51ColorRGB
 90
-16777216
102
RTVSPost2010PropOp51
 70
     0
102
RTVSPost2010Prop52
140
1.0
102
RTVSPost2010PropOp52
 70
     0
102
RTVSPost2010Prop53
 90
        2
102
RTVSPost2010PropOp53
 70
     1
102
RTVSPost2010Prop54
  1
strokes_ogs.tif
102
RTVSPost2010PropOp54
 70
     1
102
RTVSPost2010Prop55
280
     0
102
RTVSPost2010PropOp55
 70
     1
102
RTVSPost2010Prop56
140
1.0
102
RTVSPost2010PropOp56
 70
     1
102
RTVSPost2010Prop57
140
1.0
102
RTVSPost2010PropOp57
 70
     1
  0
XRECORD
  5
15C
102
{ACAD_REACTORS
330
15B
102
}
330
15B
100
AcDbXrecord
280
     1
102
RTVSPost2010Prop28
280
     0
102
RTVSPost2010PropOp28
 70
     1
102
RTVSPost2010Prop29
280
     1
102
RTVSPost2010PropOp29
 70
     1
102
RTVSPost2010Prop30
280
     1
102
RTVSPost2010PropOp30
 70
     1
102
RTVSPost2010Prop31
280
     0
102
RTVSPost2010PropOp31
 70
     1
102
RTVSPost2010Prop32
280
     0
102
RTVSPost2010PropOp32
 70
     1
102
RTVSPost2010Prop33
280
     0
102
RTVSPost2010PropOp33
 70
     1
102
RTVSPost2010Prop34
280
     0
102
RTVSPost2010PropOp34
 70
     1
102
RTVSPost2010Prop35
280
     0
102
RTVSPost2010PropOp35
 70
     1
102
RTVSPost2010Prop36
280
     0
102
RTVSPost2010PropOp36
 70
     1
102
RTVSPost2010Prop37
 90
       50
102
RTVSPost2010PropOp37
 70
     1
102
RTVSPost2010Prop38
140
0.0
102
RTVSPost2010PropOp38
 70
     1
102
RTVSPost2010Prop39
140
1.0
102
RTVSPost2010PropOp39
 70
     1
102
RTVSPost2010Prop40
 90
        0
102
RTVSPost2010PropOp40
 70
     1
102
RTVSPost2010Prop41ColorIndex
 90
       18
102
RTVSPost2010Prop41ColorRGB
 90
        0
102
RTVSPost2010PropOp41
 70
     1
102
RTVSPost2010Prop42
 90
       50
102
RTVSPost2010PropOp42
 70
     1
102
RTVSPost2010Prop43
 90
        3
102
RTVSPost2010PropOp43
 70
     1
102
RTVSPost2010Prop44ColorIndex
 90
        5
102
RTVSPost2010Prop44ColorRGB
 90
      255
102
RTVSPost2010PropOp44
 70
     1
102
RTVSPost2010Prop45
280
     0
102
RTVSPost2010PropOp45
 70
     1
102
RTVSPost2010Prop46
 90
       50
102
RTVSPost2010PropOp46
 70
     1
102
RTVSPost2010Prop47
 90
       50
102
RTVSPost2010PropOp47
 70
     1
102
RTVSPost2010Prop48
 90
       50
102
RTVSPost2010PropOp48
 70
     1
102
RTVSPost2010Prop49
280
     0
102
RTVSPost2010PropOp49
 70
     1
102
RTVSPost2010Prop50
 90
       50
102
RTVSPost2010PropOp50
 70
     1
102
RTVSPost2010Prop51ColorIndex
 90
      256
102
RTVSPost2010Prop51ColorRGB
 90
-16777216
102
RTVSPost2010PropOp51
 70
     0
102
RTVSPost2010Prop52
140
1.0
102
RTVSPost2010PropOp52
 70
     0
102
RTVSPost2010Prop53
 90
        2
102
RTVSPost2010PropOp53
 70
     1
102
RTVSPost2010Prop54
  1
strokes_ogs.tif
102
RTVSPost2010PropOp54
 70
     1
102
RTVSPost2010Prop55
280
     0
102
RTVSPost2010PropOp55
 70
     1
102
RTVSPost2010Prop56
140
1.0
102
RTVSPost2010PropOp56
 70
     1
102
RTVSPost2010Prop57
140
1.0
102
RTVSPost2010PropOp57
 70
     1
  0
XRECORD
  5
15E
102
{ACAD_REACTORS
330
15D
102
}
330
15D
100
AcDbXrecord
280
     1
102
RTVSPost2010Prop28
280
     0
102
RTVSPost2010PropOp28
 70
     1
102
RTVSPost2010Prop29
280
     1
102
RTVSPost2010PropOp29
 70
     1
102
RTVSPost2010Prop30
280
     1
102
RTVSPost2010PropOp30
 70
     1
102
RTVSPost2010Prop31
280
     0
102
RTVSPost2010PropOp31
 70
     1
102
RTVSPost2010Prop32
280
     0
102
RTVSPost2010PropOp32
 70
     1
102
RTVSPost2010Prop33
280
     0
102
RTVSPost2010PropOp33
 70
     1
102
RTVSPost2010Prop34
280
     0
102
RTVSPost2010PropOp34
 70
     1
102
RTVSPost2010Prop35
280
     0
102
RTVSPost2010PropOp35
 70
     1
102
RTVSPost2010Prop36
280
     0
102
RTVSPost2010PropOp36
 70
     1
102
RTVSPost2010Prop37
 90
       50
102
RTVSPost2010PropOp37
 70
     1
102
RTVSPost2010Prop38
140
0.0
102
RTVSPost2010PropOp38
 70
     1
102
RTVSPost2010Prop39
140
1.0
102
RTVSPost2010PropOp39
 70
     1
102
RTVSPost2010Prop40
 90
        0
102
RTVSPost2010PropOp40
 70
     1
102
RTVSPost2010Prop41ColorIndex
 90
       18
102
RTVSPost2010Prop41ColorRGB
 90
        0
102
RTVSPost2010PropOp41
 70
     1
102
RTVSPost2010Prop42
 90
       50
102
RTVSPost2010PropOp42
 70
     1
102
RTVSPost2010Prop43
 90
        3
102
RTVSPost2010PropOp43
 70
     1
102
RTVSPost2010Prop44ColorIndex
 90
        5
102
RTVSPost2010Prop44ColorRGB
 90
      255
102
RTVSPost2010PropOp44
 70
     1
102
RTVSPost2010Prop45
280
     0
102
RTVSPost2010PropOp45
 70
     1
102
RTVSPost2010Prop46
 90
       50
102
RTVSPost2010PropOp46
 70
     1
102
RTVSPost2010Prop47
 90
       50
102
RTVSPost2010PropOp47
 70
     1
102
RTVSPost2010Prop48
 90
       50
102
RTVSPost2010PropOp48
 70
     1
102
RTVSPost2010Prop49
280
     0
102
RTVSPost2010PropOp49
 70
     1
102
RTVSPost2010Prop50
 90
       50
102
RTVSPost2010PropOp50
 70
     1
102
RTVSPost2010Prop51ColorIndex
 90
      256
102
RTVSPost2010Prop51ColorRGB
 90
-16777216
102
RTVSPost2010PropOp51
 70
     0
102
RTVSPost2010Prop52
140
1.0
102
RTVSPost2010PropOp52
 70
     0
102
RTVSPost2010Prop53
 90
        2
102
RTVSPost2010PropOp53
 70
     1
102
RTVSPost2010Prop54
  1
strokes_ogs.tif
102
RTVSPost2010PropOp54
 70
     1
102
RTVSPost2010Prop55
280
     0
102
RTVSPost2010PropOp55
 70
     1
102
RTVSPost2010Prop56
140
1.0
102
RTVSPost2010PropOp56
 70
     1
102
RTVSPost2010Prop57
140
1.0
102
RTVSPost2010PropOp57
 70
     1
  0
XRECORD
  5
166
102
{ACAD_REACTORS
330
165
102
}
330
165
100
AcDbXrecord
280
     1
102
RTVSPost2010Prop28
280
     0
102
RTVSPost2010PropOp28
 70
     1
102
RTVSPost2010Prop29
280
     1
102
RTVSPost2010PropOp29
 70
     1
102
RTVSPost2010Prop30
280
     1
102
RTVSPost2010PropOp30
 70
     1
102
RTVSPost2010Prop31
280
     0
102
RTVSPost2010PropOp31
 70
     1
102
RTVSPost2010Prop32
280
     0
102
RTVSPost2010PropOp32
 70
     1
102
RTVSPost2010Prop33
280
     0
102
RTVSPost2010PropOp33
 70
     1
102
RTVSPost2010Prop34
280
     0
102
RTVSPost2010PropOp34
 70
     1
102
RTVSPost2010Prop35
280
     0
102
RTVSPost2010PropOp35
 70
     1
102
RTVSPost2010Prop36
280
     0
102
RTVSPost2010PropOp36
 70
     1
102
RTVSPost2010Prop37
 90
       50
102
RTVSPost2010PropOp37
 70
     1
102
RTVSPost2010Prop38
140
0.0
102
RTVSPost2010PropOp38
 70
     1
102
RTVSPost2010Prop39
140
1.0
102
RTVSPost2010PropOp39
 70
     1
102
RTVSPost2010Prop40
 90
        0
102
RTVSPost2010PropOp40
 70
     1
102
RTVSPost2010Prop41ColorIndex
 90
       18
102
RTVSPost2010Prop41ColorRGB
 90
        0
102
RTVSPost2010PropOp41
 70
     1
102
RTVSPost2010Prop42
 90
       50
102
RTVSPost2010PropOp42
 70
     1
102
RTVSPost2010Prop43
 90
        3
102
RTVSPost2010PropOp43
 70
     1
102
RTVSPost2010Prop44ColorIndex
 90
        5
102
RTVSPost2010Prop44ColorRGB
 90
      255
102
RTVSPost2010PropOp44
 70
     1
102
RTVSPost2010Prop45
280
     0
102
RTVSPost2010PropOp45
 70
     1
102
RTVSPost2010Prop46
 90
       50
102
RTVSPost2010PropOp46
 70
     1
102
RTVSPost2010Prop47
 90
       50
102
RTVSPost2010PropOp47
 70
     1
102
RTVSPost2010Prop48
 90
       50
102
RTVSPost2010PropOp48
 70
     1
102
RTVSPost2010Prop49
280
     0
102
RTVSPost2010PropOp49
 70
     1
102
RTVSPost2010Prop50
 90
       50
102
RTVSPost2010PropOp50
 70
     1
102
RTVSPost2010Prop51ColorIndex
 90
      256
102
RTVSPost2010Prop51ColorRGB
 90
-16777216
102
RTVSPost2010PropOp51
 70
     0
102
RTVSPost2010Prop52
140
1.0
102
RTVSPost2010PropOp52
 70
     0
102
RTVSPost2010Prop53
 90
        2
102
RTVSPost2010PropOp53
 70
     1
102
RTVSPost2010Prop54
  1
strokes_ogs.tif
102
RTVSPost2010PropOp54
 70
     1
102
RTVSPost2010Prop55
280
     0
102
RTVSPost2010PropOp55
 70
     1
102
RTVSPost2010Prop56
140
1.0
102
RTVSPost2010PropOp56
 70
     1
102
RTVSPost2010Prop57
140
1.0
102
RTVSPost2010PropOp57
 70
     1
  0
XRECORD
  5
182
102
{ACAD_REACTORS
330
181
102
}
330
181
100
AcDbXrecord
280
     1
102
RTVSPost2010Prop28
280
     0
102
RTVSPost2010PropOp28
 70
     0
102
RTVSPost2010Prop29
280
     1
102
RTVSPost2010PropOp29
 70
     0
102
RTVSPost2010Prop30
280
     1
102
RTVSPost2010PropOp30
 70
     0
102
RTVSPost2010Prop31
280
     0
102
RTVSPost2010PropOp31
 70
     0
102
RTVSPost2010Prop32
280
     0
102
RTVSPost2010PropOp32
 70
     0
102
RTVSPost2010Prop33
280
     0
102
RTVSPost2010PropOp33
 70
     0
102
RTVSPost2010Prop34
280
     0
102
RTVSPost2010PropOp34
 70
     0
102
RTVSPost2010Prop35
280
     0
102
RTVSPost2010PropOp35
 70
     0
102
RTVSPost2010Prop36
280
     0
102
RTVSPost2010PropOp36
 70
     0
102
RTVSPost2010Prop37
 90
       50
102
RTVSPost2010PropOp37
 70
     0
102
RTVSPost2010Prop38
140
0.0
102
RTVSPost2010PropOp38
 70
     0
102
RTVSPost2010Prop39
140
1.0
102
RTVSPost2010PropOp39
 70
     0
102
RTVSPost2010Prop40
 90
        0
102
RTVSPost2010PropOp40
 70
     0
102
RTVSPost2010Prop41ColorIndex
 90
       18
102
RTVSPost2010Prop41ColorRGB
 90
        0
102
RTVSPost2010PropOp41
 70
     0
102
RTVSPost2010Prop42
 90
       50
102
RTVSPost2010PropOp42
 70
     0
102
RTVSPost2010Prop43
 90
        3
102
RTVSPost2010PropOp43
 70
     0
102
RTVSPost2010Prop44ColorIndex
 90
        5
102
RTVSPost2010Prop44ColorRGB
 90
      255
102
RTVSPost2010PropOp44
 70
     0
102
RTVSPost2010Prop45
280
     0
102
RTVSPost2010PropOp45
 70
     0
102
RTVSPost2010Prop46
 90
       50
102
RTVSPost2010PropOp46
 70
     0
102
RTVSPost2010Prop47
 90
       50
102
RTVSPost2010PropOp47
 70
     0
102
RTVSPost2010Prop48
 90
       50
102
RTVSPost2010PropOp48
 70
     0
102
RTVSPost2010Prop49
280
     0
102
RTVSPost2010PropOp49
 70
     0
102
RTVSPost2010Prop50
 90
       50
102
RTVSPost2010PropOp50
 70
     0
102
RTVSPost2010Prop51ColorIndex
 90
      256
102
RTVSPost2010Prop51ColorRGB
 90
-16777216
102
RTVSPost2010PropOp51
 70
     0
102
RTVSPost2010Prop52
140
1.0
102
RTVSPost2010PropOp52
 70
     0
102
RTVSPost2010Prop53
 90
        2
102
RTVSPost2010PropOp53
 70
     0
102
RTVSPost2010Prop54
  1
strokes_ogs.tif
102
RTVSPost2010PropOp54
 70
     0
102
RTVSPost2010Prop55
280
     0
102
RTVSPost2010PropOp55
 70
     0
102
RTVSPost2010Prop56
140
1.0
102
RTVSPost2010PropOp56
 70
     0
102
RTVSPost2010Prop57
140
1.0
102
RTVSPost2010PropOp57
 70
     0
  0
XRECORD
  5
172
102
{ACAD_REACTORS
330
171
102
}
330
171
100
AcDbXrecord
280
     1
102
RTVSPost2010Prop28
280
     0
102
RTVSPost2010PropOp28
 70
     1
102
RTVSPost2010Prop29
280
     1
102
RTVSPost2010PropOp29
 70
     1
102
RTVSPost2010Prop30
280
     1
102
RTVSPost2010PropOp30
 70
     1
102
RTVSPost2010Prop31
280
     0
102
RTVSPost2010PropOp31
 70
     1
102
RTVSPost2010Prop32
280
     0
102
RTVSPost2010PropOp32
 70
     1
102
RTVSPost2010Prop33
280
     0
102
RTVSPost2010PropOp33
 70
     1
102
RTVSPost2010Prop34
280
     0
102
RTVSPost2010PropOp34
 70
     1
102
RTVSPost2010Prop35
280
     0
102
RTVSPost2010PropOp35
 70
     1
102
RTVSPost2010Prop36
280
     0
102
RTVSPost2010PropOp36
 70
     1
102
RTVSPost2010Prop37
 90
       50
102
RTVSPost2010PropOp37
 70
     1
102
RTVSPost2010Prop38
140
0.0
102
RTVSPost2010PropOp38
 70
     1
102
RTVSPost2010Prop39
140
1.0
102
RTVSPost2010PropOp39
 70
     1
102
RTVSPost2010Prop40
 90
        0
102
RTVSPost2010PropOp40
 70
     1
102
RTVSPost2010Prop41ColorIndex
 90
       18
102
RTVSPost2010Prop41ColorRGB
 90
        0
102
RTVSPost2010PropOp41
 70
     1
102
RTVSPost2010Prop42
 90
       50
102
RTVSPost2010PropOp42
 70
     1
102
RTVSPost2010Prop43
 90
        3
102
RTVSPost2010PropOp43
 70
     1
102
RTVSPost2010Prop44ColorIndex
 90
        5
102
RTVSPost2010Prop44ColorRGB
 90
      255
102
RTVSPost2010PropOp44
 70
     1
102
RTVSPost2010Prop45
280
     0
102
RTVSPost2010PropOp45
 70
     1
102
RTVSPost2010Prop46
 90
       50
102
RTVSPost2010PropOp46
 70
     1
102
RTVSPost2010Prop47
 90
       50
102
RTVSPost2010PropOp47
 70
     1
102
RTVSPost2010Prop48
 90
       50
102
RTVSPost2010PropOp48
 70
     1
102
RTVSPost2010Prop49
280
     0
102
RTVSPost2010PropOp49
 70
     1
102
RTVSPost2010Prop50
 90
       50
102
RTVSPost2010PropOp50
 70
     1
102
RTVSPost2010Prop51ColorIndex
 90
      256
102
RTVSPost2010Prop51ColorRGB
 90
-16777216
102
RTVSPost2010PropOp51
 70
     0
102
RTVSPost2010Prop52
140
1.0
102
RTVSPost2010PropOp52
 70
     0
102
RTVSPost2010Prop53
 90
        2
102
RTVSPost2010PropOp53
 70
     1
102
RTVSPost2010Prop54
  1
strokes_ogs.tif
102
RTVSPost2010PropOp54
 70
     1
102
RTVSPost2010Prop55
280
     0
102
RTVSPost2010PropOp55
 70
     1
102
RTVSPost2010Prop56
140
1.0
102
RTVSPost2010PropOp56
 70
     1
102
RTVSPost2010Prop57
140
1.0
102
RTVSPost2010PropOp57
 70
     1
  0
XRECORD
  5
184
102
{ACAD_REACTORS
330
183
102
}
330
183
100
AcDbXrecord
280
     1
102
RTVSPost2010Prop28
280
     0
102
RTVSPost2010PropOp28
 70
     0
102
RTVSPost2010Prop29
280
     1
102
RTVSPost2010PropOp29
 70
     0
102
RTVSPost2010Prop30
280
     1
102
RTVSPost2010PropOp30
 70
     0
102
RTVSPost2010Prop31
280
     0
102
RTVSPost2010PropOp31
 70
     0
102
RTVSPost2010Prop32
280
     0
102
RTVSPost2010PropOp32
 70
     0
102
RTVSPost2010Prop33
280
     0
102
RTVSPost2010PropOp33
 70
     0
102
RTVSPost2010Prop34
280
     0
102
RTVSPost2010PropOp34
 70
     0
102
RTVSPost2010Prop35
280
     0
102
RTVSPost2010PropOp35
 70
     0
102
RTVSPost2010Prop36
280
     0
102
RTVSPost2010PropOp36
 70
     0
102
RTVSPost2010Prop37
 90
       50
102
RTVSPost2010PropOp37
 70
     0
102
RTVSPost2010Prop38
140
0.0
102
RTVSPost2010PropOp38
 70
     0
102
RTVSPost2010Prop39
140
1.0
102
RTVSPost2010PropOp39
 70
     0
102
RTVSPost2010Prop40
 90
        0
102
RTVSPost2010PropOp40
 70
     0
102
RTVSPost2010Prop41ColorIndex
 90
       18
102
RTVSPost2010Prop41ColorRGB
 90
        0
102
RTVSPost2010PropOp41
 70
     0
102
RTVSPost2010Prop42
 90
       50
102
RTVSPost2010PropOp42
 70
     0
102
RTVSPost2010Prop43
 90
        3
102
RTVSPost2010PropOp43
 70
     0
102
RTVSPost2010Prop44ColorIndex
 90
        5
102
RTVSPost2010Prop44ColorRGB
 90
      255
102
RTVSPost2010PropOp44
 70
     0
102
RTVSPost2010Prop45
280
     0
102
RTVSPost2010PropOp45
 70
     0
102
RTVSPost2010Prop46
 90
       50
102
RTVSPost2010PropOp46
 70
     0
102
RTVSPost2010Prop47
 90
       50
102
RTVSPost2010PropOp47
 70
     0
102
RTVSPost2010Prop48
 90
       50
102
RTVSPost2010PropOp48
 70
     0
102
RTVSPost2010Prop49
280
     0
102
RTVSPost2010PropOp49
 70
     0
102
RTVSPost2010Prop50
 90
       50
102
RTVSPost2010PropOp50
 70
     0
102
RTVSPost2010Prop51ColorIndex
 90
      256
102
RTVSPost2010Prop51ColorRGB
 90
-16777216
102
RTVSPost2010PropOp51
 70
     0
102
RTVSPost2010Prop52
140
1.0
102
RTVSPost2010PropOp52
 70
     0
102
RTVSPost2010Prop53
 90
        2
102
RTVSPost2010PropOp53
 70
     0
102
RTVSPost2010Prop54
  1
strokes_ogs.tif
102
RTVSPost2010PropOp54
 70
     0
102
RTVSPost2010Prop55
280
     0
102
RTVSPost2010PropOp55
 70
     0
102
RTVSPost2010Prop56
140
1.0
102
RTVSPost2010PropOp56
 70
     0
102
RTVSPost2010Prop57
140
1.0
102
RTVSPost2010PropOp57
 70
     0
  0
XRECORD
  5
16A
102
{ACAD_REACTORS
330
169
102
}
330
169
100
AcDbXrecord
280
     1
102
RTVSPost2010Prop28
280
     0
102
RTVSPost2010PropOp28
 70
     1
102
RTVSPost2010Prop29
280
     1
102
RTVSPost2010PropOp29
 70
     1
102
RTVSPost2010Prop30
280
     1
102
RTVSPost2010PropOp30
 70
     1
102
RTVSPost2010Prop31
280
     0
102
RTVSPost2010PropOp31
 70
     1
102
RTVSPost2010Prop32
280
     0
102
RTVSPost2010PropOp32
 70
     1
102
RTVSPost2010Prop33
280
     0
102
RTVSPost2010PropOp33
 70
     1
102
RTVSPost2010Prop34
280
     0
102
RTVSPost2010PropOp34
 70
     1
102
RTVSPost2010Prop35
280
     0
102
RTVSPost2010PropOp35
 70
     1
102
RTVSPost2010Prop36
280
     0
102
RTVSPost2010PropOp36
 70
     1
102
RTVSPost2010Prop37
 90
       50
102
RTVSPost2010PropOp37
 70
     1
102
RTVSPost2010Prop38
140
0.0
102
RTVSPost2010PropOp38
 70
     1
102
RTVSPost2010Prop39
140
1.0
102
RTVSPost2010PropOp39
 70
     1
102
RTVSPost2010Prop40
 90
        0
102
RTVSPost2010PropOp40
 70
     1
102
RTVSPost2010Prop41ColorIndex
 90
       18
102
RTVSPost2010Prop41ColorRGB
 90
        0
102
RTVSPost2010PropOp41
 70
     1
102
RTVSPost2010Prop42
 90
       50
102
RTVSPost2010PropOp42
 70
     1
102
RTVSPost2010Prop43
 90
        3
102
RTVSPost2010PropOp43
 70
     1
102
RTVSPost2010Prop44ColorIndex
 90
        5
102
RTVSPost2010Prop44ColorRGB
 90
      255
102
RTVSPost2010PropOp44
 70
     1
102
RTVSPost2010Prop45
280
     0
102
RTVSPost2010PropOp45
 70
     1
102
RTVSPost2010Prop46
 90
       50
102
RTVSPost2010PropOp46
 70
     1
102
RTVSPost2010Prop47
 90
       50
102
RTVSPost2010PropOp47
 70
     1
102
RTVSPost2010Prop48
 90
       50
102
RTVSPost2010PropOp48
 70
     1
102
RTVSPost2010Prop49
280
     0
102
RTVSPost2010PropOp49
 70
     1
102
RTVSPost2010Prop50
 90
       50
102
RTVSPost2010PropOp50
 70
     1
102
RTVSPost2010Prop51ColorIndex
 90
      256
102
RTVSPost2010Prop51ColorRGB
 90
-16777216
102
RTVSPost2010PropOp51
 70
     0
102
RTVSPost2010Prop52
140
1.0
102
RTVSPost2010PropOp52
 70
     0
102
RTVSPost2010Prop53
 90
        2
102
RTVSPost2010PropOp53
 70
     1
102
RTVSPost2010Prop54
  1
strokes_ogs.tif
102
RTVSPost2010PropOp54
 70
     1
102
RTVSPost2010Prop55
280
     0
102
RTVSPost2010PropOp55
 70
     1
102
RTVSPost2010Prop56
140
1.0
102
RTVSPost2010PropOp56
 70
     1
102
RTVSPost2010Prop57
140
1.0
102
RTVSPost2010PropOp57
 70
     1
  0
XRECORD
  5
180
102
{ACAD_REACTORS
330
17F
102
}
330
17F
100
AcDbXrecord
280
     1
102
RTVSPost2010Prop28
280
     0
102
RTVSPost2010PropOp28
 70
     1
102
RTVSPost2010Prop29
280
     1
102
RTVSPost2010PropOp29
 70
     1
102
RTVSPost2010Prop30
280
     1
102
RTVSPost2010PropOp30
 70
     1
102
RTVSPost2010Prop31
280
     0
102
RTVSPost2010PropOp31
 70
     1
102
RTVSPost2010Prop32
280
     0
102
RTVSPost2010PropOp32
 70
     1
102
RTVSPost2010Prop33
280
     0
102
RTVSPost2010PropOp33
 70
     1
102
RTVSPost2010Prop34
280
     0
102
RTVSPost2010PropOp34
 70
     1
102
RTVSPost2010Prop35
280
     0
102
RTVSPost2010PropOp35
 70
     1
102
RTVSPost2010Prop36
280
     0
102
RTVSPost2010PropOp36
 70
     1
102
RTVSPost2010Prop37
 90
       50
102
RTVSPost2010PropOp37
 70
     1
102
RTVSPost2010Prop38
140
0.0
102
RTVSPost2010PropOp38
 70
     1
102
RTVSPost2010Prop39
140
1.0
102
RTVSPost2010PropOp39
 70
     1
102
RTVSPost2010Prop40
 90
        0
102
RTVSPost2010PropOp40
 70
     1
102
RTVSPost2010Prop41ColorIndex
 90
       18
102
RTVSPost2010Prop41ColorRGB
 90
        0
102
RTVSPost2010PropOp41
 70
     1
102
RTVSPost2010Prop42
 90
       50
102
RTVSPost2010PropOp42
 70
     1
102
RTVSPost2010Prop43
 90
        3
102
RTVSPost2010PropOp43
 70
     1
102
RTVSPost2010Prop44ColorIndex
 90
        5
102
RTVSPost2010Prop44ColorRGB
 90
      255
102
RTVSPost2010PropOp44
 70
     1
102
RTVSPost2010Prop45
280
     0
102
RTVSPost2010PropOp45
 70
     1
102
RTVSPost2010Prop46
 90
       50
102
RTVSPost2010PropOp46
 70
     1
102
RTVSPost2010Prop47
 90
       50
102
RTVSPost2010PropOp47
 70
     1
102
RTVSPost2010Prop48
 90
       50
102
RTVSPost2010PropOp48
 70
     1
102
RTVSPost2010Prop49
280
     0
102
RTVSPost2010PropOp49
 70
     1
102
RTVSPost2010Prop50
 90
       50
102
RTVSPost2010PropOp50
 70
     1
102
RTVSPost2010Prop51ColorIndex
 90
      256
102
RTVSPost2010Prop51ColorRGB
 90
-16777216
102
RTVSPost2010PropOp51
 70
     0
102
RTVSPost2010Prop52
140
1.0
102
RTVSPost2010PropOp52
 70
     0
102
RTVSPost2010Prop53
 90
        2
102
RTVSPost2010PropOp53
 70
     1
102
RTVSPost2010Prop54
  1
strokes_ogs.tif
102
RTVSPost2010PropOp54
 70
     1
102
RTVSPost2010Prop55
280
     0
102
RTVSPost2010PropOp55
 70
     1
102
RTVSPost2010Prop56
140
1.0
102
RTVSPost2010PropOp56
 70
     1
102
RTVSPost2010Prop57
140
1.0
102
RTVSPost2010PropOp57
 70
     1
  0
XRECORD
  5
17E
102
{ACAD_REACTORS
330
17D
102
}
330
17D
100
AcDbXrecord
280
     1
102
RTVSPost2010Prop28
280
     0
102
RTVSPost2010PropOp28
 70
     1
102
RTVSPost2010Prop29
280
     1
102
RTVSPost2010PropOp29
 70
     1
102
RTVSPost2010Prop30
280
     1
102
RTVSPost2010PropOp30
 70
     1
102
RTVSPost2010Prop31
280
     0
102
RTVSPost2010PropOp31
 70
     1
102
RTVSPost2010Prop32
280
     0
102
RTVSPost2010PropOp32
 70
     1
102
RTVSPost2010Prop33
280
     0
102
RTVSPost2010PropOp33
 70
     1
102
RTVSPost2010Prop34
280
     0
102
RTVSPost2010PropOp34
 70
     1
102
RTVSPost2010Prop35
280
     0
102
RTVSPost2010PropOp35
 70
     1
102
RTVSPost2010Prop36
280
     0
102
RTVSPost2010PropOp36
 70
     1
102
RTVSPost2010Prop37
 90
       50
102
RTVSPost2010PropOp37
 70
     1
102
RTVSPost2010Prop38
140
0.0
102
RTVSPost2010PropOp38
 70
     1
102
RTVSPost2010Prop39
140
1.0
102
RTVSPost2010PropOp39
 70
     1
102
RTVSPost2010Prop40
 90
        0
102
RTVSPost2010PropOp40
 70
     1
102
RTVSPost2010Prop41ColorIndex
 90
       18
102
RTVSPost2010Prop41ColorRGB
 90
        0
102
RTVSPost2010PropOp41
 70
     1
102
RTVSPost2010Prop42
 90
       50
102
RTVSPost2010PropOp42
 70
     1
102
RTVSPost2010Prop43
 90
        3
102
RTVSPost2010PropOp43
 70
     1
102
RTVSPost2010Prop44ColorIndex
 90
        5
102
RTVSPost2010Prop44ColorRGB
 90
      255
102
RTVSPost2010PropOp44
 70
     1
102
RTVSPost2010Prop45
280
     0
102
RTVSPost2010PropOp45
 70
     1
102
RTVSPost2010Prop46
 90
       50
102
RTVSPost2010PropOp46
 70
     1
102
RTVSPost2010Prop47
 90
       50
102
RTVSPost2010PropOp47
 70
     1
102
RTVSPost2010Prop48
 90
       50
102
RTVSPost2010PropOp48
 70
     1
102
RTVSPost2010Prop49
280
     0
102
RTVSPost2010PropOp49
 70
     1
102
RTVSPost2010Prop50
 90
       50
102
RTVSPost2010PropOp50
 70
     1
102
RTVSPost2010Prop51ColorIndex
 90
      256
102
RTVSPost2010Prop51ColorRGB
 90
-16777216
102
RTVSPost2010PropOp51
 70
     0
102
RTVSPost2010Prop52
140
1.0
102
RTVSPost2010PropOp52
 70
     0
102
RTVSPost2010Prop53
 90
        2
102
RTVSPost2010PropOp53
 70
     1
102
RTVSPost2010Prop54
  1
strokes_ogs.tif
102
RTVSPost2010PropOp54
 70
     1
102
RTVSPost2010Prop55
280
     0
102
RTVSPost2010PropOp55
 70
     1
102
RTVSPost2010Prop56
140
1.0
102
RTVSPost2010PropOp56
 70
     1
102
RTVSPost2010Prop57
140
1.0
102
RTVSPost2010PropOp57
 70
     1
  0
XRECORD
  5
178
102
{ACAD_REACTORS
330
177
102
}
330
177
100
AcDbXrecord
280
     1
102
RTVSPost2010Prop28
280
     0
102
RTVSPost2010PropOp28
 70
     1
102
RTVSPost2010Prop29
280
     1
102
RTVSPost2010PropOp29
 70
     1
102
RTVSPost2010Prop30
280
     1
102
RTVSPost2010PropOp30
 70
     1
102
RTVSPost2010Prop31
280
     0
102
RTVSPost2010PropOp31
 70
     1
102
RTVSPost2010Prop32
280
     0
102
RTVSPost2010PropOp32
 70
     1
102
RTVSPost2010Prop33
280
     0
102
RTVSPost2010PropOp33
 70
     1
102
RTVSPost2010Prop34
280
     0
102
RTVSPost2010PropOp34
 70
     1
102
RTVSPost2010Prop35
280
     0
102
RTVSPost2010PropOp35
 70
     1
102
RTVSPost2010Prop36
280
     0
102
RTVSPost2010PropOp36
 70
     1
102
RTVSPost2010Prop37
 90
       50
102
RTVSPost2010PropOp37
 70
     1
102
RTVSPost2010Prop38
140
0.0
102
RTVSPost2010PropOp38
 70
     1
102
RTVSPost2010Prop39
140
1.0
102
RTVSPost2010PropOp39
 70
     1
102
RTVSPost2010Prop40
 90
        0
102
RTVSPost2010PropOp40
 70
     1
102
RTVSPost2010Prop41ColorIndex
 90
       18
102
RTVSPost2010Prop41ColorRGB
 90
        0
102
RTVSPost2010PropOp41
 70
     1
102
RTVSPost2010Prop42
 90
       50
102
RTVSPost2010PropOp42
 70
     1
102
RTVSPost2010Prop43
 90
        3
102
RTVSPost2010PropOp43
 70
     1
102
RTVSPost2010Prop44ColorIndex
 90
        5
102
RTVSPost2010Prop44ColorRGB
 90
      255
102
RTVSPost2010PropOp44
 70
     1
102
RTVSPost2010Prop45
280
     0
102
RTVSPost2010PropOp45
 70
     1
102
RTVSPost2010Prop46
 90
       50
102
RTVSPost2010PropOp46
 70
     1
102
RTVSPost2010Prop47
 90
       50
102
RTVSPost2010PropOp47
 70
     1
102
RTVSPost2010Prop48
 90
       50
102
RTVSPost2010PropOp48
 70
     1
102
RTVSPost2010Prop49
280
     0
102
RTVSPost2010PropOp49
 70
     1
102
RTVSPost2010Prop50
 90
       50
102
RTVSPost2010PropOp50
 70
     1
102
RTVSPost2010Prop51ColorIndex
 90
      256
102
RTVSPost2010Prop51ColorRGB
 90
-16777216
102
RTVSPost2010PropOp51
 70
     0
102
RTVSPost2010Prop52
140
1.0
102
RTVSPost2010PropOp52
 70
     0
102
RTVSPost2010Prop53
 90
        2
102
RTVSPost2010PropOp53
 70
     1
102
RTVSPost2010Prop54
  1
strokes_ogs.tif
102
RTVSPost2010PropOp54
 70
     1
102
RTVSPost2010Prop55
280
     0
102
RTVSPost2010PropOp55
 70
     1
102
RTVSPost2010Prop56
140
1.0
102
RTVSPost2010PropOp56
 70
     1
102
RTVSPost2010Prop57
140
1.0
102
RTVSPost2010PropOp57
 70
     1
  0
XRECORD
  5
17A
102
{ACAD_REACTORS
330
179
102
}
330
179
100
AcDbXrecord
280
     1
102
RTVSPost2010Prop28
280
     0
102
RTVSPost2010PropOp28
 70
     1
102
RTVSPost2010Prop29
280
     1
102
RTVSPost2010PropOp29
 70
     1
102
RTVSPost2010Prop30
280
     1
102
RTVSPost2010PropOp30
 70
     1
102
RTVSPost2010Prop31
280
     0
102
RTVSPost2010PropOp31
 70
     1
102
RTVSPost2010Prop32
280
     0
102
RTVSPost2010PropOp32
 70
     1
102
RTVSPost2010Prop33
280
     0
102
RTVSPost2010PropOp33
 70
     1
102
RTVSPost2010Prop34
280
     0
102
RTVSPost2010PropOp34
 70
     1
102
RTVSPost2010Prop35
280
     0
102
RTVSPost2010PropOp35
 70
     1
102
RTVSPost2010Prop36
280
     0
102
RTVSPost2010PropOp36
 70
     1
102
RTVSPost2010Prop37
 90
       50
102
RTVSPost2010PropOp37
 70
     1
102
RTVSPost2010Prop38
140
0.0
102
RTVSPost2010PropOp38
 70
     1
102
RTVSPost2010Prop39
140
1.0
102
RTVSPost2010PropOp39
 70
     1
102
RTVSPost2010Prop40
 90
        0
102
RTVSPost2010PropOp40
 70
     1
102
RTVSPost2010Prop41ColorIndex
 90
       18
102
RTVSPost2010Prop41ColorRGB
 90
        0
102
RTVSPost2010PropOp41
 70
     1
102
RTVSPost2010Prop42
 90
       50
102
RTVSPost2010PropOp42
 70
     1
102
RTVSPost2010Prop43
 90
        3
102
RTVSPost2010PropOp43
 70
     1
102
RTVSPost2010Prop44ColorIndex
 90
        5
102
RTVSPost2010Prop44ColorRGB
 90
      255
102
RTVSPost2010PropOp44
 70
     1
102
RTVSPost2010Prop45
280
     0
102
RTVSPost2010PropOp45
 70
     1
102
RTVSPost2010Prop46
 90
       50
102
RTVSPost2010PropOp46
 70
     1
102
RTVSPost2010Prop47
 90
       50
102
RTVSPost2010PropOp47
 70
     1
102
RTVSPost2010Prop48
 90
       50
102
RTVSPost2010PropOp48
 70
     1
102
RTVSPost2010Prop49
280
     0
102
RTVSPost2010PropOp49
 70
     1
102
RTVSPost2010Prop50
 90
       50
102
RTVSPost2010PropOp50
 70
     1
102
RTVSPost2010Prop51ColorIndex
 90
      256
102
RTVSPost2010Prop51ColorRGB
 90
-16777216
102
RTVSPost2010PropOp51
 70
     0
102
RTVSPost2010Prop52
140
1.0
102
RTVSPost2010PropOp52
 70
     0
102
RTVSPost2010Prop53
 90
        2
102
RTVSPost2010PropOp53
 70
     1
102
RTVSPost2010Prop54
  1
strokes_ogs.tif
102
RTVSPost2010PropOp54
 70
     1
102
RTVSPost2010Prop55
280
     0
102
RTVSPost2010PropOp55
 70
     1
102
RTVSPost2010Prop56
140
1.0
102
RTVSPost2010PropOp56
 70
     1
102
RTVSPost2010Prop57
140
1.0
102
RTVSPost2010PropOp57
 70
     1
  0
XRECORD
  5
170
102
{ACAD_REACTORS
330
16F
102
}
330
16F
100
AcDbXrecord
280
     1
102
RTVSPost2010Prop28
280
     0
102
RTVSPost2010PropOp28
 70
     1
102
RTVSPost2010Prop29
280
     1
102
RTVSPost2010PropOp29
 70
     1
102
RTVSPost2010Prop30
280
     1
102
RTVSPost2010PropOp30
 70
     1
102
RTVSPost2010Prop31
280
     0
102
RTVSPost2010PropOp31
 70
     1
102
RTVSPost2010Prop32
280
     0
102
RTVSPost2010PropOp32
 70
     1
102
RTVSPost2010Prop33
280
     0
102
RTVSPost2010PropOp33
 70
     1
102
RTVSPost2010Prop34
280
     0
102
RTVSPost2010PropOp34
 70
     1
102
RTVSPost2010Prop35
280
     0
102
RTVSPost2010PropOp35
 70
     1
102
RTVSPost2010Prop36
280
     0
102
RTVSPost2010PropOp36
 70
     1
102
RTVSPost2010Prop37
 90
       50
102
RTVSPost2010PropOp37
 70
     1
102
RTVSPost2010Prop38
140
0.0
102
RTVSPost2010PropOp38
 70
     1
102
RTVSPost2010Prop39
140
1.0
102
RTVSPost2010PropOp39
 70
     1
102
RTVSPost2010Prop40
 90
        0
102
RTVSPost2010PropOp40
 70
     1
102
RTVSPost2010Prop41ColorIndex
 90
       18
102
RTVSPost2010Prop41ColorRGB
 90
        0
102
RTVSPost2010PropOp41
 70
     1
102
RTVSPost2010Prop42
 90
       50
102
RTVSPost2010PropOp42
 70
     1
102
RTVSPost2010Prop43
 90
        3
102
RTVSPost2010PropOp43
 70
     1
102
RTVSPost2010Prop44ColorIndex
 90
        5
102
RTVSPost2010Prop44ColorRGB
 90
      255
102
RTVSPost2010PropOp44
 70
     1
102
RTVSPost2010Prop45
280
     0
102
RTVSPost2010PropOp45
 70
     1
102
RTVSPost2010Prop46
 90
       50
102
RTVSPost2010PropOp46
 70
     1
102
RTVSPost2010Prop47
 90
       50
102
RTVSPost2010PropOp47
 70
     1
102
RTVSPost2010Prop48
 90
       50
102
RTVSPost2010PropOp48
 70
     1
102
RTVSPost2010Prop49
280
     0
102
RTVSPost2010PropOp49
 70
     1
102
RTVSPost2010Prop50
 90
       50
102
RTVSPost2010PropOp50
 70
     1
102
RTVSPost2010Prop51ColorIndex
 90
      256
102
RTVSPost2010Prop51ColorRGB
 90
-16777216
102
RTVSPost2010PropOp51
 70
     0
102
RTVSPost2010Prop52
140
1.0
102
RTVSPost2010PropOp52
 70
     0
102
RTVSPost2010Prop53
 90
        2
102
RTVSPost2010PropOp53
 70
     1
102
RTVSPost2010Prop54
  1
strokes_ogs.tif
102
RTVSPost2010PropOp54
 70
     1
102
RTVSPost2010Prop55
280
     0
102
RTVSPost2010PropOp55
 70
     1
102
RTVSPost2010Prop56
140
1.0
102
RTVSPost2010PropOp56
 70
     1
102
RTVSPost2010Prop57
140
1.0
102
RTVSPost2010PropOp57
 70
     1
  0
XRECORD
  5
164
102
{ACAD_REACTORS
330
163
102
}
330
163
100
AcDbXrecord
280
     1
102
RTVSPost2010Prop28
280
     0
102
RTVSPost2010PropOp28
 70
     1
102
RTVSPost2010Prop29
280
     1
102
RTVSPost2010PropOp29
 70
     1
102
RTVSPost2010Prop30
280
     1
102
RTVSPost2010PropOp30
 70
     1
102
RTVSPost2010Prop31
280
     0
102
RTVSPost2010PropOp31
 70
     1
102
RTVSPost2010Prop32
280
     0
102
RTVSPost2010PropOp32
 70
     1
102
RTVSPost2010Prop33
280
     0
102
RTVSPost2010PropOp33
 70
     1
102
RTVSPost2010Prop34
280
     0
102
RTVSPost2010PropOp34
 70
     1
102
RTVSPost2010Prop35
280
     0
102
RTVSPost2010PropOp35
 70
     1
102
RTVSPost2010Prop36
280
     0
102
RTVSPost2010PropOp36
 70
     1
102
RTVSPost2010Prop37
 90
       50
102
RTVSPost2010PropOp37
 70
     1
102
RTVSPost2010Prop38
140
0.0
102
RTVSPost2010PropOp38
 70
     1
102
RTVSPost2010Prop39
140
1.0
102
RTVSPost2010PropOp39
 70
     1
102
RTVSPost2010Prop40
 90
        0
102
RTVSPost2010PropOp40
 70
     1
102
RTVSPost2010Prop41ColorIndex
 90
       18
102
RTVSPost2010Prop41ColorRGB
 90
        0
102
RTVSPost2010PropOp41
 70
     1
102
RTVSPost2010Prop42
 90
       50
102
RTVSPost2010PropOp42
 70
     1
102
RTVSPost2010Prop43
 90
        3
102
RTVSPost2010PropOp43
 70
     1
102
RTVSPost2010Prop44ColorIndex
 90
        5
102
RTVSPost2010Prop44ColorRGB
 90
      255
102
RTVSPost2010PropOp44
 70
     1
102
RTVSPost2010Prop45
280
     0
102
RTVSPost2010PropOp45
 70
     1
102
RTVSPost2010Prop46
 90
       50
102
RTVSPost2010PropOp46
 70
     1
102
RTVSPost2010Prop47
 90
       50
102
RTVSPost2010PropOp47
 70
     1
102
RTVSPost2010Prop48
 90
       50
102
RTVSPost2010PropOp48
 70
     1
102
RTVSPost2010Prop49
280
     0
102
RTVSPost2010PropOp49
 70
     1
102
RTVSPost2010Prop50
 90
       50
102
RTVSPost2010PropOp50
 70
     1
102
RTVSPost2010Prop51ColorIndex
 90
      256
102
RTVSPost2010Prop51ColorRGB
 90
-16777216
102
RTVSPost2010PropOp51
 70
     0
102
RTVSPost2010Prop52
140
1.0
102
RTVSPost2010PropOp52
 70
     0
102
RTVSPost2010Prop53
 90
        2
102
RTVSPost2010PropOp53
 70
     1
102
RTVSPost2010Prop54
  1
strokes_ogs.tif
102
RTVSPost2010PropOp54
 70
     1
102
RTVSPost2010Prop55
280
     0
102
RTVSPost2010PropOp55
 70
     1
102
RTVSPost2010Prop56
140
1.0
102
RTVSPost2010PropOp56
 70
     1
102
RTVSPost2010Prop57
140
1.0
102
RTVSPost2010PropOp57
 70
     1
  0
XRECORD
  5
17C
102
{ACAD_REACTORS
330
17B
102
}
330
17B
100
AcDbXrecord
280
     1
102
RTVSPost2010Prop28
280
     0
102
RTVSPost2010PropOp28
 70
     1
102
RTVSPost2010Prop29
280
     1
102
RTVSPost2010PropOp29
 70
     1
102
RTVSPost2010Prop30
280
     1
102
RTVSPost2010PropOp30
 70
     1
102
RTVSPost2010Prop31
280
     0
102
RTVSPost2010PropOp31
 70
     1
102
RTVSPost2010Prop32
280
     0
102
RTVSPost2010PropOp32
 70
     1
102
RTVSPost2010Prop33
280
     0
102
RTVSPost2010PropOp33
 70
     1
102
RTVSPost2010Prop34
280
     0
102
RTVSPost2010PropOp34
 70
     1
102
RTVSPost2010Prop35
280
     0
102
RTVSPost2010PropOp35
 70
     1
102
RTVSPost2010Prop36
280
     0
102
RTVSPost2010PropOp36
 70
     1
102
RTVSPost2010Prop37
 90
       50
102
RTVSPost2010PropOp37
 70
     1
102
RTVSPost2010Prop38
140
0.0
102
RTVSPost2010PropOp38
 70
     1
102
RTVSPost2010Prop39
140
1.0
102
RTVSPost2010PropOp39
 70
     1
102
RTVSPost2010Prop40
 90
        0
102
RTVSPost2010PropOp40
 70
     1
102
RTVSPost2010Prop41ColorIndex
 90
       18
102
RTVSPost2010Prop41ColorRGB
 90
        0
102
RTVSPost2010PropOp41
 70
     1
102
RTVSPost2010Prop42
 90
       50
102
RTVSPost2010PropOp42
 70
     1
102
RTVSPost2010Prop43
 90
        3
102
RTVSPost2010PropOp43
 70
     1
102
RTVSPost2010Prop44ColorIndex
 90
        5
102
RTVSPost2010Prop44ColorRGB
 90
      255
102
RTVSPost2010PropOp44
 70
     1
102
RTVSPost2010Prop45
280
     0
102
RTVSPost2010PropOp45
 70
     1
102
RTVSPost2010Prop46
 90
       50
102
RTVSPost2010PropOp46
 70
     1
102
RTVSPost2010Prop47
 90
       50
102
RTVSPost2010PropOp47
 70
     1
102
RTVSPost2010Prop48
 90
       50
102
RTVSPost2010PropOp48
 70
     1
102
RTVSPost2010Prop49
280
     0
102
RTVSPost2010PropOp49
 70
     1
102
RTVSPost2010Prop50
 90
       50
102
RTVSPost2010PropOp50
 70
     1
102
RTVSPost2010Prop51ColorIndex
 90
      256
102
RTVSPost2010Prop51ColorRGB
 90
-16777216
102
RTVSPost2010PropOp51
 70
     0
102
RTVSPost2010Prop52
140
1.0
102
RTVSPost2010PropOp52
 70
     0
102
RTVSPost2010Prop53
 90
        2
102
RTVSPost2010PropOp53
 70
     1
102
RTVSPost2010Prop54
  1
strokes_ogs.tif
102
RTVSPost2010PropOp54
 70
     1
102
RTVSPost2010Prop55
280
     0
102
RTVSPost2010PropOp55
 70
     1
102
RTVSPost2010Prop56
140
1.0
102
RTVSPost2010PropOp56
 70
     1
102
RTVSPost2010Prop57
140
1.0
102
RTVSPost2010PropOp57
 70
     1
  0
ENDSEC
  0
EOF
