  0
SECTION
  2
HEADER
  9
$ACADVER
  1
AC1024
  9
$ACADMAINTVER
 70
     6
  9
$DWGCODEPAGE
  3
UNDEFINED
  9
$INSBASE
 10
0.0
 20
0.0
 30
0.0
  9
$EXTMIN
 10
1.000000000000000E+20
 20
1.000000000000000E+20
 30
1.000000000000000E+20
  9
$EXTMAX
 10
-1.000000000000000E+20
 20
-1.000000000000000E+20
 30
-1.000000000000000E+20
  9
$LIMMIN
 10
0.0
 20
0.0
  9
$LIMMAX
 10
12.0
 20
9.0
  9
$ORTHOMODE
 70
     0
  9
$REGENMODE
 70
     1
  9
$FILLMODE
 70
     1
  9
$QTEXTMODE
 70
     0
  9
$MIRRTEXT
 70
     1
  9
$LTSCALE
 40
1.0
  9
$ATTMODE
 70
     1
  9
$TEXTSIZE
 40
0.2
  9
$TRACEWID
 40
0.05
  9
$TEXTSTYLE
  7
Standard
  9
$CLAYER
  8
0
  9
$CELTYPE
  6
ByLayer
  9
$CECOLOR
 62
   256
  9
$CELTSCALE
 40
1.0
  9
$DISPSILH
 70
     0
  9
$DIMSCALE
 40
1.0
  9
$DIMASZ
 40
0.18
  9
$DIMEXO
 40
0.0625
  9
$DIMDLI
 40
0.38
  9
$DIMRND
 40
0.0
  9
$DIMDLE
 40
0.0
  9
$DIMEXE
 40
0.18
  9
$DIMTP
 40
0.0
  9
$DIMTM
 40
0.0
  9
$DIMTXT
 40
0.18
  9
$DIMCEN
 40
0.09
  9
$DIMTSZ
 40
0.0
  9
$DIMTOL
 70
     0
  9
$DIMLIM
 70
     0
  9
$DIMTIH
 70
     1
  9
$DIMTOH
 70
     1
  9
$DIMSE1
 70
     0
  9
$DIMSE2
 70
     0
  9
$DIMTAD
 70
     0
  9
$DIMZIN
 70
     0
  9
$DIMBLK
  1

  9
$DIMASO
 70
     1
  9
$DIMSHO
 70
     1
  9
$DIMPOST
  1

  9
$DIMAPOST
  1

  9
$DIMALT
 70
     0
  9
$DIMALTD
 70
     2
  9
$DIMALTF
 40
25.4
  9
$DIMLFAC
 40
1.0
  9
$DIMTOFL
 70
     0
  9
$DIMTVP
 40
0.0
  9
$DIMTIX
 70
     0
  9
$DIMSOXD
 70
     0
  9
$DIMSAH
 70
     0
  9
$DIMBLK1
  1

  9
$DIMBLK2
  1

  9
$DIMSTYLE
  2
Standard
  9
$DIMCLRD
 70
     0
  9
$DIMCLRE
 70
     0
  9
$DIMCLRT
 70
     0
  9
$DIMTFAC
 40
1.0
  9
$DIMGAP
 40
0.09
  9
$DIMJUST
 70
     0
  9
$DIMSD1
 70
     0
  9
$DIMSD2
 70
     0
  9
$DIMTOLJ
 70
     1
  9
$DIMTZIN
 70
     0
  9
$DIMALTZ
 70
     0
  9
$DIMALTTZ
 70
     0
  9
$DIMUPT
 70
     0
  9
$DIMDEC
 70
     4
  9
$DIMTDEC
 70
     4
  9
$DIMALTU
 70
     2
  9
$DIMALTTD
 70
     2
  9
$DIMTXSTY
  7
Standard
  9
$DIMAUNIT
 70
     0
  9
$DIMADEC
 70
     0
  9
$DIMALTRND
 40
0.0
  9
$DIMAZIN
 70
     0
  9
$DIMDSEP
 70
    46
  9
$DIMATFIT
 70
     3
  9
$DIMFRAC
 70
     0
  9
$DIMLDRBLK
  1

  9
$DIMLUNIT
 70
     2
  9
$DIMLWD
 70
    -2
  9
$DIMLWE
 70
    -2
  9
$DIMTMOVE
 70
     0
  9
$DIMFXL
 40
1.0
  9
$DIMFXLON
 70
     0
  9
$DIMJOGANG
 40
0.7853981633974483
  9
$DIMTFILL
 70
     0
  9
$DIMTFILLCLR
 70
     0
  9
$DIMARCSYM
 70
     0
  9
$DIMLTYPE
  6

  9
$DIMLTEX1
  6

  9
$DIMLTEX2
  6

  9
$DIMTXTDIRECTION
 70
     0
  9
$LUNITS
 70
     2
  9
$LUPREC
 70
     4
  9
$SKETCHINC
 40
0.1
  9
$FILLETRAD
 40
0.5
  9
$AUNITS
 70
     0
  9
$AUPREC
 70
     0
  9
$MENU
  1
.
  9
$ELEVATION
 40
0.0
  9
$PELEVATION
 40
0.0
  9
$THICKNESS
 40
0.0
  9
$LIMCHECK
 70
     0
  9
$CHAMFERA
 40
0.5
  9
$CHAMFERB
 40
0.5
  9
$CHAMFERC
 40
1.0
  9
$CHAMFERD
 40
0.0
  9
$SKPOLY
 70
     0
  9
$TDCREATE
 40
2458270.588275451
  9
$TDUCREATE
 40
2458270.213275463
  9
$TDUPDATE
 40
2458270.588275451
  9
$TDUUPDATE
 40
2458270.213275463
  9
$TDINDWG
 40
0.0000000116
  9
$TDUSRTIMER
 40
0.0000000116
  9
$USRTIMER
 70
     1
  9
$ANGBASE
 50
0.0
  9
$ANGDIR
 70
     0
  9
$PDMODE
 70
     0
  9
$PDSIZE
 40
0.0
  9
$PLINEWID
 40
0.0
  9
$SPLFRAME
 70
     0
  9
$SPLINETYPE
 70
     6
  9
$SPLINESEGS
 70
     8
  9
$HANDSEED
  5
225
  9
$SURFTAB1
 70
     6
  9
$SURFTAB2
 70
     6
  9
$SURFTYPE
 70
     6
  9
$SURFU
 70
     6
  9
$SURFV
 70
     6
  9
$UCSBASE
  2

  9
$UCSNAME
  2

  9
$UCSORG
 10
0.0
 20
0.0
 30
0.0
  9
$UCSXDIR
 10
1.0
 20
0.0
 30
0.0
  9
$UCSYDIR
 10
0.0
 20
1.0
 30
0.0
  9
$UCSORTHOREF
  2

  9
$UCSORTHOVIEW
 70
     0
  9
$UCSORGTOP
 10
0.0
 20
0.0
 30
0.0
  9
$UCSORGBOTTOM
 10
0.0
 20
0.0
 30
0.0
  9
$UCSORGLEFT
 10
0.0
 20
0.0
 30
0.0
  9
$UCSORGRIGHT
 10
0.0
 20
0.0
 30
0.0
  9
$UCSORGFRONT
 10
0.0
 20
0.0
 30
0.0
  9
$UCSORGBACK
 10
0.0
 20
0.0
 30
0.0
  9
$PUCSBASE
  2

  9
$PUCSNAME
  2

  9
$PUCSORG
 10
0.0
 20
0.0
 30
0.0
  9
$PUCSXDIR
 10
1.0
 20
0.0
 30
0.0
  9
$PUCSYDIR
 10
0.0
 20
1.0
 30
0.0
  9
$PUCSORTHOREF
  2

  9
$PUCSORTHOVIEW
 70
     0
  9
$PUCSORGTOP
 10
0.0
 20
0.0
 30
0.0
  9
$PUCSORGBOTTOM
 10
0.0
 20
0.0
 30
0.0
  9
$PUCSORGLEFT
 10
0.0
 20
0.0
 30
0.0
  9
$PUCSORGRIGHT
 10
0.0
 20
0.0
 30
0.0
  9
$PUCSORGFRONT
 10
0.0
 20
0.0
 30
0.0
  9
$PUCSORGBACK
 10
0.0
 20
0.0
 30
0.0
  9
$USERI1
 70
     0
  9
$USERI2
 70
     0
  9
$USERI3
 70
     0
  9
$USERI4
 70
     0
  9
$USERI5
 70
     0
  9
$USERR1
 40
0.0
  9
$USERR2
 40
0.0
  9
$USERR3
 40
0.0
  9
$USERR4
 40
0.0
  9
$USERR5
 40
0.0
  9
$WORLDVIEW
 70
     1
  9
$SHADEDGE
 70
     3
  9
$SHADEDIF
 70
    70
  9
$TILEMODE
 70
     1
  9
$MAXACTVP
 70
    64
  9
$PINSBASE
 10
0.0
 20
0.0
 30
0.0
  9
$PLIMCHECK
 70
     0
  9
$PEXTMIN
 10
1.000000000000000E+20
 20
1.000000000000000E+20
 30
1.000000000000000E+20
  9
$PEXTMAX
 10
-1.000000000000000E+20
 20
-1.000000000000000E+20
 30
-1.000000000000000E+20
  9
$PLIMMIN
 10
0.0
 20
0.0
  9
$PLIMMAX
 10
12.0
 20
9.0
  9
$UNITMODE
 70
     0
  9
$VISRETAIN
 70
     1
  9
$PLINEGEN
 70
     0
  9
$PSLTSCALE
 70
     1
  9
$TREEDEPTH
 70
  3020
  9
$CMLSTYLE
  2
Standard
  9
$CMLJUST
 70
     0
  9
$CMLSCALE
 40
1.0
  9
$PROXYGRAPHICS
 70
     1
  9
$MEASUREMENT
 70
     0
  9
$CELWEIGHT
370
    -1
  9
$ENDCAPS
280
     0
  9
$JOINSTYLE
280
     0
  9
$LWDISPLAY
290
     1
  9
$INSUNITS
 70
     1
  9
$HYPERLINKBASE
  1

  9
$STYLESHEET
  1

  9
$XEDIT
290
     1
  9
$CEPSNTYPE
380
     0
  9
$PSTYLEMODE
290
     1
  9
$FINGERPRINTGUID
  2
{FE376D45-7D9E-9778-EA5C-46E66D8C99C8}
  9
$VERSIONGUID
  2
{FAEB1C32-E019-11D5-929B-00C0DF256EC4}
  9
$EXTNAMES
290
     1
  9
$PSVPSCALE
 40
0.0
  9
$OLESTARTUP
290
     0
  9
$SORTENTS
280
   127
  9
$INDEXCTL
280
     0
  9
$HIDETEXT
280
     1
  9
$XCLIPFRAME
280
     2
  9
$HALOGAP
280
     0
  9
$OBSCOLOR
 70
   257
  9
$OBSLTYPE
280
     0
  9
$INTERSECTIONDISPLAY
280
     0
  9
$INTERSECTIONCOLOR
 70
   257
  9
$DIMASSOC
280
     2
  9
$PROJECTNAME
  1

  9
$CAMERADISPLAY
290
     0
  9
$LENSLENGTH
 40
50.0
  9
$CAMERAHEIGHT
 40
0.0
  9
$STEPSPERSEC
 40
2.0
  9
$STEPSIZE
 40
6.0
  9
$3DDWFPREC
 40
2.0
  9
$PSOLWIDTH
 40
0.25
  9
$PSOLHEIGHT
 40
4.0
  9
$LOFTANG1
 40
1.570796326794897
  9
$LOFTANG2
 40
1.570796326794897
  9
$LOFTMAG1
 40
0.0
  9
$LOFTMAG2
 40
0.0
  9
$LOFTPARAM
 70
     7
  9
$LOFTNORMALS
280
     1
  9
$LATITUDE
 40
37.795
  9
$LONGITUDE
 40
-122.394
  9
$NORTHDIRECTION
 40
0.0
  9
$TIMEZONE
 70
 -8000
  9
$LIGHTGLYPHDISPLAY
280
     1
  9
$TILEMODELIGHTSYNCH
280
     1
  9
$CMATERIAL
347
3C
  9
$SOLIDHIST
280
     1
  9
$SHOWHIST
280
     1
  9
$DWFFRAME
280
     2
  9
$DGNFRAME
280
     2
  9
$REALWORLDSCALE
290
     1
  9
$INTERFERECOLOR
 62
   256
  9
$CSHADOW
280
     0
  9
$SHADOWPLANELOCATION
 40
0.0
  0
ENDSEC
  0
SECTION
  2
CLASSES
  0
CLASS
  1
ACDBDICTIONARYWDFLT
  2
AcDbDictionaryWithDefault
  3
ObjectDBX Classes
 90
        0
 91
        4
280
     0
281
     0
  0
CLASS
  1
VISUALSTYLE
  2
AcDbVisualStyle
  3
ObjectDBX Classes
 90
     4095
 91
        4
280
     0
281
     0
  0
CLASS
  1
MATERIAL
  2
AcDbMaterial
  3
ObjectDBX Classes
 90
     1153
 91
        4
280
     0
281
     0
  0
CLASS
  1
SUN
  2
AcDbSun
  3
SCENEOE
 90
     1024
 91
        4
280
     0
281
     0
  0
ENDSEC
  0
SECTION
  2
TABLES
  0
TABLE
  2
VPORT
  5
8
330
0
100
AcDbSymbolTable
 70
     1
  0
VPORT
  5
29
330
8
100
AcDbSymbolTableRecord
100
AcDbViewportTableRecord
  2
*Active
 70
     0
 10
0.0
 20
0.0
 11
1.0
 21
1.0
 12
0.0
 22
0.0
 13
0.0
 23
0.0
 14
0.5
 24
0.5
 15
0.5
 25
0.5
 16
0.0
 26
0.0
 36
1.0
 17
105.0007777515277
 27
-148.5000416295416
 37
0.0
 40
297.0000832590831
 41
0.7070757462376333
 42
50.0
 43
0.0
 44
0.0
 50
0.0
 51
0.0
 71
     0
 72
   100
 73
     1
 74
     3
 75
     0
 76
     0
 77
     0
 78
     0
281
     0
 65
     1
110
0.0
120
0.0
130
0.0
111
1.0
121
0.0
131
0.0
112
0.0
122
1.0
132
0.0
 79
     0
146
0.0
 60
     3
 61
     5
292
     1
282
     1
141
0.0
142
0.0
 63
   250
361
3F
  0
ENDTAB
  0
TABLE
  2
LTYPE
  5
5
330
0
100
AcDbSymbolTable
 70
     3
  0
LTYPE
  5
14
330
5
100
AcDbSymbolTableRecord
100
AcDbLinetypeTableRecord
  2
ByBlock
 70
     0
  3

 72
    65
 73
     0
 40
0.0
  0
LTYPE
  5
15
330
5
100
AcDbSymbolTableRecord
100
AcDbLinetypeTableRecord
  2
ByLayer
 70
     0
  3

 72
    65
 73
     0
 40
0.0
  0
LTYPE
  5
16
330
5
100
AcDbSymbolTableRecord
100
AcDbLinetypeTableRecord
  2
Continuous
 70
     0
  3
Solid line
 72
    65
 73
     0
 40
0.0
  0
LTYPE
  5
196
330
5
100
AcDbSymbolTableRecord
100
AcDbLinetypeTableRecord
  2
AI-Linetype-1
 70
     0
  3
Adobe Illustrator Linetype No. 1
 72
    65
 73
     2
 40
1.411111110758333
 49
0.7055555553791667
 74
     0
 49
-0.7055555553791667
 74
     0
  0
LTYPE
  5
1C7
330
5
100
AcDbSymbolTableRecord
100
AcDbLinetypeTableRecord
  2
AI-Linetype-2
 70
     0
  3
Adobe Illustrator Linetype No. 2
 72
    65
 73
     2
 40
1.411111110758333
 49
0.7055555553791667
 74
     0
 49
-0.7055555553791667
 74
     0
  0
ENDTAB
  0
TABLE
  2
LAYER
  5
2
330
0
100
AcDbSymbolTable
 70
     2
  0
LAYER
  5
10
330
2
100
AcDbSymbolTableRecord
100
AcDbLayerTableRecord
  2
0
 70
     0
 62
     7
  6
Continuous
370
    -3
390
F
347
3E
  0
LAYER
  5
40
330
2
100
AcDbSymbolTableRecord
100
AcDbLayerTableRecord
  2
_U+30EC_U+30A4_U+30E4_U+30FC 1
 70
     0
 62
     7
  6
Continuous
370
    -3
390
F
347
3E
  0
ENDTAB
  0
TABLE
  2
STYLE
  5
3
330
0
100
AcDbSymbolTable
 70
     1
  0
STYLE
  5
11
330
3
100
AcDbSymbolTableRecord
100
AcDbTextStyleTableRecord
  2
Standard
 70
     0
 40
0.0
 41
1.0
 50
0.0
 71
     0
 42
0.2
  3
txt
  4

  0
ENDTAB
  0
TABLE
  2
VIEW
  5
6
330
0
100
AcDbSymbolTable
 70
     0
  0
ENDTAB
  0
TABLE
  2
UCS
  5
7
330
0
100
AcDbSymbolTable
 70
     0
  0
ENDTAB
  0
TABLE
  2
APPID
  5
9
330
0
100
AcDbSymbolTable
 70
     1
  0
APPID
  5
12
330
9
100
AcDbSymbolTableRecord
100
AcDbRegAppTableRecord
  2
ACAD
 70
     0
  0
ENDTAB
  0
TABLE
  2
DIMSTYLE
  5
A
330
0
100
AcDbSymbolTable
 70
     1
100
AcDbDimStyleTable
  0
DIMSTYLE
105
27
330
A
100
AcDbSymbolTableRecord
100
AcDbDimStyleTableRecord
  2
Standard
 70
     0
178
     0
340
11
  0
ENDTAB
  0
TABLE
  2
BLOCK_RECORD
  5
1
330
0
100
AcDbSymbolTable
 70
     7
  0
BLOCK_RECORD
  5
1F
330
1
100
AcDbSymbolTableRecord
100
AcDbBlockTableRecord
  2
*Model_Space
340
22
 70
     0
280
     1
281
     0
  0
BLOCK_RECORD
  5
1B
330
1
100
AcDbSymbolTableRecord
100
AcDbBlockTableRecord
  2
*Paper_Space
340
1E
 70
     0
280
     1
281
     0
  0
BLOCK_RECORD
  5
23
330
1
100
AcDbSymbolTableRecord
100
AcDbBlockTableRecord
  2
*Paper_Space0
340
26
 70
     0
280
     1
281
     0
  0
BLOCK_RECORD
  5
4F
330
1
100
AcDbSymbolTableRecord
100
AcDbBlockTableRecord
  2
block 2
340
0
102
{BLKREFS
331
50
102
}
 70
     0
280
     1
281
     0
  0
BLOCK_RECORD
  5
E4
330
1
100
AcDbSymbolTableRecord
100
AcDbBlockTableRecord
  2
block 3
340
0
102
{BLKREFS
331
E5
102
}
 70
     0
280
     1
281
     0
  0
BLOCK_RECORD
  5
FB
330
1
100
AcDbSymbolTableRecord
100
AcDbBlockTableRecord
  2
block 4
340
0
102
{BLKREFS
331
FC
102
}
 70
     0
280
     1
281
     0
  0
BLOCK_RECORD
  5
10E
330
1
100
AcDbSymbolTableRecord
100
AcDbBlockTableRecord
  2
block 5
340
0
102
{BLKREFS
331
10F
102
}
 70
     0
280
     1
281
     0
  0
BLOCK_RECORD
  5
133
330
1
100
AcDbSymbolTableRecord
100
AcDbBlockTableRecord
  2
block 6
340
0
102
{BLKREFS
331
134
102
}
 70
     0
280
     1
281
     0
  0
BLOCK_RECORD
  5
19C
330
1
100
AcDbSymbolTableRecord
100
AcDbBlockTableRecord
  2
block 7
340
0
102
{BLKREFS
331
19D
102
}
 70
     0
280
     1
281
     0
  0
ENDTAB
  0
ENDSEC
  0
SECTION
  2
BLOCKS
  0
BLOCK
  5
20
330
1F
100
AcDbEntity
  8
0
100
AcDbBlockBegin
  2
*Model_Space
 70
     0
 10
0.0
 20
0.0
 30
0.0
  3
*Model_Space
  1

  0
ENDBLK
  5
21
330
1F
100
AcDbEntity
  8
0
100
AcDbBlockEnd
  0
BLOCK
  5
1C
330
1B
100
AcDbEntity
 67
     1
  8
0
100
AcDbBlockBegin
  2
*Paper_Space
 70
     0
 10
0.0
 20
0.0
 30
0.0
  3
*Paper_Space
  1

  0
ENDBLK
  5
1D
330
1B
100
AcDbEntity
 67
     1
  8
0
100
AcDbBlockEnd
  0
BLOCK
  5
24
330
23
100
AcDbEntity
  8
0
100
AcDbBlockBegin
  2
*Paper_Space0
 70
     0
 10
0.0
 20
0.0
 30
0.0
  3
*Paper_Space0
  1

  0
ENDBLK
  5
25
330
23
100
AcDbEntity
  8
0
100
AcDbBlockEnd
  0
BLOCK
  5
51
330
4F
100
AcDbEntity
  8
0
100
AcDbBlockBegin
  2
block 2
 70
     0
 10
0.0
 20
0.0
 30
0.0
  3
block 2
  1

  0
SPLINE
  5
53
330
4F
100
AcDbEntity
  8
_U+30EC_U+30A4_U+30E4_U+30FC 1
370
     0
100
AcDbSpline
210
0.0
220
0.0
230
1.0
 70
    11
 71
     3
 72
    26
 73
    22
 74
     0
 42
0.0000000001
 43
0.0000000001
 12
1.0
 22
0.0
 32
0.0
 13
1.0
 23
0.0
 33
0.0
 40
0.0
 40
0.0
 40
0.0
 40
0.0
 40
1.0
 40
1.0
 40
1.0
 40
2.0
 40
2.0
 40
2.0
 40
3.0
 40
3.0
 40
3.0
 40
4.0
 40
4.0
 40
4.0
 40
5.0
 40
5.0
 40
5.0
 40
6.0
 40
6.0
 40
6.0
 40
7.0
 40
7.0
 40
7.0
 40
7.0
 10
89.21832680061209
 20
-163.0549912786807
 30
0.0
 10
89.21832680061209
 20
-163.0549912786807
 30
0.0
 10
89.21832680061209
 20
-161.9508381756581
 30
0.0
 10
89.21832680061209
 20
-161.9508381756581
 30
0.0
 10
89.21832680061209
 20
-161.9508381756581
 30
0.0
 10
88.88828665312515
 20
-161.9508381756581
 30
0.0
 10
88.88828665312515
 20
-161.9508381756581
 30
0.0
 10
88.88828665312515
 20
-161.9508381756581
 30
0.0
 10
88.88828665312515
 20
-161.8026990697924
 30
0.0
 10
88.88828665312515
 20
-161.8026990697924
 30
0.0
 10
89.22039385790323
 20
-161.7878851592058
 30
0.0
 10
89.26690264695411
 20
-161.6249321427535
 30
0.0
 10
89.29653046812726
 20
-161.5105549726432
 30
0.0
 10
89.29653046812726
 20
-161.5105549726432
 30
0.0
 10
89.44260251670185
 20
-161.5105549726432
 30
0.0
 10
89.44260251670185
 20
-161.5105549726432
 30
0.0
 10
89.44260251670185
 20
-161.5105549726432
 30
0.0
 10
89.44260251670185
 20
-163.0549912786807
 30
0.0
 10
89.44260251670185
 20
-163.0549912786807
 30
0.0
 10
89.44260251670185
 20
-163.0549912786807
 30
0.0
 10
89.21832680061209
 20
-163.0549912786807
 30
0.0
 10
89.21832680061209
 20
-163.0549912786807
 30
0.0
  0
HATCH
  5
54
330
4F
100
AcDbEntity
  8
_U+30EC_U+30A4_U+30E4_U+30FC 1
 62
   179
420
  2234388
100
AcDbHatch
 10
0.0
 20
0.0
 30
0.0
210
0.0
220
0.0
230
1.0
  2
SOLID
 70
     1
 71
     0
 91
        1
 92
        1
 93
        1
 72
     4
 94
        3
 73
     0
 74
     1
 95
       26
 96
       22
 40
0.0
 40
0.0
 40
0.0
 40
0.0
 40
1.0
 40
1.0
 40
1.0
 40
2.0
 40
2.0
 40
2.0
 40
3.0
 40
3.0
 40
3.0
 40
4.0
 40
4.0
 40
4.0
 40
5.0
 40
5.0
 40
5.0
 40
6.0
 40
6.0
 40
6.0
 40
7.0
 40
7.0
 40
7.0
 40
7.0
 10
89.21832680061209
 20
-163.0549912786807
 10
89.21832680061209
 20
-163.0549912786807
 10
89.21832680061209
 20
-161.9508381756581
 10
89.21832680061209
 20
-161.9508381756581
 10
89.21832680061209
 20
-161.9508381756581
 10
88.88828665312515
 20
-161.9508381756581
 10
88.88828665312515
 20
-161.9508381756581
 10
88.88828665312515
 20
-161.9508381756581
 10
88.88828665312515
 20
-161.8026990697924
 10
88.88828665312515
 20
-161.8026990697924
 10
89.22039385790323
 20
-161.7878851592058
 10
89.26690264695411
 20
-161.6249321427535
 10
89.29653046812726
 20
-161.5105549726432
 10
89.29653046812726
 20
-161.5105549726432
 10
89.44260251670185
 20
-161.5105549726432
 10
89.44260251670185
 20
-161.5105549726432
 10
89.44260251670185
 20
-161.5105549726432
 10
89.44260251670185
 20
-163.0549912786807
 10
89.44260251670185
 20
-163.0549912786807
 10
89.44260251670185
 20
-163.0549912786807
 10
89.21832680061209
 20
-163.0549912786807
 10
89.21832680061209
 20
-163.0549912786807
 97
        0
 97
        0
 75
     2
 76
     1
 98
        0
  0
SPLINE
  5
55
330
4F
100
AcDbEntity
  8
_U+30EC_U+30A4_U+30E4_U+30FC 1
370
     0
100
AcDbSpline
210
0.0
220
0.0
230
1.0
 70
    11
 71
     3
 72
    29
 73
    25
 74
     0
 42
0.0000000001
 43
0.0000000001
 12
1.0
 22
0.0
 32
0.0
 13
1.0
 23
0.0
 33
0.0
 40
0.0
 40
0.0
 40
0.0
 40
0.0
 40
1.0
 40
1.0
 40
1.0
 40
2.0
 40
2.0
 40
2.0
 40
3.0
 40
3.0
 40
3.0
 40
4.0
 40
4.0
 40
4.0
 40
5.0
 40
5.0
 40
5.0
 40
6.0
 40
6.0
 40
6.0
 40
7.0
 40
7.0
 40
7.0
 40
8.0
 40
8.0
 40
8.0
 40
8.0
 10
90.84148353848755
 20
-162.8772243516418
 30
0.0
 10
90.73365204979923
 20
-163.086686157145
 30
0.0
 10
90.5601914921169
 20
-163.1056341823139
 30
0.0
 10
90.44374726471546
 20
-163.1056341823139
 30
0.0
 10
90.28303356032855
 20
-163.1056341823139
 30
0.0
 10
90.14126788111052
 20
-163.059125393263
 30
0.0
 10
90.04601099094336
 20
-162.8772243516418
 30
0.0
 10
89.94248587161161
 20
-162.6825764567252
 30
0.0
 10
89.92336559166847
 20
-162.4458983968885
 30
0.0
 10
89.92336559166847
 20
-162.2829453804362
 30
0.0
 10
89.92336559166847
 20
-162.1389403891528
 30
0.0
 10
89.9402465595462
 20
-161.887103909181
 30
0.0
 10
90.04601099094336
 20
-161.6883218996821
 30
0.0
 10
90.15401473440595
 20
-161.4854057756009
 30
0.0
 10
90.31472843879286
 20
-161.4619791263012
 30
0.0
 10
90.44374726471546
 20
-161.4619791263012
 30
0.0
 10
90.6023939118112
 20
-161.4619791263012
 30
0.0
 10
90.74622664832039
 20
-161.5064208580609
 30
0.0
 10
90.84148353848755
 20
-161.6883218996821
 30
0.0
 10
90.940874543237
 20
-161.8809027373076
 30
0.0
 10
90.96412893776244
 20
-162.1093125679796
 30
0.0
 10
90.96412893776244
 20
-162.2829453804362
 30
0.0
 10
90.96412893776244
 20
-162.4541666260531
 30
0.0
 10
90.94311385530241
 20
-162.6846435140164
 30
0.0
 10
90.84148353848755
 20
-162.8772243516418
 30
0.0
  0
SPLINE
  5
56
330
4F
100
AcDbEntity
  8
_U+30EC_U+30A4_U+30E4_U+30FC 1
370
     0
100
AcDbSpline
210
0.0
220
0.0
230
1.0
 70
    11
 71
     3
 72
    17
 73
    13
 74
     0
 42
0.0000000001
 43
0.0000000001
 12
1.0
 22
0.0
 32
0.0
 13
1.0
 23
0.0
 33
0.0
 40
0.0
 40
0.0
 40
0.0
 40
0.0
 40
1.0
 40
1.0
 40
1.0
 40
2.0
 40
2.0
 40
2.0
 40
3.0
 40
3.0
 40
3.0
 40
4.0
 40
4.0
 40
4.0
 40
4.0
 10
90.44374726471546
 20
-161.6545599639267
 30
0.0
 10
90.19415009680911
 20
-161.6545599639267
 30
0.0
 10
90.14764130775824
 20
-161.9380913223627
 30
0.0
 10
90.14764130775824
 20
-162.2829453804362
 30
0.0
 10
90.14764130775824
 20
-162.6023057319189
 30
0.0
 10
90.1836425555791
 20
-162.9109862873973
 30
0.0
 10
90.44374726471546
 20
-162.9109862873973
 30
0.0
 10
90.69127737533066
 20
-162.9109862873973
 30
0.0
 10
90.74002547644695
 20
-162.6298664958009
 30
0.0
 10
90.74002547644695
 20
-162.2829453804362
 30
0.0
 10
90.74002547644695
 20
-161.963240519405
 30
0.0
 10
90.70178491656067
 20
-161.6545599639267
 30
0.0
 10
90.44374726471546
 20
-161.6545599639267
 30
0.0
  0
HATCH
  5
57
330
4F
100
AcDbEntity
  8
_U+30EC_U+30A4_U+30E4_U+30FC 1
 62
   179
420
  2234388
100
AcDbHatch
 10
0.0
 20
0.0
 30
0.0
210
0.0
220
0.0
230
1.0
  2
SOLID
 70
     1
 71
     0
 91
        2
 92
        1
 93
        1
 72
     4
 94
        3
 73
     0
 74
     1
 95
       29
 96
       25
 40
0.0
 40
0.0
 40
0.0
 40
0.0
 40
1.0
 40
1.0
 40
1.0
 40
2.0
 40
2.0
 40
2.0
 40
3.0
 40
3.0
 40
3.0
 40
4.0
 40
4.0
 40
4.0
 40
5.0
 40
5.0
 40
5.0
 40
6.0
 40
6.0
 40
6.0
 40
7.0
 40
7.0
 40
7.0
 40
8.0
 40
8.0
 40
8.0
 40
8.0
 10
90.84148353848755
 20
-162.8772243516418
 10
90.73365204979923
 20
-163.086686157145
 10
90.5601914921169
 20
-163.1056341823139
 10
90.44374726471546
 20
-163.1056341823139
 10
90.28303356032855
 20
-163.1056341823139
 10
90.14126788111052
 20
-163.059125393263
 10
90.04601099094336
 20
-162.8772243516418
 10
89.94248587161161
 20
-162.6825764567252
 10
89.92336559166847
 20
-162.4458983968885
 10
89.92336559166847
 20
-162.2829453804362
 10
89.92336559166847
 20
-162.1389403891528
 10
89.9402465595462
 20
-161.887103909181
 10
90.04601099094336
 20
-161.6883218996821
 10
90.15401473440595
 20
-161.4854057756009
 10
90.31472843879286
 20
-161.4619791263012
 10
90.44374726471546
 20
-161.4619791263012
 10
90.6023939118112
 20
-161.4619791263012
 10
90.74622664832039
 20
-161.5064208580609
 10
90.84148353848755
 20
-161.6883218996821
 10
90.940874543237
 20
-161.8809027373076
 10
90.96412893776244
 20
-162.1093125679796
 10
90.96412893776244
 20
-162.2829453804362
 10
90.96412893776244
 20
-162.4541666260531
 10
90.94311385530241
 20
-162.6846435140164
 10
90.84148353848755
 20
-162.8772243516418
 97
        0
 97
        0
 92
        1
 93
        1
 72
     4
 94
        3
 73
     0
 74
     1
 95
       17
 96
       13
 40
0.0
 40
0.0
 40
0.0
 40
0.0
 40
1.0
 40
1.0
 40
1.0
 40
2.0
 40
2.0
 40
2.0
 40
3.0
 40
3.0
 40
3.0
 40
4.0
 40
4.0
 40
4.0
 40
4.0
 10
90.44374726471546
 20
-161.6545599639267
 10
90.19415009680911
 20
-161.6545599639267
 10
90.14764130775824
 20
-161.9380913223627
 10
90.14764130775824
 20
-162.2829453804362
 10
90.14764130775824
 20
-162.6023057319189
 10
90.1836425555791
 20
-162.9109862873973
 10
90.44374726471546
 20
-162.9109862873973
 10
90.69127737533066
 20
-162.9109862873973
 10
90.74002547644695
 20
-162.6298664958009
 10
90.74002547644695
 20
-162.2829453804362
 10
90.74002547644695
 20
-161.963240519405
 10
90.70178491656067
 20
-161.6545599639267
 10
90.44374726471546
 20
-161.6545599639267
 97
        0
 97
        0
 75
     2
 76
     1
 98
        0
  0
ENDBLK
  5
52
330
4F
100
AcDbEntity
  8
0
100
AcDbBlockEnd
  0
BLOCK
  5
E6
330
E4
100
AcDbEntity
  8
0
100
AcDbBlockBegin
  2
block 3
 70
     0
 10
0.0
 20
0.0
 30
0.0
  3
block 3
  1

  0
SPLINE
  5
E8
330
E4
100
AcDbEntity
  8
_U+30EC_U+30A4_U+30E4_U+30FC 1
370
     0
100
AcDbSpline
210
0.0
220
0.0
230
1.0
 70
    11
 71
     3
 72
    44
 73
    40
 74
     0
 42
0.0000000001
 43
0.0000000001
 12
1.0
 22
0.0
 32
0.0
 13
1.0
 23
0.0
 33
0.0
 40
0.0
 40
0.0
 40
0.0
 40
0.0
 40
1.0
 40
1.0
 40
1.0
 40
2.0
 40
2.0
 40
2.0
 40
3.0
 40
3.0
 40
3.0
 40
4.0
 40
4.0
 40
4.0
 40
5.0
 40
5.0
 40
5.0
 40
6.0
 40
6.0
 40
6.0
 40
7.0
 40
7.0
 40
7.0
 40
8.0
 40
8.0
 40
8.0
 40
9.0
 40
9.0
 40
9.0
 40
10.0
 40
10.0
 40
10.0
 40
11.0
 40
11.0
 40
11.0
 40
12.0
 40
12.0
 40
12.0
 40
13.0
 40
13.0
 40
13.0
 40
13.0
 10
108.5628824598384
 20
-132.3166435758618
 30
0.0
 10
108.3448079156221
 20
-132.4754624777318
 30
0.0
 10
108.2517903375204
 20
-132.5495320306647
 30
0.0
 10
108.2032144911784
 20
-132.6931925123996
 30
0.0
 10
108.2032144911784
 20
-132.6931925123996
 30
0.0
 10
108.9814615612963
 20
-132.6931925123996
 30
0.0
 10
108.9814615612963
 20
-132.6931925123996
 30
0.0
 10
108.9814615612963
 20
-132.6931925123996
 30
0.0
 10
108.9814615612963
 20
-132.8985202033205
 30
0.0
 10
108.9814615612963
 20
-132.8985202033205
 30
0.0
 10
108.9814615612963
 20
-132.8985202033205
 30
0.0
 10
107.9534450684978
 20
-132.8985202033205
 30
0.0
 10
107.9534450684978
 20
-132.8985202033205
 30
0.0
 10
107.9851399469621
 20
-132.5409192919516
 30
0.0
 10
108.0509412707303
 20
-132.4627156244364
 30
0.0
 10
108.4357584364327
 20
-132.1643703554138
 30
0.0
 10
108.6920735405353
 20
-131.9655883459149
 30
0.0
 10
108.7575303547551
 20
-131.8977199648554
 30
0.0
 10
108.7575303547551
 20
-131.760260654994
 30
0.0
 10
108.7575303547551
 20
-131.6417493703014
 30
0.0
 10
108.6855278591133
 20
-131.5108357418619
 30
0.0
 10
108.4888129069056
 20
-131.5108357418619
 30
0.0
 10
108.2283636882207
 20
-131.5108357418619
 30
0.0
 10
108.2200954590561
 20
-131.7413126298251
 30
0.0
 10
108.2159613444738
 20
-131.8577568572265
 30
0.0
 10
108.2159613444738
 20
-131.8577568572265
 30
0.0
 10
107.991685628384
 20
-131.8577568572265
 30
0.0
 10
107.991685628384
 20
-131.8577568572265
 30
0.0
 10
108.0002983670972
 20
-131.7306328338208
 30
0.0
 10
108.0106336535529
 20
-131.6186672305502
 30
0.0
 10
108.0912488879078
 20
-131.5001559458576
 30
0.0
 10
108.2008029243387
 20
-131.3392699866965
 30
0.0
 10
108.3871825900907
 20
-131.305508050941
 30
0.0
 10
108.5036268174921
 20
-131.305508050941
 30
0.0
 10
108.7809570040548
 20
-131.305508050941
 30
0.0
 10
108.9880072427183
 20
-131.4894761498533
 30
0.0
 10
108.9880072427183
 20
-131.7623277122851
 30
0.0
 10
108.9880072427183
 20
-131.9910820525057
 30
0.0
 10
108.8719075248654
 20
-132.0903008024809
 30
0.0
 10
108.5628824598384
 20
-132.3166435758618
 30
0.0
  0
HATCH
  5
E9
330
E4
100
AcDbEntity
  8
_U+30EC_U+30A4_U+30E4_U+30FC 1
 62
   179
420
  2234388
100
AcDbHatch
 10
0.0
 20
0.0
 30
0.0
210
0.0
220
0.0
230
1.0
  2
SOLID
 70
     1
 71
     0
 91
        1
 92
        1
 93
        1
 72
     4
 94
        3
 73
     0
 74
     1
 95
       44
 96
       40
 40
0.0
 40
0.0
 40
0.0
 40
0.0
 40
1.0
 40
1.0
 40
1.0
 40
2.0
 40
2.0
 40
2.0
 40
3.0
 40
3.0
 40
3.0
 40
4.0
 40
4.0
 40
4.0
 40
5.0
 40
5.0
 40
5.0
 40
6.0
 40
6.0
 40
6.0
 40
7.0
 40
7.0
 40
7.0
 40
8.0
 40
8.0
 40
8.0
 40
9.0
 40
9.0
 40
9.0
 40
10.0
 40
10.0
 40
10.0
 40
11.0
 40
11.0
 40
11.0
 40
12.0
 40
12.0
 40
12.0
 40
13.0
 40
13.0
 40
13.0
 40
13.0
 10
108.5628824598384
 20
-132.3166435758618
 10
108.3448079156221
 20
-132.4754624777318
 10
108.2517903375204
 20
-132.5495320306647
 10
108.2032144911784
 20
-132.6931925123996
 10
108.2032144911784
 20
-132.6931925123996
 10
108.9814615612963
 20
-132.6931925123996
 10
108.9814615612963
 20
-132.6931925123996
 10
108.9814615612963
 20
-132.6931925123996
 10
108.9814615612963
 20
-132.8985202033205
 10
108.9814615612963
 20
-132.8985202033205
 10
108.9814615612963
 20
-132.8985202033205
 10
107.9534450684978
 20
-132.8985202033205
 10
107.9534450684978
 20
-132.8985202033205
 10
107.9851399469621
 20
-132.5409192919516
 10
108.0509412707303
 20
-132.4627156244364
 10
108.4357584364327
 20
-132.1643703554138
 10
108.6920735405353
 20
-131.9655883459149
 10
108.7575303547551
 20
-131.8977199648554
 10
108.7575303547551
 20
-131.760260654994
 10
108.7575303547551
 20
-131.6417493703014
 10
108.6855278591133
 20
-131.5108357418619
 10
108.4888129069056
 20
-131.5108357418619
 10
108.2283636882207
 20
-131.5108357418619
 10
108.2200954590561
 20
-131.7413126298251
 10
108.2159613444738
 20
-131.8577568572265
 10
108.2159613444738
 20
-131.8577568572265
 10
107.991685628384
 20
-131.8577568572265
 10
107.991685628384
 20
-131.8577568572265
 10
108.0002983670972
 20
-131.7306328338208
 10
108.0106336535529
 20
-131.6186672305502
 10
108.0912488879078
 20
-131.5001559458576
 10
108.2008029243387
 20
-131.3392699866965
 10
108.3871825900907
 20
-131.305508050941
 10
108.5036268174921
 20
-131.305508050941
 10
108.7809570040548
 20
-131.305508050941
 10
108.9880072427183
 20
-131.4894761498533
 10
108.9880072427183
 20
-131.7623277122851
 10
108.9880072427183
 20
-131.9910820525057
 10
108.8719075248654
 20
-132.0903008024809
 10
108.5628824598384
 20
-132.3166435758618
 97
        0
 97
        0
 75
     2
 76
     1
 98
        0
  0
SPLINE
  5
EA
330
E4
100
AcDbEntity
  8
_U+30EC_U+30A4_U+30E4_U+30FC 1
370
     0
100
AcDbSpline
210
0.0
220
0.0
230
1.0
 70
    11
 71
     3
 72
    32
 73
    28
 74
     0
 42
0.0000000001
 43
0.0000000001
 12
1.0
 22
0.0
 32
0.0
 13
1.0
 23
0.0
 33
0.0
 40
0.0
 40
0.0
 40
0.0
 40
0.0
 40
1.0
 40
1.0
 40
1.0
 40
2.0
 40
2.0
 40
2.0
 40
3.0
 40
3.0
 40
3.0
 40
4.0
 40
4.0
 40
4.0
 40
5.0
 40
5.0
 40
5.0
 40
6.0
 40
6.0
 40
6.0
 40
7.0
 40
7.0
 40
7.0
 40
8.0
 40
8.0
 40
8.0
 40
9.0
 40
9.0
 40
9.0
 40
9.0
 10
109.6508436140803
 20
-132.9491631069537
 30
0.0
 10
109.1344238008414
 20
-132.9491631069537
 30
0.0
 10
109.1261555716768
 20
-132.3951917529255
 30
0.0
 10
109.1261555716768
 20
-132.1812513232915
 30
0.0
 10
109.1261555716768
 20
-131.9507744353283
 30
0.0
 10
109.1454481063942
 20
-131.3034409936498
 30
0.0
 10
109.6890841739666
 20
-131.3034409936498
 30
0.0
 10
109.8623724768747
 20
-131.3034409936498
 30
0.0
 10
110.1076632754245
 20
-131.3733764320004
 30
0.0
 10
110.1459038353107
 20
-131.7054836367785
 30
0.0
 10
110.1459038353107
 20
-131.7054836367785
 30
0.0
 10
109.9323079152253
 20
-131.7054836367785
 30
0.0
 10
109.9323079152253
 20
-131.7054836367785
 30
0.0
 10
109.921628119221
 20
-131.6482950517234
 30
0.0
 10
109.8899332407567
 20
-131.5001559458576
 30
0.0
 10
109.6870171166755
 20
-131.5001559458576
 30
0.0
 10
109.3948730195263
 20
-131.5001559458576
 30
0.0
 10
109.3545654023489
 20
-131.8281290360534
 30
0.0
 10
109.3418185490534
 20
-132.0331122174258
 30
0.0
 10
109.4348361271552
 20
-131.9549085499106
 30
0.0
 10
109.5027045082146
 20
-131.8956529075643
 30
0.0
 10
109.6846055498358
 20
-131.8956529075643
 30
0.0
 10
109.8644395341658
 20
-131.8956529075643
 30
0.0
 10
110.1669189177708
 20
-132.0038289058011
 30
0.0
 10
110.1669189177708
 20
-132.4100056635121
 30
0.0
 10
110.1669189177708
 20
-132.7293660149948
 30
0.0
 10
109.9681369082719
 20
-132.9491631069537
 30
0.0
 10
109.6508436140803
 20
-132.9491631069537
 30
0.0
  0
SPLINE
  5
EB
330
E4
100
AcDbEntity
  8
_U+30EC_U+30A4_U+30E4_U+30FC 1
370
     0
100
AcDbSpline
210
0.0
220
0.0
230
1.0
 70
    11
 71
     3
 72
    17
 73
    13
 74
     0
 42
0.0000000001
 43
0.0000000001
 12
1.0
 22
0.0
 32
0.0
 13
1.0
 23
0.0
 33
0.0
 40
0.0
 40
0.0
 40
0.0
 40
0.0
 40
1.0
 40
1.0
 40
1.0
 40
2.0
 40
2.0
 40
2.0
 40
3.0
 40
3.0
 40
3.0
 40
4.0
 40
4.0
 40
4.0
 40
4.0
 10
109.6677245819581
 20
-132.0903008024809
 30
0.0
 10
109.405208305982
 20
-132.0903008024809
 30
0.0
 10
109.3673122556443
 20
-132.3018296652752
 30
0.0
 10
109.3673122556443
 20
-132.4182738926767
 30
0.0
 10
109.3673122556443
 20
-132.5939737624244
 30
0.0
 10
109.4623968910372
 20
-132.7569267788768
 30
0.0
 10
109.6463649899495
 20
-132.7569267788768
 30
0.0
 10
109.7669433319333
 20
-132.7569267788768
 30
0.0
 10
109.942643201681
 20
-132.6976711365305
 30
0.0
 10
109.942643201681
 20
-132.4120727208033
 30
0.0
 10
109.942643201681
 20
-132.1877970047135
 30
0.0
 10
109.8031168345284
 20
-132.0903008024809
 30
0.0
 10
109.6677245819581
 20
-132.0903008024809
 30
0.0
  0
HATCH
  5
EC
330
E4
100
AcDbEntity
  8
_U+30EC_U+30A4_U+30E4_U+30FC 1
 62
   179
420
  2234388
100
AcDbHatch
 10
0.0
 20
0.0
 30
0.0
210
0.0
220
0.0
230
1.0
  2
SOLID
 70
     1
 71
     0
 91
        2
 92
        1
 93
        1
 72
     4
 94
        3
 73
     0
 74
     1
 95
       32
 96
       28
 40
0.0
 40
0.0
 40
0.0
 40
0.0
 40
1.0
 40
1.0
 40
1.0
 40
2.0
 40
2.0
 40
2.0
 40
3.0
 40
3.0
 40
3.0
 40
4.0
 40
4.0
 40
4.0
 40
5.0
 40
5.0
 40
5.0
 40
6.0
 40
6.0
 40
6.0
 40
7.0
 40
7.0
 40
7.0
 40
8.0
 40
8.0
 40
8.0
 40
9.0
 40
9.0
 40
9.0
 40
9.0
 10
109.6508436140803
 20
-132.9491631069537
 10
109.1344238008414
 20
-132.9491631069537
 10
109.1261555716768
 20
-132.3951917529255
 10
109.1261555716768
 20
-132.1812513232915
 10
109.1261555716768
 20
-131.9507744353283
 10
109.1454481063942
 20
-131.3034409936498
 10
109.6890841739666
 20
-131.3034409936498
 10
109.8623724768747
 20
-131.3034409936498
 10
110.1076632754245
 20
-131.3733764320004
 10
110.1459038353107
 20
-131.7054836367785
 10
110.1459038353107
 20
-131.7054836367785
 10
109.9323079152253
 20
-131.7054836367785
 10
109.9323079152253
 20
-131.7054836367785
 10
109.921628119221
 20
-131.6482950517234
 10
109.8899332407567
 20
-131.5001559458576
 10
109.6870171166755
 20
-131.5001559458576
 10
109.3948730195263
 20
-131.5001559458576
 10
109.3545654023489
 20
-131.8281290360534
 10
109.3418185490534
 20
-132.0331122174258
 10
109.4348361271552
 20
-131.9549085499106
 10
109.5027045082146
 20
-131.8956529075643
 10
109.6846055498358
 20
-131.8956529075643
 10
109.8644395341658
 20
-131.8956529075643
 10
110.1669189177708
 20
-132.0038289058011
 10
110.1669189177708
 20
-132.4100056635121
 10
110.1669189177708
 20
-132.7293660149948
 10
109.9681369082719
 20
-132.9491631069537
 10
109.6508436140803
 20
-132.9491631069537
 97
        0
 97
        0
 92
        1
 93
        1
 72
     4
 94
        3
 73
     0
 74
     1
 95
       17
 96
       13
 40
0.0
 40
0.0
 40
0.0
 40
0.0
 40
1.0
 40
1.0
 40
1.0
 40
2.0
 40
2.0
 40
2.0
 40
3.0
 40
3.0
 40
3.0
 40
4.0
 40
4.0
 40
4.0
 40
4.0
 10
109.6677245819581
 20
-132.0903008024809
 10
109.405208305982
 20
-132.0903008024809
 10
109.3673122556443
 20
-132.3018296652752
 10
109.3673122556443
 20
-132.4182738926767
 10
109.3673122556443
 20
-132.5939737624244
 10
109.4623968910372
 20
-132.7569267788768
 10
109.6463649899495
 20
-132.7569267788768
 10
109.7669433319333
 20
-132.7569267788768
 10
109.942643201681
 20
-132.6976711365305
 10
109.942643201681
 20
-132.4120727208033
 10
109.942643201681
 20
-132.1877970047135
 10
109.8031168345284
 20
-132.0903008024809
 10
109.6677245819581
 20
-132.0903008024809
 97
        0
 97
        0
 75
     2
 76
     1
 98
        0
  0
ENDBLK
  5
E7
330
E4
100
AcDbEntity
  8
0
100
AcDbBlockEnd
  0
BLOCK
  5
FD
330
FB
100
AcDbEntity
  8
0
100
AcDbBlockBegin
  2
block 4
 70
     0
 10
0.0
 20
0.0
 30
0.0
  3
block 4
  1

  0
SPLINE
  5
FF
330
FB
100
AcDbEntity
  8
_U+30EC_U+30A4_U+30E4_U+30FC 1
370
     0
100
AcDbSpline
210
0.0
220
0.0
230
1.0
 70
    11
 71
     3
 72
    32
 73
    28
 74
     0
 42
0.0000000001
 43
0.0000000001
 12
1.0
 22
0.0
 32
0.0
 13
1.0
 23
0.0
 33
0.0
 40
0.0
 40
0.0
 40
0.0
 40
0.0
 40
1.0
 40
1.0
 40
1.0
 40
2.0
 40
2.0
 40
2.0
 40
3.0
 40
3.0
 40
3.0
 40
4.0
 40
4.0
 40
4.0
 40
5.0
 40
5.0
 40
5.0
 40
6.0
 40
6.0
 40
6.0
 40
7.0
 40
7.0
 40
7.0
 40
8.0
 40
8.0
 40
8.0
 40
9.0
 40
9.0
 40
9.0
 40
9.0
 10
127.2942111226903
 20
-140.7614338840805
 30
0.0
 10
127.2942111226903
 20
-141.2776814425452
 30
0.0
 10
126.7402397686622
 20
-141.286121926484
 30
0.0
 10
126.5266438485767
 20
-141.286121926484
 30
0.0
 10
126.2958224510649
 20
-141.286121926484
 30
0.0
 10
125.648833518935
 20
-141.2670016465409
 30
0.0
 10
125.648833518935
 20
-140.7233655789685
 30
0.0
 10
125.648833518935
 20
-140.5499050212862
 30
0.0
 10
125.7184244477371
 20
-140.3046142227363
 30
0.0
 10
126.0505316525151
 20
-140.2663736628501
 30
0.0
 10
126.0505316525151
 20
-140.2663736628501
 30
0.0
 10
126.0505316525151
 20
-140.4801418377098
 30
0.0
 10
126.0505316525151
 20
-140.4801418377098
 30
0.0
 10
125.99334306746
 20
-140.4906493789398
 30
0.0
 10
125.8452039615943
 20
-140.5223442574041
 30
0.0
 10
125.8452039615943
 20
-140.7254326362596
 30
0.0
 10
125.8452039615943
 20
-141.0174044786345
 30
0.0
 10
126.17317705179
 20
-141.057712095812
 30
0.0
 10
126.3785047427109
 20
-141.0702866943331
 30
0.0
 10
126.2999565656472
 20
-140.9772691162314
 30
0.0
 10
126.2407009233009
 20
-140.9095729899462
 30
0.0
 10
126.2407009233009
 20
-140.727671948325
 30
0.0
 10
126.2407009233009
 20
-140.547837963995
 30
0.0
 10
126.3488769215378
 20
-140.24535858039
 30
0.0
 10
126.7553981887973
 20
-140.24535858039
 30
0.0
 10
127.0744140307314
 20
-140.24535858039
 30
0.0
 10
127.2942111226903
 20
-140.444140589889
 30
0.0
 10
127.2942111226903
 20
-140.7614338840805
 30
0.0
  0
SPLINE
  5
100
330
FB
100
AcDbEntity
  8
_U+30EC_U+30A4_U+30E4_U+30FC 1
370
     0
100
AcDbSpline
210
0.0
220
0.0
230
1.0
 70
    11
 71
     3
 72
    17
 73
    13
 74
     0
 42
0.0000000001
 43
0.0000000001
 12
1.0
 22
0.0
 32
0.0
 13
1.0
 23
0.0
 33
0.0
 40
0.0
 40
0.0
 40
0.0
 40
0.0
 40
1.0
 40
1.0
 40
1.0
 40
2.0
 40
2.0
 40
2.0
 40
3.0
 40
3.0
 40
3.0
 40
4.0
 40
4.0
 40
4.0
 40
4.0
 10
126.4356933277661
 20
-140.7445529162028
 30
0.0
 10
126.4356933277661
 20
-141.0068969374045
 30
0.0
 10
126.6472221905604
 20
-141.0449652425166
 30
0.0
 10
126.7636664179619
 20
-141.0449652425166
 30
0.0
 10
126.9393662877096
 20
-141.0449652425166
 30
0.0
 10
127.1019747946134
 20
-140.9497083523494
 30
0.0
 10
127.1019747946134
 20
-140.765740253437
 30
0.0
 10
127.1019747946134
 20
-140.6451619114533
 30
0.0
 10
127.0427191522671
 20
-140.4694620417056
 30
0.0
 10
126.7574652460884
 20
-140.4694620417056
 30
0.0
 10
126.5328450204501
 20
-140.4694620417056
 30
0.0
 10
126.4356933277661
 20
-140.6091606636325
 30
0.0
 10
126.4356933277661
 20
-140.7445529162028
 30
0.0
  0
HATCH
  5
101
330
FB
100
AcDbEntity
  8
_U+30EC_U+30A4_U+30E4_U+30FC 1
 62
   179
420
  2234388
100
AcDbHatch
 10
0.0
 20
0.0
 30
0.0
210
0.0
220
0.0
230
1.0
  2
SOLID
 70
     1
 71
     0
 91
        2
 92
        1
 93
        1
 72
     4
 94
        3
 73
     0
 74
     1
 95
       32
 96
       28
 40
0.0
 40
0.0
 40
0.0
 40
0.0
 40
1.0
 40
1.0
 40
1.0
 40
2.0
 40
2.0
 40
2.0
 40
3.0
 40
3.0
 40
3.0
 40
4.0
 40
4.0
 40
4.0
 40
5.0
 40
5.0
 40
5.0
 40
6.0
 40
6.0
 40
6.0
 40
7.0
 40
7.0
 40
7.0
 40
8.0
 40
8.0
 40
8.0
 40
9.0
 40
9.0
 40
9.0
 40
9.0
 10
127.2942111226903
 20
-140.7614338840805
 10
127.2942111226903
 20
-141.2776814425452
 10
126.7402397686622
 20
-141.286121926484
 10
126.5266438485767
 20
-141.286121926484
 10
126.2958224510649
 20
-141.286121926484
 10
125.648833518935
 20
-141.2670016465409
 10
125.648833518935
 20
-140.7233655789685
 10
125.648833518935
 20
-140.5499050212862
 10
125.7184244477371
 20
-140.3046142227363
 10
126.0505316525151
 20
-140.2663736628501
 10
126.0505316525151
 20
-140.2663736628501
 10
126.0505316525151
 20
-140.4801418377098
 10
126.0505316525151
 20
-140.4801418377098
 10
125.99334306746
 20
-140.4906493789398
 10
125.8452039615943
 20
-140.5223442574041
 10
125.8452039615943
 20
-140.7254326362596
 10
125.8452039615943
 20
-141.0174044786345
 10
126.17317705179
 20
-141.057712095812
 10
126.3785047427109
 20
-141.0702866943331
 10
126.2999565656472
 20
-140.9772691162314
 10
126.2407009233009
 20
-140.9095729899462
 10
126.2407009233009
 20
-140.727671948325
 10
126.2407009233009
 20
-140.547837963995
 10
126.3488769215378
 20
-140.24535858039
 10
126.7553981887973
 20
-140.24535858039
 10
127.0744140307314
 20
-140.24535858039
 10
127.2942111226903
 20
-140.444140589889
 10
127.2942111226903
 20
-140.7614338840805
 97
        0
 97
        0
 92
        1
 93
        1
 72
     4
 94
        3
 73
     0
 74
     1
 95
       17
 96
       13
 40
0.0
 40
0.0
 40
0.0
 40
0.0
 40
1.0
 40
1.0
 40
1.0
 40
2.0
 40
2.0
 40
2.0
 40
3.0
 40
3.0
 40
3.0
 40
4.0
 40
4.0
 40
4.0
 40
4.0
 10
126.4356933277661
 20
-140.7445529162028
 10
126.4356933277661
 20
-141.0068969374045
 10
126.6472221905604
 20
-141.0449652425166
 10
126.7636664179619
 20
-141.0449652425166
 10
126.9393662877096
 20
-141.0449652425166
 10
127.1019747946134
 20
-140.9497083523494
 10
127.1019747946134
 20
-140.765740253437
 10
127.1019747946134
 20
-140.6451619114533
 10
127.0427191522671
 20
-140.4694620417056
 10
126.7574652460884
 20
-140.4694620417056
 10
126.5328450204501
 20
-140.4694620417056
 10
126.4356933277661
 20
-140.6091606636325
 10
126.4356933277661
 20
-140.7445529162028
 97
        0
 97
        0
 75
     2
 76
     1
 98
        0
  0
ENDBLK
  5
FE
330
FB
100
AcDbEntity
  8
0
100
AcDbBlockEnd
  0
BLOCK
  5
110
330
10E
100
AcDbEntity
  8
0
100
AcDbBlockBegin
  2
block 5
 70
     0
 10
0.0
 20
0.0
 30
0.0
  3
block 5
  1

  0
SPLINE
  5
112
330
10E
100
AcDbEntity
  8
_U+30EC_U+30A4_U+30E4_U+30FC 1
370
     0
100
AcDbSpline
210
0.0
220
0.0
230
1.0
 70
    11
 71
     3
 72
    44
 73
    40
 74
     0
 42
0.0000000001
 43
0.0000000001
 12
1.0
 22
0.0
 32
0.0
 13
1.0
 23
0.0
 33
0.0
 40
0.0
 40
0.0
 40
0.0
 40
0.0
 40
1.0
 40
1.0
 40
1.0
 40
2.0
 40
2.0
 40
2.0
 40
3.0
 40
3.0
 40
3.0
 40
4.0
 40
4.0
 40
4.0
 40
5.0
 40
5.0
 40
5.0
 40
6.0
 40
6.0
 40
6.0
 40
7.0
 40
7.0
 40
7.0
 40
8.0
 40
8.0
 40
8.0
 40
9.0
 40
9.0
 40
9.0
 40
10.0
 40
10.0
 40
10.0
 40
11.0
 40
11.0
 40
11.0
 40
12.0
 40
12.0
 40
12.0
 40
13.0
 40
13.0
 40
13.0
 40
13.0
 10
77.60697697712604
 20
-151.2500270889236
 30
0.0
 10
77.76579587899606
 20
-151.4681016331399
 30
0.0
 10
77.83986543192893
 20
-151.5614637207902
 30
0.0
 10
77.98352591366384
 20
-151.6096950575837
 30
0.0
 10
77.98352591366384
 20
-151.6096950575837
 30
0.0
 10
77.98352591366384
 20
-150.8314479874658
 30
0.0
 10
77.98352591366384
 20
-150.8314479874658
 30
0.0
 10
77.98352591366384
 20
-150.8314479874658
 30
0.0
 10
78.18885360458474
 20
-150.8314479874658
 30
0.0
 10
78.18885360458474
 20
-150.8314479874658
 30
0.0
 10
78.18885360458474
 20
-150.8314479874658
 30
0.0
 10
78.18885360458474
 20
-151.8594644802643
 30
0.0
 10
78.18885360458474
 20
-151.8594644802643
 30
0.0
 10
77.8312526932158
 20
-151.8277696018
 30
0.0
 10
77.75304902570063
 20
-151.7623127875803
 30
0.0
 10
77.454703756678
 20
-151.3771511123293
 30
0.0
 10
77.25592174717907
 20
-151.1211805177753
 30
0.0
 10
77.18805336611966
 20
-151.0557237035555
 30
0.0
 10
77.05059405625819
 20
-151.0557237035555
 30
0.0
 10
76.93208277156559
 20
-151.0557237035555
 30
0.0
 10
76.8011691431261
 20
-151.1273816896487
 30
0.0
 10
76.8011691431261
 20
-151.324441151405
 30
0.0
 10
76.8011691431261
 20
-151.5845458605414
 30
0.0
 10
77.03164603108931
 20
-151.5931585992545
 30
0.0
 10
77.14809025849075
 20
-151.5972927138368
 30
0.0
 10
77.14809025849075
 20
-151.5972927138368
 30
0.0
 10
77.14809025849075
 20
-151.821223920378
 30
0.0
 10
77.14809025849075
 20
-151.821223920378
 30
0.0
 10
77.02096623508504
 20
-151.8129556912134
 30
0.0
 10
76.90900063181442
 20
-151.8026204047577
 30
0.0
 10
76.79048934712182
 20
-151.7220051704028
 30
0.0
 10
76.62960338796066
 20
-151.6121066244234
 30
0.0
 10
76.5958414522052
 20
-151.4257269586714
 30
0.0
 10
76.5958414522052
 20
-151.3092827312699
 30
0.0
 10
76.5958414522052
 20
-151.0322970542558
 30
0.0
 10
76.77980955111755
 20
-150.8249023060438
 30
0.0
 10
77.05266111354933
 20
-150.8249023060438
 30
0.0
 10
77.28141545376992
 20
-150.8249023060438
 30
0.0
 10
77.38063420374512
 20
-150.9413465334452
 30
0.0
 10
77.60697697712604
 20
-151.2500270889236
 30
0.0
  0
HATCH
  5
113
330
10E
100
AcDbEntity
  8
_U+30EC_U+30A4_U+30E4_U+30FC 1
 62
   179
420
  2234388
100
AcDbHatch
 10
0.0
 20
0.0
 30
0.0
210
0.0
220
0.0
230
1.0
  2
SOLID
 70
     1
 71
     0
 91
        1
 92
        1
 93
        1
 72
     4
 94
        3
 73
     0
 74
     1
 95
       44
 96
       40
 40
0.0
 40
0.0
 40
0.0
 40
0.0
 40
1.0
 40
1.0
 40
1.0
 40
2.0
 40
2.0
 40
2.0
 40
3.0
 40
3.0
 40
3.0
 40
4.0
 40
4.0
 40
4.0
 40
5.0
 40
5.0
 40
5.0
 40
6.0
 40
6.0
 40
6.0
 40
7.0
 40
7.0
 40
7.0
 40
8.0
 40
8.0
 40
8.0
 40
9.0
 40
9.0
 40
9.0
 40
10.0
 40
10.0
 40
10.0
 40
11.0
 40
11.0
 40
11.0
 40
12.0
 40
12.0
 40
12.0
 40
13.0
 40
13.0
 40
13.0
 40
13.0
 10
77.60697697712604
 20
-151.2500270889236
 10
77.76579587899606
 20
-151.4681016331399
 10
77.83986543192893
 20
-151.5614637207902
 10
77.98352591366384
 20
-151.6096950575837
 10
77.98352591366384
 20
-151.6096950575837
 10
77.98352591366384
 20
-150.8314479874658
 10
77.98352591366384
 20
-150.8314479874658
 10
77.98352591366384
 20
-150.8314479874658
 10
78.18885360458474
 20
-150.8314479874658
 10
78.18885360458474
 20
-150.8314479874658
 10
78.18885360458474
 20
-150.8314479874658
 10
78.18885360458474
 20
-151.8594644802643
 10
78.18885360458474
 20
-151.8594644802643
 10
77.8312526932158
 20
-151.8277696018
 10
77.75304902570063
 20
-151.7623127875803
 10
77.454703756678
 20
-151.3771511123293
 10
77.25592174717907
 20
-151.1211805177753
 10
77.18805336611966
 20
-151.0557237035555
 10
77.05059405625819
 20
-151.0557237035555
 10
76.93208277156559
 20
-151.0557237035555
 10
76.8011691431261
 20
-151.1273816896487
 10
76.8011691431261
 20
-151.324441151405
 10
76.8011691431261
 20
-151.5845458605414
 10
77.03164603108931
 20
-151.5931585992545
 10
77.14809025849075
 20
-151.5972927138368
 10
77.14809025849075
 20
-151.5972927138368
 10
77.14809025849075
 20
-151.821223920378
 10
77.14809025849075
 20
-151.821223920378
 10
77.02096623508504
 20
-151.8129556912134
 10
76.90900063181442
 20
-151.8026204047577
 10
76.79048934712182
 20
-151.7220051704028
 10
76.62960338796066
 20
-151.6121066244234
 10
76.5958414522052
 20
-151.4257269586714
 10
76.5958414522052
 20
-151.3092827312699
 10
76.5958414522052
 20
-151.0322970542558
 10
76.77980955111755
 20
-150.8249023060438
 10
77.05266111354933
 20
-150.8249023060438
 10
77.28141545376992
 20
-150.8249023060438
 10
77.38063420374512
 20
-150.9413465334452
 10
77.60697697712604
 20
-151.2500270889236
 97
        0
 97
        0
 75
     2
 76
     1
 98
        0
  0
SPLINE
  5
114
330
10E
100
AcDbEntity
  8
_U+30EC_U+30A4_U+30E4_U+30FC 1
370
     0
100
AcDbSpline
210
0.0
220
0.0
230
1.0
 70
    11
 71
     3
 72
    32
 73
    28
 74
     0
 42
0.0000000001
 43
0.0000000001
 12
1.0
 22
0.0
 32
0.0
 13
1.0
 23
0.0
 33
0.0
 40
0.0
 40
0.0
 40
0.0
 40
0.0
 40
1.0
 40
1.0
 40
1.0
 40
2.0
 40
2.0
 40
2.0
 40
3.0
 40
3.0
 40
3.0
 40
4.0
 40
4.0
 40
4.0
 40
5.0
 40
5.0
 40
5.0
 40
6.0
 40
6.0
 40
6.0
 40
7.0
 40
7.0
 40
7.0
 40
8.0
 40
8.0
 40
8.0
 40
9.0
 40
9.0
 40
9.0
 40
9.0
 10
78.23949650821791
 20
-150.1620659346817
 30
0.0
 10
78.23949650821791
 20
-150.6784857479207
 30
0.0
 10
77.68552515418973
 20
-150.6870984866338
 30
0.0
 10
77.47158472455571
 20
-150.6870984866338
 30
0.0
 10
77.2411078365925
 20
-150.6870984866338
 30
0.0
 10
76.59377439491406
 20
-150.6678059519164
 30
0.0
 10
76.59377439491406
 20
-150.124169884344
 30
0.0
 10
76.59377439491406
 20
-149.9505370718874
 30
0.0
 10
76.66370983326463
 20
-149.7052462733376
 30
0.0
 10
76.99581703804272
 20
-149.6673502229998
 30
0.0
 10
76.99581703804272
 20
-149.6673502229998
 30
0.0
 10
76.99581703804272
 20
-149.8809461430853
 30
0.0
 10
76.99581703804272
 20
-149.8809461430853
 30
0.0
 10
76.93862845298757
 20
-149.8912814295411
 30
0.0
 10
76.79048934712182
 20
-149.9229763080054
 30
0.0
 10
76.79048934712182
 20
-150.1262369416351
 30
0.0
 10
76.79048934712182
 20
-150.4183810387843
 30
0.0
 10
77.1184624373176
 20
-150.4583441464132
 30
0.0
 10
77.32344561868997
 20
-150.4710909997086
 30
0.0
 10
77.2452419511748
 20
-150.3780734216069
 30
0.0
 10
77.1859863088285
 20
-150.3102050405475
 30
0.0
 10
77.1859863088285
 20
-150.1283039989263
 30
0.0
 10
77.1859863088285
 20
-149.9484700145962
 30
0.0
 10
77.29416230706535
 20
-149.6459906309913
 30
0.0
 10
77.7003390647763
 20
-149.6459906309913
 30
0.0
 10
78.01969941625897
 20
-149.6459906309913
 30
0.0
 10
78.23949650821791
 20
-149.8451171500387
 30
0.0
 10
78.23949650821791
 20
-150.1620659346817
 30
0.0
  0
SPLINE
  5
115
330
10E
100
AcDbEntity
  8
_U+30EC_U+30A4_U+30E4_U+30FC 1
370
     0
100
AcDbSpline
210
0.0
220
0.0
230
1.0
 70
    11
 71
     3
 72
    17
 73
    13
 74
     0
 42
0.0000000001
 43
0.0000000001
 12
1.0
 22
0.0
 32
0.0
 13
1.0
 23
0.0
 33
0.0
 40
0.0
 40
0.0
 40
0.0
 40
0.0
 40
1.0
 40
1.0
 40
1.0
 40
2.0
 40
2.0
 40
2.0
 40
3.0
 40
3.0
 40
3.0
 40
4.0
 40
4.0
 40
4.0
 40
4.0
 10
77.38063420374512
 20
-150.1455294763525
 30
0.0
 10
77.38063420374512
 20
-150.40770124278
 30
0.0
 10
77.59216306653946
 20
-150.4459418026663
 30
0.0
 10
77.7086072939409
 20
-150.4459418026663
 30
0.0
 10
77.88430716368865
 20
-150.4459418026663
 30
0.0
 10
78.04726018014097
 20
-150.3505126577249
 30
0.0
 10
78.04726018014097
 20
-150.1665445588125
 30
0.0
 10
78.04726018014097
 20
-150.0459662168288
 30
0.0
 10
77.98800453779467
 20
-149.870266347081
 30
0.0
 10
77.70240612206746
 20
-149.870266347081
 30
0.0
 10
77.4781304059777
 20
-149.870266347081
 30
0.0
 10
77.38063420374512
 20
-150.0097927142337
 30
0.0
 10
77.38063420374512
 20
-150.1455294763525
 30
0.0
  0
HATCH
  5
116
330
10E
100
AcDbEntity
  8
_U+30EC_U+30A4_U+30E4_U+30FC 1
 62
   179
420
  2234388
100
AcDbHatch
 10
0.0
 20
0.0
 30
0.0
210
0.0
220
0.0
230
1.0
  2
SOLID
 70
     1
 71
     0
 91
        2
 92
        1
 93
        1
 72
     4
 94
        3
 73
     0
 74
     1
 95
       32
 96
       28
 40
0.0
 40
0.0
 40
0.0
 40
0.0
 40
1.0
 40
1.0
 40
1.0
 40
2.0
 40
2.0
 40
2.0
 40
3.0
 40
3.0
 40
3.0
 40
4.0
 40
4.0
 40
4.0
 40
5.0
 40
5.0
 40
5.0
 40
6.0
 40
6.0
 40
6.0
 40
7.0
 40
7.0
 40
7.0
 40
8.0
 40
8.0
 40
8.0
 40
9.0
 40
9.0
 40
9.0
 40
9.0
 10
78.23949650821791
 20
-150.1620659346817
 10
78.23949650821791
 20
-150.6784857479207
 10
77.68552515418973
 20
-150.6870984866338
 10
77.47158472455571
 20
-150.6870984866338
 10
77.2411078365925
 20
-150.6870984866338
 10
76.59377439491406
 20
-150.6678059519164
 10
76.59377439491406
 20
-150.124169884344
 10
76.59377439491406
 20
-149.9505370718874
 10
76.66370983326463
 20
-149.7052462733376
 10
76.99581703804272
 20
-149.6673502229998
 10
76.99581703804272
 20
-149.6673502229998
 10
76.99581703804272
 20
-149.8809461430853
 10
76.99581703804272
 20
-149.8809461430853
 10
76.93862845298757
 20
-149.8912814295411
 10
76.79048934712182
 20
-149.9229763080054
 10
76.79048934712182
 20
-150.1262369416351
 10
76.79048934712182
 20
-150.4183810387843
 10
77.1184624373176
 20
-150.4583441464132
 10
77.32344561868997
 20
-150.4710909997086
 10
77.2452419511748
 20
-150.3780734216069
 10
77.1859863088285
 20
-150.3102050405475
 10
77.1859863088285
 20
-150.1283039989263
 10
77.1859863088285
 20
-149.9484700145962
 10
77.29416230706535
 20
-149.6459906309913
 10
77.7003390647763
 20
-149.6459906309913
 10
78.01969941625897
 20
-149.6459906309913
 10
78.23949650821791
 20
-149.8451171500387
 10
78.23949650821791
 20
-150.1620659346817
 97
        0
 97
        0
 92
        1
 93
        1
 72
     4
 94
        3
 73
     0
 74
     1
 95
       17
 96
       13
 40
0.0
 40
0.0
 40
0.0
 40
0.0
 40
1.0
 40
1.0
 40
1.0
 40
2.0
 40
2.0
 40
2.0
 40
3.0
 40
3.0
 40
3.0
 40
4.0
 40
4.0
 40
4.0
 40
4.0
 10
77.38063420374512
 20
-150.1455294763525
 10
77.38063420374512
 20
-150.40770124278
 10
77.59216306653946
 20
-150.4459418026663
 10
77.7086072939409
 20
-150.4459418026663
 10
77.88430716368865
 20
-150.4459418026663
 10
78.04726018014097
 20
-150.3505126577249
 10
78.04726018014097
 20
-150.1665445588125
 10
78.04726018014097
 20
-150.0459662168288
 10
77.98800453779467
 20
-149.870266347081
 10
77.70240612206746
 20
-149.870266347081
 10
77.4781304059777
 20
-149.870266347081
 10
77.38063420374512
 20
-150.0097927142337
 10
77.38063420374512
 20
-150.1455294763525
 97
        0
 97
        0
 75
     2
 76
     1
 98
        0
  0
ENDBLK
  5
111
330
10E
100
AcDbEntity
  8
0
100
AcDbBlockEnd
  0
BLOCK
  5
135
330
133
100
AcDbEntity
  8
0
100
AcDbBlockBegin
  2
block 6
 70
     0
 10
0.0
 20
0.0
 30
0.0
  3
block 6
  1

  0
POLYLINE
  5
137
330
133
100
AcDbEntity
  8
_U+30EC_U+30A4_U+30E4_U+30FC 1
370
     0
100
AcDb2dPolyline
 66
     1
 10
0.0
 20
0.0
 30
0.0
  0
VERTEX
  5
138
330
137
100
AcDbEntity
  8
_U+30EC_U+30A4_U+30E4_U+30FC 1
370
     0
100
AcDbVertex
100
AcDb2dVertex
 10
82.20221759012654
 20
-132.9326266486245
 30
0.0
  0
VERTEX
  5
139
330
137
100
AcDbEntity
  8
_U+30EC_U+30A4_U+30E4_U+30FC 1
370
     0
100
AcDbVertex
100
AcDb2dVertex
 10
82.20221759012654
 20
-132.7717406894633
 30
0.0
  0
VERTEX
  5
13A
330
137
100
AcDbEntity
  8
_U+30EC_U+30A4_U+30E4_U+30FC 1
370
     0
100
AcDbVertex
100
AcDb2dVertex
 10
82.35655786786573
 20
-132.7717406894633
 30
0.0
  0
VERTEX
  5
13B
330
137
100
AcDbEntity
  8
_U+30EC_U+30A4_U+30E4_U+30FC 1
370
     0
100
AcDbVertex
100
AcDb2dVertex
 10
82.35655786786573
 20
-132.9326266486245
 30
0.0
  0
VERTEX
  5
13C
330
137
100
AcDbEntity
  8
_U+30EC_U+30A4_U+30E4_U+30FC 1
370
     0
100
AcDbVertex
100
AcDb2dVertex
 10
82.75016002705551
 20
-132.9326266486245
 30
0.0
  0
VERTEX
  5
13D
330
137
100
AcDbEntity
  8
_U+30EC_U+30A4_U+30E4_U+30FC 1
370
     0
100
AcDbVertex
100
AcDb2dVertex
 10
82.75016002705551
 20
-133.0869669263637
 30
0.0
  0
VERTEX
  5
13E
330
137
100
AcDbEntity
  8
_U+30EC_U+30A4_U+30E4_U+30FC 1
370
     0
100
AcDbVertex
100
AcDb2dVertex
 10
82.35655786786573
 20
-133.0869669263637
 30
0.0
  0
VERTEX
  5
13F
330
137
100
AcDbEntity
  8
_U+30EC_U+30A4_U+30E4_U+30FC 1
370
     0
100
AcDbVertex
100
AcDb2dVertex
 10
82.35655786786573
 20
-133.2416517136514
 30
0.0
  0
VERTEX
  5
140
330
137
100
AcDbEntity
  8
_U+30EC_U+30A4_U+30E4_U+30FC 1
370
     0
100
AcDbVertex
100
AcDb2dVertex
 10
82.71191946716925
 20
-133.2416517136514
 30
0.0
  0
VERTEX
  5
141
330
137
100
AcDbEntity
  8
_U+30EC_U+30A4_U+30E4_U+30FC 1
370
     0
100
AcDbVertex
100
AcDb2dVertex
 10
82.71191946716925
 20
-134.0540052290733
 30
0.0
  0
VERTEX
  5
142
330
137
100
AcDbEntity
  8
_U+30EC_U+30A4_U+30E4_U+30FC 1
370
     0
100
AcDbVertex
100
AcDb2dVertex
 10
82.35655786786573
 20
-134.0540052290733
 30
0.0
  0
VERTEX
  5
143
330
137
100
AcDbEntity
  8
_U+30EC_U+30A4_U+30E4_U+30FC 1
370
     0
100
AcDbVertex
100
AcDb2dVertex
 10
82.35655786786573
 20
-134.2231594173991
 30
0.0
  0
VERTEX
  5
144
330
137
100
AcDbEntity
  8
_U+30EC_U+30A4_U+30E4_U+30FC 1
370
     0
100
AcDbVertex
100
AcDb2dVertex
 10
82.7649739376421
 20
-134.2231594173991
 30
0.0
  0
VERTEX
  5
145
330
137
100
AcDbEntity
  8
_U+30EC_U+30A4_U+30E4_U+30FC 1
370
     0
100
AcDbVertex
100
AcDb2dVertex
 10
82.7649739376421
 20
-134.3774996951383
 30
0.0
  0
VERTEX
  5
146
330
137
100
AcDbEntity
  8
_U+30EC_U+30A4_U+30E4_U+30FC 1
370
     0
100
AcDbVertex
100
AcDb2dVertex
 10
82.35655786786573
 20
-134.3774996951383
 30
0.0
  0
VERTEX
  5
147
330
137
100
AcDbEntity
  8
_U+30EC_U+30A4_U+30E4_U+30FC 1
370
     0
100
AcDbVertex
100
AcDb2dVertex
 10
82.35655786786573
 20
-134.7309664919249
 30
0.0
  0
VERTEX
  5
148
330
137
100
AcDbEntity
  8
_U+30EC_U+30A4_U+30E4_U+30FC 1
370
     0
100
AcDbVertex
100
AcDb2dVertex
 10
82.20221759012654
 20
-134.7309664919249
 30
0.0
  0
VERTEX
  5
149
330
137
100
AcDbEntity
  8
_U+30EC_U+30A4_U+30E4_U+30FC 1
370
     0
100
AcDbVertex
100
AcDb2dVertex
 10
82.20221759012654
 20
-134.3774996951383
 30
0.0
  0
VERTEX
  5
14A
330
137
100
AcDbEntity
  8
_U+30EC_U+30A4_U+30E4_U+30FC 1
370
     0
100
AcDbVertex
100
AcDb2dVertex
 10
81.79173446305902
 20
-134.3774996951383
 30
0.0
  0
VERTEX
  5
14B
330
137
100
AcDbEntity
  8
_U+30EC_U+30A4_U+30E4_U+30FC 1
370
     0
100
AcDbVertex
100
AcDb2dVertex
 10
81.79173446305902
 20
-134.2231594173991
 30
0.0
  0
VERTEX
  5
14C
330
137
100
AcDbEntity
  8
_U+30EC_U+30A4_U+30E4_U+30FC 1
370
     0
100
AcDbVertex
100
AcDb2dVertex
 10
82.20221759012654
 20
-134.2231594173991
 30
0.0
  0
VERTEX
  5
14D
330
137
100
AcDbEntity
  8
_U+30EC_U+30A4_U+30E4_U+30FC 1
370
     0
100
AcDbVertex
100
AcDb2dVertex
 10
82.20221759012654
 20
-134.0540052290733
 30
0.0
  0
VERTEX
  5
14E
330
137
100
AcDbEntity
  8
_U+30EC_U+30A4_U+30E4_U+30FC 1
370
     0
100
AcDbVertex
100
AcDb2dVertex
 10
81.85305716269646
 20
-134.0540052290733
 30
0.0
  0
VERTEX
  5
14F
330
137
100
AcDbEntity
  8
_U+30EC_U+30A4_U+30E4_U+30FC 1
370
     0
100
AcDbVertex
100
AcDb2dVertex
 10
81.85305716269646
 20
-133.2416517136514
 30
0.0
  0
VERTEX
  5
150
330
137
100
AcDbEntity
  8
_U+30EC_U+30A4_U+30E4_U+30FC 1
370
     0
100
AcDbVertex
100
AcDb2dVertex
 10
82.20221759012654
 20
-133.2416517136514
 30
0.0
  0
VERTEX
  5
151
330
137
100
AcDbEntity
  8
_U+30EC_U+30A4_U+30E4_U+30FC 1
370
     0
100
AcDbVertex
100
AcDb2dVertex
 10
82.20221759012654
 20
-133.0869669263637
 30
0.0
  0
VERTEX
  5
152
330
137
100
AcDbEntity
  8
_U+30EC_U+30A4_U+30E4_U+30FC 1
370
     0
100
AcDbVertex
100
AcDb2dVertex
 10
81.8129218002933
 20
-133.0869669263637
 30
0.0
  0
VERTEX
  5
153
330
137
100
AcDbEntity
  8
_U+30EC_U+30A4_U+30E4_U+30FC 1
370
     0
100
AcDbVertex
100
AcDb2dVertex
 10
81.8129218002933
 20
-132.9326266486245
 30
0.0
  0
VERTEX
  5
154
330
137
100
AcDbEntity
  8
_U+30EC_U+30A4_U+30E4_U+30FC 1
370
     0
100
AcDbVertex
100
AcDb2dVertex
 10
82.20221759012654
 20
-132.9326266486245
 30
0.0
  0
SEQEND
  5
155
330
137
100
AcDbEntity
  8
_U+30EC_U+30A4_U+30E4_U+30FC 1
370
     0
  0
POLYLINE
  5
156
330
133
100
AcDbEntity
  8
_U+30EC_U+30A4_U+30E4_U+30FC 1
370
     0
100
AcDb2dPolyline
 66
     1
 10
0.0
 20
0.0
 30
0.0
  0
VERTEX
  5
157
330
156
100
AcDbEntity
  8
_U+30EC_U+30A4_U+30E4_U+30FC 1
370
     0
100
AcDbVertex
100
AcDb2dVertex
 10
82.20221759012654
 20
-133.381178080804
 30
0.0
  0
VERTEX
  5
158
330
156
100
AcDbEntity
  8
_U+30EC_U+30A4_U+30E4_U+30FC 1
370
     0
100
AcDbVertex
100
AcDb2dVertex
 10
81.9948228419145
 20
-133.381178080804
 30
0.0
  0
VERTEX
  5
159
330
156
100
AcDbEntity
  8
_U+30EC_U+30A4_U+30E4_U+30FC 1
370
     0
100
AcDbVertex
100
AcDb2dVertex
 10
81.9948228419145
 20
-133.5840942048852
 30
0.0
  0
VERTEX
  5
15A
330
156
100
AcDbEntity
  8
_U+30EC_U+30A4_U+30E4_U+30FC 1
370
     0
100
AcDbVertex
100
AcDb2dVertex
 10
82.20221759012654
 20
-133.5840942048852
 30
0.0
  0
VERTEX
  5
15B
330
156
100
AcDbEntity
  8
_U+30EC_U+30A4_U+30E4_U+30FC 1
370
     0
100
AcDbVertex
100
AcDb2dVertex
 10
82.20221759012654
 20
-133.381178080804
 30
0.0
  0
SEQEND
  5
15C
330
156
100
AcDbEntity
  8
_U+30EC_U+30A4_U+30E4_U+30FC 1
370
     0
  0
POLYLINE
  5
15D
330
133
100
AcDbEntity
  8
_U+30EC_U+30A4_U+30E4_U+30FC 1
370
     0
100
AcDb2dPolyline
 66
     1
 10
0.0
 20
0.0
 30
0.0
  0
VERTEX
  5
15E
330
15D
100
AcDbEntity
  8
_U+30EC_U+30A4_U+30E4_U+30FC 1
370
     0
100
AcDbVertex
100
AcDb2dVertex
 10
82.20221759012654
 20
-133.7070841137086
 30
0.0
  0
VERTEX
  5
15F
330
15D
100
AcDbEntity
  8
_U+30EC_U+30A4_U+30E4_U+30FC 1
370
     0
100
AcDbVertex
100
AcDb2dVertex
 10
81.9948228419145
 20
-133.7070841137086
 30
0.0
  0
VERTEX
  5
160
330
15D
100
AcDbEntity
  8
_U+30EC_U+30A4_U+30E4_U+30FC 1
370
     0
100
AcDbVertex
100
AcDb2dVertex
 10
81.9948228419145
 20
-133.9141343523722
 30
0.0
  0
VERTEX
  5
161
330
15D
100
AcDbEntity
  8
_U+30EC_U+30A4_U+30E4_U+30FC 1
370
     0
100
AcDbVertex
100
AcDb2dVertex
 10
82.20221759012654
 20
-133.9141343523722
 30
0.0
  0
VERTEX
  5
162
330
15D
100
AcDbEntity
  8
_U+30EC_U+30A4_U+30E4_U+30FC 1
370
     0
100
AcDbVertex
100
AcDb2dVertex
 10
82.20221759012654
 20
-133.7070841137086
 30
0.0
  0
SEQEND
  5
163
330
15D
100
AcDbEntity
  8
_U+30EC_U+30A4_U+30E4_U+30FC 1
370
     0
  0
POLYLINE
  5
164
330
133
100
AcDbEntity
  8
_U+30EC_U+30A4_U+30E4_U+30FC 1
370
     0
100
AcDb2dPolyline
 66
     1
 10
0.0
 20
0.0
 30
0.0
  0
VERTEX
  5
165
330
164
100
AcDbEntity
  8
_U+30EC_U+30A4_U+30E4_U+30FC 1
370
     0
100
AcDbVertex
100
AcDb2dVertex
 10
82.56808673066007
 20
-133.381178080804
 30
0.0
  0
VERTEX
  5
166
330
164
100
AcDbEntity
  8
_U+30EC_U+30A4_U+30E4_U+30FC 1
370
     0
100
AcDbVertex
100
AcDb2dVertex
 10
82.35655786786573
 20
-133.381178080804
 30
0.0
  0
VERTEX
  5
167
330
164
100
AcDbEntity
  8
_U+30EC_U+30A4_U+30E4_U+30FC 1
370
     0
100
AcDbVertex
100
AcDb2dVertex
 10
82.35655786786573
 20
-133.5840942048852
 30
0.0
  0
VERTEX
  5
168
330
164
100
AcDbEntity
  8
_U+30EC_U+30A4_U+30E4_U+30FC 1
370
     0
100
AcDbVertex
100
AcDb2dVertex
 10
82.56808673066007
 20
-133.5840942048852
 30
0.0
  0
VERTEX
  5
169
330
164
100
AcDbEntity
  8
_U+30EC_U+30A4_U+30E4_U+30FC 1
370
     0
100
AcDbVertex
100
AcDb2dVertex
 10
82.56808673066007
 20
-133.381178080804
 30
0.0
  0
SEQEND
  5
16A
330
164
100
AcDbEntity
  8
_U+30EC_U+30A4_U+30E4_U+30FC 1
370
     0
  0
POLYLINE
  5
16B
330
133
100
AcDbEntity
  8
_U+30EC_U+30A4_U+30E4_U+30FC 1
370
     0
100
AcDb2dPolyline
 66
     1
 10
0.0
 20
0.0
 30
0.0
  0
VERTEX
  5
16C
330
16B
100
AcDbEntity
  8
_U+30EC_U+30A4_U+30E4_U+30FC 1
370
     0
100
AcDbVertex
100
AcDb2dVertex
 10
82.56808673066007
 20
-133.7070841137086
 30
0.0
  0
VERTEX
  5
16D
330
16B
100
AcDbEntity
  8
_U+30EC_U+30A4_U+30E4_U+30FC 1
370
     0
100
AcDbVertex
100
AcDb2dVertex
 10
82.35655786786573
 20
-133.7070841137086
 30
0.0
  0
VERTEX
  5
16E
330
16B
100
AcDbEntity
  8
_U+30EC_U+30A4_U+30E4_U+30FC 1
370
     0
100
AcDbVertex
100
AcDb2dVertex
 10
82.35655786786573
 20
-133.9141343523722
 30
0.0
  0
VERTEX
  5
16F
330
16B
100
AcDbEntity
  8
_U+30EC_U+30A4_U+30E4_U+30FC 1
370
     0
100
AcDbVertex
100
AcDb2dVertex
 10
82.56808673066007
 20
-133.9141343523722
 30
0.0
  0
VERTEX
  5
170
330
16B
100
AcDbEntity
  8
_U+30EC_U+30A4_U+30E4_U+30FC 1
370
     0
100
AcDbVertex
100
AcDb2dVertex
 10
82.56808673066007
 20
-133.7070841137086
 30
0.0
  0
SEQEND
  5
171
330
16B
100
AcDbEntity
  8
_U+30EC_U+30A4_U+30E4_U+30FC 1
370
     0
  0
SPLINE
  5
172
330
133
100
AcDbEntity
  8
_U+30EC_U+30A4_U+30E4_U+30FC 1
370
     0
100
AcDbSpline
210
0.0
220
0.0
230
1.0
 70
    11
 71
     3
 72
    38
 73
    34
 74
     0
 42
0.0000000001
 43
0.0000000001
 12
1.0
 22
0.0
 32
0.0
 13
1.0
 23
0.0
 33
0.0
 40
0.0
 40
0.0
 40
0.0
 40
0.0
 40
1.0
 40
1.0
 40
1.0
 40
2.0
 40
2.0
 40
2.0
 40
3.0
 40
3.0
 40
3.0
 40
4.0
 40
4.0
 40
4.0
 40
5.0
 40
5.0
 40
5.0
 40
6.0
 40
6.0
 40
6.0
 40
7.0
 40
7.0
 40
7.0
 40
8.0
 40
8.0
 40
8.0
 40
9.0
 40
9.0
 40
9.0
 40
10.0
 40
10.0
 40
10.0
 40
11.0
 40
11.0
 40
11.0
 40
11.0
 10
82.61046140512863
 20
-134.5955742393546
 30
0.0
 10
82.69297144200037
 20
-134.5425197688817
 30
0.0
 10
82.85799151574383
 20
-134.4346882801934
 30
0.0
 10
82.96375594714101
 20
-134.2272935319814
 30
0.0
 10
83.11189505300675
 20
-133.9354939443807
 30
0.0
 10
83.11189505300675
 20
-133.7091511709998
 30
0.0
 10
83.11189505300675
 20
-133.6244018220627
 30
0.0
 10
83.11189505300675
 20
-133.6244018220627
 30
0.0
 10
83.11189505300675
 20
-133.3897908195171
 30
0.0
 10
83.11189505300675
 20
-133.3897908195171
 30
0.0
 10
83.11189505300675
 20
-133.3897908195171
 30
0.0
 10
83.27691512675023
 20
-133.3897908195171
 30
0.0
 10
83.27691512675023
 20
-133.3897908195171
 30
0.0
 10
83.27691512675023
 20
-133.3897908195171
 30
0.0
 10
83.27691512675023
 20
-133.6161335928981
 30
0.0
 10
83.27691512675023
 20
-133.6161335928981
 30
0.0
 10
83.27691512675023
 20
-133.814915602397
 30
0.0
 10
83.34237194096997
 20
-134.0519381717822
 30
0.0
 10
83.44400225778483
 20
-134.2252264746902
 30
0.0
 10
83.56027423041202
 20
-134.4240084841891
 30
0.0
 10
83.68929305633462
 20
-134.5235717437129
 30
0.0
 10
83.77404240527177
 20
-134.5848944433503
 30
0.0
 10
83.77404240527177
 20
-134.5848944433503
 30
0.0
 10
83.66603866180918
 20
-134.7351006065072
 30
0.0
 10
83.66603866180918
 20
-134.7351006065072
 30
0.0
 10
83.48844398954456
 20
-134.6059095258103
 30
0.0
 10
83.28948972527138
 20
-134.366819899134
 30
0.0
 10
83.21128605775621
 20
-134.0136976118959
 30
0.0
 10
83.1456569887622
 20
-134.2527872385722
 30
0.0
 10
83.04419892672159
 20
-134.5215046864217
 30
0.0
 10
82.73534611646895
 20
-134.7309664919249
 30
0.0
 10
82.73534611646895
 20
-134.7309664919249
 30
0.0
 10
82.61046140512863
 20
-134.5955742393546
 30
0.0
 10
82.61046140512863
 20
-134.5955742393546
 30
0.0
  0
SPLINE
  5
173
330
133
100
AcDbEntity
  8
_U+30EC_U+30A4_U+30E4_U+30FC 1
370
     0
100
AcDbSpline
210
0.0
220
0.0
230
1.0
 70
    11
 71
     3
 72
    38
 73
    34
 74
     0
 42
0.0000000001
 43
0.0000000001
 12
1.0
 22
0.0
 32
0.0
 13
1.0
 23
0.0
 33
0.0
 40
0.0
 40
0.0
 40
0.0
 40
0.0
 40
1.0
 40
1.0
 40
1.0
 40
2.0
 40
2.0
 40
2.0
 40
3.0
 40
3.0
 40
3.0
 40
4.0
 40
4.0
 40
4.0
 40
5.0
 40
5.0
 40
5.0
 40
6.0
 40
6.0
 40
6.0
 40
7.0
 40
7.0
 40
7.0
 40
8.0
 40
8.0
 40
8.0
 40
9.0
 40
9.0
 40
9.0
 40
10.0
 40
10.0
 40
10.0
 40
11.0
 40
11.0
 40
11.0
 40
11.0
 10
82.72466632046466
 20
-133.5227715052478
 30
0.0
 10
82.81785615334068
 20
-133.4001261059729
 30
0.0
 10
82.94256860990673
 20
-133.2202921216428
 30
0.0
 10
83.03782550007388
 20
-132.7717406894633
 30
0.0
 10
83.03782550007388
 20
-132.7717406894633
 30
0.0
 10
83.2049126311085
 20
-132.7910332241807
 30
0.0
 10
83.2049126311085
 20
-132.7910332241807
 30
0.0
 10
83.17959117929192
 20
-132.9116115661645
 30
0.0
 10
83.15633678476648
 20
-133.002562086975
 30
0.0
 10
83.1180962248802
 20
-133.1103935756634
 30
0.0
 10
83.1180962248802
 20
-133.1103935756634
 30
0.0
 10
83.74648164138978
 20
-133.1103935756634
 30
0.0
 10
83.74648164138978
 20
-133.1103935756634
 30
0.0
 10
83.74648164138978
 20
-133.1103935756634
 30
0.0
 10
83.74648164138978
 20
-133.2626667961114
 30
0.0
 10
83.74648164138978
 20
-133.2626667961114
 30
0.0
 10
83.71271970563433
 20
-133.4046047301037
 30
0.0
 10
83.61746281546716
 20
-133.6626423819489
 30
0.0
 10
83.5433932625343
 20
-133.7811536666415
 30
0.0
 10
83.5433932625343
 20
-133.7811536666415
 30
0.0
 10
83.39112004208626
 20
-133.7026054895778
 30
0.0
 10
83.39112004208626
 20
-133.7026054895778
 30
0.0
 10
83.48620467747915
 20
-133.5672132370075
 30
0.0
 10
83.55183374647315
 20
-133.3791110235129
 30
0.0
 10
83.57939451035516
 20
-133.2688679679849
 30
0.0
 10
83.57939451035516
 20
-133.2688679679849
 30
0.0
 10
83.06107989459932
 20
-133.2688679679849
 30
0.0
 10
83.06107989459932
 20
-133.2688679679849
 30
0.0
 10
82.96168888984985
 20
-133.5103691615009
 30
0.0
 10
82.88761933691698
 20
-133.5989081154718
 30
0.0
 10
82.84955103180498
 20
-133.6433498472315
 30
0.0
 10
82.84955103180498
 20
-133.6433498472315
 30
0.0
 10
82.72466632046466
 20
-133.5227715052478
 30
0.0
 10
82.72466632046466
 20
-133.5227715052478
 30
0.0
  0
HATCH
  5
174
330
133
100
AcDbEntity
  8
_U+30EC_U+30A4_U+30E4_U+30FC 1
 62
    12
420
 15007761
100
AcDbHatch
 10
0.0
 20
0.0
 30
0.0
210
0.0
220
0.0
230
1.0
  2
SOLID
 70
     1
 71
     0
 91
        7
 92
        1
 93
       28
 72
     1
 10
82.20221759012654
 20
-132.9326266486245
 11
82.20221759012654
 21
-132.7717406894633
 72
     1
 10
82.20221759012654
 20
-132.7717406894633
 11
82.35655786786573
 21
-132.7717406894633
 72
     1
 10
82.35655786786573
 20
-132.7717406894633
 11
82.35655786786573
 21
-132.9326266486245
 72
     1
 10
82.35655786786573
 20
-132.9326266486245
 11
82.75016002705551
 21
-132.9326266486245
 72
     1
 10
82.75016002705551
 20
-132.9326266486245
 11
82.75016002705551
 21
-133.0869669263637
 72
     1
 10
82.75016002705551
 20
-133.0869669263637
 11
82.35655786786573
 21
-133.0869669263637
 72
     1
 10
82.35655786786573
 20
-133.0869669263637
 11
82.35655786786573
 21
-133.2416517136514
 72
     1
 10
82.35655786786573
 20
-133.2416517136514
 11
82.71191946716925
 21
-133.2416517136514
 72
     1
 10
82.71191946716925
 20
-133.2416517136514
 11
82.71191946716925
 21
-134.0540052290733
 72
     1
 10
82.71191946716925
 20
-134.0540052290733
 11
82.35655786786573
 21
-134.0540052290733
 72
     1
 10
82.35655786786573
 20
-134.0540052290733
 11
82.35655786786573
 21
-134.2231594173991
 72
     1
 10
82.35655786786573
 20
-134.2231594173991
 11
82.7649739376421
 21
-134.2231594173991
 72
     1
 10
82.7649739376421
 20
-134.2231594173991
 11
82.7649739376421
 21
-134.3774996951383
 72
     1
 10
82.7649739376421
 20
-134.3774996951383
 11
82.35655786786573
 21
-134.3774996951383
 72
     1
 10
82.35655786786573
 20
-134.3774996951383
 11
82.35655786786573
 21
-134.7309664919249
 72
     1
 10
82.35655786786573
 20
-134.7309664919249
 11
82.20221759012654
 21
-134.7309664919249
 72
     1
 10
82.20221759012654
 20
-134.7309664919249
 11
82.20221759012654
 21
-134.3774996951383
 72
     1
 10
82.20221759012654
 20
-134.3774996951383
 11
81.79173446305902
 21
-134.3774996951383
 72
     1
 10
81.79173446305902
 20
-134.3774996951383
 11
81.79173446305902
 21
-134.2231594173991
 72
     1
 10
81.79173446305902
 20
-134.2231594173991
 11
82.20221759012654
 21
-134.2231594173991
 72
     1
 10
82.20221759012654
 20
-134.2231594173991
 11
82.20221759012654
 21
-134.0540052290733
 72
     1
 10
82.20221759012654
 20
-134.0540052290733
 11
81.85305716269646
 21
-134.0540052290733
 72
     1
 10
81.85305716269646
 20
-134.0540052290733
 11
81.85305716269646
 21
-133.2416517136514
 72
     1
 10
81.85305716269646
 20
-133.2416517136514
 11
82.20221759012654
 21
-133.2416517136514
 72
     1
 10
82.20221759012654
 20
-133.2416517136514
 11
82.20221759012654
 21
-133.0869669263637
 72
     1
 10
82.20221759012654
 20
-133.0869669263637
 11
81.8129218002933
 21
-133.0869669263637
 72
     1
 10
81.8129218002933
 20
-133.0869669263637
 11
81.8129218002933
 21
-132.9326266486245
 72
     1
 10
81.8129218002933
 20
-132.9326266486245
 11
82.20221759012654
 21
-132.9326266486245
 97
        0
 92
        1
 93
        4
 72
     1
 10
82.20221759012654
 20
-133.381178080804
 11
81.9948228419145
 21
-133.381178080804
 72
     1
 10
81.9948228419145
 20
-133.381178080804
 11
81.9948228419145
 21
-133.5840942048852
 72
     1
 10
81.9948228419145
 20
-133.5840942048852
 11
82.20221759012654
 21
-133.5840942048852
 72
     1
 10
82.20221759012654
 20
-133.5840942048852
 11
82.20221759012654
 21
-133.381178080804
 97
        0
 92
        1
 93
        4
 72
     1
 10
82.20221759012654
 20
-133.7070841137086
 11
81.9948228419145
 21
-133.7070841137086
 72
     1
 10
81.9948228419145
 20
-133.7070841137086
 11
81.9948228419145
 21
-133.9141343523722
 72
     1
 10
81.9948228419145
 20
-133.9141343523722
 11
82.20221759012654
 21
-133.9141343523722
 72
     1
 10
82.20221759012654
 20
-133.9141343523722
 11
82.20221759012654
 21
-133.7070841137086
 97
        0
 92
        1
 93
        4
 72
     1
 10
82.56808673066007
 20
-133.381178080804
 11
82.35655786786573
 21
-133.381178080804
 72
     1
 10
82.35655786786573
 20
-133.381178080804
 11
82.35655786786573
 21
-133.5840942048852
 72
     1
 10
82.35655786786573
 20
-133.5840942048852
 11
82.56808673066007
 21
-133.5840942048852
 72
     1
 10
82.56808673066007
 20
-133.5840942048852
 11
82.56808673066007
 21
-133.381178080804
 97
        0
 92
        1
 93
        4
 72
     1
 10
82.56808673066007
 20
-133.7070841137086
 11
82.35655786786573
 21
-133.7070841137086
 72
     1
 10
82.35655786786573
 20
-133.7070841137086
 11
82.35655786786573
 21
-133.9141343523722
 72
     1
 10
82.35655786786573
 20
-133.9141343523722
 11
82.56808673066007
 21
-133.9141343523722
 72
     1
 10
82.56808673066007
 20
-133.9141343523722
 11
82.56808673066007
 21
-133.7070841137086
 97
        0
 92
        1
 93
        1
 72
     4
 94
        3
 73
     0
 74
     1
 95
       38
 96
       34
 40
0.0
 40
0.0
 40
0.0
 40
0.0
 40
1.0
 40
1.0
 40
1.0
 40
2.0
 40
2.0
 40
2.0
 40
3.0
 40
3.0
 40
3.0
 40
4.0
 40
4.0
 40
4.0
 40
5.0
 40
5.0
 40
5.0
 40
6.0
 40
6.0
 40
6.0
 40
7.0
 40
7.0
 40
7.0
 40
8.0
 40
8.0
 40
8.0
 40
9.0
 40
9.0
 40
9.0
 40
10.0
 40
10.0
 40
10.0
 40
11.0
 40
11.0
 40
11.0
 40
11.0
 10
82.61046140512863
 20
-134.5955742393546
 10
82.69297144200037
 20
-134.5425197688817
 10
82.85799151574383
 20
-134.4346882801934
 10
82.96375594714101
 20
-134.2272935319814
 10
83.11189505300675
 20
-133.9354939443807
 10
83.11189505300675
 20
-133.7091511709998
 10
83.11189505300675
 20
-133.6244018220627
 10
83.11189505300675
 20
-133.6244018220627
 10
83.11189505300675
 20
-133.3897908195171
 10
83.11189505300675
 20
-133.3897908195171
 10
83.11189505300675
 20
-133.3897908195171
 10
83.27691512675023
 20
-133.3897908195171
 10
83.27691512675023
 20
-133.3897908195171
 10
83.27691512675023
 20
-133.3897908195171
 10
83.27691512675023
 20
-133.6161335928981
 10
83.27691512675023
 20
-133.6161335928981
 10
83.27691512675023
 20
-133.814915602397
 10
83.34237194096997
 20
-134.0519381717822
 10
83.44400225778483
 20
-134.2252264746902
 10
83.56027423041202
 20
-134.4240084841891
 10
83.68929305633462
 20
-134.5235717437129
 10
83.77404240527177
 20
-134.5848944433503
 10
83.77404240527177
 20
-134.5848944433503
 10
83.66603866180918
 20
-134.7351006065072
 10
83.66603866180918
 20
-134.7351006065072
 10
83.48844398954456
 20
-134.6059095258103
 10
83.28948972527138
 20
-134.366819899134
 10
83.21128605775621
 20
-134.0136976118959
 10
83.1456569887622
 20
-134.2527872385722
 10
83.04419892672159
 20
-134.5215046864217
 10
82.73534611646895
 20
-134.7309664919249
 10
82.73534611646895
 20
-134.7309664919249
 10
82.61046140512863
 20
-134.5955742393546
 10
82.61046140512863
 20
-134.5955742393546
 97
        0
 97
        0
 92
        1
 93
        1
 72
     4
 94
        3
 73
     0
 74
     1
 95
       38
 96
       34
 40
0.0
 40
0.0
 40
0.0
 40
0.0
 40
1.0
 40
1.0
 40
1.0
 40
2.0
 40
2.0
 40
2.0
 40
3.0
 40
3.0
 40
3.0
 40
4.0
 40
4.0
 40
4.0
 40
5.0
 40
5.0
 40
5.0
 40
6.0
 40
6.0
 40
6.0
 40
7.0
 40
7.0
 40
7.0
 40
8.0
 40
8.0
 40
8.0
 40
9.0
 40
9.0
 40
9.0
 40
10.0
 40
10.0
 40
10.0
 40
11.0
 40
11.0
 40
11.0
 40
11.0
 10
82.72466632046466
 20
-133.5227715052478
 10
82.81785615334068
 20
-133.4001261059729
 10
82.94256860990673
 20
-133.2202921216428
 10
83.03782550007388
 20
-132.7717406894633
 10
83.03782550007388
 20
-132.7717406894633
 10
83.2049126311085
 20
-132.7910332241807
 10
83.2049126311085
 20
-132.7910332241807
 10
83.17959117929192
 20
-132.9116115661645
 10
83.15633678476648
 20
-133.002562086975
 10
83.1180962248802
 20
-133.1103935756634
 10
83.1180962248802
 20
-133.1103935756634
 10
83.74648164138978
 20
-133.1103935756634
 10
83.74648164138978
 20
-133.1103935756634
 10
83.74648164138978
 20
-133.1103935756634
 10
83.74648164138978
 20
-133.2626667961114
 10
83.74648164138978
 20
-133.2626667961114
 10
83.71271970563433
 20
-133.4046047301037
 10
83.61746281546716
 20
-133.6626423819489
 10
83.5433932625343
 20
-133.7811536666415
 10
83.5433932625343
 20
-133.7811536666415
 10
83.39112004208626
 20
-133.7026054895778
 10
83.39112004208626
 20
-133.7026054895778
 10
83.48620467747915
 20
-133.5672132370075
 10
83.55183374647315
 20
-133.3791110235129
 10
83.57939451035516
 20
-133.2688679679849
 10
83.57939451035516
 20
-133.2688679679849
 10
83.06107989459932
 20
-133.2688679679849
 10
83.06107989459932
 20
-133.2688679679849
 10
82.96168888984985
 20
-133.5103691615009
 10
82.88761933691698
 20
-133.5989081154718
 10
82.84955103180498
 20
-133.6433498472315
 10
82.84955103180498
 20
-133.6433498472315
 10
82.72466632046466
 20
-133.5227715052478
 10
82.72466632046466
 20
-133.5227715052478
 97
        0
 97
        0
 75
     2
 76
     1
 98
        0
  0
SPLINE
  5
175
330
133
100
AcDbEntity
  8
_U+30EC_U+30A4_U+30E4_U+30FC 1
370
     0
100
AcDbSpline
210
0.0
220
0.0
230
1.0
 70
    11
 71
     3
 72
    50
 73
    46
 74
     0
 42
0.0000000001
 43
0.0000000001
 12
1.0
 22
0.0
 32
0.0
 13
1.0
 23
0.0
 33
0.0
 40
0.0
 40
0.0
 40
0.0
 40
0.0
 40
1.0
 40
1.0
 40
1.0
 40
2.0
 40
2.0
 40
2.0
 40
3.0
 40
3.0
 40
3.0
 40
4.0
 40
4.0
 40
4.0
 40
5.0
 40
5.0
 40
5.0
 40
6.0
 40
6.0
 40
6.0
 40
7.0
 40
7.0
 40
7.0
 40
8.0
 40
8.0
 40
8.0
 40
9.0
 40
9.0
 40
9.0
 40
10.0
 40
10.0
 40
10.0
 40
11.0
 40
11.0
 40
11.0
 40
12.0
 40
12.0
 40
12.0
 40
13.0
 40
13.0
 40
13.0
 40
14.0
 40
14.0
 40
14.0
 40
15.0
 40
15.0
 40
15.0
 40
15.0
 10
84.21932099674031
 20
-133.0700859584859
 30
0.0
 10
84.21932099674031
 20
-133.0700859584859
 30
0.0
 10
84.87096080777532
 20
-133.0700859584859
 30
0.0
 10
84.87096080777532
 20
-133.0700859584859
 30
0.0
 10
84.87096080777532
 20
-133.0700859584859
 30
0.0
 10
84.87096080777532
 20
-133.1951429246005
 30
0.0
 10
84.87096080777532
 20
-133.1951429246005
 30
0.0
 10
84.87096080777532
 20
-133.1951429246005
 30
0.0
 10
84.59380287598697
 20
-133.1951429246005
 30
0.0
 10
84.59380287598697
 20
-133.1951429246005
 30
0.0
 10
84.59380287598697
 20
-133.1951429246005
 30
0.0
 10
84.59380287598697
 20
-133.4700615443235
 30
0.0
 10
84.59380287598697
 20
-133.4700615443235
 30
0.0
 10
84.59380287598697
 20
-133.4700615443235
 30
0.0
 10
84.43308917160006
 20
-133.4700615443235
 30
0.0
 10
84.43308917160006
 20
-133.4700615443235
 30
0.0
 10
84.43308917160006
 20
-133.4700615443235
 30
0.0
 10
84.43308917160006
 20
-133.1951429246005
 30
0.0
 10
84.43308917160006
 20
-133.1951429246005
 30
0.0
 10
84.43308917160006
 20
-133.1951429246005
 30
0.0
 10
84.21311982486687
 20
-133.1951429246005
 30
0.0
 10
84.21311982486687
 20
-133.1951429246005
 30
0.0
 10
84.20244002886258
 20
-133.2647338534026
 30
0.0
 10
84.177118577046
 20
-133.4593817483192
 30
0.0
 10
84.02260604453255
 20
-133.6095879114761
 30
0.0
 10
84.02260604453255
 20
-133.6095879114761
 30
0.0
 10
83.89996064525765
 20
-133.4996893654966
 30
0.0
 10
83.89996064525765
 20
-133.4996893654966
 30
0.0
 10
84.0205389872414
 20
-133.4001261059729
 30
0.0
 10
84.06291366170997
 20
-133.1951429246005
 30
0.0
 10
84.06291366170997
 20
-133.1124606329545
 30
0.0
 10
84.06291366170997
 20
-133.1124606329545
 30
0.0
 10
84.06291366170997
 20
-132.8268622172273
 30
0.0
 10
84.06291366170997
 20
-132.8268622172273
 30
0.0
 10
84.54729408693609
 20
-132.8268622172273
 30
0.0
 10
84.70180661944956
 20
-132.7803534281765
 30
0.0
 10
84.79689125484245
 20
-132.7527926642944
 30
0.0
 10
84.79689125484245
 20
-132.7527926642944
 30
0.0
 10
84.84977347054104
 20
-132.8923190314471
 30
0.0
 10
84.84977347054104
 20
-132.8923190314471
 30
0.0
 10
84.64031166503784
 20
-132.9412393873376
 30
0.0
 10
84.47753090335979
 20
-132.9515746737934
 30
0.0
 10
84.21932099674031
 20
-132.9560532979242
 30
0.0
 10
84.21932099674031
 20
-132.9560532979242
 30
0.0
 10
84.21932099674031
 20
-133.0700859584859
 30
0.0
 10
84.21932099674031
 20
-133.0700859584859
 30
0.0
  0
SPLINE
  5
176
330
133
100
AcDbEntity
  8
_U+30EC_U+30A4_U+30E4_U+30FC 1
370
     0
100
AcDbSpline
210
0.0
220
0.0
230
1.0
 70
    11
 71
     3
 72
    32
 73
    28
 74
     0
 42
0.0000000001
 43
0.0000000001
 12
1.0
 22
0.0
 32
0.0
 13
1.0
 23
0.0
 33
0.0
 40
0.0
 40
0.0
 40
0.0
 40
0.0
 40
1.0
 40
1.0
 40
1.0
 40
2.0
 40
2.0
 40
2.0
 40
3.0
 40
3.0
 40
3.0
 40
4.0
 40
4.0
 40
4.0
 40
5.0
 40
5.0
 40
5.0
 40
6.0
 40
6.0
 40
6.0
 40
7.0
 40
7.0
 40
7.0
 40
8.0
 40
8.0
 40
8.0
 40
9.0
 40
9.0
 40
9.0
 40
9.0
 10
84.13474390257743
 20
-134.4157402550245
 30
0.0
 10
84.13474390257743
 20
-134.4157402550245
 30
0.0
 10
84.13474390257743
 20
-133.5165703333743
 30
0.0
 10
84.13474390257743
 20
-133.5165703333743
 30
0.0
 10
84.13474390257743
 20
-133.5165703333743
 30
0.0
 10
85.63249916478979
 20
-133.5165703333743
 30
0.0
 10
85.63249916478979
 20
-133.5165703333743
 30
0.0
 10
85.63249916478979
 20
-133.5165703333743
 30
0.0
 10
85.63249916478979
 20
-134.4157402550245
 30
0.0
 10
85.63249916478979
 20
-134.4157402550245
 30
0.0
 10
85.63249916478979
 20
-134.4157402550245
 30
0.0
 10
84.4880384445898
 20
-134.4157402550245
 30
0.0
 10
84.4880384445898
 20
-134.4157402550245
 30
0.0
 10
84.4880384445898
 20
-134.4157402550245
 30
0.0
 10
84.59380287598697
 20
-134.525638801004
 30
0.0
 10
84.59380287598697
 20
-134.525638801004
 30
0.0
 10
84.4287828022435
 20
-134.6207234363969
 30
0.0
 10
84.26376272850004
 20
-134.6820461360344
 30
0.0
 10
83.9676567715428
 20
-134.7330335492161
 30
0.0
 10
83.9676567715428
 20
-134.7330335492161
 30
0.0
 10
83.9020277025488
 20
-134.580760328768
 30
0.0
 10
83.9020277025488
 20
-134.580760328768
 30
0.0
 10
84.28081595115202
 20
-134.5277058582951
 30
0.0
 10
84.40346135042692
 20
-134.4601819867843
 30
0.0
 10
84.4839043300075
 20
-134.4157402550245
 30
0.0
 10
84.4839043300075
 20
-134.4157402550245
 30
0.0
 10
84.13474390257743
 20
-134.4157402550245
 30
0.0
 10
84.13474390257743
 20
-134.4157402550245
 30
0.0
  0
POLYLINE
  5
177
330
133
100
AcDbEntity
  8
_U+30EC_U+30A4_U+30E4_U+30FC 1
370
     0
100
AcDb2dPolyline
 66
     1
 10
0.0
 20
0.0
 30
0.0
  0
VERTEX
  5
178
330
177
100
AcDbEntity
  8
_U+30EC_U+30A4_U+30E4_U+30FC 1
370
     0
100
AcDbVertex
100
AcDb2dVertex
 10
85.46334497646403
 20
-133.6498955286535
 30
0.0
  0
VERTEX
  5
179
330
177
100
AcDbEntity
  8
_U+30EC_U+30A4_U+30E4_U+30FC 1
370
     0
100
AcDbVertex
100
AcDb2dVertex
 10
84.30407034567746
 20
-133.6498955286535
 30
0.0
  0
VERTEX
  5
17A
330
177
100
AcDbEntity
  8
_U+30EC_U+30A4_U+30E4_U+30FC 1
370
     0
100
AcDbVertex
100
AcDb2dVertex
 10
84.30407034567746
 20
-133.7787420998019
 30
0.0
  0
VERTEX
  5
17B
330
177
100
AcDbEntity
  8
_U+30EC_U+30A4_U+30E4_U+30FC 1
370
     0
100
AcDbVertex
100
AcDb2dVertex
 10
85.46334497646403
 20
-133.7787420998019
 30
0.0
  0
VERTEX
  5
17C
330
177
100
AcDbEntity
  8
_U+30EC_U+30A4_U+30E4_U+30FC 1
370
     0
100
AcDbVertex
100
AcDb2dVertex
 10
85.46334497646403
 20
-133.6498955286535
 30
0.0
  0
SEQEND
  5
17D
330
177
100
AcDbEntity
  8
_U+30EC_U+30A4_U+30E4_U+30FC 1
370
     0
  0
POLYLINE
  5
17E
330
133
100
AcDbEntity
  8
_U+30EC_U+30A4_U+30E4_U+30FC 1
370
     0
100
AcDb2dPolyline
 66
     1
 10
0.0
 20
0.0
 30
0.0
  0
VERTEX
  5
17F
330
17E
100
AcDbEntity
  8
_U+30EC_U+30A4_U+30E4_U+30FC 1
370
     0
100
AcDbVertex
100
AcDb2dVertex
 10
85.46334497646403
 20
-133.8889851553298
 30
0.0
  0
VERTEX
  5
180
330
17E
100
AcDbEntity
  8
_U+30EC_U+30A4_U+30E4_U+30FC 1
370
     0
100
AcDbVertex
100
AcDb2dVertex
 10
84.30407034567746
 20
-133.8889851553298
 30
0.0
  0
VERTEX
  5
181
330
17E
100
AcDbEntity
  8
_U+30EC_U+30A4_U+30E4_U+30FC 1
370
     0
100
AcDbVertex
100
AcDb2dVertex
 10
84.30407034567746
 20
-134.0305785797736
 30
0.0
  0
VERTEX
  5
182
330
17E
100
AcDbEntity
  8
_U+30EC_U+30A4_U+30E4_U+30FC 1
370
     0
100
AcDbVertex
100
AcDb2dVertex
 10
85.46334497646403
 20
-134.0305785797736
 30
0.0
  0
VERTEX
  5
183
330
17E
100
AcDbEntity
  8
_U+30EC_U+30A4_U+30E4_U+30FC 1
370
     0
100
AcDbVertex
100
AcDb2dVertex
 10
85.46334497646403
 20
-133.8889851553298
 30
0.0
  0
SEQEND
  5
184
330
17E
100
AcDbEntity
  8
_U+30EC_U+30A4_U+30E4_U+30FC 1
370
     0
  0
POLYLINE
  5
185
330
133
100
AcDbEntity
  8
_U+30EC_U+30A4_U+30E4_U+30FC 1
370
     0
100
AcDb2dPolyline
 66
     1
 10
0.0
 20
0.0
 30
0.0
  0
VERTEX
  5
186
330
185
100
AcDbEntity
  8
_U+30EC_U+30A4_U+30E4_U+30FC 1
370
     0
100
AcDbVertex
100
AcDb2dVertex
 10
85.46334497646403
 20
-134.1404771257531
 30
0.0
  0
VERTEX
  5
187
330
185
100
AcDbEntity
  8
_U+30EC_U+30A4_U+30E4_U+30FC 1
370
     0
100
AcDbVertex
100
AcDb2dVertex
 10
84.30407034567746
 20
-134.1404771257531
 30
0.0
  0
VERTEX
  5
188
330
185
100
AcDbEntity
  8
_U+30EC_U+30A4_U+30E4_U+30FC 1
370
     0
100
AcDbVertex
100
AcDb2dVertex
 10
84.30407034567746
 20
-134.2803480024542
 30
0.0
  0
VERTEX
  5
189
330
185
100
AcDbEntity
  8
_U+30EC_U+30A4_U+30E4_U+30FC 1
370
     0
100
AcDbVertex
100
AcDb2dVertex
 10
85.46334497646403
 20
-134.2803480024542
 30
0.0
  0
VERTEX
  5
18A
330
185
100
AcDbEntity
  8
_U+30EC_U+30A4_U+30E4_U+30FC 1
370
     0
100
AcDbVertex
100
AcDb2dVertex
 10
85.46334497646403
 20
-134.1404771257531
 30
0.0
  0
SEQEND
  5
18B
330
185
100
AcDbEntity
  8
_U+30EC_U+30A4_U+30E4_U+30FC 1
370
     0
  0
SPLINE
  5
18C
330
133
100
AcDbEntity
  8
_U+30EC_U+30A4_U+30E4_U+30FC 1
370
     0
100
AcDbSpline
210
0.0
220
0.0
230
1.0
 70
    11
 71
     3
 72
    50
 73
    46
 74
     0
 42
0.0000000001
 43
0.0000000001
 12
1.0
 22
0.0
 32
0.0
 13
1.0
 23
0.0
 33
0.0
 40
0.0
 40
0.0
 40
0.0
 40
0.0
 40
1.0
 40
1.0
 40
1.0
 40
2.0
 40
2.0
 40
2.0
 40
3.0
 40
3.0
 40
3.0
 40
4.0
 40
4.0
 40
4.0
 40
5.0
 40
5.0
 40
5.0
 40
6.0
 40
6.0
 40
6.0
 40
7.0
 40
7.0
 40
7.0
 40
8.0
 40
8.0
 40
8.0
 40
9.0
 40
9.0
 40
9.0
 40
10.0
 40
10.0
 40
10.0
 40
11.0
 40
11.0
 40
11.0
 40
12.0
 40
12.0
 40
12.0
 40
13.0
 40
13.0
 40
13.0
 40
14.0
 40
14.0
 40
14.0
 40
15.0
 40
15.0
 40
15.0
 40
15.0
 10
85.12693140232938
 20
-133.0700859584859
 30
0.0
 10
85.12693140232938
 20
-133.0700859584859
 30
0.0
 10
85.86314830752727
 20
-133.0700859584859
 30
0.0
 10
85.86314830752727
 20
-133.0700859584859
 30
0.0
 10
85.86314830752727
 20
-133.0700859584859
 30
0.0
 10
85.86314830752727
 20
-133.1951429246005
 30
0.0
 10
85.86314830752727
 20
-133.1951429246005
 30
0.0
 10
85.86314830752727
 20
-133.1951429246005
 30
0.0
 10
85.53310816004034
 20
-133.1951429246005
 30
0.0
 10
85.53310816004034
 20
-133.1951429246005
 30
0.0
 10
85.53310816004034
 20
-133.1951429246005
 30
0.0
 10
85.53310816004034
 20
-133.4700615443235
 30
0.0
 10
85.53310816004034
 20
-133.4700615443235
 30
0.0
 10
85.53310816004034
 20
-133.4700615443235
 30
0.0
 10
85.37652857023573
 20
-133.4700615443235
 30
0.0
 10
85.37652857023573
 20
-133.4700615443235
 30
0.0
 10
85.37652857023573
 20
-133.4700615443235
 30
0.0
 10
85.37652857023573
 20
-133.1951429246005
 30
0.0
 10
85.37652857023573
 20
-133.1951429246005
 30
0.0
 10
85.37652857023573
 20
-133.1951429246005
 30
0.0
 10
85.11211749174281
 20
-133.1951429246005
 30
0.0
 10
85.11211749174281
 20
-133.1951429246005
 30
0.0
 10
85.08679603992623
 20
-133.3239894957489
 30
0.0
 10
85.03598088151878
 20
-133.4149400165595
 30
0.0
 10
84.93865693406048
 20
-133.4976223082055
 30
0.0
 10
84.93865693406048
 20
-133.4976223082055
 30
0.0
 10
84.81601153478559
 20
-133.3897908195171
 30
0.0
 10
84.81601153478559
 20
-133.3897908195171
 30
0.0
 10
84.9514037873559
 20
-133.2795477639891
 30
0.0
 10
84.97465818188134
 20
-133.1420884541277
 30
0.0
 10
84.97465818188134
 20
-133.0680189011948
 30
0.0
 10
84.97465818188134
 20
-133.0680189011948
 30
0.0
 10
84.97465818188134
 20
-132.8247951599362
 30
0.0
 10
84.97465818188134
 20
-132.8247951599362
 30
0.0
 10
85.44422469652089
 20
-132.8247951599362
 30
0.0
 10
85.61148408232977
 20
-132.7844875427587
 30
0.0
 10
85.75531681883895
 20
-132.7421128682902
 30
0.0
 10
85.75531681883895
 20
-132.7421128682902
 30
0.0
 10
85.81457246118525
 20
-132.8799166877002
 30
0.0
 10
85.81457246118525
 20
-132.8799166877002
 30
0.0
 10
85.54378795604461
 20
-132.9495076165022
 30
0.0
 10
85.22856171914425
 20
-132.953986240633
 30
0.0
 10
85.12693140232938
 20
-132.953986240633
 30
0.0
 10
85.12693140232938
 20
-132.953986240633
 30
0.0
 10
85.12693140232938
 20
-133.0700859584859
 30
0.0
 10
85.12693140232938
 20
-133.0700859584859
 30
0.0
  0
SPLINE
  5
18D
330
133
100
AcDbEntity
  8
_U+30EC_U+30A4_U+30E4_U+30FC 1
370
     0
100
AcDbSpline
210
0.0
220
0.0
230
1.0
 70
    11
 71
     3
 72
    17
 73
    13
 74
     0
 42
0.0000000001
 43
0.0000000001
 12
1.0
 22
0.0
 32
0.0
 13
1.0
 23
0.0
 33
0.0
 40
0.0
 40
0.0
 40
0.0
 40
0.0
 40
1.0
 40
1.0
 40
1.0
 40
2.0
 40
2.0
 40
2.0
 40
3.0
 40
3.0
 40
3.0
 40
4.0
 40
4.0
 40
4.0
 40
4.0
 10
85.23906926037427
 20
-134.421941426898
 30
0.0
 10
85.45903860710747
 20
-134.5342515397171
 30
0.0
 10
85.7256889976658
 20
-134.5721475900549
 30
0.0
 10
85.85470782358841
 20
-134.5828273860592
 30
0.0
 10
85.85470782358841
 20
-134.5828273860592
 30
0.0
 10
85.7849446400121
 20
-134.7371676637983
 30
0.0
 10
85.7849446400121
 20
-134.7371676637983
 30
0.0
 10
85.66436629802836
 20
-134.7223537532118
 30
0.0
 10
85.40202227682659
 20
-134.6820461360344
 30
0.0
 10
85.13761119833366
 20
-134.5363185970083
 30
0.0
 10
85.13761119833366
 20
-134.5363185970083
 30
0.0
 10
85.23906926037427
 20
-134.421941426898
 30
0.0
 10
85.23906926037427
 20
-134.421941426898
 30
0.0
  0
HATCH
  5
18E
330
133
100
AcDbEntity
  8
_U+30EC_U+30A4_U+30E4_U+30FC 1
 62
    12
420
 15007761
100
AcDbHatch
 10
0.0
 20
0.0
 30
0.0
210
0.0
220
0.0
230
1.0
  2
SOLID
 70
     1
 71
     0
 91
        7
 92
        1
 93
        1
 72
     4
 94
        3
 73
     0
 74
     1
 95
       50
 96
       46
 40
0.0
 40
0.0
 40
0.0
 40
0.0
 40
1.0
 40
1.0
 40
1.0
 40
2.0
 40
2.0
 40
2.0
 40
3.0
 40
3.0
 40
3.0
 40
4.0
 40
4.0
 40
4.0
 40
5.0
 40
5.0
 40
5.0
 40
6.0
 40
6.0
 40
6.0
 40
7.0
 40
7.0
 40
7.0
 40
8.0
 40
8.0
 40
8.0
 40
9.0
 40
9.0
 40
9.0
 40
10.0
 40
10.0
 40
10.0
 40
11.0
 40
11.0
 40
11.0
 40
12.0
 40
12.0
 40
12.0
 40
13.0
 40
13.0
 40
13.0
 40
14.0
 40
14.0
 40
14.0
 40
15.0
 40
15.0
 40
15.0
 40
15.0
 10
84.21932099674031
 20
-133.0700859584859
 10
84.21932099674031
 20
-133.0700859584859
 10
84.87096080777532
 20
-133.0700859584859
 10
84.87096080777532
 20
-133.0700859584859
 10
84.87096080777532
 20
-133.0700859584859
 10
84.87096080777532
 20
-133.1951429246005
 10
84.87096080777532
 20
-133.1951429246005
 10
84.87096080777532
 20
-133.1951429246005
 10
84.59380287598697
 20
-133.1951429246005
 10
84.59380287598697
 20
-133.1951429246005
 10
84.59380287598697
 20
-133.1951429246005
 10
84.59380287598697
 20
-133.4700615443235
 10
84.59380287598697
 20
-133.4700615443235
 10
84.59380287598697
 20
-133.4700615443235
 10
84.43308917160006
 20
-133.4700615443235
 10
84.43308917160006
 20
-133.4700615443235
 10
84.43308917160006
 20
-133.4700615443235
 10
84.43308917160006
 20
-133.1951429246005
 10
84.43308917160006
 20
-133.1951429246005
 10
84.43308917160006
 20
-133.1951429246005
 10
84.21311982486687
 20
-133.1951429246005
 10
84.21311982486687
 20
-133.1951429246005
 10
84.20244002886258
 20
-133.2647338534026
 10
84.177118577046
 20
-133.4593817483192
 10
84.02260604453255
 20
-133.6095879114761
 10
84.02260604453255
 20
-133.6095879114761
 10
83.89996064525765
 20
-133.4996893654966
 10
83.89996064525765
 20
-133.4996893654966
 10
84.0205389872414
 20
-133.4001261059729
 10
84.06291366170997
 20
-133.1951429246005
 10
84.06291366170997
 20
-133.1124606329545
 10
84.06291366170997
 20
-133.1124606329545
 10
84.06291366170997
 20
-132.8268622172273
 10
84.06291366170997
 20
-132.8268622172273
 10
84.54729408693609
 20
-132.8268622172273
 10
84.70180661944956
 20
-132.7803534281765
 10
84.79689125484245
 20
-132.7527926642944
 10
84.79689125484245
 20
-132.7527926642944
 10
84.84977347054104
 20
-132.8923190314471
 10
84.84977347054104
 20
-132.8923190314471
 10
84.64031166503784
 20
-132.9412393873376
 10
84.47753090335979
 20
-132.9515746737934
 10
84.21932099674031
 20
-132.9560532979242
 10
84.21932099674031
 20
-132.9560532979242
 10
84.21932099674031
 20
-133.0700859584859
 10
84.21932099674031
 20
-133.0700859584859
 97
        0
 97
        0
 92
        1
 93
        1
 72
     4
 94
        3
 73
     0
 74
     1
 95
       32
 96
       28
 40
0.0
 40
0.0
 40
0.0
 40
0.0
 40
1.0
 40
1.0
 40
1.0
 40
2.0
 40
2.0
 40
2.0
 40
3.0
 40
3.0
 40
3.0
 40
4.0
 40
4.0
 40
4.0
 40
5.0
 40
5.0
 40
5.0
 40
6.0
 40
6.0
 40
6.0
 40
7.0
 40
7.0
 40
7.0
 40
8.0
 40
8.0
 40
8.0
 40
9.0
 40
9.0
 40
9.0
 40
9.0
 10
84.13474390257743
 20
-134.4157402550245
 10
84.13474390257743
 20
-134.4157402550245
 10
84.13474390257743
 20
-133.5165703333743
 10
84.13474390257743
 20
-133.5165703333743
 10
84.13474390257743
 20
-133.5165703333743
 10
85.63249916478979
 20
-133.5165703333743
 10
85.63249916478979
 20
-133.5165703333743
 10
85.63249916478979
 20
-133.5165703333743
 10
85.63249916478979
 20
-134.4157402550245
 10
85.63249916478979
 20
-134.4157402550245
 10
85.63249916478979
 20
-134.4157402550245
 10
84.4880384445898
 20
-134.4157402550245
 10
84.4880384445898
 20
-134.4157402550245
 10
84.4880384445898
 20
-134.4157402550245
 10
84.59380287598697
 20
-134.525638801004
 10
84.59380287598697
 20
-134.525638801004
 10
84.4287828022435
 20
-134.6207234363969
 10
84.26376272850004
 20
-134.6820461360344
 10
83.9676567715428
 20
-134.7330335492161
 10
83.9676567715428
 20
-134.7330335492161
 10
83.9020277025488
 20
-134.580760328768
 10
83.9020277025488
 20
-134.580760328768
 10
84.28081595115202
 20
-134.5277058582951
 10
84.40346135042692
 20
-134.4601819867843
 10
84.4839043300075
 20
-134.4157402550245
 10
84.4839043300075
 20
-134.4157402550245
 10
84.13474390257743
 20
-134.4157402550245
 10
84.13474390257743
 20
-134.4157402550245
 97
        0
 97
        0
 92
        1
 93
        4
 72
     1
 10
85.46334497646403
 20
-133.6498955286535
 11
84.30407034567746
 21
-133.6498955286535
 72
     1
 10
84.30407034567746
 20
-133.6498955286535
 11
84.30407034567746
 21
-133.7787420998019
 72
     1
 10
84.30407034567746
 20
-133.7787420998019
 11
85.46334497646403
 21
-133.7787420998019
 72
     1
 10
85.46334497646403
 20
-133.7787420998019
 11
85.46334497646403
 21
-133.6498955286535
 97
        0
 92
        1
 93
        4
 72
     1
 10
85.46334497646403
 20
-133.8889851553298
 11
84.30407034567746
 21
-133.8889851553298
 72
     1
 10
84.30407034567746
 20
-133.8889851553298
 11
84.30407034567746
 21
-134.0305785797736
 72
     1
 10
84.30407034567746
 20
-134.0305785797736
 11
85.46334497646403
 21
-134.0305785797736
 72
     1
 10
85.46334497646403
 20
-134.0305785797736
 11
85.46334497646403
 21
-133.8889851553298
 97
        0
 92
        1
 93
        4
 72
     1
 10
85.46334497646403
 20
-134.1404771257531
 11
84.30407034567746
 21
-134.1404771257531
 72
     1
 10
84.30407034567746
 20
-134.1404771257531
 11
84.30407034567746
 21
-134.2803480024542
 72
     1
 10
84.30407034567746
 20
-134.2803480024542
 11
85.46334497646403
 21
-134.2803480024542
 72
     1
 10
85.46334497646403
 20
-134.2803480024542
 11
85.46334497646403
 21
-134.1404771257531
 97
        0
 92
        1
 93
        1
 72
     4
 94
        3
 73
     0
 74
     1
 95
       50
 96
       46
 40
0.0
 40
0.0
 40
0.0
 40
0.0
 40
1.0
 40
1.0
 40
1.0
 40
2.0
 40
2.0
 40
2.0
 40
3.0
 40
3.0
 40
3.0
 40
4.0
 40
4.0
 40
4.0
 40
5.0
 40
5.0
 40
5.0
 40
6.0
 40
6.0
 40
6.0
 40
7.0
 40
7.0
 40
7.0
 40
8.0
 40
8.0
 40
8.0
 40
9.0
 40
9.0
 40
9.0
 40
10.0
 40
10.0
 40
10.0
 40
11.0
 40
11.0
 40
11.0
 40
12.0
 40
12.0
 40
12.0
 40
13.0
 40
13.0
 40
13.0
 40
14.0
 40
14.0
 40
14.0
 40
15.0
 40
15.0
 40
15.0
 40
15.0
 10
85.12693140232938
 20
-133.0700859584859
 10
85.12693140232938
 20
-133.0700859584859
 10
85.86314830752727
 20
-133.0700859584859
 10
85.86314830752727
 20
-133.0700859584859
 10
85.86314830752727
 20
-133.0700859584859
 10
85.86314830752727
 20
-133.1951429246005
 10
85.86314830752727
 20
-133.1951429246005
 10
85.86314830752727
 20
-133.1951429246005
 10
85.53310816004034
 20
-133.1951429246005
 10
85.53310816004034
 20
-133.1951429246005
 10
85.53310816004034
 20
-133.1951429246005
 10
85.53310816004034
 20
-133.4700615443235
 10
85.53310816004034
 20
-133.4700615443235
 10
85.53310816004034
 20
-133.4700615443235
 10
85.37652857023573
 20
-133.4700615443235
 10
85.37652857023573
 20
-133.4700615443235
 10
85.37652857023573
 20
-133.4700615443235
 10
85.37652857023573
 20
-133.1951429246005
 10
85.37652857023573
 20
-133.1951429246005
 10
85.37652857023573
 20
-133.1951429246005
 10
85.11211749174281
 20
-133.1951429246005
 10
85.11211749174281
 20
-133.1951429246005
 10
85.08679603992623
 20
-133.3239894957489
 10
85.03598088151878
 20
-133.4149400165595
 10
84.93865693406048
 20
-133.4976223082055
 10
84.93865693406048
 20
-133.4976223082055
 10
84.81601153478559
 20
-133.3897908195171
 10
84.81601153478559
 20
-133.3897908195171
 10
84.9514037873559
 20
-133.2795477639891
 10
84.97465818188134
 20
-133.1420884541277
 10
84.97465818188134
 20
-133.0680189011948
 10
84.97465818188134
 20
-133.0680189011948
 10
84.97465818188134
 20
-132.8247951599362
 10
84.97465818188134
 20
-132.8247951599362
 10
85.44422469652089
 20
-132.8247951599362
 10
85.61148408232977
 20
-132.7844875427587
 10
85.75531681883895
 20
-132.7421128682902
 10
85.75531681883895
 20
-132.7421128682902
 10
85.81457246118525
 20
-132.8799166877002
 10
85.81457246118525
 20
-132.8799166877002
 10
85.54378795604461
 20
-132.9495076165022
 10
85.22856171914425
 20
-132.953986240633
 10
85.12693140232938
 20
-132.953986240633
 10
85.12693140232938
 20
-132.953986240633
 10
85.12693140232938
 20
-133.0700859584859
 10
85.12693140232938
 20
-133.0700859584859
 97
        0
 97
        0
 92
        1
 93
        1
 72
     4
 94
        3
 73
     0
 74
     1
 95
       17
 96
       13
 40
0.0
 40
0.0
 40
0.0
 40
0.0
 40
1.0
 40
1.0
 40
1.0
 40
2.0
 40
2.0
 40
2.0
 40
3.0
 40
3.0
 40
3.0
 40
4.0
 40
4.0
 40
4.0
 40
4.0
 10
85.23906926037427
 20
-134.421941426898
 10
85.45903860710747
 20
-134.5342515397171
 10
85.7256889976658
 20
-134.5721475900549
 10
85.85470782358841
 20
-134.5828273860592
 10
85.85470782358841
 20
-134.5828273860592
 10
85.7849446400121
 20
-134.7371676637983
 10
85.7849446400121
 20
-134.7371676637983
 10
85.66436629802836
 20
-134.7223537532118
 10
85.40202227682659
 20
-134.6820461360344
 10
85.13761119833366
 20
-134.5363185970083
 10
85.13761119833366
 20
-134.5363185970083
 10
85.23906926037427
 20
-134.421941426898
 10
85.23906926037427
 20
-134.421941426898
 97
        0
 97
        0
 75
     2
 76
     1
 98
        0
  0
ENDBLK
  5
136
330
133
100
AcDbEntity
  8
0
100
AcDbBlockEnd
  0
BLOCK
  5
19E
330
19C
100
AcDbEntity
  8
0
100
AcDbBlockBegin
  2
block 7
 70
     0
 10
0.0
 20
0.0
 30
0.0
  3
block 7
  1

  0
SPLINE
  5
1A0
330
19C
100
AcDbEntity
  8
_U+30EC_U+30A4_U+30E4_U+30FC 1
370
     0
100
AcDbSpline
210
0.0
220
0.0
230
1.0
 70
    11
 71
     3
 72
   242
 73
   238
 74
     0
 42
0.0000000001
 43
0.0000000001
 12
1.0
 22
0.0
 32
0.0
 13
1.0
 23
0.0
 33
0.0
 40
0.0
 40
0.0
 40
0.0
 40
0.0
 40
1.0
 40
1.0
 40
1.0
 40
2.0
 40
2.0
 40
2.0
 40
3.0
 40
3.0
 40
3.0
 40
4.0
 40
4.0
 40
4.0
 40
5.0
 40
5.0
 40
5.0
 40
6.0
 40
6.0
 40
6.0
 40
7.0
 40
7.0
 40
7.0
 40
8.0
 40
8.0
 40
8.0
 40
9.0
 40
9.0
 40
9.0
 40
10.0
 40
10.0
 40
10.0
 40
11.0
 40
11.0
 40
11.0
 40
12.0
 40
12.0
 40
12.0
 40
13.0
 40
13.0
 40
13.0
 40
14.0
 40
14.0
 40
14.0
 40
15.0
 40
15.0
 40
15.0
 40
16.0
 40
16.0
 40
16.0
 40
17.0
 40
17.0
 40
17.0
 40
18.0
 40
18.0
 40
18.0
 40
19.0
 40
19.0
 40
19.0
 40
20.0
 40
20.0
 40
20.0
 40
21.0
 40
21.0
 40
21.0
 40
22.0
 40
22.0
 40
22.0
 40
23.0
 40
23.0
 40
23.0
 40
24.0
 40
24.0
 40
24.0
 40
25.0
 40
25.0
 40
25.0
 40
26.0
 40
26.0
 40
26.0
 40
27.0
 40
27.0
 40
27.0
 40
28.0
 40
28.0
 40
28.0
 40
29.0
 40
29.0
 40
29.0
 40
30.0
 40
30.0
 40
30.0
 40
31.0
 40
31.0
 40
31.0
 40
32.0
 40
32.0
 40
32.0
 40
33.0
 40
33.0
 40
33.0
 40
34.0
 40
34.0
 40
34.0
 40
35.0
 40
35.0
 40
35.0
 40
36.0
 40
36.0
 40
36.0
 40
37.0
 40
37.0
 40
37.0
 40
38.0
 40
38.0
 40
38.0
 40
39.0
 40
39.0
 40
39.0
 40
40.0
 40
40.0
 40
40.0
 40
41.0
 40
41.0
 40
41.0
 40
42.0
 40
42.0
 40
42.0
 40
43.0
 40
43.0
 40
43.0
 40
44.0
 40
44.0
 40
44.0
 40
45.0
 40
45.0
 40
45.0
 40
46.0
 40
46.0
 40
46.0
 40
47.0
 40
47.0
 40
47.0
 40
48.0
 40
48.0
 40
48.0
 40
49.0
 40
49.0
 40
49.0
 40
50.0
 40
50.0
 40
50.0
 40
51.0
 40
51.0
 40
51.0
 40
52.0
 40
52.0
 40
52.0
 40
53.0
 40
53.0
 40
53.0
 40
54.0
 40
54.0
 40
54.0
 40
55.0
 40
55.0
 40
55.0
 40
56.0
 40
56.0
 40
56.0
 40
57.0
 40
57.0
 40
57.0
 40
58.0
 40
58.0
 40
58.0
 40
59.0
 40
59.0
 40
59.0
 40
60.0
 40
60.0
 40
60.0
 40
61.0
 40
61.0
 40
61.0
 40
62.0
 40
62.0
 40
62.0
 40
63.0
 40
63.0
 40
63.0
 40
64.0
 40
64.0
 40
64.0
 40
65.0
 40
65.0
 40
65.0
 40
66.0
 40
66.0
 40
66.0
 40
67.0
 40
67.0
 40
67.0
 40
68.0
 40
68.0
 40
68.0
 40
69.0
 40
69.0
 40
69.0
 40
70.0
 40
70.0
 40
70.0
 40
71.0
 40
71.0
 40
71.0
 40
72.0
 40
72.0
 40
72.0
 40
73.0
 40
73.0
 40
73.0
 40
74.0
 40
74.0
 40
74.0
 40
75.0
 40
75.0
 40
75.0
 40
76.0
 40
76.0
 40
76.0
 40
77.0
 40
77.0
 40
77.0
 40
78.0
 40
78.0
 40
78.0
 40
79.0
 40
79.0
 40
79.0
 40
79.0
 10
101.4155151113649
 20
-154.5666205125736
 30
0.0
 10
101.4155151113649
 20
-154.5666205125736
 30
0.0
 10
101.161611574102
 20
-154.5666205125736
 30
0.0
 10
101.161611574102
 20
-154.5666205125736
 30
0.0
 10
101.161611574102
 20
-154.5666205125736
 30
0.0
 10
100.8844536423136
 20
-154.5666205125736
 30
0.0
 10
100.8844536423136
 20
-154.5666205125736
 30
0.0
 10
100.8844536423136
 20
-154.5666205125736
 30
0.0
 10
101.0114054109451
 20
-154.6089951870422
 30
0.0
 10
101.0114054109451
 20
-154.6089951870422
 30
0.0
 10
101.0219129521751
 20
-154.6131293016245
 30
0.0
 10
101.0346598054705
 20
-154.6193304734979
 30
0.0
 10
101.0346598054705
 20
-154.6320773267934
 30
0.0
 10
101.0346598054705
 20
-154.6530924092534
 30
0.0
 10
101.0029649270062
 20
-154.6596380906754
 30
0.0
 10
100.9817775897719
 20
-154.6637722052577
 30
0.0
 10
100.9712700485419
 20
-154.6871988545574
 30
0.0
 10
100.9416422273688
 20
-154.7526556687771
 30
0.0
 10
100.9225219474256
 20
-154.7970974005368
 30
0.0
 10
100.9225219474256
 20
-154.7970974005368
 30
0.0
 10
101.1933064525663
 20
-154.7970974005368
 30
0.0
 10
101.1933064525663
 20
-154.7970974005368
 30
0.0
 10
101.2842569733769
 20
-154.7970974005368
 30
0.0
 10
101.4809719255846
 20
-154.7929632859546
 30
0.0
 10
101.6227376048027
 20
-154.7843505472414
 30
0.0
 10
101.6227376048027
 20
-154.7843505472414
 30
0.0
 10
101.6227376048027
 20
-154.9621174742803
 30
0.0
 10
101.6227376048027
 20
-154.9621174742803
 30
0.0
 10
101.5402275679309
 20
-154.957983359698
 30
0.0
 10
101.5190402306966
 20
-154.957983359698
 30
0.0
 10
101.3392062463666
 20
-154.9535047355672
 30
0.0
 10
101.3075113679023
 20
-155.1081895228549
 30
0.0
 10
101.2630696361426
 20
-155.1884602476612
 30
0.0
 10
101.2186279043828
 20
-155.2583956860118
 30
0.0
 10
101.3392062463666
 20
-155.3176513283581
 30
0.0
 10
101.445142932538
 20
-155.385175199869
 30
0.0
 10
101.5486680518698
 20
-155.467857491515
 30
0.0
 10
101.5486680518698
 20
-155.467857491515
 30
0.0
 10
101.4303290219515
 20
-155.6349446225496
 30
0.0
 10
101.4303290219515
 20
-155.6349446225496
 30
0.0
 10
101.407074627426
 20
-155.6156520878322
 30
0.0
 10
101.3943277741306
 20
-155.6073838586676
 30
0.0
 10
101.2821899160857
 20
-155.5226345097305
 30
0.0
 10
101.2334418149694
 20
-155.4847384593927
 30
0.0
 10
101.1743584273974
 20
-155.4485649567976
 30
0.0
 10
101.0939154478168
 20
-155.4041232250379
 30
0.0
 10
100.8823865850225
 20
-155.5905028907899
 30
0.0
 10
100.6770588941016
 20
-155.6135850305411
 30
0.0
 10
100.3873263637921
 20
-155.6432128517142
 30
0.0
 10
100.3873263637921
 20
-155.6432128517142
 30
0.0
 10
100.283628989686
 20
-155.4633788673842
 30
0.0
 10
100.283628989686
 20
-155.4633788673842
 30
0.0
 10
100.6009222838776
 20
-155.4592447528019
 30
0.0
 10
100.7766221536253
 20
-155.433751046211
 30
0.0
 10
100.9288953740733
 20
-155.3238525002315
 30
0.0
 10
100.8103840893807
 20
-155.2732095965984
 30
0.0
 10
100.7215006258613
 20
-155.2456488327164
 30
0.0
 10
100.6856716328147
 20
-155.2329019794209
 30
0.0
 10
100.6665513528716
 20
-155.260462743303
 30
0.0
 10
100.651737442285
 20
-155.2794107684718
 30
0.0
 10
100.624176678403
 20
-155.3131727042273
 30
0.0
 10
100.624176678403
 20
-155.3131727042273
 30
0.0
 10
100.4274617261952
 20
-155.2308349221298
 30
0.0
 10
100.4274617261952
 20
-155.2308349221298
 30
0.0
 10
100.509971763067
 20
-155.1505641973235
 30
0.0
 10
100.5712944627044
 20
-155.0551350523821
 30
0.0
 10
100.6284830477595
 20
-154.9535047355672
 30
0.0
 10
100.4381415221995
 20
-154.957983359698
 30
0.0
 10
100.4169541849652
 20
-154.957983359698
 30
0.0
 10
100.3344441480935
 20
-154.9621174742803
 30
0.0
 10
100.3344441480935
 20
-154.9621174742803
 30
0.0
 10
100.3344441480935
 20
-154.7843505472414
 30
0.0
 10
100.3344441480935
 20
-154.7843505472414
 30
0.0
 10
100.4739705152461
 20
-154.7908962286634
 30
0.0
 10
100.6834323207493
 20
-154.7950303432457
 30
0.0
 10
100.7089260273401
 20
-154.7950303432457
 30
0.0
 10
100.7258069952179
 20
-154.7612684074902
 30
0.0
 10
100.7807562682076
 20
-154.6406900655065
 30
0.0
 10
100.7998765481507
 20
-154.5666205125736
 30
0.0
 10
100.7807562682076
 20
-154.5666205125736
 30
0.0
 10
100.603161595943
 20
-154.5728216844471
 30
0.0
 10
100.4085137010264
 20
-154.5855685377425
 30
0.0
 10
100.4085137010264
 20
-154.5855685377425
 30
0.0
 10
100.4085137010264
 20
-154.7188937330217
 30
0.0
 10
100.4085137010264
 20
-154.7188937330217
 30
0.0
 10
100.3597655999101
 20
-154.744042930064
 30
0.0
 10
100.3005099575638
 20
-154.7760823180768
 30
0.0
 10
100.1673570170589
 20
-154.8415391322966
 30
0.0
 10
100.1673570170589
 20
-154.8415391322966
 30
0.0
 10
100.1673570170589
 20
-154.9876111808712
 30
0.0
 10
100.1673570170589
 20
-154.9876111808712
 30
0.0
 10
100.1673570170589
 20
-154.9876111808712
 30
0.0
 10
100.1673570170589
 20
-155.4551106382196
 30
0.0
 10
100.1673570170589
 20
-155.4551106382196
 30
0.0
 10
100.1673570170589
 20
-155.5818901520768
 30
0.0
 10
100.131355769238
 20
-155.6411457944231
 30
0.0
 10
99.84782441080193
 20
-155.6328775652585
 30
0.0
 10
99.84782441080193
 20
-155.6328775652585
 30
0.0
 10
99.74412703669591
 20
-155.4254828170464
 30
0.0
 10
99.74412703669591
 20
-155.4254828170464
 30
0.0
 10
99.80768904839877
 20
-155.4382296703418
 30
0.0
 10
99.8562648947408
 20
-155.4423637849241
 30
0.0
 10
99.89657251191822
 20
-155.4423637849241
 30
0.0
 10
99.97270912214225
 20
-155.4423637849241
 30
0.0
 10
99.98321666337226
 20
-155.4189371356244
 30
0.0
 10
99.98321666337226
 20
-155.3534803214047
 30
0.0
 10
99.98321666337226
 20
-155.3534803214047
 30
0.0
 10
99.98321666337226
 20
-154.923876914394
 30
0.0
 10
99.98321666337226
 20
-154.923876914394
 30
0.0
 10
99.88589271591395
 20
-154.9641845315714
 30
0.0
 10
99.86901174803623
 20
-154.9707302129934
 30
0.0
 10
99.82250295898535
 20
-154.9896782381623
 30
0.0
 10
99.81819658962878
 20
-155.0106933206223
 30
0.0
 10
99.81406247504648
 20
-155.0403211417955
 30
0.0
 10
99.79494219510335
 20
-155.0403211417955
 30
0.0
 10
99.78650171116449
 20
-155.0403211417955
 30
0.0
 10
99.77599416993448
 20
-155.0361870272132
 30
0.0
 10
99.76962074328677
 20
-155.0127603779135
 30
0.0
 10
99.76962074328677
 20
-155.0127603779135
 30
0.0
 10
99.71673852758818
 20
-154.8205240498365
 30
0.0
 10
99.71673852758818
 20
-154.8205240498365
 30
0.0
 10
99.86263832138852
 20
-154.7736707512371
 30
0.0
 10
99.92826739038252
 20
-154.750588611486
 30
0.0
 10
99.98321666337226
 20
-154.7295735290259
 30
0.0
 10
99.98321666337226
 20
-154.7295735290259
 30
0.0
 10
99.98321666337226
 20
-154.316851089893
 30
0.0
 10
99.98321666337226
 20
-154.316851089893
 30
0.0
 10
99.98321666337226
 20
-154.316851089893
 30
0.0
 10
99.93033444767367
 20
-154.316851089893
 30
0.0
 10
99.93033444767367
 20
-154.316851089893
 30
0.0
 10
99.93033444767367
 20
-154.316851089893
 30
0.0
 10
99.8521307801585
 20
-154.316851089893
 30
0.0
 10
99.8521307801585
 20
-154.316851089893
 30
0.0
 10
99.78443465387333
 20
-154.316851089893
 30
0.0
 10
99.77599416993448
 20
-154.316851089893
 30
0.0
 10
99.73999292211361
 20
-154.323396771315
 30
0.0
 10
99.73999292211361
 20
-154.323396771315
 30
0.0
 10
99.73999292211361
 20
-154.1287488763984
 30
0.0
 10
99.73999292211361
 20
-154.1287488763984
 30
0.0
 10
99.76755368599562
 20
-154.1349500482718
 30
0.0
 10
99.77599416993448
 20
-154.1349500482718
 30
0.0
 10
99.84575735351079
 20
-154.1349500482718
 30
0.0
 10
99.84575735351079
 20
-154.1349500482718
 30
0.0
 10
99.97908254878996
 20
-154.1349500482718
 30
0.0
 10
99.97908254878996
 20
-154.1349500482718
 30
0.0
 10
99.97908254878996
 20
-154.0650146099213
 30
0.0
 10
99.97908254878996
 20
-153.9826768278238
 30
0.0
 10
99.97684323672455
 20
-153.9785427132415
 30
0.0
 10
99.96840275278568
 20
-153.7987087289114
 30
0.0
 10
99.96840275278568
 20
-153.7794161941941
 30
0.0
 10
99.96633569549454
 20
-153.7329074051432
 30
0.0
 10
99.96633569549454
 20
-153.7329074051432
 30
0.0
 10
100.1821709276454
 20
-153.7415201438563
 30
0.0
 10
100.1821709276454
 20
-153.7415201438563
 30
0.0
 10
100.1926784688754
 20
-153.7415201438563
 30
0.0
 10
100.2138658061097
 20
-153.7435872011474
 30
0.0
 10
100.2138658061097
 20
-153.7604681690252
 30
0.0
 10
100.2138658061097
 20
-153.7794161941941
 30
0.0
 10
100.1990518955232
 20
-153.7900959901983
 30
0.0
 10
100.1737304437066
 20
-153.8090440153672
 30
0.0
 10
100.1737304437066
 20
-153.8600314285489
 30
0.0
 10
100.1673570170589
 20
-154.088441259221
 30
0.0
 10
100.16942407435
 20
-154.1349500482718
 30
0.0
 10
100.2984429002726
 20
-154.1349500482718
 30
0.0
 10
100.311189753568
 20
-154.1349500482718
 30
0.0
 10
100.4085137010264
 20
-154.1263373095587
 30
0.0
 10
100.4085137010264
 20
-154.1263373095587
 30
0.0
 10
100.4085137010264
 20
-154.3209852044753
 30
0.0
 10
100.4085137010264
 20
-154.3209852044753
 30
0.0
 10
100.3704453959143
 20
-154.3189181471842
 30
0.0
 10
100.3027492696292
 20
-154.3147840326019
 30
0.0
 10
100.1673570170589
 20
-154.316851089893
 30
0.0
 10
100.1673570170589
 20
-154.316851089893
 30
0.0
 10
100.1673570170589
 20
-154.6555039760931
 30
0.0
 10
100.1673570170589
 20
-154.6555039760931
 30
0.0
 10
100.2223062900486
 20
-154.6320773267934
 30
0.0
 10
100.2879353590426
 20
-154.6045165629114
 30
0.0
 10
100.3365112053846
 20
-154.5814344231602
 30
0.0
 10
100.3365112053846
 20
-154.5814344231602
 30
0.0
 10
100.3365112053846
 20
-154.4036674961213
 30
0.0
 10
100.3365112053846
 20
-154.4036674961213
 30
0.0
 10
100.4507161207207
 20
-154.4164143494167
 30
0.0
 10
100.5692274054133
 20
-154.4164143494167
 30
0.0
 10
100.6856716328147
 20
-154.4164143494167
 30
0.0
 10
100.662244983515
 20
-154.3209852044753
 30
0.0
 10
100.6348564744073
 20
-154.2386474223779
 30
0.0
 10
100.5712944627044
 20
-154.1053222270987
 30
0.0
 10
100.5268527309447
 20
-154.1073892843898
 30
0.0
 10
100.4445149488472
 20
-154.1115233989721
 30
0.0
 10
100.4062743889609
 20
-154.1139349658118
 30
0.0
 10
100.4062743889609
 20
-154.1139349658118
 30
0.0
 10
100.4062743889609
 20
-153.9341009814817
 30
0.0
 10
100.4062743889609
 20
-153.9341009814817
 30
0.0
 10
100.5311591003012
 20
-153.9423692106463
 30
0.0
 10
100.7046196579836
 20
-153.9465033252287
 30
0.0
 10
100.7871296948553
 20
-153.9465033252287
 30
0.0
 10
100.7871296948553
 20
-153.9465033252287
 30
0.0
 10
100.869639731727
 20
-153.9465033252287
 30
0.0
 10
100.869639731727
 20
-153.9465033252287
 30
0.0
 10
100.869639731727
 20
-153.7838948183249
 30
0.0
 10
100.869639731727
 20
-153.7732150223206
 30
0.0
 10
100.8675726744359
 20
-153.7180934945566
 30
0.0
 10
100.8675726744359
 20
-153.7180934945566
 30
0.0
 10
101.0918483905257
 20
-153.7435872011474
 30
0.0
 10
101.0918483905257
 20
-153.7435872011474
 30
0.0
 10
101.095982505108
 20
-153.7435872011474
 30
0.0
 10
101.1171698423422
 20
-153.7456542584386
 30
0.0
 10
101.1171698423422
 20
-153.7625352263163
 30
0.0
 10
101.1171698423422
 20
-153.7773491369029
 30
0.0
 10
101.1066623011122
 20
-153.785961875616
 30
0.0
 10
101.0791015372302
 20
-153.8007757862026
 30
0.0
 10
101.0727281105825
 20
-153.8662326004223
 30
0.0
 10
101.0706610532914
 20
-153.8875921924309
 30
0.0
 10
101.0706610532914
 20
-153.9465033252287
 30
0.0
 10
101.0706610532914
 20
-153.9465033252287
 30
0.0
 10
101.1657456886843
 20
-153.9465033252287
 30
0.0
 10
101.1657456886843
 20
-153.9465033252287
 30
0.0
 10
101.248255725556
 20
-153.9465033252287
 30
0.0
 10
101.4217162832383
 20
-153.9423692106463
 30
0.0
 10
101.5466009945786
 20
-153.9341009814817
 30
0.0
 10
101.5466009945786
 20
-153.9341009814817
 30
0.0
 10
101.5466009945786
 20
-154.1139349658118
 30
0.0
 10
101.5466009945786
 20
-154.1139349658118
 30
0.0
 10
101.5169731734055
 20
-154.1115233989721
 30
0.0
 10
101.3984618887129
 20
-154.1073892843898
 30
0.0
 10
101.3583265263097
 20
-154.1053222270987
 30
0.0
 10
101.3435126157232
 20
-154.1559651307319
 30
0.0
 10
101.3097506799677
 20
-154.268275243551
 30
0.0
 10
101.2441216109737
 20
-154.4078016107036
 30
0.0
 10
101.286324030668
 20
-154.4078016107036
 30
0.0
 10
101.5634819624564
 20
-154.3888535855347
 30
0.0
 10
101.6248046620938
 20
-154.3867865282436
 30
0.0
 10
101.6248046620938
 20
-154.3867865282436
 30
0.0
 10
101.6248046620938
 20
-154.5707546271559
 30
0.0
 10
101.6248046620938
 20
-154.5707546271559
 30
0.0
 10
101.5953490956949
 20
-154.5707546271559
 30
0.0
 10
101.5782958730429
 20
-154.5666205125736
 30
0.0
 10
101.4155151113649
 20
-154.5666205125736
 30
0.0
  0
SPLINE
  5
1A1
330
19C
100
AcDbEntity
  8
_U+30EC_U+30A4_U+30E4_U+30FC 1
370
     0
100
AcDbSpline
210
0.0
220
0.0
230
1.0
 70
    11
 71
     3
 72
    20
 73
    16
 74
     0
 42
0.0000000001
 43
0.0000000001
 12
1.0
 22
0.0
 32
0.0
 13
1.0
 23
0.0
 33
0.0
 40
0.0
 40
0.0
 40
0.0
 40
0.0
 40
1.0
 40
1.0
 40
1.0
 40
2.0
 40
2.0
 40
2.0
 40
3.0
 40
3.0
 40
3.0
 40
4.0
 40
4.0
 40
4.0
 40
5.0
 40
5.0
 40
5.0
 40
5.0
 10
100.7871296948553
 20
-154.1011881125164
 30
0.0
 10
100.7871296948553
 20
-154.1011881125164
 30
0.0
 10
100.755434816391
 20
-154.1011881125164
 30
0.0
 10
100.755434816391
 20
-154.1011881125164
 30
0.0
 10
100.8019436054419
 20
-154.2004068624916
 30
0.0
 10
100.8336384839062
 20
-154.2810220968464
 30
0.0
 10
100.8675726744359
 20
-154.4078016107036
 30
0.0
 10
100.8675726744359
 20
-154.4078016107036
 30
0.0
 10
101.0747951678737
 20
-154.4078016107036
 30
0.0
 10
101.0747951678737
 20
-154.4078016107036
 30
0.0
 10
101.1066623011122
 20
-154.3147840326019
 30
0.0
 10
101.1299166956377
 20
-154.2300346836647
 30
0.0
 10
101.1531710901631
 20
-154.1011881125164
 30
0.0
 10
101.1531710901631
 20
-154.1011881125164
 30
0.0
 10
100.7871296948553
 20
-154.1011881125164
 30
0.0
 10
100.7871296948553
 20
-154.1011881125164
 30
0.0
  0
SPLINE
  5
1A2
330
19C
100
AcDbEntity
  8
_U+30EC_U+30A4_U+30E4_U+30FC 1
370
     0
100
AcDbSpline
210
0.0
220
0.0
230
1.0
 70
    11
 71
     3
 72
    17
 73
    13
 74
     0
 42
0.0000000001
 43
0.0000000001
 12
1.0
 22
0.0
 32
0.0
 13
1.0
 23
0.0
 33
0.0
 40
0.0
 40
0.0
 40
0.0
 40
0.0
 40
1.0
 40
1.0
 40
1.0
 40
2.0
 40
2.0
 40
2.0
 40
3.0
 40
3.0
 40
3.0
 40
4.0
 40
4.0
 40
4.0
 40
4.0
 10
100.8506917065582
 20
-154.9514376782761
 30
0.0
 10
100.8336384839062
 20
-154.9810654994492
 30
0.0
 10
100.782995580273
 20
-155.0740830775509
 30
0.0
 10
100.7723157842687
 20
-155.0933756122683
 30
0.0
 10
100.9626573098288
 20
-155.1526312546146
 30
0.0
 10
100.9838446470631
 20
-155.1588324264881
 30
0.0
 10
101.0558471427048
 20
-155.1863931903701
 30
0.0
 10
101.1107964156945
 20
-155.0995767841418
 30
0.0
 10
101.13405081022
 20
-155.0255072312089
 30
0.0
 10
101.1488647208065
 20
-154.9514376782761
 30
0.0
 10
101.1488647208065
 20
-154.9514376782761
 30
0.0
 10
100.8506917065582
 20
-154.9514376782761
 30
0.0
 10
100.8506917065582
 20
-154.9514376782761
 30
0.0
  0
HATCH
  5
1A3
330
19C
100
AcDbEntity
  8
_U+30EC_U+30A4_U+30E4_U+30FC 1
 62
   179
420
  2234388
100
AcDbHatch
 10
0.0
 20
0.0
 30
0.0
210
0.0
220
0.0
230
1.0
  2
SOLID
 70
     1
 71
     0
 91
        3
 92
        1
 93
        1
 72
     4
 94
        3
 73
     0
 74
     1
 95
      242
 96
      238
 40
0.0
 40
0.0
 40
0.0
 40
0.0
 40
1.0
 40
1.0
 40
1.0
 40
2.0
 40
2.0
 40
2.0
 40
3.0
 40
3.0
 40
3.0
 40
4.0
 40
4.0
 40
4.0
 40
5.0
 40
5.0
 40
5.0
 40
6.0
 40
6.0
 40
6.0
 40
7.0
 40
7.0
 40
7.0
 40
8.0
 40
8.0
 40
8.0
 40
9.0
 40
9.0
 40
9.0
 40
10.0
 40
10.0
 40
10.0
 40
11.0
 40
11.0
 40
11.0
 40
12.0
 40
12.0
 40
12.0
 40
13.0
 40
13.0
 40
13.0
 40
14.0
 40
14.0
 40
14.0
 40
15.0
 40
15.0
 40
15.0
 40
16.0
 40
16.0
 40
16.0
 40
17.0
 40
17.0
 40
17.0
 40
18.0
 40
18.0
 40
18.0
 40
19.0
 40
19.0
 40
19.0
 40
20.0
 40
20.0
 40
20.0
 40
21.0
 40
21.0
 40
21.0
 40
22.0
 40
22.0
 40
22.0
 40
23.0
 40
23.0
 40
23.0
 40
24.0
 40
24.0
 40
24.0
 40
25.0
 40
25.0
 40
25.0
 40
26.0
 40
26.0
 40
26.0
 40
27.0
 40
27.0
 40
27.0
 40
28.0
 40
28.0
 40
28.0
 40
29.0
 40
29.0
 40
29.0
 40
30.0
 40
30.0
 40
30.0
 40
31.0
 40
31.0
 40
31.0
 40
32.0
 40
32.0
 40
32.0
 40
33.0
 40
33.0
 40
33.0
 40
34.0
 40
34.0
 40
34.0
 40
35.0
 40
35.0
 40
35.0
 40
36.0
 40
36.0
 40
36.0
 40
37.0
 40
37.0
 40
37.0
 40
38.0
 40
38.0
 40
38.0
 40
39.0
 40
39.0
 40
39.0
 40
40.0
 40
40.0
 40
40.0
 40
41.0
 40
41.0
 40
41.0
 40
42.0
 40
42.0
 40
42.0
 40
43.0
 40
43.0
 40
43.0
 40
44.0
 40
44.0
 40
44.0
 40
45.0
 40
45.0
 40
45.0
 40
46.0
 40
46.0
 40
46.0
 40
47.0
 40
47.0
 40
47.0
 40
48.0
 40
48.0
 40
48.0
 40
49.0
 40
49.0
 40
49.0
 40
50.0
 40
50.0
 40
50.0
 40
51.0
 40
51.0
 40
51.0
 40
52.0
 40
52.0
 40
52.0
 40
53.0
 40
53.0
 40
53.0
 40
54.0
 40
54.0
 40
54.0
 40
55.0
 40
55.0
 40
55.0
 40
56.0
 40
56.0
 40
56.0
 40
57.0
 40
57.0
 40
57.0
 40
58.0
 40
58.0
 40
58.0
 40
59.0
 40
59.0
 40
59.0
 40
60.0
 40
60.0
 40
60.0
 40
61.0
 40
61.0
 40
61.0
 40
62.0
 40
62.0
 40
62.0
 40
63.0
 40
63.0
 40
63.0
 40
64.0
 40
64.0
 40
64.0
 40
65.0
 40
65.0
 40
65.0
 40
66.0
 40
66.0
 40
66.0
 40
67.0
 40
67.0
 40
67.0
 40
68.0
 40
68.0
 40
68.0
 40
69.0
 40
69.0
 40
69.0
 40
70.0
 40
70.0
 40
70.0
 40
71.0
 40
71.0
 40
71.0
 40
72.0
 40
72.0
 40
72.0
 40
73.0
 40
73.0
 40
73.0
 40
74.0
 40
74.0
 40
74.0
 40
75.0
 40
75.0
 40
75.0
 40
76.0
 40
76.0
 40
76.0
 40
77.0
 40
77.0
 40
77.0
 40
78.0
 40
78.0
 40
78.0
 40
79.0
 40
79.0
 40
79.0
 40
79.0
 10
101.4155151113649
 20
-154.5666205125736
 10
101.4155151113649
 20
-154.5666205125736
 10
101.161611574102
 20
-154.5666205125736
 10
101.161611574102
 20
-154.5666205125736
 10
101.161611574102
 20
-154.5666205125736
 10
100.8844536423136
 20
-154.5666205125736
 10
100.8844536423136
 20
-154.5666205125736
 10
100.8844536423136
 20
-154.5666205125736
 10
101.0114054109451
 20
-154.6089951870422
 10
101.0114054109451
 20
-154.6089951870422
 10
101.0219129521751
 20
-154.6131293016245
 10
101.0346598054705
 20
-154.6193304734979
 10
101.0346598054705
 20
-154.6320773267934
 10
101.0346598054705
 20
-154.6530924092534
 10
101.0029649270062
 20
-154.6596380906754
 10
100.9817775897719
 20
-154.6637722052577
 10
100.9712700485419
 20
-154.6871988545574
 10
100.9416422273688
 20
-154.7526556687771
 10
100.9225219474256
 20
-154.7970974005368
 10
100.9225219474256
 20
-154.7970974005368
 10
101.1933064525663
 20
-154.7970974005368
 10
101.1933064525663
 20
-154.7970974005368
 10
101.2842569733769
 20
-154.7970974005368
 10
101.4809719255846
 20
-154.7929632859546
 10
101.6227376048027
 20
-154.7843505472414
 10
101.6227376048027
 20
-154.7843505472414
 10
101.6227376048027
 20
-154.9621174742803
 10
101.6227376048027
 20
-154.9621174742803
 10
101.5402275679309
 20
-154.957983359698
 10
101.5190402306966
 20
-154.957983359698
 10
101.3392062463666
 20
-154.9535047355672
 10
101.3075113679023
 20
-155.1081895228549
 10
101.2630696361426
 20
-155.1884602476612
 10
101.2186279043828
 20
-155.2583956860118
 10
101.3392062463666
 20
-155.3176513283581
 10
101.445142932538
 20
-155.385175199869
 10
101.5486680518698
 20
-155.467857491515
 10
101.5486680518698
 20
-155.467857491515
 10
101.4303290219515
 20
-155.6349446225496
 10
101.4303290219515
 20
-155.6349446225496
 10
101.407074627426
 20
-155.6156520878322
 10
101.3943277741306
 20
-155.6073838586676
 10
101.2821899160857
 20
-155.5226345097305
 10
101.2334418149694
 20
-155.4847384593927
 10
101.1743584273974
 20
-155.4485649567976
 10
101.0939154478168
 20
-155.4041232250379
 10
100.8823865850225
 20
-155.5905028907899
 10
100.6770588941016
 20
-155.6135850305411
 10
100.3873263637921
 20
-155.6432128517142
 10
100.3873263637921
 20
-155.6432128517142
 10
100.283628989686
 20
-155.4633788673842
 10
100.283628989686
 20
-155.4633788673842
 10
100.6009222838776
 20
-155.4592447528019
 10
100.7766221536253
 20
-155.433751046211
 10
100.9288953740733
 20
-155.3238525002315
 10
100.8103840893807
 20
-155.2732095965984
 10
100.7215006258613
 20
-155.2456488327164
 10
100.6856716328147
 20
-155.2329019794209
 10
100.6665513528716
 20
-155.260462743303
 10
100.651737442285
 20
-155.2794107684718
 10
100.624176678403
 20
-155.3131727042273
 10
100.624176678403
 20
-155.3131727042273
 10
100.4274617261952
 20
-155.2308349221298
 10
100.4274617261952
 20
-155.2308349221298
 10
100.509971763067
 20
-155.1505641973235
 10
100.5712944627044
 20
-155.0551350523821
 10
100.6284830477595
 20
-154.9535047355672
 10
100.4381415221995
 20
-154.957983359698
 10
100.4169541849652
 20
-154.957983359698
 10
100.3344441480935
 20
-154.9621174742803
 10
100.3344441480935
 20
-154.9621174742803
 10
100.3344441480935
 20
-154.7843505472414
 10
100.3344441480935
 20
-154.7843505472414
 10
100.4739705152461
 20
-154.7908962286634
 10
100.6834323207493
 20
-154.7950303432457
 10
100.7089260273401
 20
-154.7950303432457
 10
100.7258069952179
 20
-154.7612684074902
 10
100.7807562682076
 20
-154.6406900655065
 10
100.7998765481507
 20
-154.5666205125736
 10
100.7807562682076
 20
-154.5666205125736
 10
100.603161595943
 20
-154.5728216844471
 10
100.4085137010264
 20
-154.5855685377425
 10
100.4085137010264
 20
-154.5855685377425
 10
100.4085137010264
 20
-154.7188937330217
 10
100.4085137010264
 20
-154.7188937330217
 10
100.3597655999101
 20
-154.744042930064
 10
100.3005099575638
 20
-154.7760823180768
 10
100.1673570170589
 20
-154.8415391322966
 10
100.1673570170589
 20
-154.8415391322966
 10
100.1673570170589
 20
-154.9876111808712
 10
100.1673570170589
 20
-154.9876111808712
 10
100.1673570170589
 20
-154.9876111808712
 10
100.1673570170589
 20
-155.4551106382196
 10
100.1673570170589
 20
-155.4551106382196
 10
100.1673570170589
 20
-155.5818901520768
 10
100.131355769238
 20
-155.6411457944231
 10
99.84782441080193
 20
-155.6328775652585
 10
99.84782441080193
 20
-155.6328775652585
 10
99.74412703669591
 20
-155.4254828170464
 10
99.74412703669591
 20
-155.4254828170464
 10
99.80768904839877
 20
-155.4382296703418
 10
99.8562648947408
 20
-155.4423637849241
 10
99.89657251191822
 20
-155.4423637849241
 10
99.97270912214225
 20
-155.4423637849241
 10
99.98321666337226
 20
-155.4189371356244
 10
99.98321666337226
 20
-155.3534803214047
 10
99.98321666337226
 20
-155.3534803214047
 10
99.98321666337226
 20
-154.923876914394
 10
99.98321666337226
 20
-154.923876914394
 10
99.88589271591395
 20
-154.9641845315714
 10
99.86901174803623
 20
-154.9707302129934
 10
99.82250295898535
 20
-154.9896782381623
 10
99.81819658962878
 20
-155.0106933206223
 10
99.81406247504648
 20
-155.0403211417955
 10
99.79494219510335
 20
-155.0403211417955
 10
99.78650171116449
 20
-155.0403211417955
 10
99.77599416993448
 20
-155.0361870272132
 10
99.76962074328677
 20
-155.0127603779135
 10
99.76962074328677
 20
-155.0127603779135
 10
99.71673852758818
 20
-154.8205240498365
 10
99.71673852758818
 20
-154.8205240498365
 10
99.86263832138852
 20
-154.7736707512371
 10
99.92826739038252
 20
-154.750588611486
 10
99.98321666337226
 20
-154.7295735290259
 10
99.98321666337226
 20
-154.7295735290259
 10
99.98321666337226
 20
-154.316851089893
 10
99.98321666337226
 20
-154.316851089893
 10
99.98321666337226
 20
-154.316851089893
 10
99.93033444767367
 20
-154.316851089893
 10
99.93033444767367
 20
-154.316851089893
 10
99.93033444767367
 20
-154.316851089893
 10
99.8521307801585
 20
-154.316851089893
 10
99.8521307801585
 20
-154.316851089893
 10
99.78443465387333
 20
-154.316851089893
 10
99.77599416993448
 20
-154.316851089893
 10
99.73999292211361
 20
-154.323396771315
 10
99.73999292211361
 20
-154.323396771315
 10
99.73999292211361
 20
-154.1287488763984
 10
99.73999292211361
 20
-154.1287488763984
 10
99.76755368599562
 20
-154.1349500482718
 10
99.77599416993448
 20
-154.1349500482718
 10
99.84575735351079
 20
-154.1349500482718
 10
99.84575735351079
 20
-154.1349500482718
 10
99.97908254878996
 20
-154.1349500482718
 10
99.97908254878996
 20
-154.1349500482718
 10
99.97908254878996
 20
-154.0650146099213
 10
99.97908254878996
 20
-153.9826768278238
 10
99.97684323672455
 20
-153.9785427132415
 10
99.96840275278568
 20
-153.7987087289114
 10
99.96840275278568
 20
-153.7794161941941
 10
99.96633569549454
 20
-153.7329074051432
 10
99.96633569549454
 20
-153.7329074051432
 10
100.1821709276454
 20
-153.7415201438563
 10
100.1821709276454
 20
-153.7415201438563
 10
100.1926784688754
 20
-153.7415201438563
 10
100.2138658061097
 20
-153.7435872011474
 10
100.2138658061097
 20
-153.7604681690252
 10
100.2138658061097
 20
-153.7794161941941
 10
100.1990518955232
 20
-153.7900959901983
 10
100.1737304437066
 20
-153.8090440153672
 10
100.1737304437066
 20
-153.8600314285489
 10
100.1673570170589
 20
-154.088441259221
 10
100.16942407435
 20
-154.1349500482718
 10
100.2984429002726
 20
-154.1349500482718
 10
100.311189753568
 20
-154.1349500482718
 10
100.4085137010264
 20
-154.1263373095587
 10
100.4085137010264
 20
-154.1263373095587
 10
100.4085137010264
 20
-154.3209852044753
 10
100.4085137010264
 20
-154.3209852044753
 10
100.3704453959143
 20
-154.3189181471842
 10
100.3027492696292
 20
-154.3147840326019
 10
100.1673570170589
 20
-154.316851089893
 10
100.1673570170589
 20
-154.316851089893
 10
100.1673570170589
 20
-154.6555039760931
 10
100.1673570170589
 20
-154.6555039760931
 10
100.2223062900486
 20
-154.6320773267934
 10
100.2879353590426
 20
-154.6045165629114
 10
100.3365112053846
 20
-154.5814344231602
 10
100.3365112053846
 20
-154.5814344231602
 10
100.3365112053846
 20
-154.4036674961213
 10
100.3365112053846
 20
-154.4036674961213
 10
100.4507161207207
 20
-154.4164143494167
 10
100.5692274054133
 20
-154.4164143494167
 10
100.6856716328147
 20
-154.4164143494167
 10
100.662244983515
 20
-154.3209852044753
 10
100.6348564744073
 20
-154.2386474223779
 10
100.5712944627044
 20
-154.1053222270987
 10
100.5268527309447
 20
-154.1073892843898
 10
100.4445149488472
 20
-154.1115233989721
 10
100.4062743889609
 20
-154.1139349658118
 10
100.4062743889609
 20
-154.1139349658118
 10
100.4062743889609
 20
-153.9341009814817
 10
100.4062743889609
 20
-153.9341009814817
 10
100.5311591003012
 20
-153.9423692106463
 10
100.7046196579836
 20
-153.9465033252287
 10
100.7871296948553
 20
-153.9465033252287
 10
100.7871296948553
 20
-153.9465033252287
 10
100.869639731727
 20
-153.9465033252287
 10
100.869639731727
 20
-153.9465033252287
 10
100.869639731727
 20
-153.7838948183249
 10
100.869639731727
 20
-153.7732150223206
 10
100.8675726744359
 20
-153.7180934945566
 10
100.8675726744359
 20
-153.7180934945566
 10
101.0918483905257
 20
-153.7435872011474
 10
101.0918483905257
 20
-153.7435872011474
 10
101.095982505108
 20
-153.7435872011474
 10
101.1171698423422
 20
-153.7456542584386
 10
101.1171698423422
 20
-153.7625352263163
 10
101.1171698423422
 20
-153.7773491369029
 10
101.1066623011122
 20
-153.785961875616
 10
101.0791015372302
 20
-153.8007757862026
 10
101.0727281105825
 20
-153.8662326004223
 10
101.0706610532914
 20
-153.8875921924309
 10
101.0706610532914
 20
-153.9465033252287
 10
101.0706610532914
 20
-153.9465033252287
 10
101.1657456886843
 20
-153.9465033252287
 10
101.1657456886843
 20
-153.9465033252287
 10
101.248255725556
 20
-153.9465033252287
 10
101.4217162832383
 20
-153.9423692106463
 10
101.5466009945786
 20
-153.9341009814817
 10
101.5466009945786
 20
-153.9341009814817
 10
101.5466009945786
 20
-154.1139349658118
 10
101.5466009945786
 20
-154.1139349658118
 10
101.5169731734055
 20
-154.1115233989721
 10
101.3984618887129
 20
-154.1073892843898
 10
101.3583265263097
 20
-154.1053222270987
 10
101.3435126157232
 20
-154.1559651307319
 10
101.3097506799677
 20
-154.268275243551
 10
101.2441216109737
 20
-154.4078016107036
 10
101.286324030668
 20
-154.4078016107036
 10
101.5634819624564
 20
-154.3888535855347
 10
101.6248046620938
 20
-154.3867865282436
 10
101.6248046620938
 20
-154.3867865282436
 10
101.6248046620938
 20
-154.5707546271559
 10
101.6248046620938
 20
-154.5707546271559
 10
101.5953490956949
 20
-154.5707546271559
 10
101.5782958730429
 20
-154.5666205125736
 10
101.4155151113649
 20
-154.5666205125736
 97
        0
 97
        0
 92
        1
 93
        1
 72
     4
 94
        3
 73
     0
 74
     1
 95
       20
 96
       16
 40
0.0
 40
0.0
 40
0.0
 40
0.0
 40
1.0
 40
1.0
 40
1.0
 40
2.0
 40
2.0
 40
2.0
 40
3.0
 40
3.0
 40
3.0
 40
4.0
 40
4.0
 40
4.0
 40
5.0
 40
5.0
 40
5.0
 40
5.0
 10
100.7871296948553
 20
-154.1011881125164
 10
100.7871296948553
 20
-154.1011881125164
 10
100.755434816391
 20
-154.1011881125164
 10
100.755434816391
 20
-154.1011881125164
 10
100.8019436054419
 20
-154.2004068624916
 10
100.8336384839062
 20
-154.2810220968464
 10
100.8675726744359
 20
-154.4078016107036
 10
100.8675726744359
 20
-154.4078016107036
 10
101.0747951678737
 20
-154.4078016107036
 10
101.0747951678737
 20
-154.4078016107036
 10
101.1066623011122
 20
-154.3147840326019
 10
101.1299166956377
 20
-154.2300346836647
 10
101.1531710901631
 20
-154.1011881125164
 10
101.1531710901631
 20
-154.1011881125164
 10
100.7871296948553
 20
-154.1011881125164
 10
100.7871296948553
 20
-154.1011881125164
 97
        0
 97
        0
 92
        1
 93
        1
 72
     4
 94
        3
 73
     0
 74
     1
 95
       17
 96
       13
 40
0.0
 40
0.0
 40
0.0
 40
0.0
 40
1.0
 40
1.0
 40
1.0
 40
2.0
 40
2.0
 40
2.0
 40
3.0
 40
3.0
 40
3.0
 40
4.0
 40
4.0
 40
4.0
 40
4.0
 10
100.8506917065582
 20
-154.9514376782761
 10
100.8336384839062
 20
-154.9810654994492
 10
100.782995580273
 20
-155.0740830775509
 10
100.7723157842687
 20
-155.0933756122683
 10
100.9626573098288
 20
-155.1526312546146
 10
100.9838446470631
 20
-155.1588324264881
 10
101.0558471427048
 20
-155.1863931903701
 10
101.1107964156945
 20
-155.0995767841418
 10
101.13405081022
 20
-155.0255072312089
 10
101.1488647208065
 20
-154.9514376782761
 10
101.1488647208065
 20
-154.9514376782761
 10
100.8506917065582
 20
-154.9514376782761
 10
100.8506917065582
 20
-154.9514376782761
 97
        0
 97
        0
 75
     2
 76
     1
 98
        0
  0
SPLINE
  5
1A4
330
19C
100
AcDbEntity
  8
_U+30EC_U+30A4_U+30E4_U+30FC 1
370
     0
100
AcDbSpline
210
0.0
220
0.0
230
1.0
 70
    11
 71
     3
 72
   203
 73
   199
 74
     0
 42
0.0000000001
 43
0.0000000001
 12
1.0
 22
0.0
 32
0.0
 13
1.0
 23
0.0
 33
0.0
 40
0.0
 40
0.0
 40
0.0
 40
0.0
 40
1.0
 40
1.0
 40
1.0
 40
2.0
 40
2.0
 40
2.0
 40
3.0
 40
3.0
 40
3.0
 40
4.0
 40
4.0
 40
4.0
 40
5.0
 40
5.0
 40
5.0
 40
6.0
 40
6.0
 40
6.0
 40
7.0
 40
7.0
 40
7.0
 40
8.0
 40
8.0
 40
8.0
 40
9.0
 40
9.0
 40
9.0
 40
10.0
 40
10.0
 40
10.0
 40
11.0
 40
11.0
 40
11.0
 40
12.0
 40
12.0
 40
12.0
 40
13.0
 40
13.0
 40
13.0
 40
14.0
 40
14.0
 40
14.0
 40
15.0
 40
15.0
 40
15.0
 40
16.0
 40
16.0
 40
16.0
 40
17.0
 40
17.0
 40
17.0
 40
18.0
 40
18.0
 40
18.0
 40
19.0
 40
19.0
 40
19.0
 40
20.0
 40
20.0
 40
20.0
 40
21.0
 40
21.0
 40
21.0
 40
22.0
 40
22.0
 40
22.0
 40
23.0
 40
23.0
 40
23.0
 40
24.0
 40
24.0
 40
24.0
 40
25.0
 40
25.0
 40
25.0
 40
26.0
 40
26.0
 40
26.0
 40
27.0
 40
27.0
 40
27.0
 40
28.0
 40
28.0
 40
28.0
 40
29.0
 40
29.0
 40
29.0
 40
30.0
 40
30.0
 40
30.0
 40
31.0
 40
31.0
 40
31.0
 40
32.0
 40
32.0
 40
32.0
 40
33.0
 40
33.0
 40
33.0
 40
34.0
 40
34.0
 40
34.0
 40
35.0
 40
35.0
 40
35.0
 40
36.0
 40
36.0
 40
36.0
 40
37.0
 40
37.0
 40
37.0
 40
38.0
 40
38.0
 40
38.0
 40
39.0
 40
39.0
 40
39.0
 40
40.0
 40
40.0
 40
40.0
 40
41.0
 40
41.0
 40
41.0
 40
42.0
 40
42.0
 40
42.0
 40
43.0
 40
43.0
 40
43.0
 40
44.0
 40
44.0
 40
44.0
 40
45.0
 40
45.0
 40
45.0
 40
46.0
 40
46.0
 40
46.0
 40
47.0
 40
47.0
 40
47.0
 40
48.0
 40
48.0
 40
48.0
 40
49.0
 40
49.0
 40
49.0
 40
50.0
 40
50.0
 40
50.0
 40
51.0
 40
51.0
 40
51.0
 40
52.0
 40
52.0
 40
52.0
 40
53.0
 40
53.0
 40
53.0
 40
54.0
 40
54.0
 40
54.0
 40
55.0
 40
55.0
 40
55.0
 40
56.0
 40
56.0
 40
56.0
 40
57.0
 40
57.0
 40
57.0
 40
58.0
 40
58.0
 40
58.0
 40
59.0
 40
59.0
 40
59.0
 40
60.0
 40
60.0
 40
60.0
 40
61.0
 40
61.0
 40
61.0
 40
62.0
 40
62.0
 40
62.0
 40
63.0
 40
63.0
 40
63.0
 40
64.0
 40
64.0
 40
64.0
 40
65.0
 40
65.0
 40
65.0
 40
66.0
 40
66.0
 40
66.0
 40
66.0
 10
103.1068847398483
 20
-154.6341443840845
 30
0.0
 10
103.1068847398483
 20
-154.6341443840845
 30
0.0
 10
102.5484347616893
 20
-154.6341443840845
 30
0.0
 10
102.5484347616893
 20
-154.6341443840845
 30
0.0
 10
102.537754965685
 20
-154.6785861158442
 30
0.0
 10
102.5293144817462
 20
-154.7102809943086
 30
0.0
 10
102.516739883225
 20
-154.7485215541948
 30
0.0
 10
102.5420613350416
 20
-154.7485215541948
 30
0.0
 10
102.5568752456281
 20
-154.750588611486
 30
0.0
 10
102.5632486722759
 20
-154.750588611486
 30
0.0
 10
102.5632486722759
 20
-154.750588611486
 30
0.0
 10
102.7515231405448
 20
-154.750588611486
 30
0.0
 10
102.7515231405448
 20
-154.750588611486
 30
0.0
 10
102.7515231405448
 20
-154.750588611486
 30
0.0
 10
103.1260050197914
 20
-154.750588611486
 30
0.0
 10
103.1260050197914
 20
-154.750588611486
 30
0.0
 10
103.1766479234246
 20
-154.750588611486
 30
0.0
 10
103.4601792818607
 20
-154.7378417581905
 30
0.0
 10
103.491874160325
 20
-154.7378417581905
 30
0.0
 10
103.4898071030338
 20
-154.7654025220725
 30
0.0
 10
103.4877400457427
 20
-154.7843505472414
 30
0.0
 10
103.4877400457427
 20
-154.8139783684146
 30
0.0
 10
103.4855007336772
 20
-154.8456732468789
 30
0.0
 10
103.4855007336772
 20
-154.9810654994492
 30
0.0
 10
103.4855007336772
 20
-155.0086262633312
 30
0.0
 10
103.4855007336772
 20
-155.0086262633312
 30
0.0
 10
103.4855007336772
 20
-155.253917061881
 30
0.0
 10
103.4855007336772
 20
-155.253917061881
 30
0.0
 10
103.4855007336772
 20
-155.2983587936407
 30
0.0
 10
103.4898071030338
 20
-155.4950737458485
 30
0.0
 10
103.4941134723904
 20
-155.647691475845
 30
0.0
 10
103.4941134723904
 20
-155.647691475845
 30
0.0
 10
103.2675984442352
 20
-155.647691475845
 30
0.0
 10
103.2675984442352
 20
-155.647691475845
 30
0.0
 10
103.2675984442352
 20
-155.647691475845
 30
0.0
 10
103.2698377563006
 20
-155.6135850305411
 30
0.0
 10
103.2698377563006
 20
-155.6135850305411
 30
0.0
 10
103.2698377563006
 20
-155.6135850305411
 30
0.0
 10
102.5673827868582
 20
-155.6135850305411
 30
0.0
 10
102.5673827868582
 20
-155.6135850305411
 30
0.0
 10
102.5673827868582
 20
-155.6135850305411
 30
0.0
 10
102.5696220989236
 20
-155.647691475845
 30
0.0
 10
102.5696220989236
 20
-155.647691475845
 30
0.0
 10
102.5696220989236
 20
-155.647691475845
 30
0.0
 10
102.3517198094815
 20
-155.647691475845
 30
0.0
 10
102.3517198094815
 20
-155.647691475845
 30
0.0
 10
102.3558539240638
 20
-155.592569948081
 30
0.0
 10
102.3558539240638
 20
-155.5798230947856
 30
0.0
 10
102.3622273507115
 20
-155.4654459246753
 30
0.0
 10
102.3642944080027
 20
-155.4382296703418
 30
0.0
 10
102.3665337200681
 20
-155.3049044750627
 30
0.0
 10
102.3665337200681
 20
-155.2856119403453
 30
0.0
 10
102.3665337200681
 20
-155.2856119403453
 30
0.0
 10
102.3665337200681
 20
-155.082695816264
 30
0.0
 10
102.3665337200681
 20
-155.082695816264
 30
0.0
 10
102.2268350981412
 20
-155.3324652389447
 30
0.0
 10
102.0576809098154
 20
-155.4633788673842
 30
0.0
 10
101.9519164784183
 20
-155.5291801911524
 30
0.0
 10
101.9519164784183
 20
-155.5291801911524
 30
0.0
 10
101.7782836659617
 20
-155.3893093144513
 30
0.0
 10
101.7782836659617
 20
-155.3893093144513
 30
0.0
 10
101.8671671294811
 20
-155.3386664108181
 30
0.0
 10
102.0109998659903
 20
-155.2518500045898
 30
0.0
 10
102.148631430626
 20
-155.0572021096732
 30
0.0
 10
102.2395819514366
 20
-154.930422595816
 30
0.0
 10
102.3052110204306
 20
-154.7864176045326
 30
0.0
 10
102.3389729561861
 20
-154.6341443840845
 30
0.0
 10
102.110563125514
 20
-154.6362114413757
 30
0.0
 10
101.930729141184
 20
-154.6427571227977
 30
0.0
 10
101.8354722510168
 20
-154.6448241800888
 30
0.0
 10
101.8354722510168
 20
-154.6448241800888
 30
0.0
 10
101.8354722510168
 20
-154.4670572530499
 30
0.0
 10
101.8354722510168
 20
-154.4670572530499
 30
0.0
 10
102.0321872032246
 20
-154.4732584249234
 30
0.0
 10
102.3157185616607
 20
-154.4777370490542
 30
0.0
 10
102.4659247248176
 20
-154.4777370490542
 30
0.0
 10
102.4659247248176
 20
-154.4777370490542
 30
0.0
 10
102.679520644903
 20
-154.4777370490542
 30
0.0
 10
102.679520644903
 20
-154.4777370490542
 30
0.0
 10
102.679520644903
 20
-154.4777370490542
 30
0.0
 10
102.679520644903
 20
-154.3699055603659
 30
0.0
 10
102.679520644903
 20
-154.3699055603659
 30
0.0
 10
102.679520644903
 20
-154.3699055603659
 30
0.0
 10
102.5336208511027
 20
-154.3699055603659
 30
0.0
 10
102.5336208511027
 20
-154.3699055603659
 30
0.0
 10
102.3642944080027
 20
-154.3699055603659
 30
0.0
 10
102.1951402196769
 20
-154.3740396749482
 30
0.0
 10
102.0280530886423
 20
-154.3802408468216
 30
0.0
 10
102.0280530886423
 20
-154.3802408468216
 30
0.0
 10
102.0280530886423
 20
-154.2090196012047
 30
0.0
 10
102.0280530886423
 20
-154.2090196012047
 30
0.0
 10
102.1823933663815
 20
-154.219699397209
 30
0.0
 10
102.3686007773592
 20
-154.219699397209
 30
0.0
 10
102.5336208511027
 20
-154.219699397209
 30
0.0
 10
102.5336208511027
 20
-154.219699397209
 30
0.0
 10
102.679520644903
 20
-154.219699397209
 30
0.0
 10
102.679520644903
 20
-154.219699397209
 30
0.0
 10
102.679520644903
 20
-154.219699397209
 30
0.0
 10
102.679520644903
 20
-154.1011881125164
 30
0.0
 10
102.679520644903
 20
-154.1011881125164
 30
0.0
 10
102.679520644903
 20
-154.1011881125164
 30
0.0
 10
102.5484347616893
 20
-154.1011881125164
 30
0.0
 10
102.5484347616893
 20
-154.1011881125164
 30
0.0
 10
102.5019259726384
 20
-154.1011881125164
 30
0.0
 10
102.2988375937829
 20
-154.109456341681
 30
0.0
 10
102.2564629193144
 20
-154.109456341681
 30
0.0
 10
102.0533745404589
 20
-154.1139349658118
 30
0.0
 10
101.9772379302349
 20
-154.116002023103
 30
0.0
 10
101.8990342627197
 20
-154.1180690803941
 30
0.0
 10
101.8990342627197
 20
-154.1180690803941
 30
0.0
 10
101.8990342627197
 20
-153.9341009814817
 30
0.0
 10
101.8990342627197
 20
-153.9341009814817
 30
0.0
 10
102.0132391780557
 20
-153.9423692106463
 30
0.0
 10
102.0576809098154
 20
-153.9423692106463
 30
0.0
 10
102.440603273001
 20
-153.9509819493595
 30
0.0
 10
102.3770412612981
 20
-153.8555528044181
 30
0.0
 10
102.3494804974161
 20
-153.8283365500846
 30
0.0
 10
102.3136515043695
 20
-153.7921630474895
 30
0.0
 10
102.3136515043695
 20
-153.7921630474895
 30
0.0
 10
102.489179119343
 20
-153.709825265392
 30
0.0
 10
102.489179119343
 20
-153.709825265392
 30
0.0
 10
102.5293144817462
 20
-153.7456542584386
 30
0.0
 10
102.5737562135059
 20
-153.7880289329072
 30
0.0
 10
102.6478257664387
 20
-153.8979274788866
 30
0.0
 10
102.6478257664387
 20
-153.8979274788866
 30
0.0
 10
102.5336208511027
 20
-153.9530490066506
 30
0.0
 10
102.5336208511027
 20
-153.9530490066506
 30
0.0
 10
102.5336208511027
 20
-153.9530490066506
 30
0.0
 10
102.5441283923327
 20
-153.9530490066506
 30
0.0
 10
102.5441283923327
 20
-153.9530490066506
 30
0.0
 10
102.5441283923327
 20
-153.9530490066506
 30
0.0
 10
103.0667493774451
 20
-153.9530490066506
 30
0.0
 10
103.0667493774451
 20
-153.9530490066506
 30
0.0
 10
103.0667493774451
 20
-153.9530490066506
 30
0.0
 10
102.971492487278
 20
-153.9086072748909
 30
0.0
 10
102.971492487278
 20
-153.9086072748909
 30
0.0
 10
102.99905325116
 20
-153.8703667150046
 30
0.0
 10
103.0560695814409
 20
-153.7900959901983
 30
0.0
 10
103.0708834920274
 20
-153.7160264372654
 30
0.0
 10
103.0708834920274
 20
-153.7160264372654
 30
0.0
 10
103.2846516668872
 20
-153.7794161941941
 30
0.0
 10
103.2846516668872
 20
-153.7794161941941
 30
0.0
 10
103.293092150826
 20
-153.7818277610337
 30
0.0
 10
103.3142794880603
 20
-153.7921630474895
 30
0.0
 10
103.3142794880603
 20
-153.813522639498
 30
0.0
 10
103.3142794880603
 20
-153.8514186898358
 30
0.0
 10
103.2486504190663
 20
-153.8514186898358
 30
0.0
 10
103.2295301391232
 20
-153.8514186898358
 30
0.0
 10
103.2190225978932
 20
-153.8703667150046
 30
0.0
 10
103.1957682033677
 20
-153.9106743321821
 30
0.0
 10
103.1661403821946
 20
-153.9509819493595
 30
0.0
 10
103.5659437132578
 20
-153.9444362679375
 30
0.0
 10
103.595571534431
 20
-153.9423692106463
 30
0.0
 10
103.671708144655
 20
-153.9361680387729
 30
0.0
 10
103.671708144655
 20
-153.9361680387729
 30
0.0
 10
103.671708144655
 20
-154.1180690803941
 30
0.0
 10
103.671708144655
 20
-154.1180690803941
 30
0.0
 10
103.6527601194861
 20
-154.1180690803941
 30
0.0
 10
103.6272664128953
 20
-154.116002023103
 30
0.0
 10
103.4072970661621
 20
-154.1073892843898
 30
0.0
 10
103.3564819077546
 20
-154.1053222270987
 30
0.0
 10
103.1365125610214
 20
-154.1011881125164
 30
0.0
 10
103.0920708292617
 20
-154.1011881125164
 30
0.0
 10
103.0920708292617
 20
-154.1011881125164
 30
0.0
 10
102.8762355971108
 20
-154.1011881125164
 30
0.0
 10
102.8762355971108
 20
-154.1011881125164
 30
0.0
 10
102.8762355971108
 20
-154.1011881125164
 30
0.0
 10
102.8762355971108
 20
-154.219699397209
 30
0.0
 10
102.8762355971108
 20
-154.219699397209
 30
0.0
 10
102.8762355971108
 20
-154.219699397209
 30
0.0
 10
103.0496961547931
 20
-154.219699397209
 30
0.0
 10
103.0496961547931
 20
-154.219699397209
 30
0.0
 10
103.2126491712455
 20
-154.219699397209
 30
0.0
 10
103.4029906968055
 20
-154.219699397209
 30
0.0
 10
103.5595702866101
 20
-154.2090196012047
 30
0.0
 10
103.5595702866101
 20
-154.2090196012047
 30
0.0
 10
103.5595702866101
 20
-154.3802408468216
 30
0.0
 10
103.5595702866101
 20
-154.3802408468216
 30
0.0
 10
103.3501084811069
 20
-154.371972617657
 30
0.0
 10
103.1533935288992
 20
-154.3699055603659
 30
0.0
 10
103.0496961547931
 20
-154.3699055603659
 30
0.0
 10
103.0496961547931
 20
-154.3699055603659
 30
0.0
 10
102.8762355971108
 20
-154.3699055603659
 30
0.0
 10
102.8762355971108
 20
-154.3699055603659
 30
0.0
 10
102.8762355971108
 20
-154.3699055603659
 30
0.0
 10
102.8762355971108
 20
-154.4777370490542
 30
0.0
 10
102.8762355971108
 20
-154.4777370490542
 30
0.0
 10
102.8762355971108
 20
-154.4777370490542
 30
0.0
 10
103.1068847398483
 20
-154.4777370490542
 30
0.0
 10
103.1068847398483
 20
-154.4777370490542
 30
0.0
 10
103.2402099351275
 20
-154.4777370490542
 30
0.0
 10
103.5278754081458
 20
-154.4732584249234
 30
0.0
 10
103.737337213649
 20
-154.4670572530499
 30
0.0
 10
103.737337213649
 20
-154.4670572530499
 30
0.0
 10
103.737337213649
 20
-154.6448241800888
 30
0.0
 10
103.737337213649
 20
-154.6448241800888
 30
0.0
 10
103.5447563760235
 20
-154.6382784986668
 30
0.0
 10
103.2317694511886
 20
-154.6341443840845
 30
0.0
 10
103.1068847398483
 20
-154.6341443840845
 30
0.0
  0
POLYLINE
  5
1A5
330
19C
100
AcDbEntity
  8
_U+30EC_U+30A4_U+30E4_U+30FC 1
370
     0
100
AcDb2dPolyline
 66
     1
 10
0.0
 20
0.0
 30
0.0
  0
VERTEX
  5
1A6
330
1A5
100
AcDbEntity
  8
_U+30EC_U+30A4_U+30E4_U+30FC 1
370
     0
100
AcDbVertex
100
AcDb2dVertex
 10
103.2719048135917
 20
-154.8901149786386
 30
0.0
  0
VERTEX
  5
1A7
330
1A5
100
AcDbEntity
  8
_U+30EC_U+30A4_U+30E4_U+30FC 1
370
     0
100
AcDbVertex
100
AcDb2dVertex
 10
102.565315729567
 20
-154.8901149786386
 30
0.0
  0
VERTEX
  5
1A8
330
1A5
100
AcDbEntity
  8
_U+30EC_U+30A4_U+30E4_U+30FC 1
370
     0
100
AcDbVertex
100
AcDb2dVertex
 10
102.565315729567
 20
-154.9979464673269
 30
0.0
  0
VERTEX
  5
1A9
330
1A5
100
AcDbEntity
  8
_U+30EC_U+30A4_U+30E4_U+30FC 1
370
     0
100
AcDbVertex
100
AcDb2dVertex
 10
103.2719048135917
 20
-154.9979464673269
 30
0.0
  0
VERTEX
  5
1AA
330
1A5
100
AcDbEntity
  8
_U+30EC_U+30A4_U+30E4_U+30FC 1
370
     0
100
AcDbVertex
100
AcDb2dVertex
 10
103.2719048135917
 20
-154.8901149786386
 30
0.0
  0
SEQEND
  5
1AB
330
1A5
100
AcDbEntity
  8
_U+30EC_U+30A4_U+30E4_U+30FC 1
370
     0
  0
POLYLINE
  5
1AC
330
19C
100
AcDbEntity
  8
_U+30EC_U+30A4_U+30E4_U+30FC 1
370
     0
100
AcDb2dPolyline
 66
     1
 10
0.0
 20
0.0
 30
0.0
  0
VERTEX
  5
1AD
330
1AC
100
AcDbEntity
  8
_U+30EC_U+30A4_U+30E4_U+30FC 1
370
     0
100
AcDbVertex
100
AcDb2dVertex
 10
103.2719048135917
 20
-155.1230034334415
 30
0.0
  0
VERTEX
  5
1AE
330
1AC
100
AcDbEntity
  8
_U+30EC_U+30A4_U+30E4_U+30FC 1
370
     0
100
AcDbVertex
100
AcDb2dVertex
 10
102.565315729567
 20
-155.1230034334415
 30
0.0
  0
VERTEX
  5
1AF
330
1AC
100
AcDbEntity
  8
_U+30EC_U+30A4_U+30E4_U+30FC 1
370
     0
100
AcDbVertex
100
AcDb2dVertex
 10
102.565315729567
 20
-155.2370360940033
 30
0.0
  0
VERTEX
  5
1B0
330
1AC
100
AcDbEntity
  8
_U+30EC_U+30A4_U+30E4_U+30FC 1
370
     0
100
AcDbVertex
100
AcDb2dVertex
 10
103.2719048135917
 20
-155.2370360940033
 30
0.0
  0
VERTEX
  5
1B1
330
1AC
100
AcDbEntity
  8
_U+30EC_U+30A4_U+30E4_U+30FC 1
370
     0
100
AcDbVertex
100
AcDb2dVertex
 10
103.2719048135917
 20
-155.1230034334415
 30
0.0
  0
SEQEND
  5
1B2
330
1AC
100
AcDbEntity
  8
_U+30EC_U+30A4_U+30E4_U+30FC 1
370
     0
  0
POLYLINE
  5
1B3
330
19C
100
AcDbEntity
  8
_U+30EC_U+30A4_U+30E4_U+30FC 1
370
     0
100
AcDb2dPolyline
 66
     1
 10
0.0
 20
0.0
 30
0.0
  0
VERTEX
  5
1B4
330
1B3
100
AcDbEntity
  8
_U+30EC_U+30A4_U+30E4_U+30FC 1
370
     0
100
AcDbVertex
100
AcDb2dVertex
 10
103.2719048135917
 20
-155.3662271747001
 30
0.0
  0
VERTEX
  5
1B5
330
1B3
100
AcDbEntity
  8
_U+30EC_U+30A4_U+30E4_U+30FC 1
370
     0
100
AcDbVertex
100
AcDb2dVertex
 10
102.565315729567
 20
-155.3662271747001
 30
0.0
  0
VERTEX
  5
1B6
330
1B3
100
AcDbEntity
  8
_U+30EC_U+30A4_U+30E4_U+30FC 1
370
     0
100
AcDbVertex
100
AcDb2dVertex
 10
102.565315729567
 20
-155.4802598352619
 30
0.0
  0
VERTEX
  5
1B7
330
1B3
100
AcDbEntity
  8
_U+30EC_U+30A4_U+30E4_U+30FC 1
370
     0
100
AcDbVertex
100
AcDb2dVertex
 10
103.2719048135917
 20
-155.4802598352619
 30
0.0
  0
VERTEX
  5
1B8
330
1B3
100
AcDbEntity
  8
_U+30EC_U+30A4_U+30E4_U+30FC 1
370
     0
100
AcDbVertex
100
AcDb2dVertex
 10
103.2719048135917
 20
-155.3662271747001
 30
0.0
  0
SEQEND
  5
1B9
330
1B3
100
AcDbEntity
  8
_U+30EC_U+30A4_U+30E4_U+30FC 1
370
     0
  0
HATCH
  5
1BA
330
19C
100
AcDbEntity
  8
_U+30EC_U+30A4_U+30E4_U+30FC 1
 62
   179
420
  2234388
100
AcDbHatch
 10
0.0
 20
0.0
 30
0.0
210
0.0
220
0.0
230
1.0
  2
SOLID
 70
     1
 71
     0
 91
        4
 92
        1
 93
        1
 72
     4
 94
        3
 73
     0
 74
     1
 95
      203
 96
      199
 40
0.0
 40
0.0
 40
0.0
 40
0.0
 40
1.0
 40
1.0
 40
1.0
 40
2.0
 40
2.0
 40
2.0
 40
3.0
 40
3.0
 40
3.0
 40
4.0
 40
4.0
 40
4.0
 40
5.0
 40
5.0
 40
5.0
 40
6.0
 40
6.0
 40
6.0
 40
7.0
 40
7.0
 40
7.0
 40
8.0
 40
8.0
 40
8.0
 40
9.0
 40
9.0
 40
9.0
 40
10.0
 40
10.0
 40
10.0
 40
11.0
 40
11.0
 40
11.0
 40
12.0
 40
12.0
 40
12.0
 40
13.0
 40
13.0
 40
13.0
 40
14.0
 40
14.0
 40
14.0
 40
15.0
 40
15.0
 40
15.0
 40
16.0
 40
16.0
 40
16.0
 40
17.0
 40
17.0
 40
17.0
 40
18.0
 40
18.0
 40
18.0
 40
19.0
 40
19.0
 40
19.0
 40
20.0
 40
20.0
 40
20.0
 40
21.0
 40
21.0
 40
21.0
 40
22.0
 40
22.0
 40
22.0
 40
23.0
 40
23.0
 40
23.0
 40
24.0
 40
24.0
 40
24.0
 40
25.0
 40
25.0
 40
25.0
 40
26.0
 40
26.0
 40
26.0
 40
27.0
 40
27.0
 40
27.0
 40
28.0
 40
28.0
 40
28.0
 40
29.0
 40
29.0
 40
29.0
 40
30.0
 40
30.0
 40
30.0
 40
31.0
 40
31.0
 40
31.0
 40
32.0
 40
32.0
 40
32.0
 40
33.0
 40
33.0
 40
33.0
 40
34.0
 40
34.0
 40
34.0
 40
35.0
 40
35.0
 40
35.0
 40
36.0
 40
36.0
 40
36.0
 40
37.0
 40
37.0
 40
37.0
 40
38.0
 40
38.0
 40
38.0
 40
39.0
 40
39.0
 40
39.0
 40
40.0
 40
40.0
 40
40.0
 40
41.0
 40
41.0
 40
41.0
 40
42.0
 40
42.0
 40
42.0
 40
43.0
 40
43.0
 40
43.0
 40
44.0
 40
44.0
 40
44.0
 40
45.0
 40
45.0
 40
45.0
 40
46.0
 40
46.0
 40
46.0
 40
47.0
 40
47.0
 40
47.0
 40
48.0
 40
48.0
 40
48.0
 40
49.0
 40
49.0
 40
49.0
 40
50.0
 40
50.0
 40
50.0
 40
51.0
 40
51.0
 40
51.0
 40
52.0
 40
52.0
 40
52.0
 40
53.0
 40
53.0
 40
53.0
 40
54.0
 40
54.0
 40
54.0
 40
55.0
 40
55.0
 40
55.0
 40
56.0
 40
56.0
 40
56.0
 40
57.0
 40
57.0
 40
57.0
 40
58.0
 40
58.0
 40
58.0
 40
59.0
 40
59.0
 40
59.0
 40
60.0
 40
60.0
 40
60.0
 40
61.0
 40
61.0
 40
61.0
 40
62.0
 40
62.0
 40
62.0
 40
63.0
 40
63.0
 40
63.0
 40
64.0
 40
64.0
 40
64.0
 40
65.0
 40
65.0
 40
65.0
 40
66.0
 40
66.0
 40
66.0
 40
66.0
 10
103.1068847398483
 20
-154.6341443840845
 10
103.1068847398483
 20
-154.6341443840845
 10
102.5484347616893
 20
-154.6341443840845
 10
102.5484347616893
 20
-154.6341443840845
 10
102.537754965685
 20
-154.6785861158442
 10
102.5293144817462
 20
-154.7102809943086
 10
102.516739883225
 20
-154.7485215541948
 10
102.5420613350416
 20
-154.7485215541948
 10
102.5568752456281
 20
-154.750588611486
 10
102.5632486722759
 20
-154.750588611486
 10
102.5632486722759
 20
-154.750588611486
 10
102.7515231405448
 20
-154.750588611486
 10
102.7515231405448
 20
-154.750588611486
 10
102.7515231405448
 20
-154.750588611486
 10
103.1260050197914
 20
-154.750588611486
 10
103.1260050197914
 20
-154.750588611486
 10
103.1766479234246
 20
-154.750588611486
 10
103.4601792818607
 20
-154.7378417581905
 10
103.491874160325
 20
-154.7378417581905
 10
103.4898071030338
 20
-154.7654025220725
 10
103.4877400457427
 20
-154.7843505472414
 10
103.4877400457427
 20
-154.8139783684146
 10
103.4855007336772
 20
-154.8456732468789
 10
103.4855007336772
 20
-154.9810654994492
 10
103.4855007336772
 20
-155.0086262633312
 10
103.4855007336772
 20
-155.0086262633312
 10
103.4855007336772
 20
-155.253917061881
 10
103.4855007336772
 20
-155.253917061881
 10
103.4855007336772
 20
-155.2983587936407
 10
103.4898071030338
 20
-155.4950737458485
 10
103.4941134723904
 20
-155.647691475845
 10
103.4941134723904
 20
-155.647691475845
 10
103.2675984442352
 20
-155.647691475845
 10
103.2675984442352
 20
-155.647691475845
 10
103.2675984442352
 20
-155.647691475845
 10
103.2698377563006
 20
-155.6135850305411
 10
103.2698377563006
 20
-155.6135850305411
 10
103.2698377563006
 20
-155.6135850305411
 10
102.5673827868582
 20
-155.6135850305411
 10
102.5673827868582
 20
-155.6135850305411
 10
102.5673827868582
 20
-155.6135850305411
 10
102.5696220989236
 20
-155.647691475845
 10
102.5696220989236
 20
-155.647691475845
 10
102.5696220989236
 20
-155.647691475845
 10
102.3517198094815
 20
-155.647691475845
 10
102.3517198094815
 20
-155.647691475845
 10
102.3558539240638
 20
-155.592569948081
 10
102.3558539240638
 20
-155.5798230947856
 10
102.3622273507115
 20
-155.4654459246753
 10
102.3642944080027
 20
-155.4382296703418
 10
102.3665337200681
 20
-155.3049044750627
 10
102.3665337200681
 20
-155.2856119403453
 10
102.3665337200681
 20
-155.2856119403453
 10
102.3665337200681
 20
-155.082695816264
 10
102.3665337200681
 20
-155.082695816264
 10
102.2268350981412
 20
-155.3324652389447
 10
102.0576809098154
 20
-155.4633788673842
 10
101.9519164784183
 20
-155.5291801911524
 10
101.9519164784183
 20
-155.5291801911524
 10
101.7782836659617
 20
-155.3893093144513
 10
101.7782836659617
 20
-155.3893093144513
 10
101.8671671294811
 20
-155.3386664108181
 10
102.0109998659903
 20
-155.2518500045898
 10
102.148631430626
 20
-155.0572021096732
 10
102.2395819514366
 20
-154.930422595816
 10
102.3052110204306
 20
-154.7864176045326
 10
102.3389729561861
 20
-154.6341443840845
 10
102.110563125514
 20
-154.6362114413757
 10
101.930729141184
 20
-154.6427571227977
 10
101.8354722510168
 20
-154.6448241800888
 10
101.8354722510168
 20
-154.6448241800888
 10
101.8354722510168
 20
-154.4670572530499
 10
101.8354722510168
 20
-154.4670572530499
 10
102.0321872032246
 20
-154.4732584249234
 10
102.3157185616607
 20
-154.4777370490542
 10
102.4659247248176
 20
-154.4777370490542
 10
102.4659247248176
 20
-154.4777370490542
 10
102.679520644903
 20
-154.4777370490542
 10
102.679520644903
 20
-154.4777370490542
 10
102.679520644903
 20
-154.4777370490542
 10
102.679520644903
 20
-154.3699055603659
 10
102.679520644903
 20
-154.3699055603659
 10
102.679520644903
 20
-154.3699055603659
 10
102.5336208511027
 20
-154.3699055603659
 10
102.5336208511027
 20
-154.3699055603659
 10
102.3642944080027
 20
-154.3699055603659
 10
102.1951402196769
 20
-154.3740396749482
 10
102.0280530886423
 20
-154.3802408468216
 10
102.0280530886423
 20
-154.3802408468216
 10
102.0280530886423
 20
-154.2090196012047
 10
102.0280530886423
 20
-154.2090196012047
 10
102.1823933663815
 20
-154.219699397209
 10
102.3686007773592
 20
-154.219699397209
 10
102.5336208511027
 20
-154.219699397209
 10
102.5336208511027
 20
-154.219699397209
 10
102.679520644903
 20
-154.219699397209
 10
102.679520644903
 20
-154.219699397209
 10
102.679520644903
 20
-154.219699397209
 10
102.679520644903
 20
-154.1011881125164
 10
102.679520644903
 20
-154.1011881125164
 10
102.679520644903
 20
-154.1011881125164
 10
102.5484347616893
 20
-154.1011881125164
 10
102.5484347616893
 20
-154.1011881125164
 10
102.5019259726384
 20
-154.1011881125164
 10
102.2988375937829
 20
-154.109456341681
 10
102.2564629193144
 20
-154.109456341681
 10
102.0533745404589
 20
-154.1139349658118
 10
101.9772379302349
 20
-154.116002023103
 10
101.8990342627197
 20
-154.1180690803941
 10
101.8990342627197
 20
-154.1180690803941
 10
101.8990342627197
 20
-153.9341009814817
 10
101.8990342627197
 20
-153.9341009814817
 10
102.0132391780557
 20
-153.9423692106463
 10
102.0576809098154
 20
-153.9423692106463
 10
102.440603273001
 20
-153.9509819493595
 10
102.3770412612981
 20
-153.8555528044181
 10
102.3494804974161
 20
-153.8283365500846
 10
102.3136515043695
 20
-153.7921630474895
 10
102.3136515043695
 20
-153.7921630474895
 10
102.489179119343
 20
-153.709825265392
 10
102.489179119343
 20
-153.709825265392
 10
102.5293144817462
 20
-153.7456542584386
 10
102.5737562135059
 20
-153.7880289329072
 10
102.6478257664387
 20
-153.8979274788866
 10
102.6478257664387
 20
-153.8979274788866
 10
102.5336208511027
 20
-153.9530490066506
 10
102.5336208511027
 20
-153.9530490066506
 10
102.5336208511027
 20
-153.9530490066506
 10
102.5441283923327
 20
-153.9530490066506
 10
102.5441283923327
 20
-153.9530490066506
 10
102.5441283923327
 20
-153.9530490066506
 10
103.0667493774451
 20
-153.9530490066506
 10
103.0667493774451
 20
-153.9530490066506
 10
103.0667493774451
 20
-153.9530490066506
 10
102.971492487278
 20
-153.9086072748909
 10
102.971492487278
 20
-153.9086072748909
 10
102.99905325116
 20
-153.8703667150046
 10
103.0560695814409
 20
-153.7900959901983
 10
103.0708834920274
 20
-153.7160264372654
 10
103.0708834920274
 20
-153.7160264372654
 10
103.2846516668872
 20
-153.7794161941941
 10
103.2846516668872
 20
-153.7794161941941
 10
103.293092150826
 20
-153.7818277610337
 10
103.3142794880603
 20
-153.7921630474895
 10
103.3142794880603
 20
-153.813522639498
 10
103.3142794880603
 20
-153.8514186898358
 10
103.2486504190663
 20
-153.8514186898358
 10
103.2295301391232
 20
-153.8514186898358
 10
103.2190225978932
 20
-153.8703667150046
 10
103.1957682033677
 20
-153.9106743321821
 10
103.1661403821946
 20
-153.9509819493595
 10
103.5659437132578
 20
-153.9444362679375
 10
103.595571534431
 20
-153.9423692106463
 10
103.671708144655
 20
-153.9361680387729
 10
103.671708144655
 20
-153.9361680387729
 10
103.671708144655
 20
-154.1180690803941
 10
103.671708144655
 20
-154.1180690803941
 10
103.6527601194861
 20
-154.1180690803941
 10
103.6272664128953
 20
-154.116002023103
 10
103.4072970661621
 20
-154.1073892843898
 10
103.3564819077546
 20
-154.1053222270987
 10
103.1365125610214
 20
-154.1011881125164
 10
103.0920708292617
 20
-154.1011881125164
 10
103.0920708292617
 20
-154.1011881125164
 10
102.8762355971108
 20
-154.1011881125164
 10
102.8762355971108
 20
-154.1011881125164
 10
102.8762355971108
 20
-154.1011881125164
 10
102.8762355971108
 20
-154.219699397209
 10
102.8762355971108
 20
-154.219699397209
 10
102.8762355971108
 20
-154.219699397209
 10
103.0496961547931
 20
-154.219699397209
 10
103.0496961547931
 20
-154.219699397209
 10
103.2126491712455
 20
-154.219699397209
 10
103.4029906968055
 20
-154.219699397209
 10
103.5595702866101
 20
-154.2090196012047
 10
103.5595702866101
 20
-154.2090196012047
 10
103.5595702866101
 20
-154.3802408468216
 10
103.5595702866101
 20
-154.3802408468216
 10
103.3501084811069
 20
-154.371972617657
 10
103.1533935288992
 20
-154.3699055603659
 10
103.0496961547931
 20
-154.3699055603659
 10
103.0496961547931
 20
-154.3699055603659
 10
102.8762355971108
 20
-154.3699055603659
 10
102.8762355971108
 20
-154.3699055603659
 10
102.8762355971108
 20
-154.3699055603659
 10
102.8762355971108
 20
-154.4777370490542
 10
102.8762355971108
 20
-154.4777370490542
 10
102.8762355971108
 20
-154.4777370490542
 10
103.1068847398483
 20
-154.4777370490542
 10
103.1068847398483
 20
-154.4777370490542
 10
103.2402099351275
 20
-154.4777370490542
 10
103.5278754081458
 20
-154.4732584249234
 10
103.737337213649
 20
-154.4670572530499
 10
103.737337213649
 20
-154.4670572530499
 10
103.737337213649
 20
-154.6448241800888
 10
103.737337213649
 20
-154.6448241800888
 10
103.5447563760235
 20
-154.6382784986668
 10
103.2317694511886
 20
-154.6341443840845
 10
103.1068847398483
 20
-154.6341443840845
 97
        0
 97
        0
 92
        1
 93
        4
 72
     1
 10
103.2719048135917
 20
-154.8901149786386
 11
102.565315729567
 21
-154.8901149786386
 72
     1
 10
102.565315729567
 20
-154.8901149786386
 11
102.565315729567
 21
-154.9979464673269
 72
     1
 10
102.565315729567
 20
-154.9979464673269
 11
103.2719048135917
 21
-154.9979464673269
 72
     1
 10
103.2719048135917
 20
-154.9979464673269
 11
103.2719048135917
 21
-154.8901149786386
 97
        0
 92
        1
 93
        4
 72
     1
 10
103.2719048135917
 20
-155.1230034334415
 11
102.565315729567
 21
-155.1230034334415
 72
     1
 10
102.565315729567
 20
-155.1230034334415
 11
102.565315729567
 21
-155.2370360940033
 72
     1
 10
102.565315729567
 20
-155.2370360940033
 11
103.2719048135917
 21
-155.2370360940033
 72
     1
 10
103.2719048135917
 20
-155.2370360940033
 11
103.2719048135917
 21
-155.1230034334415
 97
        0
 92
        1
 93
        4
 72
     1
 10
103.2719048135917
 20
-155.3662271747001
 11
102.565315729567
 21
-155.3662271747001
 72
     1
 10
102.565315729567
 20
-155.3662271747001
 11
102.565315729567
 21
-155.4802598352619
 72
     1
 10
102.565315729567
 20
-155.4802598352619
 11
103.2719048135917
 21
-155.4802598352619
 72
     1
 10
103.2719048135917
 20
-155.4802598352619
 11
103.2719048135917
 21
-155.3662271747001
 97
        0
 75
     2
 76
     1
 98
        0
  0
SPLINE
  5
1BB
330
19C
100
AcDbEntity
  8
_U+30EC_U+30A4_U+30E4_U+30FC 1
370
     0
100
AcDbSpline
210
0.0
220
0.0
230
1.0
 70
    11
 71
     3
 72
    47
 73
    43
 74
     0
 42
0.0000000001
 43
0.0000000001
 12
1.0
 22
0.0
 32
0.0
 13
1.0
 23
0.0
 33
0.0
 40
0.0
 40
0.0
 40
0.0
 40
0.0
 40
1.0
 40
1.0
 40
1.0
 40
2.0
 40
2.0
 40
2.0
 40
3.0
 40
3.0
 40
3.0
 40
4.0
 40
4.0
 40
4.0
 40
5.0
 40
5.0
 40
5.0
 40
6.0
 40
6.0
 40
6.0
 40
7.0
 40
7.0
 40
7.0
 40
8.0
 40
8.0
 40
8.0
 40
9.0
 40
9.0
 40
9.0
 40
10.0
 40
10.0
 40
10.0
 40
11.0
 40
11.0
 40
11.0
 40
12.0
 40
12.0
 40
12.0
 40
13.0
 40
13.0
 40
13.0
 40
14.0
 40
14.0
 40
14.0
 40
14.0
 10
105.0838527840589
 20
-154.6110622443333
 30
0.0
 10
105.0838527840589
 20
-154.6110622443333
 30
0.0
 10
104.9823947220183
 20
-154.6110622443333
 30
0.0
 10
104.9823947220183
 20
-154.6110622443333
 30
0.0
 10
104.9823947220183
 20
-154.6975341410131
 30
0.0
 10
104.961207384784
 20
-155.0868299308464
 30
0.0
 10
104.7644924325762
 20
-155.3069715323538
 30
0.0
 10
104.6122192121282
 20
-155.4761257206796
 30
0.0
 10
104.4048244639162
 20
-155.5460611590302
 30
0.0
 10
104.3202473697533
 20
-155.5736219229122
 30
0.0
 10
104.3202473697533
 20
-155.5736219229122
 30
0.0
 10
104.1255994748367
 20
-155.4065347918775
 30
0.0
 10
104.1255994748367
 20
-155.4065347918775
 30
0.0
 10
104.222923422295
 20
-155.3937879385821
 30
0.0
 10
104.3984510372684
 20
-155.3703612892824
 30
0.0
 10
104.5867255055373
 20
-155.1822590757878
 30
0.0
 10
104.6607950584702
 20
-155.1102565801461
 30
0.0
 10
104.7644924325762
 20
-154.9707302129934
 30
0.0
 10
104.7644924325762
 20
-154.6110622443333
 30
0.0
 10
104.7644924325762
 20
-154.6110622443333
 30
0.0
 10
104.5338432898388
 20
-154.6110622443333
 30
0.0
 10
104.5338432898388
 20
-154.6110622443333
 30
0.0
 10
104.3478081336353
 20
-154.6110622443333
 30
0.0
 10
104.1616007226575
 20
-154.6151963589157
 30
0.0
 10
103.9753933116798
 20
-154.6300102695022
 30
0.0
 10
103.9753933116798
 20
-154.6300102695022
 30
0.0
 10
103.9753933116798
 20
-154.4098686679948
 30
0.0
 10
103.9753933116798
 20
-154.4098686679948
 30
0.0
 10
104.1636677799487
 20
-154.4246825785813
 30
0.0
 10
104.4492661956759
 20
-154.4291612027122
 30
0.0
 10
104.5338432898388
 20
-154.4291612027122
 30
0.0
 10
104.5338432898388
 20
-154.4291612027122
 30
0.0
 10
105.0838527840589
 20
-154.4291612027122
 30
0.0
 10
105.0838527840589
 20
-154.4291612027122
 30
0.0
 10
105.102973064002
 20
-154.4291612027122
 30
0.0
 10
105.4202663581935
 20
-154.4291612027122
 30
0.0
 10
105.6486761888656
 20
-154.4098686679948
 30
0.0
 10
105.6486761888656
 20
-154.4098686679948
 30
0.0
 10
105.6486761888656
 20
-154.6300102695022
 30
0.0
 10
105.6486761888656
 20
-154.6300102695022
 30
0.0
 10
105.460573975371
 20
-154.6151963589157
 30
0.0
 10
105.2721272523278
 20
-154.6110622443333
 30
0.0
 10
105.0838527840589
 20
-154.6110622443333
 30
0.0
  0
SPLINE
  5
1BC
330
19C
100
AcDbEntity
  8
_U+30EC_U+30A4_U+30E4_U+30FC 1
370
     0
100
AcDbSpline
210
0.0
220
0.0
230
1.0
 70
    11
 71
     3
 72
    29
 73
    25
 74
     0
 42
0.0000000001
 43
0.0000000001
 12
1.0
 22
0.0
 32
0.0
 13
1.0
 23
0.0
 33
0.0
 40
0.0
 40
0.0
 40
0.0
 40
0.0
 40
1.0
 40
1.0
 40
1.0
 40
2.0
 40
2.0
 40
2.0
 40
3.0
 40
3.0
 40
3.0
 40
4.0
 40
4.0
 40
4.0
 40
5.0
 40
5.0
 40
5.0
 40
6.0
 40
6.0
 40
6.0
 40
7.0
 40
7.0
 40
7.0
 40
8.0
 40
8.0
 40
8.0
 40
8.0
 10
104.9823947220183
 20
-154.081895577799
 30
0.0
 10
104.9823947220183
 20
-154.081895577799
 30
0.0
 10
104.6291001800059
 20
-154.081895577799
 30
0.0
 10
104.6291001800059
 20
-154.081895577799
 30
0.0
 10
104.516962321961
 20
-154.081895577799
 30
0.0
 10
104.3774359548084
 20
-154.088441259221
 30
0.0
 10
104.2694322113458
 20
-154.1011881125164
 30
0.0
 10
104.2694322113458
 20
-154.1011881125164
 30
0.0
 10
104.2694322113458
 20
-153.8662326004223
 30
0.0
 10
104.2694322113458
 20
-153.8662326004223
 30
0.0
 10
104.3879434960384
 20
-153.8810465110089
 30
0.0
 10
104.5719115949508
 20
-153.8851806255912
 30
0.0
 10
104.6291001800059
 20
-153.8851806255912
 30
0.0
 10
104.6291001800059
 20
-153.8851806255912
 30
0.0
 10
104.9823947220183
 20
-153.8851806255912
 30
0.0
 10
104.9823947220183
 20
-153.8851806255912
 30
0.0
 10
105.0013427471872
 20
-153.8851806255912
 30
0.0
 10
105.2046033808169
 20
-153.8851806255912
 30
0.0
 10
105.3461968052607
 20
-153.8662326004223
 30
0.0
 10
105.3461968052607
 20
-153.8662326004223
 30
0.0
 10
105.3461968052607
 20
-154.1011881125164
 30
0.0
 10
105.3461968052607
 20
-154.1011881125164
 30
0.0
 10
105.1897894702303
 20
-154.081895577799
 30
0.0
 10
104.999275689896
 20
-154.081895577799
 30
0.0
 10
104.9823947220183
 20
-154.081895577799
 30
0.0
  0
HATCH
  5
1BD
330
19C
100
AcDbEntity
  8
_U+30EC_U+30A4_U+30E4_U+30FC 1
 62
   179
420
  2234388
100
AcDbHatch
 10
0.0
 20
0.0
 30
0.0
210
0.0
220
0.0
230
1.0
  2
SOLID
 70
     1
 71
     0
 91
        2
 92
        1
 93
        1
 72
     4
 94
        3
 73
     0
 74
     1
 95
       47
 96
       43
 40
0.0
 40
0.0
 40
0.0
 40
0.0
 40
1.0
 40
1.0
 40
1.0
 40
2.0
 40
2.0
 40
2.0
 40
3.0
 40
3.0
 40
3.0
 40
4.0
 40
4.0
 40
4.0
 40
5.0
 40
5.0
 40
5.0
 40
6.0
 40
6.0
 40
6.0
 40
7.0
 40
7.0
 40
7.0
 40
8.0
 40
8.0
 40
8.0
 40
9.0
 40
9.0
 40
9.0
 40
10.0
 40
10.0
 40
10.0
 40
11.0
 40
11.0
 40
11.0
 40
12.0
 40
12.0
 40
12.0
 40
13.0
 40
13.0
 40
13.0
 40
14.0
 40
14.0
 40
14.0
 40
14.0
 10
105.0838527840589
 20
-154.6110622443333
 10
105.0838527840589
 20
-154.6110622443333
 10
104.9823947220183
 20
-154.6110622443333
 10
104.9823947220183
 20
-154.6110622443333
 10
104.9823947220183
 20
-154.6975341410131
 10
104.961207384784
 20
-155.0868299308464
 10
104.7644924325762
 20
-155.3069715323538
 10
104.6122192121282
 20
-155.4761257206796
 10
104.4048244639162
 20
-155.5460611590302
 10
104.3202473697533
 20
-155.5736219229122
 10
104.3202473697533
 20
-155.5736219229122
 10
104.1255994748367
 20
-155.4065347918775
 10
104.1255994748367
 20
-155.4065347918775
 10
104.222923422295
 20
-155.3937879385821
 10
104.3984510372684
 20
-155.3703612892824
 10
104.5867255055373
 20
-155.1822590757878
 10
104.6607950584702
 20
-155.1102565801461
 10
104.7644924325762
 20
-154.9707302129934
 10
104.7644924325762
 20
-154.6110622443333
 10
104.7644924325762
 20
-154.6110622443333
 10
104.5338432898388
 20
-154.6110622443333
 10
104.5338432898388
 20
-154.6110622443333
 10
104.3478081336353
 20
-154.6110622443333
 10
104.1616007226575
 20
-154.6151963589157
 10
103.9753933116798
 20
-154.6300102695022
 10
103.9753933116798
 20
-154.6300102695022
 10
103.9753933116798
 20
-154.4098686679948
 10
103.9753933116798
 20
-154.4098686679948
 10
104.1636677799487
 20
-154.4246825785813
 10
104.4492661956759
 20
-154.4291612027122
 10
104.5338432898388
 20
-154.4291612027122
 10
104.5338432898388
 20
-154.4291612027122
 10
105.0838527840589
 20
-154.4291612027122
 10
105.0838527840589
 20
-154.4291612027122
 10
105.102973064002
 20
-154.4291612027122
 10
105.4202663581935
 20
-154.4291612027122
 10
105.6486761888656
 20
-154.4098686679948
 10
105.6486761888656
 20
-154.4098686679948
 10
105.6486761888656
 20
-154.6300102695022
 10
105.6486761888656
 20
-154.6300102695022
 10
105.460573975371
 20
-154.6151963589157
 10
105.2721272523278
 20
-154.6110622443333
 10
105.0838527840589
 20
-154.6110622443333
 97
        0
 97
        0
 92
        1
 93
        1
 72
     4
 94
        3
 73
     0
 74
     1
 95
       29
 96
       25
 40
0.0
 40
0.0
 40
0.0
 40
0.0
 40
1.0
 40
1.0
 40
1.0
 40
2.0
 40
2.0
 40
2.0
 40
3.0
 40
3.0
 40
3.0
 40
4.0
 40
4.0
 40
4.0
 40
5.0
 40
5.0
 40
5.0
 40
6.0
 40
6.0
 40
6.0
 40
7.0
 40
7.0
 40
7.0
 40
8.0
 40
8.0
 40
8.0
 40
8.0
 10
104.9823947220183
 20
-154.081895577799
 10
104.9823947220183
 20
-154.081895577799
 10
104.6291001800059
 20
-154.081895577799
 10
104.6291001800059
 20
-154.081895577799
 10
104.516962321961
 20
-154.081895577799
 10
104.3774359548084
 20
-154.088441259221
 10
104.2694322113458
 20
-154.1011881125164
 10
104.2694322113458
 20
-154.1011881125164
 10
104.2694322113458
 20
-153.8662326004223
 10
104.2694322113458
 20
-153.8662326004223
 10
104.3879434960384
 20
-153.8810465110089
 10
104.5719115949508
 20
-153.8851806255912
 10
104.6291001800059
 20
-153.8851806255912
 10
104.6291001800059
 20
-153.8851806255912
 10
104.9823947220183
 20
-153.8851806255912
 10
104.9823947220183
 20
-153.8851806255912
 10
105.0013427471872
 20
-153.8851806255912
 10
105.2046033808169
 20
-153.8851806255912
 10
105.3461968052607
 20
-153.8662326004223
 10
105.3461968052607
 20
-153.8662326004223
 10
105.3461968052607
 20
-154.1011881125164
 10
105.3461968052607
 20
-154.1011881125164
 10
105.1897894702303
 20
-154.081895577799
 10
104.999275689896
 20
-154.081895577799
 10
104.9823947220183
 20
-154.081895577799
 97
        0
 97
        0
 75
     2
 76
     1
 98
        0
  0
SPLINE
  5
1BE
330
19C
100
AcDbEntity
  8
_U+30EC_U+30A4_U+30E4_U+30FC 1
370
     0
100
AcDbSpline
210
0.0
220
0.0
230
1.0
 70
    11
 71
     3
 72
    29
 73
    25
 74
     0
 42
0.0000000001
 43
0.0000000001
 12
1.0
 22
0.0
 32
0.0
 13
1.0
 23
0.0
 33
0.0
 40
0.0
 40
0.0
 40
0.0
 40
0.0
 40
1.0
 40
1.0
 40
1.0
 40
2.0
 40
2.0
 40
2.0
 40
3.0
 40
3.0
 40
3.0
 40
4.0
 40
4.0
 40
4.0
 40
5.0
 40
5.0
 40
5.0
 40
6.0
 40
6.0
 40
6.0
 40
7.0
 40
7.0
 40
7.0
 40
8.0
 40
8.0
 40
8.0
 40
8.0
 10
106.9316297475727
 20
-154.7736707512371
 30
0.0
 10
106.9316297475727
 20
-154.7736707512371
 30
0.0
 10
106.4472493223465
 20
-154.7736707512371
 30
0.0
 10
106.4472493223465
 20
-154.7736707512371
 30
0.0
 10
106.4196885584645
 20
-154.7736707512371
 30
0.0
 10
106.1027397738215
 20
-154.7736707512371
 30
0.0
 10
105.8912109110272
 20
-154.799164457828
 30
0.0
 10
105.8912109110272
 20
-154.799164457828
 30
0.0
 10
105.8912109110272
 20
-154.5686875698648
 30
0.0
 10
105.8912109110272
 20
-154.5686875698648
 30
0.0
 10
106.0496853033487
 20
-154.591769709616
 30
0.0
 10
106.2398545741345
 20
-154.5941812764556
 30
0.0
 10
106.4472493223465
 20
-154.5941812764556
 30
0.0
 10
106.4472493223465
 20
-154.5941812764556
 30
0.0
 10
106.9316297475727
 20
-154.5941812764556
 30
0.0
 10
106.9316297475727
 20
-154.5941812764556
 30
0.0
 10
107.1180094133247
 20
-154.5941812764556
 30
0.0
 10
107.3043890790767
 20
-154.591769709616
 30
0.0
 10
107.488357177989
 20
-154.5686875698648
 30
0.0
 10
107.488357177989
 20
-154.5686875698648
 30
0.0
 10
107.488357177989
 20
-154.799164457828
 30
0.0
 10
107.488357177989
 20
-154.799164457828
 30
0.0
 10
107.3043890790767
 20
-154.7760823180768
 30
0.0
 10
107.0566867136872
 20
-154.7736707512371
 30
0.0
 10
106.9316297475727
 20
-154.7736707512371
 30
0.0
  0
HATCH
  5
1BF
330
19C
100
AcDbEntity
  8
_U+30EC_U+30A4_U+30E4_U+30FC 1
 62
   179
420
  2234388
100
AcDbHatch
 10
0.0
 20
0.0
 30
0.0
210
0.0
220
0.0
230
1.0
  2
SOLID
 70
     1
 71
     0
 91
        1
 92
        1
 93
        1
 72
     4
 94
        3
 73
     0
 74
     1
 95
       29
 96
       25
 40
0.0
 40
0.0
 40
0.0
 40
0.0
 40
1.0
 40
1.0
 40
1.0
 40
2.0
 40
2.0
 40
2.0
 40
3.0
 40
3.0
 40
3.0
 40
4.0
 40
4.0
 40
4.0
 40
5.0
 40
5.0
 40
5.0
 40
6.0
 40
6.0
 40
6.0
 40
7.0
 40
7.0
 40
7.0
 40
8.0
 40
8.0
 40
8.0
 40
8.0
 10
106.9316297475727
 20
-154.7736707512371
 10
106.9316297475727
 20
-154.7736707512371
 10
106.4472493223465
 20
-154.7736707512371
 10
106.4472493223465
 20
-154.7736707512371
 10
106.4196885584645
 20
-154.7736707512371
 10
106.1027397738215
 20
-154.7736707512371
 10
105.8912109110272
 20
-154.799164457828
 10
105.8912109110272
 20
-154.799164457828
 10
105.8912109110272
 20
-154.5686875698648
 10
105.8912109110272
 20
-154.5686875698648
 10
106.0496853033487
 20
-154.591769709616
 10
106.2398545741345
 20
-154.5941812764556
 10
106.4472493223465
 20
-154.5941812764556
 10
106.4472493223465
 20
-154.5941812764556
 10
106.9316297475727
 20
-154.5941812764556
 10
106.9316297475727
 20
-154.5941812764556
 10
107.1180094133247
 20
-154.5941812764556
 10
107.3043890790767
 20
-154.591769709616
 10
107.488357177989
 20
-154.5686875698648
 10
107.488357177989
 20
-154.5686875698648
 10
107.488357177989
 20
-154.799164457828
 10
107.488357177989
 20
-154.799164457828
 10
107.3043890790767
 20
-154.7760823180768
 10
107.0566867136872
 20
-154.7736707512371
 10
106.9316297475727
 20
-154.7736707512371
 97
        0
 97
        0
 75
     2
 76
     1
 98
        0
  0
SPLINE
  5
1C0
330
19C
100
AcDbEntity
  8
_U+30EC_U+30A4_U+30E4_U+30FC 1
370
     0
100
AcDbSpline
210
0.0
220
0.0
230
1.0
 70
    11
 71
     3
 72
    44
 73
    40
 74
     0
 42
0.0000000001
 43
0.0000000001
 12
1.0
 22
0.0
 32
0.0
 13
1.0
 23
0.0
 33
0.0
 40
0.0
 40
0.0
 40
0.0
 40
0.0
 40
1.0
 40
1.0
 40
1.0
 40
2.0
 40
2.0
 40
2.0
 40
3.0
 40
3.0
 40
3.0
 40
4.0
 40
4.0
 40
4.0
 40
5.0
 40
5.0
 40
5.0
 40
6.0
 40
6.0
 40
6.0
 40
7.0
 40
7.0
 40
7.0
 40
8.0
 40
8.0
 40
8.0
 40
9.0
 40
9.0
 40
9.0
 40
10.0
 40
10.0
 40
10.0
 40
11.0
 40
11.0
 40
11.0
 40
12.0
 40
12.0
 40
12.0
 40
13.0
 40
13.0
 40
13.0
 40
13.0
 10
109.1454481063942
 20
-154.3357991150619
 30
0.0
 10
109.0334825031236
 20
-154.7040798224351
 30
0.0
 10
108.9828395994904
 20
-154.8625542147566
 30
0.0
 10
108.7857801377341
 20
-155.1123236374372
 30
0.0
 10
108.6018120388218
 20
-155.3428005254004
 30
0.0
 10
108.3647894694366
 20
-155.5291801911524
 30
0.0
 10
108.0857367351313
 20
-155.6221977692542
 30
0.0
 10
108.0857367351313
 20
-155.6221977692542
 30
0.0
 10
107.8931558975059
 20
-155.4423637849241
 30
0.0
 10
107.8931558975059
 20
-155.4423637849241
 30
0.0
 10
108.5342881673109
 20
-155.2900905644761
 30
0.0
 10
108.8643283147978
 20
-154.7337076436083
 30
0.0
 10
108.9277180717264
 20
-154.2937689501418
 30
0.0
 10
108.9277180717264
 20
-154.2937689501418
 30
0.0
 10
108.1618733453554
 20
-154.2937689501418
 30
0.0
 10
108.1618733453554
 20
-154.2937689501418
 30
0.0
 10
108.0688557672536
 20
-154.2937689501418
 30
0.0
 10
107.8845431587928
 20
-154.2979030647242
 30
0.0
 10
107.7281358237624
 20
-154.316851089893
 30
0.0
 10
107.7281358237624
 20
-154.316851089893
 30
0.0
 10
107.7281358237624
 20
-154.0967094883856
 30
0.0
 10
107.7281358237624
 20
-154.0967094883856
 30
0.0
 10
107.8149522299907
 20
-154.1180690803941
 30
0.0
 10
108.066444200414
 20
-154.1180690803941
 30
0.0
 10
108.1663519694862
 20
-154.1180690803941
 30
0.0
 10
108.1663519694862
 20
-154.1180690803941
 30
0.0
 10
108.5976779242395
 20
-154.1180690803941
 30
0.0
 10
108.5976779242395
 20
-154.1180690803941
 30
0.0
 10
108.6400525987081
 20
-154.1180690803941
 30
0.0
 10
108.8746636012536
 20
-154.116002023103
 30
0.0
 10
108.9129041611398
 20
-154.109456341681
 30
0.0
 10
108.9552788356084
 20
-154.1032551698075
 30
0.0
 10
108.9573458928996
 20
-154.1011881125164
 30
0.0
 10
109.018668592537
 20
-154.0608804953389
 30
0.0
 10
109.018668592537
 20
-154.0608804953389
 30
0.0
 10
109.2067708060316
 20
-154.2152207730782
 30
0.0
 10
109.2067708060316
 20
-154.2152207730782
 30
0.0
 10
109.1771429848585
 20
-154.2448485942513
 30
0.0
 10
109.1626735838204
 20
-154.2765434727156
 30
0.0
 10
109.1454481063942
 20
-154.3357991150619
 30
0.0
  0
SPLINE
  5
1C1
330
19C
100
AcDbEntity
  8
_U+30EC_U+30A4_U+30E4_U+30FC 1
370
     0
100
AcDbSpline
210
0.0
220
0.0
230
1.0
 70
    11
 71
     3
 72
    17
 73
    13
 74
     0
 42
0.0000000001
 43
0.0000000001
 12
1.0
 22
0.0
 32
0.0
 13
1.0
 23
0.0
 33
0.0
 40
0.0
 40
0.0
 40
0.0
 40
0.0
 40
1.0
 40
1.0
 40
1.0
 40
2.0
 40
2.0
 40
2.0
 40
3.0
 40
3.0
 40
3.0
 40
4.0
 40
4.0
 40
4.0
 40
4.0
 10
109.3549099118974
 20
-154.137017105563
 30
0.0
 10
109.2281303980402
 20
-154.137017105563
 30
0.0
 10
109.1265000812253
 20
-154.0353867887481
 30
0.0
 10
109.1265000812253
 20
-153.9086072748909
 30
0.0
 10
109.1265000812253
 20
-153.7818277610337
 30
0.0
 10
109.2281303980402
 20
-153.6781303869277
 30
0.0
 10
109.3549099118974
 20
-153.6781303869277
 30
0.0
 10
109.4820339353031
 20
-153.6781303869277
 30
0.0
 10
109.5857313094091
 20
-153.7818277610337
 30
0.0
 10
109.5857313094091
 20
-153.9086072748909
 30
0.0
 10
109.5857313094091
 20
-154.0353867887481
 30
0.0
 10
109.4820339353031
 20
-154.137017105563
 30
0.0
 10
109.3549099118974
 20
-154.137017105563
 30
0.0
  0
SPLINE
  5
1C2
330
19C
100
AcDbEntity
  8
_U+30EC_U+30A4_U+30E4_U+30FC 1
370
     0
100
AcDbSpline
210
0.0
220
0.0
230
1.0
 70
    11
 71
     3
 72
    17
 73
    13
 74
     0
 42
0.0000000001
 43
0.0000000001
 12
1.0
 22
0.0
 32
0.0
 13
1.0
 23
0.0
 33
0.0
 40
0.0
 40
0.0
 40
0.0
 40
0.0
 40
1.0
 40
1.0
 40
1.0
 40
2.0
 40
2.0
 40
2.0
 40
3.0
 40
3.0
 40
3.0
 40
4.0
 40
4.0
 40
4.0
 40
4.0
 10
109.3528428546062
 20
-153.806976958076
 30
0.0
 10
109.2977213268422
 20
-153.806976958076
 30
0.0
 10
109.253624104631
 20
-153.8514186898358
 30
0.0
 10
109.253624104631
 20
-153.9065402175998
 30
0.0
 10
109.253624104631
 20
-153.9637288026549
 30
0.0
 10
109.2977213268422
 20
-154.0123046489969
 30
0.0
 10
109.3569769691885
 20
-154.0123046489969
 30
0.0
 10
109.4162326115348
 20
-154.0123046489969
 30
0.0
 10
109.4565402287123
 20
-153.9613172358152
 30
0.0
 10
109.4565402287123
 20
-153.9086072748909
 30
0.0
 10
109.4565402287123
 20
-153.8514186898358
 30
0.0
 10
109.4100314396614
 20
-153.806976958076
 30
0.0
 10
109.3528428546062
 20
-153.806976958076
 30
0.0
  0
HATCH
  5
1C3
330
19C
100
AcDbEntity
  8
_U+30EC_U+30A4_U+30E4_U+30FC 1
 62
   179
420
  2234388
100
AcDbHatch
 10
0.0
 20
0.0
 30
0.0
210
0.0
220
0.0
230
1.0
  2
SOLID
 70
     1
 71
     0
 91
        3
 92
        1
 93
        1
 72
     4
 94
        3
 73
     0
 74
     1
 95
       44
 96
       40
 40
0.0
 40
0.0
 40
0.0
 40
0.0
 40
1.0
 40
1.0
 40
1.0
 40
2.0
 40
2.0
 40
2.0
 40
3.0
 40
3.0
 40
3.0
 40
4.0
 40
4.0
 40
4.0
 40
5.0
 40
5.0
 40
5.0
 40
6.0
 40
6.0
 40
6.0
 40
7.0
 40
7.0
 40
7.0
 40
8.0
 40
8.0
 40
8.0
 40
9.0
 40
9.0
 40
9.0
 40
10.0
 40
10.0
 40
10.0
 40
11.0
 40
11.0
 40
11.0
 40
12.0
 40
12.0
 40
12.0
 40
13.0
 40
13.0
 40
13.0
 40
13.0
 10
109.1454481063942
 20
-154.3357991150619
 10
109.0334825031236
 20
-154.7040798224351
 10
108.9828395994904
 20
-154.8625542147566
 10
108.7857801377341
 20
-155.1123236374372
 10
108.6018120388218
 20
-155.3428005254004
 10
108.3647894694366
 20
-155.5291801911524
 10
108.0857367351313
 20
-155.6221977692542
 10
108.0857367351313
 20
-155.6221977692542
 10
107.8931558975059
 20
-155.4423637849241
 10
107.8931558975059
 20
-155.4423637849241
 10
108.5342881673109
 20
-155.2900905644761
 10
108.8643283147978
 20
-154.7337076436083
 10
108.9277180717264
 20
-154.2937689501418
 10
108.9277180717264
 20
-154.2937689501418
 10
108.1618733453554
 20
-154.2937689501418
 10
108.1618733453554
 20
-154.2937689501418
 10
108.0688557672536
 20
-154.2937689501418
 10
107.8845431587928
 20
-154.2979030647242
 10
107.7281358237624
 20
-154.316851089893
 10
107.7281358237624
 20
-154.316851089893
 10
107.7281358237624
 20
-154.0967094883856
 10
107.7281358237624
 20
-154.0967094883856
 10
107.8149522299907
 20
-154.1180690803941
 10
108.066444200414
 20
-154.1180690803941
 10
108.1663519694862
 20
-154.1180690803941
 10
108.1663519694862
 20
-154.1180690803941
 10
108.5976779242395
 20
-154.1180690803941
 10
108.5976779242395
 20
-154.1180690803941
 10
108.6400525987081
 20
-154.1180690803941
 10
108.8746636012536
 20
-154.116002023103
 10
108.9129041611398
 20
-154.109456341681
 10
108.9552788356084
 20
-154.1032551698075
 10
108.9573458928996
 20
-154.1011881125164
 10
109.018668592537
 20
-154.0608804953389
 10
109.018668592537
 20
-154.0608804953389
 10
109.2067708060316
 20
-154.2152207730782
 10
109.2067708060316
 20
-154.2152207730782
 10
109.1771429848585
 20
-154.2448485942513
 10
109.1626735838204
 20
-154.2765434727156
 10
109.1454481063942
 20
-154.3357991150619
 97
        0
 97
        0
 92
        1
 93
        1
 72
     4
 94
        3
 73
     0
 74
     1
 95
       17
 96
       13
 40
0.0
 40
0.0
 40
0.0
 40
0.0
 40
1.0
 40
1.0
 40
1.0
 40
2.0
 40
2.0
 40
2.0
 40
3.0
 40
3.0
 40
3.0
 40
4.0
 40
4.0
 40
4.0
 40
4.0
 10
109.3549099118974
 20
-154.137017105563
 10
109.2281303980402
 20
-154.137017105563
 10
109.1265000812253
 20
-154.0353867887481
 10
109.1265000812253
 20
-153.9086072748909
 10
109.1265000812253
 20
-153.7818277610337
 10
109.2281303980402
 20
-153.6781303869277
 10
109.3549099118974
 20
-153.6781303869277
 10
109.4820339353031
 20
-153.6781303869277
 10
109.5857313094091
 20
-153.7818277610337
 10
109.5857313094091
 20
-153.9086072748909
 10
109.5857313094091
 20
-154.0353867887481
 10
109.4820339353031
 20
-154.137017105563
 10
109.3549099118974
 20
-154.137017105563
 97
        0
 97
        0
 92
        1
 93
        1
 72
     4
 94
        3
 73
     0
 74
     1
 95
       17
 96
       13
 40
0.0
 40
0.0
 40
0.0
 40
0.0
 40
1.0
 40
1.0
 40
1.0
 40
2.0
 40
2.0
 40
2.0
 40
3.0
 40
3.0
 40
3.0
 40
4.0
 40
4.0
 40
4.0
 40
4.0
 10
109.3528428546062
 20
-153.806976958076
 10
109.2977213268422
 20
-153.806976958076
 10
109.253624104631
 20
-153.8514186898358
 10
109.253624104631
 20
-153.9065402175998
 10
109.253624104631
 20
-153.9637288026549
 10
109.2977213268422
 20
-154.0123046489969
 10
109.3569769691885
 20
-154.0123046489969
 10
109.4162326115348
 20
-154.0123046489969
 10
109.4565402287123
 20
-153.9613172358152
 10
109.4565402287123
 20
-153.9086072748909
 10
109.4565402287123
 20
-153.8514186898358
 10
109.4100314396614
 20
-153.806976958076
 10
109.3528428546062
 20
-153.806976958076
 97
        0
 97
        0
 75
     2
 76
     1
 98
        0
  0
ENDBLK
  5
19F
330
19C
100
AcDbEntity
  8
0
100
AcDbBlockEnd
  0
ENDSEC
  0
SECTION
  2
ENTITIES
  0
SPLINE
  5
41
330
1F
100
AcDbEntity
  8
_U+30EC_U+30A4_U+30E4_U+30FC 1
 62
   179
420
  2234388
370
     9
100
AcDbSpline
210
0.0
220
0.0
230
1.0
 70
    11
 71
     3
 72
    17
 73
    13
 74
     0
 42
0.0000000001
 43
0.0000000001
 12
1.0
 22
0.0
 32
0.0
 13
1.0
 23
0.0
 33
0.0
 40
0.0
 40
0.0
 40
0.0
 40
0.0
 40
1.0
 40
1.0
 40
1.0
 40
2.0
 40
2.0
 40
2.0
 40
3.0
 40
3.0
 40
3.0
 40
4.0
 40
4.0
 40
4.0
 40
4.0
 10
94.7559356028708
 20
-163.7268925575383
 30
0.0
 10
94.7559356028708
 20
-163.7819279579152
 30
0.0
 10
94.80073799306415
 20
-163.8267303481085
 30
0.0
 10
94.85576801047931
 20
-163.8267303481085
 30
0.0
 10
94.91080341085618
 20
-163.8267303481085
 30
0.0
 10
94.95560580104951
 20
-163.7819279579152
 30
0.0
 10
94.95560580104951
 20
-163.7268925575383
 30
0.0
 10
94.95560580104951
 20
-163.6718625401232
 30
0.0
 10
94.91080341085618
 20
-163.6270601499298
 30
0.0
 10
94.85576801047931
 20
-163.6270601499298
 30
0.0
 10
94.80073799306415
 20
-163.6270601499298
 30
0.0
 10
94.7559356028708
 20
-163.6718625401232
 30
0.0
 10
94.7559356028708
 20
-163.7268925575383
 30
0.0
  0
SPLINE
  5
42
330
1F
100
AcDbEntity
  8
_U+30EC_U+30A4_U+30E4_U+30FC 1
 62
   179
420
  2234388
370
     9
100
AcDbSpline
210
0.0
220
0.0
230
1.0
 70
    11
 71
     3
 72
    17
 73
    13
 74
     0
 42
0.0000000001
 43
0.0000000001
 12
1.0
 22
0.0
 32
0.0
 13
1.0
 23
0.0
 33
0.0
 40
0.0
 40
0.0
 40
0.0
 40
0.0
 40
1.0
 40
1.0
 40
1.0
 40
2.0
 40
2.0
 40
2.0
 40
3.0
 40
3.0
 40
3.0
 40
4.0
 40
4.0
 40
4.0
 40
4.0
 10
84.75584886339357
 20
-163.7268925575383
 30
0.0
 10
84.75584886339357
 20
-163.7819279579152
 30
0.0
 10
84.80065125358689
 20
-163.8267303481085
 30
0.0
 10
84.85568396248291
 20
-163.8267303481085
 30
0.0
 10
84.91142183936107
 20
-163.8267303481085
 30
0.0
 10
84.95622422955441
 20
-163.7819279579152
 30
0.0
 10
84.95622422955441
 20
-163.7268925575383
 30
0.0
 10
84.95622422955441
 20
-163.6718625401232
 30
0.0
 10
84.91142183936107
 20
-163.6270601499298
 30
0.0
 10
84.85568396248291
 20
-163.6270601499298
 30
0.0
 10
84.80065125358689
 20
-163.6270601499298
 30
0.0
 10
84.75584886339357
 20
-163.6718625401232
 30
0.0
 10
84.75584886339357
 20
-163.7268925575383
 30
0.0
  0
POLYLINE
  5
43
330
1F
100
AcDbEntity
  8
_U+30EC_U+30A4_U+30E4_U+30FC 1
 62
   179
420
  2234388
370
     9
100
AcDb2dPolyline
 66
     1
 10
0.0
 20
0.0
 30
0.0
  0
VERTEX
  5
44
330
43
100
AcDbEntity
  8
_U+30EC_U+30A4_U+30E4_U+30FC 1
 62
   179
420
  2234388
370
     9
100
AcDbVertex
100
AcDb2dVertex
 10
84.85575663246581
 20
-146.0711065562964
 30
0.0
  0
VERTEX
  5
45
330
43
100
AcDbEntity
  8
_U+30EC_U+30A4_U+30E4_U+30FC 1
 62
   179
420
  2234388
370
     9
100
AcDbVertex
100
AcDb2dVertex
 10
84.85575663246581
 20
-164.7270576065233
 30
0.0
  0
SEQEND
  5
46
330
43
100
AcDbEntity
  8
_U+30EC_U+30A4_U+30E4_U+30FC 1
 62
   179
420
  2234388
370
     9
  0
POLYLINE
  5
47
330
1F
100
AcDbEntity
  8
_U+30EC_U+30A4_U+30E4_U+30FC 1
 62
   179
420
  2234388
370
     9
100
AcDb2dPolyline
 66
     1
 10
0.0
 20
0.0
 30
0.0
  0
VERTEX
  5
48
330
47
100
AcDbEntity
  8
_U+30EC_U+30A4_U+30E4_U+30FC 1
 62
   179
420
  2234388
370
     9
100
AcDbVertex
100
AcDb2dVertex
 10
84.85575663246581
 20
-163.7268925575383
 30
0.0
  0
VERTEX
  5
49
330
47
100
AcDbEntity
  8
_U+30EC_U+30A4_U+30E4_U+30FC 1
 62
   179
420
  2234388
370
     9
100
AcDbVertex
100
AcDb2dVertex
 10
94.85594564821527
 20
-163.7268925575383
 30
0.0
  0
SEQEND
  5
4A
330
47
100
AcDbEntity
  8
_U+30EC_U+30A4_U+30E4_U+30FC 1
 62
   179
420
  2234388
370
     9
  0
POLYLINE
  5
4B
330
1F
100
AcDbEntity
  8
_U+30EC_U+30A4_U+30E4_U+30FC 1
 62
   179
420
  2234388
370
     9
100
AcDb2dPolyline
 66
     1
 10
0.0
 20
0.0
 30
0.0
  0
VERTEX
  5
4C
330
4B
100
AcDbEntity
  8
_U+30EC_U+30A4_U+30E4_U+30FC 1
 62
   179
420
  2234388
370
     9
100
AcDbVertex
100
AcDb2dVertex
 10
94.85584337194305
 20
-146.0711065562964
 30
0.0
  0
VERTEX
  5
4D
330
4B
100
AcDbEntity
  8
_U+30EC_U+30A4_U+30E4_U+30FC 1
 62
   179
420
  2234388
370
     9
100
AcDbVertex
100
AcDb2dVertex
 10
94.85584337194305
 20
-164.7270576065233
 30
0.0
  0
SEQEND
  5
4E
330
4B
100
AcDbEntity
  8
_U+30EC_U+30A4_U+30E4_U+30FC 1
 62
   179
420
  2234388
370
     9
  0
INSERT
  5
50
330
1F
100
AcDbEntity
  8
_U+30EC_U+30A4_U+30E4_U+30FC 1
100
AcDbBlockReference
  2
block 2
 10
0.0
 20
0.0
 30
0.0
  0
POLYLINE
  5
58
330
1F
100
AcDbEntity
  8
_U+30EC_U+30A4_U+30E4_U+30FC 1
 62
   179
420
  2234388
370
    25
100
AcDb2dPolyline
 66
     1
 10
0.0
 20
0.0
 30
0.0
  0
VERTEX
  5
59
330
58
100
AcDbEntity
  8
_U+30EC_U+30A4_U+30E4_U+30FC 1
 62
   179
420
  2234388
370
    25
100
AcDbVertex
100
AcDb2dVertex
 10
85.05352395368509
 20
-138.6765589897178
 30
0.0
  0
VERTEX
  5
5A
330
58
100
AcDbEntity
  8
_U+30EC_U+30A4_U+30E4_U+30FC 1
 62
   179
420
  2234388
370
    25
100
AcDbVertex
100
AcDb2dVertex
 10
84.84079738191345
 20
-139.1609286490205
 30
0.0
  0
VERTEX
  5
5B
330
58
100
AcDbEntity
  8
_U+30EC_U+30A4_U+30E4_U+30FC 1
 62
   179
420
  2234388
370
    25
100
AcDbVertex
100
AcDb2dVertex
 10
85.02812175744306
 20
-139.6548153846013
 30
0.0
  0
VERTEX
  5
5C
330
58
100
AcDbEntity
  8
_U+30EC_U+30A4_U+30E4_U+30FC 1
 62
   179
420
  2234388
370
    25
100
AcDbVertex
100
AcDb2dVertex
 10
84.81575046114334
 20
-140.1395295534525
 30
0.0
  0
VERTEX
  5
5D
330
58
100
AcDbEntity
  8
_U+30EC_U+30A4_U+30E4_U+30FC 1
 62
   179
420
  2234388
370
    25
100
AcDbVertex
100
AcDb2dVertex
 10
85.00272225268189
 20
-140.6348373909209
 30
0.0
  0
VERTEX
  5
5E
330
58
100
AcDbEntity
  8
_U+30EC_U+30A4_U+30E4_U+30FC 1
 62
   179
420
  2234388
370
    25
100
AcDbVertex
100
AcDb2dVertex
 10
84.7899983723911
 20
-141.1195515597722
 30
0.0
  0
VERTEX
  5
5F
330
58
100
AcDbEntity
  8
_U+30EC_U+30A4_U+30E4_U+30FC 1
 62
   179
420
  2234388
370
    25
100
AcDbVertex
100
AcDb2dVertex
 10
84.97732274792071
 20
-141.6141488462968
 30
0.0
  0
VERTEX
  5
60
330
58
100
AcDbEntity
  8
_U+30EC_U+30A4_U+30E4_U+30FC 1
 62
   179
420
  2234388
370
    25
100
AcDbVertex
100
AcDb2dVertex
 10
84.76495145162099
 20
-142.0967421282399
 30
0.0
  0
VERTEX
  5
61
330
58
100
AcDbEntity
  8
_U+30EC_U+30A4_U+30E4_U+30FC 1
 62
   179
420
  2234388
370
    25
100
AcDbVertex
100
AcDb2dVertex
 10
84.95192324315954
 20
-142.5909841392926
 30
0.0
  0
VERTEX
  5
62
330
58
100
AcDbEntity
  8
_U+30EC_U+30A4_U+30E4_U+30FC 1
 62
   179
420
  2234388
370
    25
100
AcDbVertex
100
AcDb2dVertex
 10
84.7391966713879
 20
-143.0753537985953
 30
0.0
  0
VERTEX
  5
63
330
58
100
AcDbEntity
  8
_U+30EC_U+30A4_U+30E4_U+30FC 1
 62
   179
420
  2234388
370
    25
100
AcDbVertex
100
AcDb2dVertex
 10
84.92652373839836
 20
-143.5699403191965
 30
0.0
  0
VERTEX
  5
64
330
58
100
AcDbEntity
  8
_U+30EC_U+30A4_U+30E4_U+30FC 1
 62
   179
420
  2234388
370
    25
100
AcDbVertex
100
AcDb2dVertex
 10
84.71414975061779
 20
-144.0535994275554
 30
0.0
  0
VERTEX
  5
65
330
58
100
AcDbEntity
  8
_U+30EC_U+30A4_U+30E4_U+30FC 1
 62
   179
420
  2234388
370
    25
100
AcDbVertex
100
AcDb2dVertex
 10
84.90112154215635
 20
-144.5478414386081
 30
0.0
  0
VERTEX
  5
66
330
58
100
AcDbEntity
  8
_U+30EC_U+30A4_U+30E4_U+30FC 1
 62
   179
420
  2234388
370
    25
100
AcDbVertex
100
AcDb2dVertex
 10
84.68839766186555
 20
-145.0322057149491
 30
0.0
  0
VERTEX
  5
67
330
58
100
AcDbEntity
  8
_U+30EC_U+30A4_U+30E4_U+30FC 1
 62
   179
420
  2234388
370
    25
100
AcDbVertex
100
AcDb2dVertex
 10
84.87572203739516
 20
-145.5264477260017
 30
0.0
  0
VERTEX
  5
68
330
58
100
AcDbEntity
  8
_U+30EC_U+30A4_U+30E4_U+30FC 1
 62
   179
420
  2234388
370
    25
100
AcDbVertex
100
AcDb2dVertex
 10
84.66299815710438
 20
-146.0104567268709
 30
0.0
  0
VERTEX
  5
69
330
58
100
AcDbEntity
  8
_U+30EC_U+30A4_U+30E4_U+30FC 1
 62
   179
420
  2234388
370
    25
100
AcDbVertex
100
AcDb2dVertex
 10
84.850322532634
 20
-146.5054039059057
 30
0.0
  0
VERTEX
  5
6A
330
58
100
AcDbEntity
  8
_U+30EC_U+30A4_U+30E4_U+30FC 1
 62
   179
420
  2234388
370
    25
100
AcDbVertex
100
AcDb2dVertex
 10
84.63759865234353
 20
-146.9901234577189
 30
0.0
  0
VERTEX
  5
6B
330
58
100
AcDbEntity
  8
_U+30EC_U+30A4_U+30E4_U+30FC 1
 62
   179
420
  2234388
370
    25
100
AcDbVertex
100
AcDb2dVertex
 10
84.82492302787281
 20
-147.4843654687713
 30
0.0
  0
VERTEX
  5
6C
330
58
100
AcDbEntity
  8
_U+30EC_U+30A4_U+30E4_U+30FC 1
 62
   179
420
  2234388
370
    25
100
AcDbVertex
100
AcDb2dVertex
 10
84.61219645610119
 20
-147.9680245771302
 30
0.0
  0
VERTEX
  5
6D
330
58
100
AcDbEntity
  8
_U+30EC_U+30A4_U+30E4_U+30FC 1
 62
   179
420
  2234388
370
    25
100
AcDbVertex
100
AcDb2dVertex
 10
84.79952352311165
 20
-148.462616480693
 30
0.0
  0
VERTEX
  5
6E
330
58
100
AcDbEntity
  8
_U+30EC_U+30A4_U+30E4_U+30FC 1
 62
   179
420
  2234388
370
    25
100
AcDbVertex
100
AcDb2dVertex
 10
84.58679695134
 20
-148.9469807570341
 30
0.0
  0
VERTEX
  5
6F
330
58
100
AcDbEntity
  8
_U+30EC_U+30A4_U+30E4_U+30FC 1
 62
   179
420
  2234388
370
    25
100
AcDbVertex
100
AcDb2dVertex
 10
84.77412132686962
 20
-149.4419279360689
 30
0.0
  0
VERTEX
  5
70
330
58
100
AcDbEntity
  8
_U+30EC_U+30A4_U+30E4_U+30FC 1
 62
   179
420
  2234388
370
    25
100
AcDbVertex
100
AcDb2dVertex
 10
84.56139744657884
 20
-149.9269973803921
 30
0.0
  0
VERTEX
  5
71
330
58
100
AcDbEntity
  8
_U+30EC_U+30A4_U+30E4_U+30FC 1
 62
   179
420
  2234388
370
    25
100
AcDbVertex
100
AcDb2dVertex
 10
84.74836923811738
 20
-150.4222944519371
 30
0.0
  0
VERTEX
  5
72
330
58
100
AcDbEntity
  8
_U+30EC_U+30A4_U+30E4_U+30FC 1
 62
   179
420
  2234388
370
    25
100
AcDbVertex
100
AcDb2dVertex
 10
84.53599794181767
 20
-150.905953560296
 30
0.0
  0
VERTEX
  5
73
330
58
100
AcDbEntity
  8
_U+30EC_U+30A4_U+30E4_U+30FC 1
 62
   179
420
  2234388
370
    25
100
AcDbVertex
100
AcDb2dVertex
 10
84.72296973335621
 20
-151.4005508468206
 30
0.0
  0
VERTEX
  5
74
330
58
100
AcDbEntity
  8
_U+30EC_U+30A4_U+30E4_U+30FC 1
 62
   179
420
  2234388
370
    25
100
AcDbVertex
100
AcDb2dVertex
 10
84.51059843705649
 20
-151.8856202911437
 30
0.0
  0
VERTEX
  5
75
330
58
100
AcDbEntity
  8
_U+30EC_U+30A4_U+30E4_U+30FC 1
 62
   179
420
  2234388
370
    25
100
AcDbVertex
100
AcDb2dVertex
 10
84.69757022859504
 20
-152.3819778061428
 30
0.0
  0
VERTEX
  5
76
330
58
100
AcDbEntity
  8
_U+30EC_U+30A4_U+30E4_U+30FC 1
 62
   179
420
  2234388
370
    25
100
AcDbVertex
100
AcDb2dVertex
 10
84.48519893229532
 20
-152.8677524184481
 30
0.0
  0
VERTEX
  5
77
330
58
100
AcDbEntity
  8
_U+30EC_U+30A4_U+30E4_U+30FC 1
 62
   179
420
  2234388
370
    25
100
AcDbVertex
100
AcDb2dVertex
 10
84.67181813984278
 20
-153.3644652089191
 30
0.0
  0
VERTEX
  5
78
330
58
100
AcDbEntity
  8
_U+30EC_U+30A4_U+30E4_U+30FC 1
 62
   179
420
  2234388
370
    25
100
AcDbVertex
100
AcDb2dVertex
 10
84.45944415206223
 20
-153.8516501571887
 30
0.0
  0
VERTEX
  5
79
330
58
100
AcDbEntity
  8
_U+30EC_U+30A4_U+30E4_U+30FC 1
 62
   179
420
  2234388
370
    25
100
AcDbVertex
100
AcDb2dVertex
 10
84.64641594360077
 20
-154.3487128401699
 30
0.0
  0
VERTEX
  5
7A
330
58
100
AcDbEntity
  8
_U+30EC_U+30A4_U+30E4_U+30FC 1
 62
   179
420
  2234388
370
    25
100
AcDbVertex
100
AcDb2dVertex
 10
84.43404464730105
 20
-154.8358977884395
 30
0.0
  0
VERTEX
  5
7B
330
58
100
AcDbEntity
  8
_U+30EC_U+30A4_U+30E4_U+30FC 1
 62
   179
420
  2234388
370
    25
100
AcDbVertex
100
AcDb2dVertex
 10
84.62101643883959
 20
-155.3336710223645
 30
0.0
  0
VERTEX
  5
7C
330
58
100
AcDbEntity
  8
_U+30EC_U+30A4_U+30E4_U+30FC 1
 62
   179
420
  2234388
370
    25
100
AcDbVertex
100
AcDb2dVertex
 10
84.40829255854881
 20
-155.8208559706341
 30
0.0
  0
VERTEX
  5
7D
330
58
100
AcDbEntity
  8
_U+30EC_U+30A4_U+30E4_U+30FC 1
 62
   179
420
  2234388
370
    25
100
AcDbVertex
100
AcDb2dVertex
 10
84.59526435008735
 20
-156.3182739290872
 30
0.0
  0
VERTEX
  5
7E
330
58
100
AcDbEntity
  8
_U+30EC_U+30A4_U+30E4_U+30FC 1
 62
   179
420
  2234388
370
    25
100
AcDbVertex
100
AcDb2dVertex
 10
84.38289305378764
 20
-156.8054588773568
 30
0.0
  0
VERTEX
  5
7F
330
58
100
AcDbEntity
  8
_U+30EC_U+30A4_U+30E4_U+30FC 1
 62
   179
420
  2234388
370
    25
100
AcDbVertex
100
AcDb2dVertex
 10
84.56986484532618
 20
-157.3028768358099
 30
0.0
  0
VERTEX
  5
80
330
58
100
AcDbEntity
  8
_U+30EC_U+30A4_U+30E4_U+30FC 1
 62
   179
420
  2234388
370
    25
100
AcDbVertex
100
AcDb2dVertex
 10
84.35713827355454
 20
-157.7879462801331
 30
0.0
  0
VERTEX
  5
81
330
58
100
AcDbEntity
  8
_U+30EC_U+30A4_U+30E4_U+30FC 1
 62
   179
420
  2234388
370
    25
100
AcDbVertex
100
AcDb2dVertex
 10
84.54446534056501
 20
-158.2832433516781
 30
0.0
  0
VERTEX
  5
82
330
58
100
AcDbEntity
  8
_U+30EC_U+30A4_U+30E4_U+30FC 1
 62
   179
420
  2234388
370
    25
100
AcDbVertex
100
AcDb2dVertex
 10
84.33173876879337
 20
-158.7690179639834
 30
0.0
  0
VERTEX
  5
83
330
58
100
AcDbEntity
  8
_U+30EC_U+30A4_U+30E4_U+30FC 1
 62
   179
420
  2234388
370
    25
100
AcDbVertex
100
AcDb2dVertex
 10
84.51871056033191
 20
-159.2639651430182
 30
0.0
  0
VERTEX
  5
84
330
58
100
AcDbEntity
  8
_U+30EC_U+30A4_U+30E4_U+30FC 1
 62
   179
420
  2234388
370
    25
100
AcDbVertex
100
AcDb2dVertex
 10
84.3063392640322
 20
-159.7483294193593
 30
0.0
  0
VERTEX
  5
85
330
58
100
AcDbEntity
  8
_U+30EC_U+30A4_U+30E4_U+30FC 1
 62
   179
420
  2234388
370
    25
100
AcDbVertex
100
AcDb2dVertex
 10
84.49331105557074
 20
-160.2443370418481
 30
0.0
  0
VERTEX
  5
86
330
58
100
AcDbEntity
  8
_U+30EC_U+30A4_U+30E4_U+30FC 1
 62
   179
420
  2234388
370
    25
100
AcDbVertex
100
AcDb2dVertex
 10
84.28093975927102
 20
-160.7301116541534
 30
0.0
  0
VERTEX
  5
87
330
58
100
AcDbEntity
  8
_U+30EC_U+30A4_U+30E4_U+30FC 1
 62
   179
420
  2234388
370
    25
100
AcDbVertex
100
AcDb2dVertex
 10
84.46791155080956
 20
-161.2261138936806
 30
0.0
  0
VERTEX
  5
88
330
58
100
AcDbEntity
  8
_U+30EC_U+30A4_U+30E4_U+30FC 1
 62
   179
420
  2234388
370
    25
100
AcDbVertex
100
AcDb2dVertex
 10
84.25518767051878
 20
-161.7104781700216
 30
0.0
  0
VERTEX
  5
89
330
58
100
AcDbEntity
  8
_U+30EC_U+30A4_U+30E4_U+30FC 1
 62
   179
420
  2234388
370
    25
100
AcDbVertex
100
AcDb2dVertex
 10
84.44251204604839
 20
-162.2047201810743
 30
0.0
  0
VERTEX
  5
8A
330
58
100
AcDbEntity
  8
_U+30EC_U+30A4_U+30E4_U+30FC 1
 62
   179
420
  2234388
370
    25
100
AcDbVertex
100
AcDb2dVertex
 10
84.23013805826783
 20
-162.687674121451
 30
0.0
  0
VERTEX
  5
8B
330
58
100
AcDbEntity
  8
_U+30EC_U+30A4_U+30E4_U+30FC 1
 62
   179
420
  2234388
370
    25
100
AcDbVertex
100
AcDb2dVertex
 10
84.41711254128754
 20
-163.1808556890496
 30
0.0
  0
VERTEX
  5
8C
330
58
100
AcDbEntity
  8
_U+30EC_U+30A4_U+30E4_U+30FC 1
 62
   179
420
  2234388
370
    25
100
AcDbVertex
100
AcDb2dVertex
 10
84.20473855350666
 20
-163.6631044614442
 30
0.0
  0
SEQEND
  5
8D
330
58
100
AcDbEntity
  8
_U+30EC_U+30A4_U+30E4_U+30FC 1
 62
   179
420
  2234388
370
    25
  0
POLYLINE
  5
8E
330
1F
100
AcDbEntity
  8
_U+30EC_U+30A4_U+30E4_U+30FC 1
 62
   179
420
  2234388
370
    25
100
AcDb2dPolyline
 66
     1
 10
0.0
 20
0.0
 30
0.0
  0
VERTEX
  5
8F
330
8E
100
AcDbEntity
  8
_U+30EC_U+30A4_U+30E4_U+30FC 1
 62
   179
420
  2234388
370
    25
100
AcDbVertex
100
AcDb2dVertex
 10
84.30454135482583
 20
-163.6655806238243
 30
0.0
  0
VERTEX
  5
90
330
8E
100
AcDbEntity
  8
_U+30EC_U+30A4_U+30E4_U+30FC 1
 62
   179
420
  2234388
370
    25
100
AcDbVertex
100
AcDb2dVertex
 10
83.90413782353384
 20
-163.6549977211305
 30
0.0
  0
SEQEND
  5
91
330
8E
100
AcDbEntity
  8
_U+30EC_U+30A4_U+30E4_U+30FC 1
 62
   179
420
  2234388
370
    25
  0
POLYLINE
  5
92
330
1F
100
AcDbEntity
  8
_U+30EC_U+30A4_U+30E4_U+30FC 1
 62
   179
420
  2234388
370
    25
100
AcDb2dPolyline
 66
     1
 10
0.0
 20
0.0
 30
0.0
  0
VERTEX
  5
93
330
92
100
AcDbEntity
  8
_U+30EC_U+30A4_U+30E4_U+30FC 1
 62
   179
420
  2234388
370
    25
100
AcDbVertex
100
AcDb2dVertex
 10
83.90424279128658
 20
-163.6548900618966
 30
0.0
  0
VERTEX
  5
94
330
92
100
AcDbEntity
  8
_U+30EC_U+30A4_U+30E4_U+30FC 1
 62
   179
420
  2234388
370
    25
100
AcDbVertex
100
AcDb2dVertex
 10
83.95892291619154
 20
-137.6548190302564
 30
0.0
  0
SEQEND
  5
95
330
92
100
AcDbEntity
  8
_U+30EC_U+30A4_U+30E4_U+30FC 1
 62
   179
420
  2234388
370
    25
  0
POLYLINE
  5
96
330
1F
100
AcDbEntity
  8
_U+30EC_U+30A4_U+30E4_U+30FC 1
 62
   179
420
  2234388
370
    25
100
AcDb2dPolyline
 66
     1
 10
0.0
 20
0.0
 30
0.0
  0
VERTEX
  5
97
330
96
100
AcDbEntity
  8
_U+30EC_U+30A4_U+30E4_U+30FC 1
 62
   179
420
  2234388
370
    25
100
AcDbVertex
100
AcDb2dVertex
 10
94.97606643845488
 20
-144.8140181285372
 30
0.0
  0
VERTEX
  5
98
330
96
100
AcDbEntity
  8
_U+30EC_U+30A4_U+30E4_U+30FC 1
 62
   179
420
  2234388
370
    25
100
AcDbVertex
100
AcDb2dVertex
 10
95.50910883741017
 20
-145.0009953030374
 30
0.0
  0
VERTEX
  5
99
330
96
100
AcDbEntity
  8
_U+30EC_U+30A4_U+30E4_U+30FC 1
 62
   179
420
  2234388
370
    25
100
AcDbVertex
100
AcDb2dVertex
 10
96.03298405259766
 20
-144.7889712077671
 30
0.0
  0
VERTEX
  5
9A
330
96
100
AcDbEntity
  8
_U+30EC_U+30A4_U+30E4_U+30FC 1
 62
   179
420
  2234388
370
    25
100
AcDbVertex
100
AcDb2dVertex
 10
96.56638710998655
 20
-144.9755931067954
 30
0.0
  0
VERTEX
  5
9B
330
96
100
AcDbEntity
  8
_U+30EC_U+30A4_U+30E4_U+30FC 1
 62
   179
420
  2234388
370
    25
100
AcDbVertex
100
AcDb2dVertex
 10
97.09096749315619
 20
-144.7632191190148
 30
0.0
  0
VERTEX
  5
9C
330
96
100
AcDbEntity
  8
_U+30EC_U+30A4_U+30E4_U+30FC 1
 62
   179
420
  2234388
370
    25
100
AcDbVertex
100
AcDb2dVertex
 10
97.62472044305531
 20
-144.9501909105534
 30
0.0
  0
VERTEX
  5
9D
330
96
100
AcDbEntity
  8
_U+30EC_U+30A4_U+30E4_U+30FC 1
 62
   179
420
  2234388
370
    25
100
AcDbVertex
100
AcDb2dVertex
 10
98.1485956582428
 20
-144.7378223057345
 30
0.0
  0
VERTEX
  5
9E
330
96
100
AcDbEntity
  8
_U+30EC_U+30A4_U+30E4_U+30FC 1
 62
   179
420
  2234388
370
    25
100
AcDbVertex
100
AcDb2dVertex
 10
98.68199333267
 20
-144.924794097273
 30
0.0
  0
VERTEX
  5
9F
330
96
100
AcDbEntity
  8
_U+30EC_U+30A4_U+30E4_U+30FC 1
 62
   179
420
  2234388
370
    25
100
AcDbVertex
100
AcDb2dVertex
 10
99.20516337987536
 20
-144.7124201094925
 30
0.0
  0
VERTEX
  5
A0
330
96
100
AcDbEntity
  8
_U+30EC_U+30A4_U+30E4_U+30FC 1
 62
   179
420
  2234388
370
    25
100
AcDbVertex
100
AcDb2dVertex
 10
99.7389163297748
 20
-144.899391901031
 30
0.0
  0
VERTEX
  5
A1
330
96
100
AcDbEntity
  8
_U+30EC_U+30A4_U+30E4_U+30FC 1
 62
   179
420
  2234388
370
    25
100
AcDbVertex
100
AcDb2dVertex
 10
100.2624362694901
 20
-144.6870232962121
 30
0.0
  0
VERTEX
  5
A2
330
96
100
AcDbEntity
  8
_U+30EC_U+30A4_U+30E4_U+30FC 1
 62
   179
420
  2234388
370
    25
100
AcDbVertex
100
AcDb2dVertex
 10
100.795484051407
 20
-144.8743449802609
 30
0.0
  0
VERTEX
  5
A3
330
96
100
AcDbEntity
  8
_U+30EC_U+30A4_U+30E4_U+30FC 1
 62
   179
420
  2234388
370
    25
100
AcDbVertex
100
AcDb2dVertex
 10
101.3186540986124
 20
-144.6612658244982
 30
0.0
  0
VERTEX
  5
A4
330
96
100
AcDbEntity
  8
_U+30EC_U+30A4_U+30E4_U+30FC 1
 62
   179
420
  2234388
370
    25
100
AcDbVertex
100
AcDb2dVertex
 10
101.8520571560013
 20
-144.8489481669806
 30
0.0
  0
VERTEX
  5
A5
330
96
100
AcDbEntity
  8
_U+30EC_U+30A4_U+30E4_U+30FC 1
 62
   179
420
  2234388
370
    25
100
AcDbVertex
100
AcDb2dVertex
 10
102.3755770957169
 20
-144.6358690112179
 30
0.0
  0
VERTEX
  5
A6
330
96
100
AcDbEntity
  8
_U+30EC_U+30A4_U+30E4_U+30FC 1
 62
   179
420
  2234388
370
    25
100
AcDbVertex
100
AcDb2dVertex
 10
102.9089801531058
 20
-144.8231906952666
 30
0.0
  0
VERTEX
  5
A7
330
96
100
AcDbEntity
  8
_U+30EC_U+30A4_U+30E4_U+30FC 1
 62
   179
420
  2234388
370
    25
100
AcDbVertex
100
AcDb2dVertex
 10
103.4328553682933
 20
-144.6108220904478
 30
0.0
  0
VERTEX
  5
A8
330
96
100
AcDbEntity
  8
_U+30EC_U+30A4_U+30E4_U+30FC 1
 62
   179
420
  2234388
370
    25
100
AcDbVertex
100
AcDb2dVertex
 10
103.9666083181924
 20
-144.7977938819863
 30
0.0
  0
VERTEX
  5
A9
330
96
100
AcDbEntity
  8
_U+30EC_U+30A4_U+30E4_U+30FC 1
 62
   179
420
  2234388
370
    25
100
AcDbVertex
100
AcDb2dVertex
 10
104.4897729824361
 20
-144.5854198942058
 30
0.0
  0
VERTEX
  5
AA
330
96
100
AcDbEntity
  8
_U+30EC_U+30A4_U+30E4_U+30FC 1
 62
   179
420
  2234388
370
    25
100
AcDbVertex
100
AcDb2dVertex
 10
105.022820764353
 20
-144.7723916857443
 30
0.0
  0
VERTEX
  5
AB
330
96
100
AcDbEntity
  8
_U+30EC_U+30A4_U+30E4_U+30FC 1
 62
   179
420
  2234388
370
    25
100
AcDbVertex
100
AcDb2dVertex
 10
105.5463460870303
 20
-144.5600230809254
 30
0.0
  0
VERTEX
  5
AC
330
96
100
AcDbEntity
  8
_U+30EC_U+30A4_U+30E4_U+30FC 1
 62
   179
420
  2234388
370
    25
100
AcDbVertex
100
AcDb2dVertex
 10
106.0800990369294
 20
-144.746994872464
 30
0.0
  0
VERTEX
  5
AD
330
96
100
AcDbEntity
  8
_U+30EC_U+30A4_U+30E4_U+30FC 1
 62
   179
420
  2234388
370
    25
100
AcDbVertex
100
AcDb2dVertex
 10
106.6039742521169
 20
-144.5346208846834
 30
0.0
  0
VERTEX
  5
AE
330
96
100
AcDbEntity
  8
_U+30EC_U+30A4_U+30E4_U+30FC 1
 62
   179
420
  2234388
370
    25
100
AcDbVertex
100
AcDb2dVertex
 10
107.1380770945263
 20
-144.7212427837117
 30
0.0
  0
VERTEX
  5
AF
330
96
100
AcDbEntity
  8
_U+30EC_U+30A4_U+30E4_U+30FC 1
 62
   179
420
  2234388
370
    25
100
AcDbVertex
100
AcDb2dVertex
 10
107.6626574776959
 20
-144.5092186884414
 30
0.0
  0
VERTEX
  5
B0
330
96
100
AcDbEntity
  8
_U+30EC_U+30A4_U+30E4_U+30FC 1
 62
   179
420
  2234388
370
    25
100
AcDbVertex
100
AcDb2dVertex
 10
108.1953553671026
 20
-144.6961904799799
 30
0.0
  0
VERTEX
  5
B1
330
96
100
AcDbEntity
  8
_U+30EC_U+30A4_U+30E4_U+30FC 1
 62
   179
420
  2234388
370
    25
100
AcDbVertex
100
AcDb2dVertex
 10
108.7195804748004
 20
-144.4834665996891
 30
0.0
  0
VERTEX
  5
B2
330
96
100
AcDbEntity
  8
_U+30EC_U+30A4_U+30E4_U+30FC 1
 62
   179
420
  2234388
370
    25
100
AcDbVertex
100
AcDb2dVertex
 10
109.2536887001714
 20
-144.6707936666996
 30
0.0
  0
VERTEX
  5
B3
330
96
100
AcDbEntity
  8
_U+30EC_U+30A4_U+30E4_U+30FC 1
 62
   179
420
  2234388
370
    25
100
AcDbVertex
100
AcDb2dVertex
 10
109.7789742513232
 20
-144.4580697864088
 30
0.0
  0
VERTEX
  5
B4
330
96
100
AcDbEntity
  8
_U+30EC_U+30A4_U+30E4_U+30FC 1
 62
   179
420
  2234388
370
    25
100
AcDbVertex
100
AcDb2dVertex
 10
110.3141375371866
 20
-144.6450415779474
 30
0.0
  0
VERTEX
  5
B5
330
96
100
AcDbEntity
  8
_U+30EC_U+30A4_U+30E4_U+30FC 1
 62
   179
420
  2234388
370
    25
100
AcDbVertex
100
AcDb2dVertex
 10
110.8401282563205
 20
-144.4326675901668
 30
0.0
  0
VERTEX
  5
B6
330
96
100
AcDbEntity
  8
_U+30EC_U+30A4_U+30E4_U+30FC 1
 62
   179
420
  2234388
370
    25
100
AcDbVertex
100
AcDb2dVertex
 10
111.3763519856379
 20
-144.6196393817057
 30
0.0
  0
VERTEX
  5
B7
330
96
100
AcDbEntity
  8
_U+30EC_U+30A4_U+30E4_U+30FC 1
 62
   179
420
  2234388
370
    25
100
AcDbVertex
100
AcDb2dVertex
 10
111.903047872754
 20
-144.4072653939248
 30
0.0
  0
VERTEX
  5
B8
330
96
100
AcDbEntity
  8
_U+30EC_U+30A4_U+30E4_U+30FC 1
 62
   179
420
  2234388
370
    25
100
AcDbVertex
100
AcDb2dVertex
 10
112.4392716020714
 20
-144.5938872929534
 30
0.0
  0
VERTEX
  5
B9
330
96
100
AcDbEntity
  8
_U+30EC_U+30A4_U+30E4_U+30FC 1
 62
   179
420
  2234388
370
    25
100
AcDbVertex
100
AcDb2dVertex
 10
112.9663173816977
 20
-144.3815133051725
 30
0.0
  0
VERTEX
  5
BA
330
96
100
AcDbEntity
  8
_U+30EC_U+30A4_U+30E4_U+30FC 1
 62
   179
420
  2234388
370
    25
100
AcDbVertex
100
AcDb2dVertex
 10
113.502896386487
 20
-144.5684850967111
 30
0.0
  0
VERTEX
  5
BB
330
96
100
AcDbEntity
  8
_U+30EC_U+30A4_U+30E4_U+30FC 1
 62
   179
420
  2234388
370
    25
100
AcDbVertex
100
AcDb2dVertex
 10
114.0278266621669
 20
-144.3557612164203
 30
0.0
  0
VERTEX
  5
BC
330
96
100
AcDbEntity
  8
_U+30EC_U+30A4_U+30E4_U+30FC 1
 62
   179
420
  2234388
370
    25
100
AcDbVertex
100
AcDb2dVertex
 10
114.56264005552
 20
-144.5427330079588
 30
0.0
  0
VERTEX
  5
BD
330
96
100
AcDbEntity
  8
_U+30EC_U+30A4_U+30E4_U+30FC 1
 62
   179
420
  2234388
370
    25
100
AcDbVertex
100
AcDb2dVertex
 10
115.0875703311999
 20
-144.33036440314
 30
0.0
  0
VERTEX
  5
BE
330
96
100
AcDbEntity
  8
_U+30EC_U+30A4_U+30E4_U+30FC 1
 62
   179
420
  2234388
370
    25
100
AcDbVertex
100
AcDb2dVertex
 10
115.6223837245531
 20
-144.5173361946785
 30
0.0
  0
VERTEX
  5
BF
330
96
100
AcDbEntity
  8
_U+30EC_U+30A4_U+30E4_U+30FC 1
 62
   179
420
  2234388
370
    25
100
AcDbVertex
100
AcDb2dVertex
 10
116.1473193831946
 20
-144.304962206898
 30
0.0
  0
VERTEX
  5
C0
330
96
100
AcDbEntity
  8
_U+30EC_U+30A4_U+30E4_U+30FC 1
 62
   179
420
  2234388
370
    25
100
AcDbVertex
100
AcDb2dVertex
 10
116.6821273935861
 20
-144.4919339984365
 30
0.0
  0
VERTEX
  5
C1
330
96
100
AcDbEntity
  8
_U+30EC_U+30A4_U+30E4_U+30FC 1
 62
   179
420
  2234388
370
    25
100
AcDbVertex
100
AcDb2dVertex
 10
117.2063578842455
 20
-144.2795600106559
 30
0.0
  0
VERTEX
  5
C2
330
96
100
AcDbEntity
  8
_U+30EC_U+30A4_U+30E4_U+30FC 1
 62
   179
420
  2234388
370
    25
100
AcDbVertex
100
AcDb2dVertex
 10
117.7404607266548
 20
-144.4665371851562
 30
0.0
  0
VERTEX
  5
C3
330
96
100
AcDbEntity
  8
_U+30EC_U+30A4_U+30E4_U+30FC 1
 62
   179
420
  2234388
370
    25
100
AcDbVertex
100
AcDb2dVertex
 10
118.2657462778066
 20
-144.2541631973756
 30
0.0
  0
VERTEX
  5
C4
330
96
100
AcDbEntity
  8
_U+30EC_U+30A4_U+30E4_U+30FC 1
 62
   179
420
  2234388
370
    25
100
AcDbVertex
100
AcDb2dVertex
 10
118.8016201146138
 20
-144.4407797134422
 30
0.0
  0
VERTEX
  5
C5
330
96
100
AcDbEntity
  8
_U+30EC_U+30A4_U+30E4_U+30FC 1
 62
   179
420
  2234388
370
    25
100
AcDbVertex
100
AcDb2dVertex
 10
119.3272555582758
 20
-144.2284111086234
 30
0.0
  0
VERTEX
  5
C6
330
96
100
AcDbEntity
  8
_U+30EC_U+30A4_U+30E4_U+30FC 1
 62
   179
420
  2234388
370
    25
100
AcDbVertex
100
AcDb2dVertex
 10
119.8613637836469
 20
-144.4153829001619
 30
0.0
  0
VERTEX
  5
C7
330
96
100
AcDbEntity
  8
_U+30EC_U+30A4_U+30E4_U+30FC 1
 62
   179
420
  2234388
370
    25
100
AcDbVertex
100
AcDb2dVertex
 10
120.3852389988344
 20
-144.2030089123813
 30
0.0
  0
VERTEX
  5
C8
330
96
100
AcDbEntity
  8
_U+30EC_U+30A4_U+30E4_U+30FC 1
 62
   179
420
  2234388
370
    25
100
AcDbVertex
100
AcDb2dVertex
 10
120.9179315052794
 20
-144.3899807039199
 30
0.0
  0
VERTEX
  5
C9
330
96
100
AcDbEntity
  8
_U+30EC_U+30A4_U+30E4_U+30FC 1
 62
   179
420
  2234388
370
    25
100
AcDbVertex
100
AcDb2dVertex
 10
121.4407462770129
 20
-144.177612099101
 30
0.0
  0
VERTEX
  5
CA
330
96
100
AcDbEntity
  8
_U+30EC_U+30A4_U+30E4_U+30FC 1
 62
   179
420
  2234388
370
    25
100
AcDbVertex
100
AcDb2dVertex
 10
121.9720338304553
 20
-144.3649337831498
 30
0.0
  0
SEQEND
  5
CB
330
96
100
AcDbEntity
  8
_U+30EC_U+30A4_U+30E4_U+30FC 1
 62
   179
420
  2234388
370
    25
  0
POLYLINE
  5
CC
330
1F
100
AcDbEntity
  8
_U+30EC_U+30A4_U+30E4_U+30FC 1
 62
   179
420
  2234388
370
    25
100
AcDb2dPolyline
 66
     1
 10
0.0
 20
0.0
 30
0.0
  0
VERTEX
  5
CD
330
CC
100
AcDbEntity
  8
_U+30EC_U+30A4_U+30E4_U+30FC 1
 62
   179
420
  2234388
370
    25
100
AcDbVertex
100
AcDb2dVertex
 10
121.9696007317689
 20
-144.2648483763416
 30
0.0
  0
VERTEX
  5
CE
330
CC
100
AcDbEntity
  8
_U+30EC_U+30A4_U+30E4_U+30FC 1
 62
   179
420
  2234388
370
    25
100
AcDbVertex
100
AcDb2dVertex
 10
121.9593677215854
 20
-143.8644475365301
 30
0.0
  0
SEQEND
  5
CF
330
CC
100
AcDbEntity
  8
_U+30EC_U+30A4_U+30E4_U+30FC 1
 62
   179
420
  2234388
370
    25
  0
POLYLINE
  5
D0
330
1F
100
AcDbEntity
  8
_U+30EC_U+30A4_U+30E4_U+30FC 1
 62
   179
420
  2234388
370
    25
100
AcDb2dPolyline
 66
     1
 10
0.0
 20
0.0
 30
0.0
  0
VERTEX
  5
D1
330
D0
100
AcDbEntity
  8
_U+30EC_U+30A4_U+30E4_U+30FC 1
 62
   179
420
  2234388
370
    25
100
AcDbVertex
100
AcDb2dVertex
 10
121.9592654453131
 20
-143.8645121320704
 30
0.0
  0
VERTEX
  5
D2
330
D0
100
AcDbEntity
  8
_U+30EC_U+30A4_U+30E4_U+30FC 1
 62
   179
420
  2234388
370
    25
100
AcDbVertex
100
AcDb2dVertex
 10
95.00315888466935
 20
-143.9191976399371
 30
0.0
  0
SEQEND
  5
D3
330
D0
100
AcDbEntity
  8
_U+30EC_U+30A4_U+30E4_U+30FC 1
 62
   179
420
  2234388
370
    25
  0
SPLINE
  5
D4
330
1F
100
AcDbEntity
  8
_U+30EC_U+30A4_U+30E4_U+30FC 1
 62
   179
420
  2234388
370
     9
100
AcDbSpline
210
0.0
220
0.0
230
1.0
 70
    11
 71
     3
 72
    17
 73
    13
 74
     0
 42
0.0000000001
 43
0.0000000001
 12
1.0
 22
0.0
 32
0.0
 13
1.0
 23
0.0
 33
0.0
 40
0.0
 40
0.0
 40
0.0
 40
0.0
 40
1.0
 40
1.0
 40
1.0
 40
2.0
 40
2.0
 40
2.0
 40
3.0
 40
3.0
 40
3.0
 40
4.0
 40
4.0
 40
4.0
 40
4.0
 10
95.95897909520514
 20
-133.6553323199662
 30
0.0
 10
95.95897909520514
 20
-133.710367720343
 30
0.0
 10
96.00378148539848
 20
-133.7551754934981
 30
0.0
 10
96.05881150281364
 20
-133.7551754934981
 30
0.0
 10
96.1138469031905
 20
-133.7551754934981
 30
0.0
 10
96.15864929338385
 20
-133.710367720343
 30
0.0
 10
96.15864929338385
 20
-133.6553323199662
 30
0.0
 10
96.15864929338385
 20
-133.6003076855127
 30
0.0
 10
96.1138469031905
 20
-133.5554999123576
 30
0.0
 10
96.05881150281364
 20
-133.5554999123576
 30
0.0
 10
96.00378148539848
 20
-133.5554999123576
 30
0.0
 10
95.95897909520514
 20
-133.6003076855127
 30
0.0
 10
95.95897909520514
 20
-133.6553323199662
 30
0.0
  0
SPLINE
  5
D5
330
1F
100
AcDbEntity
  8
_U+30EC_U+30A4_U+30E4_U+30FC 1
 62
   179
420
  2234388
370
     9
100
AcDbSpline
210
0.0
220
0.0
230
1.0
 70
    11
 71
     3
 72
    17
 73
    13
 74
     0
 42
0.0000000001
 43
0.0000000001
 12
1.0
 22
0.0
 32
0.0
 13
1.0
 23
0.0
 33
0.0
 40
0.0
 40
0.0
 40
0.0
 40
0.0
 40
1.0
 40
1.0
 40
1.0
 40
2.0
 40
2.0
 40
2.0
 40
3.0
 40
3.0
 40
3.0
 40
4.0
 40
4.0
 40
4.0
 40
4.0
 10
78.83235706901668
 20
-137.7546514378649
 30
0.0
 10
78.83235706901668
 20
-137.8096868382418
 30
0.0
 10
78.87715945921002
 20
-137.8544946113968
 30
0.0
 10
78.93219216810604
 20
-137.8544946113968
 30
0.0
 10
78.98722487700206
 20
-137.8544946113968
 30
0.0
 10
79.03202726719539
 20
-137.8096868382418
 30
0.0
 10
79.03202726719539
 20
-137.7546514378649
 30
0.0
 10
79.03202726719539
 20
-137.6989162524676
 30
0.0
 10
78.98722487700206
 20
-137.6548190302564
 30
0.0
 10
78.93219216810604
 20
-137.6548190302564
 30
0.0
 10
78.87715945921002
 20
-137.6548190302564
 30
0.0
 10
78.83235706901668
 20
-137.6989162524676
 30
0.0
 10
78.83235706901668
 20
-137.7546514378649
 30
0.0
  0
SPLINE
  5
D6
330
1F
100
AcDbEntity
  8
_U+30EC_U+30A4_U+30E4_U+30FC 1
 62
   179
420
  2234388
370
     9
100
AcDbSpline
210
0.0
220
0.0
230
1.0
 70
    11
 71
     3
 72
    17
 73
    13
 74
     0
 42
0.0000000001
 43
0.0000000001
 12
1.0
 22
0.0
 32
0.0
 13
1.0
 23
0.0
 33
0.0
 40
0.0
 40
0.0
 40
0.0
 40
0.0
 40
1.0
 40
1.0
 40
1.0
 40
2.0
 40
2.0
 40
2.0
 40
3.0
 40
3.0
 40
3.0
 40
4.0
 40
4.0
 40
4.0
 40
4.0
 10
121.9585925751012
 20
-133.6553323199662
 30
0.0
 10
121.9585925751012
 20
-133.710367720343
 30
0.0
 10
122.0033949652945
 20
-133.7551754934981
 30
0.0
 10
122.0584249827097
 20
-133.7551754934981
 30
0.0
 10
122.1134603830865
 20
-133.7551754934981
 30
0.0
 10
122.1582627732799
 20
-133.710367720343
 30
0.0
 10
122.1582627732799
 20
-133.6553323199662
 30
0.0
 10
122.1582627732799
 20
-133.6003076855127
 30
0.0
 10
122.1134603830865
 20
-133.5554999123576
 30
0.0
 10
122.0584249827097
 20
-133.5554999123576
 30
0.0
 10
122.0033949652945
 20
-133.5554999123576
 30
0.0
 10
121.9585925751012
 20
-133.6003076855127
 30
0.0
 10
121.9585925751012
 20
-133.6553323199662
 30
0.0
  0
SPLINE
  5
D7
330
1F
100
AcDbEntity
  8
_U+30EC_U+30A4_U+30E4_U+30FC 1
 62
   179
420
  2234388
370
     9
100
AcDbSpline
210
0.0
220
0.0
230
1.0
 70
    11
 71
     3
 72
    17
 73
    13
 74
     0
 42
0.0000000001
 43
0.0000000001
 12
1.0
 22
0.0
 32
0.0
 13
1.0
 23
0.0
 33
0.0
 40
0.0
 40
0.0
 40
0.0
 40
0.0
 40
1.0
 40
1.0
 40
1.0
 40
2.0
 40
2.0
 40
2.0
 40
3.0
 40
3.0
 40
3.0
 40
4.0
 40
4.0
 40
4.0
 40
4.0
 10
78.83235706901668
 20
-163.754442555497
 30
0.0
 10
78.83235706901668
 20
-163.8094779558738
 30
0.0
 10
78.87715945921002
 20
-163.8542803460672
 30
0.0
 10
78.93219216810604
 20
-163.8542803460672
 30
0.0
 10
78.98722487700206
 20
-163.8542803460672
 30
0.0
 10
79.03202726719539
 20
-163.8094779558738
 30
0.0
 10
79.03202726719539
 20
-163.754442555497
 30
0.0
 10
79.03202726719539
 20
-163.6994125380818
 30
0.0
 10
78.98722487700206
 20
-163.6546101478884
 30
0.0
 10
78.93219216810604
 20
-163.6546101478884
 30
0.0
 10
78.87715945921002
 20
-163.6546101478884
 30
0.0
 10
78.83235706901668
 20
-163.6994125380818
 30
0.0
 10
78.83235706901668
 20
-163.754442555497
 30
0.0
  0
POLYLINE
  5
D8
330
1F
100
AcDbEntity
  8
_U+30EC_U+30A4_U+30E4_U+30FC 1
 62
   179
420
  2234388
370
     9
100
AcDb2dPolyline
 66
     1
 10
0.0
 20
0.0
 30
0.0
  0
VERTEX
  5
D9
330
D8
100
AcDbEntity
  8
_U+30EC_U+30A4_U+30E4_U+30FC 1
 62
   179
420
  2234388
370
     9
100
AcDbVertex
100
AcDb2dVertex
 10
122.0585003441734
 20
-133.6553323199662
 30
0.0
  0
VERTEX
  5
DA
330
D8
100
AcDbEntity
  8
_U+30EC_U+30A4_U+30E4_U+30FC 1
 62
   179
420
  2234388
370
     9
100
AcDbVertex
100
AcDb2dVertex
 10
96.05877920504379
 20
-133.6553323199662
 30
0.0
  0
SEQEND
  5
DB
330
D8
100
AcDbEntity
  8
_U+30EC_U+30A4_U+30E4_U+30FC 1
 62
   179
420
  2234388
370
     9
  0
POLYLINE
  5
DC
330
1F
100
AcDbEntity
  8
_U+30EC_U+30A4_U+30E4_U+30FC 1
 62
   179
420
  2234388
370
     9
100
AcDb2dPolyline
 66
     1
 10
0.0
 20
0.0
 30
0.0
  0
VERTEX
  5
DD
330
DC
100
AcDbEntity
  8
_U+30EC_U+30A4_U+30E4_U+30FC 1
 62
   179
420
  2234388
370
     9
100
AcDbVertex
100
AcDb2dVertex
 10
122.0585003441734
 20
-135.9152718945965
 30
0.0
  0
VERTEX
  5
DE
330
DC
100
AcDbEntity
  8
_U+30EC_U+30A4_U+30E4_U+30FC 1
 62
   179
420
  2234388
370
     9
100
AcDbVertex
100
AcDb2dVertex
 10
122.0585003441734
 20
-132.6556086738402
 30
0.0
  0
SEQEND
  5
DF
330
DC
100
AcDbEntity
  8
_U+30EC_U+30A4_U+30E4_U+30FC 1
 62
   179
420
  2234388
370
     9
  0
POLYLINE
  5
E0
330
1F
100
AcDbEntity
  8
_U+30EC_U+30A4_U+30E4_U+30FC 1
 62
   179
420
  2234388
370
     9
100
AcDb2dPolyline
 66
     1
 10
0.0
 20
0.0
 30
0.0
  0
VERTEX
  5
E1
330
E0
100
AcDbEntity
  8
_U+30EC_U+30A4_U+30E4_U+30FC 1
 62
   179
420
  2234388
370
     9
100
AcDbVertex
100
AcDb2dVertex
 10
96.0588814813157
 20
-135.7154886542222
 30
0.0
  0
VERTEX
  5
E2
330
E0
100
AcDbEntity
  8
_U+30EC_U+30A4_U+30E4_U+30FC 1
 62
   179
420
  2234388
370
     9
100
AcDbVertex
100
AcDb2dVertex
 10
96.0588814813157
 20
-132.6555010146063
 30
0.0
  0
SEQEND
  5
E3
330
E0
100
AcDbEntity
  8
_U+30EC_U+30A4_U+30E4_U+30FC 1
 62
   179
420
  2234388
370
     9
  0
INSERT
  5
E5
330
1F
100
AcDbEntity
  8
_U+30EC_U+30A4_U+30E4_U+30FC 1
100
AcDbBlockReference
  2
block 3
 10
0.0
 20
0.0
 30
0.0
  0
SPLINE
  5
ED
330
1F
100
AcDbEntity
  8
_U+30EC_U+30A4_U+30E4_U+30FC 1
 62
   179
420
  2234388
370
     9
100
AcDbSpline
210
0.0
220
0.0
230
1.0
 70
    11
 71
     3
 72
    17
 73
    13
 74
     0
 42
0.0000000001
 43
0.0000000001
 12
1.0
 22
0.0
 32
0.0
 13
1.0
 23
0.0
 33
0.0
 40
0.0
 40
0.0
 40
0.0
 40
0.0
 40
1.0
 40
1.0
 40
1.0
 40
2.0
 40
2.0
 40
2.0
 40
3.0
 40
3.0
 40
3.0
 40
4.0
 40
4.0
 40
4.0
 40
4.0
 10
124.9055218702222
 20
-143.8645121320704
 30
0.0
 10
124.9605518876374
 20
-143.8645121320704
 30
0.0
 10
125.0053542778307
 20
-143.8197097418771
 30
0.0
 10
125.0053542778307
 20
-143.7646797244619
 30
0.0
 10
125.0053542778307
 20
-143.7096443240851
 30
0.0
 10
124.9605518876374
 20
-143.6648419338918
 30
0.0
 10
124.9055218702222
 20
-143.6648419338918
 30
0.0
 10
124.8504864698453
 20
-143.6648419338918
 30
0.0
 10
124.805684079652
 20
-143.7096443240851
 30
0.0
 10
124.805684079652
 20
-143.7646797244619
 30
0.0
 10
124.805684079652
 20
-143.8197097418771
 30
0.0
 10
124.8504864698453
 20
-143.8645121320704
 30
0.0
 10
124.9055218702222
 20
-143.8645121320704
 30
0.0
  0
SPLINE
  5
EE
330
1F
100
AcDbEntity
  8
_U+30EC_U+30A4_U+30E4_U+30FC 1
 62
   179
420
  2234388
370
     9
100
AcDbSpline
210
0.0
220
0.0
230
1.0
 70
    11
 71
     3
 72
    17
 73
    13
 74
     0
 42
0.0000000001
 43
0.0000000001
 12
1.0
 22
0.0
 32
0.0
 13
1.0
 23
0.0
 33
0.0
 40
0.0
 40
0.0
 40
0.0
 40
0.0
 40
1.0
 40
1.0
 40
1.0
 40
2.0
 40
2.0
 40
2.0
 40
3.0
 40
3.0
 40
3.0
 40
4.0
 40
4.0
 40
4.0
 40
4.0
 10
124.9055218702222
 20
-137.8648944933929
 30
0.0
 10
124.9605518876374
 20
-137.8648944933929
 30
0.0
 10
125.0053542778307
 20
-137.8200974861613
 30
0.0
 10
125.0053542778307
 20
-137.7647068103125
 30
0.0
 10
125.0053542778307
 20
-137.7096821758591
 30
0.0
 10
124.9605518876374
 20
-137.664874402704
 30
0.0
 10
124.9055218702222
 20
-137.664874402704
 30
0.0
 10
124.8504864698453
 20
-137.664874402704
 30
0.0
 10
124.805684079652
 20
-137.7096821758591
 30
0.0
 10
124.805684079652
 20
-137.7647068103125
 30
0.0
 10
124.805684079652
 20
-137.8200974861613
 30
0.0
 10
124.8504864698453
 20
-137.8648944933929
 30
0.0
 10
124.9055218702222
 20
-137.8648944933929
 30
0.0
  0
POLYLINE
  5
EF
330
1F
100
AcDbEntity
  8
_U+30EC_U+30A4_U+30E4_U+30FC 1
 62
   179
420
  2234388
370
     9
100
AcDb2dPolyline
 66
     1
 10
0.0
 20
0.0
 30
0.0
  0
VERTEX
  5
F0
330
EF
100
AcDbEntity
  8
_U+30EC_U+30A4_U+30E4_U+30FC 1
 62
   179
420
  2234388
370
     9
100
AcDbVertex
100
AcDb2dVertex
 10
124.9055218702222
 20
-137.7646314488488
 30
0.0
  0
VERTEX
  5
F1
330
EF
100
AcDbEntity
  8
_U+30EC_U+30A4_U+30E4_U+30FC 1
 62
   179
420
  2234388
370
     9
100
AcDbVertex
100
AcDb2dVertex
 10
124.9055218702222
 20
-143.7646797244619
 30
0.0
  0
SEQEND
  5
F2
330
EF
100
AcDbEntity
  8
_U+30EC_U+30A4_U+30E4_U+30FC 1
 62
   179
420
  2234388
370
     9
  0
POLYLINE
  5
F3
330
1F
100
AcDbEntity
  8
_U+30EC_U+30A4_U+30E4_U+30FC 1
 62
   179
420
  2234388
370
     9
100
AcDb2dPolyline
 66
     1
 10
0.0
 20
0.0
 30
0.0
  0
VERTEX
  5
F4
330
F3
100
AcDbEntity
  8
_U+30EC_U+30A4_U+30E4_U+30FC 1
 62
   179
420
  2234388
370
     9
100
AcDbVertex
100
AcDb2dVertex
 10
125.8990874081682
 20
-137.7646314488488
 30
0.0
  0
VERTEX
  5
F5
330
F3
100
AcDbEntity
  8
_U+30EC_U+30A4_U+30E4_U+30FC 1
 62
   179
420
  2234388
370
     9
100
AcDbVertex
100
AcDb2dVertex
 10
122.6394188044503
 20
-137.7646314488488
 30
0.0
  0
SEQEND
  5
F6
330
F3
100
AcDbEntity
  8
_U+30EC_U+30A4_U+30E4_U+30FC 1
 62
   179
420
  2234388
370
     9
  0
POLYLINE
  5
F7
330
1F
100
AcDbEntity
  8
_U+30EC_U+30A4_U+30E4_U+30FC 1
 62
   179
420
  2234388
370
     9
100
AcDb2dPolyline
 66
     1
 10
0.0
 20
0.0
 30
0.0
  0
VERTEX
  5
F8
330
F7
100
AcDbEntity
  8
_U+30EC_U+30A4_U+30E4_U+30FC 1
 62
   179
420
  2234388
370
     9
100
AcDbVertex
100
AcDb2dVertex
 10
125.8990874081682
 20
-143.7646097459599
 30
0.0
  0
VERTEX
  5
F9
330
F7
100
AcDbEntity
  8
_U+30EC_U+30A4_U+30E4_U+30FC 1
 62
   179
420
  2234388
370
     9
100
AcDbVertex
100
AcDb2dVertex
 10
122.6394188044503
 20
-143.7646097459599
 30
0.0
  0
SEQEND
  5
FA
330
F7
100
AcDbEntity
  8
_U+30EC_U+30A4_U+30E4_U+30FC 1
 62
   179
420
  2234388
370
     9
  0
INSERT
  5
FC
330
1F
100
AcDbEntity
  8
_U+30EC_U+30A4_U+30E4_U+30FC 1
100
AcDbBlockReference
  2
block 4
 10
0.0
 20
0.0
 30
0.0
  0
POLYLINE
  5
102
330
1F
100
AcDbEntity
  8
_U+30EC_U+30A4_U+30E4_U+30FC 1
 62
   179
420
  2234388
370
     9
100
AcDb2dPolyline
 66
     1
 10
0.0
 20
0.0
 30
0.0
  0
VERTEX
  5
103
330
102
100
AcDbEntity
  8
_U+30EC_U+30A4_U+30E4_U+30FC 1
 62
   179
420
  2234388
370
     9
100
AcDbVertex
100
AcDb2dVertex
 10
78.93226483808893
 20
-137.7546514378649
 30
0.0
  0
VERTEX
  5
104
330
102
100
AcDbEntity
  8
_U+30EC_U+30A4_U+30E4_U+30FC 1
 62
   179
420
  2234388
370
     9
100
AcDbVertex
100
AcDb2dVertex
 10
78.93226483808893
 20
-163.7543725769949
 30
0.0
  0
SEQEND
  5
105
330
102
100
AcDbEntity
  8
_U+30EC_U+30A4_U+30E4_U+30FC 1
 62
   179
420
  2234388
370
     9
  0
POLYLINE
  5
106
330
1F
100
AcDbEntity
  8
_U+30EC_U+30A4_U+30E4_U+30FC 1
 62
   179
420
  2234388
370
     9
100
AcDb2dPolyline
 66
     1
 10
0.0
 20
0.0
 30
0.0
  0
VERTEX
  5
107
330
106
100
AcDbEntity
  8
_U+30EC_U+30A4_U+30E4_U+30FC 1
 62
   179
420
  2234388
370
     9
100
AcDbVertex
100
AcDb2dVertex
 10
77.64243723729648
 20
-137.7546514378649
 30
0.0
  0
VERTEX
  5
108
330
106
100
AcDbEntity
  8
_U+30EC_U+30A4_U+30E4_U+30FC 1
 62
   179
420
  2234388
370
     9
100
AcDbVertex
100
AcDb2dVertex
 10
82.00241550938628
 20
-137.7546514378649
 30
0.0
  0
SEQEND
  5
109
330
106
100
AcDbEntity
  8
_U+30EC_U+30A4_U+30E4_U+30FC 1
 62
   179
420
  2234388
370
     9
  0
POLYLINE
  5
10A
330
1F
100
AcDbEntity
  8
_U+30EC_U+30A4_U+30E4_U+30FC 1
 62
   179
420
  2234388
370
     9
100
AcDb2dPolyline
 66
     1
 10
0.0
 20
0.0
 30
0.0
  0
VERTEX
  5
10B
330
10A
100
AcDbEntity
  8
_U+30EC_U+30A4_U+30E4_U+30FC 1
 62
   179
420
  2234388
370
     9
100
AcDbVertex
100
AcDb2dVertex
 10
77.64243723729648
 20
-163.754442555497
 30
0.0
  0
VERTEX
  5
10C
330
10A
100
AcDbEntity
  8
_U+30EC_U+30A4_U+30E4_U+30FC 1
 62
   179
420
  2234388
370
     9
100
AcDbVertex
100
AcDb2dVertex
 10
82.00241550938628
 20
-163.754442555497
 30
0.0
  0
SEQEND
  5
10D
330
10A
100
AcDbEntity
  8
_U+30EC_U+30A4_U+30E4_U+30FC 1
 62
   179
420
  2234388
370
     9
  0
INSERT
  5
10F
330
1F
100
AcDbEntity
  8
_U+30EC_U+30A4_U+30E4_U+30FC 1
100
AcDbBlockReference
  2
block 5
 10
0.0
 20
0.0
 30
0.0
  0
POLYLINE
  5
117
330
1F
100
AcDbEntity
  8
_U+30EC_U+30A4_U+30E4_U+30FC 1
 62
   179
420
  2234388
370
    25
100
AcDb2dPolyline
 66
     1
 10
0.0
 20
0.0
 30
0.0
  0
VERTEX
  5
118
330
117
100
AcDbEntity
  8
_U+30EC_U+30A4_U+30E4_U+30FC 1
 62
   179
420
  2234388
370
    25
100
AcDbVertex
100
AcDb2dVertex
 10
84.95361618461284
 20
-138.6741689547249
 30
0.0
  0
VERTEX
  5
119
330
117
100
AcDbEntity
  8
_U+30EC_U+30A4_U+30E4_U+30FC 1
 62
   179
420
  2234388
370
    25
100
AcDbVertex
100
AcDb2dVertex
 10
94.95380789184316
 20
-138.6741689547249
 30
0.0
  0
SEQEND
  5
11A
330
117
100
AcDbEntity
  8
_U+30EC_U+30A4_U+30E4_U+30FC 1
 62
   179
420
  2234388
370
    25
  0
POLYLINE
  5
11B
330
1F
100
AcDbEntity
  8
_U+30EC_U+30A4_U+30E4_U+30FC 1
 62
   179
420
  2234388
370
    25
100
AcDb2dPolyline
 66
     1
 10
0.0
 20
0.0
 30
0.0
  0
VERTEX
  5
11C
330
11B
100
AcDbEntity
  8
_U+30EC_U+30A4_U+30E4_U+30FC 1
 62
   179
420
  2234388
370
    25
100
AcDbVertex
100
AcDb2dVertex
 10
83.95899558617442
 20
-137.6547436687927
 30
0.0
  0
VERTEX
  5
11D
330
11B
100
AcDbEntity
  8
_U+30EC_U+30A4_U+30E4_U+30FC 1
 62
   179
420
  2234388
370
    25
100
AcDbVertex
100
AcDb2dVertex
 10
95.95908137147735
 20
-137.6547436687927
 30
0.0
  0
SEQEND
  5
11E
330
11B
100
AcDbEntity
  8
_U+30EC_U+30A4_U+30E4_U+30FC 1
 62
   179
420
  2234388
370
    25
  0
POLYLINE
  5
11F
330
1F
100
AcDbEntity
  8
_U+30EC_U+30A4_U+30E4_U+30FC 1
 62
   179
420
  2234388
370
    25
100
AcDb2dPolyline
 66
     1
 10
0.0
 20
0.0
 30
0.0
  0
VERTEX
  5
120
330
11F
100
AcDbEntity
  8
_U+30EC_U+30A4_U+30E4_U+30FC 1
 62
   179
420
  2234388
370
    25
100
AcDbVertex
100
AcDb2dVertex
 10
95.95897909520514
 20
-143.7914868737065
 30
0.0
  0
VERTEX
  5
121
330
11F
100
AcDbEntity
  8
_U+30EC_U+30A4_U+30E4_U+30FC 1
 62
   179
420
  2234388
370
    25
100
AcDbVertex
100
AcDb2dVertex
 10
95.95897909520514
 20
-137.7914493640168
 30
0.0
  0
SEQEND
  5
122
330
11F
100
AcDbEntity
  8
_U+30EC_U+30A4_U+30E4_U+30FC 1
 62
   179
420
  2234388
370
    25
  0
POLYLINE
  5
123
330
1F
100
AcDbEntity
  8
_U+30EC_U+30A4_U+30E4_U+30FC 1
 62
   179
420
  2234388
370
    25
100
AcDb2dPolyline
 66
     1
 10
0.0
 20
0.0
 30
0.0
  0
VERTEX
  5
124
330
123
100
AcDbEntity
  8
_U+30EC_U+30A4_U+30E4_U+30FC 1
 62
   179
420
  2234388
370
    25
100
AcDbVertex
100
AcDb2dVertex
 10
94.95370023260924
 20
-144.8519034129515
 30
0.0
  0
VERTEX
  5
125
330
123
100
AcDbEntity
  8
_U+30EC_U+30A4_U+30E4_U+30FC 1
 62
   179
420
  2234388
370
    25
100
AcDbVertex
100
AcDb2dVertex
 10
94.95370023260924
 20
-138.674061295491
 30
0.0
  0
SEQEND
  5
126
330
123
100
AcDbEntity
  8
_U+30EC_U+30A4_U+30E4_U+30FC 1
 62
   179
420
  2234388
370
    25
  0
POLYLINE
  5
127
330
1F
100
AcDbEntity
  8
_U+30EC_U+30A4_U+30E4_U+30FC 1
 62
   179
420
  2234388
370
     9
100
AcDb2dPolyline
 66
     1
 10
0.0
 20
0.0
 30
0.0
  0
VERTEX
  5
128
330
127
100
AcDbEntity
  8
_U+30EC_U+30A4_U+30E4_U+30FC 1
 62
   179
420
  2234388
370
     9
100
AcDbVertex
100
AcDb2dVertex
 10
84.53194188017996
 20
-136.6842495046744
 30
0.0
  0
VERTEX
  5
129
330
127
100
AcDbEntity
  8
_U+30EC_U+30A4_U+30E4_U+30FC 1
 62
   179
420
  2234388
370
     9
100
AcDbVertex
100
AcDb2dVertex
 10
85.08897613941298
 20
-137.5146897713939
 30
0.0
  0
SEQEND
  5
12A
330
127
100
AcDbEntity
  8
_U+30EC_U+30A4_U+30E4_U+30FC 1
 62
   179
420
  2234388
370
     9
  0
POLYLINE
  5
12B
330
1F
100
AcDbEntity
  8
_U+30EC_U+30A4_U+30E4_U+30FC 1
 62
   179
420
  2234388
370
     9
100
AcDb2dPolyline
 66
     1
 10
0.0
 20
0.0
 30
0.0
  0
VERTEX
  5
12C
330
12B
100
AcDbEntity
  8
_U+30EC_U+30A4_U+30E4_U+30FC 1
 62
   179
420
  2234388
370
     9
100
AcDbVertex
100
AcDb2dVertex
 10
85.02216012736507
 20
-136.5175284150351
 30
0.0
  0
VERTEX
  5
12D
330
12B
100
AcDbEntity
  8
_U+30EC_U+30A4_U+30E4_U+30FC 1
 62
   179
420
  2234388
370
     9
100
AcDbVertex
100
AcDb2dVertex
 10
85.08883349092804
 20
-137.5148404943214
 30
0.0
  0
SEQEND
  5
12E
330
12B
100
AcDbEntity
  8
_U+30EC_U+30A4_U+30E4_U+30FC 1
 62
   179
420
  2234388
370
     9
  0
POLYLINE
  5
12F
330
1F
100
AcDbEntity
  8
_U+30EC_U+30A4_U+30E4_U+30FC 1
 62
   179
420
  2234388
370
     9
100
AcDb2dPolyline
 66
     1
 10
0.0
 20
0.0
 30
0.0
  0
VERTEX
  5
130
330
12F
100
AcDbEntity
  8
_U+30EC_U+30A4_U+30E4_U+30FC 1
 62
   179
420
  2234388
370
     9
100
AcDbVertex
100
AcDb2dVertex
 10
84.31314871057727
 20
-135.1549931506188
 30
0.0
  0
VERTEX
  5
131
330
12F
100
AcDbEntity
  8
_U+30EC_U+30A4_U+30E4_U+30FC 1
 62
   179
420
  2234388
370
     9
100
AcDbVertex
100
AcDb2dVertex
 10
85.08890616091126
 20
-137.5147328350878
 30
0.0
  0
SEQEND
  5
132
330
12F
100
AcDbEntity
  8
_U+30EC_U+30A4_U+30E4_U+30FC 1
 62
   179
420
  2234388
370
     9
  0
INSERT
  5
134
330
1F
100
AcDbEntity
  8
_U+30EC_U+30A4_U+30E4_U+30FC 1
100
AcDbBlockReference
  2
block 6
 10
0.0
 20
0.0
 30
0.0
  0
POLYLINE
  5
18F
330
1F
100
AcDbEntity
  8
_U+30EC_U+30A4_U+30E4_U+30FC 1
 62
   179
420
  2234388
370
    25
100
AcDb2dPolyline
 66
     1
 10
0.0
 20
0.0
 30
0.0
  0
VERTEX
  5
190
330
18F
100
AcDbEntity
  8
_U+30EC_U+30A4_U+30E4_U+30FC 1
 62
   179
420
  2234388
370
    25
100
AcDbVertex
100
AcDb2dVertex
 10
83.95899558617442
 20
-138.6741689547249
 30
0.0
  0
VERTEX
  5
191
330
18F
100
AcDbEntity
  8
_U+30EC_U+30A4_U+30E4_U+30FC 1
 62
   179
420
  2234388
370
    25
100
AcDbVertex
100
AcDb2dVertex
 10
84.9534735361279
 20
-138.6741689547249
 30
0.0
  0
SEQEND
  5
192
330
18F
100
AcDbEntity
  8
_U+30EC_U+30A4_U+30E4_U+30FC 1
 62
   179
420
  2234388
370
    25
  0
POLYLINE
  5
193
330
1F
100
AcDbEntity
  8
_U+30EC_U+30A4_U+30E4_U+30FC 1
  6
AI-Linetype-1
 62
   154
420
    23468
370
    25
100
AcDb2dPolyline
 66
     1
 10
0.0
 20
0.0
 30
0.0
  0
VERTEX
  5
194
330
193
100
AcDbEntity
  8
_U+30EC_U+30A4_U+30E4_U+30FC 1
  6
AI-Linetype-1
 62
   154
420
    23468
370
    25
100
AcDbVertex
100
AcDb2dVertex
 10
121.9592654453131
 20
-143.3646610749309
 30
0.0
  0
VERTEX
  5
195
330
193
100
AcDbEntity
  8
_U+30EC_U+30A4_U+30E4_U+30FC 1
  6
AI-Linetype-1
 62
   154
420
    23468
370
    25
100
AcDbVertex
100
AcDb2dVertex
 10
106.959502723233
 20
-143.3646610749309
 30
0.0
  0
SEQEND
  5
197
330
193
100
AcDbEntity
  8
_U+30EC_U+30A4_U+30E4_U+30FC 1
  6
AI-Linetype-1
 62
   154
420
    23468
370
    25
  0
POLYLINE
  5
198
330
1F
100
AcDbEntity
  8
_U+30EC_U+30A4_U+30E4_U+30FC 1
 62
   179
420
  2234388
370
     9
100
AcDb2dPolyline
 66
     1
 10
0.0
 20
0.0
 30
0.0
  0
VERTEX
  5
199
330
198
100
AcDbEntity
  8
_U+30EC_U+30A4_U+30E4_U+30FC 1
 62
   179
420
  2234388
370
     9
100
AcDbVertex
100
AcDb2dVertex
 10
108.7757462971333
 20
-143.445270926324
 30
0.0
  0
VERTEX
  5
19A
330
198
100
AcDbEntity
  8
_U+30EC_U+30A4_U+30E4_U+30FC 1
 62
   179
420
  2234388
370
     9
100
AcDbVertex
100
AcDb2dVertex
 10
108.7757462971333
 20
-153.3230487016324
 30
0.0
  0
SEQEND
  5
19B
330
198
100
AcDbEntity
  8
_U+30EC_U+30A4_U+30E4_U+30FC 1
 62
   179
420
  2234388
370
     9
  0
INSERT
  5
19D
330
1F
100
AcDbEntity
  8
_U+30EC_U+30A4_U+30E4_U+30FC 1
100
AcDbBlockReference
  2
block 7
 10
0.0
 20
0.0
 30
0.0
  0
POLYLINE
  5
1C4
330
1F
100
AcDbEntity
  8
_U+30EC_U+30A4_U+30E4_U+30FC 1
  6
AI-Linetype-2
 62
   154
420
    23468
370
    25
100
AcDb2dPolyline
 66
     1
 10
0.0
 20
0.0
 30
0.0
  0
VERTEX
  5
1C5
330
1C4
100
AcDbEntity
  8
_U+30EC_U+30A4_U+30E4_U+30FC 1
  6
AI-Linetype-2
 62
   154
420
    23468
370
    25
100
AcDbVertex
100
AcDb2dVertex
 10
83.40400416090492
 20
-163.6548900618966
 30
0.0
  0
VERTEX
  5
1C6
330
1C4
100
AcDbEntity
  8
_U+30EC_U+30A4_U+30E4_U+30FC 1
  6
AI-Linetype-2
 62
   154
420
    23468
370
    25
100
AcDbVertex
100
AcDb2dVertex
 10
83.40400416090492
 20
-148.6547828302679
 30
0.0
  0
SEQEND
  5
1C8
330
1C4
100
AcDbEntity
  8
_U+30EC_U+30A4_U+30E4_U+30FC 1
  6
AI-Linetype-2
 62
   154
420
    23468
370
    25
  0
POLYLINE
  5
1C9
330
1F
100
AcDbEntity
  8
_U+30EC_U+30A4_U+30E4_U+30FC 1
 62
   179
420
  2234388
370
     9
100
AcDb2dPolyline
 66
     1
 10
0.0
 20
0.0
 30
0.0
  0
VERTEX
  5
1CA
330
1C9
100
AcDbEntity
  8
_U+30EC_U+30A4_U+30E4_U+30FC 1
 62
   179
420
  2234388
370
     9
100
AcDbVertex
100
AcDb2dVertex
 10
99.01459576992409
 20
-154.8519874609479
 30
0.0
  0
VERTEX
  5
1CB
330
1C9
100
AcDbEntity
  8
_U+30EC_U+30A4_U+30E4_U+30FC 1
 62
   179
420
  2234388
370
     9
100
AcDbVertex
100
AcDb2dVertex
 10
83.43169411586761
 20
-154.8519874609479
 30
0.0
  0
SEQEND
  5
1CC
330
1C9
100
AcDbEntity
  8
_U+30EC_U+30A4_U+30E4_U+30FC 1
 62
   179
420
  2234388
370
     9
  0
POLYLINE
  5
1CD
330
1F
100
AcDbEntity
  8
_U+30EC_U+30A4_U+30E4_U+30FC 1
 62
   179
420
  2234388
370
     9
100
AcDb2dPolyline
 66
     1
 10
0.0
 20
0.0
 30
0.0
  0
VERTEX
  5
1CE
330
1CD
100
AcDbEntity
  8
_U+30EC_U+30A4_U+30E4_U+30FC 1
 62
   179
420
  2234388
370
     9
100
AcDbVertex
100
AcDb2dVertex
 10
112.7391725470241
 20
-151.6328902395305
 30
0.0
  0
VERTEX
  5
1CF
330
1CD
100
AcDbEntity
  8
_U+30EC_U+30A4_U+30E4_U+30FC 1
 62
   179
420
  2234388
370
     9
100
AcDbVertex
100
AcDb2dVertex
 10
112.400148236467
 20
-159.3319142685031
 30
0.0
  0
VERTEX
  5
1D0
330
1CD
100
AcDbEntity
  8
_U+30EC_U+30A4_U+30E4_U+30FC 1
 62
   179
420
  2234388
370
     9
100
AcDbVertex
100
AcDb2dVertex
 10
112.211416216454
 20
-159.4388091218563
 30
0.0
  0
VERTEX
  5
1D1
330
1CD
100
AcDbEntity
  8
_U+30EC_U+30A4_U+30E4_U+30FC 1
 62
   179
420
  2234388
370
     9
100
AcDbVertex
100
AcDb2dVertex
 10
112.4117915826148
 20
-151.5221196537563
 30
0.0
  0
VERTEX
  5
1D2
330
1CD
100
AcDbEntity
  8
_U+30EC_U+30A4_U+30E4_U+30FC 1
 62
   179
420
  2234388
370
     9
100
AcDbVertex
100
AcDb2dVertex
 10
114.0402128570287
 20
-150.663461901828
 30
0.0
  0
VERTEX
  5
1D3
330
1CD
100
AcDbEntity
  8
_U+30EC_U+30A4_U+30E4_U+30FC 1
 62
   179
420
  2234388
370
     9
100
AcDbVertex
100
AcDb2dVertex
 10
113.9918846269247
 20
-152.5670494122027
 30
0.0
  0
SEQEND
  5
1D4
330
1CD
100
AcDbEntity
  8
_U+30EC_U+30A4_U+30E4_U+30FC 1
 62
   179
420
  2234388
370
     9
  0
POLYLINE
  5
1D5
330
1F
100
AcDbEntity
  8
_U+30EC_U+30A4_U+30E4_U+30FC 1
 62
   179
420
  2234388
370
     9
100
AcDb2dPolyline
 66
     1
 10
0.0
 20
0.0
 30
0.0
  0
VERTEX
  5
1D6
330
1D5
100
AcDbEntity
  8
_U+30EC_U+30A4_U+30E4_U+30FC 1
 62
   179
420
  2234388
370
     9
100
AcDbVertex
100
AcDb2dVertex
 10
121.2733577001233
 20
-148.4785285154655
 30
0.0
  0
VERTEX
  5
1D7
330
1D5
100
AcDbEntity
  8
_U+30EC_U+30A4_U+30E4_U+30FC 1
 62
   179
420
  2234388
370
     9
100
AcDbVertex
100
AcDb2dVertex
 10
121.2691213092688
 20
-148.6136462369894
 30
0.0
  0
VERTEX
  5
1D8
330
1D5
100
AcDbEntity
  8
_U+30EC_U+30A4_U+30E4_U+30FC 1
 62
   179
420
  2234388
370
     9
100
AcDbVertex
100
AcDb2dVertex
 10
113.6480640974967
 20
-153.0819296983967
 30
0.0
  0
VERTEX
  5
1D9
330
1D5
100
AcDbEntity
  8
_U+30EC_U+30A4_U+30E4_U+30FC 1
 62
   179
420
  2234388
370
     9
100
AcDbVertex
100
AcDb2dVertex
 10
113.6974527710548
 20
-151.1395364171576
 30
0.0
  0
SEQEND
  5
1DA
330
1D5
100
AcDbEntity
  8
_U+30EC_U+30A4_U+30E4_U+30FC 1
 62
   179
420
  2234388
370
     9
  0
POLYLINE
  5
1DB
330
1F
100
AcDbEntity
  8
_U+30EC_U+30A4_U+30E4_U+30FC 1
 62
   179
420
  2234388
370
     9
100
AcDb2dPolyline
 66
     1
 10
0.0
 20
0.0
 30
0.0
  0
VERTEX
  5
1DC
330
1DB
100
AcDbEntity
  8
_U+30EC_U+30A4_U+30E4_U+30FC 1
 62
   179
420
  2234388
370
     9
100
AcDbVertex
100
AcDb2dVertex
 10
113.6975981110206
 20
-151.1395310341959
 30
0.0
  0
VERTEX
  5
1DD
330
1DB
100
AcDbEntity
  8
_U+30EC_U+30A4_U+30E4_U+30FC 1
 62
   179
420
  2234388
370
     9
100
AcDbVertex
100
AcDb2dVertex
 10
112.424420010753
 20
-151.7791183939943
 30
0.0
  0
SEQEND
  5
1DE
330
1DB
100
AcDbEntity
  8
_U+30EC_U+30A4_U+30E4_U+30FC 1
 62
   179
420
  2234388
370
     9
  0
POLYLINE
  5
1DF
330
1F
100
AcDbEntity
  8
_U+30EC_U+30A4_U+30E4_U+30FC 1
 62
   179
420
  2234388
370
     9
100
AcDb2dPolyline
 66
     1
 10
0.0
 20
0.0
 30
0.0
  0
VERTEX
  5
1E0
330
1DF
100
AcDbEntity
  8
_U+30EC_U+30A4_U+30E4_U+30FC 1
 62
   179
420
  2234388
370
     9
100
AcDbVertex
100
AcDb2dVertex
 10
113.6665868686917
 20
-152.763543662981
 30
0.0
  0
VERTEX
  5
1E1
330
1DF
100
AcDbEntity
  8
_U+30EC_U+30A4_U+30E4_U+30FC 1
 62
   179
420
  2234388
370
     9
100
AcDbVertex
100
AcDb2dVertex
 10
121.2735299548976
 20
-148.4787061532015
 30
0.0
  0
SEQEND
  5
1E2
330
1DF
100
AcDbEntity
  8
_U+30EC_U+30A4_U+30E4_U+30FC 1
 62
   179
420
  2234388
370
     9
  0
POLYLINE
  5
1E3
330
1F
100
AcDbEntity
  8
_U+30EC_U+30A4_U+30E4_U+30FC 1
 62
   179
420
  2234388
370
     9
100
AcDb2dPolyline
 66
     1
 10
0.0
 20
0.0
 30
0.0
  0
VERTEX
  5
1E4
330
1E3
100
AcDbEntity
  8
_U+30EC_U+30A4_U+30E4_U+30FC 1
 62
   179
420
  2234388
370
     9
100
AcDbVertex
100
AcDb2dVertex
 10
134.1972996694129
 20
-156.2768574218005
 30
0.0
  0
VERTEX
  5
1E5
330
1E3
100
AcDbEntity
  8
_U+30EC_U+30A4_U+30E4_U+30FC 1
 62
   179
420
  2234388
370
     9
100
AcDbVertex
100
AcDb2dVertex
 10
121.2694012232769
 20
-148.6134685992534
 30
0.0
  0
VERTEX
  5
1E6
330
1E3
100
AcDbEntity
  8
_U+30EC_U+30A4_U+30E4_U+30FC 1
 62
   179
420
  2234388
370
     9
100
AcDbVertex
100
AcDb2dVertex
 10
121.2732823386596
 20
-148.4787061532015
 30
0.0
  0
VERTEX
  5
1E7
330
1E3
100
AcDbEntity
  8
_U+30EC_U+30A4_U+30E4_U+30FC 1
 62
   179
420
  2234388
370
     9
100
AcDbVertex
100
AcDb2dVertex
 10
134.2110531365454
 20
-156.1329277919808
 30
0.0
  0
SEQEND
  5
1E8
330
1E3
100
AcDbEntity
  8
_U+30EC_U+30A4_U+30E4_U+30FC 1
 62
   179
420
  2234388
370
     9
  0
POLYLINE
  5
1E9
330
1F
100
AcDbEntity
  8
_U+30EC_U+30A4_U+30E4_U+30FC 1
 62
   179
420
  2234388
370
     9
100
AcDb2dPolyline
 66
     1
 10
0.0
 20
0.0
 30
0.0
  0
VERTEX
  5
1EA
330
1E9
100
AcDbEntity
  8
_U+30EC_U+30A4_U+30E4_U+30FC 1
 62
   179
420
  2234388
370
     9
100
AcDbVertex
100
AcDb2dVertex
 10
125.1394492366324
 20
-167.1027254746496
 30
0.0
  0
VERTEX
  5
1EB
330
1E9
100
AcDbEntity
  8
_U+30EC_U+30A4_U+30E4_U+30FC 1
 62
   179
420
  2234388
370
     9
100
AcDbVertex
100
AcDb2dVertex
 10
112.2115507904964
 20
-159.4386314841204
 30
0.0
  0
VERTEX
  5
1EC
330
1E9
100
AcDbEntity
  8
_U+30EC_U+30A4_U+30E4_U+30FC 1
 62
   179
420
  2234388
370
     9
100
AcDbVertex
100
AcDb2dVertex
 10
112.4002881934711
 20
-159.332091906239
 30
0.0
  0
VERTEX
  5
1ED
330
1E9
100
AcDbEntity
  8
_U+30EC_U+30A4_U+30E4_U+30FC 1
 62
   179
420
  2234388
370
     9
100
AcDbVertex
100
AcDb2dVertex
 10
125.3846269929865
 20
-166.9602061807941
 30
0.0
  0
SEQEND
  5
1EE
330
1E9
100
AcDbEntity
  8
_U+30EC_U+30A4_U+30E4_U+30FC 1
 62
   179
420
  2234388
370
     9
  0
POLYLINE
  5
1EF
330
1F
100
AcDbEntity
  8
_U+30EC_U+30A4_U+30E4_U+30FC 1
 62
   179
420
  2234388
370
     9
100
AcDb2dPolyline
 66
     1
 10
0.0
 20
0.0
 30
0.0
  0
VERTEX
  5
1F0
330
1EF
100
AcDbEntity
  8
_U+30EC_U+30A4_U+30E4_U+30FC 1
 62
   179
420
  2234388
370
     9
100
AcDbVertex
100
AcDb2dVertex
 10
113.6479941189947
 20
-153.0818920176649
 30
0.0
  0
VERTEX
  5
1F1
330
1EF
100
AcDbEntity
  8
_U+30EC_U+30A4_U+30E4_U+30FC 1
 62
   179
420
  2234388
370
     9
100
AcDbVertex
100
AcDb2dVertex
 10
126.6510279444793
 20
-160.7749194273084
 30
0.0
  0
SEQEND
  5
1F2
330
1EF
100
AcDbEntity
  8
_U+30EC_U+30A4_U+30E4_U+30FC 1
 62
   179
420
  2234388
370
     9
  0
POLYLINE
  5
1F3
330
1F
100
AcDbEntity
  8
_U+30EC_U+30A4_U+30E4_U+30FC 1
 62
   179
420
  2234388
370
     9
100
AcDb2dPolyline
 66
     1
 10
0.0
 20
0.0
 30
0.0
  0
VERTEX
  5
1F4
330
1F3
100
AcDbEntity
  8
_U+30EC_U+30A4_U+30E4_U+30FC 1
 62
   179
420
  2234388
370
     9
100
AcDbVertex
100
AcDb2dVertex
 10
114.0400406022544
 20
-150.6634242210961
 30
0.0
  0
VERTEX
  5
1F5
330
1F3
100
AcDbEntity
  8
_U+30EC_U+30A4_U+30E4_U+30FC 1
 62
   179
420
  2234388
370
     9
100
AcDbVertex
100
AcDb2dVertex
 10
115.6621099818674
 20
-151.6293321018496
 30
0.0
  0
SEQEND
  5
1F6
330
1F3
100
AcDbEntity
  8
_U+30EC_U+30A4_U+30E4_U+30FC 1
 62
   179
420
  2234388
370
     9
  0
POLYLINE
  5
1F7
330
1F
100
AcDbEntity
  8
_U+30EC_U+30A4_U+30E4_U+30FC 1
 62
   179
420
  2234388
370
     9
100
AcDb2dPolyline
 66
     1
 10
0.0
 20
0.0
 30
0.0
  0
VERTEX
  5
1F8
330
1F7
100
AcDbEntity
  8
_U+30EC_U+30A4_U+30E4_U+30FC 1
 62
   179
420
  2234388
370
     9
100
AcDbVertex
100
AcDb2dVertex
 10
112.7391725470241
 20
-151.6328902395305
 30
0.0
  0
VERTEX
  5
1F9
330
1F7
100
AcDbEntity
  8
_U+30EC_U+30A4_U+30E4_U+30FC 1
 62
   179
420
  2234388
370
     9
100
AcDbVertex
100
AcDb2dVertex
 10
113.6708555573163
 20
-152.1959265010542
 30
0.0
  0
SEQEND
  5
1FA
330
1F7
100
AcDbEntity
  8
_U+30EC_U+30A4_U+30E4_U+30FC 1
 62
   179
420
  2234388
370
     9
  0
SPLINE
  5
1FB
330
1F
100
AcDbEntity
  8
_U+30EC_U+30A4_U+30E4_U+30FC 1
 62
   179
420
  2234388
370
     9
100
AcDbSpline
210
0.0
220
0.0
230
1.0
 70
     8
 71
     3
 72
    11
 73
     7
 74
     0
 42
0.0000000001
 43
0.0000000001
 12
1.0
 22
0.0
 32
0.0
 13
1.0
 23
0.0
 33
0.0
 40
0.0
 40
0.0
 40
0.0
 40
0.0
 40
1.0
 40
1.0
 40
1.0
 40
2.0
 40
2.0
 40
2.0
 40
2.0
 10
114.4713450251609
 20
-156.2720289051594
 30
0.0
 10
114.5704722647873
 20
-156.0596603003406
 30
0.0
 10
114.5369579452698
 20
-155.7255775486202
 30
0.0
 10
114.3630398358434
 20
-155.4101952058306
 30
0.0
 10
114.1379674414227
 20
-154.9995613558356
 30
0.0
 10
113.7583771315268
 20
-154.7713130140144
 30
0.0
 10
113.4962645776779
 20
-154.8810285392962
 30
0.0
  0
SPLINE
  5
1FC
330
1F
100
AcDbEntity
  8
_U+30EC_U+30A4_U+30E4_U+30FC 1
 62
   179
420
  2234388
370
     9
100
AcDbSpline
210
0.0
220
0.0
230
1.0
 70
    11
 71
     3
 72
    17
 73
    13
 74
     0
 42
0.0000000001
 43
0.0000000001
 12
1.0
 22
0.0
 32
0.0
 13
1.0
 23
0.0
 33
0.0
 40
0.0
 40
0.0
 40
0.0
 40
0.0
 40
1.0
 40
1.0
 40
1.0
 40
2.0
 40
2.0
 40
2.0
 40
3.0
 40
3.0
 40
3.0
 40
4.0
 40
4.0
 40
4.0
 40
4.0
 10
114.5037289227223
 20
-156.2575648870831
 30
0.0
 10
114.2419662613836
 20
-156.4007947318823
 30
0.0
 10
113.8394445346641
 20
-156.1707861615866
 30
0.0
 10
113.6044944055317
 20
-155.7428622386251
 30
0.0
 10
113.3688391084172
 20
-155.314238530643
 30
0.0
 10
113.3910653572588
 20
-154.8506901671793
 30
0.0
 10
113.6521228506153
 20
-154.7071104298698
 30
0.0
 10
113.9138801289922
 20
-154.5631754170884
 30
0.0
 10
114.3164018557118
 20
-154.7942444308381
 30
0.0
 10
114.5520571528263
 20
-155.2218130783278
 30
0.0
 10
114.7870072819586
 20
-155.6497316183277
 30
0.0
 10
114.7654862010992
 20
-156.1136352572634
 30
0.0
 10
114.5037289227223
 20
-156.2575648870831
 30
0.0
  0
SPLINE
  5
1FD
330
1F
100
AcDbEntity
  8
_U+30EC_U+30A4_U+30E4_U+30FC 1
 62
   179
420
  2234388
370
     9
100
AcDbSpline
210
0.0
220
0.0
230
1.0
 70
     8
 71
     3
 72
    11
 73
     7
 74
     0
 42
0.0000000001
 43
0.0000000001
 12
1.0
 22
0.0
 32
0.0
 13
1.0
 23
0.0
 33
0.0
 40
0.0
 40
0.0
 40
0.0
 40
0.0
 40
1.0
 40
1.0
 40
1.0
 40
2.0
 40
2.0
 40
2.0
 40
2.0
 10
114.4713450251609
 20
-159.4332700542715
 30
0.0
 10
114.5704722647873
 20
-159.2209014494526
 30
0.0
 10
114.5369579452698
 20
-158.8868186977322
 30
0.0
 10
114.3630398358434
 20
-158.5714363549426
 30
0.0
 10
114.1379674414227
 20
-158.1608025049477
 30
0.0
 10
113.7583771315268
 20
-157.9325541631265
 30
0.0
 10
113.4962645776779
 20
-158.0422696884083
 30
0.0
  0
SPLINE
  5
1FE
330
1F
100
AcDbEntity
  8
_U+30EC_U+30A4_U+30E4_U+30FC 1
 62
   179
420
  2234388
370
     9
100
AcDbSpline
210
0.0
220
0.0
230
1.0
 70
    11
 71
     3
 72
    17
 73
    13
 74
     0
 42
0.0000000001
 43
0.0000000001
 12
1.0
 22
0.0
 32
0.0
 13
1.0
 23
0.0
 33
0.0
 40
0.0
 40
0.0
 40
0.0
 40
0.0
 40
1.0
 40
1.0
 40
1.0
 40
2.0
 40
2.0
 40
2.0
 40
3.0
 40
3.0
 40
3.0
 40
4.0
 40
4.0
 40
4.0
 40
4.0
 10
114.5037289227223
 20
-159.4188060361951
 30
0.0
 10
114.2419662613836
 20
-159.5620358809944
 30
0.0
 10
113.8394445346641
 20
-159.3313221427165
 30
0.0
 10
113.6044944055317
 20
-158.903398219755
 30
0.0
 10
113.3688391084172
 20
-158.475479679755
 30
0.0
 10
113.3910653572588
 20
-158.0119313162913
 30
0.0
 10
113.6521228506153
 20
-157.8683515789818
 30
0.0
 10
113.9138801289922
 20
-157.7244165662004
 30
0.0
 10
114.3164018557118
 20
-157.9554855799502
 30
0.0
 10
114.5520571528263
 20
-158.3830542274398
 30
0.0
 10
114.7870072819586
 20
-158.8109727674397
 30
0.0
 10
114.7654862010992
 20
-159.2748764063754
 30
0.0
 10
114.5037289227223
 20
-159.4188060361951
 30
0.0
  0
SPLINE
  5
1FF
330
1F
100
AcDbEntity
  8
_U+30EC_U+30A4_U+30E4_U+30FC 1
 62
   179
420
  2234388
370
     9
100
AcDbSpline
210
0.0
220
0.0
230
1.0
 70
     8
 71
     3
 72
    11
 73
     7
 74
     0
 42
0.0000000001
 43
0.0000000001
 12
1.0
 22
0.0
 32
0.0
 13
1.0
 23
0.0
 33
0.0
 40
0.0
 40
0.0
 40
0.0
 40
0.0
 40
1.0
 40
1.0
 40
1.0
 40
2.0
 40
2.0
 40
2.0
 40
2.0
 10
118.3043797938967
 20
-158.5485695336593
 30
0.0
 10
118.4028018655409
 20
-158.3369060968226
 30
0.0
 10
118.3699927140056
 20
-158.0028233451022
 30
0.0
 10
118.1960746045791
 20
-157.6874410023126
 30
0.0
 10
117.9702970421763
 20
-157.2761019843355
 30
0.0
 10
117.5907067322804
 20
-157.0478536425143
 30
0.0
 10
117.3292993464137
 20
-157.1575691677961
 30
0.0
  0
SPLINE
  5
200
330
1F
100
AcDbEntity
  8
_U+30EC_U+30A4_U+30E4_U+30FC 1
 62
   179
420
  2234388
370
     9
100
AcDbSpline
210
0.0
220
0.0
230
1.0
 70
    11
 71
     3
 72
    17
 73
    13
 74
     0
 42
0.0000000001
 43
0.0000000001
 12
1.0
 22
0.0
 32
0.0
 13
1.0
 23
0.0
 33
0.0
 40
0.0
 40
0.0
 40
0.0
 40
0.0
 40
1.0
 40
1.0
 40
1.0
 40
2.0
 40
2.0
 40
2.0
 40
3.0
 40
3.0
 40
3.0
 40
4.0
 40
4.0
 40
4.0
 40
4.0
 10
118.336763691458
 20
-158.534105515583
 30
0.0
 10
118.0750010301194
 20
-158.6780405283644
 30
0.0
 10
117.6724793033998
 20
-158.4473267900865
 30
0.0
 10
117.4368240062853
 20
-158.0194028671249
 30
0.0
 10
117.201873877153
 20
-157.5907791591429
 30
0.0
 10
117.2233949580124
 20
-157.1272307956791
 30
0.0
 10
117.485157619351
 20
-156.9836510583696
 30
0.0
 10
117.746914897728
 20
-156.8397160455883
 30
0.0
 10
118.1494366244476
 20
-157.070785059338
 30
0.0
 10
118.3843867535799
 20
-157.4983537068277
 30
0.0
 10
118.6200420506944
 20
-157.9269774148097
 30
0.0
 10
118.598520969835
 20
-158.3901758857633
 30
0.0
 10
118.336763691458
 20
-158.534105515583
 30
0.0
  0
SPLINE
  5
201
330
1F
100
AcDbEntity
  8
_U+30EC_U+30A4_U+30E4_U+30FC 1
 62
   179
420
  2234388
370
     9
100
AcDbSpline
210
0.0
220
0.0
230
1.0
 70
     8
 71
     3
 72
    11
 73
     7
 74
     0
 42
0.0000000001
 43
0.0000000001
 12
1.0
 22
0.0
 32
0.0
 13
1.0
 23
0.0
 33
0.0
 40
0.0
 40
0.0
 40
0.0
 40
0.0
 40
1.0
 40
1.0
 40
1.0
 40
2.0
 40
2.0
 40
2.0
 40
2.0
 10
118.3043797938967
 20
-161.7097783850012
 30
0.0
 10
118.4028018655409
 20
-161.4981149481644
 30
0.0
 10
118.3699927140056
 20
-161.164032196444
 30
0.0
 10
118.1960746045791
 20
-160.8479446856724
 30
0.0
 10
117.9702970421763
 20
-160.4373108356774
 30
0.0
 10
117.5907067322804
 20
-160.2090624938562
 30
0.0
 10
117.3292993464137
 20
-160.318778019138
 30
0.0
  0
SPLINE
  5
202
330
1F
100
AcDbEntity
  8
_U+30EC_U+30A4_U+30E4_U+30FC 1
 62
   179
420
  2234388
370
     9
100
AcDbSpline
210
0.0
220
0.0
230
1.0
 70
    11
 71
     3
 72
    17
 73
    13
 74
     0
 42
0.0000000001
 43
0.0000000001
 12
1.0
 22
0.0
 32
0.0
 13
1.0
 23
0.0
 33
0.0
 40
0.0
 40
0.0
 40
0.0
 40
0.0
 40
1.0
 40
1.0
 40
1.0
 40
2.0
 40
2.0
 40
2.0
 40
3.0
 40
3.0
 40
3.0
 40
4.0
 40
4.0
 40
4.0
 40
4.0
 10
118.336763691458
 20
-161.6953143669248
 30
0.0
 10
118.0750010301194
 20
-161.8392493797062
 30
0.0
 10
117.6724793033998
 20
-161.6085356414284
 30
0.0
 10
117.4368240062853
 20
-161.1806117184668
 30
0.0
 10
117.201873877153
 20
-160.7519880104848
 30
0.0
 10
117.2233949580124
 20
-160.288439647021
 30
0.0
 10
117.485157619351
 20
-160.1448599097115
 30
0.0
 10
117.746914897728
 20
-160.0009248969301
 30
0.0
 10
118.1494366244476
 20
-160.2319939106798
 30
0.0
 10
118.3843867535799
 20
-160.6595625581695
 30
0.0
 10
118.6200420506944
 20
-161.0881862661516
 30
0.0
 10
118.598520969835
 20
-161.5513847371051
 30
0.0
 10
118.336763691458
 20
-161.6953143669248
 30
0.0
  0
SPLINE
  5
203
330
1F
100
AcDbEntity
  8
_U+30EC_U+30A4_U+30E4_U+30FC 1
 62
   179
420
  2234388
370
     9
100
AcDbSpline
210
0.0
220
0.0
230
1.0
 70
     8
 71
     3
 72
    11
 73
     7
 74
     0
 42
0.0000000001
 43
0.0000000001
 12
1.0
 22
0.0
 32
0.0
 13
1.0
 23
0.0
 33
0.0
 40
0.0
 40
0.0
 40
0.0
 40
0.0
 40
1.0
 40
1.0
 40
1.0
 40
2.0
 40
2.0
 40
2.0
 40
2.0
 10
116.4205800507153
 20
-159.0239765617387
 30
0.0
 10
116.5190021223595
 20
-158.8116079569198
 30
0.0
 10
116.4861929708242
 20
-158.4775252051994
 30
0.0
 10
116.3122748613977
 20
-158.1621428624099
 30
0.0
 10
116.087202466977
 20
-157.7515090124149
 30
0.0
 10
115.706906989099
 20
-157.5232606705937
 30
0.0
 10
115.4454996032323
 20
-157.6329761958755
 30
0.0
  0
SPLINE
  5
204
330
1F
100
AcDbEntity
  8
_U+30EC_U+30A4_U+30E4_U+30FC 1
 62
   179
420
  2234388
370
     9
100
AcDbSpline
210
0.0
220
0.0
230
1.0
 70
    11
 71
     3
 72
    17
 73
    13
 74
     0
 42
0.0000000001
 43
0.0000000001
 12
1.0
 22
0.0
 32
0.0
 13
1.0
 23
0.0
 33
0.0
 40
0.0
 40
0.0
 40
0.0
 40
0.0
 40
1.0
 40
1.0
 40
1.0
 40
2.0
 40
2.0
 40
2.0
 40
3.0
 40
3.0
 40
3.0
 40
4.0
 40
4.0
 40
4.0
 40
4.0
 10
116.4529693312383
 20
-159.0095125436623
 30
0.0
 10
116.1912066698997
 20
-159.1527423884616
 30
0.0
 10
115.7886849431801
 20
-158.9220286501838
 30
0.0
 10
115.5537348140478
 20
-158.4941047272222
 30
0.0
 10
115.3180795169333
 20
-158.0661861872223
 30
0.0
 10
115.3396005977927
 20
-157.6026378237585
 30
0.0
 10
115.6013632591313
 20
-157.4587028109771
 30
0.0
 10
115.8631205375083
 20
-157.3151230736676
 30
0.0
 10
116.2656422642279
 20
-157.5454869194353
 30
0.0
 10
116.5012975613423
 20
-157.9737607349071
 30
0.0
 10
116.7362476904747
 20
-158.401679274907
 30
0.0
 10
116.7147266096153
 20
-158.8655829138426
 30
0.0
 10
116.4529693312383
 20
-159.0095125436623
 30
0.0
  0
SPLINE
  5
205
330
1F
100
AcDbEntity
  8
_U+30EC_U+30A4_U+30E4_U+30FC 1
 62
   179
420
  2234388
370
     9
100
AcDbSpline
210
0.0
220
0.0
230
1.0
 70
     8
 71
     3
 72
    11
 73
     7
 74
     0
 42
0.0000000001
 43
0.0000000001
 12
1.0
 22
0.0
 32
0.0
 13
1.0
 23
0.0
 33
0.0
 40
0.0
 40
0.0
 40
0.0
 40
0.0
 40
1.0
 40
1.0
 40
1.0
 40
2.0
 40
2.0
 40
2.0
 40
2.0
 10
121.9734118686494
 20
-160.7348055967521
 30
0.0
 10
122.0718339402937
 20
-160.5231421599153
 30
0.0
 10
122.0383196207762
 20
-160.1890594081949
 30
0.0
 10
121.8651066793319
 20
-159.8736770654054
 30
0.0
 10
121.639329116929
 20
-159.4630432154104
 30
0.0
 10
121.2597388070332
 20
-159.2347948735892
 30
0.0
 10
120.9976262531843
 20
-159.344510398871
 30
0.0
  0
SPLINE
  5
206
330
1F
100
AcDbEntity
  8
_U+30EC_U+30A4_U+30E4_U+30FC 1
 62
   179
420
  2234388
370
     9
100
AcDbSpline
210
0.0
220
0.0
230
1.0
 70
    11
 71
     3
 72
    17
 73
    13
 74
     0
 42
0.0000000001
 43
0.0000000001
 12
1.0
 22
0.0
 32
0.0
 13
1.0
 23
0.0
 33
0.0
 40
0.0
 40
0.0
 40
0.0
 40
0.0
 40
1.0
 40
1.0
 40
1.0
 40
2.0
 40
2.0
 40
2.0
 40
3.0
 40
3.0
 40
3.0
 40
4.0
 40
4.0
 40
4.0
 40
4.0
 10
122.0057957662108
 20
-160.7210467466579
 30
0.0
 10
121.7440331048722
 20
-160.8642765914571
 30
0.0
 10
121.3408062101704
 20
-160.6335628531793
 30
0.0
 10
121.1058560810381
 20
-160.2056389302177
 30
0.0
 10
120.8709059519058
 20
-159.7777203902178
 30
0.0
 10
120.8924270327652
 20
-159.3141720267541
 30
0.0
 10
121.1541896941038
 20
-159.1702370139726
 30
0.0
 10
121.4152418044986
 20
-159.0266572766631
 30
0.0
 10
121.8184686992003
 20
-159.2570211224308
 30
0.0
 10
122.0534188283327
 20
-159.6852949379026
 30
0.0
 10
122.2890741254472
 20
-160.1132134779025
 30
0.0
 10
122.2675530445877
 20
-160.5771171168381
 30
0.0
 10
122.0057957662108
 20
-160.7210467466579
 30
0.0
  0
SPLINE
  5
207
330
1F
100
AcDbEntity
  8
_U+30EC_U+30A4_U+30E4_U+30FC 1
 62
   179
420
  2234388
370
     9
100
AcDbSpline
210
0.0
220
0.0
230
1.0
 70
     8
 71
     3
 72
    11
 73
     7
 74
     0
 42
0.0000000001
 43
0.0000000001
 12
1.0
 22
0.0
 32
0.0
 13
1.0
 23
0.0
 33
0.0
 40
0.0
 40
0.0
 40
0.0
 40
0.0
 40
1.0
 40
1.0
 40
1.0
 40
2.0
 40
2.0
 40
2.0
 40
2.0
 10
121.9734118686494
 20
-163.8960467458641
 30
0.0
 10
122.0718339402937
 20
-163.6843833090274
 30
0.0
 10
122.0383196207762
 20
-163.350300557307
 30
0.0
 10
121.8651066793319
 20
-163.0349182145174
 30
0.0
 10
121.639329116929
 20
-162.6235791965403
 30
0.0
 10
121.2597388070332
 20
-162.3960360227012
 30
0.0
 10
120.9976262531843
 20
-162.5057515479831
 30
0.0
  0
SPLINE
  5
208
330
1F
100
AcDbEntity
  8
_U+30EC_U+30A4_U+30E4_U+30FC 1
 62
   179
420
  2234388
370
     9
100
AcDbSpline
210
0.0
220
0.0
230
1.0
 70
    11
 71
     3
 72
    17
 73
    13
 74
     0
 42
0.0000000001
 43
0.0000000001
 12
1.0
 22
0.0
 32
0.0
 13
1.0
 23
0.0
 33
0.0
 40
0.0
 40
0.0
 40
0.0
 40
0.0
 40
1.0
 40
1.0
 40
1.0
 40
2.0
 40
2.0
 40
2.0
 40
3.0
 40
3.0
 40
3.0
 40
4.0
 40
4.0
 40
4.0
 40
4.0
 10
122.0057957662108
 20
-163.8822555979997
 30
0.0
 10
121.7440331048722
 20
-164.025485442799
 30
0.0
 10
121.3408062101704
 20
-163.7947717045211
 30
0.0
 10
121.1058560810381
 20
-163.3668477815596
 30
0.0
 10
120.8709059519058
 20
-162.9389292415597
 30
0.0
 10
120.8924270327652
 20
-162.4753808780959
 30
0.0
 10
121.1541896941038
 20
-162.3314458653145
 30
0.0
 10
121.4152418044986
 20
-162.187866128005
 30
0.0
 10
121.8184686992003
 20
-162.4182299737726
 30
0.0
 10
122.0534188283327
 20
-162.8465037892444
 30
0.0
 10
122.2890741254472
 20
-163.2744223292443
 30
0.0
 10
122.2675530445877
 20
-163.73832596818
 30
0.0
 10
122.0057957662108
 20
-163.8822555979997
 30
0.0
  0
SPLINE
  5
209
330
1F
100
AcDbEntity
  8
_U+30EC_U+30A4_U+30E4_U+30FC 1
 62
   179
420
  2234388
370
     9
100
AcDbSpline
210
0.0
220
0.0
230
1.0
 70
     8
 71
     3
 72
    11
 73
     7
 74
     0
 42
0.0000000001
 43
0.0000000001
 12
1.0
 22
0.0
 32
0.0
 13
1.0
 23
0.0
 33
0.0
 40
0.0
 40
0.0
 40
0.0
 40
0.0
 40
1.0
 40
1.0
 40
1.0
 40
2.0
 40
2.0
 40
2.0
 40
2.0
 10
120.0896121254681
 20
-161.2102449226016
 30
0.0
 10
120.1880341971123
 20
-160.9985814857649
 30
0.0
 10
120.155225045577
 20
-160.6644987340445
 30
0.0
 10
119.9813069361505
 20
-160.3484112232728
 30
0.0
 10
119.7555293737476
 20
-159.9377773732778
 30
0.0
 10
119.3759390638518
 20
-159.7095290314566
 30
0.0
 10
119.114531677985
 20
-159.8192445567385
 30
0.0
  0
SPLINE
  5
20A
330
1F
100
AcDbEntity
  8
_U+30EC_U+30A4_U+30E4_U+30FC 1
 62
   179
420
  2234388
370
     9
100
AcDbSpline
210
0.0
220
0.0
230
1.0
 70
    11
 71
     3
 72
    17
 73
    13
 74
     0
 42
0.0000000001
 43
0.0000000001
 12
1.0
 22
0.0
 32
0.0
 13
1.0
 23
0.0
 33
0.0
 40
0.0
 40
0.0
 40
0.0
 40
0.0
 40
1.0
 40
1.0
 40
1.0
 40
2.0
 40
2.0
 40
2.0
 40
3.0
 40
3.0
 40
3.0
 40
4.0
 40
4.0
 40
4.0
 40
4.0
 10
120.1219960230294
 20
-161.1957809045253
 30
0.0
 10
119.8602333616908
 20
-161.3397159173067
 30
0.0
 10
119.4577116349712
 20
-161.1090021790289
 30
0.0
 10
119.2220563378567
 20
-160.6810782560673
 30
0.0
 10
118.9871062087244
 20
-160.2524545480852
 30
0.0
 10
119.0086272895838
 20
-159.7889061846215
 30
0.0
 10
119.2703899509224
 20
-159.645326447312
 30
0.0
 10
119.5321472292994
 20
-159.5013914345306
 30
0.0
 10
119.9346689560189
 20
-159.7324604482803
 30
0.0
 10
120.1703242531334
 20
-160.16002909577
 30
0.0
 10
120.4052743822658
 20
-160.588652803752
 30
0.0
 10
120.3837533014063
 20
-161.0518512747056
 30
0.0
 10
120.1219960230294
 20
-161.1957809045253
 30
0.0
  0
SPLINE
  5
20B
330
1F
100
AcDbEntity
  8
_U+30EC_U+30A4_U+30E4_U+30FC 1
 62
   179
420
  2234388
370
     9
100
AcDbSpline
210
0.0
220
0.0
230
1.0
 70
     8
 71
     3
 72
    11
 73
     7
 74
     0
 42
0.0000000001
 43
0.0000000001
 12
1.0
 22
0.0
 32
0.0
 13
1.0
 23
0.0
 33
0.0
 40
0.0
 40
0.0
 40
0.0
 40
0.0
 40
1.0
 40
1.0
 40
1.0
 40
2.0
 40
2.0
 40
2.0
 40
2.0
 10
125.6747901602317
 20
-162.8480486992511
 30
0.0
 10
125.7732122318759
 20
-162.6363852624144
 30
0.0
 10
125.7404030803406
 20
-162.3015973427118
 30
0.0
 10
125.5664849709142
 20
-161.9869201679044
 30
0.0
 10
125.3407074085113
 20
-161.5755811499273
 30
0.0
 10
124.9611170986154
 20
-161.3473328081061
 30
0.0
 10
124.6997097127487
 20
-161.4570483333879
 30
0.0
  0
SPLINE
  5
20C
330
1F
100
AcDbEntity
  8
_U+30EC_U+30A4_U+30E4_U+30FC 1
 62
   179
420
  2234388
370
     9
100
AcDbSpline
210
0.0
220
0.0
230
1.0
 70
    11
 71
     3
 72
    17
 73
    13
 74
     0
 42
0.0000000001
 43
0.0000000001
 12
1.0
 22
0.0
 32
0.0
 13
1.0
 23
0.0
 33
0.0
 40
0.0
 40
0.0
 40
0.0
 40
0.0
 40
1.0
 40
1.0
 40
1.0
 40
2.0
 40
2.0
 40
2.0
 40
3.0
 40
3.0
 40
3.0
 40
4.0
 40
4.0
 40
4.0
 40
4.0
 10
125.7071740577931
 20
-162.8335846811748
 30
0.0
 10
125.4454113964544
 20
-162.9775196939561
 30
0.0
 10
125.0428896697348
 20
-162.7468059556783
 30
0.0
 10
124.8079395406025
 20
-162.3188820327167
 30
0.0
 10
124.572284243488
 20
-161.8909634927168
 30
0.0
 10
124.5938053243474
 20
-161.4274151292531
 30
0.0
 10
124.8555679856861
 20
-161.2831302239615
 30
0.0
 10
125.117325264063
 20
-161.1399003791622
 30
0.0
 10
125.5198469907826
 20
-161.3702642249298
 30
0.0
 10
125.7547971199149
 20
-161.7978328724195
 30
0.0
 10
125.9904524170294
 20
-162.2264565804015
 30
0.0
 10
125.96893133617
 20
-162.6903602193372
 30
0.0
 10
125.7071740577931
 20
-162.8335846811748
 30
0.0
  0
SPLINE
  5
20D
330
1F
100
AcDbEntity
  8
_U+30EC_U+30A4_U+30E4_U+30FC 1
 62
   179
420
  2234388
370
     9
100
AcDbSpline
210
0.0
220
0.0
230
1.0
 70
     8
 71
     3
 72
    11
 73
     7
 74
     0
 42
0.0000000001
 43
0.0000000001
 12
1.0
 22
0.0
 32
0.0
 13
1.0
 23
0.0
 33
0.0
 40
0.0
 40
0.0
 40
0.0
 40
0.0
 40
1.0
 40
1.0
 40
1.0
 40
2.0
 40
2.0
 40
2.0
 40
2.0
 10
125.6747901602317
 20
-166.009257550593
 30
0.0
 10
125.7732122318759
 20
-165.7975941137562
 30
0.0
 10
125.7404030803406
 20
-165.4628061940537
 30
0.0
 10
125.5664849709142
 20
-165.1481290192463
 30
0.0
 10
125.3407074085113
 20
-164.7367900012692
 30
0.0
 10
124.9611170986154
 20
-164.508541659448
 30
0.0
 10
124.6997097127487
 20
-164.6182571847298
 30
0.0
  0
SPLINE
  5
20E
330
1F
100
AcDbEntity
  8
_U+30EC_U+30A4_U+30E4_U+30FC 1
 62
   179
420
  2234388
370
     9
100
AcDbSpline
210
0.0
220
0.0
230
1.0
 70
    11
 71
     3
 72
    17
 73
    13
 74
     0
 42
0.0000000001
 43
0.0000000001
 12
1.0
 22
0.0
 32
0.0
 13
1.0
 23
0.0
 33
0.0
 40
0.0
 40
0.0
 40
0.0
 40
0.0
 40
1.0
 40
1.0
 40
1.0
 40
2.0
 40
2.0
 40
2.0
 40
3.0
 40
3.0
 40
3.0
 40
4.0
 40
4.0
 40
4.0
 40
4.0
 10
125.7071740577931
 20
-165.9947935325166
 30
0.0
 10
125.4454113964544
 20
-166.138728545298
 30
0.0
 10
125.0428896697348
 20
-165.9080148070202
 30
0.0
 10
124.8079395406025
 20
-165.4800908840586
 30
0.0
 10
124.572284243488
 20
-165.0521723440587
 30
0.0
 10
124.5938053243474
 20
-164.5879188126128
 30
0.0
 10
124.8555679856861
 20
-164.4443390753033
 30
0.0
 10
125.117325264063
 20
-164.3004040625219
 30
0.0
 10
125.5198469907826
 20
-164.5314730762717
 30
0.0
 10
125.7547971199149
 20
-164.9590417237613
 30
0.0
 10
125.9904524170294
 20
-165.3876654317434
 30
0.0
 10
125.96893133617
 20
-165.8508639026969
 30
0.0
 10
125.7071740577931
 20
-165.9947935325166
 30
0.0
  0
SPLINE
  5
20F
330
1F
100
AcDbEntity
  8
_U+30EC_U+30A4_U+30E4_U+30FC 1
 62
   179
420
  2234388
370
     9
100
AcDbSpline
210
0.0
220
0.0
230
1.0
 70
     8
 71
     3
 72
    11
 73
     7
 74
     0
 42
0.0000000001
 43
0.0000000001
 12
1.0
 22
0.0
 32
0.0
 13
1.0
 23
0.0
 33
0.0
 40
0.0
 40
0.0
 40
0.0
 40
0.0
 40
1.0
 40
1.0
 40
1.0
 40
2.0
 40
2.0
 40
2.0
 40
2.0
 10
123.7910280977822
 20
-163.3227828571185
 30
0.0
 10
123.8894501694264
 20
-163.1111194202818
 30
0.0
 10
123.8566410178911
 20
-162.7770366685614
 30
0.0
 10
123.6834280764468
 20
-162.4616543257719
 30
0.0
 10
123.4576505140439
 20
-162.0503153077947
 30
0.0
 10
123.078060204148
 20
-161.8227721339557
 30
0.0
 10
122.8159476502992
 20
-161.9324876592375
 30
0.0
  0
SPLINE
  5
210
330
1F
100
AcDbEntity
  8
_U+30EC_U+30A4_U+30E4_U+30FC 1
 62
   179
420
  2234388
370
     9
100
AcDbSpline
210
0.0
220
0.0
230
1.0
 70
    11
 71
     3
 72
    17
 73
    13
 74
     0
 42
0.0000000001
 43
0.0000000001
 12
1.0
 22
0.0
 32
0.0
 13
1.0
 23
0.0
 33
0.0
 40
0.0
 40
0.0
 40
0.0
 40
0.0
 40
1.0
 40
1.0
 40
1.0
 40
2.0
 40
2.0
 40
2.0
 40
3.0
 40
3.0
 40
3.0
 40
4.0
 40
4.0
 40
4.0
 40
4.0
 10
123.8234119953435
 20
-163.3083188390422
 30
0.0
 10
123.562354501987
 20
-163.4522538518236
 30
0.0
 10
123.1591276072853
 20
-163.2215401135458
 30
0.0
 10
122.924177478153
 20
-162.7936161905841
 30
0.0
 10
122.6885221810385
 20
-162.3656976505843
 30
0.0
 10
122.71074842988
 20
-161.9021492871205
 30
0.0
 10
122.9718059232365
 20
-161.7578643818289
 30
0.0
 10
123.2335632016135
 20
-161.6146345370296
 30
0.0
 10
123.6367900963152
 20
-161.8449983827972
 30
0.0
 10
123.8717402254475
 20
-162.273272198269
 30
0.0
 10
124.1066903545799
 20
-162.7011907382689
 30
0.0
 10
124.0851692737205
 20
-163.1650943772046
 30
0.0
 10
123.8234119953435
 20
-163.3083188390422
 30
0.0
  0
SPLINE
  5
211
330
1F
100
AcDbEntity
  8
_U+30EC_U+30A4_U+30E4_U+30FC 1
 62
   179
420
  2234388
370
     9
100
AcDbSpline
210
0.0
220
0.0
230
1.0
 70
     8
 71
     3
 72
    11
 73
     7
 74
     0
 42
0.0000000001
 43
0.0000000001
 12
1.0
 22
0.0
 32
0.0
 13
1.0
 23
0.0
 33
0.0
 40
0.0
 40
0.0
 40
0.0
 40
0.0
 40
1.0
 40
1.0
 40
1.0
 40
2.0
 40
2.0
 40
2.0
 40
2.0
 10
117.5464372552949
 20
-152.2019930988853
 30
0.0
 10
117.6448593269392
 20
-152.4355328920533
 30
0.0
 10
117.9902301493355
 20
-152.6076907730053
 30
0.0
 10
118.4022743352947
 20
-152.6076907730053
 30
0.0
 10
118.814318521254
 20
-152.6076907730053
 30
0.0
 10
119.1593340681784
 20
-152.4355328920533
 30
0.0
 10
119.2581114152945
 20
-152.2019930988853
 30
0.0
  0
SPLINE
  5
212
330
1F
100
AcDbEntity
  8
_U+30EC_U+30A4_U+30E4_U+30FC 1
 62
   179
420
  2234388
370
     9
100
AcDbSpline
210
0.0
220
0.0
230
1.0
 70
    11
 71
     3
 72
    17
 73
    13
 74
     0
 42
0.0000000001
 43
0.0000000001
 12
1.0
 22
0.0
 32
0.0
 13
1.0
 23
0.0
 33
0.0
 40
0.0
 40
0.0
 40
0.0
 40
0.0
 40
1.0
 40
1.0
 40
1.0
 40
2.0
 40
2.0
 40
2.0
 40
3.0
 40
3.0
 40
3.0
 40
4.0
 40
4.0
 40
4.0
 40
4.0
 10
119.2868994944431
 20
-152.3377406269275
 30
0.0
 10
119.2868994944431
 20
-152.6361935551841
 30
0.0
 10
118.8907296625245
 20
-152.8778454716276
 30
0.0
 10
118.4021289953289
 20
-152.8778454716276
 30
0.0
 10
117.9135337110951
 20
-152.8778454716276
 30
0.0
 10
117.5173638791764
 20
-152.6361935551841
 30
0.0
 10
117.5173638791764
 20
-152.3377406269275
 30
0.0
 10
117.5173638791764
 20
-152.0385879136505
 30
0.0
 10
117.9135337110951
 20
-151.796935997207
 30
0.0
 10
118.4021289953289
 20
-151.796935997207
 30
0.0
 10
118.8907296625245
 20
-151.796935997207
 30
0.0
 10
119.2868994944431
 20
-152.0385879136505
 30
0.0
 10
119.2868994944431
 20
-152.3377406269275
 30
0.0
  0
SPLINE
  5
213
330
1F
100
AcDbEntity
  8
_U+30EC_U+30A4_U+30E4_U+30FC 1
 62
   179
420
  2234388
370
     9
100
AcDbSpline
210
0.0
220
0.0
230
1.0
 70
     8
 71
     3
 72
    11
 73
     7
 74
     0
 42
0.0000000001
 43
0.0000000001
 12
1.0
 22
0.0
 32
0.0
 13
1.0
 23
0.0
 33
0.0
 40
0.0
 40
0.0
 40
0.0
 40
0.0
 40
1.0
 40
1.0
 40
1.0
 40
2.0
 40
2.0
 40
2.0
 40
2.0
 10
121.3629301827398
 20
-152.6939796489874
 30
0.0
 10
121.461352254384
 20
-152.9268142741734
 30
0.0
 10
121.8067230767803
 20
-153.0989721551253
 30
0.0
 10
122.2187672627396
 20
-153.0989721551253
 30
0.0
 10
122.6308114486989
 20
-153.0989721551253
 30
0.0
 10
122.9758269956232
 20
-152.9268142741734
 30
0.0
 10
123.0738991747572
 20
-152.6939796489874
 30
0.0
  0
SPLINE
  5
214
330
1F
100
AcDbEntity
  8
_U+30EC_U+30A4_U+30E4_U+30FC 1
 62
   179
420
  2234388
370
     9
100
AcDbSpline
210
0.0
220
0.0
230
1.0
 70
    11
 71
     3
 72
    17
 73
    13
 74
     0
 42
0.0000000001
 43
0.0000000001
 12
1.0
 22
0.0
 32
0.0
 13
1.0
 23
0.0
 33
0.0
 40
0.0
 40
0.0
 40
0.0
 40
0.0
 40
1.0
 40
1.0
 40
1.0
 40
2.0
 40
2.0
 40
2.0
 40
3.0
 40
3.0
 40
3.0
 40
4.0
 40
4.0
 40
4.0
 40
4.0
 10
123.1026872539059
 20
-152.8290220090475
 30
0.0
 10
123.1026872539059
 20
-153.1274749373041
 30
0.0
 10
122.7072225899694
 20
-153.3691268537476
 30
0.0
 10
122.2186219227738
 20
-153.3691268537476
 30
0.0
 10
121.7300266385399
 20
-153.3691268537476
 30
0.0
 10
121.3338568066213
 20
-153.1274749373041
 30
0.0
 10
121.3338568066213
 20
-152.8290220090475
 30
0.0
 10
121.3338568066213
 20
-152.5298692957705
 30
0.0
 10
121.7300266385399
 20
-152.2882173793271
 30
0.0
 10
122.2186219227738
 20
-152.2882173793271
 30
0.0
 10
122.7072225899694
 20
-152.2882173793271
 30
0.0
 10
123.1026872539059
 20
-152.5298692957705
 30
0.0
 10
123.1026872539059
 20
-152.8290220090475
 30
0.0
  0
SPLINE
  5
215
330
1F
100
AcDbEntity
  8
_U+30EC_U+30A4_U+30E4_U+30FC 1
 62
   179
420
  2234388
370
     9
100
AcDbSpline
210
0.0
220
0.0
230
1.0
 70
     8
 71
     3
 72
    11
 73
     7
 74
     0
 42
0.0000000001
 43
0.0000000001
 12
1.0
 22
0.0
 32
0.0
 13
1.0
 23
0.0
 33
0.0
 40
0.0
 40
0.0
 40
0.0
 40
0.0
 40
1.0
 40
1.0
 40
1.0
 40
2.0
 40
2.0
 40
2.0
 40
2.0
 10
130.0438710205489
 20
-157.7713344603402
 30
0.0
 10
130.1422930921932
 20
-158.0041690855261
 30
0.0
 10
130.4876639145895
 20
-158.1763269664781
 30
0.0
 10
130.8997081005487
 20
-158.1763269664781
 30
0.0
 10
131.311752286508
 20
-158.1763269664781
 30
0.0
 10
131.6567678334324
 20
-158.0041690855261
 30
0.0
 10
131.7555451805485
 20
-157.7713344603402
 30
0.0
  0
SPLINE
  5
216
330
1F
100
AcDbEntity
  8
_U+30EC_U+30A4_U+30E4_U+30FC 1
 62
   179
420
  2234388
370
     9
100
AcDbSpline
210
0.0
220
0.0
230
1.0
 70
    11
 71
     3
 72
    17
 73
    13
 74
     0
 42
0.0000000001
 43
0.0000000001
 12
1.0
 22
0.0
 32
0.0
 13
1.0
 23
0.0
 33
0.0
 40
0.0
 40
0.0
 40
0.0
 40
0.0
 40
1.0
 40
1.0
 40
1.0
 40
2.0
 40
2.0
 40
2.0
 40
3.0
 40
3.0
 40
3.0
 40
4.0
 40
4.0
 40
4.0
 40
4.0
 10
131.7836657724469
 20
-157.9064091181704
 30
0.0
 10
131.7836657724469
 20
-158.204862046427
 30
0.0
 10
131.3882011085104
 20
-158.4465139628705
 30
0.0
 10
130.8996004413148
 20
-158.4465139628705
 30
0.0
 10
130.411005157081
 20
-158.4465139628705
 30
0.0
 10
130.0148353251623
 20
-158.204862046427
 30
0.0
 10
130.0148353251623
 20
-157.9064091181704
 30
0.0
 10
130.0148353251623
 20
-157.6079615728756
 30
0.0
 10
130.411005157081
 20
-157.3663096564321
 30
0.0
 10
130.8996004413148
 20
-157.3663096564321
 30
0.0
 10
131.3882011085104
 20
-157.3663096564321
 30
0.0
 10
131.7836657724469
 20
-157.6079615728756
 30
0.0
 10
131.7836657724469
 20
-157.9064091181704
 30
0.0
  0
SPLINE
  5
217
330
1F
100
AcDbEntity
  8
_U+30EC_U+30A4_U+30E4_U+30FC 1
 62
   179
420
  2234388
370
     9
100
AcDbSpline
210
0.0
220
0.0
230
1.0
 70
     8
 71
     3
 72
    11
 73
     7
 74
     0
 42
0.0000000001
 43
0.0000000001
 12
1.0
 22
0.0
 32
0.0
 13
1.0
 23
0.0
 33
0.0
 40
0.0
 40
0.0
 40
0.0
 40
0.0
 40
1.0
 40
1.0
 40
1.0
 40
2.0
 40
2.0
 40
2.0
 40
2.0
 10
120.5443808784061
 20
-150.4581072960986
 30
0.0
 10
120.6420977820682
 20
-150.6909419212845
 30
0.0
 10
120.9874686044645
 20
-150.8630998022365
 30
0.0
 10
121.3995127904238
 20
-150.8630998022365
 30
0.0
 10
121.8115569763831
 20
-150.8630998022365
 30
0.0
 10
122.1565725233074
 20
-150.6909419212845
 30
0.0
 10
122.2553498704236
 20
-150.4581072960986
 30
0.0
  0
SPLINE
  5
218
330
1F
100
AcDbEntity
  8
_U+30EC_U+30A4_U+30E4_U+30FC 1
 62
   179
420
  2234388
370
     9
100
AcDbSpline
210
0.0
220
0.0
230
1.0
 70
    11
 71
     3
 72
    17
 73
    13
 74
     0
 42
0.0000000001
 43
0.0000000001
 12
1.0
 22
0.0
 32
0.0
 13
1.0
 23
0.0
 33
0.0
 40
0.0
 40
0.0
 40
0.0
 40
0.0
 40
1.0
 40
1.0
 40
1.0
 40
2.0
 40
2.0
 40
2.0
 40
3.0
 40
3.0
 40
3.0
 40
4.0
 40
4.0
 40
4.0
 40
4.0
 10
122.2841379495722
 20
-150.5931496561587
 30
0.0
 10
122.2841379495722
 20
-150.8916025844152
 30
0.0
 10
121.8879681176536
 20
-151.1332545008587
 30
0.0
 10
121.399367450458
 20
-151.1332545008587
 30
0.0
 10
120.9107721662241
 20
-151.1332545008587
 30
0.0
 10
120.5153075022876
 20
-150.8916025844152
 30
0.0
 10
120.5153075022876
 20
-150.5931496561587
 30
0.0
 10
120.5153075022876
 20
-150.2947021108638
 30
0.0
 10
120.9107721662241
 20
-150.0523450264382
 30
0.0
 10
121.399367450458
 20
-150.0523450264382
 30
0.0
 10
121.8879681176536
 20
-150.0523450264382
 30
0.0
 10
122.2841379495722
 20
-150.2947021108638
 30
0.0
 10
122.2841379495722
 20
-150.5931496561587
 30
0.0
  0
SPLINE
  5
219
330
1F
100
AcDbEntity
  8
_U+30EC_U+30A4_U+30E4_U+30FC 1
 62
   179
420
  2234388
370
     9
100
AcDbSpline
210
0.0
220
0.0
230
1.0
 70
     8
 71
     3
 72
    11
 73
     7
 74
     0
 42
0.0000000001
 43
0.0000000001
 12
1.0
 22
0.0
 32
0.0
 13
1.0
 23
0.0
 33
0.0
 40
0.0
 40
0.0
 40
0.0
 40
0.0
 40
1.0
 40
1.0
 40
1.0
 40
2.0
 40
2.0
 40
2.0
 40
2.0
 10
122.0671076999248
 20
-154.871958248839
 30
0.0
 10
122.1655297715691
 20
-155.1047928740249
 30
0.0
 10
122.5109005939654
 20
-155.277655922959
 30
0.0
 10
122.9229447799246
 20
-155.277655922959
 30
0.0
 10
123.3349889658839
 20
-155.277655922959
 30
0.0
 10
123.6800045128083
 20
-155.1047928740249
 30
0.0
 10
123.7780766919423
 20
-154.871958248839
 30
0.0
  0
SPLINE
  5
21A
330
1F
100
AcDbEntity
  8
_U+30EC_U+30A4_U+30E4_U+30FC 1
 62
   179
420
  2234388
370
     9
100
AcDbSpline
210
0.0
220
0.0
230
1.0
 70
    11
 71
     3
 72
    17
 73
    13
 74
     0
 42
0.0000000001
 43
0.0000000001
 12
1.0
 22
0.0
 32
0.0
 13
1.0
 23
0.0
 33
0.0
 40
0.0
 40
0.0
 40
0.0
 40
0.0
 40
1.0
 40
1.0
 40
1.0
 40
2.0
 40
2.0
 40
2.0
 40
3.0
 40
3.0
 40
3.0
 40
4.0
 40
4.0
 40
4.0
 40
4.0
 10
123.8068647710909
 20
-155.0070006088991
 30
0.0
 10
123.8068647710909
 20
-155.3061587051378
 30
0.0
 10
123.4114001071544
 20
-155.5478106215812
 30
0.0
 10
122.9227994399589
 20
-155.5478106215812
 30
0.0
 10
122.434204155725
 20
-155.5478106215812
 30
0.0
 10
122.0380343238064
 20
-155.3061587051378
 30
0.0
 10
122.0380343238064
 20
-155.0070006088991
 30
0.0
 10
122.0380343238064
 20
-154.7085530636042
 30
0.0
 10
122.434204155725
 20
-154.4669011471607
 30
0.0
 10
122.9227994399589
 20
-154.4669011471607
 30
0.0
 10
123.4114001071544
 20
-154.4669011471607
 30
0.0
 10
123.8068647710909
 20
-154.7085530636042
 30
0.0
 10
123.8068647710909
 20
-155.0070006088991
 30
0.0
  0
SPLINE
  5
21B
330
1F
100
AcDbEntity
  8
_U+30EC_U+30A4_U+30E4_U+30FC 1
 62
   179
420
  2234388
370
     9
100
AcDbSpline
210
0.0
220
0.0
230
1.0
 70
     8
 71
     3
 72
    11
 73
     7
 74
     0
 42
0.0000000001
 43
0.0000000001
 12
1.0
 22
0.0
 32
0.0
 13
1.0
 23
0.0
 33
0.0
 40
0.0
 40
0.0
 40
0.0
 40
0.0
 40
1.0
 40
1.0
 40
1.0
 40
2.0
 40
2.0
 40
2.0
 40
2.0
 10
125.0643461550539
 20
-153.1280347653204
 30
0.0
 10
125.1627682266981
 20
-153.3608693905064
 30
0.0
 10
125.5081390490944
 20
-153.5330272714583
 30
0.0
 10
125.9201832350537
 20
-153.5330272714583
 30
0.0
 10
126.332227421013
 20
-153.5330272714583
 30
0.0
 10
126.6772429679374
 20
-153.3608693905064
 30
0.0
 10
126.7760203150535
 20
-153.1280347653204
 30
0.0
  0
SPLINE
  5
21C
330
1F
100
AcDbEntity
  8
_U+30EC_U+30A4_U+30E4_U+30FC 1
 62
   179
420
  2234388
370
     9
100
AcDbSpline
210
0.0
220
0.0
230
1.0
 70
    11
 71
     3
 72
    17
 73
    13
 74
     0
 42
0.0000000001
 43
0.0000000001
 12
1.0
 22
0.0
 32
0.0
 13
1.0
 23
0.0
 33
0.0
 40
0.0
 40
0.0
 40
0.0
 40
0.0
 40
1.0
 40
1.0
 40
1.0
 40
2.0
 40
2.0
 40
2.0
 40
3.0
 40
3.0
 40
3.0
 40
4.0
 40
4.0
 40
4.0
 40
4.0
 10
126.8048083942021
 20
-153.2630771253805
 30
0.0
 10
126.8048083942021
 20
-153.5615300536371
 30
0.0
 10
126.4086385622835
 20
-153.8031819700806
 30
0.0
 10
125.9200378950879
 20
-153.8031819700806
 30
0.0
 10
125.4314426108541
 20
-153.8031819700806
 30
0.0
 10
125.0359779469176
 20
-153.5615300536371
 30
0.0
 10
125.0359779469176
 20
-153.2630771253805
 30
0.0
 10
125.0359779469176
 20
-152.9639244121035
 30
0.0
 10
125.4314426108541
 20
-152.72227249566
 30
0.0
 10
125.9200378950879
 20
-152.72227249566
 30
0.0
 10
126.4086385622835
 20
-152.72227249566
 30
0.0
 10
126.8048083942021
 20
-152.9639244121035
 30
0.0
 10
126.8048083942021
 20
-153.2630771253805
 30
0.0
  0
SPLINE
  5
21D
330
1F
100
AcDbEntity
  8
_U+30EC_U+30A4_U+30E4_U+30FC 1
 62
   179
420
  2234388
370
     9
100
AcDbSpline
210
0.0
220
0.0
230
1.0
 70
     8
 71
     3
 72
    11
 73
     7
 74
     0
 42
0.0000000001
 43
0.0000000001
 12
1.0
 22
0.0
 32
0.0
 13
1.0
 23
0.0
 33
0.0
 40
0.0
 40
0.0
 40
0.0
 40
0.0
 40
1.0
 40
1.0
 40
1.0
 40
2.0
 40
2.0
 40
2.0
 40
2.0
 10
125.7361397746776
 20
-155.2901766918632
 30
0.0
 10
125.8345618463219
 20
-155.5230113170492
 30
0.0
 10
126.1799326687182
 20
-155.6951691980011
 30
0.0
 10
126.5919768546774
 20
-155.6951691980011
 30
0.0
 10
127.0040210406367
 20
-155.6951691980011
 30
0.0
 10
127.3490365875611
 20
-155.5230113170492
 30
0.0
 10
127.4471087666951
 20
-155.2901766918632
 30
0.0
  0
SPLINE
  5
21E
330
1F
100
AcDbEntity
  8
_U+30EC_U+30A4_U+30E4_U+30FC 1
 62
   179
420
  2234388
370
     9
100
AcDbSpline
210
0.0
220
0.0
230
1.0
 70
    11
 71
     3
 72
    17
 73
    13
 74
     0
 42
0.0000000001
 43
0.0000000001
 12
1.0
 22
0.0
 32
0.0
 13
1.0
 23
0.0
 33
0.0
 40
0.0
 40
0.0
 40
0.0
 40
0.0
 40
1.0
 40
1.0
 40
1.0
 40
2.0
 40
2.0
 40
2.0
 40
3.0
 40
3.0
 40
3.0
 40
4.0
 40
4.0
 40
4.0
 40
4.0
 10
127.4758968458437
 20
-155.4252513496935
 30
0.0
 10
127.4758968458437
 20
-155.72370427795
 30
0.0
 10
127.0804321819072
 20
-155.9653561943935
 30
0.0
 10
126.5918315147116
 20
-155.9653561943935
 30
0.0
 10
126.1032362304778
 20
-155.9653561943935
 30
0.0
 10
125.7070663985591
 20
-155.72370427795
 30
0.0
 10
125.7070663985591
 20
-155.4252513496935
 30
0.0
 10
125.7070663985591
 20
-155.1260986364165
 30
0.0
 10
126.1032362304778
 20
-154.884446719973
 30
0.0
 10
126.5918315147116
 20
-154.884446719973
 30
0.0
 10
127.0804321819072
 20
-154.884446719973
 30
0.0
 10
127.4758968458437
 20
-155.1260986364165
 30
0.0
 10
127.4758968458437
 20
-155.4252513496935
 30
0.0
  0
SPLINE
  5
21F
330
1F
100
AcDbEntity
  8
_U+30EC_U+30A4_U+30E4_U+30FC 1
 62
   179
420
  2234388
370
     9
100
AcDbSpline
210
0.0
220
0.0
230
1.0
 70
     8
 71
     3
 72
    11
 73
     7
 74
     0
 42
0.0000000001
 43
0.0000000001
 12
1.0
 22
0.0
 32
0.0
 13
1.0
 23
0.0
 33
0.0
 40
0.0
 40
0.0
 40
0.0
 40
0.0
 40
1.0
 40
1.0
 40
1.0
 40
2.0
 40
2.0
 40
2.0
 40
2.0
 10
126.4403172918627
 20
-157.468187589485
 30
0.0
 10
126.5387393635069
 20
-157.7010222146709
 30
0.0
 10
126.8841101859032
 20
-157.8731800956229
 30
0.0
 10
127.2961543718625
 20
-157.8731800956229
 30
0.0
 10
127.7081985578218
 20
-157.8731800956229
 30
0.0
 10
128.0532141047461
 20
-157.7010222146709
 30
0.0
 10
128.1512862838802
 20
-157.468187589485
 30
0.0
  0
SPLINE
  5
220
330
1F
100
AcDbEntity
  8
_U+30EC_U+30A4_U+30E4_U+30FC 1
 62
   179
420
  2234388
370
     9
100
AcDbSpline
210
0.0
220
0.0
230
1.0
 70
    11
 71
     3
 72
    17
 73
    13
 74
     0
 42
0.0000000001
 43
0.0000000001
 12
1.0
 22
0.0
 32
0.0
 13
1.0
 23
0.0
 33
0.0
 40
0.0
 40
0.0
 40
0.0
 40
0.0
 40
1.0
 40
1.0
 40
1.0
 40
2.0
 40
2.0
 40
2.0
 40
3.0
 40
3.0
 40
3.0
 40
4.0
 40
4.0
 40
4.0
 40
4.0
 10
128.1800743630288
 20
-157.6032353325068
 30
0.0
 10
128.1800743630288
 20
-157.9016882607633
 30
0.0
 10
127.7846096990923
 20
-158.1440453451889
 30
0.0
 10
127.2960090318967
 20
-158.1440453451889
 30
0.0
 10
126.8074137476628
 20
-158.1440453451889
 30
0.0
 10
126.4112439157442
 20
-157.9016882607633
 30
0.0
 10
126.4112439157442
 20
-157.6032353325068
 30
0.0
 10
126.4112439157442
 20
-157.3047877872119
 30
0.0
 10
126.8074137476628
 20
-157.0631358707684
 30
0.0
 10
127.2960090318967
 20
-157.0631358707684
 30
0.0
 10
127.7846096990923
 20
-157.0631358707684
 30
0.0
 10
128.1800743630288
 20
-157.3047877872119
 30
0.0
 10
128.1800743630288
 20
-157.6032353325068
 30
0.0
  0
SPLINE
  5
221
330
1F
100
AcDbEntity
  8
_U+30EC_U+30A4_U+30E4_U+30FC 1
 62
   179
420
  2234388
370
     9
100
AcDbSpline
210
0.0
220
0.0
230
1.0
 70
     8
 71
     3
 72
    11
 73
     7
 74
     0
 42
0.0000000001
 43
0.0000000001
 12
1.0
 22
0.0
 32
0.0
 13
1.0
 23
0.0
 33
0.0
 40
0.0
 40
0.0
 40
0.0
 40
0.0
 40
1.0
 40
1.0
 40
1.0
 40
2.0
 40
2.0
 40
2.0
 40
2.0
 10
129.4375557469917
 20
-155.7242694889281
 30
0.0
 10
129.535977818636
 20
-155.957104114114
 30
0.0
 10
129.8813486410323
 20
-156.129261995066
 30
0.0
 10
130.2933928269915
 20
-156.129261995066
 30
0.0
 10
130.7054370129508
 20
-156.129261995066
 30
0.0
 10
131.0504525598752
 20
-155.957104114114
 30
0.0
 10
131.1492299069913
 20
-155.7242694889281
 30
0.0
  0
SPLINE
  5
222
330
1F
100
AcDbEntity
  8
_U+30EC_U+30A4_U+30E4_U+30FC 1
 62
   179
420
  2234388
370
     9
100
AcDbSpline
210
0.0
220
0.0
230
1.0
 70
    11
 71
     3
 72
    17
 73
    13
 74
     0
 42
0.0000000001
 43
0.0000000001
 12
1.0
 22
0.0
 32
0.0
 13
1.0
 23
0.0
 33
0.0
 40
0.0
 40
0.0
 40
0.0
 40
0.0
 40
1.0
 40
1.0
 40
1.0
 40
2.0
 40
2.0
 40
2.0
 40
3.0
 40
3.0
 40
3.0
 40
4.0
 40
4.0
 40
4.0
 40
4.0
 10
131.17801798614
 20
-155.8593118489882
 30
0.0
 10
131.17801798614
 20
-156.1577647772448
 30
0.0
 10
130.7818481542213
 20
-156.3994166936882
 30
0.0
 10
130.2932474870258
 20
-156.3994166936882
 30
0.0
 10
129.8046522027919
 20
-156.3994166936882
 30
0.0
 10
129.4091875388554
 20
-156.1577647772448
 30
0.0
 10
129.4091875388554
 20
-155.8593118489882
 30
0.0
 10
129.4091875388554
 20
-155.5601591357112
 30
0.0
 10
129.8046522027919
 20
-155.3185072192677
 30
0.0
 10
130.2932474870258
 20
-155.3185072192677
 30
0.0
 10
130.7818481542213
 20
-155.3185072192677
 30
0.0
 10
131.17801798614
 20
-155.5601591357112
 30
0.0
 10
131.17801798614
 20
-155.8593118489882
 30
0.0
  0
ENDSEC
  0
SECTION
  2
OBJECTS
  0
DICTIONARY
  5
C
330
0
100
AcDbDictionary
281
     1
  3
ACAD_GROUP
350
D
  3
ACAD_LAYOUT
350
1A
  3
ACAD_MATERIAL
350
3B
  3
ACAD_MLEADERSTYLE
350
224
  3
ACAD_MLINESTYLE
350
17
  3
ACAD_PLOTSETTINGS
350
19
  3
ACAD_PLOTSTYLENAME
350
E
  3
ACAD_TABLESTYLE
350
223
  3
ACAD_VISUALSTYLE
350
2A
  0
SUN
  5
3F
330
29
100
AcDbSun
 90
        1
290
     0
 63
     7
421
 16777215
 40
1.0
291
     1
 91
  2455826
 92
 54000000
292
     0
 70
     2
 71
   256
280
     1
  0
DICTIONARY
  5
D
102
{ACAD_REACTORS
330
C
102
}
330
C
100
AcDbDictionary
281
     1
  0
DICTIONARY
  5
1A
102
{ACAD_REACTORS
330
C
102
}
330
C
100
AcDbDictionary
281
     1
  3
Layout1
350
1E
  3
Layout2
350
26
  3
Model
350
22
  0
DICTIONARY
  5
3B
102
{ACAD_REACTORS
330
C
102
}
330
C
100
AcDbDictionary
281
     1
  3
ByBlock
350
3D
  3
ByLayer
350
3C
  3
Global
350
3E
  0
DICTIONARY
  5
224
102
{ACAD_REACTORS
330
C
102
}
330
C
100
AcDbDictionary
281
     1
  0
DICTIONARY
  5
17
102
{ACAD_REACTORS
330
C
102
}
330
C
100
AcDbDictionary
281
     1
  3
Standard
350
18
  0
DICTIONARY
  5
19
102
{ACAD_REACTORS
330
C
102
}
330
C
100
AcDbDictionary
281
     1
  0
ACDBDICTIONARYWDFLT
  5
E
102
{ACAD_REACTORS
330
C
102
}
330
C
100
AcDbDictionary
281
     1
  3
Normal
350
F
100
AcDbDictionaryWithDefault
340
F
  0
DICTIONARY
  5
223
102
{ACAD_REACTORS
330
C
102
}
330
C
100
AcDbDictionary
281
     1
  0
DICTIONARY
  5
2A
102
{ACAD_REACTORS
330
C
102
}
330
C
100
AcDbDictionary
281
     1
  3
2dWireframe
350
2F
  3
3D Hidden
350
31
  3
3dWireframe
350
30
  3
Basic
350
32
  3
Brighten
350
36
  3
ColorChange
350
3A
  3
Conceptual
350
34
  3
Dim
350
35
  3
Facepattern
350
39
  3
Flat
350
2B
  3
FlatWithEdges
350
2C
  3
Gouraud
350
2D
  3
GouraudWithEdges
350
2E
  3
Linepattern
350
38
  3
Realistic
350
33
  3
Thicken
350
37
  0
LAYOUT
  5
1E
102
{ACAD_REACTORS
330
1A
102
}
330
1A
100
AcDbPlotSettings
  1

  2
none_device
  4

  6

 40
0.0
 41
0.0
 42
0.0
 43
0.0
 44
0.0
 45
0.0
 46
0.0
 47
0.0
 48
0.0
 49
0.0
140
0.0
141
0.0
142
1.0
143
1.0
 70
   688
 72
     0
 73
     0
 74
     5
  7

 75
    16
 76
     0
 77
     2
 78
   300
147
1.0
148
0.0
149
0.0
100
AcDbLayout
  1
Layout1
 70
     1
 71
     1
 10
0.0
 20
0.0
 11
12.0
 21
9.0
 12
0.0
 22
0.0
 32
0.0
 14
1.000000000000000E+20
 24
1.000000000000000E+20
 34
1.000000000000000E+20
 15
-1.000000000000000E+20
 25
-1.000000000000000E+20
 35
-1.000000000000000E+20
146
0.0
 13
0.0
 23
0.0
 33
0.0
 16
1.0
 26
0.0
 36
0.0
 17
0.0
 27
1.0
 37
0.0
 76
     0
330
1B
  0
LAYOUT
  5
26
102
{ACAD_REACTORS
330
1A
102
}
330
1A
100
AcDbPlotSettings
  1

  2
none_device
  4

  6

 40
0.0
 41
0.0
 42
0.0
 43
0.0
 44
0.0
 45
0.0
 46
0.0
 47
0.0
 48
0.0
 49
0.0
140
0.0
141
0.0
142
1.0
143
1.0
 70
   688
 72
     0
 73
     0
 74
     5
  7

 75
    16
 76
     0
 77
     2
 78
   300
147
1.0
148
0.0
149
0.0
100
AcDbLayout
  1
Layout2
 70
     1
 71
     2
 10
0.0
 20
0.0
 11
0.0
 21
0.0
 12
0.0
 22
0.0
 32
0.0
 14
0.0
 24
0.0
 34
0.0
 15
0.0
 25
0.0
 35
0.0
146
0.0
 13
0.0
 23
0.0
 33
0.0
 16
1.0
 26
0.0
 36
0.0
 17
0.0
 27
1.0
 37
0.0
 76
     0
330
23
  0
LAYOUT
  5
22
102
{ACAD_REACTORS
330
1A
102
}
330
1A
100
AcDbPlotSettings
  1

  2
none_device
  4

  6

 40
0.0
 41
0.0
 42
0.0
 43
0.0
 44
0.0
 45
0.0
 46
0.0
 47
0.0
 48
0.0
 49
0.0
140
0.0
141
0.0
142
1.0
143
1.0
 70
  1712
 72
     0
 73
     0
 74
     0
  7

 75
     0
 76
     0
 77
     2
 78
   300
147
1.0
148
0.0
149
0.0
100
AcDbLayout
  1
Model
 70
     1
 71
     0
 10
0.0
 20
0.0
 11
12.0
 21
9.0
 12
0.0
 22
0.0
 32
0.0
 14
1.000000000000000E+20
 24
1.000000000000000E+20
 34
1.000000000000000E+20
 15
-1.000000000000000E+20
 25
-1.000000000000000E+20
 35
-1.000000000000000E+20
146
0.0
 13
0.0
 23
0.0
 33
0.0
 16
1.0
 26
0.0
 36
0.0
 17
0.0
 27
1.0
 37
0.0
 76
     0
330
1F
331
29
  0
MATERIAL
  5
3D
102
{ACAD_REACTORS
330
3B
102
}
330
3B
100
AcDbMaterial
  1
ByBlock
 72
     1
 94
      127
  0
MATERIAL
  5
3C
102
{ACAD_REACTORS
330
3B
102
}
330
3B
100
AcDbMaterial
  1
ByLayer
 72
     1
 94
      127
  0
MATERIAL
  5
3E
102
{ACAD_REACTORS
330
3B
102
}
330
3B
100
AcDbMaterial
  1
Global
 72
     1
 94
      127
  0
MLINESTYLE
  5
18
102
{ACAD_REACTORS
330
17
102
}
330
17
100
AcDbMlineStyle
  2
Standard
 70
     0
  3

 62
   256
 51
90.0
 52
90.0
 71
     2
 49
0.5
 62
   256
  6
BYLAYER
 49
-0.5
 62
   256
  6
BYLAYER
  0
ACDBPLACEHOLDER
  5
F
102
{ACAD_REACTORS
330
E
102
}
330
E
  0
VISUALSTYLE
  5
2F
102
{ACAD_REACTORS
330
2A
102
}
330
2A
100
AcDbVisualStyle
  2
2dWireframe
 70
     4
177
     2
291
     0
 71
     0
176
     1
 72
     2
176
     1
 73
     0
176
     1
 90
        0
176
     1
 40
-0.6
176
     1
 41
-30.0
176
     1
 62
     5
 63
     7
421
 16777215
176
     1
 74
     1
176
     1
 91
        4
176
     1
 64
     7
176
     1
 65
   257
176
     1
 75
     1
176
     1
175
     1
176
     1
 42
1.0
176
     1
 92
        0
176
     1
 66
   257
176
     1
 43
1.0
176
     1
 76
     1
176
     1
 77
     6
176
     1
 78
     2
176
     1
 67
     7
176
     1
 79
     5
176
     1
170
     0
176
     1
171
     0
176
     1
290
     0
176
     1
 93
        1
176
     1
 44
0.0
176
     1
173
     0
176
     1
  0
VISUALSTYLE
  5
31
102
{ACAD_REACTORS
330
2A
102
}
330
2A
100
AcDbVisualStyle
  2
3D Hidden
 70
     6
177
     2
291
     0
 71
     1
176
     1
 72
     2
176
     1
 73
     2
176
     1
 90
        0
176
     1
 40
-0.6
176
     1
 41
-30.0
176
     1
 62
     5
 63
     7
421
 16777215
176
     1
 74
     2
176
     1
 91
        2
176
     1
 64
     7
176
     1
 65
   257
176
     1
 75
     2
176
     1
175
     1
176
     1
 42
40.0
176
     1
 92
        0
176
     1
 66
   257
176
     1
 43
1.0
176
     1
 76
     1
176
     1
 77
     6
176
     1
 78
     2
176
     1
 67
     7
176
     1
 79
     3
176
     1
170
     0
176
     1
171
     0
176
     1
290
     0
176
     1
 93
        1
176
     1
 44
0.0
176
     1
173
     0
176
     1
  0
VISUALSTYLE
  5
30
102
{ACAD_REACTORS
330
2A
102
}
330
2A
100
AcDbVisualStyle
  2
3dWireframe
 70
     5
177
     2
291
     0
 71
     0
176
     1
 72
     2
176
     1
 73
     0
176
     1
 90
        0
176
     1
 40
-0.6
176
     1
 41
-30.0
176
     1
 62
     5
 63
     7
421
 16777215
176
     1
 74
     1
176
     1
 91
        4
176
     1
 64
     7
176
     1
 65
   257
176
     1
 75
     1
176
     1
175
     1
176
     1
 42
1.0
176
     1
 92
        0
176
     1
 66
   257
176
     1
 43
1.0
176
     1
 76
     1
176
     1
 77
     6
176
     1
 78
     2
176
     1
 67
     7
176
     1
 79
     5
176
     1
170
     0
176
     1
171
     0
176
     1
290
     0
176
     1
 93
        1
176
     1
 44
0.0
176
     1
173
     0
176
     1
  0
VISUALSTYLE
  5
32
102
{ACAD_REACTORS
330
2A
102
}
330
2A
100
AcDbVisualStyle
  2
Basic
 70
     7
177
     2
291
     1
 71
     1
176
     1
 72
     0
176
     1
 73
     1
176
     1
 90
        0
176
     1
 40
-0.6
176
     1
 41
-30.0
176
     1
 62
     5
 63
     7
421
 16777215
176
     1
 74
     0
176
     1
 91
        4
176
     1
 64
     7
176
     1
 65
   257
176
     1
 75
     1
176
     1
175
     1
176
     1
 42
1.0
176
     1
 92
        8
176
     1
 66
     7
176
     1
 43
1.0
176
     1
 76
     1
176
     1
 77
     6
176
     1
 78
     2
176
     1
 67
     7
176
     1
 79
     5
176
     1
170
     0
176
     1
171
     0
176
     1
290
     0
176
     1
 93
        1
176
     1
 44
0.0
176
     1
173
     0
176
     1
  0
VISUALSTYLE
  5
36
102
{ACAD_REACTORS
330
2A
102
}
330
2A
100
AcDbVisualStyle
  2
Brighten
 70
    12
177
     2
291
     1
 71
     2
176
     1
 72
     2
176
     1
 73
     0
176
     1
 90
        0
176
     1
 40
-0.6
176
     1
 41
-30.0
176
     1
 62
     5
 63
     7
421
 16777215
176
     1
 74
     1
176
     1
 91
        4
176
     1
 64
     7
176
     1
 65
   257
176
     1
 75
     1
176
     1
175
     1
176
     1
 42
1.0
176
     1
 92
        8
176
     1
 66
     7
176
     1
 43
1.0
176
     1
 76
     1
176
     1
 77
     6
176
     1
 78
     2
176
     1
 67
     7
176
     1
 79
     5
176
     1
170
     0
176
     1
171
     0
176
     1
290
     0
176
     1
 93
        1
176
     1
 44
50.0
176
     1
173
     0
176
     1
  0
VISUALSTYLE
  5
3A
102
{ACAD_REACTORS
330
2A
102
}
330
2A
100
AcDbVisualStyle
  2
ColorChange
 70
    16
177
     2
291
     1
 71
     2
176
     1
 72
     2
176
     1
 73
     3
176
     1
 90
        0
176
     1
 40
-0.6
176
     1
 41
-30.0
176
     1
 62
     5
 63
     8
421
  8421504
176
     1
 74
     1
176
     1
 91
        4
176
     1
 64
     7
176
     1
 65
   257
176
     1
 75
     1
176
     1
175
     1
176
     1
 42
1.0
176
     1
 92
        8
176
     1
 66
     8
424
  8421504
176
     1
 43
1.0
176
     1
 76
     1
176
     1
 77
     6
176
     1
 78
     2
176
     1
 67
     7
176
     1
 79
     5
176
     1
170
     0
176
     1
171
     0
176
     1
290
     0
176
     1
 93
        1
176
     1
 44
0.0
176
     1
173
     0
176
     1
  0
VISUALSTYLE
  5
34
102
{ACAD_REACTORS
330
2A
102
}
330
2A
100
AcDbVisualStyle
  2
Conceptual
 70
     9
177
     2
291
     0
 71
     3
176
     1
 72
     2
176
     1
 73
     0
176
     1
 90
        0
176
     1
 40
-0.6
176
     1
 41
-30.0
176
     1
 62
     5
 63
     7
421
 16777215
176
     1
 74
     2
176
     1
 91
        2
176
     1
 64
     7
176
     1
 65
   257
176
     1
 75
     1
176
     1
175
     1
176
     1
 42
40.0
176
     1
 92
        8
176
     1
 66
     7
176
     1
 43
1.0
176
     1
 76
     1
176
     1
 77
     6
176
     1
 78
     2
176
     1
 67
     7
176
     1
 79
     3
176
     1
170
     0
176
     1
171
     0
176
     1
290
     0
176
     1
 93
        1
176
     1
 44
0.0
176
     1
173
     0
176
     1
  0
VISUALSTYLE
  5
35
102
{ACAD_REACTORS
330
2A
102
}
330
2A
100
AcDbVisualStyle
  2
Dim
 70
    11
177
     2
291
     1
 71
     2
176
     1
 72
     2
176
     1
 73
     0
176
     1
 90
        0
176
     1
 40
-0.6
176
     1
 41
-30.0
176
     1
 62
     5
 63
     7
421
 16777215
176
     1
 74
     1
176
     1
 91
        4
176
     1
 64
     7
176
     1
 65
   257
176
     1
 75
     1
176
     1
175
     1
176
     1
 42
1.0
176
     1
 92
        8
176
     1
 66
     7
176
     1
 43
1.0
176
     1
 76
     1
176
     1
 77
     6
176
     1
 78
     2
176
     1
 67
     7
176
     1
 79
     5
176
     1
170
     0
176
     1
171
     0
176
     1
290
     0
176
     1
 93
        1
176
     1
 44
-50.0
176
     1
173
     0
176
     1
  0
VISUALSTYLE
  5
39
102
{ACAD_REACTORS
330
2A
102
}
330
2A
100
AcDbVisualStyle
  2
Facepattern
 70
    15
177
     2
291
     1
 71
     2
176
     1
 72
     2
176
     1
 73
     0
176
     1
 90
        0
176
     1
 40
-0.6
176
     1
 41
-30.0
176
     1
 62
     5
 63
     7
421
 16777215
176
     1
 74
     1
176
     1
 91
        4
176
     1
 64
     7
176
     1
 65
   257
176
     1
 75
     1
176
     1
175
     1
176
     1
 42
1.0
176
     1
 92
        8
176
     1
 66
     7
176
     1
 43
1.0
176
     1
 76
     1
176
     1
 77
     6
176
     1
 78
     2
176
     1
 67
     7
176
     1
 79
     5
176
     1
170
     0
176
     1
171
     0
176
     1
290
     0
176
     1
 93
        1
176
     1
 44
0.0
176
     1
173
     0
176
     1
  0
VISUALSTYLE
  5
2B
102
{ACAD_REACTORS
330
2A
102
}
330
2A
100
AcDbVisualStyle
  2
Flat
 70
     0
177
     2
291
     1
 71
     2
176
     1
 72
     1
176
     1
 73
     1
176
     1
 90
        2
176
     1
 40
-0.6
176
     1
 41
30.0
176
     1
 62
     5
 63
     7
421
 16777215
176
     1
 74
     0
176
     1
 91
        4
176
     1
 64
     7
176
     1
 65
   257
176
     1
 75
     1
176
     1
175
     1
176
     1
 42
1.0
176
     1
 92
        8
176
     1
 66
     7
176
     1
 43
1.0
176
     1
 76
     1
176
     1
 77
     6
176
     1
 78
     2
176
     1
 67
     7
176
     1
 79
     5
176
     1
170
     0
176
     1
171
     0
176
     1
290
     0
176
     1
 93
       13
176
     1
 44
0.0
176
     1
173
     0
176
     1
  0
VISUALSTYLE
  5
2C
102
{ACAD_REACTORS
330
2A
102
}
330
2A
100
AcDbVisualStyle
  2
FlatWithEdges
 70
     1
177
     2
291
     1
 71
     2
176
     1
 72
     1
176
     1
 73
     1
176
     1
 90
        2
176
     1
 40
-0.6
176
     1
 41
30.0
176
     1
 62
     5
 63
     7
421
 16777215
176
     1
 74
     1
176
     1
 91
        4
176
     1
 64
     7
176
     1
 65
   257
176
     1
 75
     1
176
     1
175
     1
176
     1
 42
1.0
176
     1
 92
        0
176
     1
 66
   257
176
     1
 43
1.0
176
     1
 76
     1
176
     1
 77
     6
176
     1
 78
     2
176
     1
 67
     7
176
     1
 79
     5
176
     1
170
     0
176
     1
171
     0
176
     1
290
     0
176
     1
 93
       13
176
     1
 44
0.0
176
     1
173
     0
176
     1
  0
VISUALSTYLE
  5
2D
102
{ACAD_REACTORS
330
2A
102
}
330
2A
100
AcDbVisualStyle
  2
Gouraud
 70
     2
177
     2
291
     1
 71
     2
176
     1
 72
     2
176
     1
 73
     1
176
     1
 90
        2
176
     1
 40
-0.6
176
     1
 41
30.0
176
     1
 62
     5
 63
     7
421
 16777215
176
     1
 74
     0
176
     1
 91
        4
176
     1
 64
     7
176
     1
 65
   257
176
     1
 75
     1
176
     1
175
     1
176
     1
 42
1.0
176
     1
 92
        0
176
     1
 66
     7
176
     1
 43
1.0
176
     1
 76
     1
176
     1
 77
     6
176
     1
 78
     2
176
     1
 67
     7
176
     1
 79
     5
176
     1
170
     0
176
     1
171
     0
176
     1
290
     0
176
     1
 93
       13
176
     1
 44
0.0
176
     1
173
     0
176
     1
  0
VISUALSTYLE
  5
2E
102
{ACAD_REACTORS
330
2A
102
}
330
2A
100
AcDbVisualStyle
  2
GouraudWithEdges
 70
     3
177
     2
291
     1
 71
     2
176
     1
 72
     2
176
     1
 73
     1
176
     1
 90
        2
176
     1
 40
-0.6
176
     1
 41
30.0
176
     1
 62
     5
 63
     7
421
 16777215
176
     1
 74
     1
176
     1
 91
        4
176
     1
 64
     7
176
     1
 65
   257
176
     1
 75
     1
176
     1
175
     1
176
     1
 42
1.0
176
     1
 92
        0
176
     1
 66
   257
176
     1
 43
1.0
176
     1
 76
     1
176
     1
 77
     6
176
     1
 78
     2
176
     1
 67
     7
176
     1
 79
     5
176
     1
170
     0
176
     1
171
     0
176
     1
290
     0
176
     1
 93
       13
176
     1
 44
0.0
176
     1
173
     0
176
     1
  0
VISUALSTYLE
  5
38
102
{ACAD_REACTORS
330
2A
102
}
330
2A
100
AcDbVisualStyle
  2
Linepattern
 70
    14
177
     2
291
     1
 71
     2
176
     1
 72
     2
176
     1
 73
     0
176
     1
 90
        0
176
     1
 40
-0.6
176
     1
 41
-30.0
176
     1
 62
     5
 63
     7
421
 16777215
176
     1
 74
     1
176
     1
 91
        4
176
     1
 64
     7
176
     1
 65
   257
176
     1
 75
     7
176
     1
175
     7
176
     1
 42
1.0
176
     1
 92
        8
176
     1
 66
     7
176
     1
 43
1.0
176
     1
 76
     1
176
     1
 77
     6
176
     1
 78
     2
176
     1
 67
     7
176
     1
 79
     5
176
     1
170
     0
176
     1
171
     0
176
     1
290
     0
176
     1
 93
        1
176
     1
 44
0.0
176
     1
173
     0
176
     1
  0
VISUALSTYLE
  5
33
102
{ACAD_REACTORS
330
2A
102
}
330
2A
100
AcDbVisualStyle
  2
Realistic
 70
     8
177
     2
291
     0
 71
     2
176
     1
 72
     2
176
     1
 73
     0
176
     1
 90
        0
176
     1
 40
-0.6
176
     1
 41
-30.0
176
     1
 62
     5
 63
     7
421
 16777215
176
     1
 74
     1
176
     1
 91
        0
176
     1
 64
     7
176
     1
 65
   257
176
     1
 75
     1
176
     1
175
     1
176
     1
 42
1.0
176
     1
 92
        8
176
     1
 66
     8
424
  7895160
176
     1
 43
1.0
176
     1
 76
     1
176
     1
 77
     6
176
     1
 78
     2
176
     1
 67
     7
176
     1
 79
     5
176
     1
170
     0
176
     1
171
     0
176
     1
290
     0
176
     1
 93
       13
176
     1
 44
0.0
176
     1
173
     0
176
     1
  0
VISUALSTYLE
  5
37
102
{ACAD_REACTORS
330
2A
102
}
330
2A
100
AcDbVisualStyle
  2
Thicken
 70
    13
177
     2
291
     1
 71
     2
176
     1
 72
     2
176
     1
 73
     0
176
     1
 90
        0
176
     1
 40
-0.6
176
     1
 41
-30.0
176
     1
 62
     5
 63
     7
421
 16777215
176
     1
 74
     1
176
     1
 91
        4
176
     1
 64
     7
176
     1
 65
   257
176
     1
 75
     1
176
     1
175
     1
176
     1
 42
1.0
176
     1
 92
       12
176
     1
 66
     7
176
     1
 43
1.0
176
     1
 76
     1
176
     1
 77
     6
176
     1
 78
     2
176
     1
 67
     7
176
     1
 79
     5
176
     1
170
     0
176
     1
171
     0
176
     1
290
     0
176
     1
 93
        1
176
     1
 44
0.0
176
     1
173
     0
176
     1
  0
ENDSEC
  0
EOF
