  0
SECTION
  2
HEADER
  9
$ACADVER
  1
AC1024
  9
$ACADMAINTVER
 70
     6
  9
$DWGCODEPAGE
  3
UNDEFINED
  9
$INSBASE
 10
0.0
 20
0.0
 30
0.0
  9
$EXTMIN
 10
1.000000000000000E+20
 20
1.000000000000000E+20
 30
1.000000000000000E+20
  9
$EXTMAX
 10
-1.000000000000000E+20
 20
-1.000000000000000E+20
 30
-1.000000000000000E+20
  9
$LIMMIN
 10
0.0
 20
0.0
  9
$LIMMAX
 10
12.0
 20
9.0
  9
$ORTHOMODE
 70
     0
  9
$REGENMODE
 70
     1
  9
$FILLMODE
 70
     1
  9
$QTEXTMODE
 70
     0
  9
$MIRRTEXT
 70
     1
  9
$LTSCALE
 40
1.0
  9
$ATTMODE
 70
     1
  9
$TEXTSIZE
 40
0.2
  9
$TRACEWID
 40
0.05
  9
$TEXTSTYLE
  7
Standard
  9
$CLAYER
  8
0
  9
$CELTYPE
  6
ByLayer
  9
$CECOLOR
 62
   256
  9
$CELTSCALE
 40
1.0
  9
$DISPSILH
 70
     0
  9
$DIMSCALE
 40
1.0
  9
$DIMASZ
 40
0.18
  9
$DIMEXO
 40
0.0625
  9
$DIMDLI
 40
0.38
  9
$DIMRND
 40
0.0
  9
$DIMDLE
 40
0.0
  9
$DIMEXE
 40
0.18
  9
$DIMTP
 40
0.0
  9
$DIMTM
 40
0.0
  9
$DIMTXT
 40
0.18
  9
$DIMCEN
 40
0.09
  9
$DIMTSZ
 40
0.0
  9
$DIMTOL
 70
     0
  9
$DIMLIM
 70
     0
  9
$DIMTIH
 70
     1
  9
$DIMTOH
 70
     1
  9
$DIMSE1
 70
     0
  9
$DIMSE2
 70
     0
  9
$DIMTAD
 70
     0
  9
$DIMZIN
 70
     0
  9
$DIMBLK
  1

  9
$DIMASO
 70
     1
  9
$DIMSHO
 70
     1
  9
$DIMPOST
  1

  9
$DIMAPOST
  1

  9
$DIMALT
 70
     0
  9
$DIMALTD
 70
     2
  9
$DIMALTF
 40
25.4
  9
$DIMLFAC
 40
1.0
  9
$DIMTOFL
 70
     0
  9
$DIMTVP
 40
0.0
  9
$DIMTIX
 70
     0
  9
$DIMSOXD
 70
     0
  9
$DIMSAH
 70
     0
  9
$DIMBLK1
  1

  9
$DIMBLK2
  1

  9
$DIMSTYLE
  2
Standard
  9
$DIMCLRD
 70
     0
  9
$DIMCLRE
 70
     0
  9
$DIMCLRT
 70
     0
  9
$DIMTFAC
 40
1.0
  9
$DIMGAP
 40
0.09
  9
$DIMJUST
 70
     0
  9
$DIMSD1
 70
     0
  9
$DIMSD2
 70
     0
  9
$DIMTOLJ
 70
     1
  9
$DIMTZIN
 70
     0
  9
$DIMALTZ
 70
     0
  9
$DIMALTTZ
 70
     0
  9
$DIMUPT
 70
     0
  9
$DIMDEC
 70
     4
  9
$DIMTDEC
 70
     4
  9
$DIMALTU
 70
     2
  9
$DIMALTTD
 70
     2
  9
$DIMTXSTY
  7
Standard
  9
$DIMAUNIT
 70
     0
  9
$DIMADEC
 70
     0
  9
$DIMALTRND
 40
0.0
  9
$DIMAZIN
 70
     0
  9
$DIMDSEP
 70
    46
  9
$DIMATFIT
 70
     3
  9
$DIMFRAC
 70
     0
  9
$DIMLDRBLK
  1

  9
$DIMLUNIT
 70
     2
  9
$DIMLWD
 70
    -2
  9
$DIMLWE
 70
    -2
  9
$DIMTMOVE
 70
     0
  9
$DIMFXL
 40
1.0
  9
$DIMFXLON
 70
     0
  9
$DIMJOGANG
 40
0.7853981633974483
  9
$DIMTFILL
 70
     0
  9
$DIMTFILLCLR
 70
     0
  9
$DIMARCSYM
 70
     0
  9
$DIMLTYPE
  6

  9
$DIMLTEX1
  6

  9
$DIMLTEX2
  6

  9
$DIMTXTDIRECTION
 70
     0
  9
$LUNITS
 70
     2
  9
$LUPREC
 70
     4
  9
$SKETCHINC
 40
0.1
  9
$FILLETRAD
 40
0.5
  9
$AUNITS
 70
     0
  9
$AUPREC
 70
     0
  9
$MENU
  1
.
  9
$ELEVATION
 40
0.0
  9
$PELEVATION
 40
0.0
  9
$THICKNESS
 40
0.0
  9
$LIMCHECK
 70
     0
  9
$CHAMFERA
 40
0.5
  9
$CHAMFERB
 40
0.5
  9
$CHAMFERC
 40
1.0
  9
$CHAMFERD
 40
0.0
  9
$SKPOLY
 70
     0
  9
$TDCREATE
 40
2458270.58810184
  9
$TDUCREATE
 40
2458270.213101852
  9
$TDUPDATE
 40
2458270.58810184
  9
$TDUUPDATE
 40
2458270.213101852
  9
$TDINDWG
 40
0.0000000116
  9
$TDUSRTIMER
 40
0.0000000116
  9
$USRTIMER
 70
     1
  9
$ANGBASE
 50
0.0
  9
$ANGDIR
 70
     0
  9
$PDMODE
 70
     0
  9
$PDSIZE
 40
0.0
  9
$PLINEWID
 40
0.0
  9
$SPLFRAME
 70
     0
  9
$SPLINETYPE
 70
     6
  9
$SPLINESEGS
 70
     8
  9
$HANDSEED
  5
1E6
  9
$SURFTAB1
 70
     6
  9
$SURFTAB2
 70
     6
  9
$SURFTYPE
 70
     6
  9
$SURFU
 70
     6
  9
$SURFV
 70
     6
  9
$UCSBASE
  2

  9
$UCSNAME
  2

  9
$UCSORG
 10
0.0
 20
0.0
 30
0.0
  9
$UCSXDIR
 10
1.0
 20
0.0
 30
0.0
  9
$UCSYDIR
 10
0.0
 20
1.0
 30
0.0
  9
$UCSORTHOREF
  2

  9
$UCSORTHOVIEW
 70
     0
  9
$UCSORGTOP
 10
0.0
 20
0.0
 30
0.0
  9
$UCSORGBOTTOM
 10
0.0
 20
0.0
 30
0.0
  9
$UCSORGLEFT
 10
0.0
 20
0.0
 30
0.0
  9
$UCSORGRIGHT
 10
0.0
 20
0.0
 30
0.0
  9
$UCSORGFRONT
 10
0.0
 20
0.0
 30
0.0
  9
$UCSORGBACK
 10
0.0
 20
0.0
 30
0.0
  9
$PUCSBASE
  2

  9
$PUCSNAME
  2

  9
$PUCSORG
 10
0.0
 20
0.0
 30
0.0
  9
$PUCSXDIR
 10
1.0
 20
0.0
 30
0.0
  9
$PUCSYDIR
 10
0.0
 20
1.0
 30
0.0
  9
$PUCSORTHOREF
  2

  9
$PUCSORTHOVIEW
 70
     0
  9
$PUCSORGTOP
 10
0.0
 20
0.0
 30
0.0
  9
$PUCSORGBOTTOM
 10
0.0
 20
0.0
 30
0.0
  9
$PUCSORGLEFT
 10
0.0
 20
0.0
 30
0.0
  9
$PUCSORGRIGHT
 10
0.0
 20
0.0
 30
0.0
  9
$PUCSORGFRONT
 10
0.0
 20
0.0
 30
0.0
  9
$PUCSORGBACK
 10
0.0
 20
0.0
 30
0.0
  9
$USERI1
 70
     0
  9
$USERI2
 70
     0
  9
$USERI3
 70
     0
  9
$USERI4
 70
     0
  9
$USERI5
 70
     0
  9
$USERR1
 40
0.0
  9
$USERR2
 40
0.0
  9
$USERR3
 40
0.0
  9
$USERR4
 40
0.0
  9
$USERR5
 40
0.0
  9
$WORLDVIEW
 70
     1
  9
$SHADEDGE
 70
     3
  9
$SHADEDIF
 70
    70
  9
$TILEMODE
 70
     1
  9
$MAXACTVP
 70
    64
  9
$PINSBASE
 10
0.0
 20
0.0
 30
0.0
  9
$PLIMCHECK
 70
     0
  9
$PEXTMIN
 10
1.000000000000000E+20
 20
1.000000000000000E+20
 30
1.000000000000000E+20
  9
$PEXTMAX
 10
-1.000000000000000E+20
 20
-1.000000000000000E+20
 30
-1.000000000000000E+20
  9
$PLIMMIN
 10
0.0
 20
0.0
  9
$PLIMMAX
 10
12.0
 20
9.0
  9
$UNITMODE
 70
     0
  9
$VISRETAIN
 70
     1
  9
$PLINEGEN
 70
     0
  9
$PSLTSCALE
 70
     1
  9
$TREEDEPTH
 70
  3020
  9
$CMLSTYLE
  2
Standard
  9
$CMLJUST
 70
     0
  9
$CMLSCALE
 40
1.0
  9
$PROXYGRAPHICS
 70
     1
  9
$MEASUREMENT
 70
     0
  9
$CELWEIGHT
370
    -1
  9
$ENDCAPS
280
     0
  9
$JOINSTYLE
280
     0
  9
$LWDISPLAY
290
     1
  9
$INSUNITS
 70
     1
  9
$HYPERLINKBASE
  1

  9
$STYLESHEET
  1

  9
$XEDIT
290
     1
  9
$CEPSNTYPE
380
     0
  9
$PSTYLEMODE
290
     1
  9
$FINGERPRINTGUID
  2
{81ECBDD2-099B-EB67-0AC0-C04CFEB63847}
  9
$VERSIONGUID
  2
{FAEB1C32-E019-11D5-929B-00C0DF256EC4}
  9
$EXTNAMES
290
     1
  9
$PSVPSCALE
 40
0.0
  9
$OLESTARTUP
290
     0
  9
$SORTENTS
280
   127
  9
$INDEXCTL
280
     0
  9
$HIDETEXT
280
     1
  9
$XCLIPFRAME
280
     2
  9
$HALOGAP
280
     0
  9
$OBSCOLOR
 70
   257
  9
$OBSLTYPE
280
     0
  9
$INTERSECTIONDISPLAY
280
     0
  9
$INTERSECTIONCOLOR
 70
   257
  9
$DIMASSOC
280
     2
  9
$PROJECTNAME
  1

  9
$CAMERADISPLAY
290
     0
  9
$LENSLENGTH
 40
50.0
  9
$CAMERAHEIGHT
 40
0.0
  9
$STEPSPERSEC
 40
2.0
  9
$STEPSIZE
 40
6.0
  9
$3DDWFPREC
 40
2.0
  9
$PSOLWIDTH
 40
0.25
  9
$PSOLHEIGHT
 40
4.0
  9
$LOFTANG1
 40
1.570796326794897
  9
$LOFTANG2
 40
1.570796326794897
  9
$LOFTMAG1
 40
0.0
  9
$LOFTMAG2
 40
0.0
  9
$LOFTPARAM
 70
     7
  9
$LOFTNORMALS
280
     1
  9
$LATITUDE
 40
37.795
  9
$LONGITUDE
 40
-122.394
  9
$NORTHDIRECTION
 40
0.0
  9
$TIMEZONE
 70
 -8000
  9
$LIGHTGLYPHDISPLAY
280
     1
  9
$TILEMODELIGHTSYNCH
280
     1
  9
$CMATERIAL
347
3C
  9
$SOLIDHIST
280
     1
  9
$SHOWHIST
280
     1
  9
$DWFFRAME
280
     2
  9
$DGNFRAME
280
     2
  9
$REALWORLDSCALE
290
     1
  9
$INTERFERECOLOR
 62
   256
  9
$CSHADOW
280
     0
  9
$SHADOWPLANELOCATION
 40
0.0
  0
ENDSEC
  0
SECTION
  2
CLASSES
  0
CLASS
  1
ACDBDICTIONARYWDFLT
  2
AcDbDictionaryWithDefault
  3
ObjectDBX Classes
 90
        0
 91
        4
280
     0
281
     0
  0
CLASS
  1
VISUALSTYLE
  2
AcDbVisualStyle
  3
ObjectDBX Classes
 90
     4095
 91
        4
280
     0
281
     0
  0
CLASS
  1
MATERIAL
  2
AcDbMaterial
  3
ObjectDBX Classes
 90
     1153
 91
        4
280
     0
281
     0
  0
CLASS
  1
SUN
  2
AcDbSun
  3
SCENEOE
 90
     1024
 91
        4
280
     0
281
     0
  0
ENDSEC
  0
SECTION
  2
TABLES
  0
TABLE
  2
VPORT
  5
8
330
0
100
AcDbSymbolTable
 70
     1
  0
VPORT
  5
29
330
8
100
AcDbSymbolTableRecord
100
AcDbViewportTableRecord
  2
*Active
 70
     0
 10
0.0
 20
0.0
 11
1.0
 21
1.0
 12
0.0
 22
0.0
 13
0.0
 23
0.0
 14
0.5
 24
0.5
 15
0.5
 25
0.5
 16
0.0
 26
0.0
 36
1.0
 17
105.0007777515277
 27
-148.5000416295416
 37
0.0
 40
297.0000832590831
 41
0.7070757462376333
 42
50.0
 43
0.0
 44
0.0
 50
0.0
 51
0.0
 71
     0
 72
   100
 73
     1
 74
     3
 75
     0
 76
     0
 77
     0
 78
     0
281
     0
 65
     1
110
0.0
120
0.0
130
0.0
111
1.0
121
0.0
131
0.0
112
0.0
122
1.0
132
0.0
 79
     0
146
0.0
 60
     3
 61
     5
292
     1
282
     1
141
0.0
142
0.0
 63
   250
361
3F
  0
ENDTAB
  0
TABLE
  2
LTYPE
  5
5
330
0
100
AcDbSymbolTable
 70
     2
  0
LTYPE
  5
14
330
5
100
AcDbSymbolTableRecord
100
AcDbLinetypeTableRecord
  2
ByBlock
 70
     0
  3

 72
    65
 73
     0
 40
0.0
  0
LTYPE
  5
15
330
5
100
AcDbSymbolTableRecord
100
AcDbLinetypeTableRecord
  2
ByLayer
 70
     0
  3

 72
    65
 73
     0
 40
0.0
  0
LTYPE
  5
16
330
5
100
AcDbSymbolTableRecord
100
AcDbLinetypeTableRecord
  2
Continuous
 70
     0
  3
Solid line
 72
    65
 73
     0
 40
0.0
  0
LTYPE
  5
1E2
330
5
100
AcDbSymbolTableRecord
100
AcDbLinetypeTableRecord
  2
AI-Linetype-1
 70
     0
  3
Adobe Illustrator Linetype No. 1
 72
    65
 73
     2
 40
1.411111110758333
 49
0.7055555553791667
 74
     0
 49
-0.7055555553791667
 74
     0
  0
ENDTAB
  0
TABLE
  2
LAYER
  5
2
330
0
100
AcDbSymbolTable
 70
     2
  0
LAYER
  5
10
330
2
100
AcDbSymbolTableRecord
100
AcDbLayerTableRecord
  2
0
 70
     0
 62
     7
  6
Continuous
370
    -3
390
F
347
3E
  0
LAYER
  5
40
330
2
100
AcDbSymbolTableRecord
100
AcDbLayerTableRecord
  2
_U+30EC_U+30A4_U+30E4_U+30FC 1
 70
     0
 62
     7
  6
Continuous
370
    -3
390
F
347
3E
  0
ENDTAB
  0
TABLE
  2
STYLE
  5
3
330
0
100
AcDbSymbolTable
 70
     1
  0
STYLE
  5
11
330
3
100
AcDbSymbolTableRecord
100
AcDbTextStyleTableRecord
  2
Standard
 70
     0
 40
0.0
 41
1.0
 50
0.0
 71
     0
 42
0.2
  3
txt
  4

  0
ENDTAB
  0
TABLE
  2
VIEW
  5
6
330
0
100
AcDbSymbolTable
 70
     0
  0
ENDTAB
  0
TABLE
  2
UCS
  5
7
330
0
100
AcDbSymbolTable
 70
     0
  0
ENDTAB
  0
TABLE
  2
APPID
  5
9
330
0
100
AcDbSymbolTable
 70
     1
  0
APPID
  5
12
330
9
100
AcDbSymbolTableRecord
100
AcDbRegAppTableRecord
  2
ACAD
 70
     0
  0
ENDTAB
  0
TABLE
  2
DIMSTYLE
  5
A
330
0
100
AcDbSymbolTable
 70
     1
100
AcDbDimStyleTable
  0
DIMSTYLE
105
27
330
A
100
AcDbSymbolTableRecord
100
AcDbDimStyleTableRecord
  2
Standard
 70
     0
178
     0
340
11
  0
ENDTAB
  0
TABLE
  2
BLOCK_RECORD
  5
1
330
0
100
AcDbSymbolTable
 70
     8
  0
BLOCK_RECORD
  5
1F
330
1
100
AcDbSymbolTableRecord
100
AcDbBlockTableRecord
  2
*Model_Space
340
22
 70
     0
280
     1
281
     0
  0
BLOCK_RECORD
  5
1B
330
1
100
AcDbSymbolTableRecord
100
AcDbBlockTableRecord
  2
*Paper_Space
340
1E
 70
     0
280
     1
281
     0
  0
BLOCK_RECORD
  5
23
330
1
100
AcDbSymbolTableRecord
100
AcDbBlockTableRecord
  2
*Paper_Space0
340
26
 70
     0
280
     1
281
     0
  0
BLOCK_RECORD
  5
4F
330
1
100
AcDbSymbolTableRecord
100
AcDbBlockTableRecord
  2
block 2
340
0
102
{BLKREFS
331
50
102
}
 70
     0
280
     1
281
     0
  0
BLOCK_RECORD
  5
E2
330
1
100
AcDbSymbolTableRecord
100
AcDbBlockTableRecord
  2
block 3
340
0
102
{BLKREFS
331
E3
102
}
 70
     0
280
     1
281
     0
  0
BLOCK_RECORD
  5
F9
330
1
100
AcDbSymbolTableRecord
100
AcDbBlockTableRecord
  2
block 4
340
0
102
{BLKREFS
331
FA
102
}
 70
     0
280
     1
281
     0
  0
BLOCK_RECORD
  5
10C
330
1
100
AcDbSymbolTableRecord
100
AcDbBlockTableRecord
  2
block 5
340
0
102
{BLKREFS
331
10D
102
}
 70
     0
280
     1
281
     0
  0
BLOCK_RECORD
  5
131
330
1
100
AcDbSymbolTableRecord
100
AcDbBlockTableRecord
  2
block 6
340
0
102
{BLKREFS
331
132
102
}
 70
     0
280
     1
281
     0
  0
BLOCK_RECORD
  5
196
330
1
100
AcDbSymbolTableRecord
100
AcDbBlockTableRecord
  2
block 7
340
0
102
{BLKREFS
331
197
102
}
 70
     0
280
     1
281
     0
  0
BLOCK_RECORD
  5
1C7
330
1
100
AcDbSymbolTableRecord
100
AcDbBlockTableRecord
  2
block 8
340
0
102
{BLKREFS
331
1C8
102
}
 70
     0
280
     1
281
     0
  0
ENDTAB
  0
ENDSEC
  0
SECTION
  2
BLOCKS
  0
BLOCK
  5
20
330
1F
100
AcDbEntity
  8
0
100
AcDbBlockBegin
  2
*Model_Space
 70
     0
 10
0.0
 20
0.0
 30
0.0
  3
*Model_Space
  1

  0
ENDBLK
  5
21
330
1F
100
AcDbEntity
  8
0
100
AcDbBlockEnd
  0
BLOCK
  5
1C
330
1B
100
AcDbEntity
 67
     1
  8
0
100
AcDbBlockBegin
  2
*Paper_Space
 70
     0
 10
0.0
 20
0.0
 30
0.0
  3
*Paper_Space
  1

  0
ENDBLK
  5
1D
330
1B
100
AcDbEntity
 67
     1
  8
0
100
AcDbBlockEnd
  0
BLOCK
  5
24
330
23
100
AcDbEntity
  8
0
100
AcDbBlockBegin
  2
*Paper_Space0
 70
     0
 10
0.0
 20
0.0
 30
0.0
  3
*Paper_Space0
  1

  0
ENDBLK
  5
25
330
23
100
AcDbEntity
  8
0
100
AcDbBlockEnd
  0
BLOCK
  5
51
330
4F
100
AcDbEntity
  8
0
100
AcDbBlockBegin
  2
block 2
 70
     0
 10
0.0
 20
0.0
 30
0.0
  3
block 2
  1

  0
SPLINE
  5
53
330
4F
100
AcDbEntity
  8
_U+30EC_U+30A4_U+30E4_U+30FC 1
370
     0
100
AcDbSpline
210
0.0
220
0.0
230
1.0
 70
    11
 71
     3
 72
    32
 73
    28
 74
     0
 42
0.0000000001
 43
0.0000000001
 12
1.0
 22
0.0
 32
0.0
 13
1.0
 23
0.0
 33
0.0
 40
0.0
 40
0.0
 40
0.0
 40
0.0
 40
1.0
 40
1.0
 40
1.0
 40
2.0
 40
2.0
 40
2.0
 40
3.0
 40
3.0
 40
3.0
 40
4.0
 40
4.0
 40
4.0
 40
5.0
 40
5.0
 40
5.0
 40
6.0
 40
6.0
 40
6.0
 40
7.0
 40
7.0
 40
7.0
 40
8.0
 40
8.0
 40
8.0
 40
9.0
 40
9.0
 40
9.0
 40
9.0
 10
92.81448972289013
 20
-165.1792371548858
 30
0.0
 10
92.29824216442545
 20
-165.1792371548858
 30
0.0
 10
92.28980168048658
 20
-164.6249212913091
 30
0.0
 10
92.28980168048658
 20
-164.4113253712236
 30
0.0
 10
92.28980168048658
 20
-164.1808484832603
 30
0.0
 10
92.30892196042971
 20
-163.5335150415819
 30
0.0
 10
92.85255802800214
 20
-163.5335150415819
 30
0.0
 10
93.02601858568447
 20
-163.5335150415819
 30
0.0
 10
93.27148163900853
 20
-163.603105970384
 30
0.0
 10
93.30954994412053
 20
-163.935213175162
 30
0.0
 10
93.30954994412053
 20
-163.935213175162
 30
0.0
 10
93.09578176926078
 20
-163.935213175162
 30
0.0
 10
93.09578176926078
 20
-163.935213175162
 30
0.0
 10
93.08527422803077
 20
-163.8783690996554
 30
0.0
 10
93.05357934956648
 20
-163.7302299937897
 30
0.0
 10
92.850490970711
 20
-163.7302299937897
 30
0.0
 10
92.55851912833607
 20
-163.7302299937897
 30
0.0
 10
92.51821151115864
 20
-164.0582030839855
 30
0.0
 10
92.50563691263748
 20
-164.2631862653578
 30
0.0
 10
92.59865449073924
 20
-164.1849825978427
 30
0.0
 10
92.66635061702439
 20
-164.1257269554964
 30
0.0
 10
92.84825165864558
 20
-164.1257269554964
 30
0.0
 10
93.02808564297563
 20
-164.1257269554964
 30
0.0
 10
93.33056502658056
 20
-164.2335584441847
 30
0.0
 10
93.33056502658056
 20
-164.6397352018956
 30
0.0
 10
93.33056502658056
 20
-164.9590955533783
 30
0.0
 10
93.13178301708164
 20
-165.1792371548858
 30
0.0
 10
92.81448972289013
 20
-165.1792371548858
 30
0.0
  0
SPLINE
  5
54
330
4F
100
AcDbEntity
  8
_U+30EC_U+30A4_U+30E4_U+30FC 1
370
     0
100
AcDbSpline
210
0.0
220
0.0
230
1.0
 70
    11
 71
     3
 72
    17
 73
    13
 74
     0
 42
0.0000000001
 43
0.0000000001
 12
1.0
 22
0.0
 32
0.0
 13
1.0
 23
0.0
 33
0.0
 40
0.0
 40
0.0
 40
0.0
 40
0.0
 40
1.0
 40
1.0
 40
1.0
 40
2.0
 40
2.0
 40
2.0
 40
3.0
 40
3.0
 40
3.0
 40
4.0
 40
4.0
 40
4.0
 40
4.0
 10
92.83137069076786
 20
-164.320374850413
 30
0.0
 10
92.56902666956609
 20
-164.320374850413
 30
0.0
 10
92.53095836445407
 20
-164.5319037132073
 30
0.0
 10
92.53095836445407
 20
-164.6483479406087
 30
0.0
 10
92.53095836445407
 20
-164.823703300808
 30
0.0
 10
92.62621525462123
 20
-164.9866563172603
 30
0.0
 10
92.81018335353357
 20
-164.9866563172603
 30
0.0
 10
92.93076169551732
 20
-164.9866563172603
 30
0.0
 10
93.10646156526505
 20
-164.927400674914
 30
0.0
 10
93.10646156526505
 20
-164.6418022591868
 30
0.0
 10
93.10646156526505
 20
-164.417526543097
 30
0.0
 10
92.96676294333817
 20
-164.320374850413
 30
0.0
 10
92.83137069076786
 20
-164.320374850413
 30
0.0
  0
HATCH
  5
55
330
4F
100
AcDbEntity
  8
_U+30EC_U+30A4_U+30E4_U+30FC 1
 62
   179
420
  2234388
100
AcDbHatch
 10
0.0
 20
0.0
 30
0.0
210
0.0
220
0.0
230
1.0
  2
SOLID
 70
     1
 71
     0
 91
        2
 92
        1
 93
        1
 72
     4
 94
        3
 73
     0
 74
     1
 95
       32
 96
       28
 40
0.0
 40
0.0
 40
0.0
 40
0.0
 40
1.0
 40
1.0
 40
1.0
 40
2.0
 40
2.0
 40
2.0
 40
3.0
 40
3.0
 40
3.0
 40
4.0
 40
4.0
 40
4.0
 40
5.0
 40
5.0
 40
5.0
 40
6.0
 40
6.0
 40
6.0
 40
7.0
 40
7.0
 40
7.0
 40
8.0
 40
8.0
 40
8.0
 40
9.0
 40
9.0
 40
9.0
 40
9.0
 10
92.81448972289013
 20
-165.1792371548858
 10
92.29824216442545
 20
-165.1792371548858
 10
92.28980168048658
 20
-164.6249212913091
 10
92.28980168048658
 20
-164.4113253712236
 10
92.28980168048658
 20
-164.1808484832603
 10
92.30892196042971
 20
-163.5335150415819
 10
92.85255802800214
 20
-163.5335150415819
 10
93.02601858568447
 20
-163.5335150415819
 10
93.27148163900853
 20
-163.603105970384
 10
93.30954994412053
 20
-163.935213175162
 10
93.30954994412053
 20
-163.935213175162
 10
93.09578176926078
 20
-163.935213175162
 10
93.09578176926078
 20
-163.935213175162
 10
93.08527422803077
 20
-163.8783690996554
 10
93.05357934956648
 20
-163.7302299937897
 10
92.850490970711
 20
-163.7302299937897
 10
92.55851912833607
 20
-163.7302299937897
 10
92.51821151115864
 20
-164.0582030839855
 10
92.50563691263748
 20
-164.2631862653578
 10
92.59865449073924
 20
-164.1849825978427
 10
92.66635061702439
 20
-164.1257269554964
 10
92.84825165864558
 20
-164.1257269554964
 10
93.02808564297563
 20
-164.1257269554964
 10
93.33056502658056
 20
-164.2335584441847
 10
93.33056502658056
 20
-164.6397352018956
 10
93.33056502658056
 20
-164.9590955533783
 10
93.13178301708164
 20
-165.1792371548858
 10
92.81448972289013
 20
-165.1792371548858
 97
        0
 97
        0
 92
        1
 93
        1
 72
     4
 94
        3
 73
     0
 74
     1
 95
       17
 96
       13
 40
0.0
 40
0.0
 40
0.0
 40
0.0
 40
1.0
 40
1.0
 40
1.0
 40
2.0
 40
2.0
 40
2.0
 40
3.0
 40
3.0
 40
3.0
 40
4.0
 40
4.0
 40
4.0
 40
4.0
 10
92.83137069076786
 20
-164.320374850413
 10
92.56902666956609
 20
-164.320374850413
 10
92.53095836445407
 20
-164.5319037132073
 10
92.53095836445407
 20
-164.6483479406087
 10
92.53095836445407
 20
-164.823703300808
 10
92.62621525462123
 20
-164.9866563172603
 10
92.81018335353357
 20
-164.9866563172603
 10
92.93076169551732
 20
-164.9866563172603
 10
93.10646156526505
 20
-164.927400674914
 10
93.10646156526505
 20
-164.6418022591868
 10
93.10646156526505
 20
-164.417526543097
 10
92.96676294333817
 20
-164.320374850413
 10
92.83137069076786
 20
-164.320374850413
 97
        0
 97
        0
 75
     2
 76
     1
 98
        0
  0
ENDBLK
  5
52
330
4F
100
AcDbEntity
  8
0
100
AcDbBlockEnd
  0
BLOCK
  5
E4
330
E2
100
AcDbEntity
  8
0
100
AcDbBlockBegin
  2
block 3
 70
     0
 10
0.0
 20
0.0
 30
0.0
  3
block 3
  1

  0
SPLINE
  5
E6
330
E2
100
AcDbEntity
  8
_U+30EC_U+30A4_U+30E4_U+30FC 1
370
     0
100
AcDbSpline
210
0.0
220
0.0
230
1.0
 70
    11
 71
     3
 72
    44
 73
    40
 74
     0
 42
0.0000000001
 43
0.0000000001
 12
1.0
 22
0.0
 32
0.0
 13
1.0
 23
0.0
 33
0.0
 40
0.0
 40
0.0
 40
0.0
 40
0.0
 40
1.0
 40
1.0
 40
1.0
 40
2.0
 40
2.0
 40
2.0
 40
3.0
 40
3.0
 40
3.0
 40
4.0
 40
4.0
 40
4.0
 40
5.0
 40
5.0
 40
5.0
 40
6.0
 40
6.0
 40
6.0
 40
7.0
 40
7.0
 40
7.0
 40
8.0
 40
8.0
 40
8.0
 40
9.0
 40
9.0
 40
9.0
 40
10.0
 40
10.0
 40
10.0
 40
11.0
 40
11.0
 40
11.0
 40
12.0
 40
12.0
 40
12.0
 40
13.0
 40
13.0
 40
13.0
 40
13.0
 10
109.5175184188012
 20
-132.3901963644719
 30
0.0
 10
109.2997883841334
 20
-132.5488430115677
 30
0.0
 10
109.2067708060316
 20
-132.6229125645005
 30
0.0
 10
109.1578504501411
 20
-132.7667453010097
 30
0.0
 10
109.1578504501411
 20
-132.7667453010097
 30
0.0
 10
109.9364420298076
 20
-132.7667453010097
 30
0.0
 10
109.9364420298076
 20
-132.7667453010097
 30
0.0
 10
109.9364420298076
 20
-132.7667453010097
 30
0.0
 10
109.9364420298076
 20
-132.9719007371563
 30
0.0
 10
109.9364420298076
 20
-132.9719007371563
 30
0.0
 10
109.9364420298076
 20
-132.9719007371563
 30
0.0
 10
108.908425537009
 20
-132.9719007371563
 30
0.0
 10
108.908425537009
 20
-132.9719007371563
 30
0.0
 10
108.9401204154733
 20
-132.6142998257874
 30
0.0
 10
109.0055772296931
 20
-132.5360961582722
 30
0.0
 10
109.390738904944
 20
-132.2377508892496
 30
0.0
 10
109.646709499498
 20
-132.0389688797507
 30
0.0
 10
109.7121663137178
 20
-131.9712727534655
 30
0.0
 10
109.7121663137178
 20
-131.833813443604
 30
0.0
 10
109.7121663137178
 20
-131.7153021589115
 30
0.0
 10
109.6401638180761
 20
-131.5842162756977
 30
0.0
 10
109.4437933754168
 20
-131.5842162756977
 30
0.0
 10
109.1833441567319
 20
-131.5842162756977
 30
0.0
 10
109.1750759275673
 20
-131.8146931636609
 30
0.0
 10
109.1705973034365
 20
-131.9311373910624
 30
0.0
 10
109.1705973034365
 20
-131.9311373910624
 30
0.0
 10
108.9463215873468
 20
-131.9311373910624
 30
0.0
 10
108.9463215873468
 20
-131.9311373910624
 30
0.0
 10
108.9549343260599
 20
-131.8041856224309
 30
0.0
 10
108.9656141220642
 20
-131.692047764386
 30
0.0
 10
109.0458848468705
 20
-131.5735364796934
 30
0.0
 10
109.15578339285
 20
-131.4128227753065
 30
0.0
 10
109.3418185490534
 20
-131.3788885847768
 30
0.0
 10
109.4582627764549
 20
-131.3788885847768
 30
0.0
 10
109.7355929630175
 20
-131.3788885847768
 30
0.0
 10
109.942643201681
 20
-131.5630289384634
 30
0.0
 10
109.942643201681
 20
-131.8358805008952
 30
0.0
 10
109.942643201681
 20
-132.0642903315673
 30
0.0
 10
109.8265434838281
 20
-132.163853591091
 30
0.0
 10
109.5175184188012
 20
-132.3901963644719
 30
0.0
  0
HATCH
  5
E7
330
E2
100
AcDbEntity
  8
_U+30EC_U+30A4_U+30E4_U+30FC 1
 62
   179
420
  2234388
100
AcDbHatch
 10
0.0
 20
0.0
 30
0.0
210
0.0
220
0.0
230
1.0
  2
SOLID
 70
     1
 71
     0
 91
        1
 92
        1
 93
        1
 72
     4
 94
        3
 73
     0
 74
     1
 95
       44
 96
       40
 40
0.0
 40
0.0
 40
0.0
 40
0.0
 40
1.0
 40
1.0
 40
1.0
 40
2.0
 40
2.0
 40
2.0
 40
3.0
 40
3.0
 40
3.0
 40
4.0
 40
4.0
 40
4.0
 40
5.0
 40
5.0
 40
5.0
 40
6.0
 40
6.0
 40
6.0
 40
7.0
 40
7.0
 40
7.0
 40
8.0
 40
8.0
 40
8.0
 40
9.0
 40
9.0
 40
9.0
 40
10.0
 40
10.0
 40
10.0
 40
11.0
 40
11.0
 40
11.0
 40
12.0
 40
12.0
 40
12.0
 40
13.0
 40
13.0
 40
13.0
 40
13.0
 10
109.5175184188012
 20
-132.3901963644719
 10
109.2997883841334
 20
-132.5488430115677
 10
109.2067708060316
 20
-132.6229125645005
 10
109.1578504501411
 20
-132.7667453010097
 10
109.1578504501411
 20
-132.7667453010097
 10
109.9364420298076
 20
-132.7667453010097
 10
109.9364420298076
 20
-132.7667453010097
 10
109.9364420298076
 20
-132.7667453010097
 10
109.9364420298076
 20
-132.9719007371563
 10
109.9364420298076
 20
-132.9719007371563
 10
109.9364420298076
 20
-132.9719007371563
 10
108.908425537009
 20
-132.9719007371563
 10
108.908425537009
 20
-132.9719007371563
 10
108.9401204154733
 20
-132.6142998257874
 10
109.0055772296931
 20
-132.5360961582722
 10
109.390738904944
 20
-132.2377508892496
 10
109.646709499498
 20
-132.0389688797507
 10
109.7121663137178
 20
-131.9712727534655
 10
109.7121663137178
 20
-131.833813443604
 10
109.7121663137178
 20
-131.7153021589115
 10
109.6401638180761
 20
-131.5842162756977
 10
109.4437933754168
 20
-131.5842162756977
 10
109.1833441567319
 20
-131.5842162756977
 10
109.1750759275673
 20
-131.8146931636609
 10
109.1705973034365
 20
-131.9311373910624
 10
109.1705973034365
 20
-131.9311373910624
 10
108.9463215873468
 20
-131.9311373910624
 10
108.9463215873468
 20
-131.9311373910624
 10
108.9549343260599
 20
-131.8041856224309
 10
108.9656141220642
 20
-131.692047764386
 10
109.0458848468705
 20
-131.5735364796934
 10
109.15578339285
 20
-131.4128227753065
 10
109.3418185490534
 20
-131.3788885847768
 10
109.4582627764549
 20
-131.3788885847768
 10
109.7355929630175
 20
-131.3788885847768
 10
109.942643201681
 20
-131.5630289384634
 10
109.942643201681
 20
-131.8358805008952
 10
109.942643201681
 20
-132.0642903315673
 10
109.8265434838281
 20
-132.163853591091
 10
109.5175184188012
 20
-132.3901963644719
 97
        0
 97
        0
 75
     2
 76
     1
 98
        0
  0
SPLINE
  5
E8
330
E2
100
AcDbEntity
  8
_U+30EC_U+30A4_U+30E4_U+30FC 1
370
     0
100
AcDbSpline
210
0.0
220
0.0
230
1.0
 70
    11
 71
     3
 72
    32
 73
    28
 74
     0
 42
0.0000000001
 43
0.0000000001
 12
1.0
 22
0.0
 32
0.0
 13
1.0
 23
0.0
 33
0.0
 40
0.0
 40
0.0
 40
0.0
 40
0.0
 40
1.0
 40
1.0
 40
1.0
 40
2.0
 40
2.0
 40
2.0
 40
3.0
 40
3.0
 40
3.0
 40
4.0
 40
4.0
 40
4.0
 40
5.0
 40
5.0
 40
5.0
 40
6.0
 40
6.0
 40
6.0
 40
7.0
 40
7.0
 40
7.0
 40
8.0
 40
8.0
 40
8.0
 40
9.0
 40
9.0
 40
9.0
 40
9.0
 10
110.6054795730431
 20
-133.0227158955638
 30
0.0
 10
110.0894042693527
 20
-133.0227158955638
 30
0.0
 10
110.0811360401881
 20
-132.4684000319871
 30
0.0
 10
110.0811360401881
 20
-132.2548041119016
 30
0.0
 10
110.0811360401881
 20
-132.0241549691641
 30
0.0
 10
110.1000840653569
 20
-131.3768215274857
 30
0.0
 10
110.6437201329293
 20
-131.3768215274857
 30
0.0
 10
110.8170084358374
 20
-131.3768215274857
 30
0.0
 10
111.0626437439357
 20
-131.446584711062
 30
0.0
 10
111.100884303822
 20
-131.7786919158401
 30
0.0
 10
111.100884303822
 20
-131.7786919158401
 30
0.0
 10
110.886943874188
 20
-131.7786919158401
 30
0.0
 10
110.886943874188
 20
-131.7786919158401
 30
0.0
 10
110.8762640781837
 20
-131.7216755855592
 30
0.0
 10
110.8445691997194
 20
-131.5735364796934
 30
0.0
 10
110.6416530756382
 20
-131.5735364796934
 30
0.0
 10
110.3498534880375
 20
-131.5735364796934
 30
0.0
 10
110.3092013613116
 20
-131.9015095698892
 30
0.0
 10
110.2967990175647
 20
-132.1066650060358
 30
0.0
 10
110.3898165956664
 20
-132.0284613385207
 30
0.0
 10
110.4573404671773
 20
-131.9692056961744
 30
0.0
 10
110.6392415087985
 20
-131.9692056961744
 30
0.0
 10
110.8190754931286
 20
-131.9692056961744
 30
0.0
 10
111.1215548767335
 20
-132.0770371848627
 30
0.0
 10
111.1215548767335
 20
-132.4832139425737
 30
0.0
 10
111.1215548767335
 20
-132.8027465488306
 30
0.0
 10
110.9231173767831
 20
-133.0227158955638
 30
0.0
 10
110.6054795730431
 20
-133.0227158955638
 30
0.0
  0
SPLINE
  5
E9
330
E2
100
AcDbEntity
  8
_U+30EC_U+30A4_U+30E4_U+30FC 1
370
     0
100
AcDbSpline
210
0.0
220
0.0
230
1.0
 70
    11
 71
     3
 72
    17
 73
    13
 74
     0
 42
0.0000000001
 43
0.0000000001
 12
1.0
 22
0.0
 32
0.0
 13
1.0
 23
0.0
 33
0.0
 40
0.0
 40
0.0
 40
0.0
 40
0.0
 40
1.0
 40
1.0
 40
1.0
 40
2.0
 40
2.0
 40
2.0
 40
3.0
 40
3.0
 40
3.0
 40
4.0
 40
4.0
 40
4.0
 40
4.0
 10
110.6227050504693
 20
-132.163853591091
 30
0.0
 10
110.3601887744933
 20
-132.163853591091
 30
0.0
 10
110.3222927241555
 20
-132.3753824538853
 30
0.0
 10
110.3222927241555
 20
-132.4916544265125
 30
0.0
 10
110.3222927241555
 20
-132.6673542962602
 30
0.0
 10
110.4173773595484
 20
-132.8301350579383
 30
0.0
 10
110.6013454584608
 20
-132.8301350579383
 30
0.0
 10
110.7219238004445
 20
-132.8301350579383
 30
0.0
 10
110.8976236701923
 20
-132.770879415592
 30
0.0
 10
110.8976236701923
 20
-132.4852809998648
 30
0.0
 10
110.8976236701923
 20
-132.2611775385493
 30
0.0
 10
110.7577527934911
 20
-132.163853591091
 30
0.0
 10
110.6227050504693
 20
-132.163853591091
 30
0.0
  0
HATCH
  5
EA
330
E2
100
AcDbEntity
  8
_U+30EC_U+30A4_U+30E4_U+30FC 1
 62
   179
420
  2234388
100
AcDbHatch
 10
0.0
 20
0.0
 30
0.0
210
0.0
220
0.0
230
1.0
  2
SOLID
 70
     1
 71
     0
 91
        2
 92
        1
 93
        1
 72
     4
 94
        3
 73
     0
 74
     1
 95
       32
 96
       28
 40
0.0
 40
0.0
 40
0.0
 40
0.0
 40
1.0
 40
1.0
 40
1.0
 40
2.0
 40
2.0
 40
2.0
 40
3.0
 40
3.0
 40
3.0
 40
4.0
 40
4.0
 40
4.0
 40
5.0
 40
5.0
 40
5.0
 40
6.0
 40
6.0
 40
6.0
 40
7.0
 40
7.0
 40
7.0
 40
8.0
 40
8.0
 40
8.0
 40
9.0
 40
9.0
 40
9.0
 40
9.0
 10
110.6054795730431
 20
-133.0227158955638
 10
110.0894042693527
 20
-133.0227158955638
 10
110.0811360401881
 20
-132.4684000319871
 10
110.0811360401881
 20
-132.2548041119016
 10
110.0811360401881
 20
-132.0241549691641
 10
110.1000840653569
 20
-131.3768215274857
 10
110.6437201329293
 20
-131.3768215274857
 10
110.8170084358374
 20
-131.3768215274857
 10
111.0626437439357
 20
-131.446584711062
 10
111.100884303822
 20
-131.7786919158401
 10
111.100884303822
 20
-131.7786919158401
 10
110.886943874188
 20
-131.7786919158401
 10
110.886943874188
 20
-131.7786919158401
 10
110.8762640781837
 20
-131.7216755855592
 10
110.8445691997194
 20
-131.5735364796934
 10
110.6416530756382
 20
-131.5735364796934
 10
110.3498534880375
 20
-131.5735364796934
 10
110.3092013613116
 20
-131.9015095698892
 10
110.2967990175647
 20
-132.1066650060358
 10
110.3898165956664
 20
-132.0284613385207
 10
110.4573404671773
 20
-131.9692056961744
 10
110.6392415087985
 20
-131.9692056961744
 10
110.8190754931286
 20
-131.9692056961744
 10
111.1215548767335
 20
-132.0770371848627
 10
111.1215548767335
 20
-132.4832139425737
 10
111.1215548767335
 20
-132.8027465488306
 10
110.9231173767831
 20
-133.0227158955638
 10
110.6054795730431
 20
-133.0227158955638
 97
        0
 97
        0
 92
        1
 93
        1
 72
     4
 94
        3
 73
     0
 74
     1
 95
       17
 96
       13
 40
0.0
 40
0.0
 40
0.0
 40
0.0
 40
1.0
 40
1.0
 40
1.0
 40
2.0
 40
2.0
 40
2.0
 40
3.0
 40
3.0
 40
3.0
 40
4.0
 40
4.0
 40
4.0
 40
4.0
 10
110.6227050504693
 20
-132.163853591091
 10
110.3601887744933
 20
-132.163853591091
 10
110.3222927241555
 20
-132.3753824538853
 10
110.3222927241555
 20
-132.4916544265125
 10
110.3222927241555
 20
-132.6673542962602
 10
110.4173773595484
 20
-132.8301350579383
 10
110.6013454584608
 20
-132.8301350579383
 10
110.7219238004445
 20
-132.8301350579383
 10
110.8976236701923
 20
-132.770879415592
 10
110.8976236701923
 20
-132.4852809998648
 10
110.8976236701923
 20
-132.2611775385493
 10
110.7577527934911
 20
-132.163853591091
 10
110.6227050504693
 20
-132.163853591091
 97
        0
 97
        0
 75
     2
 76
     1
 98
        0
  0
ENDBLK
  5
E5
330
E2
100
AcDbEntity
  8
0
100
AcDbBlockEnd
  0
BLOCK
  5
FB
330
F9
100
AcDbEntity
  8
0
100
AcDbBlockBegin
  2
block 4
 70
     0
 10
0.0
 20
0.0
 30
0.0
  3
block 4
  1

  0
SPLINE
  5
FD
330
F9
100
AcDbEntity
  8
_U+30EC_U+30A4_U+30E4_U+30FC 1
370
     0
100
AcDbSpline
210
0.0
220
0.0
230
1.0
 70
    11
 71
     3
 72
    32
 73
    28
 74
     0
 42
0.0000000001
 43
0.0000000001
 12
1.0
 22
0.0
 32
0.0
 13
1.0
 23
0.0
 33
0.0
 40
0.0
 40
0.0
 40
0.0
 40
0.0
 40
1.0
 40
1.0
 40
1.0
 40
2.0
 40
2.0
 40
2.0
 40
3.0
 40
3.0
 40
3.0
 40
4.0
 40
4.0
 40
4.0
 40
5.0
 40
5.0
 40
5.0
 40
6.0
 40
6.0
 40
6.0
 40
7.0
 40
7.0
 40
7.0
 40
8.0
 40
8.0
 40
8.0
 40
9.0
 40
9.0
 40
9.0
 40
9.0
 10
128.2495361007501
 20
-140.8355034370134
 30
0.0
 10
128.2495361007501
 20
-141.3515787407038
 30
0.0
 10
127.6952202371734
 20
-141.3598469698684
 30
0.0
 10
127.4816243170879
 20
-141.3598469698684
 30
0.0
 10
127.2508029195762
 20
-141.3598469698684
 30
0.0
 10
126.6034694778977
 20
-141.3408989446995
 30
0.0
 10
126.6034694778977
 20
-140.7972628771271
 30
0.0
 10
126.6034694778977
 20
-140.623974574219
 30
0.0
 10
126.6734049162483
 20
-140.3783392661207
 30
0.0
 10
127.0055121210264
 20
-140.340443215783
 30
0.0
 10
127.0055121210264
 20
-140.340443215783
 30
0.0
 10
127.0055121210264
 20
-140.5540391358684
 30
0.0
 10
127.0055121210264
 20
-140.5540391358684
 30
0.0
 10
126.9483235359713
 20
-140.5647189318727
 30
0.0
 10
126.8001844301055
 20
-140.596413810337
 30
0.0
 10
126.8001844301055
 20
-140.7993299344182
 30
0.0
 10
126.8001844301055
 20
-141.0914740315674
 30
0.0
 10
127.1281575203013
 20
-141.1314371391963
 30
0.0
 10
127.3334852112222
 20
-141.1441839924917
 30
0.0
 10
127.255281543707
 20
-141.05116641439
 30
0.0
 10
127.1960259013607
 20
-140.9832980333306
 30
0.0
 10
127.1960259013607
 20
-140.8013969917094
 30
0.0
 10
127.1960259013607
 20
-140.6215630073793
 30
0.0
 10
127.303857390049
 20
-140.3190836237744
 30
0.0
 10
127.71003414776
 20
-140.3190836237744
 30
0.0
 10
128.0293944992427
 20
-140.3190836237744
 30
0.0
 10
128.2495361007501
 20
-140.5182101428218
 30
0.0
 10
128.2495361007501
 20
-140.8355034370134
 30
0.0
  0
SPLINE
  5
FE
330
F9
100
AcDbEntity
  8
_U+30EC_U+30A4_U+30E4_U+30FC 1
370
     0
100
AcDbSpline
210
0.0
220
0.0
230
1.0
 70
    11
 71
     3
 72
    17
 73
    13
 74
     0
 42
0.0000000001
 43
0.0000000001
 12
1.0
 22
0.0
 32
0.0
 13
1.0
 23
0.0
 33
0.0
 40
0.0
 40
0.0
 40
0.0
 40
0.0
 40
1.0
 40
1.0
 40
1.0
 40
2.0
 40
2.0
 40
2.0
 40
3.0
 40
3.0
 40
3.0
 40
4.0
 40
4.0
 40
4.0
 40
4.0
 10
127.3906737962773
 20
-140.8182779595871
 30
0.0
 10
127.3906737962773
 20
-141.0807942355631
 30
0.0
 10
127.6022026590717
 20
-141.1186902859009
 30
0.0
 10
127.7183023769246
 20
-141.1186902859009
 30
0.0
 10
127.8940022466723
 20
-141.1186902859009
 30
0.0
 10
128.0569552631246
 20
-141.023605650508
 30
0.0
 10
128.0569552631246
 20
-140.8396375515956
 30
0.0
 10
128.0569552631246
 20
-140.7190592096119
 30
0.0
 10
127.9976996207784
 20
-140.5433593398642
 30
0.0
 10
127.7121012050511
 20
-140.5433593398642
 30
0.0
 10
127.4878254889614
 20
-140.5433593398642
 30
0.0
 10
127.3906737962773
 20
-140.6832302165653
 30
0.0
 10
127.3906737962773
 20
-140.8182779595871
 30
0.0
  0
HATCH
  5
FF
330
F9
100
AcDbEntity
  8
_U+30EC_U+30A4_U+30E4_U+30FC 1
 62
   179
420
  2234388
100
AcDbHatch
 10
0.0
 20
0.0
 30
0.0
210
0.0
220
0.0
230
1.0
  2
SOLID
 70
     1
 71
     0
 91
        2
 92
        1
 93
        1
 72
     4
 94
        3
 73
     0
 74
     1
 95
       32
 96
       28
 40
0.0
 40
0.0
 40
0.0
 40
0.0
 40
1.0
 40
1.0
 40
1.0
 40
2.0
 40
2.0
 40
2.0
 40
3.0
 40
3.0
 40
3.0
 40
4.0
 40
4.0
 40
4.0
 40
5.0
 40
5.0
 40
5.0
 40
6.0
 40
6.0
 40
6.0
 40
7.0
 40
7.0
 40
7.0
 40
8.0
 40
8.0
 40
8.0
 40
9.0
 40
9.0
 40
9.0
 40
9.0
 10
128.2495361007501
 20
-140.8355034370134
 10
128.2495361007501
 20
-141.3515787407038
 10
127.6952202371734
 20
-141.3598469698684
 10
127.4816243170879
 20
-141.3598469698684
 10
127.2508029195762
 20
-141.3598469698684
 10
126.6034694778977
 20
-141.3408989446995
 10
126.6034694778977
 20
-140.7972628771271
 10
126.6034694778977
 20
-140.623974574219
 10
126.6734049162483
 20
-140.3783392661207
 10
127.0055121210264
 20
-140.340443215783
 10
127.0055121210264
 20
-140.340443215783
 10
127.0055121210264
 20
-140.5540391358684
 10
127.0055121210264
 20
-140.5540391358684
 10
126.9483235359713
 20
-140.5647189318727
 10
126.8001844301055
 20
-140.596413810337
 10
126.8001844301055
 20
-140.7993299344182
 10
126.8001844301055
 20
-141.0914740315674
 10
127.1281575203013
 20
-141.1314371391963
 10
127.3334852112222
 20
-141.1441839924917
 10
127.255281543707
 20
-141.05116641439
 10
127.1960259013607
 20
-140.9832980333306
 10
127.1960259013607
 20
-140.8013969917094
 10
127.1960259013607
 20
-140.6215630073793
 10
127.303857390049
 20
-140.3190836237744
 10
127.71003414776
 20
-140.3190836237744
 10
128.0293944992427
 20
-140.3190836237744
 10
128.2495361007501
 20
-140.5182101428218
 10
128.2495361007501
 20
-140.8355034370134
 97
        0
 97
        0
 92
        1
 93
        1
 72
     4
 94
        3
 73
     0
 74
     1
 95
       17
 96
       13
 40
0.0
 40
0.0
 40
0.0
 40
0.0
 40
1.0
 40
1.0
 40
1.0
 40
2.0
 40
2.0
 40
2.0
 40
3.0
 40
3.0
 40
3.0
 40
4.0
 40
4.0
 40
4.0
 40
4.0
 10
127.3906737962773
 20
-140.8182779595871
 10
127.3906737962773
 20
-141.0807942355631
 10
127.6022026590717
 20
-141.1186902859009
 10
127.7183023769246
 20
-141.1186902859009
 10
127.8940022466723
 20
-141.1186902859009
 10
128.0569552631246
 20
-141.023605650508
 10
128.0569552631246
 20
-140.8396375515956
 10
128.0569552631246
 20
-140.7190592096119
 10
127.9976996207784
 20
-140.5433593398642
 10
127.7121012050511
 20
-140.5433593398642
 10
127.4878254889614
 20
-140.5433593398642
 10
127.3906737962773
 20
-140.6832302165653
 10
127.3906737962773
 20
-140.8182779595871
 97
        0
 97
        0
 75
     2
 76
     1
 98
        0
  0
ENDBLK
  5
FC
330
F9
100
AcDbEntity
  8
0
100
AcDbBlockEnd
  0
BLOCK
  5
10E
330
10C
100
AcDbEntity
  8
0
100
AcDbBlockBegin
  2
block 5
 70
     0
 10
0.0
 20
0.0
 30
0.0
  3
block 5
  1

  0
SPLINE
  5
110
330
10C
100
AcDbEntity
  8
_U+30EC_U+30A4_U+30E4_U+30FC 1
370
     0
100
AcDbSpline
210
0.0
220
0.0
230
1.0
 70
    11
 71
     3
 72
    44
 73
    40
 74
     0
 42
0.0000000001
 43
0.0000000001
 12
1.0
 22
0.0
 32
0.0
 13
1.0
 23
0.0
 33
0.0
 40
0.0
 40
0.0
 40
0.0
 40
0.0
 40
1.0
 40
1.0
 40
1.0
 40
2.0
 40
2.0
 40
2.0
 40
3.0
 40
3.0
 40
3.0
 40
4.0
 40
4.0
 40
4.0
 40
5.0
 40
5.0
 40
5.0
 40
6.0
 40
6.0
 40
6.0
 40
7.0
 40
7.0
 40
7.0
 40
8.0
 40
8.0
 40
8.0
 40
9.0
 40
9.0
 40
9.0
 40
10.0
 40
10.0
 40
10.0
 40
11.0
 40
11.0
 40
11.0
 40
12.0
 40
12.0
 40
12.0
 40
13.0
 40
13.0
 40
13.0
 40
13.0
 10
82.56188555878661
 20
-151.323752132308
 30
0.0
 10
82.72053220588236
 20
-151.5414821669758
 30
0.0
 10
82.79460175881525
 20
-151.6344997450775
 30
0.0
 10
82.93843449532443
 20
-151.683420100968
 30
0.0
 10
82.93843449532443
 20
-151.683420100968
 30
0.0
 10
82.93843449532443
 20
-150.9048285213016
 30
0.0
 10
82.93843449532443
 20
-150.9048285213016
 30
0.0
 10
82.93843449532443
 20
-150.9048285213016
 30
0.0
 10
83.14358993147106
 20
-150.9048285213016
 30
0.0
 10
83.14358993147106
 20
-150.9048285213016
 30
0.0
 10
83.14358993147106
 20
-150.9048285213016
 30
0.0
 10
83.14358993147106
 20
-151.9328450141001
 30
0.0
 10
83.14358993147106
 20
-151.9328450141001
 30
0.0
 10
82.78598902010212
 20
-151.9011501356358
 30
0.0
 10
82.70778535258695
 20
-151.8356933214161
 30
0.0
 10
82.4094400835643
 20
-151.4505316461652
 30
0.0
 10
82.21065807406539
 20
-151.1945610516111
 30
0.0
 10
82.14296194778024
 20
-151.1291042373913
 30
0.0
 10
82.00550263791877
 20
-151.1291042373913
 30
0.0
 10
81.88699135322618
 20
-151.1291042373913
 30
0.0
 10
81.75590547001242
 20
-151.2011067330331
 30
0.0
 10
81.75590547001242
 20
-151.3974771756923
 30
0.0
 10
81.75590547001242
 20
-151.6579263943772
 30
0.0
 10
81.98638235797563
 20
-151.6661946235418
 30
0.0
 10
82.10282658537707
 20
-151.6706732476726
 30
0.0
 10
82.10282658537707
 20
-151.6706732476726
 30
0.0
 10
82.10282658537707
 20
-151.8949489637624
 30
0.0
 10
82.10282658537707
 20
-151.8949489637624
 30
0.0
 10
81.97587481674562
 20
-151.8863362250493
 30
0.0
 10
81.86373695870074
 20
-151.875656429045
 30
0.0
 10
81.74522567400814
 20
-151.7953857042387
 30
0.0
 10
81.58451196962123
 20
-151.6854871582592
 30
0.0
 10
81.55057777909153
 20
-151.4994520020557
 30
0.0
 10
81.55057777909153
 20
-151.3830077746543
 30
0.0
 10
81.55057777909153
 20
-151.1056775880917
 30
0.0
 10
81.73471813277813
 20
-150.8986273494281
 30
0.0
 10
82.00756969520992
 20
-150.8986273494281
 30
0.0
 10
82.23597952588199
 20
-150.8986273494281
 30
0.0
 10
82.3355427854057
 20
-151.0147270672811
 30
0.0
 10
82.56188555878661
 20
-151.323752132308
 30
0.0
  0
HATCH
  5
111
330
10C
100
AcDbEntity
  8
_U+30EC_U+30A4_U+30E4_U+30FC 1
 62
   179
420
  2234388
100
AcDbHatch
 10
0.0
 20
0.0
 30
0.0
210
0.0
220
0.0
230
1.0
  2
SOLID
 70
     1
 71
     0
 91
        1
 92
        1
 93
        1
 72
     4
 94
        3
 73
     0
 74
     1
 95
       44
 96
       40
 40
0.0
 40
0.0
 40
0.0
 40
0.0
 40
1.0
 40
1.0
 40
1.0
 40
2.0
 40
2.0
 40
2.0
 40
3.0
 40
3.0
 40
3.0
 40
4.0
 40
4.0
 40
4.0
 40
5.0
 40
5.0
 40
5.0
 40
6.0
 40
6.0
 40
6.0
 40
7.0
 40
7.0
 40
7.0
 40
8.0
 40
8.0
 40
8.0
 40
9.0
 40
9.0
 40
9.0
 40
10.0
 40
10.0
 40
10.0
 40
11.0
 40
11.0
 40
11.0
 40
12.0
 40
12.0
 40
12.0
 40
13.0
 40
13.0
 40
13.0
 40
13.0
 10
82.56188555878661
 20
-151.323752132308
 10
82.72053220588236
 20
-151.5414821669758
 10
82.79460175881525
 20
-151.6344997450775
 10
82.93843449532443
 20
-151.683420100968
 10
82.93843449532443
 20
-151.683420100968
 10
82.93843449532443
 20
-150.9048285213016
 10
82.93843449532443
 20
-150.9048285213016
 10
82.93843449532443
 20
-150.9048285213016
 10
83.14358993147106
 20
-150.9048285213016
 10
83.14358993147106
 20
-150.9048285213016
 10
83.14358993147106
 20
-150.9048285213016
 10
83.14358993147106
 20
-151.9328450141001
 10
83.14358993147106
 20
-151.9328450141001
 10
82.78598902010212
 20
-151.9011501356358
 10
82.70778535258695
 20
-151.8356933214161
 10
82.4094400835643
 20
-151.4505316461652
 10
82.21065807406539
 20
-151.1945610516111
 10
82.14296194778024
 20
-151.1291042373913
 10
82.00550263791877
 20
-151.1291042373913
 10
81.88699135322618
 20
-151.1291042373913
 10
81.75590547001242
 20
-151.2011067330331
 10
81.75590547001242
 20
-151.3974771756923
 10
81.75590547001242
 20
-151.6579263943772
 10
81.98638235797563
 20
-151.6661946235418
 10
82.10282658537707
 20
-151.6706732476726
 10
82.10282658537707
 20
-151.6706732476726
 10
82.10282658537707
 20
-151.8949489637624
 10
82.10282658537707
 20
-151.8949489637624
 10
81.97587481674562
 20
-151.8863362250493
 10
81.86373695870074
 20
-151.875656429045
 10
81.74522567400814
 20
-151.7953857042387
 10
81.58451196962123
 20
-151.6854871582592
 10
81.55057777909153
 20
-151.4994520020557
 10
81.55057777909153
 20
-151.3830077746543
 10
81.55057777909153
 20
-151.1056775880917
 10
81.73471813277813
 20
-150.8986273494281
 10
82.00756969520992
 20
-150.8986273494281
 10
82.23597952588199
 20
-150.8986273494281
 10
82.3355427854057
 20
-151.0147270672811
 10
82.56188555878661
 20
-151.323752132308
 97
        0
 97
        0
 75
     2
 76
     1
 98
        0
  0
SPLINE
  5
112
330
10C
100
AcDbEntity
  8
_U+30EC_U+30A4_U+30E4_U+30FC 1
370
     0
100
AcDbSpline
210
0.0
220
0.0
230
1.0
 70
    11
 71
     3
 72
    32
 73
    28
 74
     0
 42
0.0000000001
 43
0.0000000001
 12
1.0
 22
0.0
 32
0.0
 13
1.0
 23
0.0
 33
0.0
 40
0.0
 40
0.0
 40
0.0
 40
0.0
 40
1.0
 40
1.0
 40
1.0
 40
2.0
 40
2.0
 40
2.0
 40
3.0
 40
3.0
 40
3.0
 40
4.0
 40
4.0
 40
4.0
 40
5.0
 40
5.0
 40
5.0
 40
6.0
 40
6.0
 40
6.0
 40
7.0
 40
7.0
 40
7.0
 40
8.0
 40
8.0
 40
8.0
 40
9.0
 40
9.0
 40
9.0
 40
9.0
 10
83.19440508987849
 20
-150.2357909780661
 30
0.0
 10
83.19440508987849
 20
-150.7518662817565
 30
0.0
 10
82.64008922630178
 20
-150.7601345109211
 30
0.0
 10
82.4264933062163
 20
-150.7601345109211
 30
0.0
 10
82.19584416347882
 20
-150.7601345109211
 30
0.0
 10
81.54851072180037
 20
-150.7411864857522
 30
0.0
 10
81.54851072180037
 20
-150.1975504181798
 30
0.0
 10
81.54851072180037
 20
-150.0242621152717
 30
0.0
 10
81.61827390537668
 20
-149.7786268071734
 30
0.0
 10
81.95038111015477
 20
-149.7403862472871
 30
0.0
 10
81.95038111015477
 20
-149.7403862472871
 30
0.0
 10
81.95038111015477
 20
-149.9543266769211
 30
0.0
 10
81.95038111015477
 20
-149.9543266769211
 30
0.0
 10
81.89336477987389
 20
-149.9650064729254
 30
0.0
 10
81.74522567400814
 20
-149.9967013513897
 30
0.0
 10
81.74522567400814
 20
-150.1996174754709
 30
0.0
 10
81.74522567400814
 20
-150.4914170630716
 30
0.0
 10
82.07319876420392
 20
-150.5320691897975
 30
0.0
 10
82.27835420035055
 20
-150.5444715335445
 30
0.0
 10
82.20015053283538
 20
-150.4514539554427
 30
0.0
 10
82.14089489048908
 20
-150.3839300839318
 30
0.0
 10
82.14089489048908
 20
-150.2020290423106
 30
0.0
 10
82.14089489048908
 20
-150.0221950579806
 30
0.0
 10
82.24872637917741
 20
-149.7197156743756
 30
0.0
 10
82.65490313688836
 20
-149.7197156743756
 30
0.0
 10
82.97443574314528
 20
-149.7197156743756
 30
0.0
 10
83.19440508987849
 20
-149.918153174326
 30
0.0
 10
83.19440508987849
 20
-150.2357909780661
 30
0.0
  0
SPLINE
  5
113
330
10C
100
AcDbEntity
  8
_U+30EC_U+30A4_U+30E4_U+30FC 1
370
     0
100
AcDbSpline
210
0.0
220
0.0
230
1.0
 70
    11
 71
     3
 72
    17
 73
    13
 74
     0
 42
0.0000000001
 43
0.0000000001
 12
1.0
 22
0.0
 32
0.0
 13
1.0
 23
0.0
 33
0.0
 40
0.0
 40
0.0
 40
0.0
 40
0.0
 40
1.0
 40
1.0
 40
1.0
 40
2.0
 40
2.0
 40
2.0
 40
3.0
 40
3.0
 40
3.0
 40
4.0
 40
4.0
 40
4.0
 40
4.0
 10
82.3355427854057
 20
-150.2185655006398
 30
0.0
 10
82.3355427854057
 20
-150.4810817766158
 30
0.0
 10
82.54707164820005
 20
-150.5189778269536
 30
0.0
 10
82.66334362082722
 20
-150.5189778269536
 30
0.0
 10
82.83904349057497
 20
-150.5189778269536
 30
0.0
 10
83.00182425225302
 20
-150.4238931915607
 30
0.0
 10
83.00182425225302
 20
-150.2399250926483
 30
0.0
 10
83.00182425225302
 20
-150.1193467506646
 30
0.0
 10
82.94256860990673
 20
-149.9436468809169
 30
0.0
 10
82.65697019417951
 20
-149.9436468809169
 30
0.0
 10
82.43286673286401
 20
-149.9436468809169
 30
0.0
 10
82.3355427854057
 20
-150.083517757618
 30
0.0
 10
82.3355427854057
 20
-150.2185655006398
 30
0.0
  0
HATCH
  5
114
330
10C
100
AcDbEntity
  8
_U+30EC_U+30A4_U+30E4_U+30FC 1
 62
   179
420
  2234388
100
AcDbHatch
 10
0.0
 20
0.0
 30
0.0
210
0.0
220
0.0
230
1.0
  2
SOLID
 70
     1
 71
     0
 91
        2
 92
        1
 93
        1
 72
     4
 94
        3
 73
     0
 74
     1
 95
       32
 96
       28
 40
0.0
 40
0.0
 40
0.0
 40
0.0
 40
1.0
 40
1.0
 40
1.0
 40
2.0
 40
2.0
 40
2.0
 40
3.0
 40
3.0
 40
3.0
 40
4.0
 40
4.0
 40
4.0
 40
5.0
 40
5.0
 40
5.0
 40
6.0
 40
6.0
 40
6.0
 40
7.0
 40
7.0
 40
7.0
 40
8.0
 40
8.0
 40
8.0
 40
9.0
 40
9.0
 40
9.0
 40
9.0
 10
83.19440508987849
 20
-150.2357909780661
 10
83.19440508987849
 20
-150.7518662817565
 10
82.64008922630178
 20
-150.7601345109211
 10
82.4264933062163
 20
-150.7601345109211
 10
82.19584416347882
 20
-150.7601345109211
 10
81.54851072180037
 20
-150.7411864857522
 10
81.54851072180037
 20
-150.1975504181798
 10
81.54851072180037
 20
-150.0242621152717
 10
81.61827390537668
 20
-149.7786268071734
 10
81.95038111015477
 20
-149.7403862472871
 10
81.95038111015477
 20
-149.7403862472871
 10
81.95038111015477
 20
-149.9543266769211
 10
81.95038111015477
 20
-149.9543266769211
 10
81.89336477987389
 20
-149.9650064729254
 10
81.74522567400814
 20
-149.9967013513897
 10
81.74522567400814
 20
-150.1996174754709
 10
81.74522567400814
 20
-150.4914170630716
 10
82.07319876420392
 20
-150.5320691897975
 10
82.27835420035055
 20
-150.5444715335445
 10
82.20015053283538
 20
-150.4514539554427
 10
82.14089489048908
 20
-150.3839300839318
 10
82.14089489048908
 20
-150.2020290423106
 10
82.14089489048908
 20
-150.0221950579806
 10
82.24872637917741
 20
-149.7197156743756
 10
82.65490313688836
 20
-149.7197156743756
 10
82.97443574314528
 20
-149.7197156743756
 10
83.19440508987849
 20
-149.918153174326
 10
83.19440508987849
 20
-150.2357909780661
 97
        0
 97
        0
 92
        1
 93
        1
 72
     4
 94
        3
 73
     0
 74
     1
 95
       17
 96
       13
 40
0.0
 40
0.0
 40
0.0
 40
0.0
 40
1.0
 40
1.0
 40
1.0
 40
2.0
 40
2.0
 40
2.0
 40
3.0
 40
3.0
 40
3.0
 40
4.0
 40
4.0
 40
4.0
 40
4.0
 10
82.3355427854057
 20
-150.2185655006398
 10
82.3355427854057
 20
-150.4810817766158
 10
82.54707164820005
 20
-150.5189778269536
 10
82.66334362082722
 20
-150.5189778269536
 10
82.83904349057497
 20
-150.5189778269536
 10
83.00182425225302
 20
-150.4238931915607
 10
83.00182425225302
 20
-150.2399250926483
 10
83.00182425225302
 20
-150.1193467506646
 10
82.94256860990673
 20
-149.9436468809169
 10
82.65697019417951
 20
-149.9436468809169
 10
82.43286673286401
 20
-149.9436468809169
 10
82.3355427854057
 20
-150.083517757618
 10
82.3355427854057
 20
-150.2185655006398
 97
        0
 97
        0
 75
     2
 76
     1
 98
        0
  0
ENDBLK
  5
10F
330
10C
100
AcDbEntity
  8
0
100
AcDbBlockEnd
  0
BLOCK
  5
133
330
131
100
AcDbEntity
  8
0
100
AcDbBlockBegin
  2
block 6
 70
     0
 10
0.0
 20
0.0
 30
0.0
  3
block 6
  1

  0
POLYLINE
  5
135
330
131
100
AcDbEntity
  8
_U+30EC_U+30A4_U+30E4_U+30FC 1
370
     0
100
AcDb2dPolyline
 66
     1
 10
0.0
 20
0.0
 30
0.0
  0
VERTEX
  5
136
330
135
100
AcDbEntity
  8
_U+30EC_U+30A4_U+30E4_U+30FC 1
370
     0
100
AcDbVertex
100
AcDb2dVertex
 10
87.15695391701284
 20
-133.0060071824603
 30
0.0
  0
VERTEX
  5
137
330
135
100
AcDbEntity
  8
_U+30EC_U+30A4_U+30E4_U+30FC 1
370
     0
100
AcDbVertex
100
AcDb2dVertex
 10
87.15695391701284
 20
-132.8452934780734
 30
0.0
  0
VERTEX
  5
138
330
135
100
AcDbEntity
  8
_U+30EC_U+30A4_U+30E4_U+30FC 1
370
     0
100
AcDbVertex
100
AcDb2dVertex
 10
87.31129419475204
 20
-132.8452934780734
 30
0.0
  0
VERTEX
  5
139
330
135
100
AcDbEntity
  8
_U+30EC_U+30A4_U+30E4_U+30FC 1
370
     0
100
AcDbVertex
100
AcDb2dVertex
 10
87.31129419475204
 20
-133.0060071824603
 30
0.0
  0
VERTEX
  5
13A
330
135
100
AcDbEntity
  8
_U+30EC_U+30A4_U+30E4_U+30FC 1
370
     0
100
AcDbVertex
100
AcDb2dVertex
 10
87.70489635394183
 20
-133.0060071824603
 30
0.0
  0
VERTEX
  5
13B
330
135
100
AcDbEntity
  8
_U+30EC_U+30A4_U+30E4_U+30FC 1
370
     0
100
AcDbVertex
100
AcDb2dVertex
 10
87.70489635394183
 20
-133.1605197149738
 30
0.0
  0
VERTEX
  5
13C
330
135
100
AcDbEntity
  8
_U+30EC_U+30A4_U+30E4_U+30FC 1
370
     0
100
AcDbVertex
100
AcDb2dVertex
 10
87.31129419475204
 20
-133.1605197149738
 30
0.0
  0
VERTEX
  5
13D
330
135
100
AcDbEntity
  8
_U+30EC_U+30A4_U+30E4_U+30FC 1
370
     0
100
AcDbVertex
100
AcDb2dVertex
 10
87.31129419475204
 20
-133.314859992713
 30
0.0
  0
VERTEX
  5
13E
330
135
100
AcDbEntity
  8
_U+30EC_U+30A4_U+30E4_U+30FC 1
370
     0
100
AcDbVertex
100
AcDb2dVertex
 10
87.66665579405556
 20
-133.314859992713
 30
0.0
  0
VERTEX
  5
13F
330
135
100
AcDbEntity
  8
_U+30EC_U+30A4_U+30E4_U+30FC 1
370
     0
100
AcDbVertex
100
AcDb2dVertex
 10
87.66665579405556
 20
-134.1272135081349
 30
0.0
  0
VERTEX
  5
140
330
135
100
AcDbEntity
  8
_U+30EC_U+30A4_U+30E4_U+30FC 1
370
     0
100
AcDbVertex
100
AcDb2dVertex
 10
87.31129419475204
 20
-134.1272135081349
 30
0.0
  0
VERTEX
  5
141
330
135
100
AcDbEntity
  8
_U+30EC_U+30A4_U+30E4_U+30FC 1
370
     0
100
AcDbVertex
100
AcDb2dVertex
 10
87.31129419475204
 20
-134.2965399512349
 30
0.0
  0
VERTEX
  5
142
330
135
100
AcDbEntity
  8
_U+30EC_U+30A4_U+30E4_U+30FC 1
370
     0
100
AcDbVertex
100
AcDb2dVertex
 10
87.71971026452842
 20
-134.2965399512349
 30
0.0
  0
VERTEX
  5
143
330
135
100
AcDbEntity
  8
_U+30EC_U+30A4_U+30E4_U+30FC 1
370
     0
100
AcDbVertex
100
AcDb2dVertex
 10
87.71971026452842
 20
-134.4508802289741
 30
0.0
  0
VERTEX
  5
144
330
135
100
AcDbEntity
  8
_U+30EC_U+30A4_U+30E4_U+30FC 1
370
     0
100
AcDbVertex
100
AcDb2dVertex
 10
87.31129419475204
 20
-134.4508802289741
 30
0.0
  0
VERTEX
  5
145
330
135
100
AcDbEntity
  8
_U+30EC_U+30A4_U+30E4_U+30FC 1
370
     0
100
AcDbVertex
100
AcDb2dVertex
 10
87.31129419475204
 20
-134.8041747709865
 30
0.0
  0
VERTEX
  5
146
330
135
100
AcDbEntity
  8
_U+30EC_U+30A4_U+30E4_U+30FC 1
370
     0
100
AcDbVertex
100
AcDb2dVertex
 10
87.15695391701284
 20
-134.8041747709865
 30
0.0
  0
VERTEX
  5
147
330
135
100
AcDbEntity
  8
_U+30EC_U+30A4_U+30E4_U+30FC 1
370
     0
100
AcDbVertex
100
AcDb2dVertex
 10
87.15695391701284
 20
-134.4508802289741
 30
0.0
  0
VERTEX
  5
148
330
135
100
AcDbEntity
  8
_U+30EC_U+30A4_U+30E4_U+30FC 1
370
     0
100
AcDbVertex
100
AcDb2dVertex
 10
86.74647078994533
 20
-134.4508802289741
 30
0.0
  0
VERTEX
  5
149
330
135
100
AcDbEntity
  8
_U+30EC_U+30A4_U+30E4_U+30FC 1
370
     0
100
AcDbVertex
100
AcDb2dVertex
 10
86.74647078994533
 20
-134.2965399512349
 30
0.0
  0
VERTEX
  5
14A
330
135
100
AcDbEntity
  8
_U+30EC_U+30A4_U+30E4_U+30FC 1
370
     0
100
AcDbVertex
100
AcDb2dVertex
 10
87.15695391701284
 20
-134.2965399512349
 30
0.0
  0
VERTEX
  5
14B
330
135
100
AcDbEntity
  8
_U+30EC_U+30A4_U+30E4_U+30FC 1
370
     0
100
AcDbVertex
100
AcDb2dVertex
 10
87.15695391701284
 20
-134.1272135081349
 30
0.0
  0
VERTEX
  5
14C
330
135
100
AcDbEntity
  8
_U+30EC_U+30A4_U+30E4_U+30FC 1
370
     0
100
AcDbVertex
100
AcDb2dVertex
 10
86.80779348958278
 20
-134.1272135081349
 30
0.0
  0
VERTEX
  5
14D
330
135
100
AcDbEntity
  8
_U+30EC_U+30A4_U+30E4_U+30FC 1
370
     0
100
AcDbVertex
100
AcDb2dVertex
 10
86.80779348958278
 20
-133.314859992713
 30
0.0
  0
VERTEX
  5
14E
330
135
100
AcDbEntity
  8
_U+30EC_U+30A4_U+30E4_U+30FC 1
370
     0
100
AcDbVertex
100
AcDb2dVertex
 10
87.15695391701284
 20
-133.314859992713
 30
0.0
  0
VERTEX
  5
14F
330
135
100
AcDbEntity
  8
_U+30EC_U+30A4_U+30E4_U+30FC 1
370
     0
100
AcDbVertex
100
AcDb2dVertex
 10
87.15695391701284
 20
-133.1605197149738
 30
0.0
  0
VERTEX
  5
150
330
135
100
AcDbEntity
  8
_U+30EC_U+30A4_U+30E4_U+30FC 1
370
     0
100
AcDbVertex
100
AcDb2dVertex
 10
86.76765812717962
 20
-133.1605197149738
 30
0.0
  0
VERTEX
  5
151
330
135
100
AcDbEntity
  8
_U+30EC_U+30A4_U+30E4_U+30FC 1
370
     0
100
AcDbVertex
100
AcDb2dVertex
 10
86.76765812717962
 20
-133.0060071824603
 30
0.0
  0
VERTEX
  5
152
330
135
100
AcDbEntity
  8
_U+30EC_U+30A4_U+30E4_U+30FC 1
370
     0
100
AcDbVertex
100
AcDb2dVertex
 10
87.15695391701284
 20
-133.0060071824603
 30
0.0
  0
SEQEND
  5
153
330
135
100
AcDbEntity
  8
_U+30EC_U+30A4_U+30E4_U+30FC 1
370
     0
  0
POLYLINE
  5
154
330
131
100
AcDbEntity
  8
_U+30EC_U+30A4_U+30E4_U+30FC 1
370
     0
100
AcDb2dPolyline
 66
     1
 10
0.0
 20
0.0
 30
0.0
  0
VERTEX
  5
155
330
154
100
AcDbEntity
  8
_U+30EC_U+30A4_U+30E4_U+30FC 1
370
     0
100
AcDbVertex
100
AcDb2dVertex
 10
87.15695391701284
 20
-133.4545586146398
 30
0.0
  0
VERTEX
  5
156
330
154
100
AcDbEntity
  8
_U+30EC_U+30A4_U+30E4_U+30FC 1
370
     0
100
AcDbVertex
100
AcDb2dVertex
 10
86.9495591688008
 20
-133.4545586146398
 30
0.0
  0
VERTEX
  5
157
330
154
100
AcDbEntity
  8
_U+30EC_U+30A4_U+30E4_U+30FC 1
370
     0
100
AcDbVertex
100
AcDb2dVertex
 10
86.9495591688008
 20
-133.6576469934953
 30
0.0
  0
VERTEX
  5
158
330
154
100
AcDbEntity
  8
_U+30EC_U+30A4_U+30E4_U+30FC 1
370
     0
100
AcDbVertex
100
AcDb2dVertex
 10
87.15695391701284
 20
-133.6576469934953
 30
0.0
  0
VERTEX
  5
159
330
154
100
AcDbEntity
  8
_U+30EC_U+30A4_U+30E4_U+30FC 1
370
     0
100
AcDbVertex
100
AcDb2dVertex
 10
87.15695391701284
 20
-133.4545586146398
 30
0.0
  0
SEQEND
  5
15A
330
154
100
AcDbEntity
  8
_U+30EC_U+30A4_U+30E4_U+30FC 1
370
     0
  0
POLYLINE
  5
15B
330
131
100
AcDbEntity
  8
_U+30EC_U+30A4_U+30E4_U+30FC 1
370
     0
100
AcDb2dPolyline
 66
     1
 10
0.0
 20
0.0
 30
0.0
  0
VERTEX
  5
15C
330
15B
100
AcDbEntity
  8
_U+30EC_U+30A4_U+30E4_U+30FC 1
370
     0
100
AcDbVertex
100
AcDb2dVertex
 10
87.15695391701284
 20
-133.7802923927702
 30
0.0
  0
VERTEX
  5
15D
330
15B
100
AcDbEntity
  8
_U+30EC_U+30A4_U+30E4_U+30FC 1
370
     0
100
AcDbVertex
100
AcDb2dVertex
 10
86.9495591688008
 20
-133.7802923927702
 30
0.0
  0
VERTEX
  5
15E
330
15B
100
AcDbEntity
  8
_U+30EC_U+30A4_U+30E4_U+30FC 1
370
     0
100
AcDbVertex
100
AcDb2dVertex
 10
86.9495591688008
 20
-133.9876871409822
 30
0.0
  0
VERTEX
  5
15F
330
15B
100
AcDbEntity
  8
_U+30EC_U+30A4_U+30E4_U+30FC 1
370
     0
100
AcDbVertex
100
AcDb2dVertex
 10
87.15695391701284
 20
-133.9876871409822
 30
0.0
  0
VERTEX
  5
160
330
15B
100
AcDbEntity
  8
_U+30EC_U+30A4_U+30E4_U+30FC 1
370
     0
100
AcDbVertex
100
AcDb2dVertex
 10
87.15695391701284
 20
-133.7802923927702
 30
0.0
  0
SEQEND
  5
161
330
15B
100
AcDbEntity
  8
_U+30EC_U+30A4_U+30E4_U+30FC 1
370
     0
  0
POLYLINE
  5
162
330
131
100
AcDbEntity
  8
_U+30EC_U+30A4_U+30E4_U+30FC 1
370
     0
100
AcDb2dPolyline
 66
     1
 10
0.0
 20
0.0
 30
0.0
  0
VERTEX
  5
163
330
162
100
AcDbEntity
  8
_U+30EC_U+30A4_U+30E4_U+30FC 1
370
     0
100
AcDbVertex
100
AcDb2dVertex
 10
87.52282305754638
 20
-133.4545586146398
 30
0.0
  0
VERTEX
  5
164
330
162
100
AcDbEntity
  8
_U+30EC_U+30A4_U+30E4_U+30FC 1
370
     0
100
AcDbVertex
100
AcDb2dVertex
 10
87.31129419475204
 20
-133.4545586146398
 30
0.0
  0
VERTEX
  5
165
330
162
100
AcDbEntity
  8
_U+30EC_U+30A4_U+30E4_U+30FC 1
370
     0
100
AcDbVertex
100
AcDb2dVertex
 10
87.31129419475204
 20
-133.6576469934953
 30
0.0
  0
VERTEX
  5
166
330
162
100
AcDbEntity
  8
_U+30EC_U+30A4_U+30E4_U+30FC 1
370
     0
100
AcDbVertex
100
AcDb2dVertex
 10
87.52282305754638
 20
-133.6576469934953
 30
0.0
  0
VERTEX
  5
167
330
162
100
AcDbEntity
  8
_U+30EC_U+30A4_U+30E4_U+30FC 1
370
     0
100
AcDbVertex
100
AcDb2dVertex
 10
87.52282305754638
 20
-133.4545586146398
 30
0.0
  0
SEQEND
  5
168
330
162
100
AcDbEntity
  8
_U+30EC_U+30A4_U+30E4_U+30FC 1
370
     0
  0
POLYLINE
  5
169
330
131
100
AcDbEntity
  8
_U+30EC_U+30A4_U+30E4_U+30FC 1
370
     0
100
AcDb2dPolyline
 66
     1
 10
0.0
 20
0.0
 30
0.0
  0
VERTEX
  5
16A
330
169
100
AcDbEntity
  8
_U+30EC_U+30A4_U+30E4_U+30FC 1
370
     0
100
AcDbVertex
100
AcDb2dVertex
 10
87.52282305754638
 20
-133.7802923927702
 30
0.0
  0
VERTEX
  5
16B
330
169
100
AcDbEntity
  8
_U+30EC_U+30A4_U+30E4_U+30FC 1
370
     0
100
AcDbVertex
100
AcDb2dVertex
 10
87.31129419475204
 20
-133.7802923927702
 30
0.0
  0
VERTEX
  5
16C
330
169
100
AcDbEntity
  8
_U+30EC_U+30A4_U+30E4_U+30FC 1
370
     0
100
AcDbVertex
100
AcDb2dVertex
 10
87.31129419475204
 20
-133.9876871409822
 30
0.0
  0
VERTEX
  5
16D
330
169
100
AcDbEntity
  8
_U+30EC_U+30A4_U+30E4_U+30FC 1
370
     0
100
AcDbVertex
100
AcDb2dVertex
 10
87.52282305754638
 20
-133.9876871409822
 30
0.0
  0
VERTEX
  5
16E
330
169
100
AcDbEntity
  8
_U+30EC_U+30A4_U+30E4_U+30FC 1
370
     0
100
AcDbVertex
100
AcDb2dVertex
 10
87.52282305754638
 20
-133.7802923927702
 30
0.0
  0
SEQEND
  5
16F
330
169
100
AcDbEntity
  8
_U+30EC_U+30A4_U+30E4_U+30FC 1
370
     0
  0
SPLINE
  5
170
330
131
100
AcDbEntity
  8
_U+30EC_U+30A4_U+30E4_U+30FC 1
370
     0
100
AcDbSpline
210
0.0
220
0.0
230
1.0
 70
    11
 71
     3
 72
    38
 73
    34
 74
     0
 42
0.0000000001
 43
0.0000000001
 12
1.0
 22
0.0
 32
0.0
 13
1.0
 23
0.0
 33
0.0
 40
0.0
 40
0.0
 40
0.0
 40
0.0
 40
1.0
 40
1.0
 40
1.0
 40
2.0
 40
2.0
 40
2.0
 40
3.0
 40
3.0
 40
3.0
 40
4.0
 40
4.0
 40
4.0
 40
5.0
 40
5.0
 40
5.0
 40
6.0
 40
6.0
 40
6.0
 40
7.0
 40
7.0
 40
7.0
 40
8.0
 40
8.0
 40
8.0
 40
9.0
 40
9.0
 40
9.0
 40
10.0
 40
10.0
 40
10.0
 40
11.0
 40
11.0
 40
11.0
 40
11.0
 10
87.56519773201495
 20
-134.6687825184162
 30
0.0
 10
87.64770776888669
 20
-134.6159003027176
 30
0.0
 10
87.81272784263015
 20
-134.5080688140292
 30
0.0
 10
87.91849227402733
 20
-134.3006740658172
 30
0.0
 10
88.06663137989307
 20
-134.0088744782165
 30
0.0
 10
88.06663137989307
 20
-133.7825317048356
 30
0.0
 10
88.06663137989307
 20
-133.6977823558985
 30
0.0
 10
88.06663137989307
 20
-133.6977823558985
 30
0.0
 10
88.06663137989307
 20
-133.4629990985787
 30
0.0
 10
88.06663137989307
 20
-133.4629990985787
 30
0.0
 10
88.06663137989307
 20
-133.4629990985787
 30
0.0
 10
88.23165145363653
 20
-133.4629990985787
 30
0.0
 10
88.23165145363653
 20
-133.4629990985787
 30
0.0
 10
88.23165145363653
 20
-133.4629990985787
 30
0.0
 10
88.23165145363653
 20
-133.6893418719596
 30
0.0
 10
88.23165145363653
 20
-133.6893418719596
 30
0.0
 10
88.23165145363653
 20
-133.8882961362328
 30
0.0
 10
88.29710826785629
 20
-134.1251464508437
 30
0.0
 10
88.39873858467115
 20
-134.2986070085261
 30
0.0
 10
88.51501055729834
 20
-134.4975612727992
 30
0.0
 10
88.64402938322094
 20
-134.5969522775487
 30
0.0
 10
88.72877873215809
 20
-134.6582749771861
 30
0.0
 10
88.72877873215809
 20
-134.6582749771861
 30
0.0
 10
88.6207749886955
 20
-134.808481140343
 30
0.0
 10
88.6207749886955
 20
-134.808481140343
 30
0.0
 10
88.44318031643087
 20
-134.6794623144204
 30
0.0
 10
88.2442260521577
 20
-134.4403726877441
 30
0.0
 10
88.16602238464253
 20
-134.0870781457317
 30
0.0
 10
88.10039331564852
 20
-134.326167772408
 30
0.0
 10
87.99893525360791
 20
-134.5948852202575
 30
0.0
 10
87.69008244335527
 20
-134.8041747709865
 30
0.0
 10
87.69008244335527
 20
-134.8041747709865
 30
0.0
 10
87.56519773201495
 20
-134.6687825184162
 30
0.0
 10
87.56519773201495
 20
-134.6687825184162
 30
0.0
  0
SPLINE
  5
171
330
131
100
AcDbEntity
  8
_U+30EC_U+30A4_U+30E4_U+30FC 1
370
     0
100
AcDbSpline
210
0.0
220
0.0
230
1.0
 70
    11
 71
     3
 72
    38
 73
    34
 74
     0
 42
0.0000000001
 43
0.0000000001
 12
1.0
 22
0.0
 32
0.0
 13
1.0
 23
0.0
 33
0.0
 40
0.0
 40
0.0
 40
0.0
 40
0.0
 40
1.0
 40
1.0
 40
1.0
 40
2.0
 40
2.0
 40
2.0
 40
3.0
 40
3.0
 40
3.0
 40
4.0
 40
4.0
 40
4.0
 40
5.0
 40
5.0
 40
5.0
 40
6.0
 40
6.0
 40
6.0
 40
7.0
 40
7.0
 40
7.0
 40
8.0
 40
8.0
 40
8.0
 40
9.0
 40
9.0
 40
9.0
 40
10.0
 40
10.0
 40
10.0
 40
11.0
 40
11.0
 40
11.0
 40
11.0
 10
87.67940264735098
 20
-133.5963242938579
 30
0.0
 10
87.77259248022699
 20
-133.4735066398087
 30
0.0
 10
87.89730493679303
 20
-133.2938449102529
 30
0.0
 10
87.9925618269602
 20
-132.8452934780734
 30
0.0
 10
87.9925618269602
 20
-132.8452934780734
 30
0.0
 10
88.15964895799482
 20
-132.8642415032423
 30
0.0
 10
88.15964895799482
 20
-132.8642415032423
 30
0.0
 10
88.13432750617822
 20
-132.984819845226
 30
0.0
 10
88.11107311165279
 20
-133.0759426208109
 30
0.0
 10
88.07283255176652
 20
-133.1837741094992
 30
0.0
 10
88.07283255176652
 20
-133.1837741094992
 30
0.0
 10
88.70121796827608
 20
-133.1837741094992
 30
0.0
 10
88.70121796827608
 20
-133.1837741094992
 30
0.0
 10
88.70121796827608
 20
-133.1837741094992
 30
0.0
 10
88.70121796827608
 20
-133.3360473299472
 30
0.0
 10
88.70121796827608
 20
-133.3360473299472
 30
0.0
 10
88.66745603252065
 20
-133.4778130091653
 30
0.0
 10
88.57219914235348
 20
-133.7358506610105
 30
0.0
 10
88.49812958942061
 20
-133.8543619457031
 30
0.0
 10
88.49812958942061
 20
-133.8543619457031
 30
0.0
 10
88.34585636897256
 20
-133.7761582781879
 30
0.0
 10
88.34585636897256
 20
-133.7761582781879
 30
0.0
 10
88.44094100436547
 20
-133.6407660256176
 30
0.0
 10
88.50657007335947
 20
-133.4524915573487
 30
0.0
 10
88.53413083724148
 20
-133.3424207565949
 30
0.0
 10
88.53413083724148
 20
-133.3424207565949
 30
0.0
 10
88.01581622148564
 20
-133.3424207565949
 30
0.0
 10
88.01581622148564
 20
-133.3424207565949
 30
0.0
 10
87.91642521673617
 20
-133.5835774405624
 30
0.0
 10
87.8423556638033
 20
-133.6724609040819
 30
0.0
 10
87.8042873586913
 20
-133.7169026358416
 30
0.0
 10
87.8042873586913
 20
-133.7169026358416
 30
0.0
 10
87.67940264735098
 20
-133.5963242938579
 30
0.0
 10
87.67940264735098
 20
-133.5963242938579
 30
0.0
  0
HATCH
  5
172
330
131
100
AcDbEntity
  8
_U+30EC_U+30A4_U+30E4_U+30FC 1
 62
    12
420
 15007761
100
AcDbHatch
 10
0.0
 20
0.0
 30
0.0
210
0.0
220
0.0
230
1.0
  2
SOLID
 70
     1
 71
     0
 91
        7
 92
        1
 93
       28
 72
     1
 10
87.15695391701284
 20
-133.0060071824603
 11
87.15695391701284
 21
-132.8452934780734
 72
     1
 10
87.15695391701284
 20
-132.8452934780734
 11
87.31129419475204
 21
-132.8452934780734
 72
     1
 10
87.31129419475204
 20
-132.8452934780734
 11
87.31129419475204
 21
-133.0060071824603
 72
     1
 10
87.31129419475204
 20
-133.0060071824603
 11
87.70489635394183
 21
-133.0060071824603
 72
     1
 10
87.70489635394183
 20
-133.0060071824603
 11
87.70489635394183
 21
-133.1605197149738
 72
     1
 10
87.70489635394183
 20
-133.1605197149738
 11
87.31129419475204
 21
-133.1605197149738
 72
     1
 10
87.31129419475204
 20
-133.1605197149738
 11
87.31129419475204
 21
-133.314859992713
 72
     1
 10
87.31129419475204
 20
-133.314859992713
 11
87.66665579405556
 21
-133.314859992713
 72
     1
 10
87.66665579405556
 20
-133.314859992713
 11
87.66665579405556
 21
-134.1272135081349
 72
     1
 10
87.66665579405556
 20
-134.1272135081349
 11
87.31129419475204
 21
-134.1272135081349
 72
     1
 10
87.31129419475204
 20
-134.1272135081349
 11
87.31129419475204
 21
-134.2965399512349
 72
     1
 10
87.31129419475204
 20
-134.2965399512349
 11
87.71971026452842
 21
-134.2965399512349
 72
     1
 10
87.71971026452842
 20
-134.2965399512349
 11
87.71971026452842
 21
-134.4508802289741
 72
     1
 10
87.71971026452842
 20
-134.4508802289741
 11
87.31129419475204
 21
-134.4508802289741
 72
     1
 10
87.31129419475204
 20
-134.4508802289741
 11
87.31129419475204
 21
-134.8041747709865
 72
     1
 10
87.31129419475204
 20
-134.8041747709865
 11
87.15695391701284
 21
-134.8041747709865
 72
     1
 10
87.15695391701284
 20
-134.8041747709865
 11
87.15695391701284
 21
-134.4508802289741
 72
     1
 10
87.15695391701284
 20
-134.4508802289741
 11
86.74647078994533
 21
-134.4508802289741
 72
     1
 10
86.74647078994533
 20
-134.4508802289741
 11
86.74647078994533
 21
-134.2965399512349
 72
     1
 10
86.74647078994533
 20
-134.2965399512349
 11
87.15695391701284
 21
-134.2965399512349
 72
     1
 10
87.15695391701284
 20
-134.2965399512349
 11
87.15695391701284
 21
-134.1272135081349
 72
     1
 10
87.15695391701284
 20
-134.1272135081349
 11
86.80779348958278
 21
-134.1272135081349
 72
     1
 10
86.80779348958278
 20
-134.1272135081349
 11
86.80779348958278
 21
-133.314859992713
 72
     1
 10
86.80779348958278
 20
-133.314859992713
 11
87.15695391701284
 21
-133.314859992713
 72
     1
 10
87.15695391701284
 20
-133.314859992713
 11
87.15695391701284
 21
-133.1605197149738
 72
     1
 10
87.15695391701284
 20
-133.1605197149738
 11
86.76765812717962
 21
-133.1605197149738
 72
     1
 10
86.76765812717962
 20
-133.1605197149738
 11
86.76765812717962
 21
-133.0060071824603
 72
     1
 10
86.76765812717962
 20
-133.0060071824603
 11
87.15695391701284
 21
-133.0060071824603
 97
        0
 92
        1
 93
        4
 72
     1
 10
87.15695391701284
 20
-133.4545586146398
 11
86.9495591688008
 21
-133.4545586146398
 72
     1
 10
86.9495591688008
 20
-133.4545586146398
 11
86.9495591688008
 21
-133.6576469934953
 72
     1
 10
86.9495591688008
 20
-133.6576469934953
 11
87.15695391701284
 21
-133.6576469934953
 72
     1
 10
87.15695391701284
 20
-133.6576469934953
 11
87.15695391701284
 21
-133.4545586146398
 97
        0
 92
        1
 93
        4
 72
     1
 10
87.15695391701284
 20
-133.7802923927702
 11
86.9495591688008
 21
-133.7802923927702
 72
     1
 10
86.9495591688008
 20
-133.7802923927702
 11
86.9495591688008
 21
-133.9876871409822
 72
     1
 10
86.9495591688008
 20
-133.9876871409822
 11
87.15695391701284
 21
-133.9876871409822
 72
     1
 10
87.15695391701284
 20
-133.9876871409822
 11
87.15695391701284
 21
-133.7802923927702
 97
        0
 92
        1
 93
        4
 72
     1
 10
87.52282305754638
 20
-133.4545586146398
 11
87.31129419475204
 21
-133.4545586146398
 72
     1
 10
87.31129419475204
 20
-133.4545586146398
 11
87.31129419475204
 21
-133.6576469934953
 72
     1
 10
87.31129419475204
 20
-133.6576469934953
 11
87.52282305754638
 21
-133.6576469934953
 72
     1
 10
87.52282305754638
 20
-133.6576469934953
 11
87.52282305754638
 21
-133.4545586146398
 97
        0
 92
        1
 93
        4
 72
     1
 10
87.52282305754638
 20
-133.7802923927702
 11
87.31129419475204
 21
-133.7802923927702
 72
     1
 10
87.31129419475204
 20
-133.7802923927702
 11
87.31129419475204
 21
-133.9876871409822
 72
     1
 10
87.31129419475204
 20
-133.9876871409822
 11
87.52282305754638
 21
-133.9876871409822
 72
     1
 10
87.52282305754638
 20
-133.9876871409822
 11
87.52282305754638
 21
-133.7802923927702
 97
        0
 92
        1
 93
        1
 72
     4
 94
        3
 73
     0
 74
     1
 95
       38
 96
       34
 40
0.0
 40
0.0
 40
0.0
 40
0.0
 40
1.0
 40
1.0
 40
1.0
 40
2.0
 40
2.0
 40
2.0
 40
3.0
 40
3.0
 40
3.0
 40
4.0
 40
4.0
 40
4.0
 40
5.0
 40
5.0
 40
5.0
 40
6.0
 40
6.0
 40
6.0
 40
7.0
 40
7.0
 40
7.0
 40
8.0
 40
8.0
 40
8.0
 40
9.0
 40
9.0
 40
9.0
 40
10.0
 40
10.0
 40
10.0
 40
11.0
 40
11.0
 40
11.0
 40
11.0
 10
87.56519773201495
 20
-134.6687825184162
 10
87.64770776888669
 20
-134.6159003027176
 10
87.81272784263015
 20
-134.5080688140292
 10
87.91849227402733
 20
-134.3006740658172
 10
88.06663137989307
 20
-134.0088744782165
 10
88.06663137989307
 20
-133.7825317048356
 10
88.06663137989307
 20
-133.6977823558985
 10
88.06663137989307
 20
-133.6977823558985
 10
88.06663137989307
 20
-133.4629990985787
 10
88.06663137989307
 20
-133.4629990985787
 10
88.06663137989307
 20
-133.4629990985787
 10
88.23165145363653
 20
-133.4629990985787
 10
88.23165145363653
 20
-133.4629990985787
 10
88.23165145363653
 20
-133.4629990985787
 10
88.23165145363653
 20
-133.6893418719596
 10
88.23165145363653
 20
-133.6893418719596
 10
88.23165145363653
 20
-133.8882961362328
 10
88.29710826785629
 20
-134.1251464508437
 10
88.39873858467115
 20
-134.2986070085261
 10
88.51501055729834
 20
-134.4975612727992
 10
88.64402938322094
 20
-134.5969522775487
 10
88.72877873215809
 20
-134.6582749771861
 10
88.72877873215809
 20
-134.6582749771861
 10
88.6207749886955
 20
-134.808481140343
 10
88.6207749886955
 20
-134.808481140343
 10
88.44318031643087
 20
-134.6794623144204
 10
88.2442260521577
 20
-134.4403726877441
 10
88.16602238464253
 20
-134.0870781457317
 10
88.10039331564852
 20
-134.326167772408
 10
87.99893525360791
 20
-134.5948852202575
 10
87.69008244335527
 20
-134.8041747709865
 10
87.69008244335527
 20
-134.8041747709865
 10
87.56519773201495
 20
-134.6687825184162
 10
87.56519773201495
 20
-134.6687825184162
 97
        0
 97
        0
 92
        1
 93
        1
 72
     4
 94
        3
 73
     0
 74
     1
 95
       38
 96
       34
 40
0.0
 40
0.0
 40
0.0
 40
0.0
 40
1.0
 40
1.0
 40
1.0
 40
2.0
 40
2.0
 40
2.0
 40
3.0
 40
3.0
 40
3.0
 40
4.0
 40
4.0
 40
4.0
 40
5.0
 40
5.0
 40
5.0
 40
6.0
 40
6.0
 40
6.0
 40
7.0
 40
7.0
 40
7.0
 40
8.0
 40
8.0
 40
8.0
 40
9.0
 40
9.0
 40
9.0
 40
10.0
 40
10.0
 40
10.0
 40
11.0
 40
11.0
 40
11.0
 40
11.0
 10
87.67940264735098
 20
-133.5963242938579
 10
87.77259248022699
 20
-133.4735066398087
 10
87.89730493679303
 20
-133.2938449102529
 10
87.9925618269602
 20
-132.8452934780734
 10
87.9925618269602
 20
-132.8452934780734
 10
88.15964895799482
 20
-132.8642415032423
 10
88.15964895799482
 20
-132.8642415032423
 10
88.13432750617822
 20
-132.984819845226
 10
88.11107311165279
 20
-133.0759426208109
 10
88.07283255176652
 20
-133.1837741094992
 10
88.07283255176652
 20
-133.1837741094992
 10
88.70121796827608
 20
-133.1837741094992
 10
88.70121796827608
 20
-133.1837741094992
 10
88.70121796827608
 20
-133.1837741094992
 10
88.70121796827608
 20
-133.3360473299472
 10
88.70121796827608
 20
-133.3360473299472
 10
88.66745603252065
 20
-133.4778130091653
 10
88.57219914235348
 20
-133.7358506610105
 10
88.49812958942061
 20
-133.8543619457031
 10
88.49812958942061
 20
-133.8543619457031
 10
88.34585636897256
 20
-133.7761582781879
 10
88.34585636897256
 20
-133.7761582781879
 10
88.44094100436547
 20
-133.6407660256176
 10
88.50657007335947
 20
-133.4524915573487
 10
88.53413083724148
 20
-133.3424207565949
 10
88.53413083724148
 20
-133.3424207565949
 10
88.01581622148564
 20
-133.3424207565949
 10
88.01581622148564
 20
-133.3424207565949
 10
87.91642521673617
 20
-133.5835774405624
 10
87.8423556638033
 20
-133.6724609040819
 10
87.8042873586913
 20
-133.7169026358416
 10
87.8042873586913
 20
-133.7169026358416
 10
87.67940264735098
 20
-133.5963242938579
 10
87.67940264735098
 20
-133.5963242938579
 97
        0
 97
        0
 75
     2
 76
     1
 98
        0
  0
SPLINE
  5
173
330
131
100
AcDbEntity
  8
_U+30EC_U+30A4_U+30E4_U+30FC 1
370
     0
100
AcDbSpline
210
0.0
220
0.0
230
1.0
 70
    11
 71
     3
 72
    50
 73
    46
 74
     0
 42
0.0000000001
 43
0.0000000001
 12
1.0
 22
0.0
 32
0.0
 13
1.0
 23
0.0
 33
0.0
 40
0.0
 40
0.0
 40
0.0
 40
0.0
 40
1.0
 40
1.0
 40
1.0
 40
2.0
 40
2.0
 40
2.0
 40
3.0
 40
3.0
 40
3.0
 40
4.0
 40
4.0
 40
4.0
 40
5.0
 40
5.0
 40
5.0
 40
6.0
 40
6.0
 40
6.0
 40
7.0
 40
7.0
 40
7.0
 40
8.0
 40
8.0
 40
8.0
 40
9.0
 40
9.0
 40
9.0
 40
10.0
 40
10.0
 40
10.0
 40
11.0
 40
11.0
 40
11.0
 40
12.0
 40
12.0
 40
12.0
 40
13.0
 40
13.0
 40
13.0
 40
14.0
 40
14.0
 40
14.0
 40
15.0
 40
15.0
 40
15.0
 40
15.0
 10
89.17405732362663
 20
-133.143638747096
 30
0.0
 10
89.17405732362663
 20
-133.143638747096
 30
0.0
 10
89.82569713466164
 20
-133.143638747096
 30
0.0
 10
89.82569713466164
 20
-133.143638747096
 30
0.0
 10
89.82569713466164
 20
-133.143638747096
 30
0.0
 10
89.82569713466164
 20
-133.2683512036621
 30
0.0
 10
89.82569713466164
 20
-133.2683512036621
 30
0.0
 10
89.82569713466164
 20
-133.2683512036621
 30
0.0
 10
89.54853920287329
 20
-133.2683512036621
 30
0.0
 10
89.54853920287329
 20
-133.2683512036621
 30
0.0
 10
89.54853920287329
 20
-133.2683512036621
 30
0.0
 10
89.54853920287329
 20
-133.5434420781593
 30
0.0
 10
89.54853920287329
 20
-133.5434420781593
 30
0.0
 10
89.54853920287329
 20
-133.5434420781593
 30
0.0
 10
89.38782549848638
 20
-133.5434420781593
 30
0.0
 10
89.38782549848638
 20
-133.5434420781593
 30
0.0
 10
89.38782549848638
 20
-133.5434420781593
 30
0.0
 10
89.38782549848638
 20
-133.2683512036621
 30
0.0
 10
89.38782549848638
 20
-133.2683512036621
 30
0.0
 10
89.38782549848638
 20
-133.2683512036621
 30
0.0
 10
89.16785615175318
 20
-133.2683512036621
 30
0.0
 10
89.16785615175318
 20
-133.2683512036621
 30
0.0
 10
89.1571763557489
 20
-133.3381143872384
 30
0.0
 10
89.13185490393232
 20
-133.532762282155
 30
0.0
 10
88.97734237141886
 20
-133.6829684453119
 30
0.0
 10
88.97734237141886
 20
-133.6829684453119
 30
0.0
 10
88.85469697214397
 20
-133.5730698993324
 30
0.0
 10
88.85469697214397
 20
-133.5730698993324
 30
0.0
 10
88.97527531412771
 20
-133.4735066398087
 30
0.0
 10
89.01764998859629
 20
-133.2683512036621
 30
0.0
 10
89.01764998859629
 20
-133.1858411667903
 30
0.0
 10
89.01764998859629
 20
-133.1858411667903
 30
0.0
 10
89.01764998859629
 20
-132.9002427510631
 30
0.0
 10
89.01764998859629
 20
-132.9002427510631
 30
0.0
 10
89.50203041382241
 20
-132.9002427510631
 30
0.0
 10
89.65654294633588
 20
-132.8537339620123
 30
0.0
 10
89.75162758172877
 20
-132.8261731981303
 30
0.0
 10
89.75162758172877
 20
-132.8261731981303
 30
0.0
 10
89.80450979742734
 20
-132.9658718200571
 30
0.0
 10
89.80450979742734
 20
-132.9658718200571
 30
0.0
 10
89.59504799192416
 20
-133.0144476663992
 30
0.0
 10
89.4322672302461
 20
-133.0251274624034
 30
0.0
 10
89.17405732362663
 20
-133.0292615769857
 30
0.0
 10
89.17405732362663
 20
-133.0292615769857
 30
0.0
 10
89.17405732362663
 20
-133.143638747096
 30
0.0
 10
89.17405732362663
 20
-133.143638747096
 30
0.0
  0
SPLINE
  5
174
330
131
100
AcDbEntity
  8
_U+30EC_U+30A4_U+30E4_U+30FC 1
370
     0
100
AcDbSpline
210
0.0
220
0.0
230
1.0
 70
    11
 71
     3
 72
    32
 73
    28
 74
     0
 42
0.0000000001
 43
0.0000000001
 12
1.0
 22
0.0
 32
0.0
 13
1.0
 23
0.0
 33
0.0
 40
0.0
 40
0.0
 40
0.0
 40
0.0
 40
1.0
 40
1.0
 40
1.0
 40
2.0
 40
2.0
 40
2.0
 40
3.0
 40
3.0
 40
3.0
 40
4.0
 40
4.0
 40
4.0
 40
5.0
 40
5.0
 40
5.0
 40
6.0
 40
6.0
 40
6.0
 40
7.0
 40
7.0
 40
7.0
 40
8.0
 40
8.0
 40
8.0
 40
9.0
 40
9.0
 40
9.0
 40
9.0
 10
89.08948022946375
 20
-134.4889485340861
 30
0.0
 10
89.08948022946375
 20
-134.4889485340861
 30
0.0
 10
89.08948022946375
 20
-133.5899508672101
 30
0.0
 10
89.08948022946375
 20
-133.5899508672101
 30
0.0
 10
89.08948022946375
 20
-133.5899508672101
 30
0.0
 10
90.58723549167611
 20
-133.5899508672101
 30
0.0
 10
90.58723549167611
 20
-133.5899508672101
 30
0.0
 10
90.58723549167611
 20
-133.5899508672101
 30
0.0
 10
90.58723549167611
 20
-134.4889485340861
 30
0.0
 10
90.58723549167611
 20
-134.4889485340861
 30
0.0
 10
90.58723549167611
 20
-134.4889485340861
 30
0.0
 10
89.44277477147611
 20
-134.4889485340861
 30
0.0
 10
89.44277477147611
 20
-134.4889485340861
 30
0.0
 10
89.44277477147611
 20
-134.4889485340861
 30
0.0
 10
89.54853920287329
 20
-134.5990193348398
 30
0.0
 10
89.54853920287329
 20
-134.5990193348398
 30
0.0
 10
89.38351912912982
 20
-134.694276225007
 30
0.0
 10
89.21849905538635
 20
-134.7555989246444
 30
0.0
 10
88.92239309842913
 20
-134.8064140830519
 30
0.0
 10
88.92239309842913
 20
-134.8064140830519
 30
0.0
 10
88.85676402943511
 20
-134.6539686078296
 30
0.0
 10
88.85676402943511
 20
-134.6539686078296
 30
0.0
 10
89.23555227803834
 20
-134.601086392131
 30
0.0
 10
89.35819767731323
 20
-134.5333902658458
 30
0.0
 10
89.43864065689381
 20
-134.4889485340861
 30
0.0
 10
89.43864065689381
 20
-134.4889485340861
 30
0.0
 10
89.08948022946375
 20
-134.4889485340861
 30
0.0
 10
89.08948022946375
 20
-134.4889485340861
 30
0.0
  0
POLYLINE
  5
175
330
131
100
AcDbEntity
  8
_U+30EC_U+30A4_U+30E4_U+30FC 1
370
     0
100
AcDb2dPolyline
 66
     1
 10
0.0
 20
0.0
 30
0.0
  0
VERTEX
  5
176
330
175
100
AcDbEntity
  8
_U+30EC_U+30A4_U+30E4_U+30FC 1
370
     0
100
AcDbVertex
100
AcDb2dVertex
 10
90.41808130335035
 20
-133.7232760624893
 30
0.0
  0
VERTEX
  5
177
330
175
100
AcDbEntity
  8
_U+30EC_U+30A4_U+30E4_U+30FC 1
370
     0
100
AcDbVertex
100
AcDb2dVertex
 10
89.25880667256378
 20
-133.7232760624893
 30
0.0
  0
VERTEX
  5
178
330
175
100
AcDbEntity
  8
_U+30EC_U+30A4_U+30E4_U+30FC 1
370
     0
100
AcDbVertex
100
AcDb2dVertex
 10
89.25880667256378
 20
-133.8522948884119
 30
0.0
  0
VERTEX
  5
179
330
175
100
AcDbEntity
  8
_U+30EC_U+30A4_U+30E4_U+30FC 1
370
     0
100
AcDbVertex
100
AcDb2dVertex
 10
90.41808130335035
 20
-133.8522948884119
 30
0.0
  0
VERTEX
  5
17A
330
175
100
AcDbEntity
  8
_U+30EC_U+30A4_U+30E4_U+30FC 1
370
     0
100
AcDbVertex
100
AcDb2dVertex
 10
90.41808130335035
 20
-133.7232760624893
 30
0.0
  0
SEQEND
  5
17B
330
175
100
AcDbEntity
  8
_U+30EC_U+30A4_U+30E4_U+30FC 1
370
     0
  0
POLYLINE
  5
17C
330
131
100
AcDbEntity
  8
_U+30EC_U+30A4_U+30E4_U+30FC 1
370
     0
100
AcDb2dPolyline
 66
     1
 10
0.0
 20
0.0
 30
0.0
  0
VERTEX
  5
17D
330
17C
100
AcDbEntity
  8
_U+30EC_U+30A4_U+30E4_U+30FC 1
370
     0
100
AcDbVertex
100
AcDb2dVertex
 10
90.41808130335035
 20
-133.9621934343914
 30
0.0
  0
VERTEX
  5
17E
330
17C
100
AcDbEntity
  8
_U+30EC_U+30A4_U+30E4_U+30FC 1
370
     0
100
AcDbVertex
100
AcDb2dVertex
 10
89.25880667256378
 20
-133.9621934343914
 30
0.0
  0
VERTEX
  5
17F
330
17C
100
AcDbEntity
  8
_U+30EC_U+30A4_U+30E4_U+30FC 1
370
     0
100
AcDbVertex
100
AcDb2dVertex
 10
89.25880667256378
 20
-134.1039591136094
 30
0.0
  0
VERTEX
  5
180
330
17C
100
AcDbEntity
  8
_U+30EC_U+30A4_U+30E4_U+30FC 1
370
     0
100
AcDbVertex
100
AcDb2dVertex
 10
90.41808130335035
 20
-134.1039591136094
 30
0.0
  0
VERTEX
  5
181
330
17C
100
AcDbEntity
  8
_U+30EC_U+30A4_U+30E4_U+30FC 1
370
     0
100
AcDbVertex
100
AcDb2dVertex
 10
90.41808130335035
 20
-133.9621934343914
 30
0.0
  0
SEQEND
  5
182
330
17C
100
AcDbEntity
  8
_U+30EC_U+30A4_U+30E4_U+30FC 1
370
     0
  0
POLYLINE
  5
183
330
131
100
AcDbEntity
  8
_U+30EC_U+30A4_U+30E4_U+30FC 1
370
     0
100
AcDb2dPolyline
 66
     1
 10
0.0
 20
0.0
 30
0.0
  0
VERTEX
  5
184
330
183
100
AcDbEntity
  8
_U+30EC_U+30A4_U+30E4_U+30FC 1
370
     0
100
AcDbVertex
100
AcDb2dVertex
 10
90.41808130335035
 20
-134.2140299143632
 30
0.0
  0
VERTEX
  5
185
330
183
100
AcDbEntity
  8
_U+30EC_U+30A4_U+30E4_U+30FC 1
370
     0
100
AcDbVertex
100
AcDb2dVertex
 10
89.25880667256378
 20
-134.2140299143632
 30
0.0
  0
VERTEX
  5
186
330
183
100
AcDbEntity
  8
_U+30EC_U+30A4_U+30E4_U+30FC 1
370
     0
100
AcDbVertex
100
AcDb2dVertex
 10
89.25880667256378
 20
-134.3535562815158
 30
0.0
  0
VERTEX
  5
187
330
183
100
AcDbEntity
  8
_U+30EC_U+30A4_U+30E4_U+30FC 1
370
     0
100
AcDbVertex
100
AcDb2dVertex
 10
90.41808130335035
 20
-134.3535562815158
 30
0.0
  0
VERTEX
  5
188
330
183
100
AcDbEntity
  8
_U+30EC_U+30A4_U+30E4_U+30FC 1
370
     0
100
AcDbVertex
100
AcDb2dVertex
 10
90.41808130335035
 20
-134.2140299143632
 30
0.0
  0
SEQEND
  5
189
330
183
100
AcDbEntity
  8
_U+30EC_U+30A4_U+30E4_U+30FC 1
370
     0
  0
SPLINE
  5
18A
330
131
100
AcDbEntity
  8
_U+30EC_U+30A4_U+30E4_U+30FC 1
370
     0
100
AcDbSpline
210
0.0
220
0.0
230
1.0
 70
    11
 71
     3
 72
    50
 73
    46
 74
     0
 42
0.0000000001
 43
0.0000000001
 12
1.0
 22
0.0
 32
0.0
 13
1.0
 23
0.0
 33
0.0
 40
0.0
 40
0.0
 40
0.0
 40
0.0
 40
1.0
 40
1.0
 40
1.0
 40
2.0
 40
2.0
 40
2.0
 40
3.0
 40
3.0
 40
3.0
 40
4.0
 40
4.0
 40
4.0
 40
5.0
 40
5.0
 40
5.0
 40
6.0
 40
6.0
 40
6.0
 40
7.0
 40
7.0
 40
7.0
 40
8.0
 40
8.0
 40
8.0
 40
9.0
 40
9.0
 40
9.0
 40
10.0
 40
10.0
 40
10.0
 40
11.0
 40
11.0
 40
11.0
 40
12.0
 40
12.0
 40
12.0
 40
13.0
 40
13.0
 40
13.0
 40
14.0
 40
14.0
 40
14.0
 40
15.0
 40
15.0
 40
15.0
 40
15.0
 10
90.0816677292157
 20
-133.143638747096
 30
0.0
 10
90.0816677292157
 20
-133.143638747096
 30
0.0
 10
90.81788463441359
 20
-133.143638747096
 30
0.0
 10
90.81788463441359
 20
-133.143638747096
 30
0.0
 10
90.81788463441359
 20
-133.143638747096
 30
0.0
 10
90.81788463441359
 20
-133.2683512036621
 30
0.0
 10
90.81788463441359
 20
-133.2683512036621
 30
0.0
 10
90.81788463441359
 20
-133.2683512036621
 30
0.0
 10
90.48784448692665
 20
-133.2683512036621
 30
0.0
 10
90.48784448692665
 20
-133.2683512036621
 30
0.0
 10
90.48784448692665
 20
-133.2683512036621
 30
0.0
 10
90.48784448692665
 20
-133.5434420781593
 30
0.0
 10
90.48784448692665
 20
-133.5434420781593
 30
0.0
 10
90.48784448692665
 20
-133.5434420781593
 30
0.0
 10
90.33126489712205
 20
-133.5434420781593
 30
0.0
 10
90.33126489712205
 20
-133.5434420781593
 30
0.0
 10
90.33126489712205
 20
-133.5434420781593
 30
0.0
 10
90.33126489712205
 20
-133.2683512036621
 30
0.0
 10
90.33126489712205
 20
-133.2683512036621
 30
0.0
 10
90.33126489712205
 20
-133.2683512036621
 30
0.0
 10
90.06685381862913
 20
-133.2683512036621
 30
0.0
 10
90.06685381862913
 20
-133.2683512036621
 30
0.0
 10
90.04153236681253
 20
-133.3973700295847
 30
0.0
 10
89.9907172084051
 20
-133.4883205503953
 30
0.0
 10
89.8933932609468
 20
-133.570830587267
 30
0.0
 10
89.8933932609468
 20
-133.570830587267
 30
0.0
 10
89.77074786167191
 20
-133.4629990985787
 30
0.0
 10
89.77074786167191
 20
-133.4629990985787
 30
0.0
 10
89.90614011424222
 20
-133.352928297825
 30
0.0
 10
89.92939450876766
 20
-133.2154689879635
 30
0.0
 10
89.92939450876766
 20
-133.1413994350306
 30
0.0
 10
89.92939450876766
 20
-133.1413994350306
 30
0.0
 10
89.92939450876766
 20
-132.898175693772
 30
0.0
 10
89.92939450876766
 20
-132.898175693772
 30
0.0
 10
90.39896102340721
 20
-132.898175693772
 30
0.0
 10
90.56622040921609
 20
-132.8580403313688
 30
0.0
 10
90.71005314572527
 20
-132.8156656569003
 30
0.0
 10
90.71005314572527
 20
-132.8156656569003
 30
0.0
 10
90.76930878807157
 20
-132.9531249667617
 30
0.0
 10
90.76930878807157
 20
-132.9531249667617
 30
0.0
 10
90.49852428293093
 20
-133.0230604051123
 30
0.0
 10
90.18329804603057
 20
-133.0271945196946
 30
0.0
 10
90.0816677292157
 20
-133.0271945196946
 30
0.0
 10
90.0816677292157
 20
-133.0271945196946
 30
0.0
 10
90.0816677292157
 20
-133.143638747096
 30
0.0
 10
90.0816677292157
 20
-133.143638747096
 30
0.0
  0
SPLINE
  5
18B
330
131
100
AcDbEntity
  8
_U+30EC_U+30A4_U+30E4_U+30FC 1
370
     0
100
AcDbSpline
210
0.0
220
0.0
230
1.0
 70
    11
 71
     3
 72
    17
 73
    13
 74
     0
 42
0.0000000001
 43
0.0000000001
 12
1.0
 22
0.0
 32
0.0
 13
1.0
 23
0.0
 33
0.0
 40
0.0
 40
0.0
 40
0.0
 40
0.0
 40
1.0
 40
1.0
 40
1.0
 40
2.0
 40
2.0
 40
2.0
 40
3.0
 40
3.0
 40
3.0
 40
4.0
 40
4.0
 40
4.0
 40
4.0
 10
90.19380558726058
 20
-134.4953219607338
 30
0.0
 10
90.41377493399378
 20
-134.6074598187787
 30
0.0
 10
90.68042532455212
 20
-134.6455281238907
 30
0.0
 10
90.80944415047473
 20
-134.656207919895
 30
0.0
 10
90.80944415047473
 20
-134.656207919895
 30
0.0
 10
90.73968096689842
 20
-134.8105481976342
 30
0.0
 10
90.73968096689842
 20
-134.8105481976342
 30
0.0
 10
90.61910262491467
 20
-134.7957342870476
 30
0.0
 10
90.3567586037129
 20
-134.7555989246444
 30
0.0
 10
90.09234752521998
 20
-134.6095268760699
 30
0.0
 10
90.09234752521998
 20
-134.6095268760699
 30
0.0
 10
90.19380558726058
 20
-134.4953219607338
 30
0.0
 10
90.19380558726058
 20
-134.4953219607338
 30
0.0
  0
HATCH
  5
18C
330
131
100
AcDbEntity
  8
_U+30EC_U+30A4_U+30E4_U+30FC 1
 62
    12
420
 15007761
100
AcDbHatch
 10
0.0
 20
0.0
 30
0.0
210
0.0
220
0.0
230
1.0
  2
SOLID
 70
     1
 71
     0
 91
        7
 92
        1
 93
        1
 72
     4
 94
        3
 73
     0
 74
     1
 95
       50
 96
       46
 40
0.0
 40
0.0
 40
0.0
 40
0.0
 40
1.0
 40
1.0
 40
1.0
 40
2.0
 40
2.0
 40
2.0
 40
3.0
 40
3.0
 40
3.0
 40
4.0
 40
4.0
 40
4.0
 40
5.0
 40
5.0
 40
5.0
 40
6.0
 40
6.0
 40
6.0
 40
7.0
 40
7.0
 40
7.0
 40
8.0
 40
8.0
 40
8.0
 40
9.0
 40
9.0
 40
9.0
 40
10.0
 40
10.0
 40
10.0
 40
11.0
 40
11.0
 40
11.0
 40
12.0
 40
12.0
 40
12.0
 40
13.0
 40
13.0
 40
13.0
 40
14.0
 40
14.0
 40
14.0
 40
15.0
 40
15.0
 40
15.0
 40
15.0
 10
89.17405732362663
 20
-133.143638747096
 10
89.17405732362663
 20
-133.143638747096
 10
89.82569713466164
 20
-133.143638747096
 10
89.82569713466164
 20
-133.143638747096
 10
89.82569713466164
 20
-133.143638747096
 10
89.82569713466164
 20
-133.2683512036621
 10
89.82569713466164
 20
-133.2683512036621
 10
89.82569713466164
 20
-133.2683512036621
 10
89.54853920287329
 20
-133.2683512036621
 10
89.54853920287329
 20
-133.2683512036621
 10
89.54853920287329
 20
-133.2683512036621
 10
89.54853920287329
 20
-133.5434420781593
 10
89.54853920287329
 20
-133.5434420781593
 10
89.54853920287329
 20
-133.5434420781593
 10
89.38782549848638
 20
-133.5434420781593
 10
89.38782549848638
 20
-133.5434420781593
 10
89.38782549848638
 20
-133.5434420781593
 10
89.38782549848638
 20
-133.2683512036621
 10
89.38782549848638
 20
-133.2683512036621
 10
89.38782549848638
 20
-133.2683512036621
 10
89.16785615175318
 20
-133.2683512036621
 10
89.16785615175318
 20
-133.2683512036621
 10
89.1571763557489
 20
-133.3381143872384
 10
89.13185490393232
 20
-133.532762282155
 10
88.97734237141886
 20
-133.6829684453119
 10
88.97734237141886
 20
-133.6829684453119
 10
88.85469697214397
 20
-133.5730698993324
 10
88.85469697214397
 20
-133.5730698993324
 10
88.97527531412771
 20
-133.4735066398087
 10
89.01764998859629
 20
-133.2683512036621
 10
89.01764998859629
 20
-133.1858411667903
 10
89.01764998859629
 20
-133.1858411667903
 10
89.01764998859629
 20
-132.9002427510631
 10
89.01764998859629
 20
-132.9002427510631
 10
89.50203041382241
 20
-132.9002427510631
 10
89.65654294633588
 20
-132.8537339620123
 10
89.75162758172877
 20
-132.8261731981303
 10
89.75162758172877
 20
-132.8261731981303
 10
89.80450979742734
 20
-132.9658718200571
 10
89.80450979742734
 20
-132.9658718200571
 10
89.59504799192416
 20
-133.0144476663992
 10
89.4322672302461
 20
-133.0251274624034
 10
89.17405732362663
 20
-133.0292615769857
 10
89.17405732362663
 20
-133.0292615769857
 10
89.17405732362663
 20
-133.143638747096
 10
89.17405732362663
 20
-133.143638747096
 97
        0
 97
        0
 92
        1
 93
        1
 72
     4
 94
        3
 73
     0
 74
     1
 95
       32
 96
       28
 40
0.0
 40
0.0
 40
0.0
 40
0.0
 40
1.0
 40
1.0
 40
1.0
 40
2.0
 40
2.0
 40
2.0
 40
3.0
 40
3.0
 40
3.0
 40
4.0
 40
4.0
 40
4.0
 40
5.0
 40
5.0
 40
5.0
 40
6.0
 40
6.0
 40
6.0
 40
7.0
 40
7.0
 40
7.0
 40
8.0
 40
8.0
 40
8.0
 40
9.0
 40
9.0
 40
9.0
 40
9.0
 10
89.08948022946375
 20
-134.4889485340861
 10
89.08948022946375
 20
-134.4889485340861
 10
89.08948022946375
 20
-133.5899508672101
 10
89.08948022946375
 20
-133.5899508672101
 10
89.08948022946375
 20
-133.5899508672101
 10
90.58723549167611
 20
-133.5899508672101
 10
90.58723549167611
 20
-133.5899508672101
 10
90.58723549167611
 20
-133.5899508672101
 10
90.58723549167611
 20
-134.4889485340861
 10
90.58723549167611
 20
-134.4889485340861
 10
90.58723549167611
 20
-134.4889485340861
 10
89.44277477147611
 20
-134.4889485340861
 10
89.44277477147611
 20
-134.4889485340861
 10
89.44277477147611
 20
-134.4889485340861
 10
89.54853920287329
 20
-134.5990193348398
 10
89.54853920287329
 20
-134.5990193348398
 10
89.38351912912982
 20
-134.694276225007
 10
89.21849905538635
 20
-134.7555989246444
 10
88.92239309842913
 20
-134.8064140830519
 10
88.92239309842913
 20
-134.8064140830519
 10
88.85676402943511
 20
-134.6539686078296
 10
88.85676402943511
 20
-134.6539686078296
 10
89.23555227803834
 20
-134.601086392131
 10
89.35819767731323
 20
-134.5333902658458
 10
89.43864065689381
 20
-134.4889485340861
 10
89.43864065689381
 20
-134.4889485340861
 10
89.08948022946375
 20
-134.4889485340861
 10
89.08948022946375
 20
-134.4889485340861
 97
        0
 97
        0
 92
        1
 93
        4
 72
     1
 10
90.41808130335035
 20
-133.7232760624893
 11
89.25880667256378
 21
-133.7232760624893
 72
     1
 10
89.25880667256378
 20
-133.7232760624893
 11
89.25880667256378
 21
-133.8522948884119
 72
     1
 10
89.25880667256378
 20
-133.8522948884119
 11
90.41808130335035
 21
-133.8522948884119
 72
     1
 10
90.41808130335035
 20
-133.8522948884119
 11
90.41808130335035
 21
-133.7232760624893
 97
        0
 92
        1
 93
        4
 72
     1
 10
90.41808130335035
 20
-133.9621934343914
 11
89.25880667256378
 21
-133.9621934343914
 72
     1
 10
89.25880667256378
 20
-133.9621934343914
 11
89.25880667256378
 21
-134.1039591136094
 72
     1
 10
89.25880667256378
 20
-134.1039591136094
 11
90.41808130335035
 21
-134.1039591136094
 72
     1
 10
90.41808130335035
 20
-134.1039591136094
 11
90.41808130335035
 21
-133.9621934343914
 97
        0
 92
        1
 93
        4
 72
     1
 10
90.41808130335035
 20
-134.2140299143632
 11
89.25880667256378
 21
-134.2140299143632
 72
     1
 10
89.25880667256378
 20
-134.2140299143632
 11
89.25880667256378
 21
-134.3535562815158
 72
     1
 10
89.25880667256378
 20
-134.3535562815158
 11
90.41808130335035
 21
-134.3535562815158
 72
     1
 10
90.41808130335035
 20
-134.3535562815158
 11
90.41808130335035
 21
-134.2140299143632
 97
        0
 92
        1
 93
        1
 72
     4
 94
        3
 73
     0
 74
     1
 95
       50
 96
       46
 40
0.0
 40
0.0
 40
0.0
 40
0.0
 40
1.0
 40
1.0
 40
1.0
 40
2.0
 40
2.0
 40
2.0
 40
3.0
 40
3.0
 40
3.0
 40
4.0
 40
4.0
 40
4.0
 40
5.0
 40
5.0
 40
5.0
 40
6.0
 40
6.0
 40
6.0
 40
7.0
 40
7.0
 40
7.0
 40
8.0
 40
8.0
 40
8.0
 40
9.0
 40
9.0
 40
9.0
 40
10.0
 40
10.0
 40
10.0
 40
11.0
 40
11.0
 40
11.0
 40
12.0
 40
12.0
 40
12.0
 40
13.0
 40
13.0
 40
13.0
 40
14.0
 40
14.0
 40
14.0
 40
15.0
 40
15.0
 40
15.0
 40
15.0
 10
90.0816677292157
 20
-133.143638747096
 10
90.0816677292157
 20
-133.143638747096
 10
90.81788463441359
 20
-133.143638747096
 10
90.81788463441359
 20
-133.143638747096
 10
90.81788463441359
 20
-133.143638747096
 10
90.81788463441359
 20
-133.2683512036621
 10
90.81788463441359
 20
-133.2683512036621
 10
90.81788463441359
 20
-133.2683512036621
 10
90.48784448692665
 20
-133.2683512036621
 10
90.48784448692665
 20
-133.2683512036621
 10
90.48784448692665
 20
-133.2683512036621
 10
90.48784448692665
 20
-133.5434420781593
 10
90.48784448692665
 20
-133.5434420781593
 10
90.48784448692665
 20
-133.5434420781593
 10
90.33126489712205
 20
-133.5434420781593
 10
90.33126489712205
 20
-133.5434420781593
 10
90.33126489712205
 20
-133.5434420781593
 10
90.33126489712205
 20
-133.2683512036621
 10
90.33126489712205
 20
-133.2683512036621
 10
90.33126489712205
 20
-133.2683512036621
 10
90.06685381862913
 20
-133.2683512036621
 10
90.06685381862913
 20
-133.2683512036621
 10
90.04153236681253
 20
-133.3973700295847
 10
89.9907172084051
 20
-133.4883205503953
 10
89.8933932609468
 20
-133.570830587267
 10
89.8933932609468
 20
-133.570830587267
 10
89.77074786167191
 20
-133.4629990985787
 10
89.77074786167191
 20
-133.4629990985787
 10
89.90614011424222
 20
-133.352928297825
 10
89.92939450876766
 20
-133.2154689879635
 10
89.92939450876766
 20
-133.1413994350306
 10
89.92939450876766
 20
-133.1413994350306
 10
89.92939450876766
 20
-132.898175693772
 10
89.92939450876766
 20
-132.898175693772
 10
90.39896102340721
 20
-132.898175693772
 10
90.56622040921609
 20
-132.8580403313688
 10
90.71005314572527
 20
-132.8156656569003
 10
90.71005314572527
 20
-132.8156656569003
 10
90.76930878807157
 20
-132.9531249667617
 10
90.76930878807157
 20
-132.9531249667617
 10
90.49852428293093
 20
-133.0230604051123
 10
90.18329804603057
 20
-133.0271945196946
 10
90.0816677292157
 20
-133.0271945196946
 10
90.0816677292157
 20
-133.0271945196946
 10
90.0816677292157
 20
-133.143638747096
 10
90.0816677292157
 20
-133.143638747096
 97
        0
 97
        0
 92
        1
 93
        1
 72
     4
 94
        3
 73
     0
 74
     1
 95
       17
 96
       13
 40
0.0
 40
0.0
 40
0.0
 40
0.0
 40
1.0
 40
1.0
 40
1.0
 40
2.0
 40
2.0
 40
2.0
 40
3.0
 40
3.0
 40
3.0
 40
4.0
 40
4.0
 40
4.0
 40
4.0
 10
90.19380558726058
 20
-134.4953219607338
 10
90.41377493399378
 20
-134.6074598187787
 10
90.68042532455212
 20
-134.6455281238907
 10
90.80944415047473
 20
-134.656207919895
 10
90.80944415047473
 20
-134.656207919895
 10
90.73968096689842
 20
-134.8105481976342
 10
90.73968096689842
 20
-134.8105481976342
 10
90.61910262491467
 20
-134.7957342870476
 10
90.3567586037129
 20
-134.7555989246444
 10
90.09234752521998
 20
-134.6095268760699
 10
90.09234752521998
 20
-134.6095268760699
 10
90.19380558726058
 20
-134.4953219607338
 10
90.19380558726058
 20
-134.4953219607338
 97
        0
 97
        0
 75
     2
 76
     1
 98
        0
  0
ENDBLK
  5
134
330
131
100
AcDbEntity
  8
0
100
AcDbBlockEnd
  0
BLOCK
  5
198
330
196
100
AcDbEntity
  8
0
100
AcDbBlockBegin
  2
block 7
 70
     0
 10
0.0
 20
0.0
 30
0.0
  3
block 7
  1

  0
SPLINE
  5
19A
330
196
100
AcDbEntity
  8
_U+30EC_U+30A4_U+30E4_U+30FC 1
370
     0
100
AcDbSpline
210
0.0
220
0.0
230
1.0
 70
    11
 71
     3
 72
    17
 73
    13
 74
     0
 42
0.0000000001
 43
0.0000000001
 12
1.0
 22
0.0
 32
0.0
 13
1.0
 23
0.0
 33
0.0
 40
0.0
 40
0.0
 40
0.0
 40
0.0
 40
1.0
 40
1.0
 40
1.0
 40
2.0
 40
2.0
 40
2.0
 40
3.0
 40
3.0
 40
3.0
 40
4.0
 40
4.0
 40
4.0
 40
4.0
 10
112.1264892297809
 20
-154.7898627000178
 30
0.0
 10
112.0207247983837
 20
-154.6840982686207
 30
0.0
 10
111.9401095640289
 20
-154.6462022182829
 30
0.0
 10
111.8470919859271
 20
-154.6145073398186
 30
0.0
 10
111.8470919859271
 20
-154.6145073398186
 30
0.0
 10
111.9573350414551
 20
-154.4494872660751
 30
0.0
 10
111.9573350414551
 20
-154.4494872660751
 30
0.0
 10
112.0544867341392
 20
-154.4918619405437
 30
0.0
 10
112.1750650761229
 20
-154.5700656080589
 30
0.0
 10
112.2281195465957
 20
-154.6248426262744
 30
0.0
 10
112.2281195465957
 20
-154.6248426262744
 30
0.0
 10
112.1264892297809
 20
-154.7898627000178
 30
0.0
 10
112.1264892297809
 20
-154.7898627000178
 30
0.0
  0
SPLINE
  5
19B
330
196
100
AcDbEntity
  8
_U+30EC_U+30A4_U+30E4_U+30FC 1
370
     0
100
AcDbSpline
210
0.0
220
0.0
230
1.0
 70
    11
 71
     3
 72
   182
 73
   178
 74
     0
 42
0.0000000001
 43
0.0000000001
 12
1.0
 22
0.0
 32
0.0
 13
1.0
 23
0.0
 33
0.0
 40
0.0
 40
0.0
 40
0.0
 40
0.0
 40
1.0
 40
1.0
 40
1.0
 40
2.0
 40
2.0
 40
2.0
 40
3.0
 40
3.0
 40
3.0
 40
4.0
 40
4.0
 40
4.0
 40
5.0
 40
5.0
 40
5.0
 40
6.0
 40
6.0
 40
6.0
 40
7.0
 40
7.0
 40
7.0
 40
8.0
 40
8.0
 40
8.0
 40
9.0
 40
9.0
 40
9.0
 40
10.0
 40
10.0
 40
10.0
 40
11.0
 40
11.0
 40
11.0
 40
12.0
 40
12.0
 40
12.0
 40
13.0
 40
13.0
 40
13.0
 40
14.0
 40
14.0
 40
14.0
 40
15.0
 40
15.0
 40
15.0
 40
16.0
 40
16.0
 40
16.0
 40
17.0
 40
17.0
 40
17.0
 40
18.0
 40
18.0
 40
18.0
 40
19.0
 40
19.0
 40
19.0
 40
20.0
 40
20.0
 40
20.0
 40
21.0
 40
21.0
 40
21.0
 40
22.0
 40
22.0
 40
22.0
 40
23.0
 40
23.0
 40
23.0
 40
24.0
 40
24.0
 40
24.0
 40
25.0
 40
25.0
 40
25.0
 40
26.0
 40
26.0
 40
26.0
 40
27.0
 40
27.0
 40
27.0
 40
28.0
 40
28.0
 40
28.0
 40
29.0
 40
29.0
 40
29.0
 40
30.0
 40
30.0
 40
30.0
 40
31.0
 40
31.0
 40
31.0
 40
32.0
 40
32.0
 40
32.0
 40
33.0
 40
33.0
 40
33.0
 40
34.0
 40
34.0
 40
34.0
 40
35.0
 40
35.0
 40
35.0
 40
36.0
 40
36.0
 40
36.0
 40
37.0
 40
37.0
 40
37.0
 40
38.0
 40
38.0
 40
38.0
 40
39.0
 40
39.0
 40
39.0
 40
40.0
 40
40.0
 40
40.0
 40
41.0
 40
41.0
 40
41.0
 40
42.0
 40
42.0
 40
42.0
 40
43.0
 40
43.0
 40
43.0
 40
44.0
 40
44.0
 40
44.0
 40
45.0
 40
45.0
 40
45.0
 40
46.0
 40
46.0
 40
46.0
 40
47.0
 40
47.0
 40
47.0
 40
48.0
 40
48.0
 40
48.0
 40
49.0
 40
49.0
 40
49.0
 40
50.0
 40
50.0
 40
50.0
 40
51.0
 40
51.0
 40
51.0
 40
52.0
 40
52.0
 40
52.0
 40
53.0
 40
53.0
 40
53.0
 40
54.0
 40
54.0
 40
54.0
 40
55.0
 40
55.0
 40
55.0
 40
56.0
 40
56.0
 40
56.0
 40
57.0
 40
57.0
 40
57.0
 40
58.0
 40
58.0
 40
58.0
 40
59.0
 40
59.0
 40
59.0
 40
59.0
 10
113.1713866904572
 20
-155.9684298655218
 30
0.0
 10
113.1713866904572
 20
-155.9684298655218
 30
0.0
 10
112.534733044783
 20
-155.9684298655218
 30
0.0
 10
112.534733044783
 20
-155.9684298655218
 30
0.0
 10
112.3211371246975
 20
-155.9684298655218
 30
0.0
 10
112.1051296377723
 20
-155.9725639801041
 30
0.0
 10
111.8915337176868
 20
-155.9853108333995
 30
0.0
 10
111.8915337176868
 20
-155.9853108333995
 30
0.0
 10
111.8915337176868
 20
-155.7779160851875
 30
0.0
 10
111.8915337176868
 20
-155.7779160851875
 30
0.0
 10
112.1137423764855
 20
-155.7906629384829
 30
0.0
 10
112.4372368425504
 20
-155.7947970530652
 30
0.0
 10
112.534733044783
 20
-155.7947970530652
 30
0.0
 10
112.534733044783
 20
-155.7947970530652
 30
0.0
 10
112.7548746462904
 20
-155.7947970530652
 30
0.0
 10
112.7548746462904
 20
-155.7947970530652
 30
0.0
 10
112.7548746462904
 20
-155.7947970530652
 30
0.0
 10
112.7548746462904
 20
-155.6532036286214
 30
0.0
 10
112.7548746462904
 20
-155.6532036286214
 30
0.0
 10
112.7548746462904
 20
-155.6532036286214
 30
0.0
 10
112.5939886871293
 20
-155.6532036286214
 30
0.0
 10
112.5939886871293
 20
-155.6532036286214
 30
0.0
 10
112.4289686133858
 20
-155.6532036286214
 30
0.0
 10
112.2639485396424
 20
-155.6573377432037
 30
0.0
 10
112.0989284658989
 20
-155.6721516537903
 30
0.0
 10
112.0989284658989
 20
-155.6721516537903
 30
0.0
 10
112.0989284658989
 20
-155.4626898482871
 30
0.0
 10
112.0989284658989
 20
-155.4626898482871
 30
0.0
 10
112.2701497115158
 20
-155.4775037588737
 30
0.0
 10
112.5178520769053
 20
-155.481637873456
 30
0.0
 10
112.5939886871293
 20
-155.481637873456
 30
0.0
 10
112.5939886871293
 20
-155.481637873456
 30
0.0
 10
112.7548746462904
 20
-155.481637873456
 30
0.0
 10
112.7548746462904
 20
-155.481637873456
 30
0.0
 10
112.7503960221596
 20
-155.4099798873628
 30
0.0
 10
112.7503960221596
 20
-155.4034342059408
 30
0.0
 10
112.7441948502862
 20
-155.3507242450165
 30
0.0
 10
112.7441948502862
 20
-155.3507242450165
 30
0.0
 10
112.8837212174388
 20
-155.3655381556031
 30
0.0
 10
112.8837212174388
 20
-155.3655381556031
 30
0.0
 10
112.8837212174388
 20
-155.3655381556031
 30
0.0
 10
112.7845024674636
 20
-155.1939724004376
 30
0.0
 10
112.7845024674636
 20
-155.1939724004376
 30
0.0
 10
112.8310112565145
 20
-155.2005180818596
 30
0.0
 10
112.9050808094473
 20
-155.2087863110242
 30
0.0
 10
112.9219617773251
 20
-155.2087863110242
 30
0.0
 10
112.9726046809582
 20
-155.2087863110242
 30
0.0
 10
112.989485648836
 20
-155.1877712285642
 30
0.0
 10
112.989485648836
 20
-155.130582643509
 30
0.0
 10
112.989485648836
 20
-155.130582643509
 30
0.0
 10
112.989485648836
 20
-154.9931233336476
 30
0.0
 10
112.989485648836
 20
-154.9931233336476
 30
0.0
 10
112.989485648836
 20
-154.9931233336476
 30
0.0
 10
112.8837212174388
 20
-154.9931233336476
 30
0.0
 10
112.8837212174388
 20
-154.9931233336476
 30
0.0
 10
112.7503960221596
 20
-154.9931233336476
 30
0.0
 10
112.5939886871293
 20
-154.9931233336476
 30
0.0
 10
112.4713432878544
 20
-155.005870186943
 30
0.0
 10
112.4713432878544
 20
-155.005870186943
 30
0.0
 10
112.4713432878544
 20
-154.8153564066087
 30
0.0
 10
112.4713432878544
 20
-154.8153564066087
 30
0.0
 10
112.638430418889
 20
-154.8322373744864
 30
0.0
 10
112.8689073068522
 20
-154.8343044317776
 30
0.0
 10
112.8837212174388
 20
-154.8343044317776
 30
0.0
 10
112.8837212174388
 20
-154.8343044317776
 30
0.0
 10
112.989485648836
 20
-154.8343044317776
 30
0.0
 10
112.989485648836
 20
-154.8343044317776
 30
0.0
 10
112.989485648836
 20
-154.8343044317776
 30
0.0
 10
112.989485648836
 20
-154.703390803338
 30
0.0
 10
112.989485648836
 20
-154.703390803338
 30
0.0
 10
112.989485648836
 20
-154.703390803338
 30
0.0
 10
112.9515895984982
 20
-154.703390803338
 30
0.0
 10
112.9515895984982
 20
-154.703390803338
 30
0.0
 10
112.9071478667385
 20
-154.703390803338
 30
0.0
 10
112.7820909006239
 20
-154.7075249179204
 30
0.0
 10
112.6932074371045
 20
-154.715793147085
 30
0.0
 10
112.6932074371045
 20
-154.715793147085
 30
0.0
 10
112.6932074371045
 20
-154.6355224222786
 30
0.0
 10
112.6932074371045
 20
-154.6355224222786
 30
0.0
 10
112.6404974761802
 20
-154.6737629821649
 30
0.0
 10
112.6150037695893
 20
-154.6885768927515
 30
0.0
 10
112.5726290951207
 20
-154.7116590325026
 30
0.0
 10
112.5726290951207
 20
-154.7116590325026
 30
0.0
 10
112.3845268816261
 20
-154.5828124613543
 30
0.0
 10
112.3845268816261
 20
-154.5828124613543
 30
0.0
 10
112.4627305491413
 20
-154.5487060160503
 30
0.0
 10
112.6194823937201
 20
-154.4853162591217
 30
0.0
 10
112.7758897287505
 20
-154.3416557773868
 30
0.0
 10
112.858227510848
 20
-154.2631076003231
 30
0.0
 10
112.9367756879116
 20
-154.1787027609345
 30
0.0
 10
112.989485648836
 20
-154.0770724441196
 30
0.0
 10
112.989485648836
 20
-154.0770724441196
 30
0.0
 10
113.2010145116303
 20
-154.1383951437571
 30
0.0
 10
113.2010145116303
 20
-154.1383951437571
 30
0.0
 10
113.2203070463477
 20
-154.1445963156305
 30
0.0
 10
113.2306423328035
 20
-154.1532090543436
 30
0.0
 10
113.2306423328035
 20
-154.1659559076391
 30
0.0
 10
113.2306423328035
 20
-154.1828368755168
 30
0.0
 10
113.217895479508
 20
-154.1890380473903
 30
0.0
 10
113.1927462824657
 20
-154.2017849006857
 30
0.0
 10
113.273017007272
 20
-154.2992811029182
 30
0.0
 10
113.4359700237244
 20
-154.3964327956023
 30
0.0
 10
113.4697319594798
 20
-154.4153808207712
 30
0.0
 10
113.6199381226367
 20
-154.5042642842906
 30
0.0
 10
113.734315292747
 20
-154.5318250481726
 30
0.0
 10
113.8125189602622
 20
-154.5507730733415
 30
0.0
 10
113.8125189602622
 20
-154.5507730733415
 30
0.0
 10
113.6940076755696
 20
-154.7202717712158
 30
0.0
 10
113.6940076755696
 20
-154.7202717712158
 30
0.0
 10
113.6092583266324
 20
-154.6906439500426
 30
0.0
 10
113.5586154229992
 20
-154.6716959248737
 30
0.0
 10
113.4401041383067
 20
-154.6058946011055
 30
0.0
 10
113.4401041383067
 20
-154.6058946011055
 30
0.0
 10
113.4401041383067
 20
-154.715793147085
 30
0.0
 10
113.4401041383067
 20
-154.715793147085
 30
0.0
 10
113.3577663562092
 20
-154.7075249179204
 30
0.0
 10
113.2306423328035
 20
-154.703390803338
 30
0.0
 10
113.1779323718791
 20
-154.703390803338
 30
0.0
 10
113.1779323718791
 20
-154.703390803338
 30
0.0
 10
113.1779323718791
 20
-154.8343044317776
 30
0.0
 10
113.1779323718791
 20
-154.8343044317776
 30
0.0
 10
113.1779323718791
 20
-154.8343044317776
 30
0.0
 10
113.2985107138629
 20
-154.8343044317776
 30
0.0
 10
113.2985107138629
 20
-154.8343044317776
 30
0.0
 10
113.300577771154
 20
-154.8343044317776
 30
0.0
 10
113.5331217164084
 20
-154.8322373744864
 30
0.0
 10
113.7108886434473
 20
-154.8153564066087
 30
0.0
 10
113.7108886434473
 20
-154.8153564066087
 30
0.0
 10
113.7108886434473
 20
-155.005870186943
 30
0.0
 10
113.7108886434473
 20
-155.005870186943
 30
0.0
 10
113.5820420722989
 20
-154.9931233336476
 30
0.0
 10
113.4252902277201
 20
-154.9931233336476
 30
0.0
 10
113.2985107138629
 20
-154.9931233336476
 30
0.0
 10
113.2985107138629
 20
-154.9931233336476
 30
0.0
 10
113.1779323718791
 20
-154.9931233336476
 30
0.0
 10
113.1779323718791
 20
-154.9931233336476
 30
0.0
 10
113.1779323718791
 20
-154.9931233336476
 30
0.0
 10
113.1779323718791
 20
-155.2194661070285
 30
0.0
 10
113.1779323718791
 20
-155.2194661070285
 30
0.0
 10
113.1779323718791
 20
-155.3379773917211
 30
0.0
 10
113.1524386652883
 20
-155.3738063847677
 30
0.0
 10
112.9915527061271
 20
-155.3886202953542
 30
0.0
 10
112.9960313302579
 20
-155.4075683205231
 30
0.0
 10
112.989485648836
 20
-155.4182481165274
 30
0.0
 10
112.9515895984982
 20
-155.4416747658271
 30
0.0
 10
112.9495225412071
 20
-155.460622790996
 30
0.0
 10
112.9495225412071
 20
-155.4668239628694
 30
0.0
 10
112.9471109743674
 20
-155.481637873456
 30
0.0
 10
112.9471109743674
 20
-155.481637873456
 30
0.0
 10
113.0845702842289
 20
-155.481637873456
 30
0.0
 10
113.0845702842289
 20
-155.481637873456
 30
0.0
 10
113.2495903579723
 20
-155.481637873456
 30
0.0
 10
113.4170219985555
 20
-155.4775037588737
 30
0.0
 10
113.5841091295901
 20
-155.4626898482871
 30
0.0
 10
113.5841091295901
 20
-155.4626898482871
 30
0.0
 10
113.5841091295901
 20
-155.6700845964992
 30
0.0
 10
113.5841091295901
 20
-155.6700845964992
 30
0.0
 10
113.3681016426649
 20
-155.6532036286214
 30
0.0
 10
113.1038628189463
 20
-155.6532036286214
 30
0.0
 10
113.0845702842289
 20
-155.6532036286214
 30
0.0
 10
113.0845702842289
 20
-155.6532036286214
 30
0.0
 10
112.9450439170762
 20
-155.6532036286214
 30
0.0
 10
112.9450439170762
 20
-155.6532036286214
 30
0.0
 10
112.9450439170762
 20
-155.6532036286214
 30
0.0
 10
112.9450439170762
 20
-155.7947970530652
 30
0.0
 10
112.9450439170762
 20
-155.7947970530652
 30
0.0
 10
112.9450439170762
 20
-155.7947970530652
 30
0.0
 10
113.1713866904572
 20
-155.7947970530652
 30
0.0
 10
113.1713866904572
 20
-155.7947970530652
 30
0.0
 10
113.3873941773823
 20
-155.7947970530652
 30
0.0
 10
113.6051242120501
 20
-155.7906629384829
 30
0.0
 10
113.8207871894268
 20
-155.7779160851875
 30
0.0
 10
113.8207871894268
 20
-155.7779160851875
 30
0.0
 10
113.8207871894268
 20
-155.9853108333995
 30
0.0
 10
113.8207871894268
 20
-155.9853108333995
 30
0.0
 10
113.5396673978304
 20
-155.9684298655218
 30
0.0
 10
113.1948133397569
 20
-155.9684298655218
 30
0.0
 10
113.1713866904572
 20
-155.9684298655218
 30
0.0
  0
SPLINE
  5
19C
330
196
100
AcDbEntity
  8
_U+30EC_U+30A4_U+30E4_U+30FC 1
370
     0
100
AcDbSpline
210
0.0
220
0.0
230
1.0
 70
    11
 71
     3
 72
    23
 73
    19
 74
     0
 42
0.0000000001
 43
0.0000000001
 12
1.0
 22
0.0
 32
0.0
 13
1.0
 23
0.0
 33
0.0
 40
0.0
 40
0.0
 40
0.0
 40
0.0
 40
1.0
 40
1.0
 40
1.0
 40
2.0
 40
2.0
 40
2.0
 40
3.0
 40
3.0
 40
3.0
 40
4.0
 40
4.0
 40
4.0
 40
5.0
 40
5.0
 40
5.0
 40
6.0
 40
6.0
 40
6.0
 40
6.0
 10
112.052419676848
 20
-155.3400444490122
 30
0.0
 10
112.052419676848
 20
-155.3610595314723
 30
0.0
 10
112.0544867341392
 20
-155.3993000913585
 30
0.0
 10
112.0289930275483
 20
-155.3993000913585
 30
0.0
 10
112.0186577410926
 20
-155.3993000913585
 30
0.0
 10
112.0100450023794
 20
-155.3927544099365
 30
0.0
 10
111.9993652063752
 20
-155.3758734420588
 30
0.0
 10
111.9993652063752
 20
-155.3758734420588
 30
0.0
 10
111.8956678322691
 20
-155.1939724004376
 30
0.0
 10
111.8956678322691
 20
-155.1939724004376
 30
0.0
 10
112.1116753191943
 20
-155.0651258292893
 30
0.0
 10
112.3083902714021
 20
-154.7877956427267
 30
0.0
 10
112.354899060453
 20
-154.715793147085
 30
0.0
 10
112.354899060453
 20
-154.715793147085
 30
0.0
 10
112.4269015560947
 20
-154.895627131415
 30
0.0
 10
112.4269015560947
 20
-154.895627131415
 30
0.0
 10
112.2935763608155
 20
-155.0923420836228
 30
0.0
 10
112.1178764910678
 20
-155.2766546920836
 30
0.0
 10
112.052419676848
 20
-155.3400444490122
 30
0.0
  0
SPLINE
  5
19D
330
196
100
AcDbEntity
  8
_U+30EC_U+30A4_U+30E4_U+30FC 1
370
     0
100
AcDbSpline
210
0.0
220
0.0
230
1.0
 70
    11
 71
     3
 72
    17
 73
    13
 74
     0
 42
0.0000000001
 43
0.0000000001
 12
1.0
 22
0.0
 32
0.0
 13
1.0
 23
0.0
 33
0.0
 40
0.0
 40
0.0
 40
0.0
 40
0.0
 40
1.0
 40
1.0
 40
1.0
 40
2.0
 40
2.0
 40
2.0
 40
3.0
 40
3.0
 40
3.0
 40
4.0
 40
4.0
 40
4.0
 40
4.0
 10
112.3063232141109
 20
-154.4450086419443
 30
0.0
 10
112.2450005144735
 20
-154.3688720317203
 30
0.0
 10
112.1158094337766
 20
-154.2927354214963
 30
0.0
 10
112.0121120596706
 20
-154.2631076003231
 30
0.0
 10
112.0121120596706
 20
-154.2631076003231
 30
0.0
 10
112.107541204612
 20
-154.0980875265797
 30
0.0
 10
112.107541204612
 20
-154.0980875265797
 30
0.0
 10
112.2088270118784
 20
-154.1342610291748
 30
0.0
 10
112.3145914432755
 20
-154.1914496142299
 30
0.0
 10
112.403474906795
 20
-154.2717203390362
 30
0.0
 10
112.403474906795
 20
-154.2717203390362
 30
0.0
 10
112.3063232141109
 20
-154.4450086419443
 30
0.0
 10
112.3063232141109
 20
-154.4450086419443
 30
0.0
  0
SPLINE
  5
19E
330
196
100
AcDbEntity
  8
_U+30EC_U+30A4_U+30E4_U+30FC 1
370
     0
100
AcDbSpline
210
0.0
220
0.0
230
1.0
 70
    11
 71
     3
 72
    23
 73
    19
 74
     0
 42
0.0000000001
 43
0.0000000001
 12
1.0
 22
0.0
 32
0.0
 13
1.0
 23
0.0
 33
0.0
 40
0.0
 40
0.0
 40
0.0
 40
0.0
 40
1.0
 40
1.0
 40
1.0
 40
2.0
 40
2.0
 40
2.0
 40
3.0
 40
3.0
 40
3.0
 40
4.0
 40
4.0
 40
4.0
 40
5.0
 40
5.0
 40
5.0
 40
6.0
 40
6.0
 40
6.0
 40
6.0
 10
112.7590087608728
 20
-155.1495306686779
 30
0.0
 10
112.7376491688642
 20
-155.1729573179776
 30
0.0
 10
112.6404974761802
 20
-155.2849229212482
 30
0.0
 10
112.5009711090275
 20
-155.3655381556031
 30
0.0
 10
112.5009711090275
 20
-155.3655381556031
 30
0.0
 10
112.3338839779929
 20
-155.2449598136193
 30
0.0
 10
112.3338839779929
 20
-155.2449598136193
 30
0.0
 10
112.4840901411498
 20
-155.1688232033953
 30
0.0
 10
112.583308891125
 20
-155.0733940584539
 30
0.0
 10
112.631884737467
 20
-155.0206840975296
 30
0.0
 10
112.631884737467
 20
-155.0206840975296
 30
0.0
 10
112.8055175499236
 20
-155.103021879627
 30
0.0
 10
112.8055175499236
 20
-155.103021879627
 30
0.0
 10
112.8137857790882
 20
-155.1071559942093
 30
0.0
 10
112.8223985178013
 20
-155.1137016756313
 30
0.0
 10
112.8223985178013
 20
-155.1243814716356
 30
0.0
 10
112.8223985178013
 20
-155.1495306686779
 30
0.0
 10
112.7865695247548
 20
-155.1495306686779
 30
0.0
 10
112.7590087608728
 20
-155.1495306686779
 30
0.0
  0
SPLINE
  5
19F
330
196
100
AcDbEntity
  8
_U+30EC_U+30A4_U+30E4_U+30FC 1
370
     0
100
AcDbSpline
210
0.0
220
0.0
230
1.0
 70
    11
 71
     3
 72
    20
 73
    16
 74
     0
 42
0.0000000001
 43
0.0000000001
 12
1.0
 22
0.0
 32
0.0
 13
1.0
 23
0.0
 33
0.0
 40
0.0
 40
0.0
 40
0.0
 40
0.0
 40
1.0
 40
1.0
 40
1.0
 40
2.0
 40
2.0
 40
2.0
 40
3.0
 40
3.0
 40
3.0
 40
4.0
 40
4.0
 40
4.0
 40
5.0
 40
5.0
 40
5.0
 40
5.0
 10
113.0573540298954
 20
-154.3075493320828
 30
0.0
 10
113.0191134700091
 20
-154.3564696879734
 30
0.0
 10
112.9577907703717
 20
-154.4346733554886
 30
0.0
 10
112.818264403219
 20
-154.544571901468
 30
0.0
 10
112.8985351280254
 20
-154.5487060160503
 30
0.0
 10
112.9281629491985
 20
-154.5487060160503
 30
0.0
 10
112.9515895984982
 20
-154.5487060160503
 30
0.0
 10
112.9515895984982
 20
-154.5487060160503
 30
0.0
 10
113.1799994291703
 20
-154.5487060160503
 30
0.0
 10
113.1799994291703
 20
-154.5487060160503
 30
0.0
 10
113.2116943076346
 20
-154.5487060160503
 30
0.0
 10
113.2602701539766
 20
-154.5466389587592
 30
0.0
 10
113.3343397069095
 20
-154.544571901468
 30
0.0
 10
113.2223741036389
 20
-154.4705023485351
 30
0.0
 10
113.1734537477483
 20
-154.4239935594843
 30
0.0
 10
113.0573540298954
 20
-154.3075493320828
 30
0.0
  0
SPLINE
  5
1A0
330
196
100
AcDbEntity
  8
_U+30EC_U+30A4_U+30E4_U+30FC 1
370
     0
100
AcDbSpline
210
0.0
220
0.0
230
1.0
 70
    11
 71
     3
 72
    17
 73
    13
 74
     0
 42
0.0000000001
 43
0.0000000001
 12
1.0
 22
0.0
 32
0.0
 13
1.0
 23
0.0
 33
0.0
 40
0.0
 40
0.0
 40
0.0
 40
0.0
 40
1.0
 40
1.0
 40
1.0
 40
2.0
 40
2.0
 40
2.0
 40
3.0
 40
3.0
 40
3.0
 40
4.0
 40
4.0
 40
4.0
 40
4.0
 10
113.6178710653455
 20
-155.3631265887634
 30
0.0
 10
113.4824788127752
 20
-155.2511609854928
 30
0.0
 10
113.3767143813781
 20
-155.1877712285642
 30
0.0
 10
113.2582030966854
 20
-155.1243814716356
 30
0.0
 10
113.2582030966854
 20
-155.1243814716356
 30
0.0
 10
113.3849826105427
 20
-155.0120713588164
 30
0.0
 10
113.3849826105427
 20
-155.0120713588164
 30
0.0
 10
113.5162407485307
 20
-155.0585801478673
 30
0.0
 10
113.6261392945101
 20
-155.1157687329224
 30
0.0
 10
113.7511962606247
 20
-155.2173990497373
 30
0.0
 10
113.7511962606247
 20
-155.2173990497373
 30
0.0
 10
113.6178710653455
 20
-155.3631265887634
 30
0.0
 10
113.6178710653455
 20
-155.3631265887634
 30
0.0
  0
HATCH
  5
1A1
330
196
100
AcDbEntity
  8
_U+30EC_U+30A4_U+30E4_U+30FC 1
 62
   179
420
  2234388
100
AcDbHatch
 10
0.0
 20
0.0
 30
0.0
210
0.0
220
0.0
230
1.0
  2
SOLID
 70
     1
 71
     0
 91
        7
 92
        1
 93
        1
 72
     4
 94
        3
 73
     0
 74
     1
 95
       17
 96
       13
 40
0.0
 40
0.0
 40
0.0
 40
0.0
 40
1.0
 40
1.0
 40
1.0
 40
2.0
 40
2.0
 40
2.0
 40
3.0
 40
3.0
 40
3.0
 40
4.0
 40
4.0
 40
4.0
 40
4.0
 10
112.1264892297809
 20
-154.7898627000178
 10
112.0207247983837
 20
-154.6840982686207
 10
111.9401095640289
 20
-154.6462022182829
 10
111.8470919859271
 20
-154.6145073398186
 10
111.8470919859271
 20
-154.6145073398186
 10
111.9573350414551
 20
-154.4494872660751
 10
111.9573350414551
 20
-154.4494872660751
 10
112.0544867341392
 20
-154.4918619405437
 10
112.1750650761229
 20
-154.5700656080589
 10
112.2281195465957
 20
-154.6248426262744
 10
112.2281195465957
 20
-154.6248426262744
 10
112.1264892297809
 20
-154.7898627000178
 10
112.1264892297809
 20
-154.7898627000178
 97
        0
 97
        0
 92
        1
 93
        1
 72
     4
 94
        3
 73
     0
 74
     1
 95
      182
 96
      178
 40
0.0
 40
0.0
 40
0.0
 40
0.0
 40
1.0
 40
1.0
 40
1.0
 40
2.0
 40
2.0
 40
2.0
 40
3.0
 40
3.0
 40
3.0
 40
4.0
 40
4.0
 40
4.0
 40
5.0
 40
5.0
 40
5.0
 40
6.0
 40
6.0
 40
6.0
 40
7.0
 40
7.0
 40
7.0
 40
8.0
 40
8.0
 40
8.0
 40
9.0
 40
9.0
 40
9.0
 40
10.0
 40
10.0
 40
10.0
 40
11.0
 40
11.0
 40
11.0
 40
12.0
 40
12.0
 40
12.0
 40
13.0
 40
13.0
 40
13.0
 40
14.0
 40
14.0
 40
14.0
 40
15.0
 40
15.0
 40
15.0
 40
16.0
 40
16.0
 40
16.0
 40
17.0
 40
17.0
 40
17.0
 40
18.0
 40
18.0
 40
18.0
 40
19.0
 40
19.0
 40
19.0
 40
20.0
 40
20.0
 40
20.0
 40
21.0
 40
21.0
 40
21.0
 40
22.0
 40
22.0
 40
22.0
 40
23.0
 40
23.0
 40
23.0
 40
24.0
 40
24.0
 40
24.0
 40
25.0
 40
25.0
 40
25.0
 40
26.0
 40
26.0
 40
26.0
 40
27.0
 40
27.0
 40
27.0
 40
28.0
 40
28.0
 40
28.0
 40
29.0
 40
29.0
 40
29.0
 40
30.0
 40
30.0
 40
30.0
 40
31.0
 40
31.0
 40
31.0
 40
32.0
 40
32.0
 40
32.0
 40
33.0
 40
33.0
 40
33.0
 40
34.0
 40
34.0
 40
34.0
 40
35.0
 40
35.0
 40
35.0
 40
36.0
 40
36.0
 40
36.0
 40
37.0
 40
37.0
 40
37.0
 40
38.0
 40
38.0
 40
38.0
 40
39.0
 40
39.0
 40
39.0
 40
40.0
 40
40.0
 40
40.0
 40
41.0
 40
41.0
 40
41.0
 40
42.0
 40
42.0
 40
42.0
 40
43.0
 40
43.0
 40
43.0
 40
44.0
 40
44.0
 40
44.0
 40
45.0
 40
45.0
 40
45.0
 40
46.0
 40
46.0
 40
46.0
 40
47.0
 40
47.0
 40
47.0
 40
48.0
 40
48.0
 40
48.0
 40
49.0
 40
49.0
 40
49.0
 40
50.0
 40
50.0
 40
50.0
 40
51.0
 40
51.0
 40
51.0
 40
52.0
 40
52.0
 40
52.0
 40
53.0
 40
53.0
 40
53.0
 40
54.0
 40
54.0
 40
54.0
 40
55.0
 40
55.0
 40
55.0
 40
56.0
 40
56.0
 40
56.0
 40
57.0
 40
57.0
 40
57.0
 40
58.0
 40
58.0
 40
58.0
 40
59.0
 40
59.0
 40
59.0
 40
59.0
 10
113.1713866904572
 20
-155.9684298655218
 10
113.1713866904572
 20
-155.9684298655218
 10
112.534733044783
 20
-155.9684298655218
 10
112.534733044783
 20
-155.9684298655218
 10
112.3211371246975
 20
-155.9684298655218
 10
112.1051296377723
 20
-155.9725639801041
 10
111.8915337176868
 20
-155.9853108333995
 10
111.8915337176868
 20
-155.9853108333995
 10
111.8915337176868
 20
-155.7779160851875
 10
111.8915337176868
 20
-155.7779160851875
 10
112.1137423764855
 20
-155.7906629384829
 10
112.4372368425504
 20
-155.7947970530652
 10
112.534733044783
 20
-155.7947970530652
 10
112.534733044783
 20
-155.7947970530652
 10
112.7548746462904
 20
-155.7947970530652
 10
112.7548746462904
 20
-155.7947970530652
 10
112.7548746462904
 20
-155.7947970530652
 10
112.7548746462904
 20
-155.6532036286214
 10
112.7548746462904
 20
-155.6532036286214
 10
112.7548746462904
 20
-155.6532036286214
 10
112.5939886871293
 20
-155.6532036286214
 10
112.5939886871293
 20
-155.6532036286214
 10
112.4289686133858
 20
-155.6532036286214
 10
112.2639485396424
 20
-155.6573377432037
 10
112.0989284658989
 20
-155.6721516537903
 10
112.0989284658989
 20
-155.6721516537903
 10
112.0989284658989
 20
-155.4626898482871
 10
112.0989284658989
 20
-155.4626898482871
 10
112.2701497115158
 20
-155.4775037588737
 10
112.5178520769053
 20
-155.481637873456
 10
112.5939886871293
 20
-155.481637873456
 10
112.5939886871293
 20
-155.481637873456
 10
112.7548746462904
 20
-155.481637873456
 10
112.7548746462904
 20
-155.481637873456
 10
112.7503960221596
 20
-155.4099798873628
 10
112.7503960221596
 20
-155.4034342059408
 10
112.7441948502862
 20
-155.3507242450165
 10
112.7441948502862
 20
-155.3507242450165
 10
112.8837212174388
 20
-155.3655381556031
 10
112.8837212174388
 20
-155.3655381556031
 10
112.8837212174388
 20
-155.3655381556031
 10
112.7845024674636
 20
-155.1939724004376
 10
112.7845024674636
 20
-155.1939724004376
 10
112.8310112565145
 20
-155.2005180818596
 10
112.9050808094473
 20
-155.2087863110242
 10
112.9219617773251
 20
-155.2087863110242
 10
112.9726046809582
 20
-155.2087863110242
 10
112.989485648836
 20
-155.1877712285642
 10
112.989485648836
 20
-155.130582643509
 10
112.989485648836
 20
-155.130582643509
 10
112.989485648836
 20
-154.9931233336476
 10
112.989485648836
 20
-154.9931233336476
 10
112.989485648836
 20
-154.9931233336476
 10
112.8837212174388
 20
-154.9931233336476
 10
112.8837212174388
 20
-154.9931233336476
 10
112.7503960221596
 20
-154.9931233336476
 10
112.5939886871293
 20
-154.9931233336476
 10
112.4713432878544
 20
-155.005870186943
 10
112.4713432878544
 20
-155.005870186943
 10
112.4713432878544
 20
-154.8153564066087
 10
112.4713432878544
 20
-154.8153564066087
 10
112.638430418889
 20
-154.8322373744864
 10
112.8689073068522
 20
-154.8343044317776
 10
112.8837212174388
 20
-154.8343044317776
 10
112.8837212174388
 20
-154.8343044317776
 10
112.989485648836
 20
-154.8343044317776
 10
112.989485648836
 20
-154.8343044317776
 10
112.989485648836
 20
-154.8343044317776
 10
112.989485648836
 20
-154.703390803338
 10
112.989485648836
 20
-154.703390803338
 10
112.989485648836
 20
-154.703390803338
 10
112.9515895984982
 20
-154.703390803338
 10
112.9515895984982
 20
-154.703390803338
 10
112.9071478667385
 20
-154.703390803338
 10
112.7820909006239
 20
-154.7075249179204
 10
112.6932074371045
 20
-154.715793147085
 10
112.6932074371045
 20
-154.715793147085
 10
112.6932074371045
 20
-154.6355224222786
 10
112.6932074371045
 20
-154.6355224222786
 10
112.6404974761802
 20
-154.6737629821649
 10
112.6150037695893
 20
-154.6885768927515
 10
112.5726290951207
 20
-154.7116590325026
 10
112.5726290951207
 20
-154.7116590325026
 10
112.3845268816261
 20
-154.5828124613543
 10
112.3845268816261
 20
-154.5828124613543
 10
112.4627305491413
 20
-154.5487060160503
 10
112.6194823937201
 20
-154.4853162591217
 10
112.7758897287505
 20
-154.3416557773868
 10
112.858227510848
 20
-154.2631076003231
 10
112.9367756879116
 20
-154.1787027609345
 10
112.989485648836
 20
-154.0770724441196
 10
112.989485648836
 20
-154.0770724441196
 10
113.2010145116303
 20
-154.1383951437571
 10
113.2010145116303
 20
-154.1383951437571
 10
113.2203070463477
 20
-154.1445963156305
 10
113.2306423328035
 20
-154.1532090543436
 10
113.2306423328035
 20
-154.1659559076391
 10
113.2306423328035
 20
-154.1828368755168
 10
113.217895479508
 20
-154.1890380473903
 10
113.1927462824657
 20
-154.2017849006857
 10
113.273017007272
 20
-154.2992811029182
 10
113.4359700237244
 20
-154.3964327956023
 10
113.4697319594798
 20
-154.4153808207712
 10
113.6199381226367
 20
-154.5042642842906
 10
113.734315292747
 20
-154.5318250481726
 10
113.8125189602622
 20
-154.5507730733415
 10
113.8125189602622
 20
-154.5507730733415
 10
113.6940076755696
 20
-154.7202717712158
 10
113.6940076755696
 20
-154.7202717712158
 10
113.6092583266324
 20
-154.6906439500426
 10
113.5586154229992
 20
-154.6716959248737
 10
113.4401041383067
 20
-154.6058946011055
 10
113.4401041383067
 20
-154.6058946011055
 10
113.4401041383067
 20
-154.715793147085
 10
113.4401041383067
 20
-154.715793147085
 10
113.3577663562092
 20
-154.7075249179204
 10
113.2306423328035
 20
-154.703390803338
 10
113.1779323718791
 20
-154.703390803338
 10
113.1779323718791
 20
-154.703390803338
 10
113.1779323718791
 20
-154.8343044317776
 10
113.1779323718791
 20
-154.8343044317776
 10
113.1779323718791
 20
-154.8343044317776
 10
113.2985107138629
 20
-154.8343044317776
 10
113.2985107138629
 20
-154.8343044317776
 10
113.300577771154
 20
-154.8343044317776
 10
113.5331217164084
 20
-154.8322373744864
 10
113.7108886434473
 20
-154.8153564066087
 10
113.7108886434473
 20
-154.8153564066087
 10
113.7108886434473
 20
-155.005870186943
 10
113.7108886434473
 20
-155.005870186943
 10
113.5820420722989
 20
-154.9931233336476
 10
113.4252902277201
 20
-154.9931233336476
 10
113.2985107138629
 20
-154.9931233336476
 10
113.2985107138629
 20
-154.9931233336476
 10
113.1779323718791
 20
-154.9931233336476
 10
113.1779323718791
 20
-154.9931233336476
 10
113.1779323718791
 20
-154.9931233336476
 10
113.1779323718791
 20
-155.2194661070285
 10
113.1779323718791
 20
-155.2194661070285
 10
113.1779323718791
 20
-155.3379773917211
 10
113.1524386652883
 20
-155.3738063847677
 10
112.9915527061271
 20
-155.3886202953542
 10
112.9960313302579
 20
-155.4075683205231
 10
112.989485648836
 20
-155.4182481165274
 10
112.9515895984982
 20
-155.4416747658271
 10
112.9495225412071
 20
-155.460622790996
 10
112.9495225412071
 20
-155.4668239628694
 10
112.9471109743674
 20
-155.481637873456
 10
112.9471109743674
 20
-155.481637873456
 10
113.0845702842289
 20
-155.481637873456
 10
113.0845702842289
 20
-155.481637873456
 10
113.2495903579723
 20
-155.481637873456
 10
113.4170219985555
 20
-155.4775037588737
 10
113.5841091295901
 20
-155.4626898482871
 10
113.5841091295901
 20
-155.4626898482871
 10
113.5841091295901
 20
-155.6700845964992
 10
113.5841091295901
 20
-155.6700845964992
 10
113.3681016426649
 20
-155.6532036286214
 10
113.1038628189463
 20
-155.6532036286214
 10
113.0845702842289
 20
-155.6532036286214
 10
113.0845702842289
 20
-155.6532036286214
 10
112.9450439170762
 20
-155.6532036286214
 10
112.9450439170762
 20
-155.6532036286214
 10
112.9450439170762
 20
-155.6532036286214
 10
112.9450439170762
 20
-155.7947970530652
 10
112.9450439170762
 20
-155.7947970530652
 10
112.9450439170762
 20
-155.7947970530652
 10
113.1713866904572
 20
-155.7947970530652
 10
113.1713866904572
 20
-155.7947970530652
 10
113.3873941773823
 20
-155.7947970530652
 10
113.6051242120501
 20
-155.7906629384829
 10
113.8207871894268
 20
-155.7779160851875
 10
113.8207871894268
 20
-155.7779160851875
 10
113.8207871894268
 20
-155.9853108333995
 10
113.8207871894268
 20
-155.9853108333995
 10
113.5396673978304
 20
-155.9684298655218
 10
113.1948133397569
 20
-155.9684298655218
 10
113.1713866904572
 20
-155.9684298655218
 97
        0
 97
        0
 92
        1
 93
        1
 72
     4
 94
        3
 73
     0
 74
     1
 95
       23
 96
       19
 40
0.0
 40
0.0
 40
0.0
 40
0.0
 40
1.0
 40
1.0
 40
1.0
 40
2.0
 40
2.0
 40
2.0
 40
3.0
 40
3.0
 40
3.0
 40
4.0
 40
4.0
 40
4.0
 40
5.0
 40
5.0
 40
5.0
 40
6.0
 40
6.0
 40
6.0
 40
6.0
 10
112.052419676848
 20
-155.3400444490122
 10
112.052419676848
 20
-155.3610595314723
 10
112.0544867341392
 20
-155.3993000913585
 10
112.0289930275483
 20
-155.3993000913585
 10
112.0186577410926
 20
-155.3993000913585
 10
112.0100450023794
 20
-155.3927544099365
 10
111.9993652063752
 20
-155.3758734420588
 10
111.9993652063752
 20
-155.3758734420588
 10
111.8956678322691
 20
-155.1939724004376
 10
111.8956678322691
 20
-155.1939724004376
 10
112.1116753191943
 20
-155.0651258292893
 10
112.3083902714021
 20
-154.7877956427267
 10
112.354899060453
 20
-154.715793147085
 10
112.354899060453
 20
-154.715793147085
 10
112.4269015560947
 20
-154.895627131415
 10
112.4269015560947
 20
-154.895627131415
 10
112.2935763608155
 20
-155.0923420836228
 10
112.1178764910678
 20
-155.2766546920836
 10
112.052419676848
 20
-155.3400444490122
 97
        0
 97
        0
 92
        1
 93
        1
 72
     4
 94
        3
 73
     0
 74
     1
 95
       17
 96
       13
 40
0.0
 40
0.0
 40
0.0
 40
0.0
 40
1.0
 40
1.0
 40
1.0
 40
2.0
 40
2.0
 40
2.0
 40
3.0
 40
3.0
 40
3.0
 40
4.0
 40
4.0
 40
4.0
 40
4.0
 10
112.3063232141109
 20
-154.4450086419443
 10
112.2450005144735
 20
-154.3688720317203
 10
112.1158094337766
 20
-154.2927354214963
 10
112.0121120596706
 20
-154.2631076003231
 10
112.0121120596706
 20
-154.2631076003231
 10
112.107541204612
 20
-154.0980875265797
 10
112.107541204612
 20
-154.0980875265797
 10
112.2088270118784
 20
-154.1342610291748
 10
112.3145914432755
 20
-154.1914496142299
 10
112.403474906795
 20
-154.2717203390362
 10
112.403474906795
 20
-154.2717203390362
 10
112.3063232141109
 20
-154.4450086419443
 10
112.3063232141109
 20
-154.4450086419443
 97
        0
 97
        0
 92
        1
 93
        1
 72
     4
 94
        3
 73
     0
 74
     1
 95
       23
 96
       19
 40
0.0
 40
0.0
 40
0.0
 40
0.0
 40
1.0
 40
1.0
 40
1.0
 40
2.0
 40
2.0
 40
2.0
 40
3.0
 40
3.0
 40
3.0
 40
4.0
 40
4.0
 40
4.0
 40
5.0
 40
5.0
 40
5.0
 40
6.0
 40
6.0
 40
6.0
 40
6.0
 10
112.7590087608728
 20
-155.1495306686779
 10
112.7376491688642
 20
-155.1729573179776
 10
112.6404974761802
 20
-155.2849229212482
 10
112.5009711090275
 20
-155.3655381556031
 10
112.5009711090275
 20
-155.3655381556031
 10
112.3338839779929
 20
-155.2449598136193
 10
112.3338839779929
 20
-155.2449598136193
 10
112.4840901411498
 20
-155.1688232033953
 10
112.583308891125
 20
-155.0733940584539
 10
112.631884737467
 20
-155.0206840975296
 10
112.631884737467
 20
-155.0206840975296
 10
112.8055175499236
 20
-155.103021879627
 10
112.8055175499236
 20
-155.103021879627
 10
112.8137857790882
 20
-155.1071559942093
 10
112.8223985178013
 20
-155.1137016756313
 10
112.8223985178013
 20
-155.1243814716356
 10
112.8223985178013
 20
-155.1495306686779
 10
112.7865695247548
 20
-155.1495306686779
 10
112.7590087608728
 20
-155.1495306686779
 97
        0
 97
        0
 92
        1
 93
        1
 72
     4
 94
        3
 73
     0
 74
     1
 95
       20
 96
       16
 40
0.0
 40
0.0
 40
0.0
 40
0.0
 40
1.0
 40
1.0
 40
1.0
 40
2.0
 40
2.0
 40
2.0
 40
3.0
 40
3.0
 40
3.0
 40
4.0
 40
4.0
 40
4.0
 40
5.0
 40
5.0
 40
5.0
 40
5.0
 10
113.0573540298954
 20
-154.3075493320828
 10
113.0191134700091
 20
-154.3564696879734
 10
112.9577907703717
 20
-154.4346733554886
 10
112.818264403219
 20
-154.544571901468
 10
112.8985351280254
 20
-154.5487060160503
 10
112.9281629491985
 20
-154.5487060160503
 10
112.9515895984982
 20
-154.5487060160503
 10
112.9515895984982
 20
-154.5487060160503
 10
113.1799994291703
 20
-154.5487060160503
 10
113.1799994291703
 20
-154.5487060160503
 10
113.2116943076346
 20
-154.5487060160503
 10
113.2602701539766
 20
-154.5466389587592
 10
113.3343397069095
 20
-154.544571901468
 10
113.2223741036389
 20
-154.4705023485351
 10
113.1734537477483
 20
-154.4239935594843
 10
113.0573540298954
 20
-154.3075493320828
 97
        0
 97
        0
 92
        1
 93
        1
 72
     4
 94
        3
 73
     0
 74
     1
 95
       17
 96
       13
 40
0.0
 40
0.0
 40
0.0
 40
0.0
 40
1.0
 40
1.0
 40
1.0
 40
2.0
 40
2.0
 40
2.0
 40
3.0
 40
3.0
 40
3.0
 40
4.0
 40
4.0
 40
4.0
 40
4.0
 10
113.6178710653455
 20
-155.3631265887634
 10
113.4824788127752
 20
-155.2511609854928
 10
113.3767143813781
 20
-155.1877712285642
 10
113.2582030966854
 20
-155.1243814716356
 10
113.2582030966854
 20
-155.1243814716356
 10
113.3849826105427
 20
-155.0120713588164
 10
113.3849826105427
 20
-155.0120713588164
 10
113.5162407485307
 20
-155.0585801478673
 10
113.6261392945101
 20
-155.1157687329224
 10
113.7511962606247
 20
-155.2173990497373
 10
113.7511962606247
 20
-155.2173990497373
 10
113.6178710653455
 20
-155.3631265887634
 10
113.6178710653455
 20
-155.3631265887634
 97
        0
 97
        0
 75
     2
 76
     1
 98
        0
  0
SPLINE
  5
1A2
330
196
100
AcDbEntity
  8
_U+30EC_U+30A4_U+30E4_U+30FC 1
370
     0
100
AcDbSpline
210
0.0
220
0.0
230
1.0
 70
    11
 71
     3
 72
   113
 73
   109
 74
     0
 42
0.0000000001
 43
0.0000000001
 12
1.0
 22
0.0
 32
0.0
 13
1.0
 23
0.0
 33
0.0
 40
0.0
 40
0.0
 40
0.0
 40
0.0
 40
1.0
 40
1.0
 40
1.0
 40
2.0
 40
2.0
 40
2.0
 40
3.0
 40
3.0
 40
3.0
 40
4.0
 40
4.0
 40
4.0
 40
5.0
 40
5.0
 40
5.0
 40
6.0
 40
6.0
 40
6.0
 40
7.0
 40
7.0
 40
7.0
 40
8.0
 40
8.0
 40
8.0
 40
9.0
 40
9.0
 40
9.0
 40
10.0
 40
10.0
 40
10.0
 40
11.0
 40
11.0
 40
11.0
 40
12.0
 40
12.0
 40
12.0
 40
13.0
 40
13.0
 40
13.0
 40
14.0
 40
14.0
 40
14.0
 40
15.0
 40
15.0
 40
15.0
 40
16.0
 40
16.0
 40
16.0
 40
17.0
 40
17.0
 40
17.0
 40
18.0
 40
18.0
 40
18.0
 40
19.0
 40
19.0
 40
19.0
 40
20.0
 40
20.0
 40
20.0
 40
21.0
 40
21.0
 40
21.0
 40
22.0
 40
22.0
 40
22.0
 40
23.0
 40
23.0
 40
23.0
 40
24.0
 40
24.0
 40
24.0
 40
25.0
 40
25.0
 40
25.0
 40
26.0
 40
26.0
 40
26.0
 40
27.0
 40
27.0
 40
27.0
 40
28.0
 40
28.0
 40
28.0
 40
29.0
 40
29.0
 40
29.0
 40
30.0
 40
30.0
 40
30.0
 40
31.0
 40
31.0
 40
31.0
 40
32.0
 40
32.0
 40
32.0
 40
33.0
 40
33.0
 40
33.0
 40
34.0
 40
34.0
 40
34.0
 40
35.0
 40
35.0
 40
35.0
 40
36.0
 40
36.0
 40
36.0
 40
36.0
 10
115.4975151620979
 20
-155.3400444490122
 30
0.0
 10
115.4975151620979
 20
-155.3400444490122
 30
0.0
 10
115.5970784216216
 20
-155.4396077085359
 30
0.0
 10
115.5970784216216
 20
-155.4396077085359
 30
0.0
 10
115.6077582176258
 20
-155.4499429949917
 30
0.0
 10
115.6180935040816
 20
-155.4626898482871
 30
0.0
 10
115.6180935040816
 20
-155.4775037588737
 30
0.0
 10
115.6180935040816
 20
-155.4795708161648
 30
0.0
 10
115.6180935040816
 20
-155.509198637338
 30
0.0
 10
115.5801974537438
 20
-155.509198637338
 30
0.0
 10
115.5715847150307
 20
-155.509198637338
 30
0.0
 10
115.5312770978533
 20
-155.5050645227557
 30
0.0
 10
115.5250759259798
 20
-155.5050645227557
 30
0.0
 10
115.4847683088024
 20
-155.53675940122
 30
0.0
 10
115.4382595197516
 20
-155.5705213369754
 30
0.0
 10
115.3390407697764
 20
-155.6277099220306
 30
0.0
 10
115.4847683088024
 20
-155.7355414107189
 30
0.0
 10
115.6435872106724
 20
-155.792729995774
 30
0.0
 10
115.9164387731042
 20
-155.8309705556603
 30
0.0
 10
115.9164387731042
 20
-155.8309705556603
 30
0.0
 10
115.7662326099473
 20
-156.0063259158595
 30
0.0
 10
115.7662326099473
 20
-156.0063259158595
 30
0.0
 10
115.5040608435198
 20
-155.9343234202178
 30
0.0
 10
115.347308998941
 20
-155.8457844662469
 30
0.0
 10
115.2711723887169
 20
-155.792729995774
 30
0.0
 10
115.12096622556
 20
-155.6910996789592
 30
0.0
 10
114.9773057438251
 20
-155.5281466625069
 30
0.0
 10
114.9011691336011
 20
-155.3631265887634
 30
0.0
 10
114.8333007525417
 20
-155.4289279125317
 30
0.0
 10
114.7592311996088
 20
-155.481637873456
 30
0.0
 10
114.6810275320936
 20
-155.5305582293465
 30
0.0
 10
114.6810275320936
 20
-155.5305582293465
 30
0.0
 10
114.6810275320936
 20
-155.7820501997698
 30
0.0
 10
114.6810275320936
 20
-155.7820501997698
 30
0.0
 10
114.843980548546
 20
-155.7569010027275
 30
0.0
 10
115.0300157047494
 20
-155.7124592709677
 30
0.0
 10
115.093405461678
 20
-155.6976453603812
 30
0.0
 10
115.093405461678
 20
-155.6976453603812
 30
0.0
 10
115.0637776405049
 20
-155.8667995487069
 30
0.0
 10
115.0637776405049
 20
-155.8667995487069
 30
0.0
 10
115.0617105832137
 20
-155.8667995487069
 30
0.0
 10
115.0427625580449
 20
-155.8730007205804
 30
0.0
 10
115.0406955007537
 20
-155.8730007205804
 30
0.0
 10
114.8419134912548
 20
-155.9112412804666
 30
0.0
 10
114.5246201970633
 20
-155.9766980946864
 30
0.0
 10
114.327560735307
 20
-156.0128715972815
 30
0.0
 10
114.3172254488513
 20
-156.0297525651592
 30
0.0
 10
114.2937987995516
 20
-156.0614474436235
 30
0.0
 10
114.2707166598004
 20
-156.0614474436235
 30
0.0
 10
114.2431558959184
 20
-156.0614474436235
 30
0.0
 10
114.2390217813361
 20
-156.0424994184547
 30
0.0
 10
114.2366102144964
 20
-156.0232068837373
 30
0.0
 10
114.2366102144964
 20
-156.0232068837373
 30
0.0
 10
114.2114610174541
 20
-155.8499185808292
 30
0.0
 10
114.2114610174541
 20
-155.8499185808292
 30
0.0
 10
114.285530570387
 20
-155.8413058421161
 30
0.0
 10
114.3933620590753
 20
-155.8285589888206
 30
0.0
 10
114.5011935477636
 20
-155.8075439063606
 30
0.0
 10
114.5011935477636
 20
-155.8075439063606
 30
0.0
 10
114.5011935477636
 20
-155.6297769793217
 30
0.0
 10
114.5011935477636
 20
-155.6297769793217
 30
0.0
 10
114.3571885564802
 20
-155.7017794749634
 30
0.0
 10
114.2621039210873
 20
-155.7314072961366
 30
0.0
 10
114.0970838473438
 20
-155.7610351173097
 30
0.0
 10
114.0970838473438
 20
-155.7610351173097
 30
0.0
 10
113.9765055053601
 20
-155.591880928984
 30
0.0
 10
113.9765055053601
 20
-155.591880928984
 30
0.0
 10
114.2937987995516
 20
-155.564320165102
 30
0.0
 10
114.486379637177
 20
-155.4713025870002
 30
0.0
 10
114.6641465642159
 20
-155.3379773917211
 30
0.0
 10
114.5180745156413
 20
-155.3379773917211
 30
0.0
 10
114.2176621893275
 20
-155.3421115063034
 30
0.0
 10
114.0209472371198
 20
-155.3486571877253
 30
0.0
 10
114.0209472371198
 20
-155.3486571877253
 30
0.0
 10
114.0209472371198
 20
-155.1708902606865
 30
0.0
 10
114.0209472371198
 20
-155.1708902606865
 30
0.0
 10
114.175287514859
 20
-155.1770914325599
 30
0.0
 10
114.4715657265904
 20
-155.1836371139819
 30
0.0
 10
114.6555338255028
 20
-155.1836371139819
 30
0.0
 10
114.6555338255028
 20
-155.1836371139819
 30
0.0
 10
114.8670626882971
 20
-155.1836371139819
 30
0.0
 10
114.8670626882971
 20
-155.1836371139819
 30
0.0
 10
114.8670626882971
 20
-155.0882079690405
 30
0.0
 10
114.864995631006
 20
-155.0375650654073
 30
0.0
 10
114.8587944591325
 20
-154.9910562763564
 30
0.0
 10
114.8587944591325
 20
-154.9910562763564
 30
0.0
 10
115.0744574365092
 20
-155.0079372442341
 30
0.0
 10
115.0744574365092
 20
-155.0079372442341
 30
0.0
 10
115.1230332828512
 20
-155.0120713588164
 30
0.0
 10
115.1316460215643
 20
-155.026885269403
 30
0.0
 10
115.1316460215643
 20
-155.0416991799896
 30
0.0
 10
115.1316460215643
 20
-155.0671928865804
 30
0.0
 10
115.1147650536866
 20
-155.075461115745
 30
0.0
 10
115.0637776405049
 20
-155.1009548223359
 30
0.0
 10
115.0617105832137
 20
-155.1264485289267
 30
0.0
 10
115.0617105832137
 20
-155.1326497008002
 30
0.0
 10
115.0596435259226
 20
-155.1836371139819
 30
0.0
 10
115.0596435259226
 20
-155.1836371139819
 30
0.0
 10
115.2901204138858
 20
-155.1836371139819
 30
0.0
 10
115.2901204138858
 20
-155.1836371139819
 30
0.0
 10
115.4551404876293
 20
-155.1836371139819
 30
0.0
 10
115.7472845847785
 20
-155.1770914325599
 30
0.0
 10
115.9271185691085
 20
-155.1708902606865
 30
0.0
 10
115.9271185691085
 20
-155.1708902606865
 30
0.0
 10
115.9271185691085
 20
-155.3486571877253
 30
0.0
 10
115.9271185691085
 20
-155.3486571877253
 30
0.0
 10
115.7979274884116
 20
-155.3441785635945
 30
0.0
 10
115.7748453486605
 20
-155.3441785635945
 30
0.0
 10
115.4975151620979
 20
-155.3400444490122
 30
0.0
  0
SPLINE
  5
1A3
330
196
100
AcDbEntity
  8
_U+30EC_U+30A4_U+30E4_U+30FC 1
370
     0
100
AcDbSpline
210
0.0
220
0.0
230
1.0
 70
    11
 71
     3
 72
    23
 73
    19
 74
     0
 42
0.0000000001
 43
0.0000000001
 12
1.0
 22
0.0
 32
0.0
 13
1.0
 23
0.0
 33
0.0
 40
0.0
 40
0.0
 40
0.0
 40
0.0
 40
1.0
 40
1.0
 40
1.0
 40
2.0
 40
2.0
 40
2.0
 40
3.0
 40
3.0
 40
3.0
 40
4.0
 40
4.0
 40
4.0
 40
5.0
 40
5.0
 40
5.0
 40
6.0
 40
6.0
 40
6.0
 40
6.0
 10
114.2135280747452
 20
-154.9889892190652
 30
0.0
 10
114.1966471068675
 20
-155.0289523266942
 30
0.0
 10
114.1901014254455
 20
-155.0458332945719
 30
0.0
 10
114.1690863429855
 20
-155.0458332945719
 30
0.0
 10
114.1542724323989
 20
-155.0458332945719
 30
0.0
 10
114.1435926363947
 20
-155.0289523266942
 30
0.0
 10
114.1373914645212
 20
-155.0162054733987
 30
0.0
 10
114.1373914645212
 20
-155.0162054733987
 30
0.0
 10
114.0378282049975
 20
-154.8511853996553
 30
0.0
 10
114.0378282049975
 20
-154.8511853996553
 30
0.0
 10
114.1394585218124
 20
-154.819490521191
 30
0.0
 10
114.2896646849693
 20
-154.7647135029755
 30
0.0
 10
114.4884466944682
 20
-154.6017604865232
 30
0.0
 10
114.4884466944682
 20
-154.6017604865232
 30
0.0
 10
114.5456352795233
 20
-154.7750487894313
 30
0.0
 10
114.5456352795233
 20
-154.7750487894313
 30
0.0
 10
114.4526177014216
 20
-154.8577310810772
 30
0.0
 10
114.3637342379021
 20
-154.9149196661324
 30
0.0
 10
114.2135280747452
 20
-154.9889892190652
 30
0.0
  0
SPLINE
  5
1A4
330
196
100
AcDbEntity
  8
_U+30EC_U+30A4_U+30E4_U+30FC 1
370
     0
100
AcDbSpline
210
0.0
220
0.0
230
1.0
 70
    11
 71
     3
 72
    17
 73
    13
 74
     0
 42
0.0000000001
 43
0.0000000001
 12
1.0
 22
0.0
 32
0.0
 13
1.0
 23
0.0
 33
0.0
 40
0.0
 40
0.0
 40
0.0
 40
0.0
 40
1.0
 40
1.0
 40
1.0
 40
2.0
 40
2.0
 40
2.0
 40
3.0
 40
3.0
 40
3.0
 40
4.0
 40
4.0
 40
4.0
 40
4.0
 10
114.3658012951933
 20
-154.523556819008
 30
0.0
 10
114.3361734740201
 20
-154.4832492018306
 30
0.0
 10
114.2683050929607
 20
-154.3860975091465
 30
0.0
 10
114.0864040513395
 20
-154.2758544536185
 30
0.0
 10
114.0864040513395
 20
-154.2758544536185
 30
0.0
 10
114.2135280747452
 20
-154.1425292583394
 30
0.0
 10
114.2135280747452
 20
-154.1425292583394
 30
0.0
 10
114.3995632309487
 20
-154.2441595751542
 30
0.0
 10
114.4567518160039
 20
-154.3330430386737
 30
0.0
 10
114.4843125798859
 20
-154.3754177131423
 30
0.0
 10
114.4843125798859
 20
-154.3754177131423
 30
0.0
 10
114.3658012951933
 20
-154.523556819008
 30
0.0
 10
114.3658012951933
 20
-154.523556819008
 30
0.0
  0
SPLINE
  5
1A5
330
196
100
AcDbEntity
  8
_U+30EC_U+30A4_U+30E4_U+30FC 1
370
     0
100
AcDbSpline
210
0.0
220
0.0
230
1.0
 70
    11
 71
     3
 72
    38
 73
    34
 74
     0
 42
0.0000000001
 43
0.0000000001
 12
1.0
 22
0.0
 32
0.0
 13
1.0
 23
0.0
 33
0.0
 40
0.0
 40
0.0
 40
0.0
 40
0.0
 40
1.0
 40
1.0
 40
1.0
 40
2.0
 40
2.0
 40
2.0
 40
3.0
 40
3.0
 40
3.0
 40
4.0
 40
4.0
 40
4.0
 40
5.0
 40
5.0
 40
5.0
 40
6.0
 40
6.0
 40
6.0
 40
7.0
 40
7.0
 40
7.0
 40
8.0
 40
8.0
 40
8.0
 40
9.0
 40
9.0
 40
9.0
 40
10.0
 40
10.0
 40
10.0
 40
11.0
 40
11.0
 40
11.0
 40
11.0
 10
114.733737493018
 20
-154.2186658685634
 30
0.0
 10
114.7316704357268
 20
-154.2655191671628
 30
0.0
 10
114.7296033784357
 20
-154.3816188850157
 30
0.0
 10
114.7296033784357
 20
-154.4260606167754
 30
0.0
 10
114.7296033784357
 20
-154.4260606167754
 30
0.0
 10
114.7296033784357
 20
-154.7729817321401
 30
0.0
 10
114.7296033784357
 20
-154.7729817321401
 30
0.0
 10
114.7296033784357
 20
-154.8597981383684
 30
0.0
 10
114.7316704357268
 20
-155.0013915628122
 30
0.0
 10
114.7423502317311
 20
-155.1219699047959
 30
0.0
 10
114.7423502317311
 20
-155.1219699047959
 30
0.0
 10
114.5518364513968
 20
-155.1219699047959
 30
0.0
 10
114.5518364513968
 20
-155.1219699047959
 30
0.0
 10
114.5563150755276
 20
-155.0585801478673
 30
0.0
 10
114.5604491901099
 20
-155.005870186943
 30
0.0
 10
114.562516247401
 20
-154.950748659179
 30
0.0
 10
114.5645833046922
 20
-154.8281032599041
 30
0.0
 10
114.5666503619833
 20
-154.8132893493175
 30
0.0
 10
114.5666503619833
 20
-154.7688476175578
 30
0.0
 10
114.5666503619833
 20
-154.7688476175578
 30
0.0
 10
114.5666503619833
 20
-154.447420208784
 30
0.0
 10
114.5666503619833
 20
-154.447420208784
 30
0.0
 10
114.5666503619833
 20
-154.39229868102
 30
0.0
 10
114.5539035086879
 20
-154.1532090543436
 30
0.0
 10
114.5518364513968
 20
-154.1025661507105
 30
0.0
 10
114.5518364513968
 20
-154.1025661507105
 30
0.0
 10
114.7530300277354
 20
-154.1301269145925
 30
0.0
 10
114.7530300277354
 20
-154.1301269145925
 30
0.0
 10
114.7740451101954
 20
-154.1321939718836
 30
0.0
 10
114.8057399886597
 20
-154.1363280864659
 30
0.0
 10
114.8057399886597
 20
-154.1618217930568
 30
0.0
 10
114.8057399886597
 20
-154.1890380473903
 30
0.0
 10
114.7550970850265
 20
-154.2103976393988
 30
0.0
 10
114.733737493018
 20
-154.2186658685634
 30
0.0
  0
SPLINE
  5
1A6
330
196
100
AcDbEntity
  8
_U+30EC_U+30A4_U+30E4_U+30FC 1
370
     0
100
AcDbSpline
210
0.0
220
0.0
230
1.0
 70
    11
 71
     3
 72
    83
 73
    79
 74
     0
 42
0.0000000001
 43
0.0000000001
 12
1.0
 22
0.0
 32
0.0
 13
1.0
 23
0.0
 33
0.0
 40
0.0
 40
0.0
 40
0.0
 40
0.0
 40
1.0
 40
1.0
 40
1.0
 40
2.0
 40
2.0
 40
2.0
 40
3.0
 40
3.0
 40
3.0
 40
4.0
 40
4.0
 40
4.0
 40
5.0
 40
5.0
 40
5.0
 40
6.0
 40
6.0
 40
6.0
 40
7.0
 40
7.0
 40
7.0
 40
8.0
 40
8.0
 40
8.0
 40
9.0
 40
9.0
 40
9.0
 40
10.0
 40
10.0
 40
10.0
 40
11.0
 40
11.0
 40
11.0
 40
12.0
 40
12.0
 40
12.0
 40
13.0
 40
13.0
 40
13.0
 40
14.0
 40
14.0
 40
14.0
 40
15.0
 40
15.0
 40
15.0
 40
16.0
 40
16.0
 40
16.0
 40
17.0
 40
17.0
 40
17.0
 40
18.0
 40
18.0
 40
18.0
 40
19.0
 40
19.0
 40
19.0
 40
20.0
 40
20.0
 40
20.0
 40
21.0
 40
21.0
 40
21.0
 40
22.0
 40
22.0
 40
22.0
 40
23.0
 40
23.0
 40
23.0
 40
24.0
 40
24.0
 40
24.0
 40
25.0
 40
25.0
 40
25.0
 40
26.0
 40
26.0
 40
26.0
 40
26.0
 10
115.5357557219841
 20
-154.5404377868857
 30
0.0
 10
115.5357557219841
 20
-154.5404377868857
 30
0.0
 10
115.4382595197516
 20
-154.5404377868857
 30
0.0
 10
115.4382595197516
 20
-154.5404377868857
 30
0.0
 10
115.4382595197516
 20
-154.5404377868857
 30
0.0
 10
115.4382595197516
 20
-154.7877956427267
 30
0.0
 10
115.4382595197516
 20
-154.7877956427267
 30
0.0
 10
115.4382595197516
 20
-154.7877956427267
 30
0.0
 10
115.5209418113975
 20
-154.7877956427267
 30
0.0
 10
115.5209418113975
 20
-154.7877956427267
 30
0.0
 10
115.5863986256173
 20
-154.7877956427267
 30
0.0
 10
115.7259249927699
 20
-154.7836615281444
 30
0.0
 10
115.8254882522936
 20
-154.7750487894313
 30
0.0
 10
115.8254882522936
 20
-154.7750487894313
 30
0.0
 10
115.8254882522936
 20
-154.9548827737613
 30
0.0
 10
115.8254882522936
 20
-154.9548827737613
 30
0.0
 10
115.7324706741919
 20
-154.9466145445967
 30
0.0
 10
115.582264511035
 20
-154.9424804300144
 30
0.0
 10
115.5209418113975
 20
-154.9424804300144
 30
0.0
 10
115.5209418113975
 20
-154.9424804300144
 30
0.0
 10
115.2160508609529
 20
-154.9424804300144
 30
0.0
 10
115.2160508609529
 20
-154.9424804300144
 30
0.0
 10
115.1633409000286
 20
-154.9424804300144
 30
0.0
 10
115.017268851454
 20
-154.9466145445967
 30
0.0
 10
114.9115044200569
 20
-154.9548827737613
 30
0.0
 10
114.9115044200569
 20
-154.9548827737613
 30
0.0
 10
114.9115044200569
 20
-154.7750487894313
 30
0.0
 10
114.9115044200569
 20
-154.7750487894313
 30
0.0
 10
115.0110676795806
 20
-154.7836615281444
 30
0.0
 10
115.1505940467332
 20
-154.7877956427267
 30
0.0
 10
115.2160508609529
 20
-154.7877956427267
 30
0.0
 10
115.2160508609529
 20
-154.7877956427267
 30
0.0
 10
115.2604925927127
 20
-154.7877956427267
 30
0.0
 10
115.2604925927127
 20
-154.7877956427267
 30
0.0
 10
115.2604925927127
 20
-154.7877956427267
 30
0.0
 10
115.2604925927127
 20
-154.5404377868857
 30
0.0
 10
115.2604925927127
 20
-154.5404377868857
 30
0.0
 10
115.2604925927127
 20
-154.5404377868857
 30
0.0
 10
115.1867675493283
 20
-154.5404377868857
 30
0.0
 10
115.1867675493283
 20
-154.5404377868857
 30
0.0
 10
115.1251003401423
 20
-154.5404377868857
 30
0.0
 10
114.9580132091077
 20
-154.544571901468
 30
0.0
 10
114.837434867124
 20
-154.5531846401811
 30
0.0
 10
114.837434867124
 20
-154.5531846401811
 30
0.0
 10
114.837434867124
 20
-154.3754177131423
 30
0.0
 10
114.837434867124
 20
-154.3754177131423
 30
0.0
 10
114.9518120372343
 20
-154.3816188850157
 30
0.0
 10
115.1102864295558
 20
-154.3860975091465
 30
0.0
 10
115.1867675493283
 20
-154.3860975091465
 30
0.0
 10
115.1867675493283
 20
-154.3860975091465
 30
0.0
 10
115.2584255354215
 20
-154.3860975091465
 30
0.0
 10
115.2584255354215
 20
-154.3860975091465
 30
0.0
 10
115.2542914208392
 20
-154.23347977915
 30
0.0
 10
115.2522243635481
 20
-154.1997178433945
 30
0.0
 10
115.2456786821261
 20
-154.1067002652928
 30
0.0
 10
115.2456786821261
 20
-154.1067002652928
 30
0.0
 10
115.4575520544689
 20
-154.1301269145925
 30
0.0
 10
115.4575520544689
 20
-154.1301269145925
 30
0.0
 10
115.4827012515113
 20
-154.1321939718836
 30
0.0
 10
115.506127900811
 20
-154.1363280864659
 30
0.0
 10
115.506127900811
 20
-154.1594102262171
 30
0.0
 10
115.506127900811
 20
-154.1914496142299
 30
0.0
 10
115.4616861690512
 20
-154.2083305821076
 30
0.0
 10
115.4382595197516
 20
-154.2165988112722
 30
0.0
 10
115.4382595197516
 20
-154.2165988112722
 30
0.0
 10
115.4382595197516
 20
-154.3860975091465
 30
0.0
 10
115.4382595197516
 20
-154.3860975091465
 30
0.0
 10
115.4382595197516
 20
-154.3860975091465
 30
0.0
 10
115.5357557219841
 20
-154.3860975091465
 30
0.0
 10
115.5357557219841
 20
-154.3860975091465
 30
0.0
 10
115.6118923322081
 20
-154.3860975091465
 30
0.0
 10
115.7703667245296
 20
-154.3816188850157
 30
0.0
 10
115.8868109519311
 20
-154.3754177131423
 30
0.0
 10
115.8868109519311
 20
-154.3754177131423
 30
0.0
 10
115.8868109519311
 20
-154.5531846401811
 30
0.0
 10
115.8868109519311
 20
-154.5531846401811
 30
0.0
 10
115.7789794632428
 20
-154.5466389587592
 30
0.0
 10
115.6053466507862
 20
-154.5404377868857
 30
0.0
 10
115.5357557219841
 20
-154.5404377868857
 30
0.0
  0
SPLINE
  5
1A7
330
196
100
AcDbEntity
  8
_U+30EC_U+30A4_U+30E4_U+30FC 1
370
     0
100
AcDbSpline
210
0.0
220
0.0
230
1.0
 70
    11
 71
     3
 72
    17
 73
    13
 74
     0
 42
0.0000000001
 43
0.0000000001
 12
1.0
 22
0.0
 32
0.0
 13
1.0
 23
0.0
 33
0.0
 40
0.0
 40
0.0
 40
0.0
 40
0.0
 40
1.0
 40
1.0
 40
1.0
 40
2.0
 40
2.0
 40
2.0
 40
3.0
 40
3.0
 40
3.0
 40
4.0
 40
4.0
 40
4.0
 40
4.0
 10
115.2901204138858
 20
-155.3379773917211
 30
0.0
 10
115.2901204138858
 20
-155.3379773917211
 30
0.0
 10
115.0872042898046
 20
-155.3379773917211
 30
0.0
 10
115.0872042898046
 20
-155.3379773917211
 30
0.0
 10
115.1147650536866
 20
-155.3972330340674
 30
0.0
 10
115.1695420719021
 20
-155.4692355297091
 30
0.0
 10
115.1971028357841
 20
-155.4985188413337
 30
0.0
 10
115.2246635996661
 20
-155.4840494402956
 30
0.0
 10
115.3390407697764
 20
-155.4203151738186
 30
0.0
 10
115.429991290587
 20
-155.3379773917211
 30
0.0
 10
115.429991290587
 20
-155.3379773917211
 30
0.0
 10
115.2901204138858
 20
-155.3379773917211
 30
0.0
 10
115.2901204138858
 20
-155.3379773917211
 30
0.0
  0
HATCH
  5
1A8
330
196
100
AcDbEntity
  8
_U+30EC_U+30A4_U+30E4_U+30FC 1
 62
   179
420
  2234388
100
AcDbHatch
 10
0.0
 20
0.0
 30
0.0
210
0.0
220
0.0
230
1.0
  2
SOLID
 70
     1
 71
     0
 91
        6
 92
        1
 93
        1
 72
     4
 94
        3
 73
     0
 74
     1
 95
      113
 96
      109
 40
0.0
 40
0.0
 40
0.0
 40
0.0
 40
1.0
 40
1.0
 40
1.0
 40
2.0
 40
2.0
 40
2.0
 40
3.0
 40
3.0
 40
3.0
 40
4.0
 40
4.0
 40
4.0
 40
5.0
 40
5.0
 40
5.0
 40
6.0
 40
6.0
 40
6.0
 40
7.0
 40
7.0
 40
7.0
 40
8.0
 40
8.0
 40
8.0
 40
9.0
 40
9.0
 40
9.0
 40
10.0
 40
10.0
 40
10.0
 40
11.0
 40
11.0
 40
11.0
 40
12.0
 40
12.0
 40
12.0
 40
13.0
 40
13.0
 40
13.0
 40
14.0
 40
14.0
 40
14.0
 40
15.0
 40
15.0
 40
15.0
 40
16.0
 40
16.0
 40
16.0
 40
17.0
 40
17.0
 40
17.0
 40
18.0
 40
18.0
 40
18.0
 40
19.0
 40
19.0
 40
19.0
 40
20.0
 40
20.0
 40
20.0
 40
21.0
 40
21.0
 40
21.0
 40
22.0
 40
22.0
 40
22.0
 40
23.0
 40
23.0
 40
23.0
 40
24.0
 40
24.0
 40
24.0
 40
25.0
 40
25.0
 40
25.0
 40
26.0
 40
26.0
 40
26.0
 40
27.0
 40
27.0
 40
27.0
 40
28.0
 40
28.0
 40
28.0
 40
29.0
 40
29.0
 40
29.0
 40
30.0
 40
30.0
 40
30.0
 40
31.0
 40
31.0
 40
31.0
 40
32.0
 40
32.0
 40
32.0
 40
33.0
 40
33.0
 40
33.0
 40
34.0
 40
34.0
 40
34.0
 40
35.0
 40
35.0
 40
35.0
 40
36.0
 40
36.0
 40
36.0
 40
36.0
 10
115.4975151620979
 20
-155.3400444490122
 10
115.4975151620979
 20
-155.3400444490122
 10
115.5970784216216
 20
-155.4396077085359
 10
115.5970784216216
 20
-155.4396077085359
 10
115.6077582176258
 20
-155.4499429949917
 10
115.6180935040816
 20
-155.4626898482871
 10
115.6180935040816
 20
-155.4775037588737
 10
115.6180935040816
 20
-155.4795708161648
 10
115.6180935040816
 20
-155.509198637338
 10
115.5801974537438
 20
-155.509198637338
 10
115.5715847150307
 20
-155.509198637338
 10
115.5312770978533
 20
-155.5050645227557
 10
115.5250759259798
 20
-155.5050645227557
 10
115.4847683088024
 20
-155.53675940122
 10
115.4382595197516
 20
-155.5705213369754
 10
115.3390407697764
 20
-155.6277099220306
 10
115.4847683088024
 20
-155.7355414107189
 10
115.6435872106724
 20
-155.792729995774
 10
115.9164387731042
 20
-155.8309705556603
 10
115.9164387731042
 20
-155.8309705556603
 10
115.7662326099473
 20
-156.0063259158595
 10
115.7662326099473
 20
-156.0063259158595
 10
115.5040608435198
 20
-155.9343234202178
 10
115.347308998941
 20
-155.8457844662469
 10
115.2711723887169
 20
-155.792729995774
 10
115.12096622556
 20
-155.6910996789592
 10
114.9773057438251
 20
-155.5281466625069
 10
114.9011691336011
 20
-155.3631265887634
 10
114.8333007525417
 20
-155.4289279125317
 10
114.7592311996088
 20
-155.481637873456
 10
114.6810275320936
 20
-155.5305582293465
 10
114.6810275320936
 20
-155.5305582293465
 10
114.6810275320936
 20
-155.7820501997698
 10
114.6810275320936
 20
-155.7820501997698
 10
114.843980548546
 20
-155.7569010027275
 10
115.0300157047494
 20
-155.7124592709677
 10
115.093405461678
 20
-155.6976453603812
 10
115.093405461678
 20
-155.6976453603812
 10
115.0637776405049
 20
-155.8667995487069
 10
115.0637776405049
 20
-155.8667995487069
 10
115.0617105832137
 20
-155.8667995487069
 10
115.0427625580449
 20
-155.8730007205804
 10
115.0406955007537
 20
-155.8730007205804
 10
114.8419134912548
 20
-155.9112412804666
 10
114.5246201970633
 20
-155.9766980946864
 10
114.327560735307
 20
-156.0128715972815
 10
114.3172254488513
 20
-156.0297525651592
 10
114.2937987995516
 20
-156.0614474436235
 10
114.2707166598004
 20
-156.0614474436235
 10
114.2431558959184
 20
-156.0614474436235
 10
114.2390217813361
 20
-156.0424994184547
 10
114.2366102144964
 20
-156.0232068837373
 10
114.2366102144964
 20
-156.0232068837373
 10
114.2114610174541
 20
-155.8499185808292
 10
114.2114610174541
 20
-155.8499185808292
 10
114.285530570387
 20
-155.8413058421161
 10
114.3933620590753
 20
-155.8285589888206
 10
114.5011935477636
 20
-155.8075439063606
 10
114.5011935477636
 20
-155.8075439063606
 10
114.5011935477636
 20
-155.6297769793217
 10
114.5011935477636
 20
-155.6297769793217
 10
114.3571885564802
 20
-155.7017794749634
 10
114.2621039210873
 20
-155.7314072961366
 10
114.0970838473438
 20
-155.7610351173097
 10
114.0970838473438
 20
-155.7610351173097
 10
113.9765055053601
 20
-155.591880928984
 10
113.9765055053601
 20
-155.591880928984
 10
114.2937987995516
 20
-155.564320165102
 10
114.486379637177
 20
-155.4713025870002
 10
114.6641465642159
 20
-155.3379773917211
 10
114.5180745156413
 20
-155.3379773917211
 10
114.2176621893275
 20
-155.3421115063034
 10
114.0209472371198
 20
-155.3486571877253
 10
114.0209472371198
 20
-155.3486571877253
 10
114.0209472371198
 20
-155.1708902606865
 10
114.0209472371198
 20
-155.1708902606865
 10
114.175287514859
 20
-155.1770914325599
 10
114.4715657265904
 20
-155.1836371139819
 10
114.6555338255028
 20
-155.1836371139819
 10
114.6555338255028
 20
-155.1836371139819
 10
114.8670626882971
 20
-155.1836371139819
 10
114.8670626882971
 20
-155.1836371139819
 10
114.8670626882971
 20
-155.0882079690405
 10
114.864995631006
 20
-155.0375650654073
 10
114.8587944591325
 20
-154.9910562763564
 10
114.8587944591325
 20
-154.9910562763564
 10
115.0744574365092
 20
-155.0079372442341
 10
115.0744574365092
 20
-155.0079372442341
 10
115.1230332828512
 20
-155.0120713588164
 10
115.1316460215643
 20
-155.026885269403
 10
115.1316460215643
 20
-155.0416991799896
 10
115.1316460215643
 20
-155.0671928865804
 10
115.1147650536866
 20
-155.075461115745
 10
115.0637776405049
 20
-155.1009548223359
 10
115.0617105832137
 20
-155.1264485289267
 10
115.0617105832137
 20
-155.1326497008002
 10
115.0596435259226
 20
-155.1836371139819
 10
115.0596435259226
 20
-155.1836371139819
 10
115.2901204138858
 20
-155.1836371139819
 10
115.2901204138858
 20
-155.1836371139819
 10
115.4551404876293
 20
-155.1836371139819
 10
115.7472845847785
 20
-155.1770914325599
 10
115.9271185691085
 20
-155.1708902606865
 10
115.9271185691085
 20
-155.1708902606865
 10
115.9271185691085
 20
-155.3486571877253
 10
115.9271185691085
 20
-155.3486571877253
 10
115.7979274884116
 20
-155.3441785635945
 10
115.7748453486605
 20
-155.3441785635945
 10
115.4975151620979
 20
-155.3400444490122
 97
        0
 97
        0
 92
        1
 93
        1
 72
     4
 94
        3
 73
     0
 74
     1
 95
       23
 96
       19
 40
0.0
 40
0.0
 40
0.0
 40
0.0
 40
1.0
 40
1.0
 40
1.0
 40
2.0
 40
2.0
 40
2.0
 40
3.0
 40
3.0
 40
3.0
 40
4.0
 40
4.0
 40
4.0
 40
5.0
 40
5.0
 40
5.0
 40
6.0
 40
6.0
 40
6.0
 40
6.0
 10
114.2135280747452
 20
-154.9889892190652
 10
114.1966471068675
 20
-155.0289523266942
 10
114.1901014254455
 20
-155.0458332945719
 10
114.1690863429855
 20
-155.0458332945719
 10
114.1542724323989
 20
-155.0458332945719
 10
114.1435926363947
 20
-155.0289523266942
 10
114.1373914645212
 20
-155.0162054733987
 10
114.1373914645212
 20
-155.0162054733987
 10
114.0378282049975
 20
-154.8511853996553
 10
114.0378282049975
 20
-154.8511853996553
 10
114.1394585218124
 20
-154.819490521191
 10
114.2896646849693
 20
-154.7647135029755
 10
114.4884466944682
 20
-154.6017604865232
 10
114.4884466944682
 20
-154.6017604865232
 10
114.5456352795233
 20
-154.7750487894313
 10
114.5456352795233
 20
-154.7750487894313
 10
114.4526177014216
 20
-154.8577310810772
 10
114.3637342379021
 20
-154.9149196661324
 10
114.2135280747452
 20
-154.9889892190652
 97
        0
 97
        0
 92
        1
 93
        1
 72
     4
 94
        3
 73
     0
 74
     1
 95
       17
 96
       13
 40
0.0
 40
0.0
 40
0.0
 40
0.0
 40
1.0
 40
1.0
 40
1.0
 40
2.0
 40
2.0
 40
2.0
 40
3.0
 40
3.0
 40
3.0
 40
4.0
 40
4.0
 40
4.0
 40
4.0
 10
114.3658012951933
 20
-154.523556819008
 10
114.3361734740201
 20
-154.4832492018306
 10
114.2683050929607
 20
-154.3860975091465
 10
114.0864040513395
 20
-154.2758544536185
 10
114.0864040513395
 20
-154.2758544536185
 10
114.2135280747452
 20
-154.1425292583394
 10
114.2135280747452
 20
-154.1425292583394
 10
114.3995632309487
 20
-154.2441595751542
 10
114.4567518160039
 20
-154.3330430386737
 10
114.4843125798859
 20
-154.3754177131423
 10
114.4843125798859
 20
-154.3754177131423
 10
114.3658012951933
 20
-154.523556819008
 10
114.3658012951933
 20
-154.523556819008
 97
        0
 97
        0
 92
        1
 93
        1
 72
     4
 94
        3
 73
     0
 74
     1
 95
       38
 96
       34
 40
0.0
 40
0.0
 40
0.0
 40
0.0
 40
1.0
 40
1.0
 40
1.0
 40
2.0
 40
2.0
 40
2.0
 40
3.0
 40
3.0
 40
3.0
 40
4.0
 40
4.0
 40
4.0
 40
5.0
 40
5.0
 40
5.0
 40
6.0
 40
6.0
 40
6.0
 40
7.0
 40
7.0
 40
7.0
 40
8.0
 40
8.0
 40
8.0
 40
9.0
 40
9.0
 40
9.0
 40
10.0
 40
10.0
 40
10.0
 40
11.0
 40
11.0
 40
11.0
 40
11.0
 10
114.733737493018
 20
-154.2186658685634
 10
114.7316704357268
 20
-154.2655191671628
 10
114.7296033784357
 20
-154.3816188850157
 10
114.7296033784357
 20
-154.4260606167754
 10
114.7296033784357
 20
-154.4260606167754
 10
114.7296033784357
 20
-154.7729817321401
 10
114.7296033784357
 20
-154.7729817321401
 10
114.7296033784357
 20
-154.8597981383684
 10
114.7316704357268
 20
-155.0013915628122
 10
114.7423502317311
 20
-155.1219699047959
 10
114.7423502317311
 20
-155.1219699047959
 10
114.5518364513968
 20
-155.1219699047959
 10
114.5518364513968
 20
-155.1219699047959
 10
114.5563150755276
 20
-155.0585801478673
 10
114.5604491901099
 20
-155.005870186943
 10
114.562516247401
 20
-154.950748659179
 10
114.5645833046922
 20
-154.8281032599041
 10
114.5666503619833
 20
-154.8132893493175
 10
114.5666503619833
 20
-154.7688476175578
 10
114.5666503619833
 20
-154.7688476175578
 10
114.5666503619833
 20
-154.447420208784
 10
114.5666503619833
 20
-154.447420208784
 10
114.5666503619833
 20
-154.39229868102
 10
114.5539035086879
 20
-154.1532090543436
 10
114.5518364513968
 20
-154.1025661507105
 10
114.5518364513968
 20
-154.1025661507105
 10
114.7530300277354
 20
-154.1301269145925
 10
114.7530300277354
 20
-154.1301269145925
 10
114.7740451101954
 20
-154.1321939718836
 10
114.8057399886597
 20
-154.1363280864659
 10
114.8057399886597
 20
-154.1618217930568
 10
114.8057399886597
 20
-154.1890380473903
 10
114.7550970850265
 20
-154.2103976393988
 10
114.733737493018
 20
-154.2186658685634
 97
        0
 97
        0
 92
        1
 93
        1
 72
     4
 94
        3
 73
     0
 74
     1
 95
       83
 96
       79
 40
0.0
 40
0.0
 40
0.0
 40
0.0
 40
1.0
 40
1.0
 40
1.0
 40
2.0
 40
2.0
 40
2.0
 40
3.0
 40
3.0
 40
3.0
 40
4.0
 40
4.0
 40
4.0
 40
5.0
 40
5.0
 40
5.0
 40
6.0
 40
6.0
 40
6.0
 40
7.0
 40
7.0
 40
7.0
 40
8.0
 40
8.0
 40
8.0
 40
9.0
 40
9.0
 40
9.0
 40
10.0
 40
10.0
 40
10.0
 40
11.0
 40
11.0
 40
11.0
 40
12.0
 40
12.0
 40
12.0
 40
13.0
 40
13.0
 40
13.0
 40
14.0
 40
14.0
 40
14.0
 40
15.0
 40
15.0
 40
15.0
 40
16.0
 40
16.0
 40
16.0
 40
17.0
 40
17.0
 40
17.0
 40
18.0
 40
18.0
 40
18.0
 40
19.0
 40
19.0
 40
19.0
 40
20.0
 40
20.0
 40
20.0
 40
21.0
 40
21.0
 40
21.0
 40
22.0
 40
22.0
 40
22.0
 40
23.0
 40
23.0
 40
23.0
 40
24.0
 40
24.0
 40
24.0
 40
25.0
 40
25.0
 40
25.0
 40
26.0
 40
26.0
 40
26.0
 40
26.0
 10
115.5357557219841
 20
-154.5404377868857
 10
115.5357557219841
 20
-154.5404377868857
 10
115.4382595197516
 20
-154.5404377868857
 10
115.4382595197516
 20
-154.5404377868857
 10
115.4382595197516
 20
-154.5404377868857
 10
115.4382595197516
 20
-154.7877956427267
 10
115.4382595197516
 20
-154.7877956427267
 10
115.4382595197516
 20
-154.7877956427267
 10
115.5209418113975
 20
-154.7877956427267
 10
115.5209418113975
 20
-154.7877956427267
 10
115.5863986256173
 20
-154.7877956427267
 10
115.7259249927699
 20
-154.7836615281444
 10
115.8254882522936
 20
-154.7750487894313
 10
115.8254882522936
 20
-154.7750487894313
 10
115.8254882522936
 20
-154.9548827737613
 10
115.8254882522936
 20
-154.9548827737613
 10
115.7324706741919
 20
-154.9466145445967
 10
115.582264511035
 20
-154.9424804300144
 10
115.5209418113975
 20
-154.9424804300144
 10
115.5209418113975
 20
-154.9424804300144
 10
115.2160508609529
 20
-154.9424804300144
 10
115.2160508609529
 20
-154.9424804300144
 10
115.1633409000286
 20
-154.9424804300144
 10
115.017268851454
 20
-154.9466145445967
 10
114.9115044200569
 20
-154.9548827737613
 10
114.9115044200569
 20
-154.9548827737613
 10
114.9115044200569
 20
-154.7750487894313
 10
114.9115044200569
 20
-154.7750487894313
 10
115.0110676795806
 20
-154.7836615281444
 10
115.1505940467332
 20
-154.7877956427267
 10
115.2160508609529
 20
-154.7877956427267
 10
115.2160508609529
 20
-154.7877956427267
 10
115.2604925927127
 20
-154.7877956427267
 10
115.2604925927127
 20
-154.7877956427267
 10
115.2604925927127
 20
-154.7877956427267
 10
115.2604925927127
 20
-154.5404377868857
 10
115.2604925927127
 20
-154.5404377868857
 10
115.2604925927127
 20
-154.5404377868857
 10
115.1867675493283
 20
-154.5404377868857
 10
115.1867675493283
 20
-154.5404377868857
 10
115.1251003401423
 20
-154.5404377868857
 10
114.9580132091077
 20
-154.544571901468
 10
114.837434867124
 20
-154.5531846401811
 10
114.837434867124
 20
-154.5531846401811
 10
114.837434867124
 20
-154.3754177131423
 10
114.837434867124
 20
-154.3754177131423
 10
114.9518120372343
 20
-154.3816188850157
 10
115.1102864295558
 20
-154.3860975091465
 10
115.1867675493283
 20
-154.3860975091465
 10
115.1867675493283
 20
-154.3860975091465
 10
115.2584255354215
 20
-154.3860975091465
 10
115.2584255354215
 20
-154.3860975091465
 10
115.2542914208392
 20
-154.23347977915
 10
115.2522243635481
 20
-154.1997178433945
 10
115.2456786821261
 20
-154.1067002652928
 10
115.2456786821261
 20
-154.1067002652928
 10
115.4575520544689
 20
-154.1301269145925
 10
115.4575520544689
 20
-154.1301269145925
 10
115.4827012515113
 20
-154.1321939718836
 10
115.506127900811
 20
-154.1363280864659
 10
115.506127900811
 20
-154.1594102262171
 10
115.506127900811
 20
-154.1914496142299
 10
115.4616861690512
 20
-154.2083305821076
 10
115.4382595197516
 20
-154.2165988112722
 10
115.4382595197516
 20
-154.2165988112722
 10
115.4382595197516
 20
-154.3860975091465
 10
115.4382595197516
 20
-154.3860975091465
 10
115.4382595197516
 20
-154.3860975091465
 10
115.5357557219841
 20
-154.3860975091465
 10
115.5357557219841
 20
-154.3860975091465
 10
115.6118923322081
 20
-154.3860975091465
 10
115.7703667245296
 20
-154.3816188850157
 10
115.8868109519311
 20
-154.3754177131423
 10
115.8868109519311
 20
-154.3754177131423
 10
115.8868109519311
 20
-154.5531846401811
 10
115.8868109519311
 20
-154.5531846401811
 10
115.7789794632428
 20
-154.5466389587592
 10
115.6053466507862
 20
-154.5404377868857
 10
115.5357557219841
 20
-154.5404377868857
 97
        0
 97
        0
 92
        1
 93
        1
 72
     4
 94
        3
 73
     0
 74
     1
 95
       17
 96
       13
 40
0.0
 40
0.0
 40
0.0
 40
0.0
 40
1.0
 40
1.0
 40
1.0
 40
2.0
 40
2.0
 40
2.0
 40
3.0
 40
3.0
 40
3.0
 40
4.0
 40
4.0
 40
4.0
 40
4.0
 10
115.2901204138858
 20
-155.3379773917211
 10
115.2901204138858
 20
-155.3379773917211
 10
115.0872042898046
 20
-155.3379773917211
 10
115.0872042898046
 20
-155.3379773917211
 10
115.1147650536866
 20
-155.3972330340674
 10
115.1695420719021
 20
-155.4692355297091
 10
115.1971028357841
 20
-155.4985188413337
 10
115.2246635996661
 20
-155.4840494402956
 10
115.3390407697764
 20
-155.4203151738186
 10
115.429991290587
 20
-155.3379773917211
 10
115.429991290587
 20
-155.3379773917211
 10
115.2901204138858
 20
-155.3379773917211
 10
115.2901204138858
 20
-155.3379773917211
 97
        0
 97
        0
 75
     2
 76
     1
 98
        0
  0
SPLINE
  5
1A9
330
196
100
AcDbEntity
  8
_U+30EC_U+30A4_U+30E4_U+30FC 1
370
     0
100
AcDbSpline
210
0.0
220
0.0
230
1.0
 70
    11
 71
     3
 72
    77
 73
    73
 74
     0
 42
0.0000000001
 43
0.0000000001
 12
1.0
 22
0.0
 32
0.0
 13
1.0
 23
0.0
 33
0.0
 40
0.0
 40
0.0
 40
0.0
 40
0.0
 40
1.0
 40
1.0
 40
1.0
 40
2.0
 40
2.0
 40
2.0
 40
3.0
 40
3.0
 40
3.0
 40
4.0
 40
4.0
 40
4.0
 40
5.0
 40
5.0
 40
5.0
 40
6.0
 40
6.0
 40
6.0
 40
7.0
 40
7.0
 40
7.0
 40
8.0
 40
8.0
 40
8.0
 40
9.0
 40
9.0
 40
9.0
 40
10.0
 40
10.0
 40
10.0
 40
11.0
 40
11.0
 40
11.0
 40
12.0
 40
12.0
 40
12.0
 40
13.0
 40
13.0
 40
13.0
 40
14.0
 40
14.0
 40
14.0
 40
15.0
 40
15.0
 40
15.0
 40
16.0
 40
16.0
 40
16.0
 40
17.0
 40
17.0
 40
17.0
 40
18.0
 40
18.0
 40
18.0
 40
19.0
 40
19.0
 40
19.0
 40
20.0
 40
20.0
 40
20.0
 40
21.0
 40
21.0
 40
21.0
 40
22.0
 40
22.0
 40
22.0
 40
23.0
 40
23.0
 40
23.0
 40
24.0
 40
24.0
 40
24.0
 40
24.0
 10
117.78126895927
 20
-155.9684298655218
 30
0.0
 10
117.7347601702191
 20
-155.9935790625641
 30
0.0
 10
117.610047713653
 20
-156.0063259158595
 30
0.0
 10
117.5314995365894
 20
-156.0063259158595
 30
0.0
 10
117.5190971928425
 20
-156.0063259158595
 30
0.0
 10
117.4936034862516
 20
-156.0063259158595
 30
0.0
 10
117.4598415504962
 20
-156.0021918012772
 30
0.0
 10
117.4598415504962
 20
-156.0021918012772
 30
0.0
 10
117.3623453482636
 20
-155.7758490278963
 30
0.0
 10
117.3623453482636
 20
-155.7758490278963
 30
0.0
 10
117.3919731694367
 20
-155.7820501997698
 30
0.0
 10
117.4491617544919
 20
-155.7906629384829
 30
0.0
 10
117.5656059818933
 20
-155.7906629384829
 30
0.0
 10
117.6438096494085
 20
-155.7906629384829
 30
0.0
 10
117.6458767066997
 20
-155.7482882640143
 30
0.0
 10
117.6458767066997
 20
-155.6910996789592
 30
0.0
 10
117.6458767066997
 20
-155.6910996789592
 30
0.0
 10
117.6458767066997
 20
-155.3421115063034
 30
0.0
 10
117.6458767066997
 20
-155.3421115063034
 30
0.0
 10
117.6458767066997
 20
-155.3421115063034
 30
0.0
 10
117.1866454785158
 20
-155.3421115063034
 30
0.0
 10
117.1866454785158
 20
-155.3421115063034
 30
0.0
 10
117.1890570453555
 20
-155.4795708161648
 30
0.0
 10
117.1911241026467
 20
-155.6783528256638
 30
0.0
 10
117.1973252745201
 20
-155.8116780209429
 30
0.0
 10
117.1993923318113
 20
-155.8392387848249
 30
0.0
 10
117.1993923318113
 20
-155.8836805165846
 30
0.0
 10
117.2121391851067
 20
-155.9450032162221
 30
0.0
 10
117.2121391851067
 20
-155.9450032162221
 30
0.0
 10
116.9709825011392
 20
-155.9450032162221
 30
0.0
 10
116.9709825011392
 20
-155.9450032162221
 30
0.0
 10
116.9964762077301
 20
-155.820290759656
 30
0.0
 10
116.9964762077301
 20
-155.4795708161648
 30
0.0
 10
116.9964762077301
 20
-155.3421115063034
 30
0.0
 10
116.9964762077301
 20
-155.3421115063034
 30
0.0
 10
116.554125947424
 20
-155.3421115063034
 30
0.0
 10
116.554125947424
 20
-155.3421115063034
 30
0.0
 10
116.5310438076728
 20
-155.5495062545154
 30
0.0
 10
116.4655869934531
 20
-155.8182237023649
 30
0.0
 10
116.2685275316968
 20
-156.0021918012772
 30
0.0
 10
116.2685275316968
 20
-156.0021918012772
 30
0.0
 10
116.0804253182021
 20
-155.8795464020023
 30
0.0
 10
116.0804253182021
 20
-155.8795464020023
 30
0.0
 10
116.334328855465
 20
-155.6594048004949
 30
0.0
 10
116.3660237339293
 20
-155.3272975957168
 30
0.0
 10
116.3660237339293
 20
-154.9951903909387
 30
0.0
 10
116.3660237339293
 20
-154.9951903909387
 30
0.0
 10
116.3660237339293
 20
-154.5593858120546
 30
0.0
 10
116.3660237339293
 20
-154.5593858120546
 30
0.0
 10
116.3660237339293
 20
-154.523556819008
 30
0.0
 10
116.3639566766382
 20
-154.2906683642051
 30
0.0
 10
116.3553439379251
 20
-154.1890380473903
 30
0.0
 10
116.4952148146262
 20
-154.1997178433945
 30
0.0
 10
116.7363714985937
 20
-154.1997178433945
 30
0.0
 10
116.8800319803286
 20
-154.1997178433945
 30
0.0
 10
116.8800319803286
 20
-154.1997178433945
 30
0.0
 10
117.3392632085124
 20
-154.1997178433945
 30
0.0
 10
117.3392632085124
 20
-154.1997178433945
 30
0.0
 10
117.354077119099
 20
-154.1997178433945
 30
0.0
 10
117.7030652917548
 20
-154.1997178433945
 30
0.0
 10
117.8615396840763
 20
-154.1890380473903
 30
0.0
 10
117.8594726267851
 20
-154.2420925178631
 30
0.0
 10
117.8532714549117
 20
-154.4029784770242
 30
0.0
 10
117.8532714549117
 20
-154.4536213806574
 30
0.0
 10
117.8532714549117
 20
-154.4536213806574
 30
0.0
 10
117.8532714549117
 20
-155.0606472051585
 30
0.0
 10
117.8532714549117
 20
-155.0606472051585
 30
0.0
 10
117.8532714549117
 20
-155.0799397398759
 30
0.0
 10
117.8636067413674
 20
-155.6511365713303
 30
0.0
 10
117.8636067413674
 20
-155.7631021746009
 30
0.0
 10
117.8636067413674
 20
-155.820290759656
 30
0.0
 10
117.8636067413674
 20
-155.9219210764709
 30
0.0
 10
117.78126895927
 20
-155.9684298655218
 30
0.0
  0
POLYLINE
  5
1AA
330
196
100
AcDbEntity
  8
_U+30EC_U+30A4_U+30E4_U+30FC 1
370
     0
100
AcDb2dPolyline
 66
     1
 10
0.0
 20
0.0
 30
0.0
  0
VERTEX
  5
1AB
330
1AA
100
AcDbEntity
  8
_U+30EC_U+30A4_U+30E4_U+30FC 1
370
     0
100
AcDbVertex
100
AcDb2dVertex
 10
116.9964762077301
 20
-154.3816188850157
 30
0.0
  0
VERTEX
  5
1AC
330
1AA
100
AcDbEntity
  8
_U+30EC_U+30A4_U+30E4_U+30FC 1
370
     0
100
AcDbVertex
100
AcDb2dVertex
 10
116.5586045715548
 20
-154.3816188850157
 30
0.0
  0
VERTEX
  5
1AD
330
1AA
100
AcDbEntity
  8
_U+30EC_U+30A4_U+30E4_U+30FC 1
370
     0
100
AcDbVertex
100
AcDb2dVertex
 10
116.5586045715548
 20
-154.6861653259118
 30
0.0
  0
VERTEX
  5
1AE
330
1AA
100
AcDbEntity
  8
_U+30EC_U+30A4_U+30E4_U+30FC 1
370
     0
100
AcDbVertex
100
AcDb2dVertex
 10
116.9964762077301
 20
-154.6861653259118
 30
0.0
  0
VERTEX
  5
1AF
330
1AA
100
AcDbEntity
  8
_U+30EC_U+30A4_U+30E4_U+30FC 1
370
     0
100
AcDbVertex
100
AcDb2dVertex
 10
116.9964762077301
 20
-154.3816188850157
 30
0.0
  0
SEQEND
  5
1B0
330
1AA
100
AcDbEntity
  8
_U+30EC_U+30A4_U+30E4_U+30FC 1
370
     0
  0
POLYLINE
  5
1B1
330
196
100
AcDbEntity
  8
_U+30EC_U+30A4_U+30E4_U+30FC 1
370
     0
100
AcDb2dPolyline
 66
     1
 10
0.0
 20
0.0
 30
0.0
  0
VERTEX
  5
1B2
330
1B1
100
AcDbEntity
  8
_U+30EC_U+30A4_U+30E4_U+30FC 1
370
     0
100
AcDbVertex
100
AcDb2dVertex
 10
116.9964762077301
 20
-154.8535969664949
 30
0.0
  0
VERTEX
  5
1B3
330
1B1
100
AcDbEntity
  8
_U+30EC_U+30A4_U+30E4_U+30FC 1
370
     0
100
AcDbVertex
100
AcDb2dVertex
 10
116.5586045715548
 20
-154.8535969664949
 30
0.0
  0
VERTEX
  5
1B4
330
1B1
100
AcDbEntity
  8
_U+30EC_U+30A4_U+30E4_U+30FC 1
370
     0
100
AcDbVertex
100
AcDb2dVertex
 10
116.5586045715548
 20
-155.1622775219733
 30
0.0
  0
VERTEX
  5
1B5
330
1B1
100
AcDbEntity
  8
_U+30EC_U+30A4_U+30E4_U+30FC 1
370
     0
100
AcDbVertex
100
AcDb2dVertex
 10
116.9964762077301
 20
-155.1622775219733
 30
0.0
  0
VERTEX
  5
1B6
330
1B1
100
AcDbEntity
  8
_U+30EC_U+30A4_U+30E4_U+30FC 1
370
     0
100
AcDbVertex
100
AcDb2dVertex
 10
116.9964762077301
 20
-154.8535969664949
 30
0.0
  0
SEQEND
  5
1B7
330
1B1
100
AcDbEntity
  8
_U+30EC_U+30A4_U+30E4_U+30FC 1
370
     0
  0
POLYLINE
  5
1B8
330
196
100
AcDbEntity
  8
_U+30EC_U+30A4_U+30E4_U+30FC 1
370
     0
100
AcDb2dPolyline
 66
     1
 10
0.0
 20
0.0
 30
0.0
  0
VERTEX
  5
1B9
330
1B8
100
AcDbEntity
  8
_U+30EC_U+30A4_U+30E4_U+30FC 1
370
     0
100
AcDbVertex
100
AcDb2dVertex
 10
117.6458767066997
 20
-154.3816188850157
 30
0.0
  0
VERTEX
  5
1BA
330
1B8
100
AcDbEntity
  8
_U+30EC_U+30A4_U+30E4_U+30FC 1
370
     0
100
AcDbVertex
100
AcDb2dVertex
 10
117.1866454785158
 20
-154.3816188850157
 30
0.0
  0
VERTEX
  5
1BB
330
1B8
100
AcDbEntity
  8
_U+30EC_U+30A4_U+30E4_U+30FC 1
370
     0
100
AcDbVertex
100
AcDb2dVertex
 10
117.1866454785158
 20
-154.6861653259118
 30
0.0
  0
VERTEX
  5
1BC
330
1B8
100
AcDbEntity
  8
_U+30EC_U+30A4_U+30E4_U+30FC 1
370
     0
100
AcDbVertex
100
AcDb2dVertex
 10
117.6458767066997
 20
-154.6861653259118
 30
0.0
  0
VERTEX
  5
1BD
330
1B8
100
AcDbEntity
  8
_U+30EC_U+30A4_U+30E4_U+30FC 1
370
     0
100
AcDbVertex
100
AcDb2dVertex
 10
117.6458767066997
 20
-154.3816188850157
 30
0.0
  0
SEQEND
  5
1BE
330
1B8
100
AcDbEntity
  8
_U+30EC_U+30A4_U+30E4_U+30FC 1
370
     0
  0
POLYLINE
  5
1BF
330
196
100
AcDbEntity
  8
_U+30EC_U+30A4_U+30E4_U+30FC 1
370
     0
100
AcDb2dPolyline
 66
     1
 10
0.0
 20
0.0
 30
0.0
  0
VERTEX
  5
1C0
330
1BF
100
AcDbEntity
  8
_U+30EC_U+30A4_U+30E4_U+30FC 1
370
     0
100
AcDbVertex
100
AcDb2dVertex
 10
117.6458767066997
 20
-154.8535969664949
 30
0.0
  0
VERTEX
  5
1C1
330
1BF
100
AcDbEntity
  8
_U+30EC_U+30A4_U+30E4_U+30FC 1
370
     0
100
AcDbVertex
100
AcDb2dVertex
 10
117.1866454785158
 20
-154.8535969664949
 30
0.0
  0
VERTEX
  5
1C2
330
1BF
100
AcDbEntity
  8
_U+30EC_U+30A4_U+30E4_U+30FC 1
370
     0
100
AcDbVertex
100
AcDb2dVertex
 10
117.1866454785158
 20
-155.1622775219733
 30
0.0
  0
VERTEX
  5
1C3
330
1BF
100
AcDbEntity
  8
_U+30EC_U+30A4_U+30E4_U+30FC 1
370
     0
100
AcDbVertex
100
AcDb2dVertex
 10
117.6458767066997
 20
-155.1622775219733
 30
0.0
  0
VERTEX
  5
1C4
330
1BF
100
AcDbEntity
  8
_U+30EC_U+30A4_U+30E4_U+30FC 1
370
     0
100
AcDbVertex
100
AcDb2dVertex
 10
117.6458767066997
 20
-154.8535969664949
 30
0.0
  0
SEQEND
  5
1C5
330
1BF
100
AcDbEntity
  8
_U+30EC_U+30A4_U+30E4_U+30FC 1
370
     0
  0
HATCH
  5
1C6
330
196
100
AcDbEntity
  8
_U+30EC_U+30A4_U+30E4_U+30FC 1
 62
   179
420
  2234388
100
AcDbHatch
 10
0.0
 20
0.0
 30
0.0
210
0.0
220
0.0
230
1.0
  2
SOLID
 70
     1
 71
     0
 91
        5
 92
        1
 93
        1
 72
     4
 94
        3
 73
     0
 74
     1
 95
       77
 96
       73
 40
0.0
 40
0.0
 40
0.0
 40
0.0
 40
1.0
 40
1.0
 40
1.0
 40
2.0
 40
2.0
 40
2.0
 40
3.0
 40
3.0
 40
3.0
 40
4.0
 40
4.0
 40
4.0
 40
5.0
 40
5.0
 40
5.0
 40
6.0
 40
6.0
 40
6.0
 40
7.0
 40
7.0
 40
7.0
 40
8.0
 40
8.0
 40
8.0
 40
9.0
 40
9.0
 40
9.0
 40
10.0
 40
10.0
 40
10.0
 40
11.0
 40
11.0
 40
11.0
 40
12.0
 40
12.0
 40
12.0
 40
13.0
 40
13.0
 40
13.0
 40
14.0
 40
14.0
 40
14.0
 40
15.0
 40
15.0
 40
15.0
 40
16.0
 40
16.0
 40
16.0
 40
17.0
 40
17.0
 40
17.0
 40
18.0
 40
18.0
 40
18.0
 40
19.0
 40
19.0
 40
19.0
 40
20.0
 40
20.0
 40
20.0
 40
21.0
 40
21.0
 40
21.0
 40
22.0
 40
22.0
 40
22.0
 40
23.0
 40
23.0
 40
23.0
 40
24.0
 40
24.0
 40
24.0
 40
24.0
 10
117.78126895927
 20
-155.9684298655218
 10
117.7347601702191
 20
-155.9935790625641
 10
117.610047713653
 20
-156.0063259158595
 10
117.5314995365894
 20
-156.0063259158595
 10
117.5190971928425
 20
-156.0063259158595
 10
117.4936034862516
 20
-156.0063259158595
 10
117.4598415504962
 20
-156.0021918012772
 10
117.4598415504962
 20
-156.0021918012772
 10
117.3623453482636
 20
-155.7758490278963
 10
117.3623453482636
 20
-155.7758490278963
 10
117.3919731694367
 20
-155.7820501997698
 10
117.4491617544919
 20
-155.7906629384829
 10
117.5656059818933
 20
-155.7906629384829
 10
117.6438096494085
 20
-155.7906629384829
 10
117.6458767066997
 20
-155.7482882640143
 10
117.6458767066997
 20
-155.6910996789592
 10
117.6458767066997
 20
-155.6910996789592
 10
117.6458767066997
 20
-155.3421115063034
 10
117.6458767066997
 20
-155.3421115063034
 10
117.6458767066997
 20
-155.3421115063034
 10
117.1866454785158
 20
-155.3421115063034
 10
117.1866454785158
 20
-155.3421115063034
 10
117.1890570453555
 20
-155.4795708161648
 10
117.1911241026467
 20
-155.6783528256638
 10
117.1973252745201
 20
-155.8116780209429
 10
117.1993923318113
 20
-155.8392387848249
 10
117.1993923318113
 20
-155.8836805165846
 10
117.2121391851067
 20
-155.9450032162221
 10
117.2121391851067
 20
-155.9450032162221
 10
116.9709825011392
 20
-155.9450032162221
 10
116.9709825011392
 20
-155.9450032162221
 10
116.9964762077301
 20
-155.820290759656
 10
116.9964762077301
 20
-155.4795708161648
 10
116.9964762077301
 20
-155.3421115063034
 10
116.9964762077301
 20
-155.3421115063034
 10
116.554125947424
 20
-155.3421115063034
 10
116.554125947424
 20
-155.3421115063034
 10
116.5310438076728
 20
-155.5495062545154
 10
116.4655869934531
 20
-155.8182237023649
 10
116.2685275316968
 20
-156.0021918012772
 10
116.2685275316968
 20
-156.0021918012772
 10
116.0804253182021
 20
-155.8795464020023
 10
116.0804253182021
 20
-155.8795464020023
 10
116.334328855465
 20
-155.6594048004949
 10
116.3660237339293
 20
-155.3272975957168
 10
116.3660237339293
 20
-154.9951903909387
 10
116.3660237339293
 20
-154.9951903909387
 10
116.3660237339293
 20
-154.5593858120546
 10
116.3660237339293
 20
-154.5593858120546
 10
116.3660237339293
 20
-154.523556819008
 10
116.3639566766382
 20
-154.2906683642051
 10
116.3553439379251
 20
-154.1890380473903
 10
116.4952148146262
 20
-154.1997178433945
 10
116.7363714985937
 20
-154.1997178433945
 10
116.8800319803286
 20
-154.1997178433945
 10
116.8800319803286
 20
-154.1997178433945
 10
117.3392632085124
 20
-154.1997178433945
 10
117.3392632085124
 20
-154.1997178433945
 10
117.354077119099
 20
-154.1997178433945
 10
117.7030652917548
 20
-154.1997178433945
 10
117.8615396840763
 20
-154.1890380473903
 10
117.8594726267851
 20
-154.2420925178631
 10
117.8532714549117
 20
-154.4029784770242
 10
117.8532714549117
 20
-154.4536213806574
 10
117.8532714549117
 20
-154.4536213806574
 10
117.8532714549117
 20
-155.0606472051585
 10
117.8532714549117
 20
-155.0606472051585
 10
117.8532714549117
 20
-155.0799397398759
 10
117.8636067413674
 20
-155.6511365713303
 10
117.8636067413674
 20
-155.7631021746009
 10
117.8636067413674
 20
-155.820290759656
 10
117.8636067413674
 20
-155.9219210764709
 10
117.78126895927
 20
-155.9684298655218
 97
        0
 97
        0
 92
        1
 93
        4
 72
     1
 10
116.9964762077301
 20
-154.3816188850157
 11
116.5586045715548
 21
-154.3816188850157
 72
     1
 10
116.5586045715548
 20
-154.3816188850157
 11
116.5586045715548
 21
-154.6861653259118
 72
     1
 10
116.5586045715548
 20
-154.6861653259118
 11
116.9964762077301
 21
-154.6861653259118
 72
     1
 10
116.9964762077301
 20
-154.6861653259118
 11
116.9964762077301
 21
-154.3816188850157
 97
        0
 92
        1
 93
        4
 72
     1
 10
116.9964762077301
 20
-154.8535969664949
 11
116.5586045715548
 21
-154.8535969664949
 72
     1
 10
116.5586045715548
 20
-154.8535969664949
 11
116.5586045715548
 21
-155.1622775219733
 72
     1
 10
116.5586045715548
 20
-155.1622775219733
 11
116.9964762077301
 21
-155.1622775219733
 72
     1
 10
116.9964762077301
 20
-155.1622775219733
 11
116.9964762077301
 21
-154.8535969664949
 97
        0
 92
        1
 93
        4
 72
     1
 10
117.6458767066997
 20
-154.3816188850157
 11
117.1866454785158
 21
-154.3816188850157
 72
     1
 10
117.1866454785158
 20
-154.3816188850157
 11
117.1866454785158
 21
-154.6861653259118
 72
     1
 10
117.1866454785158
 20
-154.6861653259118
 11
117.6458767066997
 21
-154.6861653259118
 72
     1
 10
117.6458767066997
 20
-154.6861653259118
 11
117.6458767066997
 21
-154.3816188850157
 97
        0
 92
        1
 93
        4
 72
     1
 10
117.6458767066997
 20
-154.8535969664949
 11
117.1866454785158
 21
-154.8535969664949
 72
     1
 10
117.1866454785158
 20
-154.8535969664949
 11
117.1866454785158
 21
-155.1622775219733
 72
     1
 10
117.1866454785158
 20
-155.1622775219733
 11
117.6458767066997
 21
-155.1622775219733
 72
     1
 10
117.6458767066997
 20
-155.1622775219733
 11
117.6458767066997
 21
-154.8535969664949
 97
        0
 75
     2
 76
     1
 98
        0
  0
ENDBLK
  5
199
330
196
100
AcDbEntity
  8
0
100
AcDbBlockEnd
  0
BLOCK
  5
1C9
330
1C7
100
AcDbEntity
  8
0
100
AcDbBlockBegin
  2
block 8
 70
     0
 10
0.0
 20
0.0
 30
0.0
  3
block 8
  1

  0
SPLINE
  5
1CB
330
1C7
100
AcDbEntity
  8
_U+30EC_U+30A4_U+30E4_U+30FC 1
370
     0
100
AcDbSpline
210
0.0
220
0.0
230
1.0
 70
    11
 71
     3
 72
    44
 73
    40
 74
     0
 42
0.0000000001
 43
0.0000000001
 12
1.0
 22
0.0
 32
0.0
 13
1.0
 23
0.0
 33
0.0
 40
0.0
 40
0.0
 40
0.0
 40
0.0
 40
1.0
 40
1.0
 40
1.0
 40
2.0
 40
2.0
 40
2.0
 40
3.0
 40
3.0
 40
3.0
 40
4.0
 40
4.0
 40
4.0
 40
5.0
 40
5.0
 40
5.0
 40
6.0
 40
6.0
 40
6.0
 40
7.0
 40
7.0
 40
7.0
 40
8.0
 40
8.0
 40
8.0
 40
9.0
 40
9.0
 40
9.0
 40
10.0
 40
10.0
 40
10.0
 40
11.0
 40
11.0
 40
11.0
 40
12.0
 40
12.0
 40
12.0
 40
13.0
 40
13.0
 40
13.0
 40
13.0
 10
113.3298610827786
 20
-157.2579291056508
 30
0.0
 10
113.217895479508
 20
-157.626209813024
 30
0.0
 10
113.1672525758749
 20
-157.7846842053455
 30
0.0
 10
112.9705376236671
 20
-158.0344536280261
 30
0.0
 10
112.7862250152062
 20
-158.2649305159893
 30
0.0
 10
112.5495469553696
 20
-158.4509656721928
 30
0.0
 10
112.2701497115158
 20
-158.5443277598431
 30
0.0
 10
112.2701497115158
 20
-158.5443277598431
 30
0.0
 10
112.0775688738903
 20
-158.364493775513
 30
0.0
 10
112.0775688738903
 20
-158.364493775513
 30
0.0
 10
112.7187011436953
 20
-158.212220555065
 30
0.0
 10
113.0487412911823
 20
-157.6558376341972
 30
0.0
 10
113.1121310481109
 20
-157.2155544311822
 30
0.0
 10
113.1121310481109
 20
-157.2155544311822
 30
0.0
 10
112.3462863217398
 20
-157.2155544311822
 30
0.0
 10
112.3462863217398
 20
-157.2155544311822
 30
0.0
 10
112.2532687436381
 20
-157.2155544311822
 30
0.0
 10
112.0693006447257
 20
-157.2200330553131
 30
0.0
 10
111.9125488001469
 20
-157.2389810804819
 30
0.0
 10
111.9125488001469
 20
-157.2389810804819
 30
0.0
 10
111.9125488001469
 20
-157.0188394789745
 30
0.0
 10
111.9125488001469
 20
-157.0188394789745
 30
0.0
 10
111.9993652063752
 20
-157.040199070983
 30
0.0
 10
112.2512016863469
 20
-157.040199070983
 30
0.0
 10
112.3504204363221
 20
-157.040199070983
 30
0.0
 10
112.3504204363221
 20
-157.040199070983
 30
0.0
 10
112.7820909006239
 20
-157.040199070983
 30
0.0
 10
112.7820909006239
 20
-157.040199070983
 30
0.0
 10
112.8244655750925
 20
-157.040199070983
 30
0.0
 10
113.059076577638
 20
-157.0377875041433
 30
0.0
 10
113.0973171375243
 20
-157.0315863322699
 30
0.0
 10
113.1396918119929
 20
-157.0253851603964
 30
0.0
 10
113.141758869284
 20
-157.0229735935568
 30
0.0
 10
113.2030815689215
 20
-156.9830104859279
 30
0.0
 10
113.2030815689215
 20
-156.9830104859279
 30
0.0
 10
113.3911837824161
 20
-157.1373507636671
 30
0.0
 10
113.3911837824161
 20
-157.1373507636671
 30
0.0
 10
113.3619004707915
 20
-157.1669785848402
 30
0.0
 10
113.3470865602049
 20
-157.1986734633045
 30
0.0
 10
113.3298610827786
 20
-157.2579291056508
 30
0.0
  0
SPLINE
  5
1CC
330
1C7
100
AcDbEntity
  8
_U+30EC_U+30A4_U+30E4_U+30FC 1
370
     0
100
AcDbSpline
210
0.0
220
0.0
230
1.0
 70
    11
 71
     3
 72
    17
 73
    13
 74
     0
 42
0.0000000001
 43
0.0000000001
 12
1.0
 22
0.0
 32
0.0
 13
1.0
 23
0.0
 33
0.0
 40
0.0
 40
0.0
 40
0.0
 40
0.0
 40
1.0
 40
1.0
 40
1.0
 40
2.0
 40
2.0
 40
2.0
 40
3.0
 40
3.0
 40
3.0
 40
4.0
 40
4.0
 40
4.0
 40
4.0
 10
113.5393228882818
 20
-157.0591470961519
 30
0.0
 10
113.4125433744246
 20
-157.0591470961519
 30
0.0
 10
113.3109130576098
 20
-156.957516779337
 30
0.0
 10
113.3109130576098
 20
-156.8307372654798
 30
0.0
 10
113.3109130576098
 20
-156.7036132420741
 30
0.0
 10
113.4125433744246
 20
-156.5999158679681
 30
0.0
 10
113.5393228882818
 20
-156.5999158679681
 30
0.0
 10
113.6664469116876
 20
-156.5999158679681
 30
0.0
 10
113.7701442857936
 20
-156.7036132420741
 30
0.0
 10
113.7701442857936
 20
-156.8307372654798
 30
0.0
 10
113.7701442857936
 20
-156.957516779337
 30
0.0
 10
113.6664469116876
 20
-157.0591470961519
 30
0.0
 10
113.5393228882818
 20
-157.0591470961519
 30
0.0
  0
SPLINE
  5
1CD
330
1C7
100
AcDbEntity
  8
_U+30EC_U+30A4_U+30E4_U+30FC 1
370
     0
100
AcDbSpline
210
0.0
220
0.0
230
1.0
 70
    11
 71
     3
 72
    17
 73
    13
 74
     0
 42
0.0000000001
 43
0.0000000001
 12
1.0
 22
0.0
 32
0.0
 13
1.0
 23
0.0
 33
0.0
 40
0.0
 40
0.0
 40
0.0
 40
0.0
 40
1.0
 40
1.0
 40
1.0
 40
2.0
 40
2.0
 40
2.0
 40
3.0
 40
3.0
 40
3.0
 40
4.0
 40
4.0
 40
4.0
 40
4.0
 10
113.5372558309907
 20
-156.729106948665
 30
0.0
 10
113.4824788127752
 20
-156.729106948665
 30
0.0
 10
113.4380370810155
 20
-156.7735486804247
 30
0.0
 10
113.4380370810155
 20
-156.8286702081887
 30
0.0
 10
113.4380370810155
 20
-156.8855142836953
 30
0.0
 10
113.4824788127752
 20
-156.9344346395858
 30
0.0
 10
113.541389945573
 20
-156.9344346395858
 30
0.0
 10
113.6006455879193
 20
-156.9344346395858
 30
0.0
 10
113.6409532050967
 20
-156.8834472264041
 30
0.0
 10
113.6409532050967
 20
-156.8307372654798
 30
0.0
 10
113.6409532050967
 20
-156.7735486804247
 30
0.0
 10
113.5944444160458
 20
-156.729106948665
 30
0.0
 10
113.5372558309907
 20
-156.729106948665
 30
0.0
  0
HATCH
  5
1CE
330
1C7
100
AcDbEntity
  8
_U+30EC_U+30A4_U+30E4_U+30FC 1
 62
   179
420
  2234388
100
AcDbHatch
 10
0.0
 20
0.0
 30
0.0
210
0.0
220
0.0
230
1.0
  2
SOLID
 70
     1
 71
     0
 91
        3
 92
        1
 93
        1
 72
     4
 94
        3
 73
     0
 74
     1
 95
       44
 96
       40
 40
0.0
 40
0.0
 40
0.0
 40
0.0
 40
1.0
 40
1.0
 40
1.0
 40
2.0
 40
2.0
 40
2.0
 40
3.0
 40
3.0
 40
3.0
 40
4.0
 40
4.0
 40
4.0
 40
5.0
 40
5.0
 40
5.0
 40
6.0
 40
6.0
 40
6.0
 40
7.0
 40
7.0
 40
7.0
 40
8.0
 40
8.0
 40
8.0
 40
9.0
 40
9.0
 40
9.0
 40
10.0
 40
10.0
 40
10.0
 40
11.0
 40
11.0
 40
11.0
 40
12.0
 40
12.0
 40
12.0
 40
13.0
 40
13.0
 40
13.0
 40
13.0
 10
113.3298610827786
 20
-157.2579291056508
 10
113.217895479508
 20
-157.626209813024
 10
113.1672525758749
 20
-157.7846842053455
 10
112.9705376236671
 20
-158.0344536280261
 10
112.7862250152062
 20
-158.2649305159893
 10
112.5495469553696
 20
-158.4509656721928
 10
112.2701497115158
 20
-158.5443277598431
 10
112.2701497115158
 20
-158.5443277598431
 10
112.0775688738903
 20
-158.364493775513
 10
112.0775688738903
 20
-158.364493775513
 10
112.7187011436953
 20
-158.212220555065
 10
113.0487412911823
 20
-157.6558376341972
 10
113.1121310481109
 20
-157.2155544311822
 10
113.1121310481109
 20
-157.2155544311822
 10
112.3462863217398
 20
-157.2155544311822
 10
112.3462863217398
 20
-157.2155544311822
 10
112.2532687436381
 20
-157.2155544311822
 10
112.0693006447257
 20
-157.2200330553131
 10
111.9125488001469
 20
-157.2389810804819
 10
111.9125488001469
 20
-157.2389810804819
 10
111.9125488001469
 20
-157.0188394789745
 10
111.9125488001469
 20
-157.0188394789745
 10
111.9993652063752
 20
-157.040199070983
 10
112.2512016863469
 20
-157.040199070983
 10
112.3504204363221
 20
-157.040199070983
 10
112.3504204363221
 20
-157.040199070983
 10
112.7820909006239
 20
-157.040199070983
 10
112.7820909006239
 20
-157.040199070983
 10
112.8244655750925
 20
-157.040199070983
 10
113.059076577638
 20
-157.0377875041433
 10
113.0973171375243
 20
-157.0315863322699
 10
113.1396918119929
 20
-157.0253851603964
 10
113.141758869284
 20
-157.0229735935568
 10
113.2030815689215
 20
-156.9830104859279
 10
113.2030815689215
 20
-156.9830104859279
 10
113.3911837824161
 20
-157.1373507636671
 10
113.3911837824161
 20
-157.1373507636671
 10
113.3619004707915
 20
-157.1669785848402
 10
113.3470865602049
 20
-157.1986734633045
 10
113.3298610827786
 20
-157.2579291056508
 97
        0
 97
        0
 92
        1
 93
        1
 72
     4
 94
        3
 73
     0
 74
     1
 95
       17
 96
       13
 40
0.0
 40
0.0
 40
0.0
 40
0.0
 40
1.0
 40
1.0
 40
1.0
 40
2.0
 40
2.0
 40
2.0
 40
3.0
 40
3.0
 40
3.0
 40
4.0
 40
4.0
 40
4.0
 40
4.0
 10
113.5393228882818
 20
-157.0591470961519
 10
113.4125433744246
 20
-157.0591470961519
 10
113.3109130576098
 20
-156.957516779337
 10
113.3109130576098
 20
-156.8307372654798
 10
113.3109130576098
 20
-156.7036132420741
 10
113.4125433744246
 20
-156.5999158679681
 10
113.5393228882818
 20
-156.5999158679681
 10
113.6664469116876
 20
-156.5999158679681
 10
113.7701442857936
 20
-156.7036132420741
 10
113.7701442857936
 20
-156.8307372654798
 10
113.7701442857936
 20
-156.957516779337
 10
113.6664469116876
 20
-157.0591470961519
 10
113.5393228882818
 20
-157.0591470961519
 97
        0
 97
        0
 92
        1
 93
        1
 72
     4
 94
        3
 73
     0
 74
     1
 95
       17
 96
       13
 40
0.0
 40
0.0
 40
0.0
 40
0.0
 40
1.0
 40
1.0
 40
1.0
 40
2.0
 40
2.0
 40
2.0
 40
3.0
 40
3.0
 40
3.0
 40
4.0
 40
4.0
 40
4.0
 40
4.0
 10
113.5372558309907
 20
-156.729106948665
 10
113.4824788127752
 20
-156.729106948665
 10
113.4380370810155
 20
-156.7735486804247
 10
113.4380370810155
 20
-156.8286702081887
 10
113.4380370810155
 20
-156.8855142836953
 10
113.4824788127752
 20
-156.9344346395858
 10
113.541389945573
 20
-156.9344346395858
 10
113.6006455879193
 20
-156.9344346395858
 10
113.6409532050967
 20
-156.8834472264041
 10
113.6409532050967
 20
-156.8307372654798
 10
113.6409532050967
 20
-156.7735486804247
 10
113.5944444160458
 20
-156.729106948665
 10
113.5372558309907
 20
-156.729106948665
 97
        0
 97
        0
 75
     2
 76
     1
 98
        0
  0
SPLINE
  5
1CF
330
1C7
100
AcDbEntity
  8
_U+30EC_U+30A4_U+30E4_U+30FC 1
370
     0
100
AcDbSpline
210
0.0
220
0.0
230
1.0
 70
    11
 71
     3
 72
    50
 73
    46
 74
     0
 42
0.0000000001
 43
0.0000000001
 12
1.0
 22
0.0
 32
0.0
 13
1.0
 23
0.0
 33
0.0
 40
0.0
 40
0.0
 40
0.0
 40
0.0
 40
1.0
 40
1.0
 40
1.0
 40
2.0
 40
2.0
 40
2.0
 40
3.0
 40
3.0
 40
3.0
 40
4.0
 40
4.0
 40
4.0
 40
5.0
 40
5.0
 40
5.0
 40
6.0
 40
6.0
 40
6.0
 40
7.0
 40
7.0
 40
7.0
 40
8.0
 40
8.0
 40
8.0
 40
9.0
 40
9.0
 40
9.0
 40
10.0
 40
10.0
 40
10.0
 40
11.0
 40
11.0
 40
11.0
 40
12.0
 40
12.0
 40
12.0
 40
13.0
 40
13.0
 40
13.0
 40
14.0
 40
14.0
 40
14.0
 40
15.0
 40
15.0
 40
15.0
 40
15.0
 10
115.3345621456455
 20
-157.5669541706777
 30
0.0
 10
115.2560139685818
 20
-157.7443765881681
 30
0.0
 10
115.1206217160115
 20
-157.9517713363801
 30
0.0
 10
114.98316240615
 20
-158.0916422130813
 30
0.0
 10
114.8140082178243
 20
-158.2628634586982
 30
0.0
 10
114.651055201372
 20
-158.3517469222176
 30
0.0
 10
114.3316948498893
 20
-158.4933403466614
 30
0.0
 10
114.3316948498893
 20
-158.4933403466614
 30
0.0
 10
114.1625406615635
 20
-158.3052381331667
 30
0.0
 10
114.1625406615635
 20
-158.3052381331667
 30
0.0
 10
114.348575817767
 20
-158.281811483867
 30
0.0
 10
114.5197970633839
 20
-158.1949950776388
 30
0.0
 10
114.6724147933805
 20
-158.0892306462416
 30
0.0
 10
114.934586559808
 20
-157.9073296046204
 30
0.0
 10
115.1251003401423
 20
-157.5941704250112
 30
0.0
 10
115.1736761864844
 20
-157.41226938339
 30
0.0
 10
115.1736761864844
 20
-157.41226938339
 30
0.0
 10
114.5029160955062
 20
-157.41226938339
 30
0.0
 10
114.5029160955062
 20
-157.41226938339
 30
0.0
 10
114.3444417031847
 20
-157.41226938339
 30
0.0
 10
114.0522976060355
 20
-157.4208821221031
 30
0.0
 10
113.9000243855875
 20
-157.4377630899808
 30
0.0
 10
113.9000243855875
 20
-157.4377630899808
 30
0.0
 10
113.9000243855875
 20
-157.2093532593088
 30
0.0
 10
113.9000243855875
 20
-157.2093532593088
 30
0.0
 10
113.9341308308915
 20
-157.2155544311822
 30
0.0
 10
113.9592800279338
 20
-157.2221001126042
 30
0.0
 10
114.0123344984066
 20
-157.2262342271865
 30
0.0
 10
114.113620305673
 20
-157.23243539906
 30
0.0
 10
114.3106797674293
 20
-157.2348469658996
 30
0.0
 10
114.3950846068179
 20
-157.2348469658996
 30
0.0
 10
114.3950846068179
 20
-157.2348469658996
 30
0.0
 10
114.9008246240526
 20
-157.2348469658996
 30
0.0
 10
114.9008246240526
 20
-157.2348469658996
 30
0.0
 10
114.9683484955635
 20
-157.2348469658996
 30
0.0
 10
115.1144205441381
 20
-157.2303683417688
 30
0.0
 10
115.1757432437755
 20
-157.2241671698954
 30
0.0
 10
115.2477457394172
 20
-157.2155544311822
 30
0.0
 10
115.2753065032992
 20
-157.2007405205956
 30
0.0
 10
115.3090684390547
 20
-157.1776583808445
 30
0.0
 10
115.3090684390547
 20
-157.1776583808445
 30
0.0
 10
115.4740885127981
 20
-157.3447455118791
 30
0.0
 10
115.4740885127981
 20
-157.3447455118791
 30
0.0
 10
115.4041530744476
 20
-157.41226938339
 30
0.0
 10
115.3576442853967
 20
-157.515966757496
 30
0.0
 10
115.3345621456455
 20
-157.5669541706777
 30
0.0
  0
SPLINE
  5
1D0
330
1C7
100
AcDbEntity
  8
_U+30EC_U+30A4_U+30E4_U+30FC 1
370
     0
100
AcDbSpline
210
0.0
220
0.0
230
1.0
 70
    11
 71
     3
 72
    29
 73
    25
 74
     0
 42
0.0000000001
 43
0.0000000001
 12
1.0
 22
0.0
 32
0.0
 13
1.0
 23
0.0
 33
0.0
 40
0.0
 40
0.0
 40
0.0
 40
0.0
 40
1.0
 40
1.0
 40
1.0
 40
2.0
 40
2.0
 40
2.0
 40
3.0
 40
3.0
 40
3.0
 40
4.0
 40
4.0
 40
4.0
 40
5.0
 40
5.0
 40
5.0
 40
6.0
 40
6.0
 40
6.0
 40
7.0
 40
7.0
 40
7.0
 40
8.0
 40
8.0
 40
8.0
 40
8.0
 10
114.8415689817063
 20
-156.9406358114593
 30
0.0
 10
114.8415689817063
 20
-156.9406358114593
 30
0.0
 10
114.5008490382151
 20
-156.9406358114593
 30
0.0
 10
114.5008490382151
 20
-156.9406358114593
 30
0.0
 10
114.3868163776533
 20
-156.9406358114593
 30
0.0
 10
114.2703721502519
 20
-156.9447699260416
 30
0.0
 10
114.1559949801416
 20
-156.9595838366282
 30
0.0
 10
114.1559949801416
 20
-156.9595838366282
 30
0.0
 10
114.1559949801416
 20
-156.750122031125
 30
0.0
 10
114.1559949801416
 20
-156.750122031125
 30
0.0
 10
114.2745062648342
 20
-156.7649359417115
 30
0.0
 10
114.4481390772907
 20
-156.7694145658424
 30
0.0
 10
114.5008490382151
 20
-156.7694145658424
 30
0.0
 10
114.5008490382151
 20
-156.7694145658424
 30
0.0
 10
114.8415689817063
 20
-156.7694145658424
 30
0.0
 10
114.8415689817063
 20
-156.7694145658424
 30
0.0
 10
114.9580132091077
 20
-156.7694145658424
 30
0.0
 10
115.0741129269606
 20
-156.7649359417115
 30
0.0
 10
115.1905571543621
 20
-156.750122031125
 30
0.0
 10
115.1905571543621
 20
-156.750122031125
 30
0.0
 10
115.1905571543621
 20
-156.9595838366282
 30
0.0
 10
115.1905571543621
 20
-156.9595838366282
 30
0.0
 10
115.0403509912052
 20
-156.9406358114593
 30
0.0
 10
114.8563828922929
 20
-156.9406358114593
 30
0.0
 10
114.8415689817063
 20
-156.9406358114593
 30
0.0
  0
HATCH
  5
1D1
330
1C7
100
AcDbEntity
  8
_U+30EC_U+30A4_U+30E4_U+30FC 1
 62
   179
420
  2234388
100
AcDbHatch
 10
0.0
 20
0.0
 30
0.0
210
0.0
220
0.0
230
1.0
  2
SOLID
 70
     1
 71
     0
 91
        2
 92
        1
 93
        1
 72
     4
 94
        3
 73
     0
 74
     1
 95
       50
 96
       46
 40
0.0
 40
0.0
 40
0.0
 40
0.0
 40
1.0
 40
1.0
 40
1.0
 40
2.0
 40
2.0
 40
2.0
 40
3.0
 40
3.0
 40
3.0
 40
4.0
 40
4.0
 40
4.0
 40
5.0
 40
5.0
 40
5.0
 40
6.0
 40
6.0
 40
6.0
 40
7.0
 40
7.0
 40
7.0
 40
8.0
 40
8.0
 40
8.0
 40
9.0
 40
9.0
 40
9.0
 40
10.0
 40
10.0
 40
10.0
 40
11.0
 40
11.0
 40
11.0
 40
12.0
 40
12.0
 40
12.0
 40
13.0
 40
13.0
 40
13.0
 40
14.0
 40
14.0
 40
14.0
 40
15.0
 40
15.0
 40
15.0
 40
15.0
 10
115.3345621456455
 20
-157.5669541706777
 10
115.2560139685818
 20
-157.7443765881681
 10
115.1206217160115
 20
-157.9517713363801
 10
114.98316240615
 20
-158.0916422130813
 10
114.8140082178243
 20
-158.2628634586982
 10
114.651055201372
 20
-158.3517469222176
 10
114.3316948498893
 20
-158.4933403466614
 10
114.3316948498893
 20
-158.4933403466614
 10
114.1625406615635
 20
-158.3052381331667
 10
114.1625406615635
 20
-158.3052381331667
 10
114.348575817767
 20
-158.281811483867
 10
114.5197970633839
 20
-158.1949950776388
 10
114.6724147933805
 20
-158.0892306462416
 10
114.934586559808
 20
-157.9073296046204
 10
115.1251003401423
 20
-157.5941704250112
 10
115.1736761864844
 20
-157.41226938339
 10
115.1736761864844
 20
-157.41226938339
 10
114.5029160955062
 20
-157.41226938339
 10
114.5029160955062
 20
-157.41226938339
 10
114.3444417031847
 20
-157.41226938339
 10
114.0522976060355
 20
-157.4208821221031
 10
113.9000243855875
 20
-157.4377630899808
 10
113.9000243855875
 20
-157.4377630899808
 10
113.9000243855875
 20
-157.2093532593088
 10
113.9000243855875
 20
-157.2093532593088
 10
113.9341308308915
 20
-157.2155544311822
 10
113.9592800279338
 20
-157.2221001126042
 10
114.0123344984066
 20
-157.2262342271865
 10
114.113620305673
 20
-157.23243539906
 10
114.3106797674293
 20
-157.2348469658996
 10
114.3950846068179
 20
-157.2348469658996
 10
114.3950846068179
 20
-157.2348469658996
 10
114.9008246240526
 20
-157.2348469658996
 10
114.9008246240526
 20
-157.2348469658996
 10
114.9683484955635
 20
-157.2348469658996
 10
115.1144205441381
 20
-157.2303683417688
 10
115.1757432437755
 20
-157.2241671698954
 10
115.2477457394172
 20
-157.2155544311822
 10
115.2753065032992
 20
-157.2007405205956
 10
115.3090684390547
 20
-157.1776583808445
 10
115.3090684390547
 20
-157.1776583808445
 10
115.4740885127981
 20
-157.3447455118791
 10
115.4740885127981
 20
-157.3447455118791
 10
115.4041530744476
 20
-157.41226938339
 10
115.3576442853967
 20
-157.515966757496
 10
115.3345621456455
 20
-157.5669541706777
 97
        0
 97
        0
 92
        1
 93
        1
 72
     4
 94
        3
 73
     0
 74
     1
 95
       29
 96
       25
 40
0.0
 40
0.0
 40
0.0
 40
0.0
 40
1.0
 40
1.0
 40
1.0
 40
2.0
 40
2.0
 40
2.0
 40
3.0
 40
3.0
 40
3.0
 40
4.0
 40
4.0
 40
4.0
 40
5.0
 40
5.0
 40
5.0
 40
6.0
 40
6.0
 40
6.0
 40
7.0
 40
7.0
 40
7.0
 40
8.0
 40
8.0
 40
8.0
 40
8.0
 10
114.8415689817063
 20
-156.9406358114593
 10
114.8415689817063
 20
-156.9406358114593
 10
114.5008490382151
 20
-156.9406358114593
 10
114.5008490382151
 20
-156.9406358114593
 10
114.3868163776533
 20
-156.9406358114593
 10
114.2703721502519
 20
-156.9447699260416
 10
114.1559949801416
 20
-156.9595838366282
 10
114.1559949801416
 20
-156.9595838366282
 10
114.1559949801416
 20
-156.750122031125
 10
114.1559949801416
 20
-156.750122031125
 10
114.2745062648342
 20
-156.7649359417115
 10
114.4481390772907
 20
-156.7694145658424
 10
114.5008490382151
 20
-156.7694145658424
 10
114.5008490382151
 20
-156.7694145658424
 10
114.8415689817063
 20
-156.7694145658424
 10
114.8415689817063
 20
-156.7694145658424
 10
114.9580132091077
 20
-156.7694145658424
 10
115.0741129269606
 20
-156.7649359417115
 10
115.1905571543621
 20
-156.750122031125
 10
115.1905571543621
 20
-156.750122031125
 10
115.1905571543621
 20
-156.9595838366282
 10
115.1905571543621
 20
-156.9595838366282
 10
115.0403509912052
 20
-156.9406358114593
 10
114.8563828922929
 20
-156.9406358114593
 10
114.8415689817063
 20
-156.9406358114593
 97
        0
 97
        0
 75
     2
 76
     1
 98
        0
  0
SPLINE
  5
1D2
330
1C7
100
AcDbEntity
  8
_U+30EC_U+30A4_U+30E4_U+30FC 1
370
     0
100
AcDbSpline
210
0.0
220
0.0
230
1.0
 70
    11
 71
     3
 72
    50
 73
    46
 74
     0
 42
0.0000000001
 43
0.0000000001
 12
1.0
 22
0.0
 32
0.0
 13
1.0
 23
0.0
 33
0.0
 40
0.0
 40
0.0
 40
0.0
 40
0.0
 40
1.0
 40
1.0
 40
1.0
 40
2.0
 40
2.0
 40
2.0
 40
3.0
 40
3.0
 40
3.0
 40
4.0
 40
4.0
 40
4.0
 40
5.0
 40
5.0
 40
5.0
 40
6.0
 40
6.0
 40
6.0
 40
7.0
 40
7.0
 40
7.0
 40
8.0
 40
8.0
 40
8.0
 40
9.0
 40
9.0
 40
9.0
 40
10.0
 40
10.0
 40
10.0
 40
11.0
 40
11.0
 40
11.0
 40
12.0
 40
12.0
 40
12.0
 40
13.0
 40
13.0
 40
13.0
 40
14.0
 40
14.0
 40
14.0
 40
15.0
 40
15.0
 40
15.0
 40
15.0
 10
117.0447075445235
 20
-156.9258219008727
 30
0.0
 10
116.8352457390204
 20
-157.1394178209582
 30
0.0
 10
116.7635877529272
 20
-157.2114203165999
 30
0.0
 10
116.6216498189349
 20
-157.3299316012925
 30
0.0
 10
116.6216498189349
 20
-157.3299316012925
 30
0.0
 10
116.6216498189349
 20
-157.8969943181646
 30
0.0
 10
116.6216498189349
 20
-157.8969943181646
 30
0.0
 10
116.6216498189349
 20
-158.0472004813215
 30
0.0
 10
116.6281955003568
 20
-158.0661485064904
 30
0.0
 10
116.6323296149391
 20
-158.2439154335293
 30
0.0
 10
116.6343966722303
 20
-158.3748290619688
 30
0.0
 10
116.6405978441037
 20
-158.4237494178593
 30
0.0
 10
116.6471435255257
 20
-158.4830050602056
 30
0.0
 10
116.6471435255257
 20
-158.4830050602056
 30
0.0
 10
116.4208007521448
 20
-158.4830050602056
 30
0.0
 10
116.4208007521448
 20
-158.4830050602056
 30
0.0
 10
116.4249348667271
 20
-158.4385633284459
 30
0.0
 10
116.4290689813094
 20
-158.3917100298465
 30
0.0
 10
116.4290689813094
 20
-158.3834418006819
 30
0.0
 10
116.4290689813094
 20
-158.3031710758756
 30
0.0
 10
116.4335476054402
 20
-157.9517713363801
 30
0.0
 10
116.4335476054402
 20
-157.8797688407384
 30
0.0
 10
116.4335476054402
 20
-157.8797688407384
 30
0.0
 10
116.4335476054402
 20
-157.4735920830275
 30
0.0
 10
116.4335476054402
 20
-157.4735920830275
 30
0.0
 10
116.251646563819
 20
-157.598649049142
 30
0.0
 10
116.0569986689024
 20
-157.7085475951215
 30
0.0
 10
115.8537380352727
 20
-157.7953640013498
 30
0.0
 10
115.8537380352727
 20
-157.7953640013498
 30
0.0
 10
115.6508219111915
 20
-157.6324109848975
 30
0.0
 10
115.6508219111915
 20
-157.6324109848975
 30
0.0
 10
115.7734673104664
 20
-157.5965819918509
 30
0.0
 10
116.0294379050204
 20
-157.522512438918
 30
0.0
 10
116.3742919630939
 20
-157.2665418443639
 30
0.0
 10
116.5899549404706
 20
-157.1077229424939
 30
0.0
 10
116.782535778096
 20
-156.9196207289993
 30
0.0
 10
116.9348089985441
 20
-156.6994791274918
 30
0.0
 10
116.9348089985441
 20
-156.6994791274918
 30
0.0
 10
117.1273898361695
 20
-156.8434841187753
 30
0.0
 10
117.1273898361695
 20
-156.8434841187753
 30
0.0
 10
117.140136689465
 20
-156.853819405231
 30
0.0
 10
117.1484049186296
 20
-156.8686333158176
 30
0.0
 10
117.1484049186296
 20
-156.881380169113
 30
0.0
 10
117.1484049186296
 20
-156.9216877862904
 30
0.0
 10
117.1105088682918
 20
-156.9216877862904
 30
0.0
 10
117.0447075445235
 20
-156.9258219008727
 30
0.0
  0
HATCH
  5
1D3
330
1C7
100
AcDbEntity
  8
_U+30EC_U+30A4_U+30E4_U+30FC 1
 62
   179
420
  2234388
100
AcDbHatch
 10
0.0
 20
0.0
 30
0.0
210
0.0
220
0.0
230
1.0
  2
SOLID
 70
     1
 71
     0
 91
        1
 92
        1
 93
        1
 72
     4
 94
        3
 73
     0
 74
     1
 95
       50
 96
       46
 40
0.0
 40
0.0
 40
0.0
 40
0.0
 40
1.0
 40
1.0
 40
1.0
 40
2.0
 40
2.0
 40
2.0
 40
3.0
 40
3.0
 40
3.0
 40
4.0
 40
4.0
 40
4.0
 40
5.0
 40
5.0
 40
5.0
 40
6.0
 40
6.0
 40
6.0
 40
7.0
 40
7.0
 40
7.0
 40
8.0
 40
8.0
 40
8.0
 40
9.0
 40
9.0
 40
9.0
 40
10.0
 40
10.0
 40
10.0
 40
11.0
 40
11.0
 40
11.0
 40
12.0
 40
12.0
 40
12.0
 40
13.0
 40
13.0
 40
13.0
 40
14.0
 40
14.0
 40
14.0
 40
15.0
 40
15.0
 40
15.0
 40
15.0
 10
117.0447075445235
 20
-156.9258219008727
 10
116.8352457390204
 20
-157.1394178209582
 10
116.7635877529272
 20
-157.2114203165999
 10
116.6216498189349
 20
-157.3299316012925
 10
116.6216498189349
 20
-157.3299316012925
 10
116.6216498189349
 20
-157.8969943181646
 10
116.6216498189349
 20
-157.8969943181646
 10
116.6216498189349
 20
-158.0472004813215
 10
116.6281955003568
 20
-158.0661485064904
 10
116.6323296149391
 20
-158.2439154335293
 10
116.6343966722303
 20
-158.3748290619688
 10
116.6405978441037
 20
-158.4237494178593
 10
116.6471435255257
 20
-158.4830050602056
 10
116.6471435255257
 20
-158.4830050602056
 10
116.4208007521448
 20
-158.4830050602056
 10
116.4208007521448
 20
-158.4830050602056
 10
116.4249348667271
 20
-158.4385633284459
 10
116.4290689813094
 20
-158.3917100298465
 10
116.4290689813094
 20
-158.3834418006819
 10
116.4290689813094
 20
-158.3031710758756
 10
116.4335476054402
 20
-157.9517713363801
 10
116.4335476054402
 20
-157.8797688407384
 10
116.4335476054402
 20
-157.8797688407384
 10
116.4335476054402
 20
-157.4735920830275
 10
116.4335476054402
 20
-157.4735920830275
 10
116.251646563819
 20
-157.598649049142
 10
116.0569986689024
 20
-157.7085475951215
 10
115.8537380352727
 20
-157.7953640013498
 10
115.8537380352727
 20
-157.7953640013498
 10
115.6508219111915
 20
-157.6324109848975
 10
115.6508219111915
 20
-157.6324109848975
 10
115.7734673104664
 20
-157.5965819918509
 10
116.0294379050204
 20
-157.522512438918
 10
116.3742919630939
 20
-157.2665418443639
 10
116.5899549404706
 20
-157.1077229424939
 10
116.782535778096
 20
-156.9196207289993
 10
116.9348089985441
 20
-156.6994791274918
 10
116.9348089985441
 20
-156.6994791274918
 10
117.1273898361695
 20
-156.8434841187753
 10
117.1273898361695
 20
-156.8434841187753
 10
117.140136689465
 20
-156.853819405231
 10
117.1484049186296
 20
-156.8686333158176
 10
117.1484049186296
 20
-156.881380169113
 10
117.1484049186296
 20
-156.9216877862904
 10
117.1105088682918
 20
-156.9216877862904
 10
117.0447075445235
 20
-156.9258219008727
 97
        0
 97
        0
 75
     2
 76
     1
 98
        0
  0
SPLINE
  5
1D4
330
1C7
100
AcDbEntity
  8
_U+30EC_U+30A4_U+30E4_U+30FC 1
370
     0
100
AcDbSpline
210
0.0
220
0.0
230
1.0
 70
    11
 71
     3
 72
    50
 73
    46
 74
     0
 42
0.0000000001
 43
0.0000000001
 12
1.0
 22
0.0
 32
0.0
 13
1.0
 23
0.0
 33
0.0
 40
0.0
 40
0.0
 40
0.0
 40
0.0
 40
1.0
 40
1.0
 40
1.0
 40
2.0
 40
2.0
 40
2.0
 40
3.0
 40
3.0
 40
3.0
 40
4.0
 40
4.0
 40
4.0
 40
5.0
 40
5.0
 40
5.0
 40
6.0
 40
6.0
 40
6.0
 40
7.0
 40
7.0
 40
7.0
 40
8.0
 40
8.0
 40
8.0
 40
9.0
 40
9.0
 40
9.0
 40
10.0
 40
10.0
 40
10.0
 40
11.0
 40
11.0
 40
11.0
 40
12.0
 40
12.0
 40
12.0
 40
13.0
 40
13.0
 40
13.0
 40
14.0
 40
14.0
 40
14.0
 40
15.0
 40
15.0
 40
15.0
 40
15.0
 10
118.7551974529501
 20
-157.4525770005674
 30
0.0
 10
118.6938747533126
 20
-157.5245794962091
 30
0.0
 10
118.4334255346278
 20
-157.8418727904007
 30
0.0
 10
118.3765814591211
 20
-157.9052625473292
 30
0.0
 10
118.4609862985098
 20
-158.0027587495618
 30
0.0
 10
118.5119737116915
 20
-158.0661485064904
 30
0.0
 10
118.5774305259112
 20
-158.157099027301
 30
0.0
 10
118.5774305259112
 20
-158.157099027301
 30
0.0
 10
118.3934624269989
 20
-158.2945583371625
 30
0.0
 10
118.3934624269989
 20
-158.2945583371625
 30
0.0
 10
118.2580701744285
 20
-158.0830294743681
 30
0.0
 10
118.0865044192631
 20
-157.8587537582784
 30
0.0
 10
117.7926377743713
 20
-157.6599717487795
 30
0.0
 10
117.7926377743713
 20
-157.6599717487795
 30
0.0
 10
117.940776880237
 20
-157.5056314710403
 30
0.0
 10
117.940776880237
 20
-157.5056314710403
 30
0.0
 10
118.0506754262165
 20
-157.5859021958466
 30
0.0
 10
118.1543728003225
 20
-157.674785659366
 30
0.0
 10
118.2515244930066
 20
-157.7698702947589
 30
0.0
 10
118.319392874066
 20
-157.6937336845349
 30
0.0
 10
118.5223089981472
 20
-157.4505099432763
 30
0.0
 10
118.6556341934264
 20
-157.2221001126042
 30
0.0
 10
118.6556341934264
 20
-157.2221001126042
 30
0.0
 10
117.9828070451571
 20
-157.2221001126042
 30
0.0
 10
117.9828070451571
 20
-157.2221001126042
 30
0.0
 10
117.858094588591
 20
-157.2221001126042
 30
0.0
 10
117.6062581086193
 20
-157.2303683417688
 30
0.0
 10
117.3967963031161
 20
-157.2410481377731
 30
0.0
 10
117.3967963031161
 20
-157.2410481377731
 30
0.0
 10
117.3967963031161
 20
-157.0209065362656
 30
0.0
 10
117.3967963031161
 20
-157.0209065362656
 30
0.0
 10
117.5811089115769
 20
-157.040199070983
 30
0.0
 10
117.7860920929493
 20
-157.0443331855653
 30
0.0
 10
117.9745388159925
 20
-157.0443331855653
 30
0.0
 10
117.9745388159925
 20
-157.0443331855653
 30
0.0
 10
118.4778672663875
 20
-157.0443331855653
 30
0.0
 10
118.4778672663875
 20
-157.0443331855653
 30
0.0
 10
118.8165201525875
 20
-157.0443331855653
 30
0.0
 10
118.8609618843473
 20
-157.0295192749787
 30
0.0
 10
118.9432996664447
 20
-156.9892116578013
 30
0.0
 10
118.9432996664447
 20
-156.9892116578013
 30
0.0
 10
119.1103867974794
 20
-157.1480305596713
 30
0.0
 10
119.1103867974794
 20
-157.1480305596713
 30
0.0
 10
118.9581135770313
 20
-157.2200330553131
 30
0.0
 10
118.8144530952964
 20
-157.3826415622168
 30
0.0
 10
118.7551974529501
 20
-157.4525770005674
 30
0.0
  0
HATCH
  5
1D5
330
1C7
100
AcDbEntity
  8
_U+30EC_U+30A4_U+30E4_U+30FC 1
 62
   179
420
  2234388
100
AcDbHatch
 10
0.0
 20
0.0
 30
0.0
210
0.0
220
0.0
230
1.0
  2
SOLID
 70
     1
 71
     0
 91
        1
 92
        1
 93
        1
 72
     4
 94
        3
 73
     0
 74
     1
 95
       50
 96
       46
 40
0.0
 40
0.0
 40
0.0
 40
0.0
 40
1.0
 40
1.0
 40
1.0
 40
2.0
 40
2.0
 40
2.0
 40
3.0
 40
3.0
 40
3.0
 40
4.0
 40
4.0
 40
4.0
 40
5.0
 40
5.0
 40
5.0
 40
6.0
 40
6.0
 40
6.0
 40
7.0
 40
7.0
 40
7.0
 40
8.0
 40
8.0
 40
8.0
 40
9.0
 40
9.0
 40
9.0
 40
10.0
 40
10.0
 40
10.0
 40
11.0
 40
11.0
 40
11.0
 40
12.0
 40
12.0
 40
12.0
 40
13.0
 40
13.0
 40
13.0
 40
14.0
 40
14.0
 40
14.0
 40
15.0
 40
15.0
 40
15.0
 40
15.0
 10
118.7551974529501
 20
-157.4525770005674
 10
118.6938747533126
 20
-157.5245794962091
 10
118.4334255346278
 20
-157.8418727904007
 10
118.3765814591211
 20
-157.9052625473292
 10
118.4609862985098
 20
-158.0027587495618
 10
118.5119737116915
 20
-158.0661485064904
 10
118.5774305259112
 20
-158.157099027301
 10
118.5774305259112
 20
-158.157099027301
 10
118.3934624269989
 20
-158.2945583371625
 10
118.3934624269989
 20
-158.2945583371625
 10
118.2580701744285
 20
-158.0830294743681
 10
118.0865044192631
 20
-157.8587537582784
 10
117.7926377743713
 20
-157.6599717487795
 10
117.7926377743713
 20
-157.6599717487795
 10
117.940776880237
 20
-157.5056314710403
 10
117.940776880237
 20
-157.5056314710403
 10
118.0506754262165
 20
-157.5859021958466
 10
118.1543728003225
 20
-157.674785659366
 10
118.2515244930066
 20
-157.7698702947589
 10
118.319392874066
 20
-157.6937336845349
 10
118.5223089981472
 20
-157.4505099432763
 10
118.6556341934264
 20
-157.2221001126042
 10
118.6556341934264
 20
-157.2221001126042
 10
117.9828070451571
 20
-157.2221001126042
 10
117.9828070451571
 20
-157.2221001126042
 10
117.858094588591
 20
-157.2221001126042
 10
117.6062581086193
 20
-157.2303683417688
 10
117.3967963031161
 20
-157.2410481377731
 10
117.3967963031161
 20
-157.2410481377731
 10
117.3967963031161
 20
-157.0209065362656
 10
117.3967963031161
 20
-157.0209065362656
 10
117.5811089115769
 20
-157.040199070983
 10
117.7860920929493
 20
-157.0443331855653
 10
117.9745388159925
 20
-157.0443331855653
 10
117.9745388159925
 20
-157.0443331855653
 10
118.4778672663875
 20
-157.0443331855653
 10
118.4778672663875
 20
-157.0443331855653
 10
118.8165201525875
 20
-157.0443331855653
 10
118.8609618843473
 20
-157.0295192749787
 10
118.9432996664447
 20
-156.9892116578013
 10
118.9432996664447
 20
-156.9892116578013
 10
119.1103867974794
 20
-157.1480305596713
 10
119.1103867974794
 20
-157.1480305596713
 10
118.9581135770313
 20
-157.2200330553131
 10
118.8144530952964
 20
-157.3826415622168
 10
118.7551974529501
 20
-157.4525770005674
 97
        0
 97
        0
 75
     2
 76
     1
 98
        0
  0
SPLINE
  5
1D6
330
1C7
100
AcDbEntity
  8
_U+30EC_U+30A4_U+30E4_U+30FC 1
370
     0
100
AcDbSpline
210
0.0
220
0.0
230
1.0
 70
    11
 71
     3
 72
    29
 73
    25
 74
     0
 42
0.0000000001
 43
0.0000000001
 12
1.0
 22
0.0
 32
0.0
 13
1.0
 23
0.0
 33
0.0
 40
0.0
 40
0.0
 40
0.0
 40
0.0
 40
1.0
 40
1.0
 40
1.0
 40
2.0
 40
2.0
 40
2.0
 40
3.0
 40
3.0
 40
3.0
 40
4.0
 40
4.0
 40
4.0
 40
5.0
 40
5.0
 40
5.0
 40
6.0
 40
6.0
 40
6.0
 40
7.0
 40
7.0
 40
7.0
 40
8.0
 40
8.0
 40
8.0
 40
8.0
 10
120.3785264455998
 20
-157.695800741826
 30
0.0
 10
120.3785264455998
 20
-157.695800741826
 30
0.0
 10
119.8941460203737
 20
-157.695800741826
 30
0.0
 10
119.8941460203737
 20
-157.695800741826
 30
0.0
 10
119.8665852564917
 20
-157.695800741826
 30
0.0
 10
119.5492919623002
 20
-157.695800741826
 30
0.0
 10
119.3377630995058
 20
-157.7212944484169
 30
0.0
 10
119.3377630995058
 20
-157.7212944484169
 30
0.0
 10
119.3377630995058
 20
-157.4908175604537
 30
0.0
 10
119.3377630995058
 20
-157.4908175604537
 30
0.0
 10
119.4962374918273
 20
-157.5138997002049
 30
0.0
 10
119.6867512721617
 20
-157.515966757496
 30
0.0
 10
119.8941460203737
 20
-157.515966757496
 30
0.0
 10
119.8941460203737
 20
-157.515966757496
 30
0.0
 10
120.3785264455998
 20
-157.515966757496
 30
0.0
 10
120.3785264455998
 20
-157.515966757496
 30
0.0
 10
120.5645616018033
 20
-157.515966757496
 30
0.0
 10
120.7509412675553
 20
-157.5138997002049
 30
0.0
 10
120.9349093664677
 20
-157.4908175604537
 30
0.0
 10
120.9349093664677
 20
-157.4908175604537
 30
0.0
 10
120.9349093664677
 20
-157.7212944484169
 30
0.0
 10
120.9349093664677
 20
-157.7212944484169
 30
0.0
 10
120.7509412675553
 20
-157.6978677991172
 30
0.0
 10
120.5032389021659
 20
-157.695800741826
 30
0.0
 10
120.3785264455998
 20
-157.695800741826
 30
0.0
  0
HATCH
  5
1D7
330
1C7
100
AcDbEntity
  8
_U+30EC_U+30A4_U+30E4_U+30FC 1
 62
   179
420
  2234388
100
AcDbHatch
 10
0.0
 20
0.0
 30
0.0
210
0.0
220
0.0
230
1.0
  2
SOLID
 70
     1
 71
     0
 91
        1
 92
        1
 93
        1
 72
     4
 94
        3
 73
     0
 74
     1
 95
       29
 96
       25
 40
0.0
 40
0.0
 40
0.0
 40
0.0
 40
1.0
 40
1.0
 40
1.0
 40
2.0
 40
2.0
 40
2.0
 40
3.0
 40
3.0
 40
3.0
 40
4.0
 40
4.0
 40
4.0
 40
5.0
 40
5.0
 40
5.0
 40
6.0
 40
6.0
 40
6.0
 40
7.0
 40
7.0
 40
7.0
 40
8.0
 40
8.0
 40
8.0
 40
8.0
 10
120.3785264455998
 20
-157.695800741826
 10
120.3785264455998
 20
-157.695800741826
 10
119.8941460203737
 20
-157.695800741826
 10
119.8941460203737
 20
-157.695800741826
 10
119.8665852564917
 20
-157.695800741826
 10
119.5492919623002
 20
-157.695800741826
 10
119.3377630995058
 20
-157.7212944484169
 10
119.3377630995058
 20
-157.7212944484169
 10
119.3377630995058
 20
-157.4908175604537
 10
119.3377630995058
 20
-157.4908175604537
 10
119.4962374918273
 20
-157.5138997002049
 10
119.6867512721617
 20
-157.515966757496
 10
119.8941460203737
 20
-157.515966757496
 10
119.8941460203737
 20
-157.515966757496
 10
120.3785264455998
 20
-157.515966757496
 10
120.3785264455998
 20
-157.515966757496
 10
120.5645616018033
 20
-157.515966757496
 10
120.7509412675553
 20
-157.5138997002049
 10
120.9349093664677
 20
-157.4908175604537
 10
120.9349093664677
 20
-157.4908175604537
 10
120.9349093664677
 20
-157.7212944484169
 10
120.9349093664677
 20
-157.7212944484169
 10
120.7509412675553
 20
-157.6978677991172
 10
120.5032389021659
 20
-157.695800741826
 10
120.3785264455998
 20
-157.695800741826
 97
        0
 97
        0
 75
     2
 76
     1
 98
        0
  0
SPLINE
  5
1D8
330
1C7
100
AcDbEntity
  8
_U+30EC_U+30A4_U+30E4_U+30FC 1
370
     0
100
AcDbSpline
210
0.0
220
0.0
230
1.0
 70
    11
 71
     3
 72
    53
 73
    49
 74
     0
 42
0.0000000001
 43
0.0000000001
 12
1.0
 22
0.0
 32
0.0
 13
1.0
 23
0.0
 33
0.0
 40
0.0
 40
0.0
 40
0.0
 40
0.0
 40
1.0
 40
1.0
 40
1.0
 40
2.0
 40
2.0
 40
2.0
 40
3.0
 40
3.0
 40
3.0
 40
4.0
 40
4.0
 40
4.0
 40
5.0
 40
5.0
 40
5.0
 40
6.0
 40
6.0
 40
6.0
 40
7.0
 40
7.0
 40
7.0
 40
8.0
 40
8.0
 40
8.0
 40
9.0
 40
9.0
 40
9.0
 40
10.0
 40
10.0
 40
10.0
 40
11.0
 40
11.0
 40
11.0
 40
12.0
 40
12.0
 40
12.0
 40
13.0
 40
13.0
 40
13.0
 40
14.0
 40
14.0
 40
14.0
 40
15.0
 40
15.0
 40
15.0
 40
16.0
 40
16.0
 40
16.0
 40
16.0
 10
121.7972167664257
 20
-156.8221245267667
 30
0.0
 10
121.7296928949148
 20
-156.9743977472147
 30
0.0
 10
121.6873182204462
 20
-157.0526014147299
 30
0.0
 10
121.64907766056
 20
-157.1204697957893
 30
0.0
 10
121.6914523350285
 20
-157.1414848782494
 30
0.0
 10
121.6955864496108
 20
-157.143896445089
 30
0.0
 10
121.6955864496108
 20
-157.1583658461271
 30
0.0
 10
121.6955864496108
 20
-157.1711126994225
 30
0.0
 10
121.6618245138554
 20
-157.2052191447265
 30
0.0
 10
121.6511447178511
 20
-157.2134873738911
 30
0.0
 10
121.64907766056
 20
-157.4102023260988
 30
0.0
 10
121.64907766056
 20
-157.4315619181074
 30
0.0
 10
121.64907766056
 20
-157.564542603838
 30
0.0
 10
121.6470106032688
 20
-157.5772894571335
 30
0.0
 10
121.6470106032688
 20
-157.59210336772
 30
0.0
 10
121.6470106032688
 20
-157.6069172783066
 30
0.0
 10
121.6470106032688
 20
-157.6069172783066
 30
0.0
 10
121.6470106032688
 20
-158.1422851167144
 30
0.0
 10
121.6470106032688
 20
-158.1422851167144
 30
0.0
 10
121.6470106032688
 20
-158.2142876123561
 30
0.0
 10
121.6511447178511
 20
-158.4488986149017
 30
0.0
 10
121.6597574565642
 20
-158.5591416704297
 30
0.0
 10
121.6597574565642
 20
-158.5591416704297
 30
0.0
 10
121.4165337153056
 20
-158.5591416704297
 30
0.0
 10
121.4165337153056
 20
-158.5591416704297
 30
0.0
 10
121.4396158550568
 20
-158.4003227685596
 30
0.0
 10
121.4461615364787
 20
-158.1591660845922
 30
0.0
 10
121.4461615364787
 20
-158.1381510021321
 30
0.0
 10
121.4461615364787
 20
-158.1381510021321
 30
0.0
 10
121.4461615364787
 20
-157.4208821221031
 30
0.0
 10
121.4461615364787
 20
-157.4208821221031
 30
0.0
 10
121.3552110156681
 20
-157.5352592922134
 30
0.0
 10
121.2938883160307
 20
-157.5941704250112
 30
0.0
 10
121.2515136415621
 20
-157.6365450994797
 30
0.0
 10
121.2515136415621
 20
-157.6365450994797
 30
0.0
 10
121.0609998612278
 20
-157.4990857896183
 30
0.0
 10
121.0609998612278
 20
-157.4990857896183
 30
0.0
 10
121.3424641623727
 20
-157.2834228122416
 30
0.0
 10
121.5350449999982
 20
-156.9743977472147
 30
0.0
 10
121.6470106032688
 20
-156.6381564278544
 30
0.0
 10
121.6470106032688
 20
-156.6381564278544
 30
0.0
 10
121.8671522047763
 20
-156.7521890884161
 30
0.0
 10
121.8671522047763
 20
-156.7521890884161
 30
0.0
 10
121.8798990580717
 20
-156.7587347698381
 30
0.0
 10
121.8881672872363
 20
-156.7628688844204
 30
0.0
 10
121.8881672872363
 20
-156.777682795007
 30
0.0
 10
121.8881672872363
 20
-156.8031765015978
 30
0.0
 10
121.8712863193586
 20
-156.8073106161801
 30
0.0
 10
121.7972167664257
 20
-156.8221245267667
 30
0.0
  0
SPLINE
  5
1D9
330
1C7
100
AcDbEntity
  8
_U+30EC_U+30A4_U+30E4_U+30FC 1
370
     0
100
AcDbSpline
210
0.0
220
0.0
230
1.0
 70
    11
 71
     3
 72
    77
 73
    73
 74
     0
 42
0.0000000001
 43
0.0000000001
 12
1.0
 22
0.0
 32
0.0
 13
1.0
 23
0.0
 33
0.0
 40
0.0
 40
0.0
 40
0.0
 40
0.0
 40
1.0
 40
1.0
 40
1.0
 40
2.0
 40
2.0
 40
2.0
 40
3.0
 40
3.0
 40
3.0
 40
4.0
 40
4.0
 40
4.0
 40
5.0
 40
5.0
 40
5.0
 40
6.0
 40
6.0
 40
6.0
 40
7.0
 40
7.0
 40
7.0
 40
8.0
 40
8.0
 40
8.0
 40
9.0
 40
9.0
 40
9.0
 40
10.0
 40
10.0
 40
10.0
 40
11.0
 40
11.0
 40
11.0
 40
12.0
 40
12.0
 40
12.0
 40
13.0
 40
13.0
 40
13.0
 40
14.0
 40
14.0
 40
14.0
 40
15.0
 40
15.0
 40
15.0
 40
16.0
 40
16.0
 40
16.0
 40
17.0
 40
17.0
 40
17.0
 40
18.0
 40
18.0
 40
18.0
 40
19.0
 40
19.0
 40
19.0
 40
20.0
 40
20.0
 40
20.0
 40
21.0
 40
21.0
 40
21.0
 40
22.0
 40
22.0
 40
22.0
 40
23.0
 40
23.0
 40
23.0
 40
24.0
 40
24.0
 40
24.0
 40
24.0
 10
122.9482231680477
 20
-157.3213188625794
 30
0.0
 10
122.8782877296971
 20
-157.3171847479971
 30
0.0
 10
122.8104193486377
 20
-157.3171847479971
 30
0.0
 10
122.7428954771268
 20
-157.3171847479971
 30
0.0
 10
122.7428954771268
 20
-157.3171847479971
 30
0.0
 10
122.7428954771268
 20
-158.0916422130813
 30
0.0
 10
122.7428954771268
 20
-158.0916422130813
 30
0.0
 10
122.7428954771268
 20
-158.3558810367999
 30
0.0
 10
122.7408284198356
 20
-158.3855088579731
 30
0.0
 10
122.7342827384137
 20
-158.4151366791462
 30
0.0
 10
122.7005208026582
 20
-158.5484618744254
 30
0.0
 10
122.5988904858433
 20
-158.55673010359
 30
0.0
 10
122.4235351256441
 20
-158.55673010359
 30
0.0
 10
122.3832275084667
 20
-158.55673010359
 30
0.0
 10
122.366346540589
 20
-158.55673010359
 30
0.0
 10
122.3260389234115
 20
-158.5525959890077
 30
0.0
 10
122.3260389234115
 20
-158.5525959890077
 30
0.0
 10
122.2013264668455
 20
-158.3114393050402
 30
0.0
 10
122.2013264668455
 20
-158.3114393050402
 30
0.0
 10
122.3177706942469
 20
-158.3431341835045
 30
0.0
 10
122.4001084763444
 20
-158.3431341835045
 30
0.0
 10
122.4235351256441
 20
-158.3431341835045
 30
0.0
 10
122.4931260544462
 20
-158.3431341835045
 30
0.0
 10
122.5272324997501
 20
-158.3262532156268
 30
0.0
 10
122.5313666143324
 20
-158.2690646305716
 30
0.0
 10
122.5313666143324
 20
-158.2563177772762
 30
0.0
 10
122.5334336716236
 20
-158.1591660845922
 30
0.0
 10
122.5334336716236
 20
-158.101977499537
 30
0.0
 10
122.5334336716236
 20
-158.101977499537
 30
0.0
 10
122.5334336716236
 20
-157.315117690706
 30
0.0
 10
122.5334336716236
 20
-157.315117690706
 30
0.0
 10
122.5334336716236
 20
-157.315117690706
 30
0.0
 10
122.2392225171833
 20
-157.315117690706
 30
0.0
 10
122.2392225171833
 20
-157.315117690706
 30
0.0
 10
122.0934949781572
 20
-157.315117690706
 30
0.0
 10
121.9474229295826
 20
-157.3213188625794
 30
0.0
 10
121.8034179382991
 20
-157.3340657158748
 30
0.0
 10
121.8034179382991
 20
-157.3340657158748
 30
0.0
 10
121.8034179382991
 20
-157.1266709676628
 30
0.0
 10
121.8034179382991
 20
-157.1266709676628
 30
0.0
 10
121.953624101456
 20
-157.1394178209582
 30
0.0
 10
122.1716986456724
 20
-157.143896445089
 30
0.0
 10
122.2392225171833
 20
-157.143896445089
 30
0.0
 10
122.2392225171833
 20
-157.143896445089
 30
0.0
 10
122.5334336716236
 20
-157.143896445089
 30
0.0
 10
122.5334336716236
 20
-157.143896445089
 30
0.0
 10
122.5313666143324
 20
-156.8751789972395
 30
0.0
 10
122.5313666143324
 20
-156.7990423870155
 30
0.0
 10
122.5227538756193
 20
-156.6509032811498
 30
0.0
 10
122.5227538756193
 20
-156.6509032811498
 30
0.0
 10
122.7807915274645
 20
-156.6887993314875
 30
0.0
 10
122.7807915274645
 20
-156.6887993314875
 30
0.0
 10
122.7956054380511
 20
-156.6908663887787
 30
0.0
 10
122.8104193486377
 20
-156.6974120702006
 30
0.0
 10
122.8104193486377
 20
-156.7184271526607
 30
0.0
 10
122.8104193486377
 20
-156.7377196873781
 30
0.0
 10
122.8042181767642
 20
-156.7397867446692
 30
0.0
 10
122.7470295917091
 20
-156.7735486804247
 30
0.0
 10
122.7428954771268
 20
-156.8517523479399
 30
0.0
 10
122.7428954771268
 20
-156.8665662585264
 30
0.0
 10
122.7428954771268
 20
-157.143896445089
 30
0.0
 10
122.9206624041657
 20
-157.1394178209582
 30
0.0
 10
122.9396104293346
 20
-157.1394178209582
 30
0.0
 10
122.97337236509
 20
-157.1352837063759
 30
0.0
 10
123.0243597782717
 20
-157.1311495917936
 30
0.0
 10
123.028493892854
 20
-157.1290825345025
 30
0.0
 10
123.0729356246137
 20
-157.1266709676628
 30
0.0
 10
123.0729356246137
 20
-157.1266709676628
 30
0.0
 10
123.0729356246137
 20
-157.3340657158748
 30
0.0
 10
123.0729356246137
 20
-157.3340657158748
 30
0.0
 10
123.0433078034406
 20
-157.3319986585837
 30
0.0
 10
122.9881862756766
 20
-157.3233859198706
 30
0.0
 10
122.9482231680477
 20
-157.3213188625794
 30
0.0
  0
SPLINE
  5
1DA
330
1C7
100
AcDbEntity
  8
_U+30EC_U+30A4_U+30E4_U+30FC 1
370
     0
100
AcDbSpline
210
0.0
220
0.0
230
1.0
 70
    11
 71
     3
 72
    20
 73
    16
 74
     0
 42
0.0000000001
 43
0.0000000001
 12
1.0
 22
0.0
 32
0.0
 13
1.0
 23
0.0
 33
0.0
 40
0.0
 40
0.0
 40
0.0
 40
0.0
 40
1.0
 40
1.0
 40
1.0
 40
2.0
 40
2.0
 40
2.0
 40
3.0
 40
3.0
 40
3.0
 40
4.0
 40
4.0
 40
4.0
 40
5.0
 40
5.0
 40
5.0
 40
5.0
 10
122.1778998175458
 20
-158.0472004813215
 30
0.0
 10
122.1313910284949
 20
-157.8694335542826
 30
0.0
 10
122.0342393358109
 20
-157.7274956202904
 30
0.0
 10
121.8947129686583
 20
-157.6175970743109
 30
0.0
 10
121.8947129686583
 20
-157.6175970743109
 30
0.0
 10
122.0552544182709
 20
-157.5032199042006
 30
0.0
 10
122.0552544182709
 20
-157.5032199042006
 30
0.0
 10
122.1165771179084
 20
-157.5455945786692
 30
0.0
 10
122.1568847350858
 20
-157.5793565144246
 30
0.0
 10
122.2330213453098
 20
-157.6875325126614
 30
0.0
 10
122.3132920701161
 20
-157.8036322305144
 30
0.0
 10
122.3346516621247
 20
-157.8566867009872
 30
0.0
 10
122.359800859167
 20
-157.922143515207
 30
0.0
 10
122.359800859167
 20
-157.922143515207
 30
0.0
 10
122.1778998175458
 20
-158.0472004813215
 30
0.0
 10
122.1778998175458
 20
-158.0472004813215
 30
0.0
  0
HATCH
  5
1DB
330
1C7
100
AcDbEntity
  8
_U+30EC_U+30A4_U+30E4_U+30FC 1
 62
   179
420
  2234388
100
AcDbHatch
 10
0.0
 20
0.0
 30
0.0
210
0.0
220
0.0
230
1.0
  2
SOLID
 70
     1
 71
     0
 91
        3
 92
        1
 93
        1
 72
     4
 94
        3
 73
     0
 74
     1
 95
       53
 96
       49
 40
0.0
 40
0.0
 40
0.0
 40
0.0
 40
1.0
 40
1.0
 40
1.0
 40
2.0
 40
2.0
 40
2.0
 40
3.0
 40
3.0
 40
3.0
 40
4.0
 40
4.0
 40
4.0
 40
5.0
 40
5.0
 40
5.0
 40
6.0
 40
6.0
 40
6.0
 40
7.0
 40
7.0
 40
7.0
 40
8.0
 40
8.0
 40
8.0
 40
9.0
 40
9.0
 40
9.0
 40
10.0
 40
10.0
 40
10.0
 40
11.0
 40
11.0
 40
11.0
 40
12.0
 40
12.0
 40
12.0
 40
13.0
 40
13.0
 40
13.0
 40
14.0
 40
14.0
 40
14.0
 40
15.0
 40
15.0
 40
15.0
 40
16.0
 40
16.0
 40
16.0
 40
16.0
 10
121.7972167664257
 20
-156.8221245267667
 10
121.7296928949148
 20
-156.9743977472147
 10
121.6873182204462
 20
-157.0526014147299
 10
121.64907766056
 20
-157.1204697957893
 10
121.6914523350285
 20
-157.1414848782494
 10
121.6955864496108
 20
-157.143896445089
 10
121.6955864496108
 20
-157.1583658461271
 10
121.6955864496108
 20
-157.1711126994225
 10
121.6618245138554
 20
-157.2052191447265
 10
121.6511447178511
 20
-157.2134873738911
 10
121.64907766056
 20
-157.4102023260988
 10
121.64907766056
 20
-157.4315619181074
 10
121.64907766056
 20
-157.564542603838
 10
121.6470106032688
 20
-157.5772894571335
 10
121.6470106032688
 20
-157.59210336772
 10
121.6470106032688
 20
-157.6069172783066
 10
121.6470106032688
 20
-157.6069172783066
 10
121.6470106032688
 20
-158.1422851167144
 10
121.6470106032688
 20
-158.1422851167144
 10
121.6470106032688
 20
-158.2142876123561
 10
121.6511447178511
 20
-158.4488986149017
 10
121.6597574565642
 20
-158.5591416704297
 10
121.6597574565642
 20
-158.5591416704297
 10
121.4165337153056
 20
-158.5591416704297
 10
121.4165337153056
 20
-158.5591416704297
 10
121.4396158550568
 20
-158.4003227685596
 10
121.4461615364787
 20
-158.1591660845922
 10
121.4461615364787
 20
-158.1381510021321
 10
121.4461615364787
 20
-158.1381510021321
 10
121.4461615364787
 20
-157.4208821221031
 10
121.4461615364787
 20
-157.4208821221031
 10
121.3552110156681
 20
-157.5352592922134
 10
121.2938883160307
 20
-157.5941704250112
 10
121.2515136415621
 20
-157.6365450994797
 10
121.2515136415621
 20
-157.6365450994797
 10
121.0609998612278
 20
-157.4990857896183
 10
121.0609998612278
 20
-157.4990857896183
 10
121.3424641623727
 20
-157.2834228122416
 10
121.5350449999982
 20
-156.9743977472147
 10
121.6470106032688
 20
-156.6381564278544
 10
121.6470106032688
 20
-156.6381564278544
 10
121.8671522047763
 20
-156.7521890884161
 10
121.8671522047763
 20
-156.7521890884161
 10
121.8798990580717
 20
-156.7587347698381
 10
121.8881672872363
 20
-156.7628688844204
 10
121.8881672872363
 20
-156.777682795007
 10
121.8881672872363
 20
-156.8031765015978
 10
121.8712863193586
 20
-156.8073106161801
 10
121.7972167664257
 20
-156.8221245267667
 97
        0
 97
        0
 92
        1
 93
        1
 72
     4
 94
        3
 73
     0
 74
     1
 95
       77
 96
       73
 40
0.0
 40
0.0
 40
0.0
 40
0.0
 40
1.0
 40
1.0
 40
1.0
 40
2.0
 40
2.0
 40
2.0
 40
3.0
 40
3.0
 40
3.0
 40
4.0
 40
4.0
 40
4.0
 40
5.0
 40
5.0
 40
5.0
 40
6.0
 40
6.0
 40
6.0
 40
7.0
 40
7.0
 40
7.0
 40
8.0
 40
8.0
 40
8.0
 40
9.0
 40
9.0
 40
9.0
 40
10.0
 40
10.0
 40
10.0
 40
11.0
 40
11.0
 40
11.0
 40
12.0
 40
12.0
 40
12.0
 40
13.0
 40
13.0
 40
13.0
 40
14.0
 40
14.0
 40
14.0
 40
15.0
 40
15.0
 40
15.0
 40
16.0
 40
16.0
 40
16.0
 40
17.0
 40
17.0
 40
17.0
 40
18.0
 40
18.0
 40
18.0
 40
19.0
 40
19.0
 40
19.0
 40
20.0
 40
20.0
 40
20.0
 40
21.0
 40
21.0
 40
21.0
 40
22.0
 40
22.0
 40
22.0
 40
23.0
 40
23.0
 40
23.0
 40
24.0
 40
24.0
 40
24.0
 40
24.0
 10
122.9482231680477
 20
-157.3213188625794
 10
122.8782877296971
 20
-157.3171847479971
 10
122.8104193486377
 20
-157.3171847479971
 10
122.7428954771268
 20
-157.3171847479971
 10
122.7428954771268
 20
-157.3171847479971
 10
122.7428954771268
 20
-158.0916422130813
 10
122.7428954771268
 20
-158.0916422130813
 10
122.7428954771268
 20
-158.3558810367999
 10
122.7408284198356
 20
-158.3855088579731
 10
122.7342827384137
 20
-158.4151366791462
 10
122.7005208026582
 20
-158.5484618744254
 10
122.5988904858433
 20
-158.55673010359
 10
122.4235351256441
 20
-158.55673010359
 10
122.3832275084667
 20
-158.55673010359
 10
122.366346540589
 20
-158.55673010359
 10
122.3260389234115
 20
-158.5525959890077
 10
122.3260389234115
 20
-158.5525959890077
 10
122.2013264668455
 20
-158.3114393050402
 10
122.2013264668455
 20
-158.3114393050402
 10
122.3177706942469
 20
-158.3431341835045
 10
122.4001084763444
 20
-158.3431341835045
 10
122.4235351256441
 20
-158.3431341835045
 10
122.4931260544462
 20
-158.3431341835045
 10
122.5272324997501
 20
-158.3262532156268
 10
122.5313666143324
 20
-158.2690646305716
 10
122.5313666143324
 20
-158.2563177772762
 10
122.5334336716236
 20
-158.1591660845922
 10
122.5334336716236
 20
-158.101977499537
 10
122.5334336716236
 20
-158.101977499537
 10
122.5334336716236
 20
-157.315117690706
 10
122.5334336716236
 20
-157.315117690706
 10
122.5334336716236
 20
-157.315117690706
 10
122.2392225171833
 20
-157.315117690706
 10
122.2392225171833
 20
-157.315117690706
 10
122.0934949781572
 20
-157.315117690706
 10
121.9474229295826
 20
-157.3213188625794
 10
121.8034179382991
 20
-157.3340657158748
 10
121.8034179382991
 20
-157.3340657158748
 10
121.8034179382991
 20
-157.1266709676628
 10
121.8034179382991
 20
-157.1266709676628
 10
121.953624101456
 20
-157.1394178209582
 10
122.1716986456724
 20
-157.143896445089
 10
122.2392225171833
 20
-157.143896445089
 10
122.2392225171833
 20
-157.143896445089
 10
122.5334336716236
 20
-157.143896445089
 10
122.5334336716236
 20
-157.143896445089
 10
122.5313666143324
 20
-156.8751789972395
 10
122.5313666143324
 20
-156.7990423870155
 10
122.5227538756193
 20
-156.6509032811498
 10
122.5227538756193
 20
-156.6509032811498
 10
122.7807915274645
 20
-156.6887993314875
 10
122.7807915274645
 20
-156.6887993314875
 10
122.7956054380511
 20
-156.6908663887787
 10
122.8104193486377
 20
-156.6974120702006
 10
122.8104193486377
 20
-156.7184271526607
 10
122.8104193486377
 20
-156.7377196873781
 10
122.8042181767642
 20
-156.7397867446692
 10
122.7470295917091
 20
-156.7735486804247
 10
122.7428954771268
 20
-156.8517523479399
 10
122.7428954771268
 20
-156.8665662585264
 10
122.7428954771268
 20
-157.143896445089
 10
122.9206624041657
 20
-157.1394178209582
 10
122.9396104293346
 20
-157.1394178209582
 10
122.97337236509
 20
-157.1352837063759
 10
123.0243597782717
 20
-157.1311495917936
 10
123.028493892854
 20
-157.1290825345025
 10
123.0729356246137
 20
-157.1266709676628
 10
123.0729356246137
 20
-157.1266709676628
 10
123.0729356246137
 20
-157.3340657158748
 10
123.0729356246137
 20
-157.3340657158748
 10
123.0433078034406
 20
-157.3319986585837
 10
122.9881862756766
 20
-157.3233859198706
 10
122.9482231680477
 20
-157.3213188625794
 97
        0
 97
        0
 92
        1
 93
        1
 72
     4
 94
        3
 73
     0
 74
     1
 95
       20
 96
       16
 40
0.0
 40
0.0
 40
0.0
 40
0.0
 40
1.0
 40
1.0
 40
1.0
 40
2.0
 40
2.0
 40
2.0
 40
3.0
 40
3.0
 40
3.0
 40
4.0
 40
4.0
 40
4.0
 40
5.0
 40
5.0
 40
5.0
 40
5.0
 10
122.1778998175458
 20
-158.0472004813215
 10
122.1313910284949
 20
-157.8694335542826
 10
122.0342393358109
 20
-157.7274956202904
 10
121.8947129686583
 20
-157.6175970743109
 10
121.8947129686583
 20
-157.6175970743109
 10
122.0552544182709
 20
-157.5032199042006
 10
122.0552544182709
 20
-157.5032199042006
 10
122.1165771179084
 20
-157.5455945786692
 10
122.1568847350858
 20
-157.5793565144246
 10
122.2330213453098
 20
-157.6875325126614
 10
122.3132920701161
 20
-157.8036322305144
 10
122.3346516621247
 20
-157.8566867009872
 10
122.359800859167
 20
-157.922143515207
 10
122.359800859167
 20
-157.922143515207
 10
122.1778998175458
 20
-158.0472004813215
 10
122.1778998175458
 20
-158.0472004813215
 97
        0
 97
        0
 75
     2
 76
     1
 98
        0
  0
ENDBLK
  5
1CA
330
1C7
100
AcDbEntity
  8
0
100
AcDbBlockEnd
  0
ENDSEC
  0
SECTION
  2
ENTITIES
  0
SPLINE
  5
41
330
1F
100
AcDbEntity
  8
_U+30EC_U+30A4_U+30E4_U+30FC 1
 62
   179
420
  2234388
370
     9
100
AcDbSpline
210
0.0
220
0.0
230
1.0
 70
    11
 71
     3
 72
    17
 73
    13
 74
     0
 42
0.0000000001
 43
0.0000000001
 12
1.0
 22
0.0
 32
0.0
 13
1.0
 23
0.0
 33
0.0
 40
0.0
 40
0.0
 40
0.0
 40
0.0
 40
1.0
 40
1.0
 40
1.0
 40
2.0
 40
2.0
 40
2.0
 40
3.0
 40
3.0
 40
3.0
 40
4.0
 40
4.0
 40
4.0
 40
4.0
 10
95.71058771071863
 20
-165.8003017434892
 30
0.0
 10
95.71058771071863
 20
-165.855337143866
 30
0.0
 10
95.75538471795026
 20
-165.9001449170211
 30
0.0
 10
95.81042011832713
 20
-165.9001449170211
 30
0.0
 10
95.865455518704
 20
-165.9001449170211
 30
0.0
 10
95.91025252593563
 20
-165.855337143866
 30
0.0
 10
95.91025252593563
 20
-165.8003017434892
 30
0.0
 10
95.91025252593563
 20
-165.7452878749591
 30
0.0
 10
95.865455518704
 20
-165.7004801018041
 30
0.0
 10
95.81042011832713
 20
-165.7004801018041
 30
0.0
 10
95.75538471795026
 20
-165.7004801018041
 30
0.0
 10
95.71058771071863
 20
-165.7452878749591
 30
0.0
 10
95.71058771071863
 20
-165.8003017434892
 30
0.0
  0
SPLINE
  5
42
330
1F
100
AcDbEntity
  8
_U+30EC_U+30A4_U+30E4_U+30FC 1
 62
   179
420
  2234388
370
     9
100
AcDbSpline
210
0.0
220
0.0
230
1.0
 70
    11
 71
     3
 72
    17
 73
    13
 74
     0
 42
0.0000000001
 43
0.0000000001
 12
1.0
 22
0.0
 32
0.0
 13
1.0
 23
0.0
 33
0.0
 40
0.0
 40
0.0
 40
0.0
 40
0.0
 40
1.0
 40
1.0
 40
1.0
 40
2.0
 40
2.0
 40
2.0
 40
3.0
 40
3.0
 40
3.0
 40
4.0
 40
4.0
 40
4.0
 40
4.0
 10
89.71057711583734
 20
-165.8003017434892
 30
0.0
 10
89.71057711583734
 20
-165.855337143866
 30
0.0
 10
89.75537412306929
 20
-165.9001449170211
 30
0.0
 10
89.81040952344615
 20
-165.9001449170211
 30
0.0
 10
89.86614470884315
 20
-165.9001449170211
 30
0.0
 10
89.91095248199818
 20
-165.855337143866
 30
0.0
 10
89.91095248199818
 20
-165.8003017434892
 30
0.0
 10
89.91095248199818
 20
-165.7452878749591
 30
0.0
 10
89.86614470884315
 20
-165.7004801018041
 30
0.0
 10
89.81040952344615
 20
-165.7004801018041
 30
0.0
 10
89.75537412306929
 20
-165.7004801018041
 30
0.0
 10
89.71057711583734
 20
-165.7452878749591
 30
0.0
 10
89.71057711583734
 20
-165.8003017434892
 30
0.0
  0
POLYLINE
  5
43
330
1F
100
AcDbEntity
  8
_U+30EC_U+30A4_U+30E4_U+30FC 1
 62
   179
420
  2234388
370
     9
100
AcDb2dPolyline
 66
     1
 10
0.0
 20
0.0
 30
0.0
  0
VERTEX
  5
44
330
43
100
AcDbEntity
  8
_U+30EC_U+30A4_U+30E4_U+30FC 1
 62
   179
420
  2234388
370
     9
100
AcDbVertex
100
AcDb2dVertex
 10
89.81051718267976
 20
-164.8003627788954
 30
0.0
  0
VERTEX
  5
45
330
43
100
AcDbEntity
  8
_U+30EC_U+30A4_U+30E4_U+30FC 1
 62
   179
420
  2234388
370
     9
100
AcDbVertex
100
AcDb2dVertex
 10
89.81051718267976
 20
-166.8002622399297
 30
0.0
  0
SEQEND
  5
46
330
43
100
AcDbEntity
  8
_U+30EC_U+30A4_U+30E4_U+30FC 1
 62
   179
420
  2234388
370
     9
  0
POLYLINE
  5
47
330
1F
100
AcDbEntity
  8
_U+30EC_U+30A4_U+30E4_U+30FC 1
 62
   179
420
  2234388
370
     9
100
AcDb2dPolyline
 66
     1
 10
0.0
 20
0.0
 30
0.0
  0
VERTEX
  5
48
330
47
100
AcDbEntity
  8
_U+30EC_U+30A4_U+30E4_U+30FC 1
 62
   179
420
  2234388
370
     9
100
AcDbVertex
100
AcDb2dVertex
 10
89.81051718267976
 20
-165.8003017434892
 30
0.0
  0
VERTEX
  5
49
330
47
100
AcDbEntity
  8
_U+30EC_U+30A4_U+30E4_U+30FC 1
 62
   179
420
  2234388
370
     9
100
AcDbVertex
100
AcDb2dVertex
 10
95.81056007533154
 20
-165.8003017434892
 30
0.0
  0
SEQEND
  5
4A
330
47
100
AcDbEntity
  8
_U+30EC_U+30A4_U+30E4_U+30FC 1
 62
   179
420
  2234388
370
     9
  0
POLYLINE
  5
4B
330
1F
100
AcDbEntity
  8
_U+30EC_U+30A4_U+30E4_U+30FC 1
 62
   179
420
  2234388
370
     9
100
AcDb2dPolyline
 66
     1
 10
0.0
 20
0.0
 30
0.0
  0
VERTEX
  5
4C
330
4B
100
AcDbEntity
  8
_U+30EC_U+30A4_U+30E4_U+30FC 1
 62
   179
420
  2234388
370
     9
100
AcDbVertex
100
AcDb2dVertex
 10
95.81049547979087
 20
-148.1445103592855
 30
0.0
  0
VERTEX
  5
4D
330
4B
100
AcDbEntity
  8
_U+30EC_U+30A4_U+30E4_U+30FC 1
 62
   179
420
  2234388
370
     9
100
AcDbVertex
100
AcDb2dVertex
 10
95.81049547979087
 20
-166.8004775583975
 30
0.0
  0
SEQEND
  5
4E
330
4B
100
AcDbEntity
  8
_U+30EC_U+30A4_U+30E4_U+30FC 1
 62
   179
420
  2234388
370
     9
  0
INSERT
  5
50
330
1F
100
AcDbEntity
  8
_U+30EC_U+30A4_U+30E4_U+30FC 1
100
AcDbBlockReference
  2
block 2
 10
0.0
 20
0.0
 30
0.0
  0
POLYLINE
  5
56
330
1F
100
AcDbEntity
  8
_U+30EC_U+30A4_U+30E4_U+30FC 1
 62
   179
420
  2234388
370
    25
100
AcDb2dPolyline
 66
     1
 10
0.0
 20
0.0
 30
0.0
  0
VERTEX
  5
57
330
56
100
AcDbEntity
  8
_U+30EC_U+30A4_U+30E4_U+30FC 1
 62
   179
420
  2234388
370
    25
100
AcDbVertex
100
AcDb2dVertex
 10
90.0082548976097
 20
-138.7501225442513
 30
0.0
  0
VERTEX
  5
58
330
56
100
AcDbEntity
  8
_U+30EC_U+30A4_U+30E4_U+30FC 1
 62
   179
420
  2234388
370
    25
100
AcDbVertex
100
AcDb2dVertex
 10
89.79552025139553
 20
-139.2341369280821
 30
0.0
  0
VERTEX
  5
59
330
56
100
AcDbEntity
  8
_U+30EC_U+30A4_U+30E4_U+30FC 1
 62
   179
420
  2234388
370
    25
100
AcDbVertex
100
AcDb2dVertex
 10
89.98284731840599
 20
-139.7287449805301
 30
0.0
  0
VERTEX
  5
5A
330
56
100
AcDbEntity
  8
_U+30EC_U+30A4_U+30E4_U+30FC 1
 62
   179
420
  2234388
370
    25
100
AcDbVertex
100
AcDb2dVertex
 10
89.77047871358711
 20
-140.2131038739097
 30
0.0
  0
VERTEX
  5
5B
330
56
100
AcDbEntity
  8
_U+30EC_U+30A4_U+30E4_U+30FC 1
 62
   179
420
  2234388
370
    25
100
AcDbVertex
100
AcDb2dVertex
 10
89.95745050512566
 20
-140.7084009454544
 30
0.0
  0
VERTEX
  5
5C
330
56
100
AcDbEntity
  8
_U+30EC_U+30A4_U+30E4_U+30FC 1
 62
   179
420
  2234388
370
    25
100
AcDbVertex
100
AcDb2dVertex
 10
89.74472662483487
 20
-141.1927598388338
 30
0.0
  0
VERTEX
  5
5D
330
56
100
AcDbEntity
  8
_U+30EC_U+30A4_U+30E4_U+30FC 1
 62
   179
420
  2234388
370
    25
100
AcDbVertex
100
AcDb2dVertex
 10
89.93205369184533
 20
-141.6877124008302
 30
0.0
  0
VERTEX
  5
5E
330
56
100
AcDbEntity
  8
_U+30EC_U+30A4_U+30E4_U+30FC 1
 62
   179
420
  2234388
370
    25
100
AcDbVertex
100
AcDb2dVertex
 10
89.71932981155454
 20
-142.1717267846614
 30
0.0
  0
VERTEX
  5
5F
330
56
100
AcDbEntity
  8
_U+30EC_U+30A4_U+30E4_U+30FC 1
 62
   179
420
  2234388
370
    25
100
AcDbVertex
100
AcDb2dVertex
 10
89.90664611264161
 20
-142.6663133052622
 30
0.0
  0
VERTEX
  5
60
330
56
100
AcDbEntity
  8
_U+30EC_U+30A4_U+30E4_U+30FC 1
 62
   179
420
  2234388
370
    25
100
AcDbVertex
100
AcDb2dVertex
 10
89.69392223235083
 20
-143.1503276890931
 30
0.0
  0
VERTEX
  5
61
330
56
100
AcDbEntity
  8
_U+30EC_U+30A4_U+30E4_U+30FC 1
 62
   179
420
  2234388
370
    25
100
AcDbVertex
100
AcDb2dVertex
 10
89.88124929936129
 20
-143.6452802510899
 30
0.0
  0
VERTEX
  5
62
330
56
100
AcDbEntity
  8
_U+30EC_U+30A4_U+30E4_U+30FC 1
 62
   179
420
  2234388
370
    25
100
AcDbVertex
100
AcDb2dVertex
 10
89.6685254190705
 20
-144.1299836540174
 30
0.0
  0
VERTEX
  5
63
330
56
100
AcDbEntity
  8
_U+30EC_U+30A4_U+30E4_U+30FC 1
 62
   179
420
  2234388
370
    25
100
AcDbVertex
100
AcDb2dVertex
 10
89.85549721060904
 20
-144.6249362160139
 30
0.0
  0
VERTEX
  5
64
330
56
100
AcDbEntity
  8
_U+30EC_U+30A4_U+30E4_U+30FC 1
 62
   179
420
  2234388
370
    25
100
AcDbVertex
100
AcDb2dVertex
 10
89.64312860579018
 20
-145.1096611507886
 30
0.0
  0
VERTEX
  5
65
330
56
100
AcDbEntity
  8
_U+30EC_U+30A4_U+30E4_U+30FC 1
 62
   179
420
  2234388
370
    25
100
AcDbVertex
100
AcDb2dVertex
 10
89.83044490687725
 20
-145.6042476713901
 30
0.0
  0
VERTEX
  5
66
330
56
100
AcDbEntity
  8
_U+30EC_U+30A4_U+30E4_U+30FC 1
 62
   179
420
  2234388
370
    25
100
AcDbVertex
100
AcDb2dVertex
 10
89.61772102658647
 20
-146.0886065647691
 30
0.0
  0
VERTEX
  5
67
330
56
100
AcDbEntity
  8
_U+30EC_U+30A4_U+30E4_U+30FC 1
 62
   179
420
  2234388
370
    25
100
AcDbVertex
100
AcDb2dVertex
 10
89.804692818125
 20
-146.5817935153297
 30
0.0
  0
VERTEX
  5
68
330
56
100
AcDbEntity
  8
_U+30EC_U+30A4_U+30E4_U+30FC 1
 62
   179
420
  2234388
370
    25
100
AcDbVertex
100
AcDb2dVertex
 10
89.59232421330613
 20
-147.0644083291193
 30
0.0
  0
VERTEX
  5
69
330
56
100
AcDbEntity
  8
_U+30EC_U+30A4_U+30E4_U+30FC 1
 62
   179
420
  2234388
370
    25
100
AcDbVertex
100
AcDb2dVertex
 10
89.7796512803166
 20
-147.5572292382843
 30
0.0
  0
VERTEX
  5
6A
330
56
100
AcDbEntity
  8
_U+30EC_U+30A4_U+30E4_U+30FC 1
 62
   179
420
  2234388
370
    25
100
AcDbVertex
100
AcDb2dVertex
 10
89.56728267549772
 20
-148.0405330711716
 30
0.0
  0
VERTEX
  5
6B
330
56
100
AcDbEntity
  8
_U+30EC_U+30A4_U+30E4_U+30FC 1
 62
   179
420
  2234388
370
    25
100
AcDbVertex
100
AcDb2dVertex
 10
89.75425446703659
 20
-148.5344305726754
 30
0.0
  0
VERTEX
  5
6C
330
56
100
AcDbEntity
  8
_U+30EC_U+30A4_U+30E4_U+30FC 1
 62
   179
420
  2234388
370
    25
100
AcDbVertex
100
AcDb2dVertex
 10
89.54151982082242
 20
-149.0191339756033
 30
0.0
  0
VERTEX
  5
6D
330
56
100
AcDbEntity
  8
_U+30EC_U+30A4_U+30E4_U+30FC 1
 62
   179
420
  2234388
370
    25
100
AcDbVertex
100
AcDb2dVertex
 10
89.72884688783287
 20
-149.5147970885436
 30
0.0
  0
VERTEX
  5
6E
330
56
100
AcDbEntity
  8
_U+30EC_U+30A4_U+30E4_U+30FC 1
 62
   179
420
  2234388
370
    25
100
AcDbVertex
100
AcDb2dVertex
 10
89.51612300754176
 20
-149.9995004914715
 30
0.0
  0
VERTEX
  5
6F
330
56
100
AcDbEntity
  8
_U+30EC_U+30A4_U+30E4_U+30FC 1
 62
   179
420
  2234388
370
    25
100
AcDbVertex
100
AcDb2dVertex
 10
89.70309479908063
 20
-150.4937425025241
 30
0.0
  0
VERTEX
  5
70
330
56
100
AcDbEntity
  8
_U+30EC_U+30A4_U+30E4_U+30FC 1
 62
   179
420
  2234388
370
    25
100
AcDbVertex
100
AcDb2dVertex
 10
89.49072619426144
 20
-150.9774123768064
 30
0.0
  0
VERTEX
  5
71
330
56
100
AcDbEntity
  8
_U+30EC_U+30A4_U+30E4_U+30FC 1
 62
   179
420
  2234388
370
    25
100
AcDbVertex
100
AcDb2dVertex
 10
89.67769798579998
 20
-151.4716543878591
 30
0.0
  0
VERTEX
  5
72
330
56
100
AcDbEntity
  8
_U+30EC_U+30A4_U+30E4_U+30FC 1
 62
   179
420
  2234388
370
    25
100
AcDbVertex
100
AcDb2dVertex
 10
89.46532938098112
 20
-151.9563793226338
 30
0.0
  0
VERTEX
  5
73
330
56
100
AcDbEntity
  8
_U+30EC_U+30A4_U+30E4_U+30FC 1
 62
   179
420
  2234388
370
    25
100
AcDbVertex
100
AcDb2dVertex
 10
89.65230117251966
 20
-152.4516763941787
 30
0.0
  0
VERTEX
  5
74
330
56
100
AcDbEntity
  8
_U+30EC_U+30A4_U+30E4_U+30FC 1
 62
   179
420
  2234388
370
    25
100
AcDbVertex
100
AcDb2dVertex
 10
89.43992180177739
 20
-152.937434857599
 30
0.0
  0
VERTEX
  5
75
330
56
100
AcDbEntity
  8
_U+30EC_U+30A4_U+30E4_U+30FC 1
 62
   179
420
  2234388
370
    25
100
AcDbVertex
100
AcDb2dVertex
 10
89.62689359331594
 20
-153.4309878495546
 30
0.0
  0
VERTEX
  5
76
330
56
100
AcDbEntity
  8
_U+30EC_U+30A4_U+30E4_U+30FC 1
 62
   179
420
  2234388
370
    25
100
AcDbVertex
100
AcDb2dVertex
 10
89.41452498849706
 20
-153.9153467429339
 30
0.0
  0
VERTEX
  5
77
330
56
100
AcDbEntity
  8
_U+30EC_U+30A4_U+30E4_U+30FC 1
 62
   179
420
  2234388
370
    25
100
AcDbVertex
100
AcDb2dVertex
 10
89.60149678003562
 20
-154.4102993049304
 30
0.0
  0
VERTEX
  5
78
330
56
100
AcDbEntity
  8
_U+30EC_U+30A4_U+30E4_U+30FC 1
 62
   179
420
  2234388
370
    25
100
AcDbVertex
100
AcDb2dVertex
 10
89.38912817521674
 20
-154.8950027078583
 30
0.0
  0
VERTEX
  5
79
330
56
100
AcDbEntity
  8
_U+30EC_U+30A4_U+30E4_U+30FC 1
 62
   179
420
  2234388
370
    25
100
AcDbVertex
100
AcDb2dVertex
 10
89.57609996675528
 20
-155.3906658207986
 30
0.0
  0
VERTEX
  5
7A
330
56
100
AcDbEntity
  8
_U+30EC_U+30A4_U+30E4_U+30FC 1
 62
   179
420
  2234388
370
    25
100
AcDbVertex
100
AcDb2dVertex
 10
89.3633760864645
 20
-155.8746802046294
 30
0.0
  0
VERTEX
  5
7B
330
56
100
AcDbEntity
  8
_U+30EC_U+30A4_U+30E4_U+30FC 1
 62
   179
420
  2234388
370
    25
100
AcDbVertex
100
AcDb2dVertex
 10
89.55069238755156
 20
-156.370321785723
 30
0.0
  0
VERTEX
  5
7C
330
56
100
AcDbEntity
  8
_U+30EC_U+30A4_U+30E4_U+30FC 1
 62
   179
420
  2234388
370
    25
100
AcDbVertex
100
AcDb2dVertex
 10
89.3383237827327
 20
-156.8546806791023
 30
0.0
  0
VERTEX
  5
7D
330
56
100
AcDbEntity
  8
_U+30EC_U+30A4_U+30E4_U+30FC 1
 62
   179
420
  2234388
370
    25
100
AcDbVertex
100
AcDb2dVertex
 10
89.52494029879932
 20
-157.3517433620835
 30
0.0
  0
VERTEX
  5
7E
330
56
100
AcDbEntity
  8
_U+30EC_U+30A4_U+30E4_U+30FC 1
 62
   179
420
  2234388
370
    25
100
AcDbVertex
100
AcDb2dVertex
 10
89.31257169398046
 20
-157.8382339082943
 30
0.0
  0
VERTEX
  5
7F
330
56
100
AcDbEntity
  8
_U+30EC_U+30A4_U+30E4_U+30FC 1
 62
   179
420
  2234388
370
    25
100
AcDbVertex
100
AcDb2dVertex
 10
89.499543485519
 20
-158.3352965912756
 30
0.0
  0
VERTEX
  5
80
330
56
100
AcDbEntity
  8
_U+30EC_U+30A4_U+30E4_U+30FC 1
 62
   179
420
  2234388
370
    25
100
AcDbVertex
100
AcDb2dVertex
 10
89.28717488070014
 20
-158.8217871374864
 30
0.0
  0
VERTEX
  5
81
330
56
100
AcDbEntity
  8
_U+30EC_U+30A4_U+30E4_U+30FC 1
 62
   179
420
  2234388
370
    25
100
AcDbVertex
100
AcDb2dVertex
 10
89.47414667223867
 20
-159.3184837790723
 30
0.0
  0
VERTEX
  5
82
330
56
100
AcDbEntity
  8
_U+30EC_U+30A4_U+30E4_U+30FC 1
 62
   179
420
  2234388
370
    25
100
AcDbVertex
100
AcDb2dVertex
 10
89.26142279194788
 20
-159.805684876227
 30
0.0
  0
VERTEX
  5
83
330
56
100
AcDbEntity
  8
_U+30EC_U+30A4_U+30E4_U+30FC 1
 62
   179
420
  2234388
370
    25
100
AcDbVertex
100
AcDb2dVertex
 10
89.44839458348643
 20
-160.3030920687567
 30
0.0
  0
VERTEX
  5
84
330
56
100
AcDbEntity
  8
_U+30EC_U+30A4_U+30E4_U+30FC 1
 62
   179
420
  2234388
370
    25
100
AcDbVertex
100
AcDb2dVertex
 10
89.23601521274416
 20
-160.7906376754599
 30
0.0
  0
VERTEX
  5
85
330
56
100
AcDbEntity
  8
_U+30EC_U+30A4_U+30E4_U+30FC 1
 62
   179
420
  2234388
370
    25
100
AcDbVertex
100
AcDb2dVertex
 10
89.42298700428272
 20
-161.2883893775382
 30
0.0
  0
VERTEX
  5
86
330
56
100
AcDbEntity
  8
_U+30EC_U+30A4_U+30E4_U+30FC 1
 62
   179
420
  2234388
370
    25
100
AcDbVertex
100
AcDb2dVertex
 10
89.21026312399192
 20
-161.7745354142005
 30
0.0
  0
VERTEX
  5
87
330
56
100
AcDbEntity
  8
_U+30EC_U+30A4_U+30E4_U+30FC 1
 62
   179
420
  2234388
370
    25
100
AcDbVertex
100
AcDb2dVertex
 10
89.39759019100238
 20
-162.2712320557864
 30
0.0
  0
VERTEX
  5
88
330
56
100
AcDbEntity
  8
_U+30EC_U+30A4_U+30E4_U+30FC 1
 62
   179
420
  2234388
370
    25
100
AcDbVertex
100
AcDb2dVertex
 10
89.18486631071193
 20
-162.7566675415048
 30
0.0
  0
VERTEX
  5
89
330
56
100
AcDbEntity
  8
_U+30EC_U+30A4_U+30E4_U+30FC 1
 62
   179
420
  2234388
370
    25
100
AcDbVertex
100
AcDb2dVertex
 10
89.37183810225014
 20
-163.2519646130499
 30
0.0
  0
VERTEX
  5
8A
330
56
100
AcDbEntity
  8
_U+30EC_U+30A4_U+30E4_U+30FC 1
 62
   179
420
  2234388
370
    25
100
AcDbVertex
100
AcDb2dVertex
 10
89.15946949743127
 20
-163.7363235064292
 30
0.0
  0
SEQEND
  5
8B
330
56
100
AcDbEntity
  8
_U+30EC_U+30A4_U+30E4_U+30FC 1
 62
   179
420
  2234388
370
    25
  0
POLYLINE
  5
8C
330
1F
100
AcDbEntity
  8
_U+30EC_U+30A4_U+30E4_U+30FC 1
 62
   179
420
  2234388
370
    25
100
AcDb2dPolyline
 66
     1
 10
0.0
 20
0.0
 30
0.0
  0
VERTEX
  5
8D
330
8C
100
AcDbEntity
  8
_U+30EC_U+30A4_U+30E4_U+30FC 1
 62
   179
420
  2234388
370
    25
100
AcDbVertex
100
AcDb2dVertex
 10
89.25930190503978
 20
-163.7389288598899
 30
0.0
  0
VERTEX
  5
8E
330
8C
100
AcDbEntity
  8
_U+30EC_U+30A4_U+30E4_U+30FC 1
 62
   179
420
  2234388
370
    25
100
AcDbVertex
100
AcDb2dVertex
 10
88.85889568226662
 20
-163.7283567231196
 30
0.0
  0
SEQEND
  5
8F
330
8C
100
AcDbEntity
  8
_U+30EC_U+30A4_U+30E4_U+30FC 1
 62
   179
420
  2234388
370
    25
  0
POLYLINE
  5
90
330
1F
100
AcDbEntity
  8
_U+30EC_U+30A4_U+30E4_U+30FC 1
 62
   179
420
  2234388
370
    25
100
AcDb2dPolyline
 66
     1
 10
0.0
 20
0.0
 30
0.0
  0
VERTEX
  5
91
330
90
100
AcDbEntity
  8
_U+30EC_U+30A4_U+30E4_U+30FC 1
 62
   179
420
  2234388
370
    25
100
AcDbVertex
100
AcDb2dVertex
 10
88.85897104373036
 20
-163.7282275320389
 30
0.0
  0
VERTEX
  5
92
330
90
100
AcDbEntity
  8
_U+30EC_U+30A4_U+30E4_U+30FC 1
 62
   179
420
  2234388
370
    25
100
AcDbVertex
100
AcDb2dVertex
 10
88.91365116863562
 20
-137.728156500399
 30
0.0
  0
SEQEND
  5
93
330
90
100
AcDbEntity
  8
_U+30EC_U+30A4_U+30E4_U+30FC 1
 62
   179
420
  2234388
370
    25
  0
POLYLINE
  5
94
330
1F
100
AcDbEntity
  8
_U+30EC_U+30A4_U+30E4_U+30FC 1
 62
   179
420
  2234388
370
    25
100
AcDb2dPolyline
 66
     1
 10
0.0
 20
0.0
 30
0.0
  0
VERTEX
  5
95
330
94
100
AcDbEntity
  8
_U+30EC_U+30A4_U+30E4_U+30FC 1
 62
   179
420
  2234388
370
    25
100
AcDbVertex
100
AcDb2dVertex
 10
95.9307185463027
 20
-144.8873878964496
 30
0.0
  0
VERTEX
  5
96
330
94
100
AcDbEntity
  8
_U+30EC_U+30A4_U+30E4_U+30FC 1
 62
   179
420
  2234388
370
    25
100
AcDbVertex
100
AcDb2dVertex
 10
96.46376094525797
 20
-145.0743704539115
 30
0.0
  0
VERTEX
  5
97
330
94
100
AcDbEntity
  8
_U+30EC_U+30A4_U+30E4_U+30FC 1
 62
   179
420
  2234388
370
    25
100
AcDbVertex
100
AcDb2dVertex
 10
96.98763077748379
 20
-144.862001849093
 30
0.0
  0
VERTEX
  5
98
330
94
100
AcDbEntity
  8
_U+30EC_U+30A4_U+30E4_U+30FC 1
 62
   179
420
  2234388
370
    25
100
AcDbVertex
100
AcDb2dVertex
 10
97.52103921783437
 20
-145.0489628747078
 30
0.0
  0
VERTEX
  5
99
330
94
100
AcDbEntity
  8
_U+30EC_U+30A4_U+30E4_U+30FC 1
 62
   179
420
  2234388
370
    25
100
AcDbVertex
100
AcDb2dVertex
 10
98.045619601004
 20
-144.8362497603407
 30
0.0
  0
VERTEX
  5
9A
330
94
100
AcDbEntity
  8
_U+30EC_U+30A4_U+30E4_U+30FC 1
 62
   179
420
  2234388
370
    25
100
AcDbVertex
100
AcDb2dVertex
 10
98.5790172754312
 20
-145.0235768273512
 30
0.0
  0
VERTEX
  5
9B
330
94
100
AcDbEntity
  8
_U+30EC_U+30A4_U+30E4_U+30FC 1
 62
   179
420
  2234388
370
    25
100
AcDbVertex
100
AcDb2dVertex
 10
99.10254259810849
 20
-144.811208222532
 30
0.0
  0
VERTEX
  5
9C
330
94
100
AcDbEntity
  8
_U+30EC_U+30A4_U+30E4_U+30FC 1
 62
   179
420
  2234388
370
    25
100
AcDbVertex
100
AcDb2dVertex
 10
99.63594027253568
 20
-144.9981692481475
 30
0.0
  0
VERTEX
  5
9D
330
94
100
AcDbEntity
  8
_U+30EC_U+30A4_U+30E4_U+30FC 1
 62
   179
420
  2234388
370
    25
100
AcDbVertex
100
AcDb2dVertex
 10
100.159110319741
 20
-144.7858006433283
 30
0.0
  0
VERTEX
  5
9E
330
94
100
AcDbEntity
  8
_U+30EC_U+30A4_U+30E4_U+30FC 1
 62
   179
420
  2234388
370
    25
100
AcDbVertex
100
AcDb2dVertex
 10
100.6917974432244
 20
-144.9727616689438
 30
0.0
  0
VERTEX
  5
9F
330
94
100
AcDbEntity
  8
_U+30EC_U+30A4_U+30E4_U+30FC 1
 62
   179
420
  2234388
370
    25
100
AcDbVertex
100
AcDb2dVertex
 10
101.2149674904301
 20
-144.7603930641246
 30
0.0
  0
VERTEX
  5
A0
330
94
100
AcDbEntity
  8
_U+30EC_U+30A4_U+30E4_U+30FC 1
 62
   179
420
  2234388
370
    25
100
AcDbVertex
100
AcDb2dVertex
 10
101.7480206553084
 20
-144.9473756215865
 30
0.0
  0
VERTEX
  5
A1
330
94
100
AcDbEntity
  8
_U+30EC_U+30A4_U+30E4_U+30FC 1
 62
   179
420
  2234388
370
    25
100
AcDbVertex
100
AcDb2dVertex
 10
102.2715459779857
 20
-144.7350070167676
 30
0.0
  0
VERTEX
  5
A2
330
94
100
AcDbEntity
  8
_U+30EC_U+30A4_U+30E4_U+30FC 1
 62
   179
420
  2234388
370
    25
100
AcDbVertex
100
AcDb2dVertex
 10
102.804588376941
 20
-144.9219680423828
 30
0.0
  0
VERTEX
  5
A3
330
94
100
AcDbEntity
  8
_U+30EC_U+30A4_U+30E4_U+30FC 1
 62
   179
420
  2234388
370
    25
100
AcDbVertex
100
AcDb2dVertex
 10
103.3284582091668
 20
-144.7095994375639
 30
0.0
  0
VERTEX
  5
A4
330
94
100
AcDbEntity
  8
_U+30EC_U+30A4_U+30E4_U+30FC 1
 62
   179
420
  2234388
370
    25
100
AcDbVertex
100
AcDb2dVertex
 10
103.8622111590659
 20
-144.8965604631791
 30
0.0
  0
VERTEX
  5
A5
330
94
100
AcDbEntity
  8
_U+30EC_U+30A4_U+30E4_U+30FC 1
 62
   179
420
  2234388
370
    25
100
AcDbVertex
100
AcDb2dVertex
 10
104.386447032687
 20
-144.6841918583602
 30
0.0
  0
VERTEX
  5
A6
330
94
100
AcDbEntity
  8
_U+30EC_U+30A4_U+30E4_U+30FC 1
 62
   179
420
  2234388
370
    25
100
AcDbVertex
100
AcDb2dVertex
 10
104.9191341561707
 20
-144.8711744158221
 30
0.0
  0
VERTEX
  5
A7
330
94
100
AcDbEntity
  8
_U+30EC_U+30A4_U+30E4_U+30FC 1
 62
   179
420
  2234388
370
    25
100
AcDbVertex
100
AcDb2dVertex
 10
105.4419596938272
 20
-144.6588058110033
 30
0.0
  0
VERTEX
  5
A8
330
94
100
AcDbEntity
  8
_U+30EC_U+30A4_U+30E4_U+30FC 1
 62
   179
420
  2234388
370
    25
100
AcDbVertex
100
AcDb2dVertex
 10
105.9753573682544
 20
-144.8457668366184
 30
0.0
  0
VERTEX
  5
A9
330
94
100
AcDbEntity
  8
_U+30EC_U+30A4_U+30E4_U+30FC 1
 62
   179
420
  2234388
370
    25
100
AcDbVertex
100
AcDb2dVertex
 10
106.4992272004802
 20
-144.6333982317996
 30
0.0
  0
VERTEX
  5
AA
330
94
100
AcDbEntity
  8
_U+30EC_U+30A4_U+30E4_U+30FC 1
 62
   179
420
  2234388
370
    25
100
AcDbVertex
100
AcDb2dVertex
 10
107.0329801503793
 20
-144.8203807892615
 30
0.0
  0
VERTEX
  5
AB
330
94
100
AcDbEntity
  8
_U+30EC_U+30A4_U+30E4_U+30FC 1
 62
   179
420
  2234388
370
    25
100
AcDbVertex
100
AcDb2dVertex
 10
107.557560533549
 20
-144.6079906525958
 30
0.0
  0
VERTEX
  5
AC
330
94
100
AcDbEntity
  8
_U+30EC_U+30A4_U+30E4_U+30FC 1
 62
   179
420
  2234388
370
    25
100
AcDbVertex
100
AcDb2dVertex
 10
108.09166875892
 20
-144.7949732100578
 30
0.0
  0
VERTEX
  5
AD
330
94
100
AcDbEntity
  8
_U+30EC_U+30A4_U+30E4_U+30FC 1
 62
   179
420
  2234388
370
    25
100
AcDbVertex
100
AcDb2dVertex
 10
108.6148388061254
 20
-144.5826046052392
 30
0.0
  0
VERTEX
  5
AE
330
94
100
AcDbEntity
  8
_U+30EC_U+30A4_U+30E4_U+30FC 1
 62
   179
420
  2234388
370
    25
100
AcDbVertex
100
AcDb2dVertex
 10
109.1482364805526
 20
-144.7695656308541
 30
0.0
  0
VERTEX
  5
AF
330
94
100
AcDbEntity
  8
_U+30EC_U+30A4_U+30E4_U+30FC 1
 62
   179
420
  2234388
370
    25
100
AcDbVertex
100
AcDb2dVertex
 10
109.673527414666
 20
-144.556852516487
 30
0.0
  0
VERTEX
  5
B0
330
94
100
AcDbEntity
  8
_U+30EC_U+30A4_U+30E4_U+30FC 1
 62
   179
420
  2234388
370
    25
100
AcDbVertex
100
AcDb2dVertex
 10
110.2083354250575
 20
-144.7441795834974
 30
0.0
  0
VERTEX
  5
B1
330
94
100
AcDbEntity
  8
_U+30EC_U+30A4_U+30E4_U+30FC 1
 62
   179
420
  2234388
370
    25
100
AcDbVertex
100
AcDb2dVertex
 10
110.733626359171
 20
-144.5314449372833
 30
0.0
  0
VERTEX
  5
B2
330
94
100
AcDbEntity
  8
_U+30EC_U+30A4_U+30E4_U+30FC 1
 62
   179
420
  2234388
370
    25
100
AcDbVertex
100
AcDb2dVertex
 10
111.2694894300548
 20
-144.7184274947452
 30
0.0
  0
VERTEX
  5
B3
330
94
100
AcDbEntity
  8
_U+30EC_U+30A4_U+30E4_U+30FC 1
 62
   179
420
  2234388
370
    25
100
AcDbVertex
100
AcDb2dVertex
 10
111.7961907001326
 20
-144.505692848531
 30
0.0
  0
VERTEX
  5
B4
330
94
100
AcDbEntity
  8
_U+30EC_U+30A4_U+30E4_U+30FC 1
 62
   179
420
  2234388
370
    25
100
AcDbVertex
100
AcDb2dVertex
 10
112.3324090464883
 20
-144.6930199155415
 30
0.0
  0
VERTEX
  5
B5
330
94
100
AcDbEntity
  8
_U+30EC_U+30A4_U+30E4_U+30FC 1
 62
   179
420
  2234388
370
    25
100
AcDbVertex
100
AcDb2dVertex
 10
112.859465592038
 20
-144.4802852693273
 30
0.0
  0
VERTEX
  5
B6
330
94
100
AcDbEntity
  8
_U+30EC_U+30A4_U+30E4_U+30FC 1
 62
   179
420
  2234388
370
    25
100
AcDbVertex
100
AcDb2dVertex
 10
113.3960392138656
 20
-144.6672678267892
 30
0.0
  0
VERTEX
  5
B7
330
94
100
AcDbEntity
  8
_U+30EC_U+30A4_U+30E4_U+30FC 1
 62
   179
420
  2234388
370
    25
100
AcDbVertex
100
AcDb2dVertex
 10
113.9230849934919
 20
-144.4545331805751
 30
0.0
  0
VERTEX
  5
B8
330
94
100
AcDbEntity
  8
_U+30EC_U+30A4_U+30E4_U+30FC 1
 62
   179
420
  2234388
370
    25
100
AcDbVertex
100
AcDb2dVertex
 10
114.4578930038834
 20
-144.6418602475855
 30
0.0
  0
VERTEX
  5
B9
330
94
100
AcDbEntity
  8
_U+30EC_U+30A4_U+30E4_U+30FC 1
 62
   179
420
  2234388
370
    25
100
AcDbVertex
100
AcDb2dVertex
 10
114.9828286625249
 20
-144.4294916427663
 30
0.0
  0
VERTEX
  5
BA
330
94
100
AcDbEntity
  8
_U+30EC_U+30A4_U+30E4_U+30FC 1
 62
   179
420
  2234388
370
    25
100
AcDbVertex
100
AcDb2dVertex
 10
115.5176366729164
 20
-144.6164742002283
 30
0.0
  0
VERTEX
  5
BB
330
94
100
AcDbEntity
  8
_U+30EC_U+30A4_U+30E4_U+30FC 1
 62
   179
420
  2234388
370
    25
100
AcDbVertex
100
AcDb2dVertex
 10
116.0425723315579
 20
-144.4037395540141
 30
0.0
  0
VERTEX
  5
BC
330
94
100
AcDbEntity
  8
_U+30EC_U+30A4_U+30E4_U+30FC 1
 62
   179
420
  2234388
370
    25
100
AcDbVertex
100
AcDb2dVertex
 10
116.5773911078728
 20
-144.590722111476
 30
0.0
  0
VERTEX
  5
BD
330
94
100
AcDbEntity
  8
_U+30EC_U+30A4_U+30E4_U+30FC 1
 62
   179
420
  2234388
370
    25
100
AcDbVertex
100
AcDb2dVertex
 10
117.102316000591
 20
-144.3783319748104
 30
0.0
  0
VERTEX
  5
BE
330
94
100
AcDbEntity
  8
_U+30EC_U+30A4_U+30E4_U+30FC 1
 62
   179
420
  2234388
370
    25
100
AcDbVertex
100
AcDb2dVertex
 10
117.6371347769058
 20
-144.5653145322723
 30
0.0
  0
VERTEX
  5
BF
330
94
100
AcDbEntity
  8
_U+30EC_U+30A4_U+30E4_U+30FC 1
 62
   179
420
  2234388
370
    25
100
AcDbVertex
100
AcDb2dVertex
 10
118.1613598846035
 20
-144.3529459274534
 30
0.0
  0
VERTEX
  5
C0
330
94
100
AcDbEntity
  8
_U+30EC_U+30A4_U+30E4_U+30FC 1
 62
   179
420
  2234388
370
    25
100
AcDbVertex
100
AcDb2dVertex
 10
118.6954681099746
 20
-144.5399069530686
 30
0.0
  0
VERTEX
  5
C1
330
94
100
AcDbEntity
  8
_U+30EC_U+30A4_U+30E4_U+30FC 1
 62
   179
420
  2234388
370
    25
100
AcDbVertex
100
AcDb2dVertex
 10
119.2200484931442
 20
-144.3275383482497
 30
0.0
  0
VERTEX
  5
C2
330
94
100
AcDbEntity
  8
_U+30EC_U+30A4_U+30E4_U+30FC 1
 62
   179
420
  2234388
370
    25
100
AcDbVertex
100
AcDb2dVertex
 10
119.755911564028
 20
-144.5145209057117
 30
0.0
  0
VERTEX
  5
C3
330
94
100
AcDbEntity
  8
_U+30EC_U+30A4_U+30E4_U+30FC 1
 62
   179
420
  2234388
370
    25
100
AcDbVertex
100
AcDb2dVertex
 10
120.2815577736134
 20
-144.3017862594975
 30
0.0
  0
VERTEX
  5
C4
330
94
100
AcDbEntity
  8
_U+30EC_U+30A4_U+30E4_U+30FC 1
 62
   179
420
  2234388
370
    25
100
AcDbVertex
100
AcDb2dVertex
 10
120.816010508533
 20
-144.4891133265079
 30
0.0
  0
VERTEX
  5
C5
330
94
100
AcDbEntity
  8
_U+30EC_U+30A4_U+30E4_U+30FC 1
 62
   179
420
  2234388
370
    25
100
AcDbVertex
100
AcDb2dVertex
 10
121.3398911066822
 20
-144.2763786802938
 30
0.0
  0
VERTEX
  5
C6
330
94
100
AcDbEntity
  8
_U+30EC_U+30A4_U+30E4_U+30FC 1
 62
   179
420
  2234388
370
    25
100
AcDbVertex
100
AcDb2dVertex
 10
121.8725782301655
 20
-144.4633612377557
 30
0.0
  0
VERTEX
  5
C7
330
94
100
AcDbEntity
  8
_U+30EC_U+30A4_U+30E4_U+30FC 1
 62
   179
420
  2234388
370
    25
100
AcDbVertex
100
AcDb2dVertex
 10
122.395393001899
 20
-144.2509926329368
 30
0.0
  0
VERTEX
  5
C8
330
94
100
AcDbEntity
  8
_U+30EC_U+30A4_U+30E4_U+30FC 1
 62
   179
420
  2234388
370
    25
100
AcDbVertex
100
AcDb2dVertex
 10
122.9270358308134
 20
-144.4383196999473
 30
0.0
  0
SEQEND
  5
C9
330
94
100
AcDbEntity
  8
_U+30EC_U+30A4_U+30E4_U+30FC 1
 62
   179
420
  2234388
370
    25
  0
POLYLINE
  5
CA
330
1F
100
AcDbEntity
  8
_U+30EC_U+30A4_U+30E4_U+30FC 1
 62
   179
420
  2234388
370
    25
100
AcDb2dPolyline
 66
     1
 10
0.0
 20
0.0
 30
0.0
  0
VERTEX
  5
CB
330
CA
100
AcDbEntity
  8
_U+30EC_U+30A4_U+30E4_U+30FC 1
 62
   179
420
  2234388
370
    25
100
AcDbVertex
100
AcDb2dVertex
 10
122.9246027321269
 20
-144.338218144254
 30
0.0
  0
VERTEX
  5
CC
330
CA
100
AcDbEntity
  8
_U+30EC_U+30A4_U+30E4_U+30FC 1
 62
   179
420
  2234388
370
    25
100
AcDbVertex
100
AcDb2dVertex
 10
122.9143643389817
 20
-143.9378334533276
 30
0.0
  0
SEQEND
  5
CD
330
CA
100
AcDbEntity
  8
_U+30EC_U+30A4_U+30E4_U+30FC 1
 62
   179
420
  2234388
370
    25
  0
POLYLINE
  5
CE
330
1F
100
AcDbEntity
  8
_U+30EC_U+30A4_U+30E4_U+30FC 1
 62
   179
420
  2234388
370
    25
100
AcDb2dPolyline
 66
     1
 10
0.0
 20
0.0
 30
0.0
  0
VERTEX
  5
CF
330
CE
100
AcDbEntity
  8
_U+30EC_U+30A4_U+30E4_U+30FC 1
 62
   179
420
  2234388
370
    25
100
AcDbVertex
100
AcDb2dVertex
 10
122.9142674456712
 20
-143.9379195807147
 30
0.0
  0
VERTEX
  5
D0
330
CE
100
AcDbEntity
  8
_U+30EC_U+30A4_U+30E4_U+30FC 1
 62
   179
420
  2234388
370
    25
100
AcDbVertex
100
AcDb2dVertex
 10
95.95780560955548
 20
-143.9926104715431
 30
0.0
  0
SEQEND
  5
D1
330
CE
100
AcDbEntity
  8
_U+30EC_U+30A4_U+30E4_U+30FC 1
 62
   179
420
  2234388
370
    25
  0
SPLINE
  5
D2
330
1F
100
AcDbEntity
  8
_U+30EC_U+30A4_U+30E4_U+30FC 1
 62
   179
420
  2234388
370
     9
100
AcDbSpline
210
0.0
220
0.0
230
1.0
 70
    11
 71
     3
 72
    17
 73
    13
 74
     0
 42
0.0000000001
 43
0.0000000001
 12
1.0
 22
0.0
 32
0.0
 13
1.0
 23
0.0
 33
0.0
 40
0.0
 40
0.0
 40
0.0
 40
0.0
 40
1.0
 40
1.0
 40
1.0
 40
2.0
 40
2.0
 40
2.0
 40
3.0
 40
3.0
 40
3.0
 40
4.0
 40
4.0
 40
4.0
 40
4.0
 10
96.9135935223214
 20
-133.7287236197254
 30
0.0
 10
96.9135935223214
 20
-133.7837590201023
 30
0.0
 10
96.95839052955273
 20
-133.8285667932576
 30
0.0
 10
97.0134259299296
 20
-133.8285667932576
 30
0.0
 10
97.06846133030646
 20
-133.8285667932576
 30
0.0
 10
97.1132583375381
 20
-133.7837590201023
 30
0.0
 10
97.1132583375381
 20
-133.7287236197254
 30
0.0
 10
97.1132583375381
 20
-133.6737097511956
 30
0.0
 10
97.06846133030646
 20
-133.6289019780403
 30
0.0
 10
97.0134259299296
 20
-133.6289019780403
 30
0.0
 10
96.95839052955273
 20
-133.6289019780403
 30
0.0
 10
96.9135935223214
 20
-133.6737097511956
 30
0.0
 10
96.9135935223214
 20
-133.7287236197254
 30
0.0
  0
SPLINE
  5
D3
330
1F
100
AcDbEntity
  8
_U+30EC_U+30A4_U+30E4_U+30FC 1
 62
   179
420
  2234388
370
     9
100
AcDbSpline
210
0.0
220
0.0
230
1.0
 70
    11
 71
     3
 72
    17
 73
    13
 74
     0
 42
0.0000000001
 43
0.0000000001
 12
1.0
 22
0.0
 32
0.0
 13
1.0
 23
0.0
 33
0.0
 40
0.0
 40
0.0
 40
0.0
 40
0.0
 40
1.0
 40
1.0
 40
1.0
 40
2.0
 40
2.0
 40
2.0
 40
3.0
 40
3.0
 40
3.0
 40
4.0
 40
4.0
 40
4.0
 40
4.0
 10
83.78709070442248
 20
-137.8280212057774
 30
0.0
 10
83.78709070442248
 20
-137.8830566061542
 30
0.0
 10
83.83188771165379
 20
-137.9278643793093
 30
0.0
 10
83.88692311203066
 20
-137.9278643793093
 30
0.0
 10
83.94195851240752
 20
-137.9278643793093
 30
0.0
 10
83.98675551963916
 20
-137.8830566061542
 30
0.0
 10
83.98675551963916
 20
-137.8280212057774
 30
0.0
 10
83.98675551963916
 20
-137.7722967863035
 30
0.0
 10
83.94195851240752
 20
-137.7281995640923
 30
0.0
 10
83.88692311203066
 20
-137.7281995640923
 30
0.0
 10
83.83188771165379
 20
-137.7281995640923
 30
0.0
 10
83.78709070442248
 20
-137.7722967863035
 30
0.0
 10
83.78709070442248
 20
-137.8280212057774
 30
0.0
  0
SPLINE
  5
D4
330
1F
100
AcDbEntity
  8
_U+30EC_U+30A4_U+30E4_U+30FC 1
 62
   179
420
  2234388
370
     9
100
AcDbSpline
210
0.0
220
0.0
230
1.0
 70
    11
 71
     3
 72
    17
 73
    13
 74
     0
 42
0.0000000001
 43
0.0000000001
 12
1.0
 22
0.0
 32
0.0
 13
1.0
 23
0.0
 33
0.0
 40
0.0
 40
0.0
 40
0.0
 40
0.0
 40
1.0
 40
1.0
 40
1.0
 40
2.0
 40
2.0
 40
2.0
 40
3.0
 40
3.0
 40
3.0
 40
4.0
 40
4.0
 40
4.0
 40
4.0
 10
122.9135676606507
 20
-133.7287236197254
 30
0.0
 10
122.9135676606507
 20
-133.7837590201023
 30
0.0
 10
122.9583646678824
 20
-133.8285667932576
 30
0.0
 10
123.0134000682592
 20
-133.8285667932576
 30
0.0
 10
123.0684354686361
 20
-133.8285667932576
 30
0.0
 10
123.1132324758677
 20
-133.7837590201023
 30
0.0
 10
123.1132324758677
 20
-133.7287236197254
 30
0.0
 10
123.1132324758677
 20
-133.6737097511956
 30
0.0
 10
123.0684354686361
 20
-133.6289019780403
 30
0.0
 10
123.0134000682592
 20
-133.6289019780403
 30
0.0
 10
122.9583646678824
 20
-133.6289019780403
 30
0.0
 10
122.9135676606507
 20
-133.6737097511956
 30
0.0
 10
122.9135676606507
 20
-133.7287236197254
 30
0.0
  0
SPLINE
  5
D5
330
1F
100
AcDbEntity
  8
_U+30EC_U+30A4_U+30E4_U+30FC 1
 62
   179
420
  2234388
370
     9
100
AcDbSpline
210
0.0
220
0.0
230
1.0
 70
    11
 71
     3
 72
    17
 73
    13
 74
     0
 42
0.0000000001
 43
0.0000000001
 12
1.0
 22
0.0
 32
0.0
 13
1.0
 23
0.0
 33
0.0
 40
0.0
 40
0.0
 40
0.0
 40
0.0
 40
1.0
 40
1.0
 40
1.0
 40
2.0
 40
2.0
 40
2.0
 40
3.0
 40
3.0
 40
3.0
 40
4.0
 40
4.0
 40
4.0
 40
4.0
 10
83.78709070442248
 20
-163.8278123234094
 30
0.0
 10
83.78709070442248
 20
-163.8828477237862
 30
0.0
 10
83.83188771165379
 20
-163.9276554969413
 30
0.0
 10
83.88692311203066
 20
-163.9276554969413
 30
0.0
 10
83.94195851240752
 20
-163.9276554969413
 30
0.0
 10
83.98675551963916
 20
-163.8828477237862
 30
0.0
 10
83.98675551963916
 20
-163.8278123234094
 30
0.0
 10
83.98675551963916
 20
-163.7727984548793
 30
0.0
 10
83.94195851240752
 20
-163.7279906817243
 30
0.0
 10
83.88692311203066
 20
-163.7279906817243
 30
0.0
 10
83.83188771165379
 20
-163.7279906817243
 30
0.0
 10
83.78709070442248
 20
-163.7727984548793
 30
0.0
 10
83.78709070442248
 20
-163.8278123234094
 30
0.0
  0
POLYLINE
  5
D6
330
1F
100
AcDbEntity
  8
_U+30EC_U+30A4_U+30E4_U+30FC 1
 62
   179
420
  2234388
370
     9
100
AcDb2dPolyline
 66
     1
 10
0.0
 20
0.0
 30
0.0
  0
VERTEX
  5
D7
330
D6
100
AcDbEntity
  8
_U+30EC_U+30A4_U+30E4_U+30FC 1
 62
   179
420
  2234388
370
     9
100
AcDbVertex
100
AcDb2dVertex
 10
123.0134646637996
 20
-133.7287236197254
 30
0.0
  0
VERTEX
  5
D8
330
D6
100
AcDbEntity
  8
_U+30EC_U+30A4_U+30E4_U+30FC 1
 62
   179
420
  2234388
370
     9
100
AcDbVertex
100
AcDb2dVertex
 10
97.01338286623603
 20
-133.7287236197254
 30
0.0
  0
SEQEND
  5
D9
330
D6
100
AcDbEntity
  8
_U+30EC_U+30A4_U+30E4_U+30FC 1
 62
   179
420
  2234388
370
     9
  0
POLYLINE
  5
DA
330
1F
100
AcDbEntity
  8
_U+30EC_U+30A4_U+30E4_U+30FC 1
 62
   179
420
  2234388
370
     9
100
AcDb2dPolyline
 66
     1
 10
0.0
 20
0.0
 30
0.0
  0
VERTEX
  5
DB
330
DA
100
AcDbEntity
  8
_U+30EC_U+30A4_U+30E4_U+30FC 1
 62
   179
420
  2234388
370
     9
100
AcDbVertex
100
AcDb2dVertex
 10
123.0134646637996
 20
-135.9887062580493
 30
0.0
  0
VERTEX
  5
DC
330
DA
100
AcDbEntity
  8
_U+30EC_U+30A4_U+30E4_U+30FC 1
 62
   179
420
  2234388
370
     9
100
AcDbVertex
100
AcDb2dVertex
 10
123.0134646637996
 20
-132.729043037293
 30
0.0
  0
SEQEND
  5
DD
330
DA
100
AcDbEntity
  8
_U+30EC_U+30A4_U+30E4_U+30FC 1
 62
   179
420
  2234388
370
     9
  0
POLYLINE
  5
DE
330
1F
100
AcDbEntity
  8
_U+30EC_U+30A4_U+30E4_U+30FC 1
 62
   179
420
  2234388
370
     9
100
AcDb2dPolyline
 66
     1
 10
0.0
 20
0.0
 30
0.0
  0
VERTEX
  5
DF
330
DE
100
AcDbEntity
  8
_U+30EC_U+30A4_U+30E4_U+30FC 1
 62
   179
420
  2234388
370
     9
100
AcDbVertex
100
AcDb2dVertex
 10
97.01350129139365
 20
-135.7888261243648
 30
0.0
  0
VERTEX
  5
E0
330
DE
100
AcDbEntity
  8
_U+30EC_U+30A4_U+30E4_U+30FC 1
 62
   179
420
  2234388
370
     9
100
AcDbVertex
100
AcDb2dVertex
 10
97.01350129139365
 20
-132.728849250672
 30
0.0
  0
SEQEND
  5
E1
330
DE
100
AcDbEntity
  8
_U+30EC_U+30A4_U+30E4_U+30FC 1
 62
   179
420
  2234388
370
     9
  0
INSERT
  5
E3
330
1F
100
AcDbEntity
  8
_U+30EC_U+30A4_U+30E4_U+30FC 1
100
AcDbBlockReference
  2
block 3
 10
0.0
 20
0.0
 30
0.0
  0
SPLINE
  5
EB
330
1F
100
AcDbEntity
  8
_U+30EC_U+30A4_U+30E4_U+30FC 1
 62
   179
420
  2234388
370
     9
100
AcDbSpline
210
0.0
220
0.0
230
1.0
 70
    11
 71
     3
 72
    17
 73
    13
 74
     0
 42
0.0000000001
 43
0.0000000001
 12
1.0
 22
0.0
 32
0.0
 13
1.0
 23
0.0
 33
0.0
 40
0.0
 40
0.0
 40
0.0
 40
0.0
 40
1.0
 40
1.0
 40
1.0
 40
2.0
 40
2.0
 40
2.0
 40
3.0
 40
3.0
 40
3.0
 40
4.0
 40
4.0
 40
4.0
 40
4.0
 10
125.8604915728101
 20
-143.9379195807147
 30
0.0
 10
125.9155162072635
 20
-143.9379195807147
 30
0.0
 10
125.9603239804186
 20
-143.8931333394065
 30
0.0
 10
125.9603239804186
 20
-143.8380979390296
 30
0.0
 10
125.9603239804186
 20
-143.7830625386528
 30
0.0
 10
125.9155162072635
 20
-143.7382547654977
 30
0.0
 10
125.8604915728101
 20
-143.7382547654977
 30
0.0
 10
125.8054561724332
 20
-143.7382547654977
 30
0.0
 10
125.7606483992782
 20
-143.7830625386528
 30
0.0
 10
125.7606483992782
 20
-143.8380979390296
 30
0.0
 10
125.7606483992782
 20
-143.8931333394065
 30
0.0
 10
125.8054561724332
 20
-143.9379195807147
 30
0.0
 10
125.8604915728101
 20
-143.9379195807147
 30
0.0
  0
SPLINE
  5
EC
330
1F
100
AcDbEntity
  8
_U+30EC_U+30A4_U+30E4_U+30FC 1
 62
   179
420
  2234388
370
     9
100
AcDbSpline
210
0.0
220
0.0
230
1.0
 70
    11
 71
     3
 72
    17
 73
    13
 74
     0
 42
0.0000000001
 43
0.0000000001
 12
1.0
 22
0.0
 32
0.0
 13
1.0
 23
0.0
 33
0.0
 40
0.0
 40
0.0
 40
0.0
 40
0.0
 40
1.0
 40
1.0
 40
1.0
 40
2.0
 40
2.0
 40
2.0
 40
3.0
 40
3.0
 40
3.0
 40
4.0
 40
4.0
 40
4.0
 40
4.0
 10
125.8604915728101
 20
-137.9382642613054
 30
0.0
 10
125.9155162072635
 20
-137.9382642613054
 30
0.0
 10
125.9603239804186
 20
-137.8934780199971
 30
0.0
 10
125.9603239804186
 20
-137.838076578225
 30
0.0
 10
125.9603239804186
 20
-137.7830627096949
 30
0.0
 10
125.9155162072635
 20
-137.7382549365398
 30
0.0
 10
125.8604915728101
 20
-137.7382549365398
 30
0.0
 10
125.8054561724332
 20
-137.7382549365398
 30
0.0
 10
125.7606483992782
 20
-137.7830627096949
 30
0.0
 10
125.7606483992782
 20
-137.838076578225
 30
0.0
 10
125.7606483992782
 20
-137.8934780199971
 30
0.0
 10
125.8054561724332
 20
-137.9382642613054
 30
0.0
 10
125.8604915728101
 20
-137.9382642613054
 30
0.0
  0
POLYLINE
  5
ED
330
1F
100
AcDbEntity
  8
_U+30EC_U+30A4_U+30E4_U+30FC 1
 62
   179
420
  2234388
370
     9
100
AcDb2dPolyline
 66
     1
 10
0.0
 20
0.0
 30
0.0
  0
VERTEX
  5
EE
330
ED
100
AcDbEntity
  8
_U+30EC_U+30A4_U+30E4_U+30FC 1
 62
   179
420
  2234388
370
     9
100
AcDbVertex
100
AcDb2dVertex
 10
125.8604915728101
 20
-137.8379689189914
 30
0.0
  0
VERTEX
  5
EF
330
ED
100
AcDbEntity
  8
_U+30EC_U+30A4_U+30E4_U+30FC 1
 62
   179
420
  2234388
370
     9
100
AcDbVertex
100
AcDb2dVertex
 10
125.8604915728101
 20
-143.8380333434896
 30
0.0
  0
SEQEND
  5
F0
330
ED
100
AcDbEntity
  8
_U+30EC_U+30A4_U+30E4_U+30FC 1
 62
   179
420
  2234388
370
     9
  0
POLYLINE
  5
F1
330
1F
100
AcDbEntity
  8
_U+30EC_U+30A4_U+30E4_U+30FC 1
 62
   179
420
  2234388
370
     9
100
AcDb2dPolyline
 66
     1
 10
0.0
 20
0.0
 30
0.0
  0
VERTEX
  5
F2
330
F1
100
AcDbEntity
  8
_U+30EC_U+30A4_U+30E4_U+30FC 1
 62
   179
420
  2234388
370
     9
100
AcDbVertex
100
AcDb2dVertex
 10
126.8540571107561
 20
-137.8379689189914
 30
0.0
  0
VERTEX
  5
F3
330
F1
100
AcDbEntity
  8
_U+30EC_U+30A4_U+30E4_U+30FC 1
 62
   179
420
  2234388
370
     9
100
AcDbVertex
100
AcDb2dVertex
 10
123.5943831240765
 20
-137.8379689189914
 30
0.0
  0
SEQEND
  5
F4
330
F1
100
AcDbEntity
  8
_U+30EC_U+30A4_U+30E4_U+30FC 1
 62
   179
420
  2234388
370
     9
  0
POLYLINE
  5
F5
330
1F
100
AcDbEntity
  8
_U+30EC_U+30A4_U+30E4_U+30FC 1
 62
   179
420
  2234388
370
     9
100
AcDb2dPolyline
 66
     1
 10
0.0
 20
0.0
 30
0.0
  0
VERTEX
  5
F6
330
F5
100
AcDbEntity
  8
_U+30EC_U+30A4_U+30E4_U+30FC 1
 62
   179
420
  2234388
370
     9
100
AcDbVertex
100
AcDb2dVertex
 10
126.8540571107561
 20
-143.8380118116425
 30
0.0
  0
VERTEX
  5
F7
330
F5
100
AcDbEntity
  8
_U+30EC_U+30A4_U+30E4_U+30FC 1
 62
   179
420
  2234388
370
     9
100
AcDbVertex
100
AcDb2dVertex
 10
123.5943831240765
 20
-143.8380118116425
 30
0.0
  0
SEQEND
  5
F8
330
F5
100
AcDbEntity
  8
_U+30EC_U+30A4_U+30E4_U+30FC 1
 62
   179
420
  2234388
370
     9
  0
INSERT
  5
FA
330
1F
100
AcDbEntity
  8
_U+30EC_U+30A4_U+30E4_U+30FC 1
100
AcDbBlockReference
  2
block 4
 10
0.0
 20
0.0
 30
0.0
  0
POLYLINE
  5
100
330
1F
100
AcDbEntity
  8
_U+30EC_U+30A4_U+30E4_U+30FC 1
 62
   179
420
  2234388
370
     9
100
AcDb2dPolyline
 66
     1
 10
0.0
 20
0.0
 30
0.0
  0
VERTEX
  5
101
330
100
100
AcDbEntity
  8
_U+30EC_U+30A4_U+30E4_U+30FC 1
 62
   179
420
  2234388
370
     9
100
AcDbVertex
100
AcDb2dVertex
 10
83.88698770757101
 20
-137.8280212057774
 30
0.0
  0
VERTEX
  5
102
330
100
100
AcDbEntity
  8
_U+30EC_U+30A4_U+30E4_U+30FC 1
 62
   179
420
  2234388
370
     9
100
AcDbVertex
100
AcDb2dVertex
 10
83.88698770757101
 20
-163.827747727869
 30
0.0
  0
SEQEND
  5
103
330
100
100
AcDbEntity
  8
_U+30EC_U+30A4_U+30E4_U+30FC 1
 62
   179
420
  2234388
370
     9
  0
POLYLINE
  5
104
330
1F
100
AcDbEntity
  8
_U+30EC_U+30A4_U+30E4_U+30FC 1
 62
   179
420
  2234388
370
     9
100
AcDb2dPolyline
 66
     1
 10
0.0
 20
0.0
 30
0.0
  0
VERTEX
  5
105
330
104
100
AcDbEntity
  8
_U+30EC_U+30A4_U+30E4_U+30FC 1
 62
   179
420
  2234388
370
     9
100
AcDbVertex
100
AcDb2dVertex
 10
82.59716548974025
 20
-137.8280212057774
 30
0.0
  0
VERTEX
  5
106
330
104
100
AcDbEntity
  8
_U+30EC_U+30A4_U+30E4_U+30FC 1
 62
   179
420
  2234388
370
     9
100
AcDbVertex
100
AcDb2dVertex
 10
86.95713837886836
 20
-137.8280212057774
 30
0.0
  0
SEQEND
  5
107
330
104
100
AcDbEntity
  8
_U+30EC_U+30A4_U+30E4_U+30FC 1
 62
   179
420
  2234388
370
     9
  0
POLYLINE
  5
108
330
1F
100
AcDbEntity
  8
_U+30EC_U+30A4_U+30E4_U+30FC 1
 62
   179
420
  2234388
370
     9
100
AcDb2dPolyline
 66
     1
 10
0.0
 20
0.0
 30
0.0
  0
VERTEX
  5
109
330
108
100
AcDbEntity
  8
_U+30EC_U+30A4_U+30E4_U+30FC 1
 62
   179
420
  2234388
370
     9
100
AcDbVertex
100
AcDb2dVertex
 10
82.59716548974025
 20
-163.8278123234094
 30
0.0
  0
VERTEX
  5
10A
330
108
100
AcDbEntity
  8
_U+30EC_U+30A4_U+30E4_U+30FC 1
 62
   179
420
  2234388
370
     9
100
AcDbVertex
100
AcDb2dVertex
 10
86.95713837886836
 20
-163.8278123234094
 30
0.0
  0
SEQEND
  5
10B
330
108
100
AcDbEntity
  8
_U+30EC_U+30A4_U+30E4_U+30FC 1
 62
   179
420
  2234388
370
     9
  0
INSERT
  5
10D
330
1F
100
AcDbEntity
  8
_U+30EC_U+30A4_U+30E4_U+30FC 1
100
AcDbBlockReference
  2
block 5
 10
0.0
 20
0.0
 30
0.0
  0
POLYLINE
  5
115
330
1F
100
AcDbEntity
  8
_U+30EC_U+30A4_U+30E4_U+30FC 1
 62
   179
420
  2234388
370
    25
100
AcDb2dPolyline
 66
     1
 10
0.0
 20
0.0
 30
0.0
  0
VERTEX
  5
116
330
115
100
AcDbEntity
  8
_U+30EC_U+30A4_U+30E4_U+30FC 1
 62
   179
420
  2234388
370
    25
100
AcDbVertex
100
AcDb2dVertex
 10
89.90834712853746
 20
-138.7475387226373
 30
0.0
  0
VERTEX
  5
117
330
115
100
AcDbEntity
  8
_U+30EC_U+30A4_U+30E4_U+30FC 1
 62
   179
420
  2234388
370
    25
100
AcDbVertex
100
AcDb2dVertex
 10
95.90839002118892
 20
-138.7475387226373
 30
0.0
  0
SEQEND
  5
118
330
115
100
AcDbEntity
  8
_U+30EC_U+30A4_U+30E4_U+30FC 1
 62
   179
420
  2234388
370
    25
  0
POLYLINE
  5
119
330
1F
100
AcDbEntity
  8
_U+30EC_U+30A4_U+30E4_U+30FC 1
 62
   179
420
  2234388
370
    25
100
AcDb2dPolyline
 66
     1
 10
0.0
 20
0.0
 30
0.0
  0
VERTEX
  5
11A
330
119
100
AcDbEntity
  8
_U+30EC_U+30A4_U+30E4_U+30FC 1
 62
   179
420
  2234388
370
    25
100
AcDbVertex
100
AcDb2dVertex
 10
88.91375882786922
 20
-137.7281134367051
 30
0.0
  0
VERTEX
  5
11B
330
119
100
AcDbEntity
  8
_U+30EC_U+30A4_U+30E4_U+30FC 1
 62
   179
420
  2234388
370
    25
100
AcDbVertex
100
AcDb2dVertex
 10
96.9136904156316
 20
-137.7281134367051
 30
0.0
  0
SEQEND
  5
11C
330
119
100
AcDbEntity
  8
_U+30EC_U+30A4_U+30E4_U+30FC 1
 62
   179
420
  2234388
370
    25
  0
POLYLINE
  5
11D
330
1F
100
AcDbEntity
  8
_U+30EC_U+30A4_U+30E4_U+30FC 1
 62
   179
420
  2234388
370
    25
100
AcDb2dPolyline
 66
     1
 10
0.0
 20
0.0
 30
0.0
  0
VERTEX
  5
11E
330
11D
100
AcDbEntity
  8
_U+30EC_U+30A4_U+30E4_U+30FC 1
 62
   179
420
  2234388
370
    25
100
AcDbVertex
100
AcDb2dVertex
 10
96.9135935223214
 20
-143.8648620245807
 30
0.0
  0
VERTEX
  5
11F
330
11D
100
AcDbEntity
  8
_U+30EC_U+30A4_U+30E4_U+30FC 1
 62
   179
420
  2234388
370
    25
100
AcDbVertex
100
AcDb2dVertex
 10
96.9135935223214
 20
-137.8648191319292
 30
0.0
  0
SEQEND
  5
120
330
11D
100
AcDbEntity
  8
_U+30EC_U+30A4_U+30E4_U+30FC 1
 62
   179
420
  2234388
370
    25
  0
POLYLINE
  5
121
330
1F
100
AcDbEntity
  8
_U+30EC_U+30A4_U+30E4_U+30FC 1
 62
   179
420
  2234388
370
    25
100
AcDb2dPolyline
 66
     1
 10
0.0
 20
0.0
 30
0.0
  0
VERTEX
  5
122
330
121
100
AcDbEntity
  8
_U+30EC_U+30A4_U+30E4_U+30FC 1
 62
   179
420
  2234388
370
    25
100
AcDbVertex
100
AcDb2dVertex
 10
95.9083146597255
 20
-144.9252408830938
 30
0.0
  0
VERTEX
  5
123
330
121
100
AcDbEntity
  8
_U+30EC_U+30A4_U+30E4_U+30FC 1
 62
   179
420
  2234388
370
    25
100
AcDbVertex
100
AcDb2dVertex
 10
95.9083146597255
 20
-138.7474095315567
 30
0.0
  0
SEQEND
  5
124
330
121
100
AcDbEntity
  8
_U+30EC_U+30A4_U+30E4_U+30FC 1
 62
   179
420
  2234388
370
    25
  0
POLYLINE
  5
125
330
1F
100
AcDbEntity
  8
_U+30EC_U+30A4_U+30E4_U+30FC 1
 62
   179
420
  2234388
370
     9
100
AcDb2dPolyline
 66
     1
 10
0.0
 20
0.0
 30
0.0
  0
VERTEX
  5
126
330
125
100
AcDbEntity
  8
_U+30EC_U+30A4_U+30E4_U+30FC 1
 62
   179
420
  2234388
370
     9
100
AcDbVertex
100
AcDb2dVertex
 10
89.48666744114287
 20
-136.757586974817
 30
0.0
  0
VERTEX
  5
127
330
125
100
AcDbEntity
  8
_U+30EC_U+30A4_U+30E4_U+30FC 1
 62
   179
420
  2234388
370
     9
100
AcDbVertex
100
AcDb2dVertex
 10
90.04369631741422
 20
-137.5883932829315
 30
0.0
  0
SEQEND
  5
128
330
125
100
AcDbEntity
  8
_U+30EC_U+30A4_U+30E4_U+30FC 1
 62
   179
420
  2234388
370
     9
  0
POLYLINE
  5
129
330
1F
100
AcDbEntity
  8
_U+30EC_U+30A4_U+30E4_U+30FC 1
 62
   179
420
  2234388
370
     9
100
AcDb2dPolyline
 66
     1
 10
0.0
 20
0.0
 30
0.0
  0
VERTEX
  5
12A
330
129
100
AcDbEntity
  8
_U+30EC_U+30A4_U+30E4_U+30FC 1
 62
   179
420
  2234388
370
     9
100
AcDbVertex
100
AcDb2dVertex
 10
89.97689376277086
 20
-136.5908658851774
 30
0.0
  0
VERTEX
  5
12B
330
129
100
AcDbEntity
  8
_U+30EC_U+30A4_U+30E4_U+30FC 1
 62
   179
420
  2234388
370
     9
100
AcDbVertex
100
AcDb2dVertex
 10
90.04356712633351
 20
-137.5885224740122
 30
0.0
  0
SEQEND
  5
12C
330
129
100
AcDbEntity
  8
_U+30EC_U+30A4_U+30E4_U+30FC 1
 62
   179
420
  2234388
370
     9
  0
POLYLINE
  5
12D
330
1F
100
AcDbEntity
  8
_U+30EC_U+30A4_U+30E4_U+30FC 1
 62
   179
420
  2234388
370
     9
100
AcDb2dPolyline
 66
     1
 10
0.0
 20
0.0
 30
0.0
  0
VERTEX
  5
12E
330
12D
100
AcDbEntity
  8
_U+30EC_U+30A4_U+30E4_U+30FC 1
 62
   179
420
  2234388
370
     9
100
AcDbVertex
100
AcDb2dVertex
 10
89.2679146437529
 20
-135.2283306207611
 30
0.0
  0
VERTEX
  5
12F
330
12D
100
AcDbEntity
  8
_U+30EC_U+30A4_U+30E4_U+30FC 1
 62
   179
420
  2234388
370
     9
100
AcDbVertex
100
AcDb2dVertex
 10
90.04366401964404
 20
-137.5884148147782
 30
0.0
  0
SEQEND
  5
130
330
12D
100
AcDbEntity
  8
_U+30EC_U+30A4_U+30E4_U+30FC 1
 62
   179
420
  2234388
370
     9
  0
INSERT
  5
132
330
1F
100
AcDbEntity
  8
_U+30EC_U+30A4_U+30E4_U+30FC 1
100
AcDbBlockReference
  2
block 6
 10
0.0
 20
0.0
 30
0.0
  0
POLYLINE
  5
18D
330
1F
100
AcDbEntity
  8
_U+30EC_U+30A4_U+30E4_U+30FC 1
 62
   179
420
  2234388
370
    25
100
AcDb2dPolyline
 66
     1
 10
0.0
 20
0.0
 30
0.0
  0
VERTEX
  5
18E
330
18D
100
AcDbEntity
  8
_U+30EC_U+30A4_U+30E4_U+30FC 1
 62
   179
420
  2234388
370
    25
100
AcDbVertex
100
AcDb2dVertex
 10
88.91375882786922
 20
-138.7475387226373
 30
0.0
  0
VERTEX
  5
18F
330
18D
100
AcDbEntity
  8
_U+30EC_U+30A4_U+30E4_U+30FC 1
 62
   179
420
  2234388
370
    25
100
AcDbVertex
100
AcDb2dVertex
 10
89.90822870338015
 20
-138.7475387226373
 30
0.0
  0
SEQEND
  5
190
330
18D
100
AcDbEntity
  8
_U+30EC_U+30A4_U+30E4_U+30FC 1
 62
   179
420
  2234388
370
    25
  0
POLYLINE
  5
191
330
1F
100
AcDbEntity
  8
_U+30EC_U+30A4_U+30E4_U+30FC 1
 62
   179
420
  2234388
370
     9
100
AcDb2dPolyline
 66
     1
 10
0.0
 20
0.0
 30
0.0
  0
VERTEX
  5
192
330
191
100
AcDbEntity
  8
_U+30EC_U+30A4_U+30E4_U+30FC 1
 62
   179
420
  2234388
370
     9
100
AcDbVertex
100
AcDb2dVertex
 10
103.92971349873
 20
-145.4696090334568
 30
0.0
  0
VERTEX
  5
193
330
191
100
AcDbEntity
  8
_U+30EC_U+30A4_U+30E4_U+30FC 1
 62
   179
420
  2234388
370
     9
100
AcDbVertex
100
AcDb2dVertex
 10
109.265477386285
 20
-159.2279423633506
 30
0.0
  0
VERTEX
  5
194
330
191
100
AcDbEntity
  8
_U+30EC_U+30A4_U+30E4_U+30FC 1
 62
   179
420
  2234388
370
     9
100
AcDbVertex
100
AcDb2dVertex
 10
123.2001996050235
 20
-159.2279423633506
 30
0.0
  0
SEQEND
  5
195
330
191
100
AcDbEntity
  8
_U+30EC_U+30A4_U+30E4_U+30FC 1
 62
   179
420
  2234388
370
     9
  0
INSERT
  5
197
330
1F
100
AcDbEntity
  8
_U+30EC_U+30A4_U+30E4_U+30FC 1
100
AcDbBlockReference
  2
block 7
 10
0.0
 20
0.0
 30
0.0
  0
INSERT
  5
1C8
330
1F
100
AcDbEntity
  8
_U+30EC_U+30A4_U+30E4_U+30FC 1
100
AcDbBlockReference
  2
block 8
 10
0.0
 20
0.0
 30
0.0
  0
POLYLINE
  5
1DC
330
1F
100
AcDbEntity
  8
_U+30EC_U+30A4_U+30E4_U+30FC 1
  6
AI-Linetype-1
 62
   154
420
    23468
370
    25
100
AcDb2dPolyline
 66
     1
 10
0.0
 20
0.0
 30
0.0
  0
VERTEX
  5
1DD
330
1DC
100
AcDbEntity
  8
_U+30EC_U+30A4_U+30E4_U+30FC 1
  6
AI-Linetype-1
 62
   154
420
    23468
370
    25
100
AcDbVertex
100
AcDb2dVertex
 10
89.95985130604194
 20
-163.7389288598899
 30
0.0
  0
VERTEX
  5
1DE
330
1DC
100
AcDbEntity
  8
_U+30EC_U+30A4_U+30E4_U+30FC 1
  6
AI-Linetype-1
 62
   154
420
    23468
370
    25
100
AcDbVertex
100
AcDb2dVertex
 10
90.52428713760656
 20
-139.3842139001586
 30
0.0
  0
VERTEX
  5
1DF
330
1DC
100
AcDbEntity
  8
_U+30EC_U+30A4_U+30E4_U+30FC 1
  6
AI-Linetype-1
 62
   154
420
    23468
370
    25
100
AcDbVertex
100
AcDb2dVertex
 10
95.28678713641594
 20
-139.3842139001586
 30
0.0
  0
VERTEX
  5
1E0
330
1DC
100
AcDbEntity
  8
_U+30EC_U+30A4_U+30E4_U+30FC 1
  6
AI-Linetype-1
 62
   154
420
    23468
370
    25
100
AcDbVertex
100
AcDb2dVertex
 10
95.28678713641594
 20
-145.6460194541487
 30
0.0
  0
VERTEX
  5
1E1
330
1DC
100
AcDbEntity
  8
_U+30EC_U+30A4_U+30E4_U+30FC 1
  6
AI-Linetype-1
 62
   154
420
    23468
370
    25
100
AcDbVertex
100
AcDb2dVertex
 10
122.9798426850482
 20
-144.9845611209807
 30
0.0
  0
SEQEND
  5
1E3
330
1DC
100
AcDbEntity
  8
_U+30EC_U+30A4_U+30E4_U+30FC 1
  6
AI-Linetype-1
 62
   154
420
    23468
370
    25
  0
ENDSEC
  0
SECTION
  2
OBJECTS
  0
DICTIONARY
  5
C
330
0
100
AcDbDictionary
281
     1
  3
ACAD_GROUP
350
D
  3
ACAD_LAYOUT
350
1A
  3
ACAD_MATERIAL
350
3B
  3
ACAD_MLEADERSTYLE
350
1E5
  3
ACAD_MLINESTYLE
350
17
  3
ACAD_PLOTSETTINGS
350
19
  3
ACAD_PLOTSTYLENAME
350
E
  3
ACAD_TABLESTYLE
350
1E4
  3
ACAD_VISUALSTYLE
350
2A
  0
SUN
  5
3F
330
29
100
AcDbSun
 90
        1
290
     0
 63
     7
421
 16777215
 40
1.0
291
     1
 91
  2455826
 92
 54000000
292
     0
 70
     2
 71
   256
280
     1
  0
DICTIONARY
  5
D
102
{ACAD_REACTORS
330
C
102
}
330
C
100
AcDbDictionary
281
     1
  0
DICTIONARY
  5
1A
102
{ACAD_REACTORS
330
C
102
}
330
C
100
AcDbDictionary
281
     1
  3
Layout1
350
1E
  3
Layout2
350
26
  3
Model
350
22
  0
DICTIONARY
  5
3B
102
{ACAD_REACTORS
330
C
102
}
330
C
100
AcDbDictionary
281
     1
  3
ByBlock
350
3D
  3
ByLayer
350
3C
  3
Global
350
3E
  0
DICTIONARY
  5
1E5
102
{ACAD_REACTORS
330
C
102
}
330
C
100
AcDbDictionary
281
     1
  0
DICTIONARY
  5
17
102
{ACAD_REACTORS
330
C
102
}
330
C
100
AcDbDictionary
281
     1
  3
Standard
350
18
  0
DICTIONARY
  5
19
102
{ACAD_REACTORS
330
C
102
}
330
C
100
AcDbDictionary
281
     1
  0
ACDBDICTIONARYWDFLT
  5
E
102
{ACAD_REACTORS
330
C
102
}
330
C
100
AcDbDictionary
281
     1
  3
Normal
350
F
100
AcDbDictionaryWithDefault
340
F
  0
DICTIONARY
  5
1E4
102
{ACAD_REACTORS
330
C
102
}
330
C
100
AcDbDictionary
281
     1
  0
DICTIONARY
  5
2A
102
{ACAD_REACTORS
330
C
102
}
330
C
100
AcDbDictionary
281
     1
  3
2dWireframe
350
2F
  3
3D Hidden
350
31
  3
3dWireframe
350
30
  3
Basic
350
32
  3
Brighten
350
36
  3
ColorChange
350
3A
  3
Conceptual
350
34
  3
Dim
350
35
  3
Facepattern
350
39
  3
Flat
350
2B
  3
FlatWithEdges
350
2C
  3
Gouraud
350
2D
  3
GouraudWithEdges
350
2E
  3
Linepattern
350
38
  3
Realistic
350
33
  3
Thicken
350
37
  0
LAYOUT
  5
1E
102
{ACAD_REACTORS
330
1A
102
}
330
1A
100
AcDbPlotSettings
  1

  2
none_device
  4

  6

 40
0.0
 41
0.0
 42
0.0
 43
0.0
 44
0.0
 45
0.0
 46
0.0
 47
0.0
 48
0.0
 49
0.0
140
0.0
141
0.0
142
1.0
143
1.0
 70
   688
 72
     0
 73
     0
 74
     5
  7

 75
    16
 76
     0
 77
     2
 78
   300
147
1.0
148
0.0
149
0.0
100
AcDbLayout
  1
Layout1
 70
     1
 71
     1
 10
0.0
 20
0.0
 11
12.0
 21
9.0
 12
0.0
 22
0.0
 32
0.0
 14
1.000000000000000E+20
 24
1.000000000000000E+20
 34
1.000000000000000E+20
 15
-1.000000000000000E+20
 25
-1.000000000000000E+20
 35
-1.000000000000000E+20
146
0.0
 13
0.0
 23
0.0
 33
0.0
 16
1.0
 26
0.0
 36
0.0
 17
0.0
 27
1.0
 37
0.0
 76
     0
330
1B
  0
LAYOUT
  5
26
102
{ACAD_REACTORS
330
1A
102
}
330
1A
100
AcDbPlotSettings
  1

  2
none_device
  4

  6

 40
0.0
 41
0.0
 42
0.0
 43
0.0
 44
0.0
 45
0.0
 46
0.0
 47
0.0
 48
0.0
 49
0.0
140
0.0
141
0.0
142
1.0
143
1.0
 70
   688
 72
     0
 73
     0
 74
     5
  7

 75
    16
 76
     0
 77
     2
 78
   300
147
1.0
148
0.0
149
0.0
100
AcDbLayout
  1
Layout2
 70
     1
 71
     2
 10
0.0
 20
0.0
 11
0.0
 21
0.0
 12
0.0
 22
0.0
 32
0.0
 14
0.0
 24
0.0
 34
0.0
 15
0.0
 25
0.0
 35
0.0
146
0.0
 13
0.0
 23
0.0
 33
0.0
 16
1.0
 26
0.0
 36
0.0
 17
0.0
 27
1.0
 37
0.0
 76
     0
330
23
  0
LAYOUT
  5
22
102
{ACAD_REACTORS
330
1A
102
}
330
1A
100
AcDbPlotSettings
  1

  2
none_device
  4

  6

 40
0.0
 41
0.0
 42
0.0
 43
0.0
 44
0.0
 45
0.0
 46
0.0
 47
0.0
 48
0.0
 49
0.0
140
0.0
141
0.0
142
1.0
143
1.0
 70
  1712
 72
     0
 73
     0
 74
     0
  7

 75
     0
 76
     0
 77
     2
 78
   300
147
1.0
148
0.0
149
0.0
100
AcDbLayout
  1
Model
 70
     1
 71
     0
 10
0.0
 20
0.0
 11
12.0
 21
9.0
 12
0.0
 22
0.0
 32
0.0
 14
1.000000000000000E+20
 24
1.000000000000000E+20
 34
1.000000000000000E+20
 15
-1.000000000000000E+20
 25
-1.000000000000000E+20
 35
-1.000000000000000E+20
146
0.0
 13
0.0
 23
0.0
 33
0.0
 16
1.0
 26
0.0
 36
0.0
 17
0.0
 27
1.0
 37
0.0
 76
     0
330
1F
331
29
  0
MATERIAL
  5
3D
102
{ACAD_REACTORS
330
3B
102
}
330
3B
100
AcDbMaterial
  1
ByBlock
 72
     1
 94
      127
  0
MATERIAL
  5
3C
102
{ACAD_REACTORS
330
3B
102
}
330
3B
100
AcDbMaterial
  1
ByLayer
 72
     1
 94
      127
  0
MATERIAL
  5
3E
102
{ACAD_REACTORS
330
3B
102
}
330
3B
100
AcDbMaterial
  1
Global
 72
     1
 94
      127
  0
MLINESTYLE
  5
18
102
{ACAD_REACTORS
330
17
102
}
330
17
100
AcDbMlineStyle
  2
Standard
 70
     0
  3

 62
   256
 51
90.0
 52
90.0
 71
     2
 49
0.5
 62
   256
  6
BYLAYER
 49
-0.5
 62
   256
  6
BYLAYER
  0
ACDBPLACEHOLDER
  5
F
102
{ACAD_REACTORS
330
E
102
}
330
E
  0
VISUALSTYLE
  5
2F
102
{ACAD_REACTORS
330
2A
102
}
330
2A
100
AcDbVisualStyle
  2
2dWireframe
 70
     4
177
     2
291
     0
 71
     0
176
     1
 72
     2
176
     1
 73
     0
176
     1
 90
        0
176
     1
 40
-0.6
176
     1
 41
-30.0
176
     1
 62
     5
 63
     7
421
 16777215
176
     1
 74
     1
176
     1
 91
        4
176
     1
 64
     7
176
     1
 65
   257
176
     1
 75
     1
176
     1
175
     1
176
     1
 42
1.0
176
     1
 92
        0
176
     1
 66
   257
176
     1
 43
1.0
176
     1
 76
     1
176
     1
 77
     6
176
     1
 78
     2
176
     1
 67
     7
176
     1
 79
     5
176
     1
170
     0
176
     1
171
     0
176
     1
290
     0
176
     1
 93
        1
176
     1
 44
0.0
176
     1
173
     0
176
     1
  0
VISUALSTYLE
  5
31
102
{ACAD_REACTORS
330
2A
102
}
330
2A
100
AcDbVisualStyle
  2
3D Hidden
 70
     6
177
     2
291
     0
 71
     1
176
     1
 72
     2
176
     1
 73
     2
176
     1
 90
        0
176
     1
 40
-0.6
176
     1
 41
-30.0
176
     1
 62
     5
 63
     7
421
 16777215
176
     1
 74
     2
176
     1
 91
        2
176
     1
 64
     7
176
     1
 65
   257
176
     1
 75
     2
176
     1
175
     1
176
     1
 42
40.0
176
     1
 92
        0
176
     1
 66
   257
176
     1
 43
1.0
176
     1
 76
     1
176
     1
 77
     6
176
     1
 78
     2
176
     1
 67
     7
176
     1
 79
     3
176
     1
170
     0
176
     1
171
     0
176
     1
290
     0
176
     1
 93
        1
176
     1
 44
0.0
176
     1
173
     0
176
     1
  0
VISUALSTYLE
  5
30
102
{ACAD_REACTORS
330
2A
102
}
330
2A
100
AcDbVisualStyle
  2
3dWireframe
 70
     5
177
     2
291
     0
 71
     0
176
     1
 72
     2
176
     1
 73
     0
176
     1
 90
        0
176
     1
 40
-0.6
176
     1
 41
-30.0
176
     1
 62
     5
 63
     7
421
 16777215
176
     1
 74
     1
176
     1
 91
        4
176
     1
 64
     7
176
     1
 65
   257
176
     1
 75
     1
176
     1
175
     1
176
     1
 42
1.0
176
     1
 92
        0
176
     1
 66
   257
176
     1
 43
1.0
176
     1
 76
     1
176
     1
 77
     6
176
     1
 78
     2
176
     1
 67
     7
176
     1
 79
     5
176
     1
170
     0
176
     1
171
     0
176
     1
290
     0
176
     1
 93
        1
176
     1
 44
0.0
176
     1
173
     0
176
     1
  0
VISUALSTYLE
  5
32
102
{ACAD_REACTORS
330
2A
102
}
330
2A
100
AcDbVisualStyle
  2
Basic
 70
     7
177
     2
291
     1
 71
     1
176
     1
 72
     0
176
     1
 73
     1
176
     1
 90
        0
176
     1
 40
-0.6
176
     1
 41
-30.0
176
     1
 62
     5
 63
     7
421
 16777215
176
     1
 74
     0
176
     1
 91
        4
176
     1
 64
     7
176
     1
 65
   257
176
     1
 75
     1
176
     1
175
     1
176
     1
 42
1.0
176
     1
 92
        8
176
     1
 66
     7
176
     1
 43
1.0
176
     1
 76
     1
176
     1
 77
     6
176
     1
 78
     2
176
     1
 67
     7
176
     1
 79
     5
176
     1
170
     0
176
     1
171
     0
176
     1
290
     0
176
     1
 93
        1
176
     1
 44
0.0
176
     1
173
     0
176
     1
  0
VISUALSTYLE
  5
36
102
{ACAD_REACTORS
330
2A
102
}
330
2A
100
AcDbVisualStyle
  2
Brighten
 70
    12
177
     2
291
     1
 71
     2
176
     1
 72
     2
176
     1
 73
     0
176
     1
 90
        0
176
     1
 40
-0.6
176
     1
 41
-30.0
176
     1
 62
     5
 63
     7
421
 16777215
176
     1
 74
     1
176
     1
 91
        4
176
     1
 64
     7
176
     1
 65
   257
176
     1
 75
     1
176
     1
175
     1
176
     1
 42
1.0
176
     1
 92
        8
176
     1
 66
     7
176
     1
 43
1.0
176
     1
 76
     1
176
     1
 77
     6
176
     1
 78
     2
176
     1
 67
     7
176
     1
 79
     5
176
     1
170
     0
176
     1
171
     0
176
     1
290
     0
176
     1
 93
        1
176
     1
 44
50.0
176
     1
173
     0
176
     1
  0
VISUALSTYLE
  5
3A
102
{ACAD_REACTORS
330
2A
102
}
330
2A
100
AcDbVisualStyle
  2
ColorChange
 70
    16
177
     2
291
     1
 71
     2
176
     1
 72
     2
176
     1
 73
     3
176
     1
 90
        0
176
     1
 40
-0.6
176
     1
 41
-30.0
176
     1
 62
     5
 63
     8
421
  8421504
176
     1
 74
     1
176
     1
 91
        4
176
     1
 64
     7
176
     1
 65
   257
176
     1
 75
     1
176
     1
175
     1
176
     1
 42
1.0
176
     1
 92
        8
176
     1
 66
     8
424
  8421504
176
     1
 43
1.0
176
     1
 76
     1
176
     1
 77
     6
176
     1
 78
     2
176
     1
 67
     7
176
     1
 79
     5
176
     1
170
     0
176
     1
171
     0
176
     1
290
     0
176
     1
 93
        1
176
     1
 44
0.0
176
     1
173
     0
176
     1
  0
VISUALSTYLE
  5
34
102
{ACAD_REACTORS
330
2A
102
}
330
2A
100
AcDbVisualStyle
  2
Conceptual
 70
     9
177
     2
291
     0
 71
     3
176
     1
 72
     2
176
     1
 73
     0
176
     1
 90
        0
176
     1
 40
-0.6
176
     1
 41
-30.0
176
     1
 62
     5
 63
     7
421
 16777215
176
     1
 74
     2
176
     1
 91
        2
176
     1
 64
     7
176
     1
 65
   257
176
     1
 75
     1
176
     1
175
     1
176
     1
 42
40.0
176
     1
 92
        8
176
     1
 66
     7
176
     1
 43
1.0
176
     1
 76
     1
176
     1
 77
     6
176
     1
 78
     2
176
     1
 67
     7
176
     1
 79
     3
176
     1
170
     0
176
     1
171
     0
176
     1
290
     0
176
     1
 93
        1
176
     1
 44
0.0
176
     1
173
     0
176
     1
  0
VISUALSTYLE
  5
35
102
{ACAD_REACTORS
330
2A
102
}
330
2A
100
AcDbVisualStyle
  2
Dim
 70
    11
177
     2
291
     1
 71
     2
176
     1
 72
     2
176
     1
 73
     0
176
     1
 90
        0
176
     1
 40
-0.6
176
     1
 41
-30.0
176
     1
 62
     5
 63
     7
421
 16777215
176
     1
 74
     1
176
     1
 91
        4
176
     1
 64
     7
176
     1
 65
   257
176
     1
 75
     1
176
     1
175
     1
176
     1
 42
1.0
176
     1
 92
        8
176
     1
 66
     7
176
     1
 43
1.0
176
     1
 76
     1
176
     1
 77
     6
176
     1
 78
     2
176
     1
 67
     7
176
     1
 79
     5
176
     1
170
     0
176
     1
171
     0
176
     1
290
     0
176
     1
 93
        1
176
     1
 44
-50.0
176
     1
173
     0
176
     1
  0
VISUALSTYLE
  5
39
102
{ACAD_REACTORS
330
2A
102
}
330
2A
100
AcDbVisualStyle
  2
Facepattern
 70
    15
177
     2
291
     1
 71
     2
176
     1
 72
     2
176
     1
 73
     0
176
     1
 90
        0
176
     1
 40
-0.6
176
     1
 41
-30.0
176
     1
 62
     5
 63
     7
421
 16777215
176
     1
 74
     1
176
     1
 91
        4
176
     1
 64
     7
176
     1
 65
   257
176
     1
 75
     1
176
     1
175
     1
176
     1
 42
1.0
176
     1
 92
        8
176
     1
 66
     7
176
     1
 43
1.0
176
     1
 76
     1
176
     1
 77
     6
176
     1
 78
     2
176
     1
 67
     7
176
     1
 79
     5
176
     1
170
     0
176
     1
171
     0
176
     1
290
     0
176
     1
 93
        1
176
     1
 44
0.0
176
     1
173
     0
176
     1
  0
VISUALSTYLE
  5
2B
102
{ACAD_REACTORS
330
2A
102
}
330
2A
100
AcDbVisualStyle
  2
Flat
 70
     0
177
     2
291
     1
 71
     2
176
     1
 72
     1
176
     1
 73
     1
176
     1
 90
        2
176
     1
 40
-0.6
176
     1
 41
30.0
176
     1
 62
     5
 63
     7
421
 16777215
176
     1
 74
     0
176
     1
 91
        4
176
     1
 64
     7
176
     1
 65
   257
176
     1
 75
     1
176
     1
175
     1
176
     1
 42
1.0
176
     1
 92
        8
176
     1
 66
     7
176
     1
 43
1.0
176
     1
 76
     1
176
     1
 77
     6
176
     1
 78
     2
176
     1
 67
     7
176
     1
 79
     5
176
     1
170
     0
176
     1
171
     0
176
     1
290
     0
176
     1
 93
       13
176
     1
 44
0.0
176
     1
173
     0
176
     1
  0
VISUALSTYLE
  5
2C
102
{ACAD_REACTORS
330
2A
102
}
330
2A
100
AcDbVisualStyle
  2
FlatWithEdges
 70
     1
177
     2
291
     1
 71
     2
176
     1
 72
     1
176
     1
 73
     1
176
     1
 90
        2
176
     1
 40
-0.6
176
     1
 41
30.0
176
     1
 62
     5
 63
     7
421
 16777215
176
     1
 74
     1
176
     1
 91
        4
176
     1
 64
     7
176
     1
 65
   257
176
     1
 75
     1
176
     1
175
     1
176
     1
 42
1.0
176
     1
 92
        0
176
     1
 66
   257
176
     1
 43
1.0
176
     1
 76
     1
176
     1
 77
     6
176
     1
 78
     2
176
     1
 67
     7
176
     1
 79
     5
176
     1
170
     0
176
     1
171
     0
176
     1
290
     0
176
     1
 93
       13
176
     1
 44
0.0
176
     1
173
     0
176
     1
  0
VISUALSTYLE
  5
2D
102
{ACAD_REACTORS
330
2A
102
}
330
2A
100
AcDbVisualStyle
  2
Gouraud
 70
     2
177
     2
291
     1
 71
     2
176
     1
 72
     2
176
     1
 73
     1
176
     1
 90
        2
176
     1
 40
-0.6
176
     1
 41
30.0
176
     1
 62
     5
 63
     7
421
 16777215
176
     1
 74
     0
176
     1
 91
        4
176
     1
 64
     7
176
     1
 65
   257
176
     1
 75
     1
176
     1
175
     1
176
     1
 42
1.0
176
     1
 92
        0
176
     1
 66
     7
176
     1
 43
1.0
176
     1
 76
     1
176
     1
 77
     6
176
     1
 78
     2
176
     1
 67
     7
176
     1
 79
     5
176
     1
170
     0
176
     1
171
     0
176
     1
290
     0
176
     1
 93
       13
176
     1
 44
0.0
176
     1
173
     0
176
     1
  0
VISUALSTYLE
  5
2E
102
{ACAD_REACTORS
330
2A
102
}
330
2A
100
AcDbVisualStyle
  2
GouraudWithEdges
 70
     3
177
     2
291
     1
 71
     2
176
     1
 72
     2
176
     1
 73
     1
176
     1
 90
        2
176
     1
 40
-0.6
176
     1
 41
30.0
176
     1
 62
     5
 63
     7
421
 16777215
176
     1
 74
     1
176
     1
 91
        4
176
     1
 64
     7
176
     1
 65
   257
176
     1
 75
     1
176
     1
175
     1
176
     1
 42
1.0
176
     1
 92
        0
176
     1
 66
   257
176
     1
 43
1.0
176
     1
 76
     1
176
     1
 77
     6
176
     1
 78
     2
176
     1
 67
     7
176
     1
 79
     5
176
     1
170
     0
176
     1
171
     0
176
     1
290
     0
176
     1
 93
       13
176
     1
 44
0.0
176
     1
173
     0
176
     1
  0
VISUALSTYLE
  5
38
102
{ACAD_REACTORS
330
2A
102
}
330
2A
100
AcDbVisualStyle
  2
Linepattern
 70
    14
177
     2
291
     1
 71
     2
176
     1
 72
     2
176
     1
 73
     0
176
     1
 90
        0
176
     1
 40
-0.6
176
     1
 41
-30.0
176
     1
 62
     5
 63
     7
421
 16777215
176
     1
 74
     1
176
     1
 91
        4
176
     1
 64
     7
176
     1
 65
   257
176
     1
 75
     7
176
     1
175
     7
176
     1
 42
1.0
176
     1
 92
        8
176
     1
 66
     7
176
     1
 43
1.0
176
     1
 76
     1
176
     1
 77
     6
176
     1
 78
     2
176
     1
 67
     7
176
     1
 79
     5
176
     1
170
     0
176
     1
171
     0
176
     1
290
     0
176
     1
 93
        1
176
     1
 44
0.0
176
     1
173
     0
176
     1
  0
VISUALSTYLE
  5
33
102
{ACAD_REACTORS
330
2A
102
}
330
2A
100
AcDbVisualStyle
  2
Realistic
 70
     8
177
     2
291
     0
 71
     2
176
     1
 72
     2
176
     1
 73
     0
176
     1
 90
        0
176
     1
 40
-0.6
176
     1
 41
-30.0
176
     1
 62
     5
 63
     7
421
 16777215
176
     1
 74
     1
176
     1
 91
        0
176
     1
 64
     7
176
     1
 65
   257
176
     1
 75
     1
176
     1
175
     1
176
     1
 42
1.0
176
     1
 92
        8
176
     1
 66
     8
424
  7895160
176
     1
 43
1.0
176
     1
 76
     1
176
     1
 77
     6
176
     1
 78
     2
176
     1
 67
     7
176
     1
 79
     5
176
     1
170
     0
176
     1
171
     0
176
     1
290
     0
176
     1
 93
       13
176
     1
 44
0.0
176
     1
173
     0
176
     1
  0
VISUALSTYLE
  5
37
102
{ACAD_REACTORS
330
2A
102
}
330
2A
100
AcDbVisualStyle
  2
Thicken
 70
    13
177
     2
291
     1
 71
     2
176
     1
 72
     2
176
     1
 73
     0
176
     1
 90
        0
176
     1
 40
-0.6
176
     1
 41
-30.0
176
     1
 62
     5
 63
     7
421
 16777215
176
     1
 74
     1
176
     1
 91
        4
176
     1
 64
     7
176
     1
 65
   257
176
     1
 75
     1
176
     1
175
     1
176
     1
 42
1.0
176
     1
 92
       12
176
     1
 66
     7
176
     1
 43
1.0
176
     1
 76
     1
176
     1
 77
     6
176
     1
 78
     2
176
     1
 67
     7
176
     1
 79
     5
176
     1
170
     0
176
     1
171
     0
176
     1
290
     0
176
     1
 93
        1
176
     1
 44
0.0
176
     1
173
     0
176
     1
  0
ENDSEC
  0
EOF
