  0
SECTION
  2
HEADER
  9
$ACADVER
  1
AC1024
  9
$ACADMAINTVER
 70
     6
  9
$DWGCODEPAGE
  3
UNDEFINED
  9
$INSBASE
 10
0.0
 20
0.0
 30
0.0
  9
$EXTMIN
 10
1.000000000000000E+20
 20
1.000000000000000E+20
 30
1.000000000000000E+20
  9
$EXTMAX
 10
-1.000000000000000E+20
 20
-1.000000000000000E+20
 30
-1.000000000000000E+20
  9
$LIMMIN
 10
0.0
 20
0.0
  9
$LIMMAX
 10
12.0
 20
9.0
  9
$ORTHOMODE
 70
     0
  9
$REGENMODE
 70
     1
  9
$FILLMODE
 70
     1
  9
$QTEXTMODE
 70
     0
  9
$MIRRTEXT
 70
     1
  9
$LTSCALE
 40
1.0
  9
$ATTMODE
 70
     1
  9
$TEXTSIZE
 40
0.2
  9
$TRACEWID
 40
0.05
  9
$TEXTSTYLE
  7
Standard
  9
$CLAYER
  8
0
  9
$CELTYPE
  6
ByLayer
  9
$CECOLOR
 62
   256
  9
$CELTSCALE
 40
1.0
  9
$DISPSILH
 70
     0
  9
$DIMSCALE
 40
1.0
  9
$DIMASZ
 40
0.18
  9
$DIMEXO
 40
0.0625
  9
$DIMDLI
 40
0.38
  9
$DIMRND
 40
0.0
  9
$DIMDLE
 40
0.0
  9
$DIMEXE
 40
0.18
  9
$DIMTP
 40
0.0
  9
$DIMTM
 40
0.0
  9
$DIMTXT
 40
0.18
  9
$DIMCEN
 40
0.09
  9
$DIMTSZ
 40
0.0
  9
$DIMTOL
 70
     0
  9
$DIMLIM
 70
     0
  9
$DIMTIH
 70
     1
  9
$DIMTOH
 70
     1
  9
$DIMSE1
 70
     0
  9
$DIMSE2
 70
     0
  9
$DIMTAD
 70
     0
  9
$DIMZIN
 70
     0
  9
$DIMBLK
  1

  9
$DIMASO
 70
     1
  9
$DIMSHO
 70
     1
  9
$DIMPOST
  1

  9
$DIMAPOST
  1

  9
$DIMALT
 70
     0
  9
$DIMALTD
 70
     2
  9
$DIMALTF
 40
25.4
  9
$DIMLFAC
 40
1.0
  9
$DIMTOFL
 70
     0
  9
$DIMTVP
 40
0.0
  9
$DIMTIX
 70
     0
  9
$DIMSOXD
 70
     0
  9
$DIMSAH
 70
     0
  9
$DIMBLK1
  1

  9
$DIMBLK2
  1

  9
$DIMSTYLE
  2
Standard
  9
$DIMCLRD
 70
     0
  9
$DIMCLRE
 70
     0
  9
$DIMCLRT
 70
     0
  9
$DIMTFAC
 40
1.0
  9
$DIMGAP
 40
0.09
  9
$DIMJUST
 70
     0
  9
$DIMSD1
 70
     0
  9
$DIMSD2
 70
     0
  9
$DIMTOLJ
 70
     1
  9
$DIMTZIN
 70
     0
  9
$DIMALTZ
 70
     0
  9
$DIMALTTZ
 70
     0
  9
$DIMUPT
 70
     0
  9
$DIMDEC
 70
     4
  9
$DIMTDEC
 70
     4
  9
$DIMALTU
 70
     2
  9
$DIMALTTD
 70
     2
  9
$DIMTXSTY
  7
Standard
  9
$DIMAUNIT
 70
     0
  9
$DIMADEC
 70
     0
  9
$DIMALTRND
 40
0.0
  9
$DIMAZIN
 70
     0
  9
$DIMDSEP
 70
    46
  9
$DIMATFIT
 70
     3
  9
$DIMFRAC
 70
     0
  9
$DIMLDRBLK
  1

  9
$DIMLUNIT
 70
     2
  9
$DIMLWD
 70
    -2
  9
$DIMLWE
 70
    -2
  9
$DIMTMOVE
 70
     0
  9
$DIMFXL
 40
1.0
  9
$DIMFXLON
 70
     0
  9
$DIMJOGANG
 40
0.7853981633974483
  9
$DIMTFILL
 70
     0
  9
$DIMTFILLCLR
 70
     0
  9
$DIMARCSYM
 70
     0
  9
$DIMLTYPE
  6

  9
$DIMLTEX1
  6

  9
$DIMLTEX2
  6

  9
$DIMTXTDIRECTION
 70
     0
  9
$LUNITS
 70
     2
  9
$LUPREC
 70
     4
  9
$SKETCHINC
 40
0.1
  9
$FILLETRAD
 40
0.5
  9
$AUNITS
 70
     0
  9
$AUPREC
 70
     0
  9
$MENU
  1
.
  9
$ELEVATION
 40
0.0
  9
$PELEVATION
 40
0.0
  9
$THICKNESS
 40
0.0
  9
$LIMCHECK
 70
     0
  9
$CHAMFERA
 40
0.5
  9
$CHAMFERB
 40
0.5
  9
$CHAMFERC
 40
1.0
  9
$CHAMFERD
 40
0.0
  9
$SKPOLY
 70
     0
  9
$TDCREATE
 40
2458270.588055556
  9
$TDUCREATE
 40
2458270.213055556
  9
$TDUPDATE
 40
2458270.588055556
  9
$TDUUPDATE
 40
2458270.213055556
  9
$TDINDWG
 40
0.0000000116
  9
$TDUSRTIMER
 40
0.0000000116
  9
$USRTIMER
 70
     1
  9
$ANGBASE
 50
0.0
  9
$ANGDIR
 70
     0
  9
$PDMODE
 70
     0
  9
$PDSIZE
 40
0.0
  9
$PLINEWID
 40
0.0
  9
$SPLFRAME
 70
     0
  9
$SPLINETYPE
 70
     6
  9
$SPLINESEGS
 70
     8
  9
$HANDSEED
  5
223
  9
$SURFTAB1
 70
     6
  9
$SURFTAB2
 70
     6
  9
$SURFTYPE
 70
     6
  9
$SURFU
 70
     6
  9
$SURFV
 70
     6
  9
$UCSBASE
  2

  9
$UCSNAME
  2

  9
$UCSORG
 10
0.0
 20
0.0
 30
0.0
  9
$UCSXDIR
 10
1.0
 20
0.0
 30
0.0
  9
$UCSYDIR
 10
0.0
 20
1.0
 30
0.0
  9
$UCSORTHOREF
  2

  9
$UCSORTHOVIEW
 70
     0
  9
$UCSORGTOP
 10
0.0
 20
0.0
 30
0.0
  9
$UCSORGBOTTOM
 10
0.0
 20
0.0
 30
0.0
  9
$UCSORGLEFT
 10
0.0
 20
0.0
 30
0.0
  9
$UCSORGRIGHT
 10
0.0
 20
0.0
 30
0.0
  9
$UCSORGFRONT
 10
0.0
 20
0.0
 30
0.0
  9
$UCSORGBACK
 10
0.0
 20
0.0
 30
0.0
  9
$PUCSBASE
  2

  9
$PUCSNAME
  2

  9
$PUCSORG
 10
0.0
 20
0.0
 30
0.0
  9
$PUCSXDIR
 10
1.0
 20
0.0
 30
0.0
  9
$PUCSYDIR
 10
0.0
 20
1.0
 30
0.0
  9
$PUCSORTHOREF
  2

  9
$PUCSORTHOVIEW
 70
     0
  9
$PUCSORGTOP
 10
0.0
 20
0.0
 30
0.0
  9
$PUCSORGBOTTOM
 10
0.0
 20
0.0
 30
0.0
  9
$PUCSORGLEFT
 10
0.0
 20
0.0
 30
0.0
  9
$PUCSORGRIGHT
 10
0.0
 20
0.0
 30
0.0
  9
$PUCSORGFRONT
 10
0.0
 20
0.0
 30
0.0
  9
$PUCSORGBACK
 10
0.0
 20
0.0
 30
0.0
  9
$USERI1
 70
     0
  9
$USERI2
 70
     0
  9
$USERI3
 70
     0
  9
$USERI4
 70
     0
  9
$USERI5
 70
     0
  9
$USERR1
 40
0.0
  9
$USERR2
 40
0.0
  9
$USERR3
 40
0.0
  9
$USERR4
 40
0.0
  9
$USERR5
 40
0.0
  9
$WORLDVIEW
 70
     1
  9
$SHADEDGE
 70
     3
  9
$SHADEDIF
 70
    70
  9
$TILEMODE
 70
     1
  9
$MAXACTVP
 70
    64
  9
$PINSBASE
 10
0.0
 20
0.0
 30
0.0
  9
$PLIMCHECK
 70
     0
  9
$PEXTMIN
 10
1.000000000000000E+20
 20
1.000000000000000E+20
 30
1.000000000000000E+20
  9
$PEXTMAX
 10
-1.000000000000000E+20
 20
-1.000000000000000E+20
 30
-1.000000000000000E+20
  9
$PLIMMIN
 10
0.0
 20
0.0
  9
$PLIMMAX
 10
12.0
 20
9.0
  9
$UNITMODE
 70
     0
  9
$VISRETAIN
 70
     1
  9
$PLINEGEN
 70
     0
  9
$PSLTSCALE
 70
     1
  9
$TREEDEPTH
 70
  3020
  9
$CMLSTYLE
  2
Standard
  9
$CMLJUST
 70
     0
  9
$CMLSCALE
 40
1.0
  9
$PROXYGRAPHICS
 70
     1
  9
$MEASUREMENT
 70
     0
  9
$CELWEIGHT
370
    -1
  9
$ENDCAPS
280
     0
  9
$JOINSTYLE
280
     0
  9
$LWDISPLAY
290
     1
  9
$INSUNITS
 70
     1
  9
$HYPERLINKBASE
  1

  9
$STYLESHEET
  1

  9
$XEDIT
290
     1
  9
$CEPSNTYPE
380
     0
  9
$PSTYLEMODE
290
     1
  9
$FINGERPRINTGUID
  2
{F1261338-FCDC-697A-965B-8DCC1E9BBAFF}
  9
$VERSIONGUID
  2
{FAEB1C32-E019-11D5-929B-00C0DF256EC4}
  9
$EXTNAMES
290
     1
  9
$PSVPSCALE
 40
0.0
  9
$OLESTARTUP
290
     0
  9
$SORTENTS
280
   127
  9
$INDEXCTL
280
     0
  9
$HIDETEXT
280
     1
  9
$XCLIPFRAME
280
     2
  9
$HALOGAP
280
     0
  9
$OBSCOLOR
 70
   257
  9
$OBSLTYPE
280
     0
  9
$INTERSECTIONDISPLAY
280
     0
  9
$INTERSECTIONCOLOR
 70
   257
  9
$DIMASSOC
280
     2
  9
$PROJECTNAME
  1

  9
$CAMERADISPLAY
290
     0
  9
$LENSLENGTH
 40
50.0
  9
$CAMERAHEIGHT
 40
0.0
  9
$STEPSPERSEC
 40
2.0
  9
$STEPSIZE
 40
6.0
  9
$3DDWFPREC
 40
2.0
  9
$PSOLWIDTH
 40
0.25
  9
$PSOLHEIGHT
 40
4.0
  9
$LOFTANG1
 40
1.570796326794897
  9
$LOFTANG2
 40
1.570796326794897
  9
$LOFTMAG1
 40
0.0
  9
$LOFTMAG2
 40
0.0
  9
$LOFTPARAM
 70
     7
  9
$LOFTNORMALS
280
     1
  9
$LATITUDE
 40
37.795
  9
$LONGITUDE
 40
-122.394
  9
$NORTHDIRECTION
 40
0.0
  9
$TIMEZONE
 70
 -8000
  9
$LIGHTGLYPHDISPLAY
280
     1
  9
$TILEMODELIGHTSYNCH
280
     1
  9
$CMATERIAL
347
3C
  9
$SOLIDHIST
280
     1
  9
$SHOWHIST
280
     1
  9
$DWFFRAME
280
     2
  9
$DGNFRAME
280
     2
  9
$REALWORLDSCALE
290
     1
  9
$INTERFERECOLOR
 62
   256
  9
$CSHADOW
280
     0
  9
$SHADOWPLANELOCATION
 40
0.0
  0
ENDSEC
  0
SECTION
  2
CLASSES
  0
CLASS
  1
ACDBDICTIONARYWDFLT
  2
AcDbDictionaryWithDefault
  3
ObjectDBX Classes
 90
        0
 91
        4
280
     0
281
     0
  0
CLASS
  1
VISUALSTYLE
  2
AcDbVisualStyle
  3
ObjectDBX Classes
 90
     4095
 91
        4
280
     0
281
     0
  0
CLASS
  1
MATERIAL
  2
AcDbMaterial
  3
ObjectDBX Classes
 90
     1153
 91
        4
280
     0
281
     0
  0
CLASS
  1
SUN
  2
AcDbSun
  3
SCENEOE
 90
     1024
 91
        4
280
     0
281
     0
  0
ENDSEC
  0
SECTION
  2
TABLES
  0
TABLE
  2
VPORT
  5
8
330
0
100
AcDbSymbolTable
 70
     1
  0
VPORT
  5
29
330
8
100
AcDbSymbolTableRecord
100
AcDbViewportTableRecord
  2
*Active
 70
     0
 10
0.0
 20
0.0
 11
1.0
 21
1.0
 12
0.0
 22
0.0
 13
0.0
 23
0.0
 14
0.5
 24
0.5
 15
0.5
 25
0.5
 16
0.0
 26
0.0
 36
1.0
 17
105.0007777515277
 27
-148.5000416295416
 37
0.0
 40
297.0000832590831
 41
0.7070757462376333
 42
50.0
 43
0.0
 44
0.0
 50
0.0
 51
0.0
 71
     0
 72
   100
 73
     1
 74
     3
 75
     0
 76
     0
 77
     0
 78
     0
281
     0
 65
     1
110
0.0
120
0.0
130
0.0
111
1.0
121
0.0
131
0.0
112
0.0
122
1.0
132
0.0
 79
     0
146
0.0
 60
     3
 61
     5
292
     1
282
     1
141
0.0
142
0.0
 63
   250
361
3F
  0
ENDTAB
  0
TABLE
  2
LTYPE
  5
5
330
0
100
AcDbSymbolTable
 70
     3
  0
LTYPE
  5
14
330
5
100
AcDbSymbolTableRecord
100
AcDbLinetypeTableRecord
  2
ByBlock
 70
     0
  3

 72
    65
 73
     0
 40
0.0
  0
LTYPE
  5
15
330
5
100
AcDbSymbolTableRecord
100
AcDbLinetypeTableRecord
  2
ByLayer
 70
     0
  3

 72
    65
 73
     0
 40
0.0
  0
LTYPE
  5
16
330
5
100
AcDbSymbolTableRecord
100
AcDbLinetypeTableRecord
  2
Continuous
 70
     0
  3
Solid line
 72
    65
 73
     0
 40
0.0
  0
LTYPE
  5
194
330
5
100
AcDbSymbolTableRecord
100
AcDbLinetypeTableRecord
  2
AI-Linetype-1
 70
     0
  3
Adobe Illustrator Linetype No. 1
 72
    65
 73
     2
 40
1.411111110758333
 49
0.7055555553791667
 74
     0
 49
-0.7055555553791667
 74
     0
  0
LTYPE
  5
1C5
330
5
100
AcDbSymbolTableRecord
100
AcDbLinetypeTableRecord
  2
AI-Linetype-2
 70
     0
  3
Adobe Illustrator Linetype No. 2
 72
    65
 73
     2
 40
1.411111110758333
 49
0.7055555553791667
 74
     0
 49
-0.7055555553791667
 74
     0
  0
ENDTAB
  0
TABLE
  2
LAYER
  5
2
330
0
100
AcDbSymbolTable
 70
     2
  0
LAYER
  5
10
330
2
100
AcDbSymbolTableRecord
100
AcDbLayerTableRecord
  2
0
 70
     0
 62
     7
  6
Continuous
370
    -3
390
F
347
3E
  0
LAYER
  5
40
330
2
100
AcDbSymbolTableRecord
100
AcDbLayerTableRecord
  2
_U+30EC_U+30A4_U+30E4_U+30FC 1
 70
     0
 62
     7
  6
Continuous
370
    -3
390
F
347
3E
  0
ENDTAB
  0
TABLE
  2
STYLE
  5
3
330
0
100
AcDbSymbolTable
 70
     1
  0
STYLE
  5
11
330
3
100
AcDbSymbolTableRecord
100
AcDbTextStyleTableRecord
  2
Standard
 70
     0
 40
0.0
 41
1.0
 50
0.0
 71
     0
 42
0.2
  3
txt
  4

  0
ENDTAB
  0
TABLE
  2
VIEW
  5
6
330
0
100
AcDbSymbolTable
 70
     0
  0
ENDTAB
  0
TABLE
  2
UCS
  5
7
330
0
100
AcDbSymbolTable
 70
     0
  0
ENDTAB
  0
TABLE
  2
APPID
  5
9
330
0
100
AcDbSymbolTable
 70
     1
  0
APPID
  5
12
330
9
100
AcDbSymbolTableRecord
100
AcDbRegAppTableRecord
  2
ACAD
 70
     0
  0
ENDTAB
  0
TABLE
  2
DIMSTYLE
  5
A
330
0
100
AcDbSymbolTable
 70
     1
100
AcDbDimStyleTable
  0
DIMSTYLE
105
27
330
A
100
AcDbSymbolTableRecord
100
AcDbDimStyleTableRecord
  2
Standard
 70
     0
178
     0
340
11
  0
ENDTAB
  0
TABLE
  2
BLOCK_RECORD
  5
1
330
0
100
AcDbSymbolTable
 70
     7
  0
BLOCK_RECORD
  5
1F
330
1
100
AcDbSymbolTableRecord
100
AcDbBlockTableRecord
  2
*Model_Space
340
22
 70
     0
280
     1
281
     0
  0
BLOCK_RECORD
  5
1B
330
1
100
AcDbSymbolTableRecord
100
AcDbBlockTableRecord
  2
*Paper_Space
340
1E
 70
     0
280
     1
281
     0
  0
BLOCK_RECORD
  5
23
330
1
100
AcDbSymbolTableRecord
100
AcDbBlockTableRecord
  2
*Paper_Space0
340
26
 70
     0
280
     1
281
     0
  0
BLOCK_RECORD
  5
4F
330
1
100
AcDbSymbolTableRecord
100
AcDbBlockTableRecord
  2
block 2
340
0
102
{BLKREFS
331
50
102
}
 70
     0
280
     1
281
     0
  0
BLOCK_RECORD
  5
E2
330
1
100
AcDbSymbolTableRecord
100
AcDbBlockTableRecord
  2
block 3
340
0
102
{BLKREFS
331
E3
102
}
 70
     0
280
     1
281
     0
  0
BLOCK_RECORD
  5
F9
330
1
100
AcDbSymbolTableRecord
100
AcDbBlockTableRecord
  2
block 4
340
0
102
{BLKREFS
331
FA
102
}
 70
     0
280
     1
281
     0
  0
BLOCK_RECORD
  5
10C
330
1
100
AcDbSymbolTableRecord
100
AcDbBlockTableRecord
  2
block 5
340
0
102
{BLKREFS
331
10D
102
}
 70
     0
280
     1
281
     0
  0
BLOCK_RECORD
  5
131
330
1
100
AcDbSymbolTableRecord
100
AcDbBlockTableRecord
  2
block 6
340
0
102
{BLKREFS
331
132
102
}
 70
     0
280
     1
281
     0
  0
BLOCK_RECORD
  5
19A
330
1
100
AcDbSymbolTableRecord
100
AcDbBlockTableRecord
  2
block 7
340
0
102
{BLKREFS
331
19B
102
}
 70
     0
280
     1
281
     0
  0
ENDTAB
  0
ENDSEC
  0
SECTION
  2
BLOCKS
  0
BLOCK
  5
20
330
1F
100
AcDbEntity
  8
0
100
AcDbBlockBegin
  2
*Model_Space
 70
     0
 10
0.0
 20
0.0
 30
0.0
  3
*Model_Space
  1

  0
ENDBLK
  5
21
330
1F
100
AcDbEntity
  8
0
100
AcDbBlockEnd
  0
BLOCK
  5
1C
330
1B
100
AcDbEntity
 67
     1
  8
0
100
AcDbBlockBegin
  2
*Paper_Space
 70
     0
 10
0.0
 20
0.0
 30
0.0
  3
*Paper_Space
  1

  0
ENDBLK
  5
1D
330
1B
100
AcDbEntity
 67
     1
  8
0
100
AcDbBlockEnd
  0
BLOCK
  5
24
330
23
100
AcDbEntity
  8
0
100
AcDbBlockBegin
  2
*Paper_Space0
 70
     0
 10
0.0
 20
0.0
 30
0.0
  3
*Paper_Space0
  1

  0
ENDBLK
  5
25
330
23
100
AcDbEntity
  8
0
100
AcDbBlockEnd
  0
BLOCK
  5
51
330
4F
100
AcDbEntity
  8
0
100
AcDbBlockBegin
  2
block 2
 70
     0
 10
0.0
 20
0.0
 30
0.0
  3
block 2
  1

  0
SPLINE
  5
53
330
4F
100
AcDbEntity
  8
_U+30EC_U+30A4_U+30E4_U+30FC 1
370
     0
100
AcDbSpline
210
0.0
220
0.0
230
1.0
 70
    11
 71
     3
 72
    32
 73
    28
 74
     0
 42
0.0000000001
 43
0.0000000001
 12
1.0
 22
0.0
 32
0.0
 13
1.0
 23
0.0
 33
0.0
 40
0.0
 40
0.0
 40
0.0
 40
0.0
 40
1.0
 40
1.0
 40
1.0
 40
2.0
 40
2.0
 40
2.0
 40
3.0
 40
3.0
 40
3.0
 40
4.0
 40
4.0
 40
4.0
 40
5.0
 40
5.0
 40
5.0
 40
6.0
 40
6.0
 40
6.0
 40
7.0
 40
7.0
 40
7.0
 40
8.0
 40
8.0
 40
8.0
 40
9.0
 40
9.0
 40
9.0
 40
9.0
 10
87.85958114122955
 20
-162.8265814480087
 30
0.0
 10
87.34333358276487
 20
-162.8265814480087
 30
0.0
 10
87.334893098826
 20
-162.2722655844319
 30
0.0
 10
87.334893098826
 20
-162.0586696643464
 30
0.0
 10
87.334893098826
 20
-161.8278482668347
 30
0.0
 10
87.35401337876914
 20
-161.1805148251563
 30
0.0
 10
87.89764944634156
 20
-161.1805148251563
 30
0.0
 10
88.0711100040239
 20
-161.1805148251563
 30
0.0
 10
88.31640080257368
 20
-161.2504502635068
 30
0.0
 10
88.35464136245996
 20
-161.5825574682849
 30
0.0
 10
88.35464136245996
 20
-161.5825574682849
 30
0.0
 10
88.1408731876002
 20
-161.5825574682849
 30
0.0
 10
88.1408731876002
 20
-161.5825574682849
 30
0.0
 10
88.1303656463702
 20
-161.5253688832298
 30
0.0
 10
88.09867076790589
 20
-161.377229777364
 30
0.0
 10
87.89558238905042
 20
-161.377229777364
 30
0.0
 10
87.60361054667548
 20
-161.377229777364
 30
0.0
 10
87.56330292949806
 20
-161.7052028675598
 30
0.0
 10
87.55072833097691
 20
-161.9105305584807
 30
0.0
 10
87.64374590907865
 20
-161.8323268909655
 30
0.0
 10
87.71144203536382
 20
-161.7730712486192
 30
0.0
 10
87.893343076985
 20
-161.7730712486192
 30
0.0
 10
88.07317706131505
 20
-161.7730712486192
 30
0.0
 10
88.37565644491998
 20
-161.8809027373076
 30
0.0
 10
88.37565644491998
 20
-162.2870794950185
 30
0.0
 10
88.37565644491998
 20
-162.6064398465012
 30
0.0
 10
88.17687443542107
 20
-162.8265814480087
 30
0.0
 10
87.85958114122955
 20
-162.8265814480087
 30
0.0
  0
SPLINE
  5
54
330
4F
100
AcDbEntity
  8
_U+30EC_U+30A4_U+30E4_U+30FC 1
370
     0
100
AcDbSpline
210
0.0
220
0.0
230
1.0
 70
    11
 71
     3
 72
    17
 73
    13
 74
     0
 42
0.0000000001
 43
0.0000000001
 12
1.0
 22
0.0
 32
0.0
 13
1.0
 23
0.0
 33
0.0
 40
0.0
 40
0.0
 40
0.0
 40
0.0
 40
1.0
 40
1.0
 40
1.0
 40
2.0
 40
2.0
 40
2.0
 40
3.0
 40
3.0
 40
3.0
 40
4.0
 40
4.0
 40
4.0
 40
4.0
 10
87.87646210910728
 20
-161.9677191435358
 30
0.0
 10
87.6141180879055
 20
-161.9677191435358
 30
0.0
 10
87.57604978279349
 20
-162.1792480063302
 30
0.0
 10
87.57604978279349
 20
-162.2953477241831
 30
0.0
 10
87.57604978279349
 20
-162.4710475939308
 30
0.0
 10
87.67130667296065
 20
-162.6340006103832
 30
0.0
 10
87.85527477187298
 20
-162.6340006103832
 30
0.0
 10
87.97585311385673
 20
-162.6340006103832
 30
0.0
 10
88.15155298360447
 20
-162.5747449680369
 30
0.0
 10
88.15155298360447
 20
-162.2891465523097
 30
0.0
 10
88.15155298360447
 20
-162.0648708362199
 30
0.0
 10
88.01185436167759
 20
-161.9677191435358
 30
0.0
 10
87.87646210910728
 20
-161.9677191435358
 30
0.0
  0
HATCH
  5
55
330
4F
100
AcDbEntity
  8
_U+30EC_U+30A4_U+30E4_U+30FC 1
 62
   179
420
  2234388
100
AcDbHatch
 10
0.0
 20
0.0
 30
0.0
210
0.0
220
0.0
230
1.0
  2
SOLID
 70
     1
 71
     0
 91
        2
 92
        1
 93
        1
 72
     4
 94
        3
 73
     0
 74
     1
 95
       32
 96
       28
 40
0.0
 40
0.0
 40
0.0
 40
0.0
 40
1.0
 40
1.0
 40
1.0
 40
2.0
 40
2.0
 40
2.0
 40
3.0
 40
3.0
 40
3.0
 40
4.0
 40
4.0
 40
4.0
 40
5.0
 40
5.0
 40
5.0
 40
6.0
 40
6.0
 40
6.0
 40
7.0
 40
7.0
 40
7.0
 40
8.0
 40
8.0
 40
8.0
 40
9.0
 40
9.0
 40
9.0
 40
9.0
 10
87.85958114122955
 20
-162.8265814480087
 10
87.34333358276487
 20
-162.8265814480087
 10
87.334893098826
 20
-162.2722655844319
 10
87.334893098826
 20
-162.0586696643464
 10
87.334893098826
 20
-161.8278482668347
 10
87.35401337876914
 20
-161.1805148251563
 10
87.89764944634156
 20
-161.1805148251563
 10
88.0711100040239
 20
-161.1805148251563
 10
88.31640080257368
 20
-161.2504502635068
 10
88.35464136245996
 20
-161.5825574682849
 10
88.35464136245996
 20
-161.5825574682849
 10
88.1408731876002
 20
-161.5825574682849
 10
88.1408731876002
 20
-161.5825574682849
 10
88.1303656463702
 20
-161.5253688832298
 10
88.09867076790589
 20
-161.377229777364
 10
87.89558238905042
 20
-161.377229777364
 10
87.60361054667548
 20
-161.377229777364
 10
87.56330292949806
 20
-161.7052028675598
 10
87.55072833097691
 20
-161.9105305584807
 10
87.64374590907865
 20
-161.8323268909655
 10
87.71144203536382
 20
-161.7730712486192
 10
87.893343076985
 20
-161.7730712486192
 10
88.07317706131505
 20
-161.7730712486192
 10
88.37565644491998
 20
-161.8809027373076
 10
88.37565644491998
 20
-162.2870794950185
 10
88.37565644491998
 20
-162.6064398465012
 10
88.17687443542107
 20
-162.8265814480087
 10
87.85958114122955
 20
-162.8265814480087
 97
        0
 97
        0
 92
        1
 93
        1
 72
     4
 94
        3
 73
     0
 74
     1
 95
       17
 96
       13
 40
0.0
 40
0.0
 40
0.0
 40
0.0
 40
1.0
 40
1.0
 40
1.0
 40
2.0
 40
2.0
 40
2.0
 40
3.0
 40
3.0
 40
3.0
 40
4.0
 40
4.0
 40
4.0
 40
4.0
 10
87.87646210910728
 20
-161.9677191435358
 10
87.6141180879055
 20
-161.9677191435358
 10
87.57604978279349
 20
-162.1792480063302
 10
87.57604978279349
 20
-162.2953477241831
 10
87.57604978279349
 20
-162.4710475939308
 10
87.67130667296065
 20
-162.6340006103832
 10
87.85527477187298
 20
-162.6340006103832
 10
87.97585311385673
 20
-162.6340006103832
 10
88.15155298360447
 20
-162.5747449680369
 10
88.15155298360447
 20
-162.2891465523097
 10
88.15155298360447
 20
-162.0648708362199
 10
88.01185436167759
 20
-161.9677191435358
 10
87.87646210910728
 20
-161.9677191435358
 97
        0
 97
        0
 75
     2
 76
     1
 98
        0
  0
ENDBLK
  5
52
330
4F
100
AcDbEntity
  8
0
100
AcDbBlockEnd
  0
BLOCK
  5
E4
330
E2
100
AcDbEntity
  8
0
100
AcDbBlockBegin
  2
block 3
 70
     0
 10
0.0
 20
0.0
 30
0.0
  3
block 3
  1

  0
SPLINE
  5
E6
330
E2
100
AcDbEntity
  8
_U+30EC_U+30A4_U+30E4_U+30FC 1
370
     0
100
AcDbSpline
210
0.0
220
0.0
230
1.0
 70
    11
 71
     3
 72
    44
 73
    40
 74
     0
 42
0.0000000001
 43
0.0000000001
 12
1.0
 22
0.0
 32
0.0
 13
1.0
 23
0.0
 33
0.0
 40
0.0
 40
0.0
 40
0.0
 40
0.0
 40
1.0
 40
1.0
 40
1.0
 40
2.0
 40
2.0
 40
2.0
 40
3.0
 40
3.0
 40
3.0
 40
4.0
 40
4.0
 40
4.0
 40
5.0
 40
5.0
 40
5.0
 40
6.0
 40
6.0
 40
6.0
 40
7.0
 40
7.0
 40
7.0
 40
8.0
 40
8.0
 40
8.0
 40
9.0
 40
9.0
 40
9.0
 40
10.0
 40
10.0
 40
10.0
 40
11.0
 40
11.0
 40
11.0
 40
12.0
 40
12.0
 40
12.0
 40
13.0
 40
13.0
 40
13.0
 40
13.0
 10
104.5629543466891
 20
-132.0374185867823
 30
0.0
 10
104.3450520572471
 20
-132.1960652338781
 30
0.0
 10
104.2518622243711
 20
-132.270134786811
 30
0.0
 10
104.203286378029
 20
-132.4139675233201
 30
0.0
 10
104.203286378029
 20
-132.4139675233201
 30
0.0
 10
104.9817057029212
 20
-132.4139675233201
 30
0.0
 10
104.9817057029212
 20
-132.4139675233201
 30
0.0
 10
104.9817057029212
 20
-132.4139675233201
 30
0.0
 10
104.9817057029212
 20
-132.6191229594668
 30
0.0
 10
104.9817057029212
 20
-132.6191229594668
 30
0.0
 10
104.9817057029212
 20
-132.6191229594668
 30
0.0
 10
103.9536892101227
 20
-132.6191229594668
 30
0.0
 10
103.9536892101227
 20
-132.6191229594668
 30
0.0
 10
103.985384088587
 20
-132.2615220480978
 30
0.0
 10
104.0508409028067
 20
-132.1833183805826
 30
0.0
 10
104.4360025780577
 20
-131.88497311156
 30
0.0
 10
104.6919731726117
 20
-131.6861911020611
 30
0.0
 10
104.7574299868315
 20
-131.6184949757759
 30
0.0
 10
104.7574299868315
 20
-131.4810356659145
 30
0.0
 10
104.7574299868315
 20
-131.3625243812219
 30
0.0
 10
104.685599745964
 20
-131.2314384980081
 30
0.0
 10
104.4888847937563
 20
-131.2314384980081
 30
0.0
 10
104.2286078298456
 20
-131.2314384980081
 30
0.0
 10
104.2201673459068
 20
-131.4619153859713
 30
0.0
 10
104.2158609765502
 20
-131.5783596133728
 30
0.0
 10
104.2158609765502
 20
-131.5783596133728
 30
0.0
 10
103.9917575152347
 20
-131.5783596133728
 30
0.0
 10
103.9917575152347
 20
-131.5783596133728
 30
0.0
 10
104.0001979991736
 20
-131.4514078447413
 30
0.0
 10
104.0107055404036
 20
-131.3392699866965
 30
0.0
 10
104.0911485199842
 20
-131.2207587020038
 30
0.0
 10
104.2010470659636
 20
-131.0600449976169
 30
0.0
 10
104.3872544769414
 20
-131.0261108070872
 30
0.0
 10
104.5036987043428
 20
-131.0261108070872
 30
0.0
 10
104.7808566361312
 20
-131.0261108070872
 30
0.0
 10
104.988079129569
 20
-131.2102511607738
 30
0.0
 10
104.988079129569
 20
-131.4831027232056
 30
0.0
 10
104.988079129569
 20
-131.7115125538777
 30
0.0
 10
104.8718071569418
 20
-131.8110758134014
 30
0.0
 10
104.5629543466891
 20
-132.0374185867823
 30
0.0
  0
HATCH
  5
E7
330
E2
100
AcDbEntity
  8
_U+30EC_U+30A4_U+30E4_U+30FC 1
 62
   179
420
  2234388
100
AcDbHatch
 10
0.0
 20
0.0
 30
0.0
210
0.0
220
0.0
230
1.0
  2
SOLID
 70
     1
 71
     0
 91
        1
 92
        1
 93
        1
 72
     4
 94
        3
 73
     0
 74
     1
 95
       44
 96
       40
 40
0.0
 40
0.0
 40
0.0
 40
0.0
 40
1.0
 40
1.0
 40
1.0
 40
2.0
 40
2.0
 40
2.0
 40
3.0
 40
3.0
 40
3.0
 40
4.0
 40
4.0
 40
4.0
 40
5.0
 40
5.0
 40
5.0
 40
6.0
 40
6.0
 40
6.0
 40
7.0
 40
7.0
 40
7.0
 40
8.0
 40
8.0
 40
8.0
 40
9.0
 40
9.0
 40
9.0
 40
10.0
 40
10.0
 40
10.0
 40
11.0
 40
11.0
 40
11.0
 40
12.0
 40
12.0
 40
12.0
 40
13.0
 40
13.0
 40
13.0
 40
13.0
 10
104.5629543466891
 20
-132.0374185867823
 10
104.3450520572471
 20
-132.1960652338781
 10
104.2518622243711
 20
-132.270134786811
 10
104.203286378029
 20
-132.4139675233201
 10
104.203286378029
 20
-132.4139675233201
 10
104.9817057029212
 20
-132.4139675233201
 10
104.9817057029212
 20
-132.4139675233201
 10
104.9817057029212
 20
-132.4139675233201
 10
104.9817057029212
 20
-132.6191229594668
 10
104.9817057029212
 20
-132.6191229594668
 10
104.9817057029212
 20
-132.6191229594668
 10
103.9536892101227
 20
-132.6191229594668
 10
103.9536892101227
 20
-132.6191229594668
 10
103.985384088587
 20
-132.2615220480978
 10
104.0508409028067
 20
-132.1833183805826
 10
104.4360025780577
 20
-131.88497311156
 10
104.6919731726117
 20
-131.6861911020611
 10
104.7574299868315
 20
-131.6184949757759
 10
104.7574299868315
 20
-131.4810356659145
 10
104.7574299868315
 20
-131.3625243812219
 10
104.685599745964
 20
-131.2314384980081
 10
104.4888847937563
 20
-131.2314384980081
 10
104.2286078298456
 20
-131.2314384980081
 10
104.2201673459068
 20
-131.4619153859713
 10
104.2158609765502
 20
-131.5783596133728
 10
104.2158609765502
 20
-131.5783596133728
 10
103.9917575152347
 20
-131.5783596133728
 10
103.9917575152347
 20
-131.5783596133728
 10
104.0001979991736
 20
-131.4514078447413
 10
104.0107055404036
 20
-131.3392699866965
 10
104.0911485199842
 20
-131.2207587020038
 10
104.2010470659636
 20
-131.0600449976169
 10
104.3872544769414
 20
-131.0261108070872
 10
104.5036987043428
 20
-131.0261108070872
 10
104.7808566361312
 20
-131.0261108070872
 10
104.988079129569
 20
-131.2102511607738
 10
104.988079129569
 20
-131.4831027232056
 10
104.988079129569
 20
-131.7115125538777
 10
104.8718071569418
 20
-131.8110758134014
 10
104.5629543466891
 20
-132.0374185867823
 97
        0
 97
        0
 75
     2
 76
     1
 98
        0
  0
SPLINE
  5
E8
330
E2
100
AcDbEntity
  8
_U+30EC_U+30A4_U+30E4_U+30FC 1
370
     0
100
AcDbSpline
210
0.0
220
0.0
230
1.0
 70
    11
 71
     3
 72
    32
 73
    28
 74
     0
 42
0.0000000001
 43
0.0000000001
 12
1.0
 22
0.0
 32
0.0
 13
1.0
 23
0.0
 33
0.0
 40
0.0
 40
0.0
 40
0.0
 40
0.0
 40
1.0
 40
1.0
 40
1.0
 40
2.0
 40
2.0
 40
2.0
 40
3.0
 40
3.0
 40
3.0
 40
4.0
 40
4.0
 40
4.0
 40
5.0
 40
5.0
 40
5.0
 40
6.0
 40
6.0
 40
6.0
 40
7.0
 40
7.0
 40
7.0
 40
8.0
 40
8.0
 40
8.0
 40
9.0
 40
9.0
 40
9.0
 40
9.0
 10
105.6507432461568
 20
-132.6699381178742
 30
0.0
 10
105.1346679424663
 20
-132.6699381178742
 30
0.0
 10
105.1262274585275
 20
-132.1156222542975
 30
0.0
 10
105.1262274585275
 20
-131.902026334212
 30
0.0
 10
105.1262274585275
 20
-131.6713771914745
 30
0.0
 10
105.1453477384706
 20
-131.0240437497961
 30
0.0
 10
105.688983806043
 20
-131.0240437497961
 30
0.0
 10
105.8622721089511
 20
-131.0240437497961
 30
0.0
 10
106.1079074170494
 20
-131.0938069333724
 30
0.0
 10
106.1461479769357
 20
-131.4259141381505
 30
0.0
 10
106.1461479769357
 20
-131.4259141381505
 30
0.0
 10
105.9322075473017
 20
-131.4259141381505
 30
0.0
 10
105.9322075473017
 20
-131.4259141381505
 30
0.0
 10
105.9215277512974
 20
-131.3688978078696
 30
0.0
 10
105.8898328728331
 20
-131.2207587020038
 30
0.0
 10
105.6869167487519
 20
-131.2207587020038
 30
0.0
 10
105.394944906377
 20
-131.2207587020038
 30
0.0
 10
105.3546372891995
 20
-131.5487317921996
 30
0.0
 10
105.3420626906784
 20
-131.7538872283463
 30
0.0
 10
105.4350802687801
 20
-131.6756835608311
 30
0.0
 10
105.502604140291
 20
-131.6164279184848
 30
0.0
 10
105.6845051819122
 20
-131.6164279184848
 30
0.0
 10
105.8643391662423
 20
-131.6164279184848
 30
0.0
 10
106.1668185498472
 20
-131.7242594071731
 30
0.0
 10
106.1668185498472
 20
-132.1304361648841
 30
0.0
 10
106.1668185498472
 20
-132.449968771141
 30
0.0
 10
105.9683810498968
 20
-132.6699381178742
 30
0.0
 10
105.6507432461568
 20
-132.6699381178742
 30
0.0
  0
SPLINE
  5
E9
330
E2
100
AcDbEntity
  8
_U+30EC_U+30A4_U+30E4_U+30FC 1
370
     0
100
AcDbSpline
210
0.0
220
0.0
230
1.0
 70
    11
 71
     3
 72
    17
 73
    13
 74
     0
 42
0.0000000001
 43
0.0000000001
 12
1.0
 22
0.0
 32
0.0
 13
1.0
 23
0.0
 33
0.0
 40
0.0
 40
0.0
 40
0.0
 40
0.0
 40
1.0
 40
1.0
 40
1.0
 40
2.0
 40
2.0
 40
2.0
 40
3.0
 40
3.0
 40
3.0
 40
4.0
 40
4.0
 40
4.0
 40
4.0
 10
105.667968723583
 20
-131.8110758134014
 30
0.0
 10
105.405452447607
 20
-131.8110758134014
 30
0.0
 10
105.367384142495
 20
-132.0226046761958
 30
0.0
 10
105.367384142495
 20
-132.1388766488229
 30
0.0
 10
105.367384142495
 20
-132.3145765185707
 30
0.0
 10
105.4626410326621
 20
-132.4773572802487
 30
0.0
 10
105.6466091315745
 20
-132.4773572802487
 30
0.0
 10
105.7671874735582
 20
-132.4773572802487
 30
0.0
 10
105.942887343306
 20
-132.4181016379024
 30
0.0
 10
105.942887343306
 20
-132.1325032221752
 30
0.0
 10
105.942887343306
 20
-131.9083997608597
 30
0.0
 10
105.8030164666048
 20
-131.8110758134014
 30
0.0
 10
105.667968723583
 20
-131.8110758134014
 30
0.0
  0
HATCH
  5
EA
330
E2
100
AcDbEntity
  8
_U+30EC_U+30A4_U+30E4_U+30FC 1
 62
   179
420
  2234388
100
AcDbHatch
 10
0.0
 20
0.0
 30
0.0
210
0.0
220
0.0
230
1.0
  2
SOLID
 70
     1
 71
     0
 91
        2
 92
        1
 93
        1
 72
     4
 94
        3
 73
     0
 74
     1
 95
       32
 96
       28
 40
0.0
 40
0.0
 40
0.0
 40
0.0
 40
1.0
 40
1.0
 40
1.0
 40
2.0
 40
2.0
 40
2.0
 40
3.0
 40
3.0
 40
3.0
 40
4.0
 40
4.0
 40
4.0
 40
5.0
 40
5.0
 40
5.0
 40
6.0
 40
6.0
 40
6.0
 40
7.0
 40
7.0
 40
7.0
 40
8.0
 40
8.0
 40
8.0
 40
9.0
 40
9.0
 40
9.0
 40
9.0
 10
105.6507432461568
 20
-132.6699381178742
 10
105.1346679424663
 20
-132.6699381178742
 10
105.1262274585275
 20
-132.1156222542975
 10
105.1262274585275
 20
-131.902026334212
 10
105.1262274585275
 20
-131.6713771914745
 10
105.1453477384706
 20
-131.0240437497961
 10
105.688983806043
 20
-131.0240437497961
 10
105.8622721089511
 20
-131.0240437497961
 10
106.1079074170494
 20
-131.0938069333724
 10
106.1461479769357
 20
-131.4259141381505
 10
106.1461479769357
 20
-131.4259141381505
 10
105.9322075473017
 20
-131.4259141381505
 10
105.9322075473017
 20
-131.4259141381505
 10
105.9215277512974
 20
-131.3688978078696
 10
105.8898328728331
 20
-131.2207587020038
 10
105.6869167487519
 20
-131.2207587020038
 10
105.394944906377
 20
-131.2207587020038
 10
105.3546372891995
 20
-131.5487317921996
 10
105.3420626906784
 20
-131.7538872283463
 10
105.4350802687801
 20
-131.6756835608311
 10
105.502604140291
 20
-131.6164279184848
 10
105.6845051819122
 20
-131.6164279184848
 10
105.8643391662423
 20
-131.6164279184848
 10
106.1668185498472
 20
-131.7242594071731
 10
106.1668185498472
 20
-132.1304361648841
 10
106.1668185498472
 20
-132.449968771141
 10
105.9683810498968
 20
-132.6699381178742
 10
105.6507432461568
 20
-132.6699381178742
 97
        0
 97
        0
 92
        1
 93
        1
 72
     4
 94
        3
 73
     0
 74
     1
 95
       17
 96
       13
 40
0.0
 40
0.0
 40
0.0
 40
0.0
 40
1.0
 40
1.0
 40
1.0
 40
2.0
 40
2.0
 40
2.0
 40
3.0
 40
3.0
 40
3.0
 40
4.0
 40
4.0
 40
4.0
 40
4.0
 10
105.667968723583
 20
-131.8110758134014
 10
105.405452447607
 20
-131.8110758134014
 10
105.367384142495
 20
-132.0226046761958
 10
105.367384142495
 20
-132.1388766488229
 10
105.367384142495
 20
-132.3145765185707
 10
105.4626410326621
 20
-132.4773572802487
 10
105.6466091315745
 20
-132.4773572802487
 10
105.7671874735582
 20
-132.4773572802487
 10
105.942887343306
 20
-132.4181016379024
 10
105.942887343306
 20
-132.1325032221752
 10
105.942887343306
 20
-131.9083997608597
 10
105.8030164666048
 20
-131.8110758134014
 10
105.667968723583
 20
-131.8110758134014
 97
        0
 97
        0
 75
     2
 76
     1
 98
        0
  0
ENDBLK
  5
E5
330
E2
100
AcDbEntity
  8
0
100
AcDbBlockEnd
  0
BLOCK
  5
FB
330
F9
100
AcDbEntity
  8
0
100
AcDbBlockBegin
  2
block 4
 70
     0
 10
0.0
 20
0.0
 30
0.0
  3
block 4
  1

  0
SPLINE
  5
FD
330
F9
100
AcDbEntity
  8
_U+30EC_U+30A4_U+30E4_U+30FC 1
370
     0
100
AcDbSpline
210
0.0
220
0.0
230
1.0
 70
    11
 71
     3
 72
    32
 73
    28
 74
     0
 42
0.0000000001
 43
0.0000000001
 12
1.0
 22
0.0
 32
0.0
 13
1.0
 23
0.0
 33
0.0
 40
0.0
 40
0.0
 40
0.0
 40
0.0
 40
1.0
 40
1.0
 40
1.0
 40
2.0
 40
2.0
 40
2.0
 40
3.0
 40
3.0
 40
3.0
 40
4.0
 40
4.0
 40
4.0
 40
5.0
 40
5.0
 40
5.0
 40
6.0
 40
6.0
 40
6.0
 40
7.0
 40
7.0
 40
7.0
 40
8.0
 40
8.0
 40
8.0
 40
9.0
 40
9.0
 40
9.0
 40
9.0
 10
123.2944552643153
 20
-140.4825534045495
 30
0.0
 10
123.2944552643153
 20
-140.9988009630142
 30
0.0
 10
122.7404839102871
 20
-141.0072414469531
 30
0.0
 10
122.5268879902016
 20
-141.0072414469531
 30
0.0
 10
122.2960665926899
 20
-141.0072414469531
 30
0.0
 10
121.6487331510114
 20
-140.9881211670099
 30
0.0
 10
121.6487331510114
 20
-140.4444850994375
 30
0.0
 10
121.6487331510114
 20
-140.2710245417552
 30
0.0
 10
121.718668589362
 20
-140.0255614884311
 30
0.0
 10
122.0507757941401
 20
-139.9874931833191
 30
0.0
 10
122.0507757941401
 20
-139.9874931833191
 30
0.0
 10
122.0507757941401
 20
-140.2012613581789
 30
0.0
 10
122.0507757941401
 20
-140.2012613581789
 30
0.0
 10
121.9935872090849
 20
-140.2117688994089
 30
0.0
 10
121.8454481032192
 20
-140.2434637778732
 30
0.0
 10
121.8454481032192
 20
-140.4465521567286
 30
0.0
 10
121.8454481032192
 20
-140.7385239991036
 30
0.0
 10
122.173421193415
 20
-140.778831616281
 30
0.0
 10
122.3787488843359
 20
-140.7914062148022
 30
0.0
 10
122.3002007072722
 20
-140.6983886367004
 30
0.0
 10
122.2409450649259
 20
-140.6306925104153
 30
0.0
 10
122.2409450649259
 20
-140.4487914687941
 30
0.0
 10
122.2409450649259
 20
-140.268957484464
 30
0.0
 10
122.3491210631627
 20
-139.9664781008591
 30
0.0
 10
122.7549533113252
 20
-139.9664781008591
 30
0.0
 10
123.0746581723563
 20
-139.9664781008591
 30
0.0
 10
123.2944552643153
 20
-140.165260110358
 30
0.0
 10
123.2944552643153
 20
-140.4825534045495
 30
0.0
  0
SPLINE
  5
FE
330
F9
100
AcDbEntity
  8
_U+30EC_U+30A4_U+30E4_U+30FC 1
370
     0
100
AcDbSpline
210
0.0
220
0.0
230
1.0
 70
    11
 71
     3
 72
    17
 73
    13
 74
     0
 42
0.0000000001
 43
0.0000000001
 12
1.0
 22
0.0
 32
0.0
 13
1.0
 23
0.0
 33
0.0
 40
0.0
 40
0.0
 40
0.0
 40
0.0
 40
1.0
 40
1.0
 40
1.0
 40
2.0
 40
2.0
 40
2.0
 40
3.0
 40
3.0
 40
3.0
 40
4.0
 40
4.0
 40
4.0
 40
4.0
 10
122.435937469391
 20
-140.4656724366718
 30
0.0
 10
122.435937469391
 20
-140.7280164578736
 30
0.0
 10
122.6474663321854
 20
-140.7660847629856
 30
0.0
 10
122.7635660500383
 20
-140.7660847629856
 30
0.0
 10
122.939265919786
 20
-140.7660847629856
 30
0.0
 10
123.1022189362383
 20
-140.6708278728184
 30
0.0
 10
123.1022189362383
 20
-140.4868597739061
 30
0.0
 10
123.1022189362383
 20
-140.3662814319223
 30
0.0
 10
123.042963293892
 20
-140.1905815621746
 30
0.0
 10
122.7570203686163
 20
-140.1905815621746
 30
0.0
 10
122.5330891620751
 20
-140.1905815621746
 30
0.0
 10
122.435937469391
 20
-140.3302801841015
 30
0.0
 10
122.435937469391
 20
-140.4656724366718
 30
0.0
  0
HATCH
  5
FF
330
F9
100
AcDbEntity
  8
_U+30EC_U+30A4_U+30E4_U+30FC 1
 62
   179
420
  2234388
100
AcDbHatch
 10
0.0
 20
0.0
 30
0.0
210
0.0
220
0.0
230
1.0
  2
SOLID
 70
     1
 71
     0
 91
        2
 92
        1
 93
        1
 72
     4
 94
        3
 73
     0
 74
     1
 95
       32
 96
       28
 40
0.0
 40
0.0
 40
0.0
 40
0.0
 40
1.0
 40
1.0
 40
1.0
 40
2.0
 40
2.0
 40
2.0
 40
3.0
 40
3.0
 40
3.0
 40
4.0
 40
4.0
 40
4.0
 40
5.0
 40
5.0
 40
5.0
 40
6.0
 40
6.0
 40
6.0
 40
7.0
 40
7.0
 40
7.0
 40
8.0
 40
8.0
 40
8.0
 40
9.0
 40
9.0
 40
9.0
 40
9.0
 10
123.2944552643153
 20
-140.4825534045495
 10
123.2944552643153
 20
-140.9988009630142
 10
122.7404839102871
 20
-141.0072414469531
 10
122.5268879902016
 20
-141.0072414469531
 10
122.2960665926899
 20
-141.0072414469531
 10
121.6487331510114
 20
-140.9881211670099
 10
121.6487331510114
 20
-140.4444850994375
 10
121.6487331510114
 20
-140.2710245417552
 10
121.718668589362
 20
-140.0255614884311
 10
122.0507757941401
 20
-139.9874931833191
 10
122.0507757941401
 20
-139.9874931833191
 10
122.0507757941401
 20
-140.2012613581789
 10
122.0507757941401
 20
-140.2012613581789
 10
121.9935872090849
 20
-140.2117688994089
 10
121.8454481032192
 20
-140.2434637778732
 10
121.8454481032192
 20
-140.4465521567286
 10
121.8454481032192
 20
-140.7385239991036
 10
122.173421193415
 20
-140.778831616281
 10
122.3787488843359
 20
-140.7914062148022
 10
122.3002007072722
 20
-140.6983886367004
 10
122.2409450649259
 20
-140.6306925104153
 10
122.2409450649259
 20
-140.4487914687941
 10
122.2409450649259
 20
-140.268957484464
 10
122.3491210631627
 20
-139.9664781008591
 10
122.7549533113252
 20
-139.9664781008591
 10
123.0746581723563
 20
-139.9664781008591
 10
123.2944552643153
 20
-140.165260110358
 10
123.2944552643153
 20
-140.4825534045495
 97
        0
 97
        0
 92
        1
 93
        1
 72
     4
 94
        3
 73
     0
 74
     1
 95
       17
 96
       13
 40
0.0
 40
0.0
 40
0.0
 40
0.0
 40
1.0
 40
1.0
 40
1.0
 40
2.0
 40
2.0
 40
2.0
 40
3.0
 40
3.0
 40
3.0
 40
4.0
 40
4.0
 40
4.0
 40
4.0
 10
122.435937469391
 20
-140.4656724366718
 10
122.435937469391
 20
-140.7280164578736
 10
122.6474663321854
 20
-140.7660847629856
 10
122.7635660500383
 20
-140.7660847629856
 10
122.939265919786
 20
-140.7660847629856
 10
123.1022189362383
 20
-140.6708278728184
 10
123.1022189362383
 20
-140.4868597739061
 10
123.1022189362383
 20
-140.3662814319223
 10
123.042963293892
 20
-140.1905815621746
 10
122.7570203686163
 20
-140.1905815621746
 10
122.5330891620751
 20
-140.1905815621746
 10
122.435937469391
 20
-140.3302801841015
 10
122.435937469391
 20
-140.4656724366718
 97
        0
 97
        0
 75
     2
 76
     1
 98
        0
  0
ENDBLK
  5
FC
330
F9
100
AcDbEntity
  8
0
100
AcDbBlockEnd
  0
BLOCK
  5
10E
330
10C
100
AcDbEntity
  8
0
100
AcDbBlockBegin
  2
block 5
 70
     0
 10
0.0
 20
0.0
 30
0.0
  3
block 5
  1

  0
SPLINE
  5
110
330
10C
100
AcDbEntity
  8
_U+30EC_U+30A4_U+30E4_U+30FC 1
370
     0
100
AcDbSpline
210
0.0
220
0.0
230
1.0
 70
    11
 71
     3
 72
    44
 73
    40
 74
     0
 42
0.0000000001
 43
0.0000000001
 12
1.0
 22
0.0
 32
0.0
 13
1.0
 23
0.0
 33
0.0
 40
0.0
 40
0.0
 40
0.0
 40
0.0
 40
1.0
 40
1.0
 40
1.0
 40
2.0
 40
2.0
 40
2.0
 40
3.0
 40
3.0
 40
3.0
 40
4.0
 40
4.0
 40
4.0
 40
5.0
 40
5.0
 40
5.0
 40
6.0
 40
6.0
 40
6.0
 40
7.0
 40
7.0
 40
7.0
 40
8.0
 40
8.0
 40
8.0
 40
9.0
 40
9.0
 40
9.0
 40
10.0
 40
10.0
 40
10.0
 40
11.0
 40
11.0
 40
11.0
 40
12.0
 40
12.0
 40
12.0
 40
13.0
 40
13.0
 40
13.0
 40
13.0
 10
77.6071492319003
 20
-150.9709743546184
 30
0.0
 10
77.76579587899606
 20
-151.1887043892862
 30
0.0
 10
77.83986543192893
 20
-151.2817219673879
 30
0.0
 10
77.98369816843811
 20
-151.3306423232785
 30
0.0
 10
77.98369816843811
 20
-151.3306423232785
 30
0.0
 10
77.98369816843811
 20
-150.552050743612
 30
0.0
 10
77.98369816843811
 20
-150.552050743612
 30
0.0
 10
77.98369816843811
 20
-150.552050743612
 30
0.0
 10
78.18885360458474
 20
-150.552050743612
 30
0.0
 10
78.18885360458474
 20
-150.552050743612
 30
0.0
 10
78.18885360458474
 20
-150.552050743612
 30
0.0
 10
78.18885360458474
 20
-151.5800672364105
 30
0.0
 10
78.18885360458474
 20
-151.5800672364105
 30
0.0
 10
77.8312526932158
 20
-151.5483723579462
 30
0.0
 10
77.75304902570063
 20
-151.4829155437265
 30
0.0
 10
77.454703756678
 20
-151.0977538684756
 30
0.0
 10
77.25592174717907
 20
-150.8417832739215
 30
0.0
 10
77.18822562089392
 20
-150.7763264597017
 30
0.0
 10
77.05076631103245
 20
-150.7763264597017
 30
0.0
 10
76.93225502633986
 20
-150.7763264597017
 30
0.0
 10
76.8011691431261
 20
-150.8483289553435
 30
0.0
 10
76.8011691431261
 20
-151.0446993980027
 30
0.0
 10
76.8011691431261
 20
-151.3051486166876
 30
0.0
 10
77.03164603108931
 20
-151.3134168458522
 30
0.0
 10
77.14809025849075
 20
-151.317895469983
 30
0.0
 10
77.14809025849075
 20
-151.317895469983
 30
0.0
 10
77.14809025849075
 20
-151.5421711860728
 30
0.0
 10
77.14809025849075
 20
-151.5421711860728
 30
0.0
 10
77.0211384898593
 20
-151.5335584473597
 30
0.0
 10
76.90900063181442
 20
-151.5228786513554
 30
0.0
 10
76.79048934712182
 20
-151.4426079265491
 30
0.0
 10
76.62977564273493
 20
-151.3327093805696
 30
0.0
 10
76.5958414522052
 20
-151.1466742243661
 30
0.0
 10
76.5958414522052
 20
-151.0302299969647
 30
0.0
 10
76.5958414522052
 20
-150.7528998104021
 30
0.0
 10
76.77998180589181
 20
-150.5458495717386
 30
0.0
 10
77.0528333683236
 20
-150.5458495717386
 30
0.0
 10
77.28124319899567
 20
-150.5458495717386
 30
0.0
 10
77.38080645851939
 20
-150.6619492895915
 30
0.0
 10
77.6071492319003
 20
-150.9709743546184
 30
0.0
  0
HATCH
  5
111
330
10C
100
AcDbEntity
  8
_U+30EC_U+30A4_U+30E4_U+30FC 1
 62
   179
420
  2234388
100
AcDbHatch
 10
0.0
 20
0.0
 30
0.0
210
0.0
220
0.0
230
1.0
  2
SOLID
 70
     1
 71
     0
 91
        1
 92
        1
 93
        1
 72
     4
 94
        3
 73
     0
 74
     1
 95
       44
 96
       40
 40
0.0
 40
0.0
 40
0.0
 40
0.0
 40
1.0
 40
1.0
 40
1.0
 40
2.0
 40
2.0
 40
2.0
 40
3.0
 40
3.0
 40
3.0
 40
4.0
 40
4.0
 40
4.0
 40
5.0
 40
5.0
 40
5.0
 40
6.0
 40
6.0
 40
6.0
 40
7.0
 40
7.0
 40
7.0
 40
8.0
 40
8.0
 40
8.0
 40
9.0
 40
9.0
 40
9.0
 40
10.0
 40
10.0
 40
10.0
 40
11.0
 40
11.0
 40
11.0
 40
12.0
 40
12.0
 40
12.0
 40
13.0
 40
13.0
 40
13.0
 40
13.0
 10
77.6071492319003
 20
-150.9709743546184
 10
77.76579587899606
 20
-151.1887043892862
 10
77.83986543192893
 20
-151.2817219673879
 10
77.98369816843811
 20
-151.3306423232785
 10
77.98369816843811
 20
-151.3306423232785
 10
77.98369816843811
 20
-150.552050743612
 10
77.98369816843811
 20
-150.552050743612
 10
77.98369816843811
 20
-150.552050743612
 10
78.18885360458474
 20
-150.552050743612
 10
78.18885360458474
 20
-150.552050743612
 10
78.18885360458474
 20
-150.552050743612
 10
78.18885360458474
 20
-151.5800672364105
 10
78.18885360458474
 20
-151.5800672364105
 10
77.8312526932158
 20
-151.5483723579462
 10
77.75304902570063
 20
-151.4829155437265
 10
77.454703756678
 20
-151.0977538684756
 10
77.25592174717907
 20
-150.8417832739215
 10
77.18822562089392
 20
-150.7763264597017
 10
77.05076631103245
 20
-150.7763264597017
 10
76.93225502633986
 20
-150.7763264597017
 10
76.8011691431261
 20
-150.8483289553435
 10
76.8011691431261
 20
-151.0446993980027
 10
76.8011691431261
 20
-151.3051486166876
 10
77.03164603108931
 20
-151.3134168458522
 10
77.14809025849075
 20
-151.317895469983
 10
77.14809025849075
 20
-151.317895469983
 10
77.14809025849075
 20
-151.5421711860728
 10
77.14809025849075
 20
-151.5421711860728
 10
77.0211384898593
 20
-151.5335584473597
 10
76.90900063181442
 20
-151.5228786513554
 10
76.79048934712182
 20
-151.4426079265491
 10
76.62977564273493
 20
-151.3327093805696
 10
76.5958414522052
 20
-151.1466742243661
 10
76.5958414522052
 20
-151.0302299969647
 10
76.5958414522052
 20
-150.7528998104021
 10
76.77998180589181
 20
-150.5458495717386
 10
77.0528333683236
 20
-150.5458495717386
 10
77.28124319899567
 20
-150.5458495717386
 10
77.38080645851939
 20
-150.6619492895915
 10
77.6071492319003
 20
-150.9709743546184
 97
        0
 97
        0
 75
     2
 76
     1
 98
        0
  0
SPLINE
  5
112
330
10C
100
AcDbEntity
  8
_U+30EC_U+30A4_U+30E4_U+30FC 1
370
     0
100
AcDbSpline
210
0.0
220
0.0
230
1.0
 70
    11
 71
     3
 72
    32
 73
    28
 74
     0
 42
0.0000000001
 43
0.0000000001
 12
1.0
 22
0.0
 32
0.0
 13
1.0
 23
0.0
 33
0.0
 40
0.0
 40
0.0
 40
0.0
 40
0.0
 40
1.0
 40
1.0
 40
1.0
 40
2.0
 40
2.0
 40
2.0
 40
3.0
 40
3.0
 40
3.0
 40
4.0
 40
4.0
 40
4.0
 40
5.0
 40
5.0
 40
5.0
 40
6.0
 40
6.0
 40
6.0
 40
7.0
 40
7.0
 40
7.0
 40
8.0
 40
8.0
 40
8.0
 40
9.0
 40
9.0
 40
9.0
 40
9.0
 10
78.23966876299217
 20
-149.8830132003765
 30
0.0
 10
78.23966876299217
 20
-150.3990885040669
 30
0.0
 10
77.68535289941548
 20
-150.4073567332315
 30
0.0
 10
77.47175697932998
 20
-150.4073567332315
 30
0.0
 10
77.2411078365925
 20
-150.4073567332315
 30
0.0
 10
76.59377439491406
 20
-150.3884087080626
 30
0.0
 10
76.59377439491406
 20
-149.8447726404902
 30
0.0
 10
76.59377439491406
 20
-149.6714843375821
 30
0.0
 10
76.66353757849036
 20
-149.4258490294838
 30
0.0
 10
76.99564478326846
 20
-149.3876084695976
 30
0.0
 10
76.99564478326846
 20
-149.3876084695976
 30
0.0
 10
76.99564478326846
 20
-149.6015488992316
 30
0.0
 10
76.99564478326846
 20
-149.6015488992316
 30
0.0
 10
76.93862845298757
 20
-149.6122286952358
 30
0.0
 10
76.79048934712182
 20
-149.6439235737001
 30
0.0
 10
76.79048934712182
 20
-149.8468396977813
 30
0.0
 10
76.79048934712182
 20
-150.138639285382
 30
0.0
 10
77.1184624373176
 20
-150.179291412108
 30
0.0
 10
77.32361787346424
 20
-150.1916937558549
 30
0.0
 10
77.24541420594906
 20
-150.0986761777531
 30
0.0
 10
77.18615856360277
 20
-150.0311523062422
 30
0.0
 10
77.18615856360277
 20
-149.849251264621
 30
0.0
 10
77.18615856360277
 20
-149.669417280291
 30
0.0
 10
77.2939900522911
 20
-149.366937896686
 30
0.0
 10
77.70016681000205
 20
-149.366937896686
 30
0.0
 10
78.01969941625897
 20
-149.366937896686
 30
0.0
 10
78.23966876299217
 20
-149.5653753966365
 30
0.0
 10
78.23966876299217
 20
-149.8830132003765
 30
0.0
  0
SPLINE
  5
113
330
10C
100
AcDbEntity
  8
_U+30EC_U+30A4_U+30E4_U+30FC 1
370
     0
100
AcDbSpline
210
0.0
220
0.0
230
1.0
 70
    11
 71
     3
 72
    17
 73
    13
 74
     0
 42
0.0000000001
 43
0.0000000001
 12
1.0
 22
0.0
 32
0.0
 13
1.0
 23
0.0
 33
0.0
 40
0.0
 40
0.0
 40
0.0
 40
0.0
 40
1.0
 40
1.0
 40
1.0
 40
2.0
 40
2.0
 40
2.0
 40
3.0
 40
3.0
 40
3.0
 40
4.0
 40
4.0
 40
4.0
 40
4.0
 10
77.38080645851939
 20
-149.8657877229502
 30
0.0
 10
77.38080645851939
 20
-150.1283039989263
 30
0.0
 10
77.59233532131373
 20
-150.166200049264
 30
0.0
 10
77.7086072939409
 20
-150.166200049264
 30
0.0
 10
77.88430716368865
 20
-150.166200049264
 30
0.0
 10
78.04708792536671
 20
-150.0711154138711
 30
0.0
 10
78.04708792536671
 20
-149.8871473149588
 30
0.0
 10
78.04708792536671
 20
-149.766568972975
 30
0.0
 10
77.98783228302041
 20
-149.5908691032273
 30
0.0
 10
77.70223386729319
 20
-149.5908691032273
 30
0.0
 10
77.4781304059777
 20
-149.5908691032273
 30
0.0
 10
77.38080645851939
 20
-149.7307399799284
 30
0.0
 10
77.38080645851939
 20
-149.8657877229502
 30
0.0
  0
HATCH
  5
114
330
10C
100
AcDbEntity
  8
_U+30EC_U+30A4_U+30E4_U+30FC 1
 62
   179
420
  2234388
100
AcDbHatch
 10
0.0
 20
0.0
 30
0.0
210
0.0
220
0.0
230
1.0
  2
SOLID
 70
     1
 71
     0
 91
        2
 92
        1
 93
        1
 72
     4
 94
        3
 73
     0
 74
     1
 95
       32
 96
       28
 40
0.0
 40
0.0
 40
0.0
 40
0.0
 40
1.0
 40
1.0
 40
1.0
 40
2.0
 40
2.0
 40
2.0
 40
3.0
 40
3.0
 40
3.0
 40
4.0
 40
4.0
 40
4.0
 40
5.0
 40
5.0
 40
5.0
 40
6.0
 40
6.0
 40
6.0
 40
7.0
 40
7.0
 40
7.0
 40
8.0
 40
8.0
 40
8.0
 40
9.0
 40
9.0
 40
9.0
 40
9.0
 10
78.23966876299217
 20
-149.8830132003765
 10
78.23966876299217
 20
-150.3990885040669
 10
77.68535289941548
 20
-150.4073567332315
 10
77.47175697932998
 20
-150.4073567332315
 10
77.2411078365925
 20
-150.4073567332315
 10
76.59377439491406
 20
-150.3884087080626
 10
76.59377439491406
 20
-149.8447726404902
 10
76.59377439491406
 20
-149.6714843375821
 10
76.66353757849036
 20
-149.4258490294838
 10
76.99564478326846
 20
-149.3876084695976
 10
76.99564478326846
 20
-149.3876084695976
 10
76.99564478326846
 20
-149.6015488992316
 10
76.99564478326846
 20
-149.6015488992316
 10
76.93862845298757
 20
-149.6122286952358
 10
76.79048934712182
 20
-149.6439235737001
 10
76.79048934712182
 20
-149.8468396977813
 10
76.79048934712182
 20
-150.138639285382
 10
77.1184624373176
 20
-150.179291412108
 10
77.32361787346424
 20
-150.1916937558549
 10
77.24541420594906
 20
-150.0986761777531
 10
77.18615856360277
 20
-150.0311523062422
 10
77.18615856360277
 20
-149.849251264621
 10
77.18615856360277
 20
-149.669417280291
 10
77.2939900522911
 20
-149.366937896686
 10
77.70016681000205
 20
-149.366937896686
 10
78.01969941625897
 20
-149.366937896686
 10
78.23966876299217
 20
-149.5653753966365
 10
78.23966876299217
 20
-149.8830132003765
 97
        0
 97
        0
 92
        1
 93
        1
 72
     4
 94
        3
 73
     0
 74
     1
 95
       17
 96
       13
 40
0.0
 40
0.0
 40
0.0
 40
0.0
 40
1.0
 40
1.0
 40
1.0
 40
2.0
 40
2.0
 40
2.0
 40
3.0
 40
3.0
 40
3.0
 40
4.0
 40
4.0
 40
4.0
 40
4.0
 10
77.38080645851939
 20
-149.8657877229502
 10
77.38080645851939
 20
-150.1283039989263
 10
77.59233532131373
 20
-150.166200049264
 10
77.7086072939409
 20
-150.166200049264
 10
77.88430716368865
 20
-150.166200049264
 10
78.04708792536671
 20
-150.0711154138711
 10
78.04708792536671
 20
-149.8871473149588
 10
78.04708792536671
 20
-149.766568972975
 10
77.98783228302041
 20
-149.5908691032273
 10
77.70223386729319
 20
-149.5908691032273
 10
77.4781304059777
 20
-149.5908691032273
 10
77.38080645851939
 20
-149.7307399799284
 10
77.38080645851939
 20
-149.8657877229502
 97
        0
 97
        0
 75
     2
 76
     1
 98
        0
  0
ENDBLK
  5
10F
330
10C
100
AcDbEntity
  8
0
100
AcDbBlockEnd
  0
BLOCK
  5
133
330
131
100
AcDbEntity
  8
0
100
AcDbBlockBegin
  2
block 6
 70
     0
 10
0.0
 20
0.0
 30
0.0
  3
block 6
  1

  0
POLYLINE
  5
135
330
131
100
AcDbEntity
  8
_U+30EC_U+30A4_U+30E4_U+30FC 1
370
     0
100
AcDb2dPolyline
 66
     1
 10
0.0
 20
0.0
 30
0.0
  0
VERTEX
  5
136
330
135
100
AcDbEntity
  8
_U+30EC_U+30A4_U+30E4_U+30FC 1
370
     0
100
AcDbVertex
100
AcDb2dVertex
 10
82.20221759012654
 20
-132.6532294047707
 30
0.0
  0
VERTEX
  5
137
330
135
100
AcDbEntity
  8
_U+30EC_U+30A4_U+30E4_U+30FC 1
370
     0
100
AcDbVertex
100
AcDb2dVertex
 10
82.20221759012654
 20
-132.4925157003838
 30
0.0
  0
VERTEX
  5
138
330
135
100
AcDbEntity
  8
_U+30EC_U+30A4_U+30E4_U+30FC 1
370
     0
100
AcDbVertex
100
AcDb2dVertex
 10
82.35655786786573
 20
-132.4925157003838
 30
0.0
  0
VERTEX
  5
139
330
135
100
AcDbEntity
  8
_U+30EC_U+30A4_U+30E4_U+30FC 1
370
     0
100
AcDbVertex
100
AcDb2dVertex
 10
82.35655786786573
 20
-132.6532294047707
 30
0.0
  0
VERTEX
  5
13A
330
135
100
AcDbEntity
  8
_U+30EC_U+30A4_U+30E4_U+30FC 1
370
     0
100
AcDbVertex
100
AcDb2dVertex
 10
82.75016002705551
 20
-132.6532294047707
 30
0.0
  0
VERTEX
  5
13B
330
135
100
AcDbEntity
  8
_U+30EC_U+30A4_U+30E4_U+30FC 1
370
     0
100
AcDbVertex
100
AcDb2dVertex
 10
82.75016002705551
 20
-132.8077419372842
 30
0.0
  0
VERTEX
  5
13C
330
135
100
AcDbEntity
  8
_U+30EC_U+30A4_U+30E4_U+30FC 1
370
     0
100
AcDbVertex
100
AcDb2dVertex
 10
82.35655786786573
 20
-132.8077419372842
 30
0.0
  0
VERTEX
  5
13D
330
135
100
AcDbEntity
  8
_U+30EC_U+30A4_U+30E4_U+30FC 1
370
     0
100
AcDbVertex
100
AcDb2dVertex
 10
82.35655786786573
 20
-132.9620822150234
 30
0.0
  0
VERTEX
  5
13E
330
135
100
AcDbEntity
  8
_U+30EC_U+30A4_U+30E4_U+30FC 1
370
     0
100
AcDbVertex
100
AcDb2dVertex
 10
82.71191946716925
 20
-132.9620822150234
 30
0.0
  0
VERTEX
  5
13F
330
135
100
AcDbEntity
  8
_U+30EC_U+30A4_U+30E4_U+30FC 1
370
     0
100
AcDbVertex
100
AcDb2dVertex
 10
82.71191946716925
 20
-133.7744357304453
 30
0.0
  0
VERTEX
  5
140
330
135
100
AcDbEntity
  8
_U+30EC_U+30A4_U+30E4_U+30FC 1
370
     0
100
AcDbVertex
100
AcDb2dVertex
 10
82.35655786786573
 20
-133.7744357304453
 30
0.0
  0
VERTEX
  5
141
330
135
100
AcDbEntity
  8
_U+30EC_U+30A4_U+30E4_U+30FC 1
370
     0
100
AcDbVertex
100
AcDb2dVertex
 10
82.35655786786573
 20
-133.9437621735453
 30
0.0
  0
VERTEX
  5
142
330
135
100
AcDbEntity
  8
_U+30EC_U+30A4_U+30E4_U+30FC 1
370
     0
100
AcDbVertex
100
AcDb2dVertex
 10
82.7649739376421
 20
-133.9437621735453
 30
0.0
  0
VERTEX
  5
143
330
135
100
AcDbEntity
  8
_U+30EC_U+30A4_U+30E4_U+30FC 1
370
     0
100
AcDbVertex
100
AcDb2dVertex
 10
82.7649739376421
 20
-134.0981024512845
 30
0.0
  0
VERTEX
  5
144
330
135
100
AcDbEntity
  8
_U+30EC_U+30A4_U+30E4_U+30FC 1
370
     0
100
AcDbVertex
100
AcDb2dVertex
 10
82.35655786786573
 20
-134.0981024512845
 30
0.0
  0
VERTEX
  5
145
330
135
100
AcDbEntity
  8
_U+30EC_U+30A4_U+30E4_U+30FC 1
370
     0
100
AcDbVertex
100
AcDb2dVertex
 10
82.35655786786573
 20
-134.4513969932969
 30
0.0
  0
VERTEX
  5
146
330
135
100
AcDbEntity
  8
_U+30EC_U+30A4_U+30E4_U+30FC 1
370
     0
100
AcDbVertex
100
AcDb2dVertex
 10
82.20221759012654
 20
-134.4513969932969
 30
0.0
  0
VERTEX
  5
147
330
135
100
AcDbEntity
  8
_U+30EC_U+30A4_U+30E4_U+30FC 1
370
     0
100
AcDbVertex
100
AcDb2dVertex
 10
82.20221759012654
 20
-134.0981024512845
 30
0.0
  0
VERTEX
  5
148
330
135
100
AcDbEntity
  8
_U+30EC_U+30A4_U+30E4_U+30FC 1
370
     0
100
AcDbVertex
100
AcDb2dVertex
 10
81.79173446305902
 20
-134.0981024512845
 30
0.0
  0
VERTEX
  5
149
330
135
100
AcDbEntity
  8
_U+30EC_U+30A4_U+30E4_U+30FC 1
370
     0
100
AcDbVertex
100
AcDb2dVertex
 10
81.79173446305902
 20
-133.9437621735453
 30
0.0
  0
VERTEX
  5
14A
330
135
100
AcDbEntity
  8
_U+30EC_U+30A4_U+30E4_U+30FC 1
370
     0
100
AcDbVertex
100
AcDb2dVertex
 10
82.20221759012654
 20
-133.9437621735453
 30
0.0
  0
VERTEX
  5
14B
330
135
100
AcDbEntity
  8
_U+30EC_U+30A4_U+30E4_U+30FC 1
370
     0
100
AcDbVertex
100
AcDb2dVertex
 10
82.20221759012654
 20
-133.7744357304453
 30
0.0
  0
VERTEX
  5
14C
330
135
100
AcDbEntity
  8
_U+30EC_U+30A4_U+30E4_U+30FC 1
370
     0
100
AcDbVertex
100
AcDb2dVertex
 10
81.85305716269646
 20
-133.7744357304453
 30
0.0
  0
VERTEX
  5
14D
330
135
100
AcDbEntity
  8
_U+30EC_U+30A4_U+30E4_U+30FC 1
370
     0
100
AcDbVertex
100
AcDb2dVertex
 10
81.85305716269646
 20
-132.9620822150234
 30
0.0
  0
VERTEX
  5
14E
330
135
100
AcDbEntity
  8
_U+30EC_U+30A4_U+30E4_U+30FC 1
370
     0
100
AcDbVertex
100
AcDb2dVertex
 10
82.20221759012654
 20
-132.9620822150234
 30
0.0
  0
VERTEX
  5
14F
330
135
100
AcDbEntity
  8
_U+30EC_U+30A4_U+30E4_U+30FC 1
370
     0
100
AcDbVertex
100
AcDb2dVertex
 10
82.20221759012654
 20
-132.8077419372842
 30
0.0
  0
VERTEX
  5
150
330
135
100
AcDbEntity
  8
_U+30EC_U+30A4_U+30E4_U+30FC 1
370
     0
100
AcDbVertex
100
AcDb2dVertex
 10
81.8129218002933
 20
-132.8077419372842
 30
0.0
  0
VERTEX
  5
151
330
135
100
AcDbEntity
  8
_U+30EC_U+30A4_U+30E4_U+30FC 1
370
     0
100
AcDbVertex
100
AcDb2dVertex
 10
81.8129218002933
 20
-132.6532294047707
 30
0.0
  0
VERTEX
  5
152
330
135
100
AcDbEntity
  8
_U+30EC_U+30A4_U+30E4_U+30FC 1
370
     0
100
AcDbVertex
100
AcDb2dVertex
 10
82.20221759012654
 20
-132.6532294047707
 30
0.0
  0
SEQEND
  5
153
330
135
100
AcDbEntity
  8
_U+30EC_U+30A4_U+30E4_U+30FC 1
370
     0
  0
POLYLINE
  5
154
330
131
100
AcDbEntity
  8
_U+30EC_U+30A4_U+30E4_U+30FC 1
370
     0
100
AcDb2dPolyline
 66
     1
 10
0.0
 20
0.0
 30
0.0
  0
VERTEX
  5
155
330
154
100
AcDbEntity
  8
_U+30EC_U+30A4_U+30E4_U+30FC 1
370
     0
100
AcDbVertex
100
AcDb2dVertex
 10
82.20221759012654
 20
-133.1017808369503
 30
0.0
  0
VERTEX
  5
156
330
154
100
AcDbEntity
  8
_U+30EC_U+30A4_U+30E4_U+30FC 1
370
     0
100
AcDbVertex
100
AcDb2dVertex
 10
81.9948228419145
 20
-133.1017808369503
 30
0.0
  0
VERTEX
  5
157
330
154
100
AcDbEntity
  8
_U+30EC_U+30A4_U+30E4_U+30FC 1
370
     0
100
AcDbVertex
100
AcDb2dVertex
 10
81.9948228419145
 20
-133.3048692158057
 30
0.0
  0
VERTEX
  5
158
330
154
100
AcDbEntity
  8
_U+30EC_U+30A4_U+30E4_U+30FC 1
370
     0
100
AcDbVertex
100
AcDb2dVertex
 10
82.20221759012654
 20
-133.3048692158057
 30
0.0
  0
VERTEX
  5
159
330
154
100
AcDbEntity
  8
_U+30EC_U+30A4_U+30E4_U+30FC 1
370
     0
100
AcDbVertex
100
AcDb2dVertex
 10
82.20221759012654
 20
-133.1017808369503
 30
0.0
  0
SEQEND
  5
15A
330
154
100
AcDbEntity
  8
_U+30EC_U+30A4_U+30E4_U+30FC 1
370
     0
  0
POLYLINE
  5
15B
330
131
100
AcDbEntity
  8
_U+30EC_U+30A4_U+30E4_U+30FC 1
370
     0
100
AcDb2dPolyline
 66
     1
 10
0.0
 20
0.0
 30
0.0
  0
VERTEX
  5
15C
330
15B
100
AcDbEntity
  8
_U+30EC_U+30A4_U+30E4_U+30FC 1
370
     0
100
AcDbVertex
100
AcDb2dVertex
 10
82.20221759012654
 20
-133.4275146150806
 30
0.0
  0
VERTEX
  5
15D
330
15B
100
AcDbEntity
  8
_U+30EC_U+30A4_U+30E4_U+30FC 1
370
     0
100
AcDbVertex
100
AcDb2dVertex
 10
81.9948228419145
 20
-133.4275146150806
 30
0.0
  0
VERTEX
  5
15E
330
15B
100
AcDbEntity
  8
_U+30EC_U+30A4_U+30E4_U+30FC 1
370
     0
100
AcDbVertex
100
AcDb2dVertex
 10
81.9948228419145
 20
-133.6349093632927
 30
0.0
  0
VERTEX
  5
15F
330
15B
100
AcDbEntity
  8
_U+30EC_U+30A4_U+30E4_U+30FC 1
370
     0
100
AcDbVertex
100
AcDb2dVertex
 10
82.20221759012654
 20
-133.6349093632927
 30
0.0
  0
VERTEX
  5
160
330
15B
100
AcDbEntity
  8
_U+30EC_U+30A4_U+30E4_U+30FC 1
370
     0
100
AcDbVertex
100
AcDb2dVertex
 10
82.20221759012654
 20
-133.4275146150806
 30
0.0
  0
SEQEND
  5
161
330
15B
100
AcDbEntity
  8
_U+30EC_U+30A4_U+30E4_U+30FC 1
370
     0
  0
POLYLINE
  5
162
330
131
100
AcDbEntity
  8
_U+30EC_U+30A4_U+30E4_U+30FC 1
370
     0
100
AcDb2dPolyline
 66
     1
 10
0.0
 20
0.0
 30
0.0
  0
VERTEX
  5
163
330
162
100
AcDbEntity
  8
_U+30EC_U+30A4_U+30E4_U+30FC 1
370
     0
100
AcDbVertex
100
AcDb2dVertex
 10
82.56808673066007
 20
-133.1017808369503
 30
0.0
  0
VERTEX
  5
164
330
162
100
AcDbEntity
  8
_U+30EC_U+30A4_U+30E4_U+30FC 1
370
     0
100
AcDbVertex
100
AcDb2dVertex
 10
82.35655786786573
 20
-133.1017808369503
 30
0.0
  0
VERTEX
  5
165
330
162
100
AcDbEntity
  8
_U+30EC_U+30A4_U+30E4_U+30FC 1
370
     0
100
AcDbVertex
100
AcDb2dVertex
 10
82.35655786786573
 20
-133.3048692158057
 30
0.0
  0
VERTEX
  5
166
330
162
100
AcDbEntity
  8
_U+30EC_U+30A4_U+30E4_U+30FC 1
370
     0
100
AcDbVertex
100
AcDb2dVertex
 10
82.56808673066007
 20
-133.3048692158057
 30
0.0
  0
VERTEX
  5
167
330
162
100
AcDbEntity
  8
_U+30EC_U+30A4_U+30E4_U+30FC 1
370
     0
100
AcDbVertex
100
AcDb2dVertex
 10
82.56808673066007
 20
-133.1017808369503
 30
0.0
  0
SEQEND
  5
168
330
162
100
AcDbEntity
  8
_U+30EC_U+30A4_U+30E4_U+30FC 1
370
     0
  0
POLYLINE
  5
169
330
131
100
AcDbEntity
  8
_U+30EC_U+30A4_U+30E4_U+30FC 1
370
     0
100
AcDb2dPolyline
 66
     1
 10
0.0
 20
0.0
 30
0.0
  0
VERTEX
  5
16A
330
169
100
AcDbEntity
  8
_U+30EC_U+30A4_U+30E4_U+30FC 1
370
     0
100
AcDbVertex
100
AcDb2dVertex
 10
82.56808673066007
 20
-133.4275146150806
 30
0.0
  0
VERTEX
  5
16B
330
169
100
AcDbEntity
  8
_U+30EC_U+30A4_U+30E4_U+30FC 1
370
     0
100
AcDbVertex
100
AcDb2dVertex
 10
82.35655786786573
 20
-133.4275146150806
 30
0.0
  0
VERTEX
  5
16C
330
169
100
AcDbEntity
  8
_U+30EC_U+30A4_U+30E4_U+30FC 1
370
     0
100
AcDbVertex
100
AcDb2dVertex
 10
82.35655786786573
 20
-133.6349093632927
 30
0.0
  0
VERTEX
  5
16D
330
169
100
AcDbEntity
  8
_U+30EC_U+30A4_U+30E4_U+30FC 1
370
     0
100
AcDbVertex
100
AcDb2dVertex
 10
82.56808673066007
 20
-133.6349093632927
 30
0.0
  0
VERTEX
  5
16E
330
169
100
AcDbEntity
  8
_U+30EC_U+30A4_U+30E4_U+30FC 1
370
     0
100
AcDbVertex
100
AcDb2dVertex
 10
82.56808673066007
 20
-133.4275146150806
 30
0.0
  0
SEQEND
  5
16F
330
169
100
AcDbEntity
  8
_U+30EC_U+30A4_U+30E4_U+30FC 1
370
     0
  0
SPLINE
  5
170
330
131
100
AcDbEntity
  8
_U+30EC_U+30A4_U+30E4_U+30FC 1
370
     0
100
AcDbSpline
210
0.0
220
0.0
230
1.0
 70
    11
 71
     3
 72
    38
 73
    34
 74
     0
 42
0.0000000001
 43
0.0000000001
 12
1.0
 22
0.0
 32
0.0
 13
1.0
 23
0.0
 33
0.0
 40
0.0
 40
0.0
 40
0.0
 40
0.0
 40
1.0
 40
1.0
 40
1.0
 40
2.0
 40
2.0
 40
2.0
 40
3.0
 40
3.0
 40
3.0
 40
4.0
 40
4.0
 40
4.0
 40
5.0
 40
5.0
 40
5.0
 40
6.0
 40
6.0
 40
6.0
 40
7.0
 40
7.0
 40
7.0
 40
8.0
 40
8.0
 40
8.0
 40
9.0
 40
9.0
 40
9.0
 40
10.0
 40
10.0
 40
10.0
 40
11.0
 40
11.0
 40
11.0
 40
11.0
 10
82.61046140512863
 20
-134.3160047407266
 30
0.0
 10
82.69297144200037
 20
-134.263122525028
 30
0.0
 10
82.85799151574383
 20
-134.1552910363397
 30
0.0
 10
82.96375594714101
 20
-133.9478962881276
 30
0.0
 10
83.11189505300675
 20
-133.6560967005269
 30
0.0
 10
83.11189505300675
 20
-133.429753927146
 30
0.0
 10
83.11189505300675
 20
-133.3450045782089
 30
0.0
 10
83.11189505300675
 20
-133.3450045782089
 30
0.0
 10
83.11189505300675
 20
-133.1102213208891
 30
0.0
 10
83.11189505300675
 20
-133.1102213208891
 30
0.0
 10
83.11189505300675
 20
-133.1102213208891
 30
0.0
 10
83.27691512675023
 20
-133.1102213208891
 30
0.0
 10
83.27691512675023
 20
-133.1102213208891
 30
0.0
 10
83.27691512675023
 20
-133.1102213208891
 30
0.0
 10
83.27691512675023
 20
-133.33656409427
 30
0.0
 10
83.27691512675023
 20
-133.33656409427
 30
0.0
 10
83.27691512675023
 20
-133.5355183585432
 30
0.0
 10
83.34237194096997
 20
-133.7723686731541
 30
0.0
 10
83.44400225778483
 20
-133.9458292308365
 30
0.0
 10
83.56027423041202
 20
-134.1447834951096
 30
0.0
 10
83.68929305633462
 20
-134.2441744998591
 30
0.0
 10
83.77404240527177
 20
-134.3054971994966
 30
0.0
 10
83.77404240527177
 20
-134.3054971994966
 30
0.0
 10
83.66603866180918
 20
-134.4557033626535
 30
0.0
 10
83.66603866180918
 20
-134.4557033626535
 30
0.0
 10
83.48844398954456
 20
-134.3266845367308
 30
0.0
 10
83.28948972527138
 20
-134.0875949100545
 30
0.0
 10
83.21128605775621
 20
-133.7343003680421
 30
0.0
 10
83.1456569887622
 20
-133.9733899947185
 30
0.0
 10
83.04419892672159
 20
-134.2421074425679
 30
0.0
 10
82.73534611646895
 20
-134.4513969932969
 30
0.0
 10
82.73534611646895
 20
-134.4513969932969
 30
0.0
 10
82.61046140512863
 20
-134.3160047407266
 30
0.0
 10
82.61046140512863
 20
-134.3160047407266
 30
0.0
  0
SPLINE
  5
171
330
131
100
AcDbEntity
  8
_U+30EC_U+30A4_U+30E4_U+30FC 1
370
     0
100
AcDbSpline
210
0.0
220
0.0
230
1.0
 70
    11
 71
     3
 72
    38
 73
    34
 74
     0
 42
0.0000000001
 43
0.0000000001
 12
1.0
 22
0.0
 32
0.0
 13
1.0
 23
0.0
 33
0.0
 40
0.0
 40
0.0
 40
0.0
 40
0.0
 40
1.0
 40
1.0
 40
1.0
 40
2.0
 40
2.0
 40
2.0
 40
3.0
 40
3.0
 40
3.0
 40
4.0
 40
4.0
 40
4.0
 40
5.0
 40
5.0
 40
5.0
 40
6.0
 40
6.0
 40
6.0
 40
7.0
 40
7.0
 40
7.0
 40
8.0
 40
8.0
 40
8.0
 40
9.0
 40
9.0
 40
9.0
 40
10.0
 40
10.0
 40
10.0
 40
11.0
 40
11.0
 40
11.0
 40
11.0
 10
82.72466632046466
 20
-133.2435465161683
 30
0.0
 10
82.81785615334068
 20
-133.1207288621191
 30
0.0
 10
82.94256860990673
 20
-132.9410671325633
 30
0.0
 10
83.03782550007388
 20
-132.4925157003838
 30
0.0
 10
83.03782550007388
 20
-132.4925157003838
 30
0.0
 10
83.2049126311085
 20
-132.5114637255527
 30
0.0
 10
83.2049126311085
 20
-132.5114637255527
 30
0.0
 10
83.17959117929192
 20
-132.6320420675364
 30
0.0
 10
83.15633678476648
 20
-132.7231648431213
 30
0.0
 10
83.1180962248802
 20
-132.8309963318096
 30
0.0
 10
83.1180962248802
 20
-132.8309963318096
 30
0.0
 10
83.74648164138978
 20
-132.8309963318096
 30
0.0
 10
83.74648164138978
 20
-132.8309963318096
 30
0.0
 10
83.74648164138978
 20
-132.8309963318096
 30
0.0
 10
83.74648164138978
 20
-132.9832695522577
 30
0.0
 10
83.74648164138978
 20
-132.9832695522577
 30
0.0
 10
83.71271970563433
 20
-133.1250352314757
 30
0.0
 10
83.61746281546716
 20
-133.3830728833209
 30
0.0
 10
83.5433932625343
 20
-133.5015841680135
 30
0.0
 10
83.5433932625343
 20
-133.5015841680135
 30
0.0
 10
83.39112004208626
 20
-133.4233805004983
 30
0.0
 10
83.39112004208626
 20
-133.4233805004983
 30
0.0
 10
83.48620467747915
 20
-133.287988247928
 30
0.0
 10
83.55183374647315
 20
-133.0997137796591
 30
0.0
 10
83.57939451035516
 20
-132.9896429789054
 30
0.0
 10
83.57939451035516
 20
-132.9896429789054
 30
0.0
 10
83.06107989459932
 20
-132.9896429789054
 30
0.0
 10
83.06107989459932
 20
-132.9896429789054
 30
0.0
 10
82.96168888984985
 20
-133.2307996628729
 30
0.0
 10
82.88761933691698
 20
-133.3196831263923
 30
0.0
 10
82.84955103180498
 20
-133.364124858152
 30
0.0
 10
82.84955103180498
 20
-133.364124858152
 30
0.0
 10
82.72466632046466
 20
-133.2435465161683
 30
0.0
 10
82.72466632046466
 20
-133.2435465161683
 30
0.0
  0
HATCH
  5
172
330
131
100
AcDbEntity
  8
_U+30EC_U+30A4_U+30E4_U+30FC 1
 62
    12
420
 15007761
100
AcDbHatch
 10
0.0
 20
0.0
 30
0.0
210
0.0
220
0.0
230
1.0
  2
SOLID
 70
     1
 71
     0
 91
        7
 92
        1
 93
       28
 72
     1
 10
82.20221759012654
 20
-132.6532294047707
 11
82.20221759012654
 21
-132.4925157003838
 72
     1
 10
82.20221759012654
 20
-132.4925157003838
 11
82.35655786786573
 21
-132.4925157003838
 72
     1
 10
82.35655786786573
 20
-132.4925157003838
 11
82.35655786786573
 21
-132.6532294047707
 72
     1
 10
82.35655786786573
 20
-132.6532294047707
 11
82.75016002705551
 21
-132.6532294047707
 72
     1
 10
82.75016002705551
 20
-132.6532294047707
 11
82.75016002705551
 21
-132.8077419372842
 72
     1
 10
82.75016002705551
 20
-132.8077419372842
 11
82.35655786786573
 21
-132.8077419372842
 72
     1
 10
82.35655786786573
 20
-132.8077419372842
 11
82.35655786786573
 21
-132.9620822150234
 72
     1
 10
82.35655786786573
 20
-132.9620822150234
 11
82.71191946716925
 21
-132.9620822150234
 72
     1
 10
82.71191946716925
 20
-132.9620822150234
 11
82.71191946716925
 21
-133.7744357304453
 72
     1
 10
82.71191946716925
 20
-133.7744357304453
 11
82.35655786786573
 21
-133.7744357304453
 72
     1
 10
82.35655786786573
 20
-133.7744357304453
 11
82.35655786786573
 21
-133.9437621735453
 72
     1
 10
82.35655786786573
 20
-133.9437621735453
 11
82.7649739376421
 21
-133.9437621735453
 72
     1
 10
82.7649739376421
 20
-133.9437621735453
 11
82.7649739376421
 21
-134.0981024512845
 72
     1
 10
82.7649739376421
 20
-134.0981024512845
 11
82.35655786786573
 21
-134.0981024512845
 72
     1
 10
82.35655786786573
 20
-134.0981024512845
 11
82.35655786786573
 21
-134.4513969932969
 72
     1
 10
82.35655786786573
 20
-134.4513969932969
 11
82.20221759012654
 21
-134.4513969932969
 72
     1
 10
82.20221759012654
 20
-134.4513969932969
 11
82.20221759012654
 21
-134.0981024512845
 72
     1
 10
82.20221759012654
 20
-134.0981024512845
 11
81.79173446305902
 21
-134.0981024512845
 72
     1
 10
81.79173446305902
 20
-134.0981024512845
 11
81.79173446305902
 21
-133.9437621735453
 72
     1
 10
81.79173446305902
 20
-133.9437621735453
 11
82.20221759012654
 21
-133.9437621735453
 72
     1
 10
82.20221759012654
 20
-133.9437621735453
 11
82.20221759012654
 21
-133.7744357304453
 72
     1
 10
82.20221759012654
 20
-133.7744357304453
 11
81.85305716269646
 21
-133.7744357304453
 72
     1
 10
81.85305716269646
 20
-133.7744357304453
 11
81.85305716269646
 21
-132.9620822150234
 72
     1
 10
81.85305716269646
 20
-132.9620822150234
 11
82.20221759012654
 21
-132.9620822150234
 72
     1
 10
82.20221759012654
 20
-132.9620822150234
 11
82.20221759012654
 21
-132.8077419372842
 72
     1
 10
82.20221759012654
 20
-132.8077419372842
 11
81.8129218002933
 21
-132.8077419372842
 72
     1
 10
81.8129218002933
 20
-132.8077419372842
 11
81.8129218002933
 21
-132.6532294047707
 72
     1
 10
81.8129218002933
 20
-132.6532294047707
 11
82.20221759012654
 21
-132.6532294047707
 97
        0
 92
        1
 93
        4
 72
     1
 10
82.20221759012654
 20
-133.1017808369503
 11
81.9948228419145
 21
-133.1017808369503
 72
     1
 10
81.9948228419145
 20
-133.1017808369503
 11
81.9948228419145
 21
-133.3048692158057
 72
     1
 10
81.9948228419145
 20
-133.3048692158057
 11
82.20221759012654
 21
-133.3048692158057
 72
     1
 10
82.20221759012654
 20
-133.3048692158057
 11
82.20221759012654
 21
-133.1017808369503
 97
        0
 92
        1
 93
        4
 72
     1
 10
82.20221759012654
 20
-133.4275146150806
 11
81.9948228419145
 21
-133.4275146150806
 72
     1
 10
81.9948228419145
 20
-133.4275146150806
 11
81.9948228419145
 21
-133.6349093632927
 72
     1
 10
81.9948228419145
 20
-133.6349093632927
 11
82.20221759012654
 21
-133.6349093632927
 72
     1
 10
82.20221759012654
 20
-133.6349093632927
 11
82.20221759012654
 21
-133.4275146150806
 97
        0
 92
        1
 93
        4
 72
     1
 10
82.56808673066007
 20
-133.1017808369503
 11
82.35655786786573
 21
-133.1017808369503
 72
     1
 10
82.35655786786573
 20
-133.1017808369503
 11
82.35655786786573
 21
-133.3048692158057
 72
     1
 10
82.35655786786573
 20
-133.3048692158057
 11
82.56808673066007
 21
-133.3048692158057
 72
     1
 10
82.56808673066007
 20
-133.3048692158057
 11
82.56808673066007
 21
-133.1017808369503
 97
        0
 92
        1
 93
        4
 72
     1
 10
82.56808673066007
 20
-133.4275146150806
 11
82.35655786786573
 21
-133.4275146150806
 72
     1
 10
82.35655786786573
 20
-133.4275146150806
 11
82.35655786786573
 21
-133.6349093632927
 72
     1
 10
82.35655786786573
 20
-133.6349093632927
 11
82.56808673066007
 21
-133.6349093632927
 72
     1
 10
82.56808673066007
 20
-133.6349093632927
 11
82.56808673066007
 21
-133.4275146150806
 97
        0
 92
        1
 93
        1
 72
     4
 94
        3
 73
     0
 74
     1
 95
       38
 96
       34
 40
0.0
 40
0.0
 40
0.0
 40
0.0
 40
1.0
 40
1.0
 40
1.0
 40
2.0
 40
2.0
 40
2.0
 40
3.0
 40
3.0
 40
3.0
 40
4.0
 40
4.0
 40
4.0
 40
5.0
 40
5.0
 40
5.0
 40
6.0
 40
6.0
 40
6.0
 40
7.0
 40
7.0
 40
7.0
 40
8.0
 40
8.0
 40
8.0
 40
9.0
 40
9.0
 40
9.0
 40
10.0
 40
10.0
 40
10.0
 40
11.0
 40
11.0
 40
11.0
 40
11.0
 10
82.61046140512863
 20
-134.3160047407266
 10
82.69297144200037
 20
-134.263122525028
 10
82.85799151574383
 20
-134.1552910363397
 10
82.96375594714101
 20
-133.9478962881276
 10
83.11189505300675
 20
-133.6560967005269
 10
83.11189505300675
 20
-133.429753927146
 10
83.11189505300675
 20
-133.3450045782089
 10
83.11189505300675
 20
-133.3450045782089
 10
83.11189505300675
 20
-133.1102213208891
 10
83.11189505300675
 20
-133.1102213208891
 10
83.11189505300675
 20
-133.1102213208891
 10
83.27691512675023
 20
-133.1102213208891
 10
83.27691512675023
 20
-133.1102213208891
 10
83.27691512675023
 20
-133.1102213208891
 10
83.27691512675023
 20
-133.33656409427
 10
83.27691512675023
 20
-133.33656409427
 10
83.27691512675023
 20
-133.5355183585432
 10
83.34237194096997
 20
-133.7723686731541
 10
83.44400225778483
 20
-133.9458292308365
 10
83.56027423041202
 20
-134.1447834951096
 10
83.68929305633462
 20
-134.2441744998591
 10
83.77404240527177
 20
-134.3054971994966
 10
83.77404240527177
 20
-134.3054971994966
 10
83.66603866180918
 20
-134.4557033626535
 10
83.66603866180918
 20
-134.4557033626535
 10
83.48844398954456
 20
-134.3266845367308
 10
83.28948972527138
 20
-134.0875949100545
 10
83.21128605775621
 20
-133.7343003680421
 10
83.1456569887622
 20
-133.9733899947185
 10
83.04419892672159
 20
-134.2421074425679
 10
82.73534611646895
 20
-134.4513969932969
 10
82.73534611646895
 20
-134.4513969932969
 10
82.61046140512863
 20
-134.3160047407266
 10
82.61046140512863
 20
-134.3160047407266
 97
        0
 97
        0
 92
        1
 93
        1
 72
     4
 94
        3
 73
     0
 74
     1
 95
       38
 96
       34
 40
0.0
 40
0.0
 40
0.0
 40
0.0
 40
1.0
 40
1.0
 40
1.0
 40
2.0
 40
2.0
 40
2.0
 40
3.0
 40
3.0
 40
3.0
 40
4.0
 40
4.0
 40
4.0
 40
5.0
 40
5.0
 40
5.0
 40
6.0
 40
6.0
 40
6.0
 40
7.0
 40
7.0
 40
7.0
 40
8.0
 40
8.0
 40
8.0
 40
9.0
 40
9.0
 40
9.0
 40
10.0
 40
10.0
 40
10.0
 40
11.0
 40
11.0
 40
11.0
 40
11.0
 10
82.72466632046466
 20
-133.2435465161683
 10
82.81785615334068
 20
-133.1207288621191
 10
82.94256860990673
 20
-132.9410671325633
 10
83.03782550007388
 20
-132.4925157003838
 10
83.03782550007388
 20
-132.4925157003838
 10
83.2049126311085
 20
-132.5114637255527
 10
83.2049126311085
 20
-132.5114637255527
 10
83.17959117929192
 20
-132.6320420675364
 10
83.15633678476648
 20
-132.7231648431213
 10
83.1180962248802
 20
-132.8309963318096
 10
83.1180962248802
 20
-132.8309963318096
 10
83.74648164138978
 20
-132.8309963318096
 10
83.74648164138978
 20
-132.8309963318096
 10
83.74648164138978
 20
-132.8309963318096
 10
83.74648164138978
 20
-132.9832695522577
 10
83.74648164138978
 20
-132.9832695522577
 10
83.71271970563433
 20
-133.1250352314757
 10
83.61746281546716
 20
-133.3830728833209
 10
83.5433932625343
 20
-133.5015841680135
 10
83.5433932625343
 20
-133.5015841680135
 10
83.39112004208626
 20
-133.4233805004983
 10
83.39112004208626
 20
-133.4233805004983
 10
83.48620467747915
 20
-133.287988247928
 10
83.55183374647315
 20
-133.0997137796591
 10
83.57939451035516
 20
-132.9896429789054
 10
83.57939451035516
 20
-132.9896429789054
 10
83.06107989459932
 20
-132.9896429789054
 10
83.06107989459932
 20
-132.9896429789054
 10
82.96168888984985
 20
-133.2307996628729
 10
82.88761933691698
 20
-133.3196831263923
 10
82.84955103180498
 20
-133.364124858152
 10
82.84955103180498
 20
-133.364124858152
 10
82.72466632046466
 20
-133.2435465161683
 10
82.72466632046466
 20
-133.2435465161683
 97
        0
 97
        0
 75
     2
 76
     1
 98
        0
  0
SPLINE
  5
173
330
131
100
AcDbEntity
  8
_U+30EC_U+30A4_U+30E4_U+30FC 1
370
     0
100
AcDbSpline
210
0.0
220
0.0
230
1.0
 70
    11
 71
     3
 72
    50
 73
    46
 74
     0
 42
0.0000000001
 43
0.0000000001
 12
1.0
 22
0.0
 32
0.0
 13
1.0
 23
0.0
 33
0.0
 40
0.0
 40
0.0
 40
0.0
 40
0.0
 40
1.0
 40
1.0
 40
1.0
 40
2.0
 40
2.0
 40
2.0
 40
3.0
 40
3.0
 40
3.0
 40
4.0
 40
4.0
 40
4.0
 40
5.0
 40
5.0
 40
5.0
 40
6.0
 40
6.0
 40
6.0
 40
7.0
 40
7.0
 40
7.0
 40
8.0
 40
8.0
 40
8.0
 40
9.0
 40
9.0
 40
9.0
 40
10.0
 40
10.0
 40
10.0
 40
11.0
 40
11.0
 40
11.0
 40
12.0
 40
12.0
 40
12.0
 40
13.0
 40
13.0
 40
13.0
 40
14.0
 40
14.0
 40
14.0
 40
15.0
 40
15.0
 40
15.0
 40
15.0
 10
84.21932099674031
 20
-132.7908609694065
 30
0.0
 10
84.21932099674031
 20
-132.7908609694065
 30
0.0
 10
84.87096080777532
 20
-132.7908609694065
 30
0.0
 10
84.87096080777532
 20
-132.7908609694065
 30
0.0
 10
84.87096080777532
 20
-132.7908609694065
 30
0.0
 10
84.87096080777532
 20
-132.9155734259725
 30
0.0
 10
84.87096080777532
 20
-132.9155734259725
 30
0.0
 10
84.87096080777532
 20
-132.9155734259725
 30
0.0
 10
84.59380287598697
 20
-132.9155734259725
 30
0.0
 10
84.59380287598697
 20
-132.9155734259725
 30
0.0
 10
84.59380287598697
 20
-132.9155734259725
 30
0.0
 10
84.59380287598697
 20
-133.1906643004697
 30
0.0
 10
84.59380287598697
 20
-133.1906643004697
 30
0.0
 10
84.59380287598697
 20
-133.1906643004697
 30
0.0
 10
84.43308917160006
 20
-133.1906643004697
 30
0.0
 10
84.43308917160006
 20
-133.1906643004697
 30
0.0
 10
84.43308917160006
 20
-133.1906643004697
 30
0.0
 10
84.43308917160006
 20
-132.9155734259725
 30
0.0
 10
84.43308917160006
 20
-132.9155734259725
 30
0.0
 10
84.43308917160006
 20
-132.9155734259725
 30
0.0
 10
84.21311982486687
 20
-132.9155734259725
 30
0.0
 10
84.21311982486687
 20
-132.9155734259725
 30
0.0
 10
84.20244002886258
 20
-132.9853366095488
 30
0.0
 10
84.177118577046
 20
-133.1799845044654
 30
0.0
 10
84.02260604453255
 20
-133.3301906676223
 30
0.0
 10
84.02260604453255
 20
-133.3301906676223
 30
0.0
 10
83.89996064525765
 20
-133.2202921216428
 30
0.0
 10
83.89996064525765
 20
-133.2202921216428
 30
0.0
 10
84.0205389872414
 20
-133.1207288621191
 30
0.0
 10
84.06291366170997
 20
-132.9155734259725
 30
0.0
 10
84.06291366170997
 20
-132.8330633891008
 30
0.0
 10
84.06291366170997
 20
-132.8330633891008
 30
0.0
 10
84.06291366170997
 20
-132.5474649733736
 30
0.0
 10
84.06291366170997
 20
-132.5474649733736
 30
0.0
 10
84.54729408693609
 20
-132.5474649733736
 30
0.0
 10
84.70180661944956
 20
-132.5009561843227
 30
0.0
 10
84.79689125484245
 20
-132.4733954204407
 30
0.0
 10
84.79689125484245
 20
-132.4733954204407
 30
0.0
 10
84.84977347054104
 20
-132.6130940423676
 30
0.0
 10
84.84977347054104
 20
-132.6130940423676
 30
0.0
 10
84.64031166503784
 20
-132.6616698887096
 30
0.0
 10
84.47753090335979
 20
-132.6723496847139
 30
0.0
 10
84.21932099674031
 20
-132.6764837992962
 30
0.0
 10
84.21932099674031
 20
-132.6764837992962
 30
0.0
 10
84.21932099674031
 20
-132.7908609694065
 30
0.0
 10
84.21932099674031
 20
-132.7908609694065
 30
0.0
  0
SPLINE
  5
174
330
131
100
AcDbEntity
  8
_U+30EC_U+30A4_U+30E4_U+30FC 1
370
     0
100
AcDbSpline
210
0.0
220
0.0
230
1.0
 70
    11
 71
     3
 72
    32
 73
    28
 74
     0
 42
0.0000000001
 43
0.0000000001
 12
1.0
 22
0.0
 32
0.0
 13
1.0
 23
0.0
 33
0.0
 40
0.0
 40
0.0
 40
0.0
 40
0.0
 40
1.0
 40
1.0
 40
1.0
 40
2.0
 40
2.0
 40
2.0
 40
3.0
 40
3.0
 40
3.0
 40
4.0
 40
4.0
 40
4.0
 40
5.0
 40
5.0
 40
5.0
 40
6.0
 40
6.0
 40
6.0
 40
7.0
 40
7.0
 40
7.0
 40
8.0
 40
8.0
 40
8.0
 40
9.0
 40
9.0
 40
9.0
 40
9.0
 10
84.13474390257743
 20
-134.1361707563965
 30
0.0
 10
84.13474390257743
 20
-134.1361707563965
 30
0.0
 10
84.13474390257743
 20
-133.2371730895206
 30
0.0
 10
84.13474390257743
 20
-133.2371730895206
 30
0.0
 10
84.13474390257743
 20
-133.2371730895206
 30
0.0
 10
85.63249916478979
 20
-133.2371730895206
 30
0.0
 10
85.63249916478979
 20
-133.2371730895206
 30
0.0
 10
85.63249916478979
 20
-133.2371730895206
 30
0.0
 10
85.63249916478979
 20
-134.1361707563965
 30
0.0
 10
85.63249916478979
 20
-134.1361707563965
 30
0.0
 10
85.63249916478979
 20
-134.1361707563965
 30
0.0
 10
84.4880384445898
 20
-134.1361707563965
 30
0.0
 10
84.4880384445898
 20
-134.1361707563965
 30
0.0
 10
84.4880384445898
 20
-134.1361707563965
 30
0.0
 10
84.59380287598697
 20
-134.2462415571503
 30
0.0
 10
84.59380287598697
 20
-134.2462415571503
 30
0.0
 10
84.4287828022435
 20
-134.3414984473174
 30
0.0
 10
84.26376272850004
 20
-134.4028211469549
 30
0.0
 10
83.9676567715428
 20
-134.4536363053623
 30
0.0
 10
83.9676567715428
 20
-134.4536363053623
 30
0.0
 10
83.9020277025488
 20
-134.30119083014
 30
0.0
 10
83.9020277025488
 20
-134.30119083014
 30
0.0
 10
84.28081595115202
 20
-134.2483086144414
 30
0.0
 10
84.40346135042692
 20
-134.1806124881562
 30
0.0
 10
84.4839043300075
 20
-134.1361707563965
 30
0.0
 10
84.4839043300075
 20
-134.1361707563965
 30
0.0
 10
84.13474390257743
 20
-134.1361707563965
 30
0.0
 10
84.13474390257743
 20
-134.1361707563965
 30
0.0
  0
POLYLINE
  5
175
330
131
100
AcDbEntity
  8
_U+30EC_U+30A4_U+30E4_U+30FC 1
370
     0
100
AcDb2dPolyline
 66
     1
 10
0.0
 20
0.0
 30
0.0
  0
VERTEX
  5
176
330
175
100
AcDbEntity
  8
_U+30EC_U+30A4_U+30E4_U+30FC 1
370
     0
100
AcDbVertex
100
AcDb2dVertex
 10
85.46334497646403
 20
-133.3704982847997
 30
0.0
  0
VERTEX
  5
177
330
175
100
AcDbEntity
  8
_U+30EC_U+30A4_U+30E4_U+30FC 1
370
     0
100
AcDbVertex
100
AcDb2dVertex
 10
84.30407034567746
 20
-133.3704982847997
 30
0.0
  0
VERTEX
  5
178
330
175
100
AcDbEntity
  8
_U+30EC_U+30A4_U+30E4_U+30FC 1
370
     0
100
AcDbVertex
100
AcDb2dVertex
 10
84.30407034567746
 20
-133.4995171107223
 30
0.0
  0
VERTEX
  5
179
330
175
100
AcDbEntity
  8
_U+30EC_U+30A4_U+30E4_U+30FC 1
370
     0
100
AcDbVertex
100
AcDb2dVertex
 10
85.46334497646403
 20
-133.4995171107223
 30
0.0
  0
VERTEX
  5
17A
330
175
100
AcDbEntity
  8
_U+30EC_U+30A4_U+30E4_U+30FC 1
370
     0
100
AcDbVertex
100
AcDb2dVertex
 10
85.46334497646403
 20
-133.3704982847997
 30
0.0
  0
SEQEND
  5
17B
330
175
100
AcDbEntity
  8
_U+30EC_U+30A4_U+30E4_U+30FC 1
370
     0
  0
POLYLINE
  5
17C
330
131
100
AcDbEntity
  8
_U+30EC_U+30A4_U+30E4_U+30FC 1
370
     0
100
AcDb2dPolyline
 66
     1
 10
0.0
 20
0.0
 30
0.0
  0
VERTEX
  5
17D
330
17C
100
AcDbEntity
  8
_U+30EC_U+30A4_U+30E4_U+30FC 1
370
     0
100
AcDbVertex
100
AcDb2dVertex
 10
85.46334497646403
 20
-133.6094156567018
 30
0.0
  0
VERTEX
  5
17E
330
17C
100
AcDbEntity
  8
_U+30EC_U+30A4_U+30E4_U+30FC 1
370
     0
100
AcDbVertex
100
AcDb2dVertex
 10
84.30407034567746
 20
-133.6094156567018
 30
0.0
  0
VERTEX
  5
17F
330
17C
100
AcDbEntity
  8
_U+30EC_U+30A4_U+30E4_U+30FC 1
370
     0
100
AcDbVertex
100
AcDb2dVertex
 10
84.30407034567746
 20
-133.7511813359199
 30
0.0
  0
VERTEX
  5
180
330
17C
100
AcDbEntity
  8
_U+30EC_U+30A4_U+30E4_U+30FC 1
370
     0
100
AcDbVertex
100
AcDb2dVertex
 10
85.46334497646403
 20
-133.7511813359199
 30
0.0
  0
VERTEX
  5
181
330
17C
100
AcDbEntity
  8
_U+30EC_U+30A4_U+30E4_U+30FC 1
370
     0
100
AcDbVertex
100
AcDb2dVertex
 10
85.46334497646403
 20
-133.6094156567018
 30
0.0
  0
SEQEND
  5
182
330
17C
100
AcDbEntity
  8
_U+30EC_U+30A4_U+30E4_U+30FC 1
370
     0
  0
POLYLINE
  5
183
330
131
100
AcDbEntity
  8
_U+30EC_U+30A4_U+30E4_U+30FC 1
370
     0
100
AcDb2dPolyline
 66
     1
 10
0.0
 20
0.0
 30
0.0
  0
VERTEX
  5
184
330
183
100
AcDbEntity
  8
_U+30EC_U+30A4_U+30E4_U+30FC 1
370
     0
100
AcDbVertex
100
AcDb2dVertex
 10
85.46334497646403
 20
-133.8612521366736
 30
0.0
  0
VERTEX
  5
185
330
183
100
AcDbEntity
  8
_U+30EC_U+30A4_U+30E4_U+30FC 1
370
     0
100
AcDbVertex
100
AcDb2dVertex
 10
84.30407034567746
 20
-133.8612521366736
 30
0.0
  0
VERTEX
  5
186
330
183
100
AcDbEntity
  8
_U+30EC_U+30A4_U+30E4_U+30FC 1
370
     0
100
AcDbVertex
100
AcDb2dVertex
 10
84.30407034567746
 20
-134.0007785038262
 30
0.0
  0
VERTEX
  5
187
330
183
100
AcDbEntity
  8
_U+30EC_U+30A4_U+30E4_U+30FC 1
370
     0
100
AcDbVertex
100
AcDb2dVertex
 10
85.46334497646403
 20
-134.0007785038262
 30
0.0
  0
VERTEX
  5
188
330
183
100
AcDbEntity
  8
_U+30EC_U+30A4_U+30E4_U+30FC 1
370
     0
100
AcDbVertex
100
AcDb2dVertex
 10
85.46334497646403
 20
-133.8612521366736
 30
0.0
  0
SEQEND
  5
189
330
183
100
AcDbEntity
  8
_U+30EC_U+30A4_U+30E4_U+30FC 1
370
     0
  0
SPLINE
  5
18A
330
131
100
AcDbEntity
  8
_U+30EC_U+30A4_U+30E4_U+30FC 1
370
     0
100
AcDbSpline
210
0.0
220
0.0
230
1.0
 70
    11
 71
     3
 72
    50
 73
    46
 74
     0
 42
0.0000000001
 43
0.0000000001
 12
1.0
 22
0.0
 32
0.0
 13
1.0
 23
0.0
 33
0.0
 40
0.0
 40
0.0
 40
0.0
 40
0.0
 40
1.0
 40
1.0
 40
1.0
 40
2.0
 40
2.0
 40
2.0
 40
3.0
 40
3.0
 40
3.0
 40
4.0
 40
4.0
 40
4.0
 40
5.0
 40
5.0
 40
5.0
 40
6.0
 40
6.0
 40
6.0
 40
7.0
 40
7.0
 40
7.0
 40
8.0
 40
8.0
 40
8.0
 40
9.0
 40
9.0
 40
9.0
 40
10.0
 40
10.0
 40
10.0
 40
11.0
 40
11.0
 40
11.0
 40
12.0
 40
12.0
 40
12.0
 40
13.0
 40
13.0
 40
13.0
 40
14.0
 40
14.0
 40
14.0
 40
15.0
 40
15.0
 40
15.0
 40
15.0
 10
85.12693140232938
 20
-132.7908609694065
 30
0.0
 10
85.12693140232938
 20
-132.7908609694065
 30
0.0
 10
85.86314830752727
 20
-132.7908609694065
 30
0.0
 10
85.86314830752727
 20
-132.7908609694065
 30
0.0
 10
85.86314830752727
 20
-132.7908609694065
 30
0.0
 10
85.86314830752727
 20
-132.9155734259725
 30
0.0
 10
85.86314830752727
 20
-132.9155734259725
 30
0.0
 10
85.86314830752727
 20
-132.9155734259725
 30
0.0
 10
85.53310816004034
 20
-132.9155734259725
 30
0.0
 10
85.53310816004034
 20
-132.9155734259725
 30
0.0
 10
85.53310816004034
 20
-132.9155734259725
 30
0.0
 10
85.53310816004034
 20
-133.1906643004697
 30
0.0
 10
85.53310816004034
 20
-133.1906643004697
 30
0.0
 10
85.53310816004034
 20
-133.1906643004697
 30
0.0
 10
85.37652857023573
 20
-133.1906643004697
 30
0.0
 10
85.37652857023573
 20
-133.1906643004697
 30
0.0
 10
85.37652857023573
 20
-133.1906643004697
 30
0.0
 10
85.37652857023573
 20
-132.9155734259725
 30
0.0
 10
85.37652857023573
 20
-132.9155734259725
 30
0.0
 10
85.37652857023573
 20
-132.9155734259725
 30
0.0
 10
85.11211749174281
 20
-132.9155734259725
 30
0.0
 10
85.11211749174281
 20
-132.9155734259725
 30
0.0
 10
85.08679603992623
 20
-133.0445922518951
 30
0.0
 10
85.03598088151878
 20
-133.1355427727057
 30
0.0
 10
84.93865693406048
 20
-133.2180528095774
 30
0.0
 10
84.93865693406048
 20
-133.2180528095774
 30
0.0
 10
84.81601153478559
 20
-133.1102213208891
 30
0.0
 10
84.81601153478559
 20
-133.1102213208891
 30
0.0
 10
84.9514037873559
 20
-133.0001505201354
 30
0.0
 10
84.97465818188134
 20
-132.8626912102739
 30
0.0
 10
84.97465818188134
 20
-132.7886216573411
 30
0.0
 10
84.97465818188134
 20
-132.7886216573411
 30
0.0
 10
84.97465818188134
 20
-132.5453979160824
 30
0.0
 10
84.97465818188134
 20
-132.5453979160824
 30
0.0
 10
85.44422469652089
 20
-132.5453979160824
 30
0.0
 10
85.61148408232977
 20
-132.5052625536792
 30
0.0
 10
85.75531681883895
 20
-132.4628878792107
 30
0.0
 10
85.75531681883895
 20
-132.4628878792107
 30
0.0
 10
85.81457246118525
 20
-132.6003471890722
 30
0.0
 10
85.81457246118525
 20
-132.6003471890722
 30
0.0
 10
85.54378795604461
 20
-132.6702826274227
 30
0.0
 10
85.22856171914425
 20
-132.674416742005
 30
0.0
 10
85.12693140232938
 20
-132.674416742005
 30
0.0
 10
85.12693140232938
 20
-132.674416742005
 30
0.0
 10
85.12693140232938
 20
-132.7908609694065
 30
0.0
 10
85.12693140232938
 20
-132.7908609694065
 30
0.0
  0
SPLINE
  5
18B
330
131
100
AcDbEntity
  8
_U+30EC_U+30A4_U+30E4_U+30FC 1
370
     0
100
AcDbSpline
210
0.0
220
0.0
230
1.0
 70
    11
 71
     3
 72
    17
 73
    13
 74
     0
 42
0.0000000001
 43
0.0000000001
 12
1.0
 22
0.0
 32
0.0
 13
1.0
 23
0.0
 33
0.0
 40
0.0
 40
0.0
 40
0.0
 40
0.0
 40
1.0
 40
1.0
 40
1.0
 40
2.0
 40
2.0
 40
2.0
 40
3.0
 40
3.0
 40
3.0
 40
4.0
 40
4.0
 40
4.0
 40
4.0
 10
85.23906926037427
 20
-134.1425441830442
 30
0.0
 10
85.45903860710747
 20
-134.2546820410891
 30
0.0
 10
85.7256889976658
 20
-134.2927503462011
 30
0.0
 10
85.85470782358841
 20
-134.3034301422054
 30
0.0
 10
85.85470782358841
 20
-134.3034301422054
 30
0.0
 10
85.7849446400121
 20
-134.4577704199446
 30
0.0
 10
85.7849446400121
 20
-134.4577704199446
 30
0.0
 10
85.66436629802836
 20
-134.442956509358
 30
0.0
 10
85.40202227682659
 20
-134.4028211469549
 30
0.0
 10
85.13761119833366
 20
-134.2567490983803
 30
0.0
 10
85.13761119833366
 20
-134.2567490983803
 30
0.0
 10
85.23906926037427
 20
-134.1425441830442
 30
0.0
 10
85.23906926037427
 20
-134.1425441830442
 30
0.0
  0
HATCH
  5
18C
330
131
100
AcDbEntity
  8
_U+30EC_U+30A4_U+30E4_U+30FC 1
 62
    12
420
 15007761
100
AcDbHatch
 10
0.0
 20
0.0
 30
0.0
210
0.0
220
0.0
230
1.0
  2
SOLID
 70
     1
 71
     0
 91
        7
 92
        1
 93
        1
 72
     4
 94
        3
 73
     0
 74
     1
 95
       50
 96
       46
 40
0.0
 40
0.0
 40
0.0
 40
0.0
 40
1.0
 40
1.0
 40
1.0
 40
2.0
 40
2.0
 40
2.0
 40
3.0
 40
3.0
 40
3.0
 40
4.0
 40
4.0
 40
4.0
 40
5.0
 40
5.0
 40
5.0
 40
6.0
 40
6.0
 40
6.0
 40
7.0
 40
7.0
 40
7.0
 40
8.0
 40
8.0
 40
8.0
 40
9.0
 40
9.0
 40
9.0
 40
10.0
 40
10.0
 40
10.0
 40
11.0
 40
11.0
 40
11.0
 40
12.0
 40
12.0
 40
12.0
 40
13.0
 40
13.0
 40
13.0
 40
14.0
 40
14.0
 40
14.0
 40
15.0
 40
15.0
 40
15.0
 40
15.0
 10
84.21932099674031
 20
-132.7908609694065
 10
84.21932099674031
 20
-132.7908609694065
 10
84.87096080777532
 20
-132.7908609694065
 10
84.87096080777532
 20
-132.7908609694065
 10
84.87096080777532
 20
-132.7908609694065
 10
84.87096080777532
 20
-132.9155734259725
 10
84.87096080777532
 20
-132.9155734259725
 10
84.87096080777532
 20
-132.9155734259725
 10
84.59380287598697
 20
-132.9155734259725
 10
84.59380287598697
 20
-132.9155734259725
 10
84.59380287598697
 20
-132.9155734259725
 10
84.59380287598697
 20
-133.1906643004697
 10
84.59380287598697
 20
-133.1906643004697
 10
84.59380287598697
 20
-133.1906643004697
 10
84.43308917160006
 20
-133.1906643004697
 10
84.43308917160006
 20
-133.1906643004697
 10
84.43308917160006
 20
-133.1906643004697
 10
84.43308917160006
 20
-132.9155734259725
 10
84.43308917160006
 20
-132.9155734259725
 10
84.43308917160006
 20
-132.9155734259725
 10
84.21311982486687
 20
-132.9155734259725
 10
84.21311982486687
 20
-132.9155734259725
 10
84.20244002886258
 20
-132.9853366095488
 10
84.177118577046
 20
-133.1799845044654
 10
84.02260604453255
 20
-133.3301906676223
 10
84.02260604453255
 20
-133.3301906676223
 10
83.89996064525765
 20
-133.2202921216428
 10
83.89996064525765
 20
-133.2202921216428
 10
84.0205389872414
 20
-133.1207288621191
 10
84.06291366170997
 20
-132.9155734259725
 10
84.06291366170997
 20
-132.8330633891008
 10
84.06291366170997
 20
-132.8330633891008
 10
84.06291366170997
 20
-132.5474649733736
 10
84.06291366170997
 20
-132.5474649733736
 10
84.54729408693609
 20
-132.5474649733736
 10
84.70180661944956
 20
-132.5009561843227
 10
84.79689125484245
 20
-132.4733954204407
 10
84.79689125484245
 20
-132.4733954204407
 10
84.84977347054104
 20
-132.6130940423676
 10
84.84977347054104
 20
-132.6130940423676
 10
84.64031166503784
 20
-132.6616698887096
 10
84.47753090335979
 20
-132.6723496847139
 10
84.21932099674031
 20
-132.6764837992962
 10
84.21932099674031
 20
-132.6764837992962
 10
84.21932099674031
 20
-132.7908609694065
 10
84.21932099674031
 20
-132.7908609694065
 97
        0
 97
        0
 92
        1
 93
        1
 72
     4
 94
        3
 73
     0
 74
     1
 95
       32
 96
       28
 40
0.0
 40
0.0
 40
0.0
 40
0.0
 40
1.0
 40
1.0
 40
1.0
 40
2.0
 40
2.0
 40
2.0
 40
3.0
 40
3.0
 40
3.0
 40
4.0
 40
4.0
 40
4.0
 40
5.0
 40
5.0
 40
5.0
 40
6.0
 40
6.0
 40
6.0
 40
7.0
 40
7.0
 40
7.0
 40
8.0
 40
8.0
 40
8.0
 40
9.0
 40
9.0
 40
9.0
 40
9.0
 10
84.13474390257743
 20
-134.1361707563965
 10
84.13474390257743
 20
-134.1361707563965
 10
84.13474390257743
 20
-133.2371730895206
 10
84.13474390257743
 20
-133.2371730895206
 10
84.13474390257743
 20
-133.2371730895206
 10
85.63249916478979
 20
-133.2371730895206
 10
85.63249916478979
 20
-133.2371730895206
 10
85.63249916478979
 20
-133.2371730895206
 10
85.63249916478979
 20
-134.1361707563965
 10
85.63249916478979
 20
-134.1361707563965
 10
85.63249916478979
 20
-134.1361707563965
 10
84.4880384445898
 20
-134.1361707563965
 10
84.4880384445898
 20
-134.1361707563965
 10
84.4880384445898
 20
-134.1361707563965
 10
84.59380287598697
 20
-134.2462415571503
 10
84.59380287598697
 20
-134.2462415571503
 10
84.4287828022435
 20
-134.3414984473174
 10
84.26376272850004
 20
-134.4028211469549
 10
83.9676567715428
 20
-134.4536363053623
 10
83.9676567715428
 20
-134.4536363053623
 10
83.9020277025488
 20
-134.30119083014
 10
83.9020277025488
 20
-134.30119083014
 10
84.28081595115202
 20
-134.2483086144414
 10
84.40346135042692
 20
-134.1806124881562
 10
84.4839043300075
 20
-134.1361707563965
 10
84.4839043300075
 20
-134.1361707563965
 10
84.13474390257743
 20
-134.1361707563965
 10
84.13474390257743
 20
-134.1361707563965
 97
        0
 97
        0
 92
        1
 93
        4
 72
     1
 10
85.46334497646403
 20
-133.3704982847997
 11
84.30407034567746
 21
-133.3704982847997
 72
     1
 10
84.30407034567746
 20
-133.3704982847997
 11
84.30407034567746
 21
-133.4995171107223
 72
     1
 10
84.30407034567746
 20
-133.4995171107223
 11
85.46334497646403
 21
-133.4995171107223
 72
     1
 10
85.46334497646403
 20
-133.4995171107223
 11
85.46334497646403
 21
-133.3704982847997
 97
        0
 92
        1
 93
        4
 72
     1
 10
85.46334497646403
 20
-133.6094156567018
 11
84.30407034567746
 21
-133.6094156567018
 72
     1
 10
84.30407034567746
 20
-133.6094156567018
 11
84.30407034567746
 21
-133.7511813359199
 72
     1
 10
84.30407034567746
 20
-133.7511813359199
 11
85.46334497646403
 21
-133.7511813359199
 72
     1
 10
85.46334497646403
 20
-133.7511813359199
 11
85.46334497646403
 21
-133.6094156567018
 97
        0
 92
        1
 93
        4
 72
     1
 10
85.46334497646403
 20
-133.8612521366736
 11
84.30407034567746
 21
-133.8612521366736
 72
     1
 10
84.30407034567746
 20
-133.8612521366736
 11
84.30407034567746
 21
-134.0007785038262
 72
     1
 10
84.30407034567746
 20
-134.0007785038262
 11
85.46334497646403
 21
-134.0007785038262
 72
     1
 10
85.46334497646403
 20
-134.0007785038262
 11
85.46334497646403
 21
-133.8612521366736
 97
        0
 92
        1
 93
        1
 72
     4
 94
        3
 73
     0
 74
     1
 95
       50
 96
       46
 40
0.0
 40
0.0
 40
0.0
 40
0.0
 40
1.0
 40
1.0
 40
1.0
 40
2.0
 40
2.0
 40
2.0
 40
3.0
 40
3.0
 40
3.0
 40
4.0
 40
4.0
 40
4.0
 40
5.0
 40
5.0
 40
5.0
 40
6.0
 40
6.0
 40
6.0
 40
7.0
 40
7.0
 40
7.0
 40
8.0
 40
8.0
 40
8.0
 40
9.0
 40
9.0
 40
9.0
 40
10.0
 40
10.0
 40
10.0
 40
11.0
 40
11.0
 40
11.0
 40
12.0
 40
12.0
 40
12.0
 40
13.0
 40
13.0
 40
13.0
 40
14.0
 40
14.0
 40
14.0
 40
15.0
 40
15.0
 40
15.0
 40
15.0
 10
85.12693140232938
 20
-132.7908609694065
 10
85.12693140232938
 20
-132.7908609694065
 10
85.86314830752727
 20
-132.7908609694065
 10
85.86314830752727
 20
-132.7908609694065
 10
85.86314830752727
 20
-132.7908609694065
 10
85.86314830752727
 20
-132.9155734259725
 10
85.86314830752727
 20
-132.9155734259725
 10
85.86314830752727
 20
-132.9155734259725
 10
85.53310816004034
 20
-132.9155734259725
 10
85.53310816004034
 20
-132.9155734259725
 10
85.53310816004034
 20
-132.9155734259725
 10
85.53310816004034
 20
-133.1906643004697
 10
85.53310816004034
 20
-133.1906643004697
 10
85.53310816004034
 20
-133.1906643004697
 10
85.37652857023573
 20
-133.1906643004697
 10
85.37652857023573
 20
-133.1906643004697
 10
85.37652857023573
 20
-133.1906643004697
 10
85.37652857023573
 20
-132.9155734259725
 10
85.37652857023573
 20
-132.9155734259725
 10
85.37652857023573
 20
-132.9155734259725
 10
85.11211749174281
 20
-132.9155734259725
 10
85.11211749174281
 20
-132.9155734259725
 10
85.08679603992623
 20
-133.0445922518951
 10
85.03598088151878
 20
-133.1355427727057
 10
84.93865693406048
 20
-133.2180528095774
 10
84.93865693406048
 20
-133.2180528095774
 10
84.81601153478559
 20
-133.1102213208891
 10
84.81601153478559
 20
-133.1102213208891
 10
84.9514037873559
 20
-133.0001505201354
 10
84.97465818188134
 20
-132.8626912102739
 10
84.97465818188134
 20
-132.7886216573411
 10
84.97465818188134
 20
-132.7886216573411
 10
84.97465818188134
 20
-132.5453979160824
 10
84.97465818188134
 20
-132.5453979160824
 10
85.44422469652089
 20
-132.5453979160824
 10
85.61148408232977
 20
-132.5052625536792
 10
85.75531681883895
 20
-132.4628878792107
 10
85.75531681883895
 20
-132.4628878792107
 10
85.81457246118525
 20
-132.6003471890722
 10
85.81457246118525
 20
-132.6003471890722
 10
85.54378795604461
 20
-132.6702826274227
 10
85.22856171914425
 20
-132.674416742005
 10
85.12693140232938
 20
-132.674416742005
 10
85.12693140232938
 20
-132.674416742005
 10
85.12693140232938
 20
-132.7908609694065
 10
85.12693140232938
 20
-132.7908609694065
 97
        0
 97
        0
 92
        1
 93
        1
 72
     4
 94
        3
 73
     0
 74
     1
 95
       17
 96
       13
 40
0.0
 40
0.0
 40
0.0
 40
0.0
 40
1.0
 40
1.0
 40
1.0
 40
2.0
 40
2.0
 40
2.0
 40
3.0
 40
3.0
 40
3.0
 40
4.0
 40
4.0
 40
4.0
 40
4.0
 10
85.23906926037427
 20
-134.1425441830442
 10
85.45903860710747
 20
-134.2546820410891
 10
85.7256889976658
 20
-134.2927503462011
 10
85.85470782358841
 20
-134.3034301422054
 10
85.85470782358841
 20
-134.3034301422054
 10
85.7849446400121
 20
-134.4577704199446
 10
85.7849446400121
 20
-134.4577704199446
 10
85.66436629802836
 20
-134.442956509358
 10
85.40202227682659
 20
-134.4028211469549
 10
85.13761119833366
 20
-134.2567490983803
 10
85.13761119833366
 20
-134.2567490983803
 10
85.23906926037427
 20
-134.1425441830442
 10
85.23906926037427
 20
-134.1425441830442
 97
        0
 97
        0
 75
     2
 76
     1
 98
        0
  0
ENDBLK
  5
134
330
131
100
AcDbEntity
  8
0
100
AcDbBlockEnd
  0
BLOCK
  5
19C
330
19A
100
AcDbEntity
  8
0
100
AcDbBlockBegin
  2
block 7
 70
     0
 10
0.0
 20
0.0
 30
0.0
  3
block 7
  1

  0
SPLINE
  5
19E
330
19A
100
AcDbEntity
  8
_U+30EC_U+30A4_U+30E4_U+30FC 1
370
     0
100
AcDbSpline
210
0.0
220
0.0
230
1.0
 70
    11
 71
     3
 72
   242
 73
   238
 74
     0
 42
0.0000000001
 43
0.0000000001
 12
1.0
 22
0.0
 32
0.0
 13
1.0
 23
0.0
 33
0.0
 40
0.0
 40
0.0
 40
0.0
 40
0.0
 40
1.0
 40
1.0
 40
1.0
 40
2.0
 40
2.0
 40
2.0
 40
3.0
 40
3.0
 40
3.0
 40
4.0
 40
4.0
 40
4.0
 40
5.0
 40
5.0
 40
5.0
 40
6.0
 40
6.0
 40
6.0
 40
7.0
 40
7.0
 40
7.0
 40
8.0
 40
8.0
 40
8.0
 40
9.0
 40
9.0
 40
9.0
 40
10.0
 40
10.0
 40
10.0
 40
11.0
 40
11.0
 40
11.0
 40
12.0
 40
12.0
 40
12.0
 40
13.0
 40
13.0
 40
13.0
 40
14.0
 40
14.0
 40
14.0
 40
15.0
 40
15.0
 40
15.0
 40
16.0
 40
16.0
 40
16.0
 40
17.0
 40
17.0
 40
17.0
 40
18.0
 40
18.0
 40
18.0
 40
19.0
 40
19.0
 40
19.0
 40
20.0
 40
20.0
 40
20.0
 40
21.0
 40
21.0
 40
21.0
 40
22.0
 40
22.0
 40
22.0
 40
23.0
 40
23.0
 40
23.0
 40
24.0
 40
24.0
 40
24.0
 40
25.0
 40
25.0
 40
25.0
 40
26.0
 40
26.0
 40
26.0
 40
27.0
 40
27.0
 40
27.0
 40
28.0
 40
28.0
 40
28.0
 40
29.0
 40
29.0
 40
29.0
 40
30.0
 40
30.0
 40
30.0
 40
31.0
 40
31.0
 40
31.0
 40
32.0
 40
32.0
 40
32.0
 40
33.0
 40
33.0
 40
33.0
 40
34.0
 40
34.0
 40
34.0
 40
35.0
 40
35.0
 40
35.0
 40
36.0
 40
36.0
 40
36.0
 40
37.0
 40
37.0
 40
37.0
 40
38.0
 40
38.0
 40
38.0
 40
39.0
 40
39.0
 40
39.0
 40
40.0
 40
40.0
 40
40.0
 40
41.0
 40
41.0
 40
41.0
 40
42.0
 40
42.0
 40
42.0
 40
43.0
 40
43.0
 40
43.0
 40
44.0
 40
44.0
 40
44.0
 40
45.0
 40
45.0
 40
45.0
 40
46.0
 40
46.0
 40
46.0
 40
47.0
 40
47.0
 40
47.0
 40
48.0
 40
48.0
 40
48.0
 40
49.0
 40
49.0
 40
49.0
 40
50.0
 40
50.0
 40
50.0
 40
51.0
 40
51.0
 40
51.0
 40
52.0
 40
52.0
 40
52.0
 40
53.0
 40
53.0
 40
53.0
 40
54.0
 40
54.0
 40
54.0
 40
55.0
 40
55.0
 40
55.0
 40
56.0
 40
56.0
 40
56.0
 40
57.0
 40
57.0
 40
57.0
 40
58.0
 40
58.0
 40
58.0
 40
59.0
 40
59.0
 40
59.0
 40
60.0
 40
60.0
 40
60.0
 40
61.0
 40
61.0
 40
61.0
 40
62.0
 40
62.0
 40
62.0
 40
63.0
 40
63.0
 40
63.0
 40
64.0
 40
64.0
 40
64.0
 40
65.0
 40
65.0
 40
65.0
 40
66.0
 40
66.0
 40
66.0
 40
67.0
 40
67.0
 40
67.0
 40
68.0
 40
68.0
 40
68.0
 40
69.0
 40
69.0
 40
69.0
 40
70.0
 40
70.0
 40
70.0
 40
71.0
 40
71.0
 40
71.0
 40
72.0
 40
72.0
 40
72.0
 40
73.0
 40
73.0
 40
73.0
 40
74.0
 40
74.0
 40
74.0
 40
75.0
 40
75.0
 40
75.0
 40
76.0
 40
76.0
 40
76.0
 40
77.0
 40
77.0
 40
77.0
 40
78.0
 40
78.0
 40
78.0
 40
79.0
 40
79.0
 40
79.0
 40
79.0
 10
101.4155151113649
 20
-154.2872232687199
 30
0.0
 10
101.4155151113649
 20
-154.2872232687199
 30
0.0
 10
101.161611574102
 20
-154.2872232687199
 30
0.0
 10
101.161611574102
 20
-154.2872232687199
 30
0.0
 10
101.161611574102
 20
-154.2872232687199
 30
0.0
 10
100.8844536423136
 20
-154.2872232687199
 30
0.0
 10
100.8844536423136
 20
-154.2872232687199
 30
0.0
 10
100.8844536423136
 20
-154.2872232687199
 30
0.0
 10
101.0114054109451
 20
-154.3295979431884
 30
0.0
 10
101.0114054109451
 20
-154.3295979431884
 30
0.0
 10
101.0219129521751
 20
-154.3337320577707
 30
0.0
 10
101.0346598054705
 20
-154.3399332296442
 30
0.0
 10
101.0346598054705
 20
-154.3526800829396
 30
0.0
 10
101.0346598054705
 20
-154.3740396749482
 30
0.0
 10
101.0029649270062
 20
-154.3802408468216
 30
0.0
 10
100.9817775897719
 20
-154.3843749614039
 30
0.0
 10
100.9712700485419
 20
-154.4078016107036
 30
0.0
 10
100.9416422273688
 20
-154.4732584249234
 30
0.0
 10
100.9225219474256
 20
-154.5177001566831
 30
0.0
 10
100.9225219474256
 20
-154.5177001566831
 30
0.0
 10
101.1933064525663
 20
-154.5177001566831
 30
0.0
 10
101.1933064525663
 20
-154.5177001566831
 30
0.0
 10
101.2842569733769
 20
-154.5177001566831
 30
0.0
 10
101.4809719255846
 20
-154.5135660421008
 30
0.0
 10
101.6227376048027
 20
-154.5049533033877
 30
0.0
 10
101.6227376048027
 20
-154.5049533033877
 30
0.0
 10
101.6227376048027
 20
-154.6827202304266
 30
0.0
 10
101.6227376048027
 20
-154.6827202304266
 30
0.0
 10
101.5402275679309
 20
-154.6785861158442
 30
0.0
 10
101.5190402306966
 20
-154.6785861158442
 30
0.0
 10
101.3392062463666
 20
-154.674452001262
 30
0.0
 10
101.3075113679023
 20
-154.8287922790011
 30
0.0
 10
101.2630696361426
 20
-154.9090630038075
 30
0.0
 10
101.2186279043828
 20
-154.978998442158
 30
0.0
 10
101.3392062463666
 20
-155.0382540845043
 30
0.0
 10
101.445142932538
 20
-155.1057779560152
 30
0.0
 10
101.5486680518698
 20
-155.1884602476612
 30
0.0
 10
101.5486680518698
 20
-155.1884602476612
 30
0.0
 10
101.4303290219515
 20
-155.3555473786958
 30
0.0
 10
101.4303290219515
 20
-155.3555473786958
 30
0.0
 10
101.407074627426
 20
-155.336599353527
 30
0.0
 10
101.3943277741306
 20
-155.3279866148139
 30
0.0
 10
101.2821899160857
 20
-155.2432372658767
 30
0.0
 10
101.2334418149694
 20
-155.2053412155389
 30
0.0
 10
101.1743584273974
 20
-155.1695122224924
 30
0.0
 10
101.0939154478168
 20
-155.1250704907326
 30
0.0
 10
100.8823865850225
 20
-155.3111056469361
 30
0.0
 10
100.6770588941016
 20
-155.3345322962358
 30
0.0
 10
100.3873263637921
 20
-155.364160117409
 30
0.0
 10
100.3873263637921
 20
-155.364160117409
 30
0.0
 10
100.283628989686
 20
-155.1843261330789
 30
0.0
 10
100.283628989686
 20
-155.1843261330789
 30
0.0
 10
100.6009222838776
 20
-155.1798475089481
 30
0.0
 10
100.7766221536253
 20
-155.1546983119058
 30
0.0
 10
100.9288953740733
 20
-155.0444552563778
 30
0.0
 10
100.8103840893807
 20
-154.9938123527446
 30
0.0
 10
100.7215006258613
 20
-154.9662515888626
 30
0.0
 10
100.6856716328147
 20
-154.9535047355672
 30
0.0
 10
100.6665513528716
 20
-154.9810654994492
 30
0.0
 10
100.651737442285
 20
-155.0000135246181
 30
0.0
 10
100.624176678403
 20
-155.034119969922
 30
0.0
 10
100.624176678403
 20
-155.034119969922
 30
0.0
 10
100.4274617261952
 20
-154.9514376782761
 30
0.0
 10
100.4274617261952
 20
-154.9514376782761
 30
0.0
 10
100.509971763067
 20
-154.8711669534697
 30
0.0
 10
100.5712944627044
 20
-154.7757378085283
 30
0.0
 10
100.6284830477595
 20
-154.674452001262
 30
0.0
 10
100.4381415221995
 20
-154.6785861158442
 30
0.0
 10
100.4169541849652
 20
-154.6785861158442
 30
0.0
 10
100.3344441480935
 20
-154.6827202304266
 30
0.0
 10
100.3344441480935
 20
-154.6827202304266
 30
0.0
 10
100.3344441480935
 20
-154.5049533033877
 30
0.0
 10
100.3344441480935
 20
-154.5049533033877
 30
0.0
 10
100.4739705152461
 20
-154.5114989848096
 30
0.0
 10
100.6834323207493
 20
-154.5156330993919
 30
0.0
 10
100.7089260273401
 20
-154.5156330993919
 30
0.0
 10
100.7258069952179
 20
-154.4818711636365
 30
0.0
 10
100.7807562682076
 20
-154.3612928216527
 30
0.0
 10
100.7998765481507
 20
-154.2872232687199
 30
0.0
 10
100.7807562682076
 20
-154.2872232687199
 30
0.0
 10
100.603161595943
 20
-154.2934244405933
 30
0.0
 10
100.4085137010264
 20
-154.3061712938888
 30
0.0
 10
100.4085137010264
 20
-154.3061712938888
 30
0.0
 10
100.4085137010264
 20
-154.4394964891679
 30
0.0
 10
100.4085137010264
 20
-154.4394964891679
 30
0.0
 10
100.3597655999101
 20
-154.4649901957588
 30
0.0
 10
100.3005099575638
 20
-154.4966850742231
 30
0.0
 10
100.1673570170589
 20
-154.5621418884428
 30
0.0
 10
100.1673570170589
 20
-154.5621418884428
 30
0.0
 10
100.1673570170589
 20
-154.7082139370174
 30
0.0
 10
100.1673570170589
 20
-154.7082139370174
 30
0.0
 10
100.1673570170589
 20
-154.7082139370174
 30
0.0
 10
100.1673570170589
 20
-155.1757133943658
 30
0.0
 10
100.1673570170589
 20
-155.1757133943658
 30
0.0
 10
100.1673570170589
 20
-155.302492908223
 30
0.0
 10
100.131355769238
 20
-155.3617485505693
 30
0.0
 10
99.84782441080193
 20
-155.3534803214047
 30
0.0
 10
99.84782441080193
 20
-155.3534803214047
 30
0.0
 10
99.74412703669591
 20
-155.1460855731927
 30
0.0
 10
99.74412703669591
 20
-155.1460855731927
 30
0.0
 10
99.80768904839877
 20
-155.1588324264881
 30
0.0
 10
99.8562648947408
 20
-155.1629665410704
 30
0.0
 10
99.89657251191822
 20
-155.1629665410704
 30
0.0
 10
99.97270912214225
 20
-155.1629665410704
 30
0.0
 10
99.98321666337226
 20
-155.1398844013192
 30
0.0
 10
99.98321666337226
 20
-155.0740830775509
 30
0.0
 10
99.98321666337226
 20
-155.0740830775509
 30
0.0
 10
99.98321666337226
 20
-154.6448241800888
 30
0.0
 10
99.98321666337226
 20
-154.6448241800888
 30
0.0
 10
99.88589271591395
 20
-154.6847872877177
 30
0.0
 10
99.86901174803623
 20
-154.6913329691397
 30
0.0
 10
99.82250295898535
 20
-154.7102809943086
 30
0.0
 10
99.81819658962878
 20
-154.7312960767686
 30
0.0
 10
99.81406247504648
 20
-154.7609238979417
 30
0.0
 10
99.79494219510335
 20
-154.7609238979417
 30
0.0
 10
99.78650171116449
 20
-154.7609238979417
 30
0.0
 10
99.77599416993448
 20
-154.7567897833594
 30
0.0
 10
99.76962074328677
 20
-154.7337076436083
 30
0.0
 10
99.76962074328677
 20
-154.7337076436083
 30
0.0
 10
99.71673852758818
 20
-154.5411268059828
 30
0.0
 10
99.71673852758818
 20
-154.5411268059828
 30
0.0
 10
99.86263832138852
 20
-154.4946180169319
 30
0.0
 10
99.92826739038252
 20
-154.4711913676322
 30
0.0
 10
99.98321666337226
 20
-154.4501762851722
 30
0.0
 10
99.98321666337226
 20
-154.4501762851722
 30
0.0
 10
99.98321666337226
 20
-154.0374538460393
 30
0.0
 10
99.98321666337226
 20
-154.0374538460393
 30
0.0
 10
99.98321666337226
 20
-154.0374538460393
 30
0.0
 10
99.93033444767367
 20
-154.0374538460393
 30
0.0
 10
99.93033444767367
 20
-154.0374538460393
 30
0.0
 10
99.93033444767367
 20
-154.0374538460393
 30
0.0
 10
99.8521307801585
 20
-154.0374538460393
 30
0.0
 10
99.8521307801585
 20
-154.0374538460393
 30
0.0
 10
99.78443465387333
 20
-154.0374538460393
 30
0.0
 10
99.77599416993448
 20
-154.0374538460393
 30
0.0
 10
99.73999292211361
 20
-154.0439995274612
 30
0.0
 10
99.73999292211361
 20
-154.0439995274612
 30
0.0
 10
99.73999292211361
 20
-153.8493516325446
 30
0.0
 10
99.73999292211361
 20
-153.8493516325446
 30
0.0
 10
99.76755368599562
 20
-153.8555528044181
 30
0.0
 10
99.77599416993448
 20
-153.8555528044181
 30
0.0
 10
99.84575735351079
 20
-153.8555528044181
 30
0.0
 10
99.84575735351079
 20
-153.8555528044181
 30
0.0
 10
99.97908254878996
 20
-153.8555528044181
 30
0.0
 10
99.97908254878996
 20
-153.8555528044181
 30
0.0
 10
99.97908254878996
 20
-153.785961875616
 30
0.0
 10
99.97908254878996
 20
-153.70327958397
 30
0.0
 10
99.97684323672455
 20
-153.6991454693877
 30
0.0
 10
99.96840275278568
 20
-153.5193114850577
 30
0.0
 10
99.96840275278568
 20
-153.5003634598888
 30
0.0
 10
99.96633569549454
 20
-153.4538546708379
 30
0.0
 10
99.96633569549454
 20
-153.4538546708379
 30
0.0
 10
100.1821709276454
 20
-153.4621229000025
 30
0.0
 10
100.1821709276454
 20
-153.4621229000025
 30
0.0
 10
100.1926784688754
 20
-153.4621229000025
 30
0.0
 10
100.2138658061097
 20
-153.4641899572937
 30
0.0
 10
100.2138658061097
 20
-153.4810709251714
 30
0.0
 10
100.2138658061097
 20
-153.5003634598888
 30
0.0
 10
100.1990518955232
 20
-153.5106987463446
 30
0.0
 10
100.1737304437066
 20
-153.529991281062
 30
0.0
 10
100.1737304437066
 20
-153.5806341846951
 30
0.0
 10
100.1673570170589
 20
-153.8090440153672
 30
0.0
 10
100.16942407435
 20
-153.8555528044181
 30
0.0
 10
100.2984429002726
 20
-153.8555528044181
 30
0.0
 10
100.311189753568
 20
-153.8555528044181
 30
0.0
 10
100.4085137010264
 20
-153.8472845752535
 30
0.0
 10
100.4085137010264
 20
-153.8472845752535
 30
0.0
 10
100.4085137010264
 20
-154.0419324701701
 30
0.0
 10
100.4085137010264
 20
-154.0419324701701
 30
0.0
 10
100.3704453959143
 20
-154.0395209033304
 30
0.0
 10
100.3027492696292
 20
-154.0353867887481
 30
0.0
 10
100.1673570170589
 20
-154.0374538460393
 30
0.0
 10
100.1673570170589
 20
-154.0374538460393
 30
0.0
 10
100.1673570170589
 20
-154.3761067322393
 30
0.0
 10
100.1673570170589
 20
-154.3761067322393
 30
0.0
 10
100.2223062900486
 20
-154.3526800829396
 30
0.0
 10
100.2879353590426
 20
-154.3251193190576
 30
0.0
 10
100.3365112053846
 20
-154.3020371793064
 30
0.0
 10
100.3365112053846
 20
-154.3020371793064
 30
0.0
 10
100.3365112053846
 20
-154.1242702522676
 30
0.0
 10
100.3365112053846
 20
-154.1242702522676
 30
0.0
 10
100.4507161207207
 20
-154.137017105563
 30
0.0
 10
100.5692274054133
 20
-154.137017105563
 30
0.0
 10
100.6856716328147
 20
-154.137017105563
 30
0.0
 10
100.662244983515
 20
-154.0419324701701
 30
0.0
 10
100.6348564744073
 20
-153.9592501785241
 30
0.0
 10
100.5712944627044
 20
-153.8259249832449
 30
0.0
 10
100.5268527309447
 20
-153.8279920405361
 30
0.0
 10
100.4445149488472
 20
-153.8324706646669
 30
0.0
 10
100.4062743889609
 20
-153.834537721958
 30
0.0
 10
100.4062743889609
 20
-153.834537721958
 30
0.0
 10
100.4062743889609
 20
-153.654703737628
 30
0.0
 10
100.4062743889609
 20
-153.654703737628
 30
0.0
 10
100.5311591003012
 20
-153.6629719667926
 30
0.0
 10
100.7046196579836
 20
-153.6674505909234
 30
0.0
 10
100.7871296948553
 20
-153.6674505909234
 30
0.0
 10
100.7871296948553
 20
-153.6674505909234
 30
0.0
 10
100.869639731727
 20
-153.6674505909234
 30
0.0
 10
100.869639731727
 20
-153.6674505909234
 30
0.0
 10
100.869639731727
 20
-153.5044975744711
 30
0.0
 10
100.869639731727
 20
-153.4938177784668
 30
0.0
 10
100.8675726744359
 20
-153.4390407602513
 30
0.0
 10
100.8675726744359
 20
-153.4390407602513
 30
0.0
 10
101.0918483905257
 20
-153.4641899572937
 30
0.0
 10
101.0918483905257
 20
-153.4641899572937
 30
0.0
 10
101.095982505108
 20
-153.4641899572937
 30
0.0
 10
101.1171698423422
 20
-153.4662570145848
 30
0.0
 10
101.1171698423422
 20
-153.4831379824626
 30
0.0
 10
101.1171698423422
 20
-153.4979518930491
 30
0.0
 10
101.1066623011122
 20
-153.5065646317622
 30
0.0
 10
101.0791015372302
 20
-153.5213785423488
 30
0.0
 10
101.0727281105825
 20
-153.5868353565686
 30
0.0
 10
101.0706610532914
 20
-153.6081949485771
 30
0.0
 10
101.0706610532914
 20
-153.6674505909234
 30
0.0
 10
101.0706610532914
 20
-153.6674505909234
 30
0.0
 10
101.1657456886843
 20
-153.6674505909234
 30
0.0
 10
101.1657456886843
 20
-153.6674505909234
 30
0.0
 10
101.248255725556
 20
-153.6674505909234
 30
0.0
 10
101.4217162832383
 20
-153.6629719667926
 30
0.0
 10
101.5466009945786
 20
-153.654703737628
 30
0.0
 10
101.5466009945786
 20
-153.654703737628
 30
0.0
 10
101.5466009945786
 20
-153.834537721958
 30
0.0
 10
101.5466009945786
 20
-153.834537721958
 30
0.0
 10
101.5169731734055
 20
-153.8324706646669
 30
0.0
 10
101.3984618887129
 20
-153.8279920405361
 30
0.0
 10
101.3583265263097
 20
-153.8259249832449
 30
0.0
 10
101.3435126157232
 20
-153.8769123964266
 30
0.0
 10
101.3097506799677
 20
-153.9888779996972
 30
0.0
 10
101.2441216109737
 20
-154.1284043668498
 30
0.0
 10
101.286324030668
 20
-154.1284043668498
 30
0.0
 10
101.5634819624564
 20
-154.109456341681
 30
0.0
 10
101.6248046620938
 20
-154.1073892843898
 30
0.0
 10
101.6248046620938
 20
-154.1073892843898
 30
0.0
 10
101.6248046620938
 20
-154.2913573833022
 30
0.0
 10
101.6248046620938
 20
-154.2913573833022
 30
0.0
 10
101.5953490956949
 20
-154.2913573833022
 30
0.0
 10
101.5782958730429
 20
-154.2872232687199
 30
0.0
 10
101.4155151113649
 20
-154.2872232687199
 30
0.0
  0
SPLINE
  5
19F
330
19A
100
AcDbEntity
  8
_U+30EC_U+30A4_U+30E4_U+30FC 1
370
     0
100
AcDbSpline
210
0.0
220
0.0
230
1.0
 70
    11
 71
     3
 72
    20
 73
    16
 74
     0
 42
0.0000000001
 43
0.0000000001
 12
1.0
 22
0.0
 32
0.0
 13
1.0
 23
0.0
 33
0.0
 40
0.0
 40
0.0
 40
0.0
 40
0.0
 40
1.0
 40
1.0
 40
1.0
 40
2.0
 40
2.0
 40
2.0
 40
3.0
 40
3.0
 40
3.0
 40
4.0
 40
4.0
 40
4.0
 40
5.0
 40
5.0
 40
5.0
 40
5.0
 10
100.7871296948553
 20
-153.8217908686626
 30
0.0
 10
100.7871296948553
 20
-153.8217908686626
 30
0.0
 10
100.755434816391
 20
-153.8217908686626
 30
0.0
 10
100.755434816391
 20
-153.8217908686626
 30
0.0
 10
100.8019436054419
 20
-153.9213541281863
 30
0.0
 10
100.8336384839062
 20
-154.0016248529926
 30
0.0
 10
100.8675726744359
 20
-154.1284043668498
 30
0.0
 10
100.8675726744359
 20
-154.1284043668498
 30
0.0
 10
101.0747951678737
 20
-154.1284043668498
 30
0.0
 10
101.0747951678737
 20
-154.1284043668498
 30
0.0
 10
101.1066623011122
 20
-154.0353867887481
 30
0.0
 10
101.1299166956377
 20
-153.9509819493595
 30
0.0
 10
101.1531710901631
 20
-153.8217908686626
 30
0.0
 10
101.1531710901631
 20
-153.8217908686626
 30
0.0
 10
100.7871296948553
 20
-153.8217908686626
 30
0.0
 10
100.7871296948553
 20
-153.8217908686626
 30
0.0
  0
SPLINE
  5
1A0
330
19A
100
AcDbEntity
  8
_U+30EC_U+30A4_U+30E4_U+30FC 1
370
     0
100
AcDbSpline
210
0.0
220
0.0
230
1.0
 70
    11
 71
     3
 72
    17
 73
    13
 74
     0
 42
0.0000000001
 43
0.0000000001
 12
1.0
 22
0.0
 32
0.0
 13
1.0
 23
0.0
 33
0.0
 40
0.0
 40
0.0
 40
0.0
 40
0.0
 40
1.0
 40
1.0
 40
1.0
 40
2.0
 40
2.0
 40
2.0
 40
3.0
 40
3.0
 40
3.0
 40
4.0
 40
4.0
 40
4.0
 40
4.0
 10
100.8506917065582
 20
-154.6723849439708
 30
0.0
 10
100.8336384839062
 20
-154.7016682555954
 30
0.0
 10
100.782995580273
 20
-154.7950303432457
 30
0.0
 10
100.7723157842687
 20
-154.8139783684146
 30
0.0
 10
100.9626573098288
 20
-154.8732340107609
 30
0.0
 10
100.9838446470631
 20
-154.8794351826343
 30
0.0
 10
101.0558471427048
 20
-154.9069959465163
 30
0.0
 10
101.1107964156945
 20
-154.820179540288
 30
0.0
 10
101.13405081022
 20
-154.7461099873551
 30
0.0
 10
101.1488647208065
 20
-154.6723849439708
 30
0.0
 10
101.1488647208065
 20
-154.6723849439708
 30
0.0
 10
100.8506917065582
 20
-154.6723849439708
 30
0.0
 10
100.8506917065582
 20
-154.6723849439708
 30
0.0
  0
HATCH
  5
1A1
330
19A
100
AcDbEntity
  8
_U+30EC_U+30A4_U+30E4_U+30FC 1
 62
   179
420
  2234388
100
AcDbHatch
 10
0.0
 20
0.0
 30
0.0
210
0.0
220
0.0
230
1.0
  2
SOLID
 70
     1
 71
     0
 91
        3
 92
        1
 93
        1
 72
     4
 94
        3
 73
     0
 74
     1
 95
      242
 96
      238
 40
0.0
 40
0.0
 40
0.0
 40
0.0
 40
1.0
 40
1.0
 40
1.0
 40
2.0
 40
2.0
 40
2.0
 40
3.0
 40
3.0
 40
3.0
 40
4.0
 40
4.0
 40
4.0
 40
5.0
 40
5.0
 40
5.0
 40
6.0
 40
6.0
 40
6.0
 40
7.0
 40
7.0
 40
7.0
 40
8.0
 40
8.0
 40
8.0
 40
9.0
 40
9.0
 40
9.0
 40
10.0
 40
10.0
 40
10.0
 40
11.0
 40
11.0
 40
11.0
 40
12.0
 40
12.0
 40
12.0
 40
13.0
 40
13.0
 40
13.0
 40
14.0
 40
14.0
 40
14.0
 40
15.0
 40
15.0
 40
15.0
 40
16.0
 40
16.0
 40
16.0
 40
17.0
 40
17.0
 40
17.0
 40
18.0
 40
18.0
 40
18.0
 40
19.0
 40
19.0
 40
19.0
 40
20.0
 40
20.0
 40
20.0
 40
21.0
 40
21.0
 40
21.0
 40
22.0
 40
22.0
 40
22.0
 40
23.0
 40
23.0
 40
23.0
 40
24.0
 40
24.0
 40
24.0
 40
25.0
 40
25.0
 40
25.0
 40
26.0
 40
26.0
 40
26.0
 40
27.0
 40
27.0
 40
27.0
 40
28.0
 40
28.0
 40
28.0
 40
29.0
 40
29.0
 40
29.0
 40
30.0
 40
30.0
 40
30.0
 40
31.0
 40
31.0
 40
31.0
 40
32.0
 40
32.0
 40
32.0
 40
33.0
 40
33.0
 40
33.0
 40
34.0
 40
34.0
 40
34.0
 40
35.0
 40
35.0
 40
35.0
 40
36.0
 40
36.0
 40
36.0
 40
37.0
 40
37.0
 40
37.0
 40
38.0
 40
38.0
 40
38.0
 40
39.0
 40
39.0
 40
39.0
 40
40.0
 40
40.0
 40
40.0
 40
41.0
 40
41.0
 40
41.0
 40
42.0
 40
42.0
 40
42.0
 40
43.0
 40
43.0
 40
43.0
 40
44.0
 40
44.0
 40
44.0
 40
45.0
 40
45.0
 40
45.0
 40
46.0
 40
46.0
 40
46.0
 40
47.0
 40
47.0
 40
47.0
 40
48.0
 40
48.0
 40
48.0
 40
49.0
 40
49.0
 40
49.0
 40
50.0
 40
50.0
 40
50.0
 40
51.0
 40
51.0
 40
51.0
 40
52.0
 40
52.0
 40
52.0
 40
53.0
 40
53.0
 40
53.0
 40
54.0
 40
54.0
 40
54.0
 40
55.0
 40
55.0
 40
55.0
 40
56.0
 40
56.0
 40
56.0
 40
57.0
 40
57.0
 40
57.0
 40
58.0
 40
58.0
 40
58.0
 40
59.0
 40
59.0
 40
59.0
 40
60.0
 40
60.0
 40
60.0
 40
61.0
 40
61.0
 40
61.0
 40
62.0
 40
62.0
 40
62.0
 40
63.0
 40
63.0
 40
63.0
 40
64.0
 40
64.0
 40
64.0
 40
65.0
 40
65.0
 40
65.0
 40
66.0
 40
66.0
 40
66.0
 40
67.0
 40
67.0
 40
67.0
 40
68.0
 40
68.0
 40
68.0
 40
69.0
 40
69.0
 40
69.0
 40
70.0
 40
70.0
 40
70.0
 40
71.0
 40
71.0
 40
71.0
 40
72.0
 40
72.0
 40
72.0
 40
73.0
 40
73.0
 40
73.0
 40
74.0
 40
74.0
 40
74.0
 40
75.0
 40
75.0
 40
75.0
 40
76.0
 40
76.0
 40
76.0
 40
77.0
 40
77.0
 40
77.0
 40
78.0
 40
78.0
 40
78.0
 40
79.0
 40
79.0
 40
79.0
 40
79.0
 10
101.4155151113649
 20
-154.2872232687199
 10
101.4155151113649
 20
-154.2872232687199
 10
101.161611574102
 20
-154.2872232687199
 10
101.161611574102
 20
-154.2872232687199
 10
101.161611574102
 20
-154.2872232687199
 10
100.8844536423136
 20
-154.2872232687199
 10
100.8844536423136
 20
-154.2872232687199
 10
100.8844536423136
 20
-154.2872232687199
 10
101.0114054109451
 20
-154.3295979431884
 10
101.0114054109451
 20
-154.3295979431884
 10
101.0219129521751
 20
-154.3337320577707
 10
101.0346598054705
 20
-154.3399332296442
 10
101.0346598054705
 20
-154.3526800829396
 10
101.0346598054705
 20
-154.3740396749482
 10
101.0029649270062
 20
-154.3802408468216
 10
100.9817775897719
 20
-154.3843749614039
 10
100.9712700485419
 20
-154.4078016107036
 10
100.9416422273688
 20
-154.4732584249234
 10
100.9225219474256
 20
-154.5177001566831
 10
100.9225219474256
 20
-154.5177001566831
 10
101.1933064525663
 20
-154.5177001566831
 10
101.1933064525663
 20
-154.5177001566831
 10
101.2842569733769
 20
-154.5177001566831
 10
101.4809719255846
 20
-154.5135660421008
 10
101.6227376048027
 20
-154.5049533033877
 10
101.6227376048027
 20
-154.5049533033877
 10
101.6227376048027
 20
-154.6827202304266
 10
101.6227376048027
 20
-154.6827202304266
 10
101.5402275679309
 20
-154.6785861158442
 10
101.5190402306966
 20
-154.6785861158442
 10
101.3392062463666
 20
-154.674452001262
 10
101.3075113679023
 20
-154.8287922790011
 10
101.2630696361426
 20
-154.9090630038075
 10
101.2186279043828
 20
-154.978998442158
 10
101.3392062463666
 20
-155.0382540845043
 10
101.445142932538
 20
-155.1057779560152
 10
101.5486680518698
 20
-155.1884602476612
 10
101.5486680518698
 20
-155.1884602476612
 10
101.4303290219515
 20
-155.3555473786958
 10
101.4303290219515
 20
-155.3555473786958
 10
101.407074627426
 20
-155.336599353527
 10
101.3943277741306
 20
-155.3279866148139
 10
101.2821899160857
 20
-155.2432372658767
 10
101.2334418149694
 20
-155.2053412155389
 10
101.1743584273974
 20
-155.1695122224924
 10
101.0939154478168
 20
-155.1250704907326
 10
100.8823865850225
 20
-155.3111056469361
 10
100.6770588941016
 20
-155.3345322962358
 10
100.3873263637921
 20
-155.364160117409
 10
100.3873263637921
 20
-155.364160117409
 10
100.283628989686
 20
-155.1843261330789
 10
100.283628989686
 20
-155.1843261330789
 10
100.6009222838776
 20
-155.1798475089481
 10
100.7766221536253
 20
-155.1546983119058
 10
100.9288953740733
 20
-155.0444552563778
 10
100.8103840893807
 20
-154.9938123527446
 10
100.7215006258613
 20
-154.9662515888626
 10
100.6856716328147
 20
-154.9535047355672
 10
100.6665513528716
 20
-154.9810654994492
 10
100.651737442285
 20
-155.0000135246181
 10
100.624176678403
 20
-155.034119969922
 10
100.624176678403
 20
-155.034119969922
 10
100.4274617261952
 20
-154.9514376782761
 10
100.4274617261952
 20
-154.9514376782761
 10
100.509971763067
 20
-154.8711669534697
 10
100.5712944627044
 20
-154.7757378085283
 10
100.6284830477595
 20
-154.674452001262
 10
100.4381415221995
 20
-154.6785861158442
 10
100.4169541849652
 20
-154.6785861158442
 10
100.3344441480935
 20
-154.6827202304266
 10
100.3344441480935
 20
-154.6827202304266
 10
100.3344441480935
 20
-154.5049533033877
 10
100.3344441480935
 20
-154.5049533033877
 10
100.4739705152461
 20
-154.5114989848096
 10
100.6834323207493
 20
-154.5156330993919
 10
100.7089260273401
 20
-154.5156330993919
 10
100.7258069952179
 20
-154.4818711636365
 10
100.7807562682076
 20
-154.3612928216527
 10
100.7998765481507
 20
-154.2872232687199
 10
100.7807562682076
 20
-154.2872232687199
 10
100.603161595943
 20
-154.2934244405933
 10
100.4085137010264
 20
-154.3061712938888
 10
100.4085137010264
 20
-154.3061712938888
 10
100.4085137010264
 20
-154.4394964891679
 10
100.4085137010264
 20
-154.4394964891679
 10
100.3597655999101
 20
-154.4649901957588
 10
100.3005099575638
 20
-154.4966850742231
 10
100.1673570170589
 20
-154.5621418884428
 10
100.1673570170589
 20
-154.5621418884428
 10
100.1673570170589
 20
-154.7082139370174
 10
100.1673570170589
 20
-154.7082139370174
 10
100.1673570170589
 20
-154.7082139370174
 10
100.1673570170589
 20
-155.1757133943658
 10
100.1673570170589
 20
-155.1757133943658
 10
100.1673570170589
 20
-155.302492908223
 10
100.131355769238
 20
-155.3617485505693
 10
99.84782441080193
 20
-155.3534803214047
 10
99.84782441080193
 20
-155.3534803214047
 10
99.74412703669591
 20
-155.1460855731927
 10
99.74412703669591
 20
-155.1460855731927
 10
99.80768904839877
 20
-155.1588324264881
 10
99.8562648947408
 20
-155.1629665410704
 10
99.89657251191822
 20
-155.1629665410704
 10
99.97270912214225
 20
-155.1629665410704
 10
99.98321666337226
 20
-155.1398844013192
 10
99.98321666337226
 20
-155.0740830775509
 10
99.98321666337226
 20
-155.0740830775509
 10
99.98321666337226
 20
-154.6448241800888
 10
99.98321666337226
 20
-154.6448241800888
 10
99.88589271591395
 20
-154.6847872877177
 10
99.86901174803623
 20
-154.6913329691397
 10
99.82250295898535
 20
-154.7102809943086
 10
99.81819658962878
 20
-154.7312960767686
 10
99.81406247504648
 20
-154.7609238979417
 10
99.79494219510335
 20
-154.7609238979417
 10
99.78650171116449
 20
-154.7609238979417
 10
99.77599416993448
 20
-154.7567897833594
 10
99.76962074328677
 20
-154.7337076436083
 10
99.76962074328677
 20
-154.7337076436083
 10
99.71673852758818
 20
-154.5411268059828
 10
99.71673852758818
 20
-154.5411268059828
 10
99.86263832138852
 20
-154.4946180169319
 10
99.92826739038252
 20
-154.4711913676322
 10
99.98321666337226
 20
-154.4501762851722
 10
99.98321666337226
 20
-154.4501762851722
 10
99.98321666337226
 20
-154.0374538460393
 10
99.98321666337226
 20
-154.0374538460393
 10
99.98321666337226
 20
-154.0374538460393
 10
99.93033444767367
 20
-154.0374538460393
 10
99.93033444767367
 20
-154.0374538460393
 10
99.93033444767367
 20
-154.0374538460393
 10
99.8521307801585
 20
-154.0374538460393
 10
99.8521307801585
 20
-154.0374538460393
 10
99.78443465387333
 20
-154.0374538460393
 10
99.77599416993448
 20
-154.0374538460393
 10
99.73999292211361
 20
-154.0439995274612
 10
99.73999292211361
 20
-154.0439995274612
 10
99.73999292211361
 20
-153.8493516325446
 10
99.73999292211361
 20
-153.8493516325446
 10
99.76755368599562
 20
-153.8555528044181
 10
99.77599416993448
 20
-153.8555528044181
 10
99.84575735351079
 20
-153.8555528044181
 10
99.84575735351079
 20
-153.8555528044181
 10
99.97908254878996
 20
-153.8555528044181
 10
99.97908254878996
 20
-153.8555528044181
 10
99.97908254878996
 20
-153.785961875616
 10
99.97908254878996
 20
-153.70327958397
 10
99.97684323672455
 20
-153.6991454693877
 10
99.96840275278568
 20
-153.5193114850577
 10
99.96840275278568
 20
-153.5003634598888
 10
99.96633569549454
 20
-153.4538546708379
 10
99.96633569549454
 20
-153.4538546708379
 10
100.1821709276454
 20
-153.4621229000025
 10
100.1821709276454
 20
-153.4621229000025
 10
100.1926784688754
 20
-153.4621229000025
 10
100.2138658061097
 20
-153.4641899572937
 10
100.2138658061097
 20
-153.4810709251714
 10
100.2138658061097
 20
-153.5003634598888
 10
100.1990518955232
 20
-153.5106987463446
 10
100.1737304437066
 20
-153.529991281062
 10
100.1737304437066
 20
-153.5806341846951
 10
100.1673570170589
 20
-153.8090440153672
 10
100.16942407435
 20
-153.8555528044181
 10
100.2984429002726
 20
-153.8555528044181
 10
100.311189753568
 20
-153.8555528044181
 10
100.4085137010264
 20
-153.8472845752535
 10
100.4085137010264
 20
-153.8472845752535
 10
100.4085137010264
 20
-154.0419324701701
 10
100.4085137010264
 20
-154.0419324701701
 10
100.3704453959143
 20
-154.0395209033304
 10
100.3027492696292
 20
-154.0353867887481
 10
100.1673570170589
 20
-154.0374538460393
 10
100.1673570170589
 20
-154.0374538460393
 10
100.1673570170589
 20
-154.3761067322393
 10
100.1673570170589
 20
-154.3761067322393
 10
100.2223062900486
 20
-154.3526800829396
 10
100.2879353590426
 20
-154.3251193190576
 10
100.3365112053846
 20
-154.3020371793064
 10
100.3365112053846
 20
-154.3020371793064
 10
100.3365112053846
 20
-154.1242702522676
 10
100.3365112053846
 20
-154.1242702522676
 10
100.4507161207207
 20
-154.137017105563
 10
100.5692274054133
 20
-154.137017105563
 10
100.6856716328147
 20
-154.137017105563
 10
100.662244983515
 20
-154.0419324701701
 10
100.6348564744073
 20
-153.9592501785241
 10
100.5712944627044
 20
-153.8259249832449
 10
100.5268527309447
 20
-153.8279920405361
 10
100.4445149488472
 20
-153.8324706646669
 10
100.4062743889609
 20
-153.834537721958
 10
100.4062743889609
 20
-153.834537721958
 10
100.4062743889609
 20
-153.654703737628
 10
100.4062743889609
 20
-153.654703737628
 10
100.5311591003012
 20
-153.6629719667926
 10
100.7046196579836
 20
-153.6674505909234
 10
100.7871296948553
 20
-153.6674505909234
 10
100.7871296948553
 20
-153.6674505909234
 10
100.869639731727
 20
-153.6674505909234
 10
100.869639731727
 20
-153.6674505909234
 10
100.869639731727
 20
-153.5044975744711
 10
100.869639731727
 20
-153.4938177784668
 10
100.8675726744359
 20
-153.4390407602513
 10
100.8675726744359
 20
-153.4390407602513
 10
101.0918483905257
 20
-153.4641899572937
 10
101.0918483905257
 20
-153.4641899572937
 10
101.095982505108
 20
-153.4641899572937
 10
101.1171698423422
 20
-153.4662570145848
 10
101.1171698423422
 20
-153.4831379824626
 10
101.1171698423422
 20
-153.4979518930491
 10
101.1066623011122
 20
-153.5065646317622
 10
101.0791015372302
 20
-153.5213785423488
 10
101.0727281105825
 20
-153.5868353565686
 10
101.0706610532914
 20
-153.6081949485771
 10
101.0706610532914
 20
-153.6674505909234
 10
101.0706610532914
 20
-153.6674505909234
 10
101.1657456886843
 20
-153.6674505909234
 10
101.1657456886843
 20
-153.6674505909234
 10
101.248255725556
 20
-153.6674505909234
 10
101.4217162832383
 20
-153.6629719667926
 10
101.5466009945786
 20
-153.654703737628
 10
101.5466009945786
 20
-153.654703737628
 10
101.5466009945786
 20
-153.834537721958
 10
101.5466009945786
 20
-153.834537721958
 10
101.5169731734055
 20
-153.8324706646669
 10
101.3984618887129
 20
-153.8279920405361
 10
101.3583265263097
 20
-153.8259249832449
 10
101.3435126157232
 20
-153.8769123964266
 10
101.3097506799677
 20
-153.9888779996972
 10
101.2441216109737
 20
-154.1284043668498
 10
101.286324030668
 20
-154.1284043668498
 10
101.5634819624564
 20
-154.109456341681
 10
101.6248046620938
 20
-154.1073892843898
 10
101.6248046620938
 20
-154.1073892843898
 10
101.6248046620938
 20
-154.2913573833022
 10
101.6248046620938
 20
-154.2913573833022
 10
101.5953490956949
 20
-154.2913573833022
 10
101.5782958730429
 20
-154.2872232687199
 10
101.4155151113649
 20
-154.2872232687199
 97
        0
 97
        0
 92
        1
 93
        1
 72
     4
 94
        3
 73
     0
 74
     1
 95
       20
 96
       16
 40
0.0
 40
0.0
 40
0.0
 40
0.0
 40
1.0
 40
1.0
 40
1.0
 40
2.0
 40
2.0
 40
2.0
 40
3.0
 40
3.0
 40
3.0
 40
4.0
 40
4.0
 40
4.0
 40
5.0
 40
5.0
 40
5.0
 40
5.0
 10
100.7871296948553
 20
-153.8217908686626
 10
100.7871296948553
 20
-153.8217908686626
 10
100.755434816391
 20
-153.8217908686626
 10
100.755434816391
 20
-153.8217908686626
 10
100.8019436054419
 20
-153.9213541281863
 10
100.8336384839062
 20
-154.0016248529926
 10
100.8675726744359
 20
-154.1284043668498
 10
100.8675726744359
 20
-154.1284043668498
 10
101.0747951678737
 20
-154.1284043668498
 10
101.0747951678737
 20
-154.1284043668498
 10
101.1066623011122
 20
-154.0353867887481
 10
101.1299166956377
 20
-153.9509819493595
 10
101.1531710901631
 20
-153.8217908686626
 10
101.1531710901631
 20
-153.8217908686626
 10
100.7871296948553
 20
-153.8217908686626
 10
100.7871296948553
 20
-153.8217908686626
 97
        0
 97
        0
 92
        1
 93
        1
 72
     4
 94
        3
 73
     0
 74
     1
 95
       17
 96
       13
 40
0.0
 40
0.0
 40
0.0
 40
0.0
 40
1.0
 40
1.0
 40
1.0
 40
2.0
 40
2.0
 40
2.0
 40
3.0
 40
3.0
 40
3.0
 40
4.0
 40
4.0
 40
4.0
 40
4.0
 10
100.8506917065582
 20
-154.6723849439708
 10
100.8336384839062
 20
-154.7016682555954
 10
100.782995580273
 20
-154.7950303432457
 10
100.7723157842687
 20
-154.8139783684146
 10
100.9626573098288
 20
-154.8732340107609
 10
100.9838446470631
 20
-154.8794351826343
 10
101.0558471427048
 20
-154.9069959465163
 10
101.1107964156945
 20
-154.820179540288
 10
101.13405081022
 20
-154.7461099873551
 10
101.1488647208065
 20
-154.6723849439708
 10
101.1488647208065
 20
-154.6723849439708
 10
100.8506917065582
 20
-154.6723849439708
 10
100.8506917065582
 20
-154.6723849439708
 97
        0
 97
        0
 75
     2
 76
     1
 98
        0
  0
SPLINE
  5
1A2
330
19A
100
AcDbEntity
  8
_U+30EC_U+30A4_U+30E4_U+30FC 1
370
     0
100
AcDbSpline
210
0.0
220
0.0
230
1.0
 70
    11
 71
     3
 72
   203
 73
   199
 74
     0
 42
0.0000000001
 43
0.0000000001
 12
1.0
 22
0.0
 32
0.0
 13
1.0
 23
0.0
 33
0.0
 40
0.0
 40
0.0
 40
0.0
 40
0.0
 40
1.0
 40
1.0
 40
1.0
 40
2.0
 40
2.0
 40
2.0
 40
3.0
 40
3.0
 40
3.0
 40
4.0
 40
4.0
 40
4.0
 40
5.0
 40
5.0
 40
5.0
 40
6.0
 40
6.0
 40
6.0
 40
7.0
 40
7.0
 40
7.0
 40
8.0
 40
8.0
 40
8.0
 40
9.0
 40
9.0
 40
9.0
 40
10.0
 40
10.0
 40
10.0
 40
11.0
 40
11.0
 40
11.0
 40
12.0
 40
12.0
 40
12.0
 40
13.0
 40
13.0
 40
13.0
 40
14.0
 40
14.0
 40
14.0
 40
15.0
 40
15.0
 40
15.0
 40
16.0
 40
16.0
 40
16.0
 40
17.0
 40
17.0
 40
17.0
 40
18.0
 40
18.0
 40
18.0
 40
19.0
 40
19.0
 40
19.0
 40
20.0
 40
20.0
 40
20.0
 40
21.0
 40
21.0
 40
21.0
 40
22.0
 40
22.0
 40
22.0
 40
23.0
 40
23.0
 40
23.0
 40
24.0
 40
24.0
 40
24.0
 40
25.0
 40
25.0
 40
25.0
 40
26.0
 40
26.0
 40
26.0
 40
27.0
 40
27.0
 40
27.0
 40
28.0
 40
28.0
 40
28.0
 40
29.0
 40
29.0
 40
29.0
 40
30.0
 40
30.0
 40
30.0
 40
31.0
 40
31.0
 40
31.0
 40
32.0
 40
32.0
 40
32.0
 40
33.0
 40
33.0
 40
33.0
 40
34.0
 40
34.0
 40
34.0
 40
35.0
 40
35.0
 40
35.0
 40
36.0
 40
36.0
 40
36.0
 40
37.0
 40
37.0
 40
37.0
 40
38.0
 40
38.0
 40
38.0
 40
39.0
 40
39.0
 40
39.0
 40
40.0
 40
40.0
 40
40.0
 40
41.0
 40
41.0
 40
41.0
 40
42.0
 40
42.0
 40
42.0
 40
43.0
 40
43.0
 40
43.0
 40
44.0
 40
44.0
 40
44.0
 40
45.0
 40
45.0
 40
45.0
 40
46.0
 40
46.0
 40
46.0
 40
47.0
 40
47.0
 40
47.0
 40
48.0
 40
48.0
 40
48.0
 40
49.0
 40
49.0
 40
49.0
 40
50.0
 40
50.0
 40
50.0
 40
51.0
 40
51.0
 40
51.0
 40
52.0
 40
52.0
 40
52.0
 40
53.0
 40
53.0
 40
53.0
 40
54.0
 40
54.0
 40
54.0
 40
55.0
 40
55.0
 40
55.0
 40
56.0
 40
56.0
 40
56.0
 40
57.0
 40
57.0
 40
57.0
 40
58.0
 40
58.0
 40
58.0
 40
59.0
 40
59.0
 40
59.0
 40
60.0
 40
60.0
 40
60.0
 40
61.0
 40
61.0
 40
61.0
 40
62.0
 40
62.0
 40
62.0
 40
63.0
 40
63.0
 40
63.0
 40
64.0
 40
64.0
 40
64.0
 40
65.0
 40
65.0
 40
65.0
 40
66.0
 40
66.0
 40
66.0
 40
66.0
 10
103.1068847398483
 20
-154.3547471402308
 30
0.0
 10
103.1068847398483
 20
-154.3547471402308
 30
0.0
 10
102.5484347616893
 20
-154.3547471402308
 30
0.0
 10
102.5484347616893
 20
-154.3547471402308
 30
0.0
 10
102.537754965685
 20
-154.3991888719905
 30
0.0
 10
102.5293144817462
 20
-154.4308837504548
 30
0.0
 10
102.516739883225
 20
-154.4691243103411
 30
0.0
 10
102.5420613350416
 20
-154.4691243103411
 30
0.0
 10
102.5568752456281
 20
-154.4711913676322
 30
0.0
 10
102.5632486722759
 20
-154.4711913676322
 30
0.0
 10
102.5632486722759
 20
-154.4711913676322
 30
0.0
 10
102.7515231405448
 20
-154.4711913676322
 30
0.0
 10
102.7515231405448
 20
-154.4711913676322
 30
0.0
 10
102.7515231405448
 20
-154.4711913676322
 30
0.0
 10
103.1260050197914
 20
-154.4711913676322
 30
0.0
 10
103.1260050197914
 20
-154.4711913676322
 30
0.0
 10
103.1766479234246
 20
-154.4711913676322
 30
0.0
 10
103.4601792818607
 20
-154.4584445143368
 30
0.0
 10
103.491874160325
 20
-154.4584445143368
 30
0.0
 10
103.4898071030338
 20
-154.4860052782188
 30
0.0
 10
103.4877400457427
 20
-154.5049533033877
 30
0.0
 10
103.4877400457427
 20
-154.5345811245608
 30
0.0
 10
103.4855007336772
 20
-154.5662760030251
 30
0.0
 10
103.4855007336772
 20
-154.7016682555954
 30
0.0
 10
103.4855007336772
 20
-154.7292290194774
 30
0.0
 10
103.4855007336772
 20
-154.7292290194774
 30
0.0
 10
103.4855007336772
 20
-154.9748643275757
 30
0.0
 10
103.4855007336772
 20
-154.9748643275757
 30
0.0
 10
103.4855007336772
 20
-155.0193060593355
 30
0.0
 10
103.4898071030338
 20
-155.2160210115432
 30
0.0
 10
103.4941134723904
 20
-155.3682942319913
 30
0.0
 10
103.4941134723904
 20
-155.3682942319913
 30
0.0
 10
103.2675984442352
 20
-155.3682942319913
 30
0.0
 10
103.2675984442352
 20
-155.3682942319913
 30
0.0
 10
103.2675984442352
 20
-155.3682942319913
 30
0.0
 10
103.2698377563006
 20
-155.3345322962358
 30
0.0
 10
103.2698377563006
 20
-155.3345322962358
 30
0.0
 10
103.2698377563006
 20
-155.3345322962358
 30
0.0
 10
102.5673827868582
 20
-155.3345322962358
 30
0.0
 10
102.5673827868582
 20
-155.3345322962358
 30
0.0
 10
102.5673827868582
 20
-155.3345322962358
 30
0.0
 10
102.5696220989236
 20
-155.3682942319913
 30
0.0
 10
102.5696220989236
 20
-155.3682942319913
 30
0.0
 10
102.5696220989236
 20
-155.3682942319913
 30
0.0
 10
102.3517198094815
 20
-155.3682942319913
 30
0.0
 10
102.3517198094815
 20
-155.3682942319913
 30
0.0
 10
102.3558539240638
 20
-155.3131727042273
 30
0.0
 10
102.3558539240638
 20
-155.3004258509318
 30
0.0
 10
102.3622273507115
 20
-155.1863931903701
 30
0.0
 10
102.3642944080027
 20
-155.1588324264881
 30
0.0
 10
102.3665337200681
 20
-155.0255072312089
 30
0.0
 10
102.3665337200681
 20
-155.00655920604
 30
0.0
 10
102.3665337200681
 20
-155.00655920604
 30
0.0
 10
102.3665337200681
 20
-154.8032985724103
 30
0.0
 10
102.3665337200681
 20
-154.8032985724103
 30
0.0
 10
102.2268350981412
 20
-155.0530679950909
 30
0.0
 10
102.0576809098154
 20
-155.1843261330789
 30
0.0
 10
101.9519164784183
 20
-155.2497829472987
 30
0.0
 10
101.9519164784183
 20
-155.2497829472987
 30
0.0
 10
101.7782836659617
 20
-155.1102565801461
 30
0.0
 10
101.7782836659617
 20
-155.1102565801461
 30
0.0
 10
101.8671671294811
 20
-155.0592691669644
 30
0.0
 10
102.0109998659903
 20
-154.972452760736
 30
0.0
 10
102.148631430626
 20
-154.778149375368
 30
0.0
 10
102.2395819514366
 20
-154.6510253519623
 30
0.0
 10
102.3052110204306
 20
-154.5073648702273
 30
0.0
 10
102.3389729561861
 20
-154.3547471402308
 30
0.0
 10
102.110563125514
 20
-154.3571587070704
 30
0.0
 10
101.930729141184
 20
-154.3633598789439
 30
0.0
 10
101.8354722510168
 20
-154.3654269362351
 30
0.0
 10
101.8354722510168
 20
-154.3654269362351
 30
0.0
 10
101.8354722510168
 20
-154.1876600091962
 30
0.0
 10
101.8354722510168
 20
-154.1876600091962
 30
0.0
 10
102.0321872032246
 20
-154.1942056906181
 30
0.0
 10
102.3157185616607
 20
-154.1983398052004
 30
0.0
 10
102.4659247248176
 20
-154.1983398052004
 30
0.0
 10
102.4659247248176
 20
-154.1983398052004
 30
0.0
 10
102.679520644903
 20
-154.1983398052004
 30
0.0
 10
102.679520644903
 20
-154.1983398052004
 30
0.0
 10
102.679520644903
 20
-154.1983398052004
 30
0.0
 10
102.679520644903
 20
-154.0905083165121
 30
0.0
 10
102.679520644903
 20
-154.0905083165121
 30
0.0
 10
102.679520644903
 20
-154.0905083165121
 30
0.0
 10
102.5336208511027
 20
-154.0905083165121
 30
0.0
 10
102.5336208511027
 20
-154.0905083165121
 30
0.0
 10
102.3642944080027
 20
-154.0905083165121
 30
0.0
 10
102.1951402196769
 20
-154.0946424310944
 30
0.0
 10
102.0280530886423
 20
-154.1011881125164
 30
0.0
 10
102.0280530886423
 20
-154.1011881125164
 30
0.0
 10
102.0280530886423
 20
-153.9296223573509
 30
0.0
 10
102.0280530886423
 20
-153.9296223573509
 30
0.0
 10
102.1823933663815
 20
-153.9403021533552
 30
0.0
 10
102.3686007773592
 20
-153.9403021533552
 30
0.0
 10
102.5336208511027
 20
-153.9403021533552
 30
0.0
 10
102.5336208511027
 20
-153.9403021533552
 30
0.0
 10
102.679520644903
 20
-153.9403021533552
 30
0.0
 10
102.679520644903
 20
-153.9403021533552
 30
0.0
 10
102.679520644903
 20
-153.9403021533552
 30
0.0
 10
102.679520644903
 20
-153.8217908686626
 30
0.0
 10
102.679520644903
 20
-153.8217908686626
 30
0.0
 10
102.679520644903
 20
-153.8217908686626
 30
0.0
 10
102.5484347616893
 20
-153.8217908686626
 30
0.0
 10
102.5484347616893
 20
-153.8217908686626
 30
0.0
 10
102.5019259726384
 20
-153.8217908686626
 30
0.0
 10
102.2988375937829
 20
-153.8304036073757
 30
0.0
 10
102.2564629193144
 20
-153.8304036073757
 30
0.0
 10
102.0533745404589
 20
-153.834537721958
 30
0.0
 10
101.9772379302349
 20
-153.8366047792492
 30
0.0
 10
101.8990342627197
 20
-153.8386718365403
 30
0.0
 10
101.8990342627197
 20
-153.8386718365403
 30
0.0
 10
101.8990342627197
 20
-153.654703737628
 30
0.0
 10
101.8990342627197
 20
-153.654703737628
 30
0.0
 10
102.0132391780557
 20
-153.6629719667926
 30
0.0
 10
102.0576809098154
 20
-153.6629719667926
 30
0.0
 10
102.440603273001
 20
-153.6715847055057
 30
0.0
 10
102.3770412612981
 20
-153.5765000701128
 30
0.0
 10
102.3494804974161
 20
-153.5489393062308
 30
0.0
 10
102.3136515043695
 20
-153.5127658036357
 30
0.0
 10
102.3136515043695
 20
-153.5127658036357
 30
0.0
 10
102.489179119343
 20
-153.4304280215382
 30
0.0
 10
102.489179119343
 20
-153.4304280215382
 30
0.0
 10
102.5293144817462
 20
-153.4662570145848
 30
0.0
 10
102.5737562135059
 20
-153.5086316890534
 30
0.0
 10
102.6478257664387
 20
-153.6185302350329
 30
0.0
 10
102.6478257664387
 20
-153.6185302350329
 30
0.0
 10
102.5336208511027
 20
-153.6736517627969
 30
0.0
 10
102.5336208511027
 20
-153.6736517627969
 30
0.0
 10
102.5336208511027
 20
-153.6736517627969
 30
0.0
 10
102.5441283923327
 20
-153.6736517627969
 30
0.0
 10
102.5441283923327
 20
-153.6736517627969
 30
0.0
 10
102.5441283923327
 20
-153.6736517627969
 30
0.0
 10
103.0667493774451
 20
-153.6736517627969
 30
0.0
 10
103.0667493774451
 20
-153.6736517627969
 30
0.0
 10
103.0667493774451
 20
-153.6736517627969
 30
0.0
 10
102.971492487278
 20
-153.6292100310372
 30
0.0
 10
102.971492487278
 20
-153.6292100310372
 30
0.0
 10
102.99905325116
 20
-153.5913139806994
 30
0.0
 10
103.0560695814409
 20
-153.5106987463446
 30
0.0
 10
103.0708834920274
 20
-153.4366291934117
 30
0.0
 10
103.0708834920274
 20
-153.4366291934117
 30
0.0
 10
103.2846516668872
 20
-153.5003634598888
 30
0.0
 10
103.2846516668872
 20
-153.5003634598888
 30
0.0
 10
103.293092150826
 20
-153.50243051718
 30
0.0
 10
103.3142794880603
 20
-153.5127658036357
 30
0.0
 10
103.3142794880603
 20
-153.5341253956443
 30
0.0
 10
103.3142794880603
 20
-153.572021445982
 30
0.0
 10
103.2486504190663
 20
-153.572021445982
 30
0.0
 10
103.2295301391232
 20
-153.572021445982
 30
0.0
 10
103.2190225978932
 20
-153.5913139806994
 30
0.0
 10
103.1957682033677
 20
-153.6312770883283
 30
0.0
 10
103.1661403821946
 20
-153.6715847055057
 30
0.0
 10
103.5659437132578
 20
-153.6653835336323
 30
0.0
 10
103.595571534431
 20
-153.6629719667926
 30
0.0
 10
103.671708144655
 20
-153.6567707949191
 30
0.0
 10
103.671708144655
 20
-153.6567707949191
 30
0.0
 10
103.671708144655
 20
-153.8386718365403
 30
0.0
 10
103.671708144655
 20
-153.8386718365403
 30
0.0
 10
103.6527601194861
 20
-153.8386718365403
 30
0.0
 10
103.6272664128953
 20
-153.8366047792492
 30
0.0
 10
103.4072970661621
 20
-153.8279920405361
 30
0.0
 10
103.3564819077546
 20
-153.8259249832449
 30
0.0
 10
103.1365125610214
 20
-153.8217908686626
 30
0.0
 10
103.0920708292617
 20
-153.8217908686626
 30
0.0
 10
103.0920708292617
 20
-153.8217908686626
 30
0.0
 10
102.8762355971108
 20
-153.8217908686626
 30
0.0
 10
102.8762355971108
 20
-153.8217908686626
 30
0.0
 10
102.8762355971108
 20
-153.8217908686626
 30
0.0
 10
102.8762355971108
 20
-153.9403021533552
 30
0.0
 10
102.8762355971108
 20
-153.9403021533552
 30
0.0
 10
102.8762355971108
 20
-153.9403021533552
 30
0.0
 10
103.0496961547931
 20
-153.9403021533552
 30
0.0
 10
103.0496961547931
 20
-153.9403021533552
 30
0.0
 10
103.2126491712455
 20
-153.9403021533552
 30
0.0
 10
103.4029906968055
 20
-153.9403021533552
 30
0.0
 10
103.5595702866101
 20
-153.9296223573509
 30
0.0
 10
103.5595702866101
 20
-153.9296223573509
 30
0.0
 10
103.5595702866101
 20
-154.1011881125164
 30
0.0
 10
103.5595702866101
 20
-154.1011881125164
 30
0.0
 10
103.3501084811069
 20
-154.0925753738032
 30
0.0
 10
103.1533935288992
 20
-154.0905083165121
 30
0.0
 10
103.0496961547931
 20
-154.0905083165121
 30
0.0
 10
103.0496961547931
 20
-154.0905083165121
 30
0.0
 10
102.8762355971108
 20
-154.0905083165121
 30
0.0
 10
102.8762355971108
 20
-154.0905083165121
 30
0.0
 10
102.8762355971108
 20
-154.0905083165121
 30
0.0
 10
102.8762355971108
 20
-154.1983398052004
 30
0.0
 10
102.8762355971108
 20
-154.1983398052004
 30
0.0
 10
102.8762355971108
 20
-154.1983398052004
 30
0.0
 10
103.1068847398483
 20
-154.1983398052004
 30
0.0
 10
103.1068847398483
 20
-154.1983398052004
 30
0.0
 10
103.2402099351275
 20
-154.1983398052004
 30
0.0
 10
103.5278754081458
 20
-154.1942056906181
 30
0.0
 10
103.737337213649
 20
-154.1876600091962
 30
0.0
 10
103.737337213649
 20
-154.1876600091962
 30
0.0
 10
103.737337213649
 20
-154.3654269362351
 30
0.0
 10
103.737337213649
 20
-154.3654269362351
 30
0.0
 10
103.5447563760235
 20
-154.3592257643616
 30
0.0
 10
103.2317694511886
 20
-154.3547471402308
 30
0.0
 10
103.1068847398483
 20
-154.3547471402308
 30
0.0
  0
POLYLINE
  5
1A3
330
19A
100
AcDbEntity
  8
_U+30EC_U+30A4_U+30E4_U+30FC 1
370
     0
100
AcDb2dPolyline
 66
     1
 10
0.0
 20
0.0
 30
0.0
  0
VERTEX
  5
1A4
330
1A3
100
AcDbEntity
  8
_U+30EC_U+30A4_U+30E4_U+30FC 1
370
     0
100
AcDbVertex
100
AcDb2dVertex
 10
103.2719048135917
 20
-154.6107177347848
 30
0.0
  0
VERTEX
  5
1A5
330
1A3
100
AcDbEntity
  8
_U+30EC_U+30A4_U+30E4_U+30FC 1
370
     0
100
AcDbVertex
100
AcDb2dVertex
 10
102.565315729567
 20
-154.6107177347848
 30
0.0
  0
VERTEX
  5
1A6
330
1A3
100
AcDbEntity
  8
_U+30EC_U+30A4_U+30E4_U+30FC 1
370
     0
100
AcDbVertex
100
AcDb2dVertex
 10
102.565315729567
 20
-154.7188937330217
 30
0.0
  0
VERTEX
  5
1A7
330
1A3
100
AcDbEntity
  8
_U+30EC_U+30A4_U+30E4_U+30FC 1
370
     0
100
AcDbVertex
100
AcDb2dVertex
 10
103.2719048135917
 20
-154.7188937330217
 30
0.0
  0
VERTEX
  5
1A8
330
1A3
100
AcDbEntity
  8
_U+30EC_U+30A4_U+30E4_U+30FC 1
370
     0
100
AcDbVertex
100
AcDb2dVertex
 10
103.2719048135917
 20
-154.6107177347848
 30
0.0
  0
SEQEND
  5
1A9
330
1A3
100
AcDbEntity
  8
_U+30EC_U+30A4_U+30E4_U+30FC 1
370
     0
  0
POLYLINE
  5
1AA
330
19A
100
AcDbEntity
  8
_U+30EC_U+30A4_U+30E4_U+30FC 1
370
     0
100
AcDb2dPolyline
 66
     1
 10
0.0
 20
0.0
 30
0.0
  0
VERTEX
  5
1AB
330
1AA
100
AcDbEntity
  8
_U+30EC_U+30A4_U+30E4_U+30FC 1
370
     0
100
AcDbVertex
100
AcDb2dVertex
 10
103.2719048135917
 20
-154.8436061895877
 30
0.0
  0
VERTEX
  5
1AC
330
1AA
100
AcDbEntity
  8
_U+30EC_U+30A4_U+30E4_U+30FC 1
370
     0
100
AcDbVertex
100
AcDb2dVertex
 10
102.565315729567
 20
-154.8436061895877
 30
0.0
  0
VERTEX
  5
1AD
330
1AA
100
AcDbEntity
  8
_U+30EC_U+30A4_U+30E4_U+30FC 1
370
     0
100
AcDbVertex
100
AcDb2dVertex
 10
102.565315729567
 20
-154.957983359698
 30
0.0
  0
VERTEX
  5
1AE
330
1AA
100
AcDbEntity
  8
_U+30EC_U+30A4_U+30E4_U+30FC 1
370
     0
100
AcDbVertex
100
AcDb2dVertex
 10
103.2719048135917
 20
-154.957983359698
 30
0.0
  0
VERTEX
  5
1AF
330
1AA
100
AcDbEntity
  8
_U+30EC_U+30A4_U+30E4_U+30FC 1
370
     0
100
AcDbVertex
100
AcDb2dVertex
 10
103.2719048135917
 20
-154.8436061895877
 30
0.0
  0
SEQEND
  5
1B0
330
1AA
100
AcDbEntity
  8
_U+30EC_U+30A4_U+30E4_U+30FC 1
370
     0
  0
POLYLINE
  5
1B1
330
19A
100
AcDbEntity
  8
_U+30EC_U+30A4_U+30E4_U+30FC 1
370
     0
100
AcDb2dPolyline
 66
     1
 10
0.0
 20
0.0
 30
0.0
  0
VERTEX
  5
1B2
330
1B1
100
AcDbEntity
  8
_U+30EC_U+30A4_U+30E4_U+30FC 1
370
     0
100
AcDbVertex
100
AcDb2dVertex
 10
103.2719048135917
 20
-155.0868299308464
 30
0.0
  0
VERTEX
  5
1B3
330
1B1
100
AcDbEntity
  8
_U+30EC_U+30A4_U+30E4_U+30FC 1
370
     0
100
AcDbVertex
100
AcDb2dVertex
 10
102.565315729567
 20
-155.0868299308464
 30
0.0
  0
VERTEX
  5
1B4
330
1B1
100
AcDbEntity
  8
_U+30EC_U+30A4_U+30E4_U+30FC 1
370
     0
100
AcDbVertex
100
AcDb2dVertex
 10
102.565315729567
 20
-155.2012071009567
 30
0.0
  0
VERTEX
  5
1B5
330
1B1
100
AcDbEntity
  8
_U+30EC_U+30A4_U+30E4_U+30FC 1
370
     0
100
AcDbVertex
100
AcDb2dVertex
 10
103.2719048135917
 20
-155.2012071009567
 30
0.0
  0
VERTEX
  5
1B6
330
1B1
100
AcDbEntity
  8
_U+30EC_U+30A4_U+30E4_U+30FC 1
370
     0
100
AcDbVertex
100
AcDb2dVertex
 10
103.2719048135917
 20
-155.0868299308464
 30
0.0
  0
SEQEND
  5
1B7
330
1B1
100
AcDbEntity
  8
_U+30EC_U+30A4_U+30E4_U+30FC 1
370
     0
  0
HATCH
  5
1B8
330
19A
100
AcDbEntity
  8
_U+30EC_U+30A4_U+30E4_U+30FC 1
 62
   179
420
  2234388
100
AcDbHatch
 10
0.0
 20
0.0
 30
0.0
210
0.0
220
0.0
230
1.0
  2
SOLID
 70
     1
 71
     0
 91
        4
 92
        1
 93
        1
 72
     4
 94
        3
 73
     0
 74
     1
 95
      203
 96
      199
 40
0.0
 40
0.0
 40
0.0
 40
0.0
 40
1.0
 40
1.0
 40
1.0
 40
2.0
 40
2.0
 40
2.0
 40
3.0
 40
3.0
 40
3.0
 40
4.0
 40
4.0
 40
4.0
 40
5.0
 40
5.0
 40
5.0
 40
6.0
 40
6.0
 40
6.0
 40
7.0
 40
7.0
 40
7.0
 40
8.0
 40
8.0
 40
8.0
 40
9.0
 40
9.0
 40
9.0
 40
10.0
 40
10.0
 40
10.0
 40
11.0
 40
11.0
 40
11.0
 40
12.0
 40
12.0
 40
12.0
 40
13.0
 40
13.0
 40
13.0
 40
14.0
 40
14.0
 40
14.0
 40
15.0
 40
15.0
 40
15.0
 40
16.0
 40
16.0
 40
16.0
 40
17.0
 40
17.0
 40
17.0
 40
18.0
 40
18.0
 40
18.0
 40
19.0
 40
19.0
 40
19.0
 40
20.0
 40
20.0
 40
20.0
 40
21.0
 40
21.0
 40
21.0
 40
22.0
 40
22.0
 40
22.0
 40
23.0
 40
23.0
 40
23.0
 40
24.0
 40
24.0
 40
24.0
 40
25.0
 40
25.0
 40
25.0
 40
26.0
 40
26.0
 40
26.0
 40
27.0
 40
27.0
 40
27.0
 40
28.0
 40
28.0
 40
28.0
 40
29.0
 40
29.0
 40
29.0
 40
30.0
 40
30.0
 40
30.0
 40
31.0
 40
31.0
 40
31.0
 40
32.0
 40
32.0
 40
32.0
 40
33.0
 40
33.0
 40
33.0
 40
34.0
 40
34.0
 40
34.0
 40
35.0
 40
35.0
 40
35.0
 40
36.0
 40
36.0
 40
36.0
 40
37.0
 40
37.0
 40
37.0
 40
38.0
 40
38.0
 40
38.0
 40
39.0
 40
39.0
 40
39.0
 40
40.0
 40
40.0
 40
40.0
 40
41.0
 40
41.0
 40
41.0
 40
42.0
 40
42.0
 40
42.0
 40
43.0
 40
43.0
 40
43.0
 40
44.0
 40
44.0
 40
44.0
 40
45.0
 40
45.0
 40
45.0
 40
46.0
 40
46.0
 40
46.0
 40
47.0
 40
47.0
 40
47.0
 40
48.0
 40
48.0
 40
48.0
 40
49.0
 40
49.0
 40
49.0
 40
50.0
 40
50.0
 40
50.0
 40
51.0
 40
51.0
 40
51.0
 40
52.0
 40
52.0
 40
52.0
 40
53.0
 40
53.0
 40
53.0
 40
54.0
 40
54.0
 40
54.0
 40
55.0
 40
55.0
 40
55.0
 40
56.0
 40
56.0
 40
56.0
 40
57.0
 40
57.0
 40
57.0
 40
58.0
 40
58.0
 40
58.0
 40
59.0
 40
59.0
 40
59.0
 40
60.0
 40
60.0
 40
60.0
 40
61.0
 40
61.0
 40
61.0
 40
62.0
 40
62.0
 40
62.0
 40
63.0
 40
63.0
 40
63.0
 40
64.0
 40
64.0
 40
64.0
 40
65.0
 40
65.0
 40
65.0
 40
66.0
 40
66.0
 40
66.0
 40
66.0
 10
103.1068847398483
 20
-154.3547471402308
 10
103.1068847398483
 20
-154.3547471402308
 10
102.5484347616893
 20
-154.3547471402308
 10
102.5484347616893
 20
-154.3547471402308
 10
102.537754965685
 20
-154.3991888719905
 10
102.5293144817462
 20
-154.4308837504548
 10
102.516739883225
 20
-154.4691243103411
 10
102.5420613350416
 20
-154.4691243103411
 10
102.5568752456281
 20
-154.4711913676322
 10
102.5632486722759
 20
-154.4711913676322
 10
102.5632486722759
 20
-154.4711913676322
 10
102.7515231405448
 20
-154.4711913676322
 10
102.7515231405448
 20
-154.4711913676322
 10
102.7515231405448
 20
-154.4711913676322
 10
103.1260050197914
 20
-154.4711913676322
 10
103.1260050197914
 20
-154.4711913676322
 10
103.1766479234246
 20
-154.4711913676322
 10
103.4601792818607
 20
-154.4584445143368
 10
103.491874160325
 20
-154.4584445143368
 10
103.4898071030338
 20
-154.4860052782188
 10
103.4877400457427
 20
-154.5049533033877
 10
103.4877400457427
 20
-154.5345811245608
 10
103.4855007336772
 20
-154.5662760030251
 10
103.4855007336772
 20
-154.7016682555954
 10
103.4855007336772
 20
-154.7292290194774
 10
103.4855007336772
 20
-154.7292290194774
 10
103.4855007336772
 20
-154.9748643275757
 10
103.4855007336772
 20
-154.9748643275757
 10
103.4855007336772
 20
-155.0193060593355
 10
103.4898071030338
 20
-155.2160210115432
 10
103.4941134723904
 20
-155.3682942319913
 10
103.4941134723904
 20
-155.3682942319913
 10
103.2675984442352
 20
-155.3682942319913
 10
103.2675984442352
 20
-155.3682942319913
 10
103.2675984442352
 20
-155.3682942319913
 10
103.2698377563006
 20
-155.3345322962358
 10
103.2698377563006
 20
-155.3345322962358
 10
103.2698377563006
 20
-155.3345322962358
 10
102.5673827868582
 20
-155.3345322962358
 10
102.5673827868582
 20
-155.3345322962358
 10
102.5673827868582
 20
-155.3345322962358
 10
102.5696220989236
 20
-155.3682942319913
 10
102.5696220989236
 20
-155.3682942319913
 10
102.5696220989236
 20
-155.3682942319913
 10
102.3517198094815
 20
-155.3682942319913
 10
102.3517198094815
 20
-155.3682942319913
 10
102.3558539240638
 20
-155.3131727042273
 10
102.3558539240638
 20
-155.3004258509318
 10
102.3622273507115
 20
-155.1863931903701
 10
102.3642944080027
 20
-155.1588324264881
 10
102.3665337200681
 20
-155.0255072312089
 10
102.3665337200681
 20
-155.00655920604
 10
102.3665337200681
 20
-155.00655920604
 10
102.3665337200681
 20
-154.8032985724103
 10
102.3665337200681
 20
-154.8032985724103
 10
102.2268350981412
 20
-155.0530679950909
 10
102.0576809098154
 20
-155.1843261330789
 10
101.9519164784183
 20
-155.2497829472987
 10
101.9519164784183
 20
-155.2497829472987
 10
101.7782836659617
 20
-155.1102565801461
 10
101.7782836659617
 20
-155.1102565801461
 10
101.8671671294811
 20
-155.0592691669644
 10
102.0109998659903
 20
-154.972452760736
 10
102.148631430626
 20
-154.778149375368
 10
102.2395819514366
 20
-154.6510253519623
 10
102.3052110204306
 20
-154.5073648702273
 10
102.3389729561861
 20
-154.3547471402308
 10
102.110563125514
 20
-154.3571587070704
 10
101.930729141184
 20
-154.3633598789439
 10
101.8354722510168
 20
-154.3654269362351
 10
101.8354722510168
 20
-154.3654269362351
 10
101.8354722510168
 20
-154.1876600091962
 10
101.8354722510168
 20
-154.1876600091962
 10
102.0321872032246
 20
-154.1942056906181
 10
102.3157185616607
 20
-154.1983398052004
 10
102.4659247248176
 20
-154.1983398052004
 10
102.4659247248176
 20
-154.1983398052004
 10
102.679520644903
 20
-154.1983398052004
 10
102.679520644903
 20
-154.1983398052004
 10
102.679520644903
 20
-154.1983398052004
 10
102.679520644903
 20
-154.0905083165121
 10
102.679520644903
 20
-154.0905083165121
 10
102.679520644903
 20
-154.0905083165121
 10
102.5336208511027
 20
-154.0905083165121
 10
102.5336208511027
 20
-154.0905083165121
 10
102.3642944080027
 20
-154.0905083165121
 10
102.1951402196769
 20
-154.0946424310944
 10
102.0280530886423
 20
-154.1011881125164
 10
102.0280530886423
 20
-154.1011881125164
 10
102.0280530886423
 20
-153.9296223573509
 10
102.0280530886423
 20
-153.9296223573509
 10
102.1823933663815
 20
-153.9403021533552
 10
102.3686007773592
 20
-153.9403021533552
 10
102.5336208511027
 20
-153.9403021533552
 10
102.5336208511027
 20
-153.9403021533552
 10
102.679520644903
 20
-153.9403021533552
 10
102.679520644903
 20
-153.9403021533552
 10
102.679520644903
 20
-153.9403021533552
 10
102.679520644903
 20
-153.8217908686626
 10
102.679520644903
 20
-153.8217908686626
 10
102.679520644903
 20
-153.8217908686626
 10
102.5484347616893
 20
-153.8217908686626
 10
102.5484347616893
 20
-153.8217908686626
 10
102.5019259726384
 20
-153.8217908686626
 10
102.2988375937829
 20
-153.8304036073757
 10
102.2564629193144
 20
-153.8304036073757
 10
102.0533745404589
 20
-153.834537721958
 10
101.9772379302349
 20
-153.8366047792492
 10
101.8990342627197
 20
-153.8386718365403
 10
101.8990342627197
 20
-153.8386718365403
 10
101.8990342627197
 20
-153.654703737628
 10
101.8990342627197
 20
-153.654703737628
 10
102.0132391780557
 20
-153.6629719667926
 10
102.0576809098154
 20
-153.6629719667926
 10
102.440603273001
 20
-153.6715847055057
 10
102.3770412612981
 20
-153.5765000701128
 10
102.3494804974161
 20
-153.5489393062308
 10
102.3136515043695
 20
-153.5127658036357
 10
102.3136515043695
 20
-153.5127658036357
 10
102.489179119343
 20
-153.4304280215382
 10
102.489179119343
 20
-153.4304280215382
 10
102.5293144817462
 20
-153.4662570145848
 10
102.5737562135059
 20
-153.5086316890534
 10
102.6478257664387
 20
-153.6185302350329
 10
102.6478257664387
 20
-153.6185302350329
 10
102.5336208511027
 20
-153.6736517627969
 10
102.5336208511027
 20
-153.6736517627969
 10
102.5336208511027
 20
-153.6736517627969
 10
102.5441283923327
 20
-153.6736517627969
 10
102.5441283923327
 20
-153.6736517627969
 10
102.5441283923327
 20
-153.6736517627969
 10
103.0667493774451
 20
-153.6736517627969
 10
103.0667493774451
 20
-153.6736517627969
 10
103.0667493774451
 20
-153.6736517627969
 10
102.971492487278
 20
-153.6292100310372
 10
102.971492487278
 20
-153.6292100310372
 10
102.99905325116
 20
-153.5913139806994
 10
103.0560695814409
 20
-153.5106987463446
 10
103.0708834920274
 20
-153.4366291934117
 10
103.0708834920274
 20
-153.4366291934117
 10
103.2846516668872
 20
-153.5003634598888
 10
103.2846516668872
 20
-153.5003634598888
 10
103.293092150826
 20
-153.50243051718
 10
103.3142794880603
 20
-153.5127658036357
 10
103.3142794880603
 20
-153.5341253956443
 10
103.3142794880603
 20
-153.572021445982
 10
103.2486504190663
 20
-153.572021445982
 10
103.2295301391232
 20
-153.572021445982
 10
103.2190225978932
 20
-153.5913139806994
 10
103.1957682033677
 20
-153.6312770883283
 10
103.1661403821946
 20
-153.6715847055057
 10
103.5659437132578
 20
-153.6653835336323
 10
103.595571534431
 20
-153.6629719667926
 10
103.671708144655
 20
-153.6567707949191
 10
103.671708144655
 20
-153.6567707949191
 10
103.671708144655
 20
-153.8386718365403
 10
103.671708144655
 20
-153.8386718365403
 10
103.6527601194861
 20
-153.8386718365403
 10
103.6272664128953
 20
-153.8366047792492
 10
103.4072970661621
 20
-153.8279920405361
 10
103.3564819077546
 20
-153.8259249832449
 10
103.1365125610214
 20
-153.8217908686626
 10
103.0920708292617
 20
-153.8217908686626
 10
103.0920708292617
 20
-153.8217908686626
 10
102.8762355971108
 20
-153.8217908686626
 10
102.8762355971108
 20
-153.8217908686626
 10
102.8762355971108
 20
-153.8217908686626
 10
102.8762355971108
 20
-153.9403021533552
 10
102.8762355971108
 20
-153.9403021533552
 10
102.8762355971108
 20
-153.9403021533552
 10
103.0496961547931
 20
-153.9403021533552
 10
103.0496961547931
 20
-153.9403021533552
 10
103.2126491712455
 20
-153.9403021533552
 10
103.4029906968055
 20
-153.9403021533552
 10
103.5595702866101
 20
-153.9296223573509
 10
103.5595702866101
 20
-153.9296223573509
 10
103.5595702866101
 20
-154.1011881125164
 10
103.5595702866101
 20
-154.1011881125164
 10
103.3501084811069
 20
-154.0925753738032
 10
103.1533935288992
 20
-154.0905083165121
 10
103.0496961547931
 20
-154.0905083165121
 10
103.0496961547931
 20
-154.0905083165121
 10
102.8762355971108
 20
-154.0905083165121
 10
102.8762355971108
 20
-154.0905083165121
 10
102.8762355971108
 20
-154.0905083165121
 10
102.8762355971108
 20
-154.1983398052004
 10
102.8762355971108
 20
-154.1983398052004
 10
102.8762355971108
 20
-154.1983398052004
 10
103.1068847398483
 20
-154.1983398052004
 10
103.1068847398483
 20
-154.1983398052004
 10
103.2402099351275
 20
-154.1983398052004
 10
103.5278754081458
 20
-154.1942056906181
 10
103.737337213649
 20
-154.1876600091962
 10
103.737337213649
 20
-154.1876600091962
 10
103.737337213649
 20
-154.3654269362351
 10
103.737337213649
 20
-154.3654269362351
 10
103.5447563760235
 20
-154.3592257643616
 10
103.2317694511886
 20
-154.3547471402308
 10
103.1068847398483
 20
-154.3547471402308
 97
        0
 97
        0
 92
        1
 93
        4
 72
     1
 10
103.2719048135917
 20
-154.6107177347848
 11
102.565315729567
 21
-154.6107177347848
 72
     1
 10
102.565315729567
 20
-154.6107177347848
 11
102.565315729567
 21
-154.7188937330217
 72
     1
 10
102.565315729567
 20
-154.7188937330217
 11
103.2719048135917
 21
-154.7188937330217
 72
     1
 10
103.2719048135917
 20
-154.7188937330217
 11
103.2719048135917
 21
-154.6107177347848
 97
        0
 92
        1
 93
        4
 72
     1
 10
103.2719048135917
 20
-154.8436061895877
 11
102.565315729567
 21
-154.8436061895877
 72
     1
 10
102.565315729567
 20
-154.8436061895877
 11
102.565315729567
 21
-154.957983359698
 72
     1
 10
102.565315729567
 20
-154.957983359698
 11
103.2719048135917
 21
-154.957983359698
 72
     1
 10
103.2719048135917
 20
-154.957983359698
 11
103.2719048135917
 21
-154.8436061895877
 97
        0
 92
        1
 93
        4
 72
     1
 10
103.2719048135917
 20
-155.0868299308464
 11
102.565315729567
 21
-155.0868299308464
 72
     1
 10
102.565315729567
 20
-155.0868299308464
 11
102.565315729567
 21
-155.2012071009567
 72
     1
 10
102.565315729567
 20
-155.2012071009567
 11
103.2719048135917
 21
-155.2012071009567
 72
     1
 10
103.2719048135917
 20
-155.2012071009567
 11
103.2719048135917
 21
-155.0868299308464
 97
        0
 75
     2
 76
     1
 98
        0
  0
SPLINE
  5
1B9
330
19A
100
AcDbEntity
  8
_U+30EC_U+30A4_U+30E4_U+30FC 1
370
     0
100
AcDbSpline
210
0.0
220
0.0
230
1.0
 70
    11
 71
     3
 72
    47
 73
    43
 74
     0
 42
0.0000000001
 43
0.0000000001
 12
1.0
 22
0.0
 32
0.0
 13
1.0
 23
0.0
 33
0.0
 40
0.0
 40
0.0
 40
0.0
 40
0.0
 40
1.0
 40
1.0
 40
1.0
 40
2.0
 40
2.0
 40
2.0
 40
3.0
 40
3.0
 40
3.0
 40
4.0
 40
4.0
 40
4.0
 40
5.0
 40
5.0
 40
5.0
 40
6.0
 40
6.0
 40
6.0
 40
7.0
 40
7.0
 40
7.0
 40
8.0
 40
8.0
 40
8.0
 40
9.0
 40
9.0
 40
9.0
 40
10.0
 40
10.0
 40
10.0
 40
11.0
 40
11.0
 40
11.0
 40
12.0
 40
12.0
 40
12.0
 40
13.0
 40
13.0
 40
13.0
 40
14.0
 40
14.0
 40
14.0
 40
14.0
 10
105.0838527840589
 20
-154.3316650004796
 30
0.0
 10
105.0838527840589
 20
-154.3316650004796
 30
0.0
 10
104.9823947220183
 20
-154.3316650004796
 30
0.0
 10
104.9823947220183
 20
-154.3316650004796
 30
0.0
 10
104.9823947220183
 20
-154.4184814067079
 30
0.0
 10
104.961207384784
 20
-154.8077771965411
 30
0.0
 10
104.7644924325762
 20
-155.0275742885001
 30
0.0
 10
104.6122192121282
 20
-155.1967284768258
 30
0.0
 10
104.4048244639162
 20
-155.2666639151764
 30
0.0
 10
104.3202473697533
 20
-155.2942246790584
 30
0.0
 10
104.3202473697533
 20
-155.2942246790584
 30
0.0
 10
104.1255994748367
 20
-155.1271375480238
 30
0.0
 10
104.1255994748367
 20
-155.1271375480238
 30
0.0
 10
104.222923422295
 20
-155.1143906947283
 30
0.0
 10
104.3984510372684
 20
-155.0909640454286
 30
0.0
 10
104.5867255055373
 20
-154.902861831934
 30
0.0
 10
104.6607950584702
 20
-154.8308593362923
 30
0.0
 10
104.7644924325762
 20
-154.6913329691397
 30
0.0
 10
104.7644924325762
 20
-154.3316650004796
 30
0.0
 10
104.7644924325762
 20
-154.3316650004796
 30
0.0
 10
104.5338432898388
 20
-154.3316650004796
 30
0.0
 10
104.5338432898388
 20
-154.3316650004796
 30
0.0
 10
104.3478081336353
 20
-154.3316650004796
 30
0.0
 10
104.1616007226575
 20
-154.3357991150619
 30
0.0
 10
103.9753933116798
 20
-154.3506130256485
 30
0.0
 10
103.9753933116798
 20
-154.3506130256485
 30
0.0
 10
103.9753933116798
 20
-154.1308159336895
 30
0.0
 10
103.9753933116798
 20
-154.1308159336895
 30
0.0
 10
104.1636677799487
 20
-154.1456298442761
 30
0.0
 10
104.4492661956759
 20
-154.1497639588584
 30
0.0
 10
104.5338432898388
 20
-154.1497639588584
 30
0.0
 10
104.5338432898388
 20
-154.1497639588584
 30
0.0
 10
105.0838527840589
 20
-154.1497639588584
 30
0.0
 10
105.0838527840589
 20
-154.1497639588584
 30
0.0
 10
105.102973064002
 20
-154.1497639588584
 30
0.0
 10
105.4202663581935
 20
-154.1497639588584
 30
0.0
 10
105.6486761888656
 20
-154.1308159336895
 30
0.0
 10
105.6486761888656
 20
-154.1308159336895
 30
0.0
 10
105.6486761888656
 20
-154.3506130256485
 30
0.0
 10
105.6486761888656
 20
-154.3506130256485
 30
0.0
 10
105.460573975371
 20
-154.3357991150619
 30
0.0
 10
105.2721272523278
 20
-154.3316650004796
 30
0.0
 10
105.0838527840589
 20
-154.3316650004796
 30
0.0
  0
SPLINE
  5
1BA
330
19A
100
AcDbEntity
  8
_U+30EC_U+30A4_U+30E4_U+30FC 1
370
     0
100
AcDbSpline
210
0.0
220
0.0
230
1.0
 70
    11
 71
     3
 72
    29
 73
    25
 74
     0
 42
0.0000000001
 43
0.0000000001
 12
1.0
 22
0.0
 32
0.0
 13
1.0
 23
0.0
 33
0.0
 40
0.0
 40
0.0
 40
0.0
 40
0.0
 40
1.0
 40
1.0
 40
1.0
 40
2.0
 40
2.0
 40
2.0
 40
3.0
 40
3.0
 40
3.0
 40
4.0
 40
4.0
 40
4.0
 40
5.0
 40
5.0
 40
5.0
 40
6.0
 40
6.0
 40
6.0
 40
7.0
 40
7.0
 40
7.0
 40
8.0
 40
8.0
 40
8.0
 40
8.0
 10
104.9823947220183
 20
-153.8028428434937
 30
0.0
 10
104.9823947220183
 20
-153.8028428434937
 30
0.0
 10
104.6291001800059
 20
-153.8028428434937
 30
0.0
 10
104.6291001800059
 20
-153.8028428434937
 30
0.0
 10
104.516962321961
 20
-153.8028428434937
 30
0.0
 10
104.3774359548084
 20
-153.8090440153672
 30
0.0
 10
104.2694322113458
 20
-153.8217908686626
 30
0.0
 10
104.2694322113458
 20
-153.8217908686626
 30
0.0
 10
104.2694322113458
 20
-153.5868353565686
 30
0.0
 10
104.2694322113458
 20
-153.5868353565686
 30
0.0
 10
104.3879434960384
 20
-153.6016492671552
 30
0.0
 10
104.5719115949508
 20
-153.606127891286
 30
0.0
 10
104.6291001800059
 20
-153.606127891286
 30
0.0
 10
104.6291001800059
 20
-153.606127891286
 30
0.0
 10
104.9823947220183
 20
-153.606127891286
 30
0.0
 10
104.9823947220183
 20
-153.606127891286
 30
0.0
 10
105.0013427471872
 20
-153.606127891286
 30
0.0
 10
105.2046033808169
 20
-153.606127891286
 30
0.0
 10
105.3461968052607
 20
-153.5868353565686
 30
0.0
 10
105.3461968052607
 20
-153.5868353565686
 30
0.0
 10
105.3461968052607
 20
-153.8217908686626
 30
0.0
 10
105.3461968052607
 20
-153.8217908686626
 30
0.0
 10
105.1897894702303
 20
-153.8028428434937
 30
0.0
 10
104.999275689896
 20
-153.8028428434937
 30
0.0
 10
104.9823947220183
 20
-153.8028428434937
 30
0.0
  0
HATCH
  5
1BB
330
19A
100
AcDbEntity
  8
_U+30EC_U+30A4_U+30E4_U+30FC 1
 62
   179
420
  2234388
100
AcDbHatch
 10
0.0
 20
0.0
 30
0.0
210
0.0
220
0.0
230
1.0
  2
SOLID
 70
     1
 71
     0
 91
        2
 92
        1
 93
        1
 72
     4
 94
        3
 73
     0
 74
     1
 95
       47
 96
       43
 40
0.0
 40
0.0
 40
0.0
 40
0.0
 40
1.0
 40
1.0
 40
1.0
 40
2.0
 40
2.0
 40
2.0
 40
3.0
 40
3.0
 40
3.0
 40
4.0
 40
4.0
 40
4.0
 40
5.0
 40
5.0
 40
5.0
 40
6.0
 40
6.0
 40
6.0
 40
7.0
 40
7.0
 40
7.0
 40
8.0
 40
8.0
 40
8.0
 40
9.0
 40
9.0
 40
9.0
 40
10.0
 40
10.0
 40
10.0
 40
11.0
 40
11.0
 40
11.0
 40
12.0
 40
12.0
 40
12.0
 40
13.0
 40
13.0
 40
13.0
 40
14.0
 40
14.0
 40
14.0
 40
14.0
 10
105.0838527840589
 20
-154.3316650004796
 10
105.0838527840589
 20
-154.3316650004796
 10
104.9823947220183
 20
-154.3316650004796
 10
104.9823947220183
 20
-154.3316650004796
 10
104.9823947220183
 20
-154.4184814067079
 10
104.961207384784
 20
-154.8077771965411
 10
104.7644924325762
 20
-155.0275742885001
 10
104.6122192121282
 20
-155.1967284768258
 10
104.4048244639162
 20
-155.2666639151764
 10
104.3202473697533
 20
-155.2942246790584
 10
104.3202473697533
 20
-155.2942246790584
 10
104.1255994748367
 20
-155.1271375480238
 10
104.1255994748367
 20
-155.1271375480238
 10
104.222923422295
 20
-155.1143906947283
 10
104.3984510372684
 20
-155.0909640454286
 10
104.5867255055373
 20
-154.902861831934
 10
104.6607950584702
 20
-154.8308593362923
 10
104.7644924325762
 20
-154.6913329691397
 10
104.7644924325762
 20
-154.3316650004796
 10
104.7644924325762
 20
-154.3316650004796
 10
104.5338432898388
 20
-154.3316650004796
 10
104.5338432898388
 20
-154.3316650004796
 10
104.3478081336353
 20
-154.3316650004796
 10
104.1616007226575
 20
-154.3357991150619
 10
103.9753933116798
 20
-154.3506130256485
 10
103.9753933116798
 20
-154.3506130256485
 10
103.9753933116798
 20
-154.1308159336895
 10
103.9753933116798
 20
-154.1308159336895
 10
104.1636677799487
 20
-154.1456298442761
 10
104.4492661956759
 20
-154.1497639588584
 10
104.5338432898388
 20
-154.1497639588584
 10
104.5338432898388
 20
-154.1497639588584
 10
105.0838527840589
 20
-154.1497639588584
 10
105.0838527840589
 20
-154.1497639588584
 10
105.102973064002
 20
-154.1497639588584
 10
105.4202663581935
 20
-154.1497639588584
 10
105.6486761888656
 20
-154.1308159336895
 10
105.6486761888656
 20
-154.1308159336895
 10
105.6486761888656
 20
-154.3506130256485
 10
105.6486761888656
 20
-154.3506130256485
 10
105.460573975371
 20
-154.3357991150619
 10
105.2721272523278
 20
-154.3316650004796
 10
105.0838527840589
 20
-154.3316650004796
 97
        0
 97
        0
 92
        1
 93
        1
 72
     4
 94
        3
 73
     0
 74
     1
 95
       29
 96
       25
 40
0.0
 40
0.0
 40
0.0
 40
0.0
 40
1.0
 40
1.0
 40
1.0
 40
2.0
 40
2.0
 40
2.0
 40
3.0
 40
3.0
 40
3.0
 40
4.0
 40
4.0
 40
4.0
 40
5.0
 40
5.0
 40
5.0
 40
6.0
 40
6.0
 40
6.0
 40
7.0
 40
7.0
 40
7.0
 40
8.0
 40
8.0
 40
8.0
 40
8.0
 10
104.9823947220183
 20
-153.8028428434937
 10
104.9823947220183
 20
-153.8028428434937
 10
104.6291001800059
 20
-153.8028428434937
 10
104.6291001800059
 20
-153.8028428434937
 10
104.516962321961
 20
-153.8028428434937
 10
104.3774359548084
 20
-153.8090440153672
 10
104.2694322113458
 20
-153.8217908686626
 10
104.2694322113458
 20
-153.8217908686626
 10
104.2694322113458
 20
-153.5868353565686
 10
104.2694322113458
 20
-153.5868353565686
 10
104.3879434960384
 20
-153.6016492671552
 10
104.5719115949508
 20
-153.606127891286
 10
104.6291001800059
 20
-153.606127891286
 10
104.6291001800059
 20
-153.606127891286
 10
104.9823947220183
 20
-153.606127891286
 10
104.9823947220183
 20
-153.606127891286
 10
105.0013427471872
 20
-153.606127891286
 10
105.2046033808169
 20
-153.606127891286
 10
105.3461968052607
 20
-153.5868353565686
 10
105.3461968052607
 20
-153.5868353565686
 10
105.3461968052607
 20
-153.8217908686626
 10
105.3461968052607
 20
-153.8217908686626
 10
105.1897894702303
 20
-153.8028428434937
 10
104.999275689896
 20
-153.8028428434937
 10
104.9823947220183
 20
-153.8028428434937
 97
        0
 97
        0
 75
     2
 76
     1
 98
        0
  0
SPLINE
  5
1BC
330
19A
100
AcDbEntity
  8
_U+30EC_U+30A4_U+30E4_U+30FC 1
370
     0
100
AcDbSpline
210
0.0
220
0.0
230
1.0
 70
    11
 71
     3
 72
    29
 73
    25
 74
     0
 42
0.0000000001
 43
0.0000000001
 12
1.0
 22
0.0
 32
0.0
 13
1.0
 23
0.0
 33
0.0
 40
0.0
 40
0.0
 40
0.0
 40
0.0
 40
1.0
 40
1.0
 40
1.0
 40
2.0
 40
2.0
 40
2.0
 40
3.0
 40
3.0
 40
3.0
 40
4.0
 40
4.0
 40
4.0
 40
5.0
 40
5.0
 40
5.0
 40
6.0
 40
6.0
 40
6.0
 40
7.0
 40
7.0
 40
7.0
 40
8.0
 40
8.0
 40
8.0
 40
8.0
 10
106.9316297475727
 20
-154.4946180169319
 30
0.0
 10
106.9316297475727
 20
-154.4946180169319
 30
0.0
 10
106.4472493223465
 20
-154.4946180169319
 30
0.0
 10
106.4472493223465
 20
-154.4946180169319
 30
0.0
 10
106.4196885584645
 20
-154.4946180169319
 30
0.0
 10
106.1027397738215
 20
-154.4946180169319
 30
0.0
 10
105.8912109110272
 20
-154.5197672139742
 30
0.0
 10
105.8912109110272
 20
-154.5197672139742
 30
0.0
 10
105.8912109110272
 20
-154.289290326011
 30
0.0
 10
105.8912109110272
 20
-154.289290326011
 30
0.0
 10
106.0496853033487
 20
-154.3127169753107
 30
0.0
 10
106.2398545741345
 20
-154.3147840326019
 30
0.0
 10
106.4472493223465
 20
-154.3147840326019
 30
0.0
 10
106.4472493223465
 20
-154.3147840326019
 30
0.0
 10
106.9316297475727
 20
-154.3147840326019
 30
0.0
 10
106.9316297475727
 20
-154.3147840326019
 30
0.0
 10
107.1180094133247
 20
-154.3147840326019
 30
0.0
 10
107.3043890790767
 20
-154.3127169753107
 30
0.0
 10
107.488357177989
 20
-154.289290326011
 30
0.0
 10
107.488357177989
 20
-154.289290326011
 30
0.0
 10
107.488357177989
 20
-154.5197672139742
 30
0.0
 10
107.488357177989
 20
-154.5197672139742
 30
0.0
 10
107.3043890790767
 20
-154.4966850742231
 30
0.0
 10
107.0566867136872
 20
-154.4946180169319
 30
0.0
 10
106.9316297475727
 20
-154.4946180169319
 30
0.0
  0
HATCH
  5
1BD
330
19A
100
AcDbEntity
  8
_U+30EC_U+30A4_U+30E4_U+30FC 1
 62
   179
420
  2234388
100
AcDbHatch
 10
0.0
 20
0.0
 30
0.0
210
0.0
220
0.0
230
1.0
  2
SOLID
 70
     1
 71
     0
 91
        1
 92
        1
 93
        1
 72
     4
 94
        3
 73
     0
 74
     1
 95
       29
 96
       25
 40
0.0
 40
0.0
 40
0.0
 40
0.0
 40
1.0
 40
1.0
 40
1.0
 40
2.0
 40
2.0
 40
2.0
 40
3.0
 40
3.0
 40
3.0
 40
4.0
 40
4.0
 40
4.0
 40
5.0
 40
5.0
 40
5.0
 40
6.0
 40
6.0
 40
6.0
 40
7.0
 40
7.0
 40
7.0
 40
8.0
 40
8.0
 40
8.0
 40
8.0
 10
106.9316297475727
 20
-154.4946180169319
 10
106.9316297475727
 20
-154.4946180169319
 10
106.4472493223465
 20
-154.4946180169319
 10
106.4472493223465
 20
-154.4946180169319
 10
106.4196885584645
 20
-154.4946180169319
 10
106.1027397738215
 20
-154.4946180169319
 10
105.8912109110272
 20
-154.5197672139742
 10
105.8912109110272
 20
-154.5197672139742
 10
105.8912109110272
 20
-154.289290326011
 10
105.8912109110272
 20
-154.289290326011
 10
106.0496853033487
 20
-154.3127169753107
 10
106.2398545741345
 20
-154.3147840326019
 10
106.4472493223465
 20
-154.3147840326019
 10
106.4472493223465
 20
-154.3147840326019
 10
106.9316297475727
 20
-154.3147840326019
 10
106.9316297475727
 20
-154.3147840326019
 10
107.1180094133247
 20
-154.3147840326019
 10
107.3043890790767
 20
-154.3127169753107
 10
107.488357177989
 20
-154.289290326011
 10
107.488357177989
 20
-154.289290326011
 10
107.488357177989
 20
-154.5197672139742
 10
107.488357177989
 20
-154.5197672139742
 10
107.3043890790767
 20
-154.4966850742231
 10
107.0566867136872
 20
-154.4946180169319
 10
106.9316297475727
 20
-154.4946180169319
 97
        0
 97
        0
 75
     2
 76
     1
 98
        0
  0
SPLINE
  5
1BE
330
19A
100
AcDbEntity
  8
_U+30EC_U+30A4_U+30E4_U+30FC 1
370
     0
100
AcDbSpline
210
0.0
220
0.0
230
1.0
 70
    11
 71
     3
 72
    44
 73
    40
 74
     0
 42
0.0000000001
 43
0.0000000001
 12
1.0
 22
0.0
 32
0.0
 13
1.0
 23
0.0
 33
0.0
 40
0.0
 40
0.0
 40
0.0
 40
0.0
 40
1.0
 40
1.0
 40
1.0
 40
2.0
 40
2.0
 40
2.0
 40
3.0
 40
3.0
 40
3.0
 40
4.0
 40
4.0
 40
4.0
 40
5.0
 40
5.0
 40
5.0
 40
6.0
 40
6.0
 40
6.0
 40
7.0
 40
7.0
 40
7.0
 40
8.0
 40
8.0
 40
8.0
 40
9.0
 40
9.0
 40
9.0
 40
10.0
 40
10.0
 40
10.0
 40
11.0
 40
11.0
 40
11.0
 40
12.0
 40
12.0
 40
12.0
 40
13.0
 40
13.0
 40
13.0
 40
13.0
 10
109.1454481063942
 20
-154.0567463807567
 30
0.0
 10
109.0334825031236
 20
-154.4246825785813
 30
0.0
 10
108.9828395994904
 20
-154.5835014804514
 30
0.0
 10
108.7857801377341
 20
-154.8329263935834
 30
0.0
 10
108.6018120388218
 20
-155.0637477910952
 30
0.0
 10
108.3647894694366
 20
-155.2497829472987
 30
0.0
 10
108.0857367351313
 20
-155.3428005254004
 30
0.0
 10
108.0857367351313
 20
-155.3428005254004
 30
0.0
 10
107.8931558975059
 20
-155.1629665410704
 30
0.0
 10
107.8931558975059
 20
-155.1629665410704
 30
0.0
 10
108.5342881673109
 20
-155.0106933206223
 30
0.0
 10
108.8643283147978
 20
-154.4543103997545
 30
0.0
 10
108.9277180717264
 20
-154.0143717062881
 30
0.0
 10
108.9277180717264
 20
-154.0143717062881
 30
0.0
 10
108.1618733453554
 20
-154.0143717062881
 30
0.0
 10
108.1618733453554
 20
-154.0143717062881
 30
0.0
 10
108.0688557672536
 20
-154.0143717062881
 30
0.0
 10
107.8845431587928
 20
-154.0185058208704
 30
0.0
 10
107.7281358237624
 20
-154.0374538460393
 30
0.0
 10
107.7281358237624
 20
-154.0374538460393
 30
0.0
 10
107.7281358237624
 20
-153.8176567540803
 30
0.0
 10
107.7281358237624
 20
-153.8176567540803
 30
0.0
 10
107.8149522299907
 20
-153.8386718365403
 30
0.0
 10
108.066444200414
 20
-153.8386718365403
 30
0.0
 10
108.1663519694862
 20
-153.8386718365403
 30
0.0
 10
108.1663519694862
 20
-153.8386718365403
 30
0.0
 10
108.5976779242395
 20
-153.8386718365403
 30
0.0
 10
108.5976779242395
 20
-153.8386718365403
 30
0.0
 10
108.6400525987081
 20
-153.8386718365403
 30
0.0
 10
108.8746636012536
 20
-153.8366047792492
 30
0.0
 10
108.9129041611398
 20
-153.8304036073757
 30
0.0
 10
108.9552788356084
 20
-153.8238579259538
 30
0.0
 10
108.9573458928996
 20
-153.8217908686626
 30
0.0
 10
109.018668592537
 20
-153.7814832514852
 30
0.0
 10
109.018668592537
 20
-153.7814832514852
 30
0.0
 10
109.2067708060316
 20
-153.9361680387729
 30
0.0
 10
109.2067708060316
 20
-153.9361680387729
 30
0.0
 10
109.1771429848585
 20
-153.9657958599461
 30
0.0
 10
109.1626735838204
 20
-153.9974907384104
 30
0.0
 10
109.1454481063942
 20
-154.0567463807567
 30
0.0
  0
SPLINE
  5
1BF
330
19A
100
AcDbEntity
  8
_U+30EC_U+30A4_U+30E4_U+30FC 1
370
     0
100
AcDbSpline
210
0.0
220
0.0
230
1.0
 70
    11
 71
     3
 72
    17
 73
    13
 74
     0
 42
0.0000000001
 43
0.0000000001
 12
1.0
 22
0.0
 32
0.0
 13
1.0
 23
0.0
 33
0.0
 40
0.0
 40
0.0
 40
0.0
 40
0.0
 40
1.0
 40
1.0
 40
1.0
 40
2.0
 40
2.0
 40
2.0
 40
3.0
 40
3.0
 40
3.0
 40
4.0
 40
4.0
 40
4.0
 40
4.0
 10
109.3549099118974
 20
-153.8576198617092
 30
0.0
 10
109.2281303980402
 20
-153.8576198617092
 30
0.0
 10
109.1265000812253
 20
-153.7563340544429
 30
0.0
 10
109.1265000812253
 20
-153.6292100310372
 30
0.0
 10
109.1265000812253
 20
-153.50243051718
 30
0.0
 10
109.2281303980402
 20
-153.3987331430739
 30
0.0
 10
109.3549099118974
 20
-153.3987331430739
 30
0.0
 10
109.4820339353031
 20
-153.3987331430739
 30
0.0
 10
109.5857313094091
 20
-153.50243051718
 30
0.0
 10
109.5857313094091
 20
-153.6292100310372
 30
0.0
 10
109.5857313094091
 20
-153.7563340544429
 30
0.0
 10
109.4820339353031
 20
-153.8576198617092
 30
0.0
 10
109.3549099118974
 20
-153.8576198617092
 30
0.0
  0
SPLINE
  5
1C0
330
19A
100
AcDbEntity
  8
_U+30EC_U+30A4_U+30E4_U+30FC 1
370
     0
100
AcDbSpline
210
0.0
220
0.0
230
1.0
 70
    11
 71
     3
 72
    17
 73
    13
 74
     0
 42
0.0000000001
 43
0.0000000001
 12
1.0
 22
0.0
 32
0.0
 13
1.0
 23
0.0
 33
0.0
 40
0.0
 40
0.0
 40
0.0
 40
0.0
 40
1.0
 40
1.0
 40
1.0
 40
2.0
 40
2.0
 40
2.0
 40
3.0
 40
3.0
 40
3.0
 40
4.0
 40
4.0
 40
4.0
 40
4.0
 10
109.3528428546062
 20
-153.5275797142223
 30
0.0
 10
109.2977213268422
 20
-153.5275797142223
 30
0.0
 10
109.253624104631
 20
-153.572021445982
 30
0.0
 10
109.253624104631
 20
-153.627142973746
 30
0.0
 10
109.253624104631
 20
-153.6843315588011
 30
0.0
 10
109.2977213268422
 20
-153.7329074051432
 30
0.0
 10
109.3569769691885
 20
-153.7329074051432
 30
0.0
 10
109.4162326115348
 20
-153.7329074051432
 30
0.0
 10
109.4565402287123
 20
-153.68226450151
 30
0.0
 10
109.4565402287123
 20
-153.6292100310372
 30
0.0
 10
109.4565402287123
 20
-153.572021445982
 30
0.0
 10
109.4100314396614
 20
-153.5275797142223
 30
0.0
 10
109.3528428546062
 20
-153.5275797142223
 30
0.0
  0
HATCH
  5
1C1
330
19A
100
AcDbEntity
  8
_U+30EC_U+30A4_U+30E4_U+30FC 1
 62
   179
420
  2234388
100
AcDbHatch
 10
0.0
 20
0.0
 30
0.0
210
0.0
220
0.0
230
1.0
  2
SOLID
 70
     1
 71
     0
 91
        3
 92
        1
 93
        1
 72
     4
 94
        3
 73
     0
 74
     1
 95
       44
 96
       40
 40
0.0
 40
0.0
 40
0.0
 40
0.0
 40
1.0
 40
1.0
 40
1.0
 40
2.0
 40
2.0
 40
2.0
 40
3.0
 40
3.0
 40
3.0
 40
4.0
 40
4.0
 40
4.0
 40
5.0
 40
5.0
 40
5.0
 40
6.0
 40
6.0
 40
6.0
 40
7.0
 40
7.0
 40
7.0
 40
8.0
 40
8.0
 40
8.0
 40
9.0
 40
9.0
 40
9.0
 40
10.0
 40
10.0
 40
10.0
 40
11.0
 40
11.0
 40
11.0
 40
12.0
 40
12.0
 40
12.0
 40
13.0
 40
13.0
 40
13.0
 40
13.0
 10
109.1454481063942
 20
-154.0567463807567
 10
109.0334825031236
 20
-154.4246825785813
 10
108.9828395994904
 20
-154.5835014804514
 10
108.7857801377341
 20
-154.8329263935834
 10
108.6018120388218
 20
-155.0637477910952
 10
108.3647894694366
 20
-155.2497829472987
 10
108.0857367351313
 20
-155.3428005254004
 10
108.0857367351313
 20
-155.3428005254004
 10
107.8931558975059
 20
-155.1629665410704
 10
107.8931558975059
 20
-155.1629665410704
 10
108.5342881673109
 20
-155.0106933206223
 10
108.8643283147978
 20
-154.4543103997545
 10
108.9277180717264
 20
-154.0143717062881
 10
108.9277180717264
 20
-154.0143717062881
 10
108.1618733453554
 20
-154.0143717062881
 10
108.1618733453554
 20
-154.0143717062881
 10
108.0688557672536
 20
-154.0143717062881
 10
107.8845431587928
 20
-154.0185058208704
 10
107.7281358237624
 20
-154.0374538460393
 10
107.7281358237624
 20
-154.0374538460393
 10
107.7281358237624
 20
-153.8176567540803
 10
107.7281358237624
 20
-153.8176567540803
 10
107.8149522299907
 20
-153.8386718365403
 10
108.066444200414
 20
-153.8386718365403
 10
108.1663519694862
 20
-153.8386718365403
 10
108.1663519694862
 20
-153.8386718365403
 10
108.5976779242395
 20
-153.8386718365403
 10
108.5976779242395
 20
-153.8386718365403
 10
108.6400525987081
 20
-153.8386718365403
 10
108.8746636012536
 20
-153.8366047792492
 10
108.9129041611398
 20
-153.8304036073757
 10
108.9552788356084
 20
-153.8238579259538
 10
108.9573458928996
 20
-153.8217908686626
 10
109.018668592537
 20
-153.7814832514852
 10
109.018668592537
 20
-153.7814832514852
 10
109.2067708060316
 20
-153.9361680387729
 10
109.2067708060316
 20
-153.9361680387729
 10
109.1771429848585
 20
-153.9657958599461
 10
109.1626735838204
 20
-153.9974907384104
 10
109.1454481063942
 20
-154.0567463807567
 97
        0
 97
        0
 92
        1
 93
        1
 72
     4
 94
        3
 73
     0
 74
     1
 95
       17
 96
       13
 40
0.0
 40
0.0
 40
0.0
 40
0.0
 40
1.0
 40
1.0
 40
1.0
 40
2.0
 40
2.0
 40
2.0
 40
3.0
 40
3.0
 40
3.0
 40
4.0
 40
4.0
 40
4.0
 40
4.0
 10
109.3549099118974
 20
-153.8576198617092
 10
109.2281303980402
 20
-153.8576198617092
 10
109.1265000812253
 20
-153.7563340544429
 10
109.1265000812253
 20
-153.6292100310372
 10
109.1265000812253
 20
-153.50243051718
 10
109.2281303980402
 20
-153.3987331430739
 10
109.3549099118974
 20
-153.3987331430739
 10
109.4820339353031
 20
-153.3987331430739
 10
109.5857313094091
 20
-153.50243051718
 10
109.5857313094091
 20
-153.6292100310372
 10
109.5857313094091
 20
-153.7563340544429
 10
109.4820339353031
 20
-153.8576198617092
 10
109.3549099118974
 20
-153.8576198617092
 97
        0
 97
        0
 92
        1
 93
        1
 72
     4
 94
        3
 73
     0
 74
     1
 95
       17
 96
       13
 40
0.0
 40
0.0
 40
0.0
 40
0.0
 40
1.0
 40
1.0
 40
1.0
 40
2.0
 40
2.0
 40
2.0
 40
3.0
 40
3.0
 40
3.0
 40
4.0
 40
4.0
 40
4.0
 40
4.0
 10
109.3528428546062
 20
-153.5275797142223
 10
109.2977213268422
 20
-153.5275797142223
 10
109.253624104631
 20
-153.572021445982
 10
109.253624104631
 20
-153.627142973746
 10
109.253624104631
 20
-153.6843315588011
 10
109.2977213268422
 20
-153.7329074051432
 10
109.3569769691885
 20
-153.7329074051432
 10
109.4162326115348
 20
-153.7329074051432
 10
109.4565402287123
 20
-153.68226450151
 10
109.4565402287123
 20
-153.6292100310372
 10
109.4565402287123
 20
-153.572021445982
 10
109.4100314396614
 20
-153.5275797142223
 10
109.3528428546062
 20
-153.5275797142223
 97
        0
 97
        0
 75
     2
 76
     1
 98
        0
  0
ENDBLK
  5
19D
330
19A
100
AcDbEntity
  8
0
100
AcDbBlockEnd
  0
ENDSEC
  0
SECTION
  2
ENTITIES
  0
SPLINE
  5
41
330
1F
100
AcDbEntity
  8
_U+30EC_U+30A4_U+30E4_U+30FC 1
 62
   179
420
  2234388
370
     9
100
AcDbSpline
210
0.0
220
0.0
230
1.0
 70
    11
 71
     3
 72
    17
 73
    13
 74
     0
 42
0.0000000001
 43
0.0000000001
 12
1.0
 22
0.0
 32
0.0
 13
1.0
 23
0.0
 33
0.0
 40
0.0
 40
0.0
 40
0.0
 40
0.0
 40
1.0
 40
1.0
 40
1.0
 40
2.0
 40
2.0
 40
2.0
 40
3.0
 40
3.0
 40
3.0
 40
4.0
 40
4.0
 40
4.0
 40
4.0
 10
90.75582446902384
 20
-163.4474953136846
 30
0.0
 10
90.75582446902384
 20
-163.5025307140614
 30
0.0
 10
90.80062685921716
 20
-163.5473384872165
 30
0.0
 10
90.85565687663234
 20
-163.5473384872165
 30
0.0
 10
90.9106922770092
 20
-163.5473384872165
 30
0.0
 10
90.95549466720254
 20
-163.5025307140614
 30
0.0
 10
90.95549466720254
 20
-163.4474953136846
 30
0.0
 10
90.95549466720254
 20
-163.3924814451545
 30
0.0
 10
90.9106922770092
 20
-163.3476736719995
 30
0.0
 10
90.85565687663234
 20
-163.3476736719995
 30
0.0
 10
90.80062685921716
 20
-163.3476736719995
 30
0.0
 10
90.75582446902384
 20
-163.3924814451545
 30
0.0
 10
90.75582446902384
 20
-163.4474953136846
 30
0.0
  0
SPLINE
  5
42
330
1F
100
AcDbEntity
  8
_U+30EC_U+30A4_U+30E4_U+30FC 1
 62
   179
420
  2234388
370
     9
100
AcDbSpline
210
0.0
220
0.0
230
1.0
 70
    11
 71
     3
 72
    17
 73
    13
 74
     0
 42
0.0000000001
 43
0.0000000001
 12
1.0
 22
0.0
 32
0.0
 13
1.0
 23
0.0
 33
0.0
 40
0.0
 40
0.0
 40
0.0
 40
0.0
 40
1.0
 40
1.0
 40
1.0
 40
2.0
 40
2.0
 40
2.0
 40
3.0
 40
3.0
 40
3.0
 40
4.0
 40
4.0
 40
4.0
 40
4.0
 10
84.75584886339357
 20
-163.4474953136846
 30
0.0
 10
84.75584886339357
 20
-163.5025307140614
 30
0.0
 10
84.80065125358689
 20
-163.5473384872165
 30
0.0
 10
84.85568396248291
 20
-163.5473384872165
 30
0.0
 10
84.91142183936107
 20
-163.5473384872165
 30
0.0
 10
84.95622422955441
 20
-163.5025307140614
 30
0.0
 10
84.95622422955441
 20
-163.4474953136846
 30
0.0
 10
84.95622422955441
 20
-163.3924814451545
 30
0.0
 10
84.91142183936107
 20
-163.3476736719995
 30
0.0
 10
84.85568396248291
 20
-163.3476736719995
 30
0.0
 10
84.80065125358689
 20
-163.3476736719995
 30
0.0
 10
84.75584886339357
 20
-163.3924814451545
 30
0.0
 10
84.75584886339357
 20
-163.4474953136846
 30
0.0
  0
POLYLINE
  5
43
330
1F
100
AcDbEntity
  8
_U+30EC_U+30A4_U+30E4_U+30FC 1
 62
   179
420
  2234388
370
     9
100
AcDb2dPolyline
 66
     1
 10
0.0
 20
0.0
 30
0.0
  0
VERTEX
  5
44
330
43
100
AcDbEntity
  8
_U+30EC_U+30A4_U+30E4_U+30FC 1
 62
   179
420
  2234388
370
     9
100
AcDbVertex
100
AcDb2dVertex
 10
84.85575663246581
 20
-145.7916608657877
 30
0.0
  0
VERTEX
  5
45
330
43
100
AcDbEntity
  8
_U+30EC_U+30A4_U+30E4_U+30FC 1
 62
   179
420
  2234388
370
     9
100
AcDbVertex
100
AcDb2dVertex
 10
84.85575663246581
 20
-164.4476280648994
 30
0.0
  0
SEQEND
  5
46
330
43
100
AcDbEntity
  8
_U+30EC_U+30A4_U+30E4_U+30FC 1
 62
   179
420
  2234388
370
     9
  0
POLYLINE
  5
47
330
1F
100
AcDbEntity
  8
_U+30EC_U+30A4_U+30E4_U+30FC 1
 62
   179
420
  2234388
370
     9
100
AcDb2dPolyline
 66
     1
 10
0.0
 20
0.0
 30
0.0
  0
VERTEX
  5
48
330
47
100
AcDbEntity
  8
_U+30EC_U+30A4_U+30E4_U+30FC 1
 62
   179
420
  2234388
370
     9
100
AcDbVertex
100
AcDb2dVertex
 10
84.85575663246581
 20
-163.4474953136846
 30
0.0
  0
VERTEX
  5
49
330
47
100
AcDbEntity
  8
_U+30EC_U+30A4_U+30E4_U+30FC 1
 62
   179
420
  2234388
370
     9
100
AcDbVertex
100
AcDb2dVertex
 10
90.85579683363642
 20
-163.4474953136846
 30
0.0
  0
SEQEND
  5
4A
330
47
100
AcDbEntity
  8
_U+30EC_U+30A4_U+30E4_U+30FC 1
 62
   179
420
  2234388
370
     9
  0
POLYLINE
  5
4B
330
1F
100
AcDbEntity
  8
_U+30EC_U+30A4_U+30E4_U+30FC 1
 62
   179
420
  2234388
370
     9
100
AcDb2dPolyline
 66
     1
 10
0.0
 20
0.0
 30
0.0
  0
VERTEX
  5
4C
330
4B
100
AcDbEntity
  8
_U+30EC_U+30A4_U+30E4_U+30FC 1
 62
   179
420
  2234388
370
     9
100
AcDbVertex
100
AcDb2dVertex
 10
90.85572685513438
 20
-145.7916608657877
 30
0.0
  0
VERTEX
  5
4D
330
4B
100
AcDbEntity
  8
_U+30EC_U+30A4_U+30E4_U+30FC 1
 62
   179
420
  2234388
370
     9
100
AcDbVertex
100
AcDb2dVertex
 10
90.85572685513438
 20
-164.4476280648994
 30
0.0
  0
SEQEND
  5
4E
330
4B
100
AcDbEntity
  8
_U+30EC_U+30A4_U+30E4_U+30FC 1
 62
   179
420
  2234388
370
     9
  0
INSERT
  5
50
330
1F
100
AcDbEntity
  8
_U+30EC_U+30A4_U+30E4_U+30FC 1
100
AcDbBlockReference
  2
block 2
 10
0.0
 20
0.0
 30
0.0
  0
POLYLINE
  5
56
330
1F
100
AcDbEntity
  8
_U+30EC_U+30A4_U+30E4_U+30FC 1
 62
   179
420
  2234388
370
    25
100
AcDb2dPolyline
 66
     1
 10
0.0
 20
0.0
 30
0.0
  0
VERTEX
  5
57
330
56
100
AcDbEntity
  8
_U+30EC_U+30A4_U+30E4_U+30FC 1
 62
   179
420
  2234388
370
    25
100
AcDbVertex
100
AcDb2dVertex
 10
85.05352395368509
 20
-138.3973447665617
 30
0.0
  0
VERTEX
  5
58
330
56
100
AcDbEntity
  8
_U+30EC_U+30A4_U+30E4_U+30FC 1
 62
   179
420
  2234388
370
    25
100
AcDbVertex
100
AcDb2dVertex
 10
84.84079738191345
 20
-138.8813591503925
 30
0.0
  0
VERTEX
  5
59
330
56
100
AcDbEntity
  8
_U+30EC_U+30A4_U+30E4_U+30FC 1
 62
   179
420
  2234388
370
    25
100
AcDbVertex
100
AcDb2dVertex
 10
85.02812175744306
 20
-139.3756011614455
 30
0.0
  0
VERTEX
  5
5A
330
56
100
AcDbEntity
  8
_U+30EC_U+30A4_U+30E4_U+30FC 1
 62
   179
420
  2234388
370
    25
100
AcDbVertex
100
AcDb2dVertex
 10
84.81575046114334
 20
-139.8603260962201
 30
0.0
  0
VERTEX
  5
5B
330
56
100
AcDbEntity
  8
_U+30EC_U+30A4_U+30E4_U+30FC 1
 62
   179
420
  2234388
370
    25
100
AcDbVertex
100
AcDb2dVertex
 10
85.00272225268189
 20
-140.3556231677648
 30
0.0
  0
VERTEX
  5
5C
330
56
100
AcDbEntity
  8
_U+30EC_U+30A4_U+30E4_U+30FC 1
 62
   179
420
  2234388
370
    25
100
AcDbVertex
100
AcDb2dVertex
 10
84.7899983723911
 20
-140.8399820611442
 30
0.0
  0
VERTEX
  5
5D
330
56
100
AcDbEntity
  8
_U+30EC_U+30A4_U+30E4_U+30FC 1
 62
   179
420
  2234388
370
    25
100
AcDbVertex
100
AcDb2dVertex
 10
84.97732274792071
 20
-141.3349346231407
 30
0.0
  0
VERTEX
  5
5E
330
56
100
AcDbEntity
  8
_U+30EC_U+30A4_U+30E4_U+30FC 1
 62
   179
420
  2234388
370
    25
100
AcDbVertex
100
AcDb2dVertex
 10
84.76495145162099
 20
-141.8171833955353
 30
0.0
  0
VERTEX
  5
5F
330
56
100
AcDbEntity
  8
_U+30EC_U+30A4_U+30E4_U+30FC 1
 62
   179
420
  2234388
370
    25
100
AcDbVertex
100
AcDb2dVertex
 10
84.95192324315954
 20
-142.3114254065883
 30
0.0
  0
VERTEX
  5
60
330
56
100
AcDbEntity
  8
_U+30EC_U+30A4_U+30E4_U+30FC 1
 62
   179
420
  2234388
370
    25
100
AcDbVertex
100
AcDb2dVertex
 10
84.7391966713879
 20
-142.7961503413629
 30
0.0
  0
VERTEX
  5
61
330
56
100
AcDbEntity
  8
_U+30EC_U+30A4_U+30E4_U+30FC 1
 62
   179
420
  2234388
370
    25
100
AcDbVertex
100
AcDb2dVertex
 10
84.92652373839836
 20
-143.2903923524153
 30
0.0
  0
VERTEX
  5
62
330
56
100
AcDbEntity
  8
_U+30EC_U+30A4_U+30E4_U+30FC 1
 62
   179
420
  2234388
370
    25
100
AcDbVertex
100
AcDb2dVertex
 10
84.71414975061779
 20
-143.7743852043996
 30
0.0
  0
VERTEX
  5
63
330
56
100
AcDbEntity
  8
_U+30EC_U+30A4_U+30E4_U+30FC 1
 62
   179
420
  2234388
370
    25
100
AcDbVertex
100
AcDb2dVertex
 10
84.90112154215635
 20
-144.2686272154519
 30
0.0
  0
VERTEX
  5
64
330
56
100
AcDbEntity
  8
_U+30EC_U+30A4_U+30E4_U+30FC 1
 62
   179
420
  2234388
370
    25
100
AcDbVertex
100
AcDb2dVertex
 10
84.68839766186555
 20
-144.7526415992828
 30
0.0
  0
VERTEX
  5
65
330
56
100
AcDbEntity
  8
_U+30EC_U+30A4_U+30E4_U+30FC 1
 62
   179
420
  2234388
370
    25
100
AcDbVertex
100
AcDb2dVertex
 10
84.87572203739516
 20
-145.247249651731
 30
0.0
  0
VERTEX
  5
66
330
56
100
AcDbEntity
  8
_U+30EC_U+30A4_U+30E4_U+30FC 1
 62
   179
420
  2234388
370
    25
100
AcDbVertex
100
AcDb2dVertex
 10
84.66299815710438
 20
-145.7312425037148
 30
0.0
  0
VERTEX
  5
67
330
56
100
AcDbEntity
  8
_U+30EC_U+30A4_U+30E4_U+30FC 1
 62
   179
420
  2234388
370
    25
100
AcDbVertex
100
AcDb2dVertex
 10
84.850322532634
 20
-146.2261950657113
 30
0.0
  0
VERTEX
  5
68
330
56
100
AcDbEntity
  8
_U+30EC_U+30A4_U+30E4_U+30FC 1
 62
   179
420
  2234388
370
    25
100
AcDbVertex
100
AcDb2dVertex
 10
84.63759865234353
 20
-146.7105539590909
 30
0.0
  0
VERTEX
  5
69
330
56
100
AcDbEntity
  8
_U+30EC_U+30A4_U+30E4_U+30FC 1
 62
   179
420
  2234388
370
    25
100
AcDbVertex
100
AcDb2dVertex
 10
84.82492302787281
 20
-147.2047959701433
 30
0.0
  0
VERTEX
  5
6A
330
56
100
AcDbEntity
  8
_U+30EC_U+30A4_U+30E4_U+30FC 1
 62
   179
420
  2234388
370
    25
100
AcDbVertex
100
AcDb2dVertex
 10
84.61219645610119
 20
-147.6884658444255
 30
0.0
  0
VERTEX
  5
6B
330
56
100
AcDbEntity
  8
_U+30EC_U+30A4_U+30E4_U+30FC 1
 62
   179
420
  2234388
370
    25
100
AcDbVertex
100
AcDb2dVertex
 10
84.79952352311165
 20
-148.1830523650267
 30
0.0
  0
VERTEX
  5
6C
330
56
100
AcDbEntity
  8
_U+30EC_U+30A4_U+30E4_U+30FC 1
 62
   179
420
  2234388
370
    25
100
AcDbVertex
100
AcDb2dVertex
 10
84.58679695134
 20
-148.6674112584061
 30
0.0
  0
VERTEX
  5
6D
330
56
100
AcDbEntity
  8
_U+30EC_U+30A4_U+30E4_U+30FC 1
 62
   179
420
  2234388
370
    25
100
AcDbVertex
100
AcDb2dVertex
 10
84.77412132686962
 20
-149.1627298617979
 30
0.0
  0
VERTEX
  5
6E
330
56
100
AcDbEntity
  8
_U+30EC_U+30A4_U+30E4_U+30FC 1
 62
   179
420
  2234388
370
    25
100
AcDbVertex
100
AcDb2dVertex
 10
84.56139744657884
 20
-149.6474332647257
 30
0.0
  0
VERTEX
  5
6F
330
56
100
AcDbEntity
  8
_U+30EC_U+30A4_U+30E4_U+30FC 1
 62
   179
420
  2234388
370
    25
100
AcDbVertex
100
AcDb2dVertex
 10
84.74836923811738
 20
-150.1427303362707
 30
0.0
  0
VERTEX
  5
70
330
56
100
AcDbEntity
  8
_U+30EC_U+30A4_U+30E4_U+30FC 1
 62
   179
420
  2234388
370
    25
100
AcDbVertex
100
AcDb2dVertex
 10
84.53599794181767
 20
-150.626400210553
 30
0.0
  0
VERTEX
  5
71
330
56
100
AcDbEntity
  8
_U+30EC_U+30A4_U+30E4_U+30FC 1
 62
   179
420
  2234388
370
    25
100
AcDbVertex
100
AcDb2dVertex
 10
84.72296973335621
 20
-151.1209867311542
 30
0.0
  0
VERTEX
  5
72
330
56
100
AcDbEntity
  8
_U+30EC_U+30A4_U+30E4_U+30FC 1
 62
   179
420
  2234388
370
    25
100
AcDbVertex
100
AcDb2dVertex
 10
84.51059843705649
 20
-151.6064222168727
 30
0.0
  0
VERTEX
  5
73
330
56
100
AcDbEntity
  8
_U+30EC_U+30A4_U+30E4_U+30FC 1
 62
   179
420
  2234388
370
    25
100
AcDbVertex
100
AcDb2dVertex
 10
84.69757022859504
 20
-152.1024083075148
 30
0.0
  0
VERTEX
  5
74
330
56
100
AcDbEntity
  8
_U+30EC_U+30A4_U+30E4_U+30FC 1
 62
   179
420
  2234388
370
    25
100
AcDbVertex
100
AcDb2dVertex
 10
84.48519893229532
 20
-152.5885543441771
 30
0.0
  0
VERTEX
  5
75
330
56
100
AcDbEntity
  8
_U+30EC_U+30A4_U+30E4_U+30FC 1
 62
   179
420
  2234388
370
    25
100
AcDbVertex
100
AcDb2dVertex
 10
84.67181813984278
 20
-153.085250985763
 30
0.0
  0
VERTEX
  5
76
330
56
100
AcDbEntity
  8
_U+30EC_U+30A4_U+30E4_U+30FC 1
 62
   179
420
  2234388
370
    25
100
AcDbVertex
100
AcDb2dVertex
 10
84.45944415206223
 20
-153.5720860415223
 30
0.0
  0
VERTEX
  5
77
330
56
100
AcDbEntity
  8
_U+30EC_U+30A4_U+30E4_U+30FC 1
 62
   179
420
  2234388
370
    25
100
AcDbVertex
100
AcDb2dVertex
 10
84.64641594360077
 20
-154.0691487245035
 30
0.0
  0
VERTEX
  5
78
330
56
100
AcDbEntity
  8
_U+30EC_U+30A4_U+30E4_U+30FC 1
 62
   179
420
  2234388
370
    25
100
AcDbVertex
100
AcDb2dVertex
 10
84.43404464730105
 20
-154.5563498216582
 30
0.0
  0
VERTEX
  5
79
330
56
100
AcDbEntity
  8
_U+30EC_U+30A4_U+30E4_U+30FC 1
 62
   179
420
  2234388
370
    25
100
AcDbVertex
100
AcDb2dVertex
 10
84.62101643883959
 20
-155.0541015237365
 30
0.0
  0
VERTEX
  5
7A
330
56
100
AcDbEntity
  8
_U+30EC_U+30A4_U+30E4_U+30FC 1
 62
   179
420
  2234388
370
    25
100
AcDbVertex
100
AcDb2dVertex
 10
84.40829255854881
 20
-155.5413026208911
 30
0.0
  0
VERTEX
  5
7B
330
56
100
AcDbEntity
  8
_U+30EC_U+30A4_U+30E4_U+30FC 1
 62
   179
420
  2234388
370
    25
100
AcDbVertex
100
AcDb2dVertex
 10
84.59526435008735
 20
-156.0390758548162
 30
0.0
  0
VERTEX
  5
7C
330
56
100
AcDbEntity
  8
_U+30EC_U+30A4_U+30E4_U+30FC 1
 62
   179
420
  2234388
370
    25
100
AcDbVertex
100
AcDb2dVertex
 10
84.38289305378764
 20
-156.5262554201241
 30
0.0
  0
VERTEX
  5
7D
330
56
100
AcDbEntity
  8
_U+30EC_U+30A4_U+30E4_U+30FC 1
 62
   179
420
  2234388
370
    25
100
AcDbVertex
100
AcDb2dVertex
 10
84.56986484532618
 20
-157.0233181031053
 30
0.0
  0
VERTEX
  5
7E
330
56
100
AcDbEntity
  8
_U+30EC_U+30A4_U+30E4_U+30FC 1
 62
   179
420
  2234388
370
    25
100
AcDbVertex
100
AcDb2dVertex
 10
84.35713827355454
 20
-157.5083875474285
 30
0.0
  0
VERTEX
  5
7F
330
56
100
AcDbEntity
  8
_U+30EC_U+30A4_U+30E4_U+30FC 1
 62
   179
420
  2234388
370
    25
100
AcDbVertex
100
AcDb2dVertex
 10
84.54446534056501
 20
-158.004029128522
 30
0.0
  0
VERTEX
  5
80
330
56
100
AcDbEntity
  8
_U+30EC_U+30A4_U+30E4_U+30FC 1
 62
   179
420
  2234388
370
    25
100
AcDbVertex
100
AcDb2dVertex
 10
84.33173876879337
 20
-158.4894646142405
 30
0.0
  0
VERTEX
  5
81
330
56
100
AcDbEntity
  8
_U+30EC_U+30A4_U+30E4_U+30FC 1
 62
   179
420
  2234388
370
    25
100
AcDbVertex
100
AcDb2dVertex
 10
84.51871056033191
 20
-158.9847616857855
 30
0.0
  0
VERTEX
  5
82
330
56
100
AcDbEntity
  8
_U+30EC_U+30A4_U+30E4_U+30FC 1
 62
   179
420
  2234388
370
    25
100
AcDbVertex
100
AcDb2dVertex
 10
84.3063392640322
 20
-159.4691205791648
 30
0.0
  0
VERTEX
  5
83
330
56
100
AcDbEntity
  8
_U+30EC_U+30A4_U+30E4_U+30FC 1
 62
   179
420
  2234388
370
    25
100
AcDbVertex
100
AcDb2dVertex
 10
84.49331105557074
 20
-159.9647836921052
 30
0.0
  0
VERTEX
  5
84
330
56
100
AcDbEntity
  8
_U+30EC_U+30A4_U+30E4_U+30FC 1
 62
   179
420
  2234388
370
    25
100
AcDbVertex
100
AcDb2dVertex
 10
84.28093975927102
 20
-160.4509081969207
 30
0.0
  0
VERTEX
  5
85
330
56
100
AcDbEntity
  8
_U+30EC_U+30A4_U+30E4_U+30FC 1
 62
   179
420
  2234388
370
    25
100
AcDbVertex
100
AcDb2dVertex
 10
84.46791155080956
 20
-160.9465497780142
 30
0.0
  0
VERTEX
  5
86
330
56
100
AcDbEntity
  8
_U+30EC_U+30A4_U+30E4_U+30FC 1
 62
   179
420
  2234388
370
    25
100
AcDbVertex
100
AcDb2dVertex
 10
84.25518767051878
 20
-161.4309302032404
 30
0.0
  0
VERTEX
  5
87
330
56
100
AcDbEntity
  8
_U+30EC_U+30A4_U+30E4_U+30FC 1
 62
   179
420
  2234388
370
    25
100
AcDbVertex
100
AcDb2dVertex
 10
84.44251204604839
 20
-161.9255167238416
 30
0.0
  0
VERTEX
  5
88
330
56
100
AcDbEntity
  8
_U+30EC_U+30A4_U+30E4_U+30FC 1
 62
   179
420
  2234388
370
    25
100
AcDbVertex
100
AcDb2dVertex
 10
84.23013805826783
 20
-162.40847604718
 30
0.0
  0
VERTEX
  5
89
330
56
100
AcDbEntity
  8
_U+30EC_U+30A4_U+30E4_U+30FC 1
 62
   179
420
  2234388
370
    25
100
AcDbVertex
100
AcDb2dVertex
 10
84.41711254128754
 20
-162.9016414658935
 30
0.0
  0
VERTEX
  5
8A
330
56
100
AcDbEntity
  8
_U+30EC_U+30A4_U+30E4_U+30FC 1
 62
   179
420
  2234388
370
    25
100
AcDbVertex
100
AcDb2dVertex
 10
84.20473855350666
 20
-163.3835457287396
 30
0.0
  0
SEQEND
  5
8B
330
56
100
AcDbEntity
  8
_U+30EC_U+30A4_U+30E4_U+30FC 1
 62
   179
420
  2234388
370
    25
  0
POLYLINE
  5
8C
330
1F
100
AcDbEntity
  8
_U+30EC_U+30A4_U+30E4_U+30FC 1
 62
   179
420
  2234388
370
    25
100
AcDb2dPolyline
 66
     1
 10
0.0
 20
0.0
 30
0.0
  0
VERTEX
  5
8D
330
8C
100
AcDbEntity
  8
_U+30EC_U+30A4_U+30E4_U+30FC 1
 62
   179
420
  2234388
370
    25
100
AcDbVertex
100
AcDb2dVertex
 10
84.30454135482583
 20
-163.3861510822003
 30
0.0
  0
VERTEX
  5
8E
330
8C
100
AcDbEntity
  8
_U+30EC_U+30A4_U+30E4_U+30FC 1
 62
   179
420
  2234388
370
    25
100
AcDbVertex
100
AcDb2dVertex
 10
83.90413782353384
 20
-163.37557894543
 30
0.0
  0
SEQEND
  5
8F
330
8C
100
AcDbEntity
  8
_U+30EC_U+30A4_U+30E4_U+30FC 1
 62
   179
420
  2234388
370
    25
  0
POLYLINE
  5
90
330
1F
100
AcDbEntity
  8
_U+30EC_U+30A4_U+30E4_U+30FC 1
 62
   179
420
  2234388
370
    25
100
AcDb2dPolyline
 66
     1
 10
0.0
 20
0.0
 30
0.0
  0
VERTEX
  5
91
330
90
100
AcDbEntity
  8
_U+30EC_U+30A4_U+30E4_U+30FC 1
 62
   179
420
  2234388
370
    25
100
AcDbVertex
100
AcDb2dVertex
 10
83.90424279128658
 20
-163.3754497543493
 30
0.0
  0
VERTEX
  5
92
330
90
100
AcDbEntity
  8
_U+30EC_U+30A4_U+30E4_U+30FC 1
 62
   179
420
  2234388
370
    25
100
AcDbVertex
100
AcDb2dVertex
 10
83.95892291619154
 20
-137.3753787227094
 30
0.0
  0
SEQEND
  5
93
330
90
100
AcDbEntity
  8
_U+30EC_U+30A4_U+30E4_U+30FC 1
 62
   179
420
  2234388
370
    25
  0
POLYLINE
  5
94
330
1F
100
AcDbEntity
  8
_U+30EC_U+30A4_U+30E4_U+30FC 1
 62
   179
420
  2234388
370
    25
100
AcDb2dPolyline
 66
     1
 10
0.0
 20
0.0
 30
0.0
  0
VERTEX
  5
95
330
94
100
AcDbEntity
  8
_U+30EC_U+30A4_U+30E4_U+30FC 1
 62
   179
420
  2234388
370
    25
100
AcDbVertex
100
AcDb2dVertex
 10
90.97599298533977
 20
-144.53461011876
 30
0.0
  0
VERTEX
  5
96
330
94
100
AcDbEntity
  8
_U+30EC_U+30A4_U+30E4_U+30FC 1
 62
   179
420
  2234388
370
    25
100
AcDbVertex
100
AcDb2dVertex
 10
91.50903538429506
 20
-144.7215926762219
 30
0.0
  0
VERTEX
  5
97
330
94
100
AcDbEntity
  8
_U+30EC_U+30A4_U+30E4_U+30FC 1
 62
   179
420
  2234388
370
    25
100
AcDbVertex
100
AcDb2dVertex
 10
92.03291059948255
 20
-144.5092240714034
 30
0.0
  0
VERTEX
  5
98
330
94
100
AcDbEntity
  8
_U+30EC_U+30A4_U+30E4_U+30FC 1
 62
   179
420
  2234388
370
    25
100
AcDbVertex
100
AcDb2dVertex
 10
92.56631365687177
 20
-144.6961850970182
 30
0.0
  0
VERTEX
  5
99
330
94
100
AcDbEntity
  8
_U+30EC_U+30A4_U+30E4_U+30FC 1
 62
   179
420
  2234388
370
    25
100
AcDbVertex
100
AcDb2dVertex
 10
93.09089404004108
 20
-144.4838164921997
 30
0.0
  0
VERTEX
  5
9A
330
94
100
AcDbEntity
  8
_U+30EC_U+30A4_U+30E4_U+30FC 1
 62
   179
420
  2234388
370
    25
100
AcDbVertex
100
AcDb2dVertex
 10
93.62464698994052
 20
-144.6707990496616
 30
0.0
  0
VERTEX
  5
9B
330
94
100
AcDbEntity
  8
_U+30EC_U+30A4_U+30E4_U+30FC 1
 62
   179
420
  2234388
370
    25
100
AcDbVertex
100
AcDb2dVertex
 10
94.14852220512769
 20
-144.4584304448424
 30
0.0
  0
VERTEX
  5
9C
330
94
100
AcDbEntity
  8
_U+30EC_U+30A4_U+30E4_U+30FC 1
 62
   179
420
  2234388
370
    25
100
AcDbVertex
100
AcDb2dVertex
 10
94.6819198795549
 20
-144.6453914704579
 30
0.0
  0
VERTEX
  5
9D
330
94
100
AcDbEntity
  8
_U+30EC_U+30A4_U+30E4_U+30FC 1
 62
   179
420
  2234388
370
    25
100
AcDbVertex
100
AcDb2dVertex
 10
95.20508992676025
 20
-144.4330228656387
 30
0.0
  0
VERTEX
  5
9E
330
94
100
AcDbEntity
  8
_U+30EC_U+30A4_U+30E4_U+30FC 1
 62
   179
420
  2234388
370
    25
100
AcDbVertex
100
AcDb2dVertex
 10
95.73884287665938
 20
-144.6199838912542
 30
0.0
  0
VERTEX
  5
9F
330
94
100
AcDbEntity
  8
_U+30EC_U+30A4_U+30E4_U+30FC 1
 62
   179
420
  2234388
370
    25
100
AcDbVertex
100
AcDb2dVertex
 10
96.26236281637495
 20
-144.407615286435
 30
0.0
  0
VERTEX
  5
A0
330
94
100
AcDbEntity
  8
_U+30EC_U+30A4_U+30E4_U+30FC 1
 62
   179
420
  2234388
370
    25
100
AcDbVertex
100
AcDb2dVertex
 10
96.79541059829192
 20
-144.5945978438969
 30
0.0
  0
VERTEX
  5
A1
330
94
100
AcDbEntity
  8
_U+30EC_U+30A4_U+30E4_U+30FC 1
 62
   179
420
  2234388
370
    25
100
AcDbVertex
100
AcDb2dVertex
 10
97.31858064549729
 20
-144.3822292390781
 30
0.0
  0
VERTEX
  5
A2
330
94
100
AcDbEntity
  8
_U+30EC_U+30A4_U+30E4_U+30FC 1
 62
   179
420
  2234388
370
    25
100
AcDbVertex
100
AcDb2dVertex
 10
97.85198370288619
 20
-144.5691902646932
 30
0.0
  0
VERTEX
  5
A3
330
94
100
AcDbEntity
  8
_U+30EC_U+30A4_U+30E4_U+30FC 1
 62
   179
420
  2234388
370
    25
100
AcDbVertex
100
AcDb2dVertex
 10
98.37550364260177
 20
-144.3568216598744
 30
0.0
  0
VERTEX
  5
A4
330
94
100
AcDbEntity
  8
_U+30EC_U+30A4_U+30E4_U+30FC 1
 62
   179
420
  2234388
370
    25
100
AcDbVertex
100
AcDb2dVertex
 10
98.90890669999098
 20
-144.5437826854895
 30
0.0
  0
VERTEX
  5
A5
330
94
100
AcDbEntity
  8
_U+30EC_U+30A4_U+30E4_U+30FC 1
 62
   179
420
  2234388
370
    25
100
AcDbVertex
100
AcDb2dVertex
 10
99.43278191517815
 20
-144.3314140806706
 30
0.0
  0
VERTEX
  5
A6
330
94
100
AcDbEntity
  8
_U+30EC_U+30A4_U+30E4_U+30FC 1
 62
   179
420
  2234388
370
    25
100
AcDbVertex
100
AcDb2dVertex
 10
99.96653486507728
 20
-144.5183966381326
 30
0.0
  0
VERTEX
  5
A7
330
94
100
AcDbEntity
  8
_U+30EC_U+30A4_U+30E4_U+30FC 1
 62
   179
420
  2234388
370
    25
100
AcDbVertex
100
AcDb2dVertex
 10
100.4896995293209
 20
-144.3060280333137
 30
0.0
  0
VERTEX
  5
A8
330
94
100
AcDbEntity
  8
_U+30EC_U+30A4_U+30E4_U+30FC 1
 62
   179
420
  2234388
370
    25
100
AcDbVertex
100
AcDb2dVertex
 10
101.0227473112379
 20
-144.4929890589289
 30
0.0
  0
VERTEX
  5
A9
330
94
100
AcDbEntity
  8
_U+30EC_U+30A4_U+30E4_U+30FC 1
 62
   179
420
  2234388
370
    25
100
AcDbVertex
100
AcDb2dVertex
 10
101.5462726339152
 20
-144.28062045411
 30
0.0
  0
VERTEX
  5
AA
330
94
100
AcDbEntity
  8
_U+30EC_U+30A4_U+30E4_U+30FC 1
 62
   179
420
  2234388
370
    25
100
AcDbVertex
100
AcDb2dVertex
 10
102.0800255838143
 20
-144.4676030115719
 30
0.0
  0
VERTEX
  5
AB
330
94
100
AcDbEntity
  8
_U+30EC_U+30A4_U+30E4_U+30FC 1
 62
   179
420
  2234388
370
    25
100
AcDbVertex
100
AcDb2dVertex
 10
102.6039007990018
 20
-144.2552128749062
 30
0.0
  0
VERTEX
  5
AC
330
94
100
AcDbEntity
  8
_U+30EC_U+30A4_U+30E4_U+30FC 1
 62
   179
420
  2234388
370
    25
100
AcDbVertex
100
AcDb2dVertex
 10
103.1380036414111
 20
-144.4421954323682
 30
0.0
  0
VERTEX
  5
AD
330
94
100
AcDbEntity
  8
_U+30EC_U+30A4_U+30E4_U+30FC 1
 62
   179
420
  2234388
370
    25
100
AcDbVertex
100
AcDb2dVertex
 10
103.6625840245808
 20
-144.229460786154
 30
0.0
  0
VERTEX
  5
AE
330
94
100
AcDbEntity
  8
_U+30EC_U+30A4_U+30E4_U+30FC 1
 62
   179
420
  2234388
370
    25
100
AcDbVertex
100
AcDb2dVertex
 10
104.1952819139875
 20
-144.4167878531645
 30
0.0
  0
VERTEX
  5
AF
330
94
100
AcDbEntity
  8
_U+30EC_U+30A4_U+30E4_U+30FC 1
 62
   179
420
  2234388
370
    25
100
AcDbVertex
100
AcDb2dVertex
 10
104.7195070216853
 20
-144.2040747387974
 30
0.0
  0
VERTEX
  5
B0
330
94
100
AcDbEntity
  8
_U+30EC_U+30A4_U+30E4_U+30FC 1
 62
   179
420
  2234388
370
    25
100
AcDbVertex
100
AcDb2dVertex
 10
105.2536152470563
 20
-144.3914018058078
 30
0.0
  0
VERTEX
  5
B1
330
94
100
AcDbEntity
  8
_U+30EC_U+30A4_U+30E4_U+30FC 1
 62
   179
420
  2234388
370
    25
100
AcDbVertex
100
AcDb2dVertex
 10
105.7789007982081
 20
-144.1786671595937
 30
0.0
  0
VERTEX
  5
B2
330
94
100
AcDbEntity
  8
_U+30EC_U+30A4_U+30E4_U+30FC 1
 62
   179
420
  2234388
370
    25
100
AcDbVertex
100
AcDb2dVertex
 10
106.3140640840714
 20
-144.3656497170556
 30
0.0
  0
VERTEX
  5
B3
330
94
100
AcDbEntity
  8
_U+30EC_U+30A4_U+30E4_U+30FC 1
 62
   179
420
  2234388
370
    25
100
AcDbVertex
100
AcDb2dVertex
 10
106.8400548032054
 20
-144.15325958039
 30
0.0
  0
VERTEX
  5
B4
330
94
100
AcDbEntity
  8
_U+30EC_U+30A4_U+30E4_U+30FC 1
 62
   179
420
  2234388
370
    25
100
AcDbVertex
100
AcDb2dVertex
 10
107.3762785325228
 20
-144.3402421378519
 30
0.0
  0
VERTEX
  5
B5
330
94
100
AcDbEntity
  8
_U+30EC_U+30A4_U+30E4_U+30FC 1
 62
   179
420
  2234388
370
    25
100
AcDbVertex
100
AcDb2dVertex
 10
107.9029744196388
 20
-144.1275074916377
 30
0.0
  0
VERTEX
  5
B6
330
94
100
AcDbEntity
  8
_U+30EC_U+30A4_U+30E4_U+30FC 1
 62
   179
420
  2234388
370
    25
100
AcDbVertex
100
AcDb2dVertex
 10
108.4391981489563
 20
-144.3144900490996
 30
0.0
  0
VERTEX
  5
B7
330
94
100
AcDbEntity
  8
_U+30EC_U+30A4_U+30E4_U+30FC 1
 62
   179
420
  2234388
370
    25
100
AcDbVertex
100
AcDb2dVertex
 10
108.9662439285826
 20
-144.1021214442805
 30
0.0
  0
VERTEX
  5
B8
330
94
100
AcDbEntity
  8
_U+30EC_U+30A4_U+30E4_U+30FC 1
 62
   179
420
  2234388
370
    25
100
AcDbVertex
100
AcDb2dVertex
 10
109.5028229333719
 20
-144.2890824698959
 30
0.0
  0
VERTEX
  5
B9
330
94
100
AcDbEntity
  8
_U+30EC_U+30A4_U+30E4_U+30FC 1
 62
   179
420
  2234388
370
    25
100
AcDbVertex
100
AcDb2dVertex
 10
110.0277532090518
 20
-144.0763693555282
 30
0.0
  0
VERTEX
  5
BA
330
94
100
AcDbEntity
  8
_U+30EC_U+30A4_U+30E4_U+30FC 1
 62
   179
420
  2234388
370
    25
100
AcDbVertex
100
AcDb2dVertex
 10
110.5625666024049
 20
-144.2633303811437
 30
0.0
  0
VERTEX
  5
BB
330
94
100
AcDbEntity
  8
_U+30EC_U+30A4_U+30E4_U+30FC 1
 62
   179
420
  2234388
370
    25
100
AcDbVertex
100
AcDb2dVertex
 10
111.0874968780848
 20
-144.0509617763245
 30
0.0
  0
VERTEX
  5
BC
330
94
100
AcDbEntity
  8
_U+30EC_U+30A4_U+30E4_U+30FC 1
 62
   179
420
  2234388
370
    25
100
AcDbVertex
100
AcDb2dVertex
 10
111.622310271438
 20
-144.2379443337864
 30
0.0
  0
VERTEX
  5
BD
330
94
100
AcDbEntity
  8
_U+30EC_U+30A4_U+30E4_U+30FC 1
 62
   179
420
  2234388
370
    25
100
AcDbVertex
100
AcDb2dVertex
 10
112.1472459300795
 20
-144.0255541971208
 30
0.0
  0
VERTEX
  5
BE
330
94
100
AcDbEntity
  8
_U+30EC_U+30A4_U+30E4_U+30FC 1
 62
   179
420
  2234388
370
    25
100
AcDbVertex
100
AcDb2dVertex
 10
112.682053940471
 20
-144.2125367545827
 30
0.0
  0
VERTEX
  5
BF
330
94
100
AcDbEntity
  8
_U+30EC_U+30A4_U+30E4_U+30FC 1
 62
   179
420
  2234388
370
    25
100
AcDbVertex
100
AcDb2dVertex
 10
113.2062844311304
 20
-144.0001681497639
 30
0.0
  0
VERTEX
  5
C0
330
94
100
AcDbEntity
  8
_U+30EC_U+30A4_U+30E4_U+30FC 1
 62
   179
420
  2234388
370
    25
100
AcDbVertex
100
AcDb2dVertex
 10
113.7403872735397
 20
-144.187129175379
 30
0.0
  0
VERTEX
  5
C1
330
94
100
AcDbEntity
  8
_U+30EC_U+30A4_U+30E4_U+30FC 1
 62
   179
420
  2234388
370
    25
100
AcDbVertex
100
AcDb2dVertex
 10
114.2656728246915
 20
-143.9747605705601
 30
0.0
  0
VERTEX
  5
C2
330
94
100
AcDbEntity
  8
_U+30EC_U+30A4_U+30E4_U+30FC 1
 62
   179
420
  2234388
370
    25
100
AcDbVertex
100
AcDb2dVertex
 10
114.8015466614987
 20
-144.1613770866268
 30
0.0
  0
VERTEX
  5
C3
330
94
100
AcDbEntity
  8
_U+30EC_U+30A4_U+30E4_U+30FC 1
 62
   179
420
  2234388
370
    25
100
AcDbVertex
100
AcDb2dVertex
 10
115.3271821051607
 20
-143.9490084818079
 30
0.0
  0
VERTEX
  5
C4
330
94
100
AcDbEntity
  8
_U+30EC_U+30A4_U+30E4_U+30FC 1
 62
   179
420
  2234388
370
    25
100
AcDbVertex
100
AcDb2dVertex
 10
115.8612903305318
 20
-144.1359910392698
 30
0.0
  0
VERTEX
  5
C5
330
94
100
AcDbEntity
  8
_U+30EC_U+30A4_U+30E4_U+30FC 1
 62
   179
420
  2234388
370
    25
100
AcDbVertex
100
AcDb2dVertex
 10
116.3851655457192
 20
-143.9236009026042
 30
0.0
  0
VERTEX
  5
C6
330
94
100
AcDbEntity
  8
_U+30EC_U+30A4_U+30E4_U+30FC 1
 62
   179
420
  2234388
370
    25
100
AcDbVertex
100
AcDb2dVertex
 10
116.9178580521643
 20
-144.1105834600661
 30
0.0
  0
VERTEX
  5
C7
330
94
100
AcDbEntity
  8
_U+30EC_U+30A4_U+30E4_U+30FC 1
 62
   179
420
  2234388
370
    25
100
AcDbVertex
100
AcDb2dVertex
 10
117.4406728238978
 20
-143.8982148552472
 30
0.0
  0
VERTEX
  5
C8
330
94
100
AcDbEntity
  8
_U+30EC_U+30A4_U+30E4_U+30FC 1
 62
   179
420
  2234388
370
    25
100
AcDbVertex
100
AcDb2dVertex
 10
117.9719603773402
 20
-144.0855419222577
 30
0.0
  0
SEQEND
  5
C9
330
94
100
AcDbEntity
  8
_U+30EC_U+30A4_U+30E4_U+30FC 1
 62
   179
420
  2234388
370
    25
  0
POLYLINE
  5
CA
330
1F
100
AcDbEntity
  8
_U+30EC_U+30A4_U+30E4_U+30FC 1
 62
   179
420
  2234388
370
    25
100
AcDb2dPolyline
 66
     1
 10
0.0
 20
0.0
 30
0.0
  0
VERTEX
  5
CB
330
CA
100
AcDbEntity
  8
_U+30EC_U+30A4_U+30E4_U+30FC 1
 62
   179
420
  2234388
370
    25
100
AcDbVertex
100
AcDb2dVertex
 10
117.9695218956921
 20
-143.9854403665644
 30
0.0
  0
VERTEX
  5
CC
330
CA
100
AcDbEntity
  8
_U+30EC_U+30A4_U+30E4_U+30FC 1
 62
   179
420
  2234388
370
    25
100
AcDbVertex
100
AcDb2dVertex
 10
117.9592888855086
 20
-143.585055675638
 30
0.0
  0
SEQEND
  5
CD
330
CA
100
AcDbEntity
  8
_U+30EC_U+30A4_U+30E4_U+30FC 1
 62
   179
420
  2234388
370
    25
  0
POLYLINE
  5
CE
330
1F
100
AcDbEntity
  8
_U+30EC_U+30A4_U+30E4_U+30FC 1
 62
   179
420
  2234388
370
    25
100
AcDb2dPolyline
 66
     1
 10
0.0
 20
0.0
 30
0.0
  0
VERTEX
  5
CF
330
CE
100
AcDbEntity
  8
_U+30EC_U+30A4_U+30E4_U+30FC 1
 62
   179
420
  2234388
370
    25
100
AcDbVertex
100
AcDb2dVertex
 10
117.9591866092363
 20
-143.5851418030252
 30
0.0
  0
VERTEX
  5
D0
330
CE
100
AcDbEntity
  8
_U+30EC_U+30A4_U+30E4_U+30FC 1
 62
   179
420
  2234388
370
    25
100
AcDbVertex
100
AcDb2dVertex
 10
91.00308004859255
 20
-143.6398326938535
 30
0.0
  0
SEQEND
  5
D1
330
CE
100
AcDbEntity
  8
_U+30EC_U+30A4_U+30E4_U+30FC 1
 62
   179
420
  2234388
370
    25
  0
SPLINE
  5
D2
330
1F
100
AcDbEntity
  8
_U+30EC_U+30A4_U+30E4_U+30FC 1
 62
   179
420
  2234388
370
     9
100
AcDbSpline
210
0.0
220
0.0
230
1.0
 70
    11
 71
     3
 72
    17
 73
    13
 74
     0
 42
0.0000000001
 43
0.0000000001
 12
1.0
 22
0.0
 32
0.0
 13
1.0
 23
0.0
 33
0.0
 40
0.0
 40
0.0
 40
0.0
 40
0.0
 40
1.0
 40
1.0
 40
1.0
 40
2.0
 40
2.0
 40
2.0
 40
3.0
 40
3.0
 40
3.0
 40
4.0
 40
4.0
 40
4.0
 40
4.0
 10
91.95886796135817
 20
-133.3759458420358
 30
0.0
 10
91.95886796135817
 20
-133.4309812424127
 30
0.0
 10
92.00367035155149
 20
-133.475789015568
 30
0.0
 10
92.05870036896667
 20
-133.475789015568
 30
0.0
 10
92.11373576934353
 20
-133.475789015568
 30
0.0
 10
92.15853815953686
 20
-133.4309812424127
 30
0.0
 10
92.15853815953686
 20
-133.3759458420358
 30
0.0
 10
92.15853815953686
 20
-133.320931973506
 30
0.0
 10
92.11373576934353
 20
-133.2761242003507
 30
0.0
 10
92.05870036896667
 20
-133.2761242003507
 30
0.0
 10
92.00367035155149
 20
-133.2761242003507
 30
0.0
 10
91.95886796135817
 20
-133.320931973506
 30
0.0
 10
91.95886796135817
 20
-133.3759458420358
 30
0.0
  0
SPLINE
  5
D3
330
1F
100
AcDbEntity
  8
_U+30EC_U+30A4_U+30E4_U+30FC 1
 62
   179
420
  2234388
370
     9
100
AcDbSpline
210
0.0
220
0.0
230
1.0
 70
    11
 71
     3
 72
    17
 73
    13
 74
     0
 42
0.0000000001
 43
0.0000000001
 12
1.0
 22
0.0
 32
0.0
 13
1.0
 23
0.0
 33
0.0
 40
0.0
 40
0.0
 40
0.0
 40
0.0
 40
1.0
 40
1.0
 40
1.0
 40
2.0
 40
2.0
 40
2.0
 40
3.0
 40
3.0
 40
3.0
 40
4.0
 40
4.0
 40
4.0
 40
4.0
 10
78.83235706901668
 20
-137.4752434280878
 30
0.0
 10
78.83235706901668
 20
-137.5302788284646
 30
0.0
 10
78.87715945921002
 20
-137.5750866016197
 30
0.0
 10
78.93219216810604
 20
-137.5750866016197
 30
0.0
 10
78.98722487700206
 20
-137.5750866016197
 30
0.0
 10
79.03202726719539
 20
-137.5302788284646
 30
0.0
 10
79.03202726719539
 20
-137.4752434280878
 30
0.0
 10
79.03202726719539
 20
-137.4195190086139
 30
0.0
 10
78.98722487700206
 20
-137.3754217864027
 30
0.0
 10
78.93219216810604
 20
-137.3754217864027
 30
0.0
 10
78.87715945921002
 20
-137.3754217864027
 30
0.0
 10
78.83235706901668
 20
-137.4195190086139
 30
0.0
 10
78.83235706901668
 20
-137.4752434280878
 30
0.0
  0
SPLINE
  5
D4
330
1F
100
AcDbEntity
  8
_U+30EC_U+30A4_U+30E4_U+30FC 1
 62
   179
420
  2234388
370
     9
100
AcDbSpline
210
0.0
220
0.0
230
1.0
 70
    11
 71
     3
 72
    17
 73
    13
 74
     0
 42
0.0000000001
 43
0.0000000001
 12
1.0
 22
0.0
 32
0.0
 13
1.0
 23
0.0
 33
0.0
 40
0.0
 40
0.0
 40
0.0
 40
0.0
 40
1.0
 40
1.0
 40
1.0
 40
2.0
 40
2.0
 40
2.0
 40
3.0
 40
3.0
 40
3.0
 40
4.0
 40
4.0
 40
4.0
 40
4.0
 10
117.9584814412542
 20
-133.3759458420358
 30
0.0
 10
117.9584814412542
 20
-133.4309812424127
 30
0.0
 10
118.0032838314475
 20
-133.475789015568
 30
0.0
 10
118.0583138488627
 20
-133.475789015568
 30
0.0
 10
118.1133492492396
 20
-133.475789015568
 30
0.0
 10
118.1581516394329
 20
-133.4309812424127
 30
0.0
 10
118.1581516394329
 20
-133.3759458420358
 30
0.0
 10
118.1581516394329
 20
-133.320931973506
 30
0.0
 10
118.1133492492396
 20
-133.2761242003507
 30
0.0
 10
118.0583138488627
 20
-133.2761242003507
 30
0.0
 10
118.0032838314475
 20
-133.2761242003507
 30
0.0
 10
117.9584814412542
 20
-133.320931973506
 30
0.0
 10
117.9584814412542
 20
-133.3759458420358
 30
0.0
  0
SPLINE
  5
D5
330
1F
100
AcDbEntity
  8
_U+30EC_U+30A4_U+30E4_U+30FC 1
 62
   179
420
  2234388
370
     9
100
AcDbSpline
210
0.0
220
0.0
230
1.0
 70
    11
 71
     3
 72
    17
 73
    13
 74
     0
 42
0.0000000001
 43
0.0000000001
 12
1.0
 22
0.0
 32
0.0
 13
1.0
 23
0.0
 33
0.0
 40
0.0
 40
0.0
 40
0.0
 40
0.0
 40
1.0
 40
1.0
 40
1.0
 40
2.0
 40
2.0
 40
2.0
 40
3.0
 40
3.0
 40
3.0
 40
4.0
 40
4.0
 40
4.0
 40
4.0
 10
78.83235706901668
 20
-163.4750345457198
 30
0.0
 10
78.83235706901668
 20
-163.5300699460967
 30
0.0
 10
78.87715945921002
 20
-163.5748777192517
 30
0.0
 10
78.93219216810604
 20
-163.5748777192517
 30
0.0
 10
78.98722487700206
 20
-163.5748777192517
 30
0.0
 10
79.03202726719539
 20
-163.5300699460967
 30
0.0
 10
79.03202726719539
 20
-163.4750345457198
 30
0.0
 10
79.03202726719539
 20
-163.4200206771897
 30
0.0
 10
78.98722487700206
 20
-163.3752129040347
 30
0.0
 10
78.93219216810604
 20
-163.3752129040347
 30
0.0
 10
78.87715945921002
 20
-163.3752129040347
 30
0.0
 10
78.83235706901668
 20
-163.4200206771897
 30
0.0
 10
78.83235706901668
 20
-163.4750345457198
 30
0.0
  0
POLYLINE
  5
D6
330
1F
100
AcDbEntity
  8
_U+30EC_U+30A4_U+30E4_U+30FC 1
 62
   179
420
  2234388
370
     9
100
AcDb2dPolyline
 66
     1
 10
0.0
 20
0.0
 30
0.0
  0
VERTEX
  5
D7
330
D6
100
AcDbEntity
  8
_U+30EC_U+30A4_U+30E4_U+30FC 1
 62
   179
420
  2234388
370
     9
100
AcDbVertex
100
AcDb2dVertex
 10
118.0583892103264
 20
-133.3759458420358
 30
0.0
  0
VERTEX
  5
D8
330
D6
100
AcDbEntity
  8
_U+30EC_U+30A4_U+30E4_U+30FC 1
 62
   179
420
  2234388
370
     9
100
AcDbVertex
100
AcDb2dVertex
 10
92.0586680711965
 20
-133.3759458420358
 30
0.0
  0
SEQEND
  5
D9
330
D6
100
AcDbEntity
  8
_U+30EC_U+30A4_U+30E4_U+30FC 1
 62
   179
420
  2234388
370
     9
  0
POLYLINE
  5
DA
330
1F
100
AcDbEntity
  8
_U+30EC_U+30A4_U+30E4_U+30FC 1
 62
   179
420
  2234388
370
     9
100
AcDb2dPolyline
 66
     1
 10
0.0
 20
0.0
 30
0.0
  0
VERTEX
  5
DB
330
DA
100
AcDbEntity
  8
_U+30EC_U+30A4_U+30E4_U+30FC 1
 62
   179
420
  2234388
370
     9
100
AcDbVertex
100
AcDb2dVertex
 10
118.0583892103264
 20
-135.6359284803597
 30
0.0
  0
VERTEX
  5
DC
330
DA
100
AcDbEntity
  8
_U+30EC_U+30A4_U+30E4_U+30FC 1
 62
   179
420
  2234388
370
     9
100
AcDbVertex
100
AcDb2dVertex
 10
118.0583892103264
 20
-132.3762652596034
 30
0.0
  0
SEQEND
  5
DD
330
DA
100
AcDbEntity
  8
_U+30EC_U+30A4_U+30E4_U+30FC 1
 62
   179
420
  2234388
370
     9
  0
POLYLINE
  5
DE
330
1F
100
AcDbEntity
  8
_U+30EC_U+30A4_U+30E4_U+30FC 1
 62
   179
420
  2234388
370
     9
100
AcDb2dPolyline
 66
     1
 10
0.0
 20
0.0
 30
0.0
  0
VERTEX
  5
DF
330
DE
100
AcDbEntity
  8
_U+30EC_U+30A4_U+30E4_U+30FC 1
 62
   179
420
  2234388
370
     9
100
AcDbVertex
100
AcDb2dVertex
 10
92.05877034746871
 20
-135.4360483466752
 30
0.0
  0
VERTEX
  5
E0
330
DE
100
AcDbEntity
  8
_U+30EC_U+30A4_U+30E4_U+30FC 1
 62
   179
420
  2234388
370
     9
100
AcDbVertex
100
AcDb2dVertex
 10
92.05877034746871
 20
-132.3760714729824
 30
0.0
  0
SEQEND
  5
E1
330
DE
100
AcDbEntity
  8
_U+30EC_U+30A4_U+30E4_U+30FC 1
 62
   179
420
  2234388
370
     9
  0
INSERT
  5
E3
330
1F
100
AcDbEntity
  8
_U+30EC_U+30A4_U+30E4_U+30FC 1
100
AcDbBlockReference
  2
block 3
 10
0.0
 20
0.0
 30
0.0
  0
SPLINE
  5
EB
330
1F
100
AcDbEntity
  8
_U+30EC_U+30A4_U+30E4_U+30FC 1
 62
   179
420
  2234388
370
     9
100
AcDbSpline
210
0.0
220
0.0
230
1.0
 70
    11
 71
     3
 72
    17
 73
    13
 74
     0
 42
0.0000000001
 43
0.0000000001
 12
1.0
 22
0.0
 32
0.0
 13
1.0
 23
0.0
 33
0.0
 40
0.0
 40
0.0
 40
0.0
 40
0.0
 40
1.0
 40
1.0
 40
1.0
 40
2.0
 40
2.0
 40
2.0
 40
3.0
 40
3.0
 40
3.0
 40
4.0
 40
4.0
 40
4.0
 40
4.0
 10
120.9054107363752
 20
-143.5851418030252
 30
0.0
 10
120.9604407537904
 20
-143.5851418030252
 30
0.0
 10
121.0052431439837
 20
-143.5403555617169
 30
0.0
 10
121.0052431439837
 20
-143.48532016134
 30
0.0
 10
121.0052431439837
 20
-143.4302847609632
 30
0.0
 10
120.9604407537904
 20
-143.3854769878081
 30
0.0
 10
120.9054107363752
 20
-143.3854769878081
 30
0.0
 10
120.8503753359984
 20
-143.3854769878081
 30
0.0
 10
120.805572945805
 20
-143.4302847609632
 30
0.0
 10
120.805572945805
 20
-143.48532016134
 30
0.0
 10
120.805572945805
 20
-143.5403555617169
 30
0.0
 10
120.8503753359984
 20
-143.5851418030252
 30
0.0
 10
120.9054107363752
 20
-143.5851418030252
 30
0.0
  0
SPLINE
  5
EC
330
1F
100
AcDbEntity
  8
_U+30EC_U+30A4_U+30E4_U+30FC 1
 62
   179
420
  2234388
370
     9
100
AcDbSpline
210
0.0
220
0.0
230
1.0
 70
    11
 71
     3
 72
    17
 73
    13
 74
     0
 42
0.0000000001
 43
0.0000000001
 12
1.0
 22
0.0
 32
0.0
 13
1.0
 23
0.0
 33
0.0
 40
0.0
 40
0.0
 40
0.0
 40
0.0
 40
1.0
 40
1.0
 40
1.0
 40
2.0
 40
2.0
 40
2.0
 40
3.0
 40
3.0
 40
3.0
 40
4.0
 40
4.0
 40
4.0
 40
4.0
 10
120.9054107363752
 20
-137.5854864836158
 30
0.0
 10
120.9604407537904
 20
-137.5854864836158
 30
0.0
 10
121.0052431439837
 20
-137.5407002423075
 30
0.0
 10
121.0052431439837
 20
-137.4852988005354
 30
0.0
 10
121.0052431439837
 20
-137.4302849320053
 30
0.0
 10
120.9604407537904
 20
-137.3854771588503
 30
0.0
 10
120.9054107363752
 20
-137.3854771588503
 30
0.0
 10
120.8503753359984
 20
-137.3854771588503
 30
0.0
 10
120.805572945805
 20
-137.4302849320053
 30
0.0
 10
120.805572945805
 20
-137.4852988005354
 30
0.0
 10
120.805572945805
 20
-137.5407002423075
 30
0.0
 10
120.8503753359984
 20
-137.5854864836158
 30
0.0
 10
120.9054107363752
 20
-137.5854864836158
 30
0.0
  0
POLYLINE
  5
ED
330
1F
100
AcDbEntity
  8
_U+30EC_U+30A4_U+30E4_U+30FC 1
 62
   179
420
  2234388
370
     9
100
AcDb2dPolyline
 66
     1
 10
0.0
 20
0.0
 30
0.0
  0
VERTEX
  5
EE
330
ED
100
AcDbEntity
  8
_U+30EC_U+30A4_U+30E4_U+30FC 1
 62
   179
420
  2234388
370
     9
100
AcDbVertex
100
AcDb2dVertex
 10
120.9054107363752
 20
-137.4851911413018
 30
0.0
  0
VERTEX
  5
EF
330
ED
100
AcDbEntity
  8
_U+30EC_U+30A4_U+30E4_U+30FC 1
 62
   179
420
  2234388
370
     9
100
AcDbVertex
100
AcDb2dVertex
 10
120.9054107363752
 20
-143.4852555658
 30
0.0
  0
SEQEND
  5
F0
330
ED
100
AcDbEntity
  8
_U+30EC_U+30A4_U+30E4_U+30FC 1
 62
   179
420
  2234388
370
     9
  0
POLYLINE
  5
F1
330
1F
100
AcDbEntity
  8
_U+30EC_U+30A4_U+30E4_U+30FC 1
 62
   179
420
  2234388
370
     9
100
AcDb2dPolyline
 66
     1
 10
0.0
 20
0.0
 30
0.0
  0
VERTEX
  5
F2
330
F1
100
AcDbEntity
  8
_U+30EC_U+30A4_U+30E4_U+30FC 1
 62
   179
420
  2234388
370
     9
100
AcDbVertex
100
AcDb2dVertex
 10
121.8989762743213
 20
-137.4851911413018
 30
0.0
  0
VERTEX
  5
F3
330
F1
100
AcDbEntity
  8
_U+30EC_U+30A4_U+30E4_U+30FC 1
 62
   179
420
  2234388
370
     9
100
AcDbVertex
100
AcDb2dVertex
 10
118.6393076706033
 20
-137.4851911413018
 30
0.0
  0
SEQEND
  5
F4
330
F1
100
AcDbEntity
  8
_U+30EC_U+30A4_U+30E4_U+30FC 1
 62
   179
420
  2234388
370
     9
  0
POLYLINE
  5
F5
330
1F
100
AcDbEntity
  8
_U+30EC_U+30A4_U+30E4_U+30FC 1
 62
   179
420
  2234388
370
     9
100
AcDb2dPolyline
 66
     1
 10
0.0
 20
0.0
 30
0.0
  0
VERTEX
  5
F6
330
F5
100
AcDbEntity
  8
_U+30EC_U+30A4_U+30E4_U+30FC 1
 62
   179
420
  2234388
370
     9
100
AcDbVertex
100
AcDb2dVertex
 10
121.8989762743213
 20
-143.4852340339529
 30
0.0
  0
VERTEX
  5
F7
330
F5
100
AcDbEntity
  8
_U+30EC_U+30A4_U+30E4_U+30FC 1
 62
   179
420
  2234388
370
     9
100
AcDbVertex
100
AcDb2dVertex
 10
118.6393076706033
 20
-143.4852340339529
 30
0.0
  0
SEQEND
  5
F8
330
F5
100
AcDbEntity
  8
_U+30EC_U+30A4_U+30E4_U+30FC 1
 62
   179
420
  2234388
370
     9
  0
INSERT
  5
FA
330
1F
100
AcDbEntity
  8
_U+30EC_U+30A4_U+30E4_U+30FC 1
100
AcDbBlockReference
  2
block 4
 10
0.0
 20
0.0
 30
0.0
  0
POLYLINE
  5
100
330
1F
100
AcDbEntity
  8
_U+30EC_U+30A4_U+30E4_U+30FC 1
 62
   179
420
  2234388
370
     9
100
AcDb2dPolyline
 66
     1
 10
0.0
 20
0.0
 30
0.0
  0
VERTEX
  5
101
330
100
100
AcDbEntity
  8
_U+30EC_U+30A4_U+30E4_U+30FC 1
 62
   179
420
  2234388
370
     9
100
AcDbVertex
100
AcDb2dVertex
 10
78.93226483808893
 20
-137.4752434280878
 30
0.0
  0
VERTEX
  5
102
330
100
100
AcDbEntity
  8
_U+30EC_U+30A4_U+30E4_U+30FC 1
 62
   179
420
  2234388
370
     9
100
AcDbVertex
100
AcDb2dVertex
 10
78.93226483808893
 20
-163.4749699501794
 30
0.0
  0
SEQEND
  5
103
330
100
100
AcDbEntity
  8
_U+30EC_U+30A4_U+30E4_U+30FC 1
 62
   179
420
  2234388
370
     9
  0
POLYLINE
  5
104
330
1F
100
AcDbEntity
  8
_U+30EC_U+30A4_U+30E4_U+30FC 1
 62
   179
420
  2234388
370
     9
100
AcDb2dPolyline
 66
     1
 10
0.0
 20
0.0
 30
0.0
  0
VERTEX
  5
105
330
104
100
AcDbEntity
  8
_U+30EC_U+30A4_U+30E4_U+30FC 1
 62
   179
420
  2234388
370
     9
100
AcDbVertex
100
AcDb2dVertex
 10
77.64243723729648
 20
-137.4752434280878
 30
0.0
  0
VERTEX
  5
106
330
104
100
AcDbEntity
  8
_U+30EC_U+30A4_U+30E4_U+30FC 1
 62
   179
420
  2234388
370
     9
100
AcDbVertex
100
AcDb2dVertex
 10
82.00241550938628
 20
-137.4752434280878
 30
0.0
  0
SEQEND
  5
107
330
104
100
AcDbEntity
  8
_U+30EC_U+30A4_U+30E4_U+30FC 1
 62
   179
420
  2234388
370
     9
  0
POLYLINE
  5
108
330
1F
100
AcDbEntity
  8
_U+30EC_U+30A4_U+30E4_U+30FC 1
 62
   179
420
  2234388
370
     9
100
AcDb2dPolyline
 66
     1
 10
0.0
 20
0.0
 30
0.0
  0
VERTEX
  5
109
330
108
100
AcDbEntity
  8
_U+30EC_U+30A4_U+30E4_U+30FC 1
 62
   179
420
  2234388
370
     9
100
AcDbVertex
100
AcDb2dVertex
 10
77.64243723729648
 20
-163.4750345457198
 30
0.0
  0
VERTEX
  5
10A
330
108
100
AcDbEntity
  8
_U+30EC_U+30A4_U+30E4_U+30FC 1
 62
   179
420
  2234388
370
     9
100
AcDbVertex
100
AcDb2dVertex
 10
82.00241550938628
 20
-163.4750345457198
 30
0.0
  0
SEQEND
  5
10B
330
108
100
AcDbEntity
  8
_U+30EC_U+30A4_U+30E4_U+30FC 1
 62
   179
420
  2234388
370
     9
  0
INSERT
  5
10D
330
1F
100
AcDbEntity
  8
_U+30EC_U+30A4_U+30E4_U+30FC 1
100
AcDbBlockReference
  2
block 5
 10
0.0
 20
0.0
 30
0.0
  0
POLYLINE
  5
115
330
1F
100
AcDbEntity
  8
_U+30EC_U+30A4_U+30E4_U+30FC 1
 62
   179
420
  2234388
370
    25
100
AcDb2dPolyline
 66
     1
 10
0.0
 20
0.0
 30
0.0
  0
VERTEX
  5
116
330
115
100
AcDbEntity
  8
_U+30EC_U+30A4_U+30E4_U+30FC 1
 62
   179
420
  2234388
370
    25
100
AcDbVertex
100
AcDb2dVertex
 10
84.95361618461284
 20
-138.3947609449478
 30
0.0
  0
VERTEX
  5
117
330
115
100
AcDbEntity
  8
_U+30EC_U+30A4_U+30E4_U+30FC 1
 62
   179
420
  2234388
370
    25
100
AcDbVertex
100
AcDb2dVertex
 10
90.9536590772643
 20
-138.3947609449478
 30
0.0
  0
SEQEND
  5
118
330
115
100
AcDbEntity
  8
_U+30EC_U+30A4_U+30E4_U+30FC 1
 62
   179
420
  2234388
370
    25
  0
POLYLINE
  5
119
330
1F
100
AcDbEntity
  8
_U+30EC_U+30A4_U+30E4_U+30FC 1
 62
   179
420
  2234388
370
    25
100
AcDb2dPolyline
 66
     1
 10
0.0
 20
0.0
 30
0.0
  0
VERTEX
  5
11A
330
119
100
AcDbEntity
  8
_U+30EC_U+30A4_U+30E4_U+30FC 1
 62
   179
420
  2234388
370
    25
100
AcDbVertex
100
AcDb2dVertex
 10
83.95899558617442
 20
-137.3753356590155
 30
0.0
  0
VERTEX
  5
11B
330
119
100
AcDbEntity
  8
_U+30EC_U+30A4_U+30E4_U+30FC 1
 62
   179
420
  2234388
370
    25
100
AcDbVertex
100
AcDb2dVertex
 10
91.9589325568985
 20
-137.3753356590155
 30
0.0
  0
SEQEND
  5
11C
330
119
100
AcDbEntity
  8
_U+30EC_U+30A4_U+30E4_U+30FC 1
 62
   179
420
  2234388
370
    25
  0
POLYLINE
  5
11D
330
1F
100
AcDbEntity
  8
_U+30EC_U+30A4_U+30E4_U+30FC 1
 62
   179
420
  2234388
370
    25
100
AcDb2dPolyline
 66
     1
 10
0.0
 20
0.0
 30
0.0
  0
VERTEX
  5
11E
330
11D
100
AcDbEntity
  8
_U+30EC_U+30A4_U+30E4_U+30FC 1
 62
   179
420
  2234388
370
    25
100
AcDbVertex
100
AcDb2dVertex
 10
91.95886796135817
 20
-143.5120842468911
 30
0.0
  0
VERTEX
  5
11F
330
11D
100
AcDbEntity
  8
_U+30EC_U+30A4_U+30E4_U+30FC 1
 62
   179
420
  2234388
370
    25
100
AcDbVertex
100
AcDb2dVertex
 10
91.95886796135817
 20
-137.5120413542396
 30
0.0
  0
SEQEND
  5
120
330
11D
100
AcDbEntity
  8
_U+30EC_U+30A4_U+30E4_U+30FC 1
 62
   179
420
  2234388
370
    25
  0
POLYLINE
  5
121
330
1F
100
AcDbEntity
  8
_U+30EC_U+30A4_U+30E4_U+30FC 1
 62
   179
420
  2234388
370
    25
100
AcDb2dPolyline
 66
     1
 10
0.0
 20
0.0
 30
0.0
  0
VERTEX
  5
122
330
121
100
AcDbEntity
  8
_U+30EC_U+30A4_U+30E4_U+30FC 1
 62
   179
420
  2234388
370
    25
100
AcDbVertex
100
AcDb2dVertex
 10
90.95358909876225
 20
-144.5724631054042
 30
0.0
  0
VERTEX
  5
123
330
121
100
AcDbEntity
  8
_U+30EC_U+30A4_U+30E4_U+30FC 1
 62
   179
420
  2234388
370
    25
100
AcDbVertex
100
AcDb2dVertex
 10
90.95358909876225
 20
-138.3946317538671
 30
0.0
  0
SEQEND
  5
124
330
121
100
AcDbEntity
  8
_U+30EC_U+30A4_U+30E4_U+30FC 1
 62
   179
420
  2234388
370
    25
  0
POLYLINE
  5
125
330
1F
100
AcDbEntity
  8
_U+30EC_U+30A4_U+30E4_U+30FC 1
 62
   179
420
  2234388
370
     9
100
AcDb2dPolyline
 66
     1
 10
0.0
 20
0.0
 30
0.0
  0
VERTEX
  5
126
330
125
100
AcDbEntity
  8
_U+30EC_U+30A4_U+30E4_U+30FC 1
 62
   179
420
  2234388
370
     9
100
AcDbVertex
100
AcDb2dVertex
 10
84.53194188017996
 20
-136.4048091971274
 30
0.0
  0
VERTEX
  5
127
330
125
100
AcDbEntity
  8
_U+30EC_U+30A4_U+30E4_U+30FC 1
 62
   179
420
  2234388
370
     9
100
AcDbVertex
100
AcDb2dVertex
 10
85.08897613941298
 20
-137.2356155052419
 30
0.0
  0
SEQEND
  5
128
330
125
100
AcDbEntity
  8
_U+30EC_U+30A4_U+30E4_U+30FC 1
 62
   179
420
  2234388
370
     9
  0
POLYLINE
  5
129
330
1F
100
AcDbEntity
  8
_U+30EC_U+30A4_U+30E4_U+30FC 1
 62
   179
420
  2234388
370
     9
100
AcDb2dPolyline
 66
     1
 10
0.0
 20
0.0
 30
0.0
  0
VERTEX
  5
12A
330
129
100
AcDbEntity
  8
_U+30EC_U+30A4_U+30E4_U+30FC 1
 62
   179
420
  2234388
370
     9
100
AcDbVertex
100
AcDb2dVertex
 10
85.02216012736507
 20
-136.2380881074878
 30
0.0
  0
VERTEX
  5
12B
330
129
100
AcDbEntity
  8
_U+30EC_U+30A4_U+30E4_U+30FC 1
 62
   179
420
  2234388
370
     9
100
AcDbVertex
100
AcDb2dVertex
 10
85.08883349092804
 20
-137.2357446963226
 30
0.0
  0
SEQEND
  5
12C
330
129
100
AcDbEntity
  8
_U+30EC_U+30A4_U+30E4_U+30FC 1
 62
   179
420
  2234388
370
     9
  0
POLYLINE
  5
12D
330
1F
100
AcDbEntity
  8
_U+30EC_U+30A4_U+30E4_U+30FC 1
 62
   179
420
  2234388
370
     9
100
AcDb2dPolyline
 66
     1
 10
0.0
 20
0.0
 30
0.0
  0
VERTEX
  5
12E
330
12D
100
AcDbEntity
  8
_U+30EC_U+30A4_U+30E4_U+30FC 1
 62
   179
420
  2234388
370
     9
100
AcDbVertex
100
AcDb2dVertex
 10
84.31314871057727
 20
-134.8755528430715
 30
0.0
  0
VERTEX
  5
12F
330
12D
100
AcDbEntity
  8
_U+30EC_U+30A4_U+30E4_U+30FC 1
 62
   179
420
  2234388
370
     9
100
AcDbVertex
100
AcDb2dVertex
 10
85.08890616091126
 20
-137.2356370370887
 30
0.0
  0
SEQEND
  5
130
330
12D
100
AcDbEntity
  8
_U+30EC_U+30A4_U+30E4_U+30FC 1
 62
   179
420
  2234388
370
     9
  0
INSERT
  5
132
330
1F
100
AcDbEntity
  8
_U+30EC_U+30A4_U+30E4_U+30FC 1
100
AcDbBlockReference
  2
block 6
 10
0.0
 20
0.0
 30
0.0
  0
POLYLINE
  5
18D
330
1F
100
AcDbEntity
  8
_U+30EC_U+30A4_U+30E4_U+30FC 1
 62
   179
420
  2234388
370
    25
100
AcDb2dPolyline
 66
     1
 10
0.0
 20
0.0
 30
0.0
  0
VERTEX
  5
18E
330
18D
100
AcDbEntity
  8
_U+30EC_U+30A4_U+30E4_U+30FC 1
 62
   179
420
  2234388
370
    25
100
AcDbVertex
100
AcDb2dVertex
 10
83.95899558617442
 20
-138.3947609449478
 30
0.0
  0
VERTEX
  5
18F
330
18D
100
AcDbEntity
  8
_U+30EC_U+30A4_U+30E4_U+30FC 1
 62
   179
420
  2234388
370
    25
100
AcDbVertex
100
AcDb2dVertex
 10
84.9534735361279
 20
-138.3947609449478
 30
0.0
  0
SEQEND
  5
190
330
18D
100
AcDbEntity
  8
_U+30EC_U+30A4_U+30E4_U+30FC 1
 62
   179
420
  2234388
370
    25
  0
POLYLINE
  5
191
330
1F
100
AcDbEntity
  8
_U+30EC_U+30A4_U+30E4_U+30FC 1
  6
AI-Linetype-1
 62
   154
420
    23468
370
    25
100
AcDb2dPolyline
 66
     1
 10
0.0
 20
0.0
 30
0.0
  0
VERTEX
  5
192
330
191
100
AcDbEntity
  8
_U+30EC_U+30A4_U+30E4_U+30FC 1
  6
AI-Linetype-1
 62
   154
420
    23468
370
    25
100
AcDbVertex
100
AcDb2dVertex
 10
117.9591866092363
 20
-143.0850431296476
 30
0.0
  0
VERTEX
  5
193
330
191
100
AcDbEntity
  8
_U+30EC_U+30A4_U+30E4_U+30FC 1
  6
AI-Linetype-1
 62
   154
420
    23468
370
    25
100
AcDbVertex
100
AcDb2dVertex
 10
102.9594238871562
 20
-143.0850431296476
 30
0.0
  0
SEQEND
  5
195
330
191
100
AcDbEntity
  8
_U+30EC_U+30A4_U+30E4_U+30FC 1
  6
AI-Linetype-1
 62
   154
420
    23468
370
    25
  0
POLYLINE
  5
196
330
1F
100
AcDbEntity
  8
_U+30EC_U+30A4_U+30E4_U+30FC 1
 62
   179
420
  2234388
370
     9
100
AcDb2dPolyline
 66
     1
 10
0.0
 20
0.0
 30
0.0
  0
VERTEX
  5
197
330
196
100
AcDbEntity
  8
_U+30EC_U+30A4_U+30E4_U+30FC 1
 62
   179
420
  2234388
370
     9
100
AcDbVertex
100
AcDb2dVertex
 10
104.7756351632864
 20
-143.1658306187767
 30
0.0
  0
VERTEX
  5
198
330
196
100
AcDbEntity
  8
_U+30EC_U+30A4_U+30E4_U+30FC 1
 62
   179
420
  2234388
370
     9
100
AcDbVertex
100
AcDb2dVertex
 10
104.7756351632864
 20
-153.043608394085
 30
0.0
  0
SEQEND
  5
199
330
196
100
AcDbEntity
  8
_U+30EC_U+30A4_U+30E4_U+30FC 1
 62
   179
420
  2234388
370
     9
  0
INSERT
  5
19B
330
1F
100
AcDbEntity
  8
_U+30EC_U+30A4_U+30E4_U+30FC 1
100
AcDbBlockReference
  2
block 7
 10
0.0
 20
0.0
 30
0.0
  0
POLYLINE
  5
1C2
330
1F
100
AcDbEntity
  8
_U+30EC_U+30A4_U+30E4_U+30FC 1
  6
AI-Linetype-2
 62
   154
420
    23468
370
    25
100
AcDb2dPolyline
 66
     1
 10
0.0
 20
0.0
 30
0.0
  0
VERTEX
  5
1C3
330
1C2
100
AcDbEntity
  8
_U+30EC_U+30A4_U+30E4_U+30FC 1
  6
AI-Linetype-2
 62
   154
420
    23468
370
    25
100
AcDbVertex
100
AcDb2dVertex
 10
83.40400416090492
 20
-163.3754497543493
 30
0.0
  0
VERTEX
  5
1C4
330
1C2
100
AcDbEntity
  8
_U+30EC_U+30A4_U+30E4_U+30FC 1
  6
AI-Linetype-2
 62
   154
420
    23468
370
    25
100
AcDbVertex
100
AcDb2dVertex
 10
83.40400416090492
 20
-148.375353288644
 30
0.0
  0
SEQEND
  5
1C6
330
1C2
100
AcDbEntity
  8
_U+30EC_U+30A4_U+30E4_U+30FC 1
  6
AI-Linetype-2
 62
   154
420
    23468
370
    25
  0
POLYLINE
  5
1C7
330
1F
100
AcDbEntity
  8
_U+30EC_U+30A4_U+30E4_U+30FC 1
 62
   179
420
  2234388
370
     9
100
AcDb2dPolyline
 66
     1
 10
0.0
 20
0.0
 30
0.0
  0
VERTEX
  5
1C8
330
1C7
100
AcDbEntity
  8
_U+30EC_U+30A4_U+30E4_U+30FC 1
 62
   179
420
  2234388
370
     9
100
AcDbVertex
100
AcDb2dVertex
 10
99.01442351514983
 20
-154.5723695156646
 30
0.0
  0
VERTEX
  5
1C9
330
1C7
100
AcDbEntity
  8
_U+30EC_U+30A4_U+30E4_U+30FC 1
 62
   179
420
  2234388
370
     9
100
AcDbVertex
100
AcDb2dVertex
 10
83.43152186109334
 20
-154.5723695156646
 30
0.0
  0
SEQEND
  5
1CA
330
1C7
100
AcDbEntity
  8
_U+30EC_U+30A4_U+30E4_U+30FC 1
 62
   179
420
  2234388
370
     9
  0
POLYLINE
  5
1CB
330
1F
100
AcDbEntity
  8
_U+30EC_U+30A4_U+30E4_U+30FC 1
 62
   179
420
  2234388
370
     9
100
AcDb2dPolyline
 66
     1
 10
0.0
 20
0.0
 30
0.0
  0
VERTEX
  5
1CC
330
1CB
100
AcDbEntity
  8
_U+30EC_U+30A4_U+30E4_U+30FC 1
 62
   179
420
  2234388
370
     9
100
AcDbVertex
100
AcDb2dVertex
 10
112.7391725470241
 20
-151.3532722942472
 30
0.0
  0
VERTEX
  5
1CD
330
1CB
100
AcDbEntity
  8
_U+30EC_U+30A4_U+30E4_U+30FC 1
 62
   179
420
  2234388
370
     9
100
AcDbVertex
100
AcDb2dVertex
 10
112.400148236467
 20
-159.0526515986917
 30
0.0
  0
VERTEX
  5
1CE
330
1CB
100
AcDbEntity
  8
_U+30EC_U+30A4_U+30E4_U+30FC 1
 62
   179
420
  2234388
370
     9
100
AcDbVertex
100
AcDb2dVertex
 10
112.211416216454
 20
-159.159191176573
 30
0.0
  0
VERTEX
  5
1CF
330
1CB
100
AcDbEntity
  8
_U+30EC_U+30A4_U+30E4_U+30FC 1
 62
   179
420
  2234388
370
     9
100
AcDbVertex
100
AcDb2dVertex
 10
112.4117915826148
 20
-151.2425124743964
 30
0.0
  0
VERTEX
  5
1D0
330
1CB
100
AcDbEntity
  8
_U+30EC_U+30A4_U+30E4_U+30FC 1
 62
   179
420
  2234388
370
     9
100
AcDbVertex
100
AcDb2dVertex
 10
114.0402128570287
 20
-150.3838439565447
 30
0.0
  0
VERTEX
  5
1D1
330
1CB
100
AcDbEntity
  8
_U+30EC_U+30A4_U+30E4_U+30FC 1
 62
   179
420
  2234388
370
     9
100
AcDbVertex
100
AcDb2dVertex
 10
113.9918846269247
 20
-152.2874314669195
 30
0.0
  0
SEQEND
  5
1D2
330
1CB
100
AcDbEntity
  8
_U+30EC_U+30A4_U+30E4_U+30FC 1
 62
   179
420
  2234388
370
     9
  0
POLYLINE
  5
1D3
330
1F
100
AcDbEntity
  8
_U+30EC_U+30A4_U+30E4_U+30FC 1
 62
   179
420
  2234388
370
     9
100
AcDb2dPolyline
 66
     1
 10
0.0
 20
0.0
 30
0.0
  0
VERTEX
  5
1D4
330
1D3
100
AcDbEntity
  8
_U+30EC_U+30A4_U+30E4_U+30FC 1
 62
   179
420
  2234388
370
     9
100
AcDbVertex
100
AcDb2dVertex
 10
121.2733577001233
 20
-148.1992658456545
 30
0.0
  0
VERTEX
  5
1D5
330
1D3
100
AcDbEntity
  8
_U+30EC_U+30A4_U+30E4_U+30FC 1
 62
   179
420
  2234388
370
     9
100
AcDbVertex
100
AcDb2dVertex
 10
121.2691213092688
 20
-148.3340336746678
 30
0.0
  0
VERTEX
  5
1D6
330
1D3
100
AcDbEntity
  8
_U+30EC_U+30A4_U+30E4_U+30FC 1
 62
   179
420
  2234388
370
     9
100
AcDbVertex
100
AcDb2dVertex
 10
113.6480640974967
 20
-152.8023225190368
 30
0.0
  0
VERTEX
  5
1D7
330
1D3
100
AcDbEntity
  8
_U+30EC_U+30A4_U+30E4_U+30FC 1
 62
   179
420
  2234388
370
     9
100
AcDbVertex
100
AcDb2dVertex
 10
113.6974527710548
 20
-150.8599346207594
 30
0.0
  0
SEQEND
  5
1D8
330
1D3
100
AcDbEntity
  8
_U+30EC_U+30A4_U+30E4_U+30FC 1
 62
   179
420
  2234388
370
     9
  0
POLYLINE
  5
1D9
330
1F
100
AcDbEntity
  8
_U+30EC_U+30A4_U+30E4_U+30FC 1
 62
   179
420
  2234388
370
     9
100
AcDb2dPolyline
 66
     1
 10
0.0
 20
0.0
 30
0.0
  0
VERTEX
  5
1DA
330
1D9
100
AcDbEntity
  8
_U+30EC_U+30A4_U+30E4_U+30FC 1
 62
   179
420
  2234388
370
     9
100
AcDbVertex
100
AcDb2dVertex
 10
113.6975981110206
 20
-150.8599130889126
 30
0.0
  0
VERTEX
  5
1DB
330
1D9
100
AcDbEntity
  8
_U+30EC_U+30A4_U+30E4_U+30FC 1
 62
   179
420
  2234388
370
     9
100
AcDbVertex
100
AcDb2dVertex
 10
112.424420010753
 20
-151.4995165975961
 30
0.0
  0
SEQEND
  5
1DC
330
1D9
100
AcDbEntity
  8
_U+30EC_U+30A4_U+30E4_U+30FC 1
 62
   179
420
  2234388
370
     9
  0
POLYLINE
  5
1DD
330
1F
100
AcDbEntity
  8
_U+30EC_U+30A4_U+30E4_U+30FC 1
 62
   179
420
  2234388
370
     9
100
AcDb2dPolyline
 66
     1
 10
0.0
 20
0.0
 30
0.0
  0
VERTEX
  5
1DE
330
1DD
100
AcDbEntity
  8
_U+30EC_U+30A4_U+30E4_U+30FC 1
 62
   179
420
  2234388
370
     9
100
AcDbVertex
100
AcDb2dVertex
 10
113.6665868686917
 20
-152.4843186739015
 30
0.0
  0
VERTEX
  5
1DF
330
1DD
100
AcDbEntity
  8
_U+30EC_U+30A4_U+30E4_U+30FC 1
 62
   179
420
  2234388
370
     9
100
AcDbVertex
100
AcDb2dVertex
 10
121.2735299548976
 20
-148.199481164122
 30
0.0
  0
SEQEND
  5
1E0
330
1DD
100
AcDbEntity
  8
_U+30EC_U+30A4_U+30E4_U+30FC 1
 62
   179
420
  2234388
370
     9
  0
POLYLINE
  5
1E1
330
1F
100
AcDbEntity
  8
_U+30EC_U+30A4_U+30E4_U+30FC 1
 62
   179
420
  2234388
370
     9
100
AcDb2dPolyline
 66
     1
 10
0.0
 20
0.0
 30
0.0
  0
VERTEX
  5
1E2
330
1E1
100
AcDbEntity
  8
_U+30EC_U+30A4_U+30E4_U+30FC 1
 62
   179
420
  2234388
370
     9
100
AcDbVertex
100
AcDb2dVertex
 10
134.1972996694129
 20
-155.9976270497593
 30
0.0
  0
VERTEX
  5
1E3
330
1E1
100
AcDbEntity
  8
_U+30EC_U+30A4_U+30E4_U+30FC 1
 62
   179
420
  2234388
370
     9
100
AcDbVertex
100
AcDb2dVertex
 10
121.2694012232769
 20
-148.3338829517406
 30
0.0
  0
VERTEX
  5
1E4
330
1E1
100
AcDbEntity
  8
_U+30EC_U+30A4_U+30E4_U+30FC 1
 62
   179
420
  2234388
370
     9
100
AcDbVertex
100
AcDb2dVertex
 10
121.2732823386596
 20
-148.199481164122
 30
0.0
  0
VERTEX
  5
1E5
330
1E1
100
AcDbEntity
  8
_U+30EC_U+30A4_U+30E4_U+30FC 1
 62
   179
420
  2234388
370
     9
100
AcDbVertex
100
AcDb2dVertex
 10
134.2110531365454
 20
-155.8533421444677
 30
0.0
  0
SEQEND
  5
1E6
330
1E1
100
AcDbEntity
  8
_U+30EC_U+30A4_U+30E4_U+30FC 1
 62
   179
420
  2234388
370
     9
  0
POLYLINE
  5
1E7
330
1F
100
AcDbEntity
  8
_U+30EC_U+30A4_U+30E4_U+30FC 1
 62
   179
420
  2234388
370
     9
100
AcDb2dPolyline
 66
     1
 10
0.0
 20
0.0
 30
0.0
  0
VERTEX
  5
1E8
330
1E7
100
AcDbEntity
  8
_U+30EC_U+30A4_U+30E4_U+30FC 1
 62
   179
420
  2234388
370
     9
100
AcDbVertex
100
AcDb2dVertex
 10
125.1394492366324
 20
-166.8233228478341
 30
0.0
  0
VERTEX
  5
1E9
330
1E7
100
AcDbEntity
  8
_U+30EC_U+30A4_U+30E4_U+30FC 1
 62
   179
420
  2234388
370
     9
100
AcDbVertex
100
AcDb2dVertex
 10
112.2115507904964
 20
-159.1592342402666
 30
0.0
  0
VERTEX
  5
1EA
330
1E7
100
AcDbEntity
  8
_U+30EC_U+30A4_U+30E4_U+30FC 1
 62
   179
420
  2234388
370
     9
100
AcDbVertex
100
AcDb2dVertex
 10
112.4002881934711
 20
-159.0526946623853
 30
0.0
  0
VERTEX
  5
1EB
330
1E7
100
AcDbEntity
  8
_U+30EC_U+30A4_U+30E4_U+30FC 1
 62
   179
420
  2234388
370
     9
100
AcDbVertex
100
AcDb2dVertex
 10
125.3846269929865
 20
-166.6808035539787
 30
0.0
  0
SEQEND
  5
1EC
330
1E7
100
AcDbEntity
  8
_U+30EC_U+30A4_U+30E4_U+30FC 1
 62
   179
420
  2234388
370
     9
  0
POLYLINE
  5
1ED
330
1F
100
AcDbEntity
  8
_U+30EC_U+30A4_U+30E4_U+30FC 1
 62
   179
420
  2234388
370
     9
100
AcDb2dPolyline
 66
     1
 10
0.0
 20
0.0
 30
0.0
  0
VERTEX
  5
1EE
330
1ED
100
AcDbEntity
  8
_U+30EC_U+30A4_U+30E4_U+30FC 1
 62
   179
420
  2234388
370
     9
100
AcDbVertex
100
AcDb2dVertex
 10
113.6479941189947
 20
-152.8023225190368
 30
0.0
  0
VERTEX
  5
1EF
330
1ED
100
AcDbEntity
  8
_U+30EC_U+30A4_U+30E4_U+30FC 1
 62
   179
420
  2234388
370
     9
100
AcDbVertex
100
AcDb2dVertex
 10
126.6510279444793
 20
-160.4953499286804
 30
0.0
  0
SEQEND
  5
1F0
330
1ED
100
AcDbEntity
  8
_U+30EC_U+30A4_U+30E4_U+30FC 1
 62
   179
420
  2234388
370
     9
  0
POLYLINE
  5
1F1
330
1F
100
AcDbEntity
  8
_U+30EC_U+30A4_U+30E4_U+30FC 1
 62
   179
420
  2234388
370
     9
100
AcDb2dPolyline
 66
     1
 10
0.0
 20
0.0
 30
0.0
  0
VERTEX
  5
1F2
330
1F1
100
AcDbEntity
  8
_U+30EC_U+30A4_U+30E4_U+30FC 1
 62
   179
420
  2234388
370
     9
100
AcDbVertex
100
AcDb2dVertex
 10
114.0400406022544
 20
-150.3838439565447
 30
0.0
  0
VERTEX
  5
1F3
330
1F1
100
AcDbEntity
  8
_U+30EC_U+30A4_U+30E4_U+30FC 1
 62
   179
420
  2234388
370
     9
100
AcDbVertex
100
AcDb2dVertex
 10
115.6621099818674
 20
-151.3497626032216
 30
0.0
  0
SEQEND
  5
1F4
330
1F1
100
AcDbEntity
  8
_U+30EC_U+30A4_U+30E4_U+30FC 1
 62
   179
420
  2234388
370
     9
  0
POLYLINE
  5
1F5
330
1F
100
AcDbEntity
  8
_U+30EC_U+30A4_U+30E4_U+30FC 1
 62
   179
420
  2234388
370
     9
100
AcDb2dPolyline
 66
     1
 10
0.0
 20
0.0
 30
0.0
  0
VERTEX
  5
1F6
330
1F5
100
AcDbEntity
  8
_U+30EC_U+30A4_U+30E4_U+30FC 1
 62
   179
420
  2234388
370
     9
100
AcDbVertex
100
AcDb2dVertex
 10
112.7391725470241
 20
-151.3532722942472
 30
0.0
  0
VERTEX
  5
1F7
330
1F5
100
AcDbEntity
  8
_U+30EC_U+30A4_U+30E4_U+30FC 1
 62
   179
420
  2234388
370
     9
100
AcDbVertex
100
AcDb2dVertex
 10
113.6708555573163
 20
-151.9163085557709
 30
0.0
  0
SEQEND
  5
1F8
330
1F5
100
AcDbEntity
  8
_U+30EC_U+30A4_U+30E4_U+30FC 1
 62
   179
420
  2234388
370
     9
  0
SPLINE
  5
1F9
330
1F
100
AcDbEntity
  8
_U+30EC_U+30A4_U+30E4_U+30FC 1
 62
   179
420
  2234388
370
     9
100
AcDbSpline
210
0.0
220
0.0
230
1.0
 70
     8
 71
     3
 72
    11
 73
     7
 74
     0
 42
0.0000000001
 43
0.0000000001
 12
1.0
 22
0.0
 32
0.0
 13
1.0
 23
0.0
 33
0.0
 40
0.0
 40
0.0
 40
0.0
 40
0.0
 40
1.0
 40
1.0
 40
1.0
 40
2.0
 40
2.0
 40
2.0
 40
2.0
 10
114.4713450251609
 20
-155.9924809383782
 30
0.0
 10
114.5704722647873
 20
-155.7804783749546
 30
0.0
 10
114.5369579452698
 20
-155.4463902402725
 30
0.0
 10
114.3630398358434
 20
-155.1310132804447
 30
0.0
 10
114.1379674414227
 20
-154.7200133890544
 30
0.0
 10
113.7583771315268
 20
-154.4917758131566
 30
0.0
 10
113.4962645776779
 20
-154.601480572515
 30
0.0
  0
SPLINE
  5
1FA
330
1F
100
AcDbEntity
  8
_U+30EC_U+30A4_U+30E4_U+30FC 1
 62
   179
420
  2234388
370
     9
100
AcDbSpline
210
0.0
220
0.0
230
1.0
 70
    11
 71
     3
 72
    17
 73
    13
 74
     0
 42
0.0000000001
 43
0.0000000001
 12
1.0
 22
0.0
 32
0.0
 13
1.0
 23
0.0
 33
0.0
 40
0.0
 40
0.0
 40
0.0
 40
0.0
 40
1.0
 40
1.0
 40
1.0
 40
2.0
 40
2.0
 40
2.0
 40
3.0
 40
3.0
 40
3.0
 40
4.0
 40
4.0
 40
4.0
 40
4.0
 10
114.5037289227223
 20
-155.9779900054934
 30
0.0
 10
114.2419662613836
 20
-156.1215858916879
 30
0.0
 10
113.8394445346641
 20
-155.8912166629586
 30
0.0
 10
113.6044944055317
 20
-155.463292739997
 30
0.0
 10
113.3688391084172
 20
-155.0346797979384
 30
0.0
 10
113.3910653572588
 20
-154.5714651780998
 30
0.0
 10
113.6521228506153
 20
-154.4275463142035
 30
0.0
 10
113.9138801289922
 20
-154.2836059184604
 30
0.0
 10
114.3164018557118
 20
-154.5146856981335
 30
0.0
 10
114.5520571528263
 20
-154.9422435796998
 30
0.0
 10
114.7870072819586
 20
-155.3705120122099
 30
0.0
 10
114.7654862010992
 20
-155.834071141597
 30
0.0
 10
114.5037289227223
 20
-155.9779900054934
 30
0.0
  0
SPLINE
  5
1FB
330
1F
100
AcDbEntity
  8
_U+30EC_U+30A4_U+30E4_U+30FC 1
 62
   179
420
  2234388
370
     9
100
AcDbSpline
210
0.0
220
0.0
230
1.0
 70
     8
 71
     3
 72
    11
 73
     7
 74
     0
 42
0.0000000001
 43
0.0000000001
 12
1.0
 22
0.0
 32
0.0
 13
1.0
 23
0.0
 33
0.0
 40
0.0
 40
0.0
 40
0.0
 40
0.0
 40
1.0
 40
1.0
 40
1.0
 40
2.0
 40
2.0
 40
2.0
 40
2.0
 10
114.4713450251609
 20
-159.1538728104177
 30
0.0
 10
114.5704722647873
 20
-158.9415042055988
 30
0.0
 10
114.5369579452698
 20
-158.6074376027635
 30
0.0
 10
114.3630398358434
 20
-158.2920391110889
 30
0.0
 10
114.1379674414227
 20
-157.8810607515454
 30
0.0
 10
113.7583771315268
 20
-157.6531676851961
 30
0.0
 10
113.4962645776779
 20
-157.762527935006
 30
0.0
  0
SPLINE
  5
1FC
330
1F
100
AcDbEntity
  8
_U+30EC_U+30A4_U+30E4_U+30FC 1
 62
   179
420
  2234388
370
     9
100
AcDbSpline
210
0.0
220
0.0
230
1.0
 70
    11
 71
     3
 72
    17
 73
    13
 74
     0
 42
0.0000000001
 43
0.0000000001
 12
1.0
 22
0.0
 32
0.0
 13
1.0
 23
0.0
 33
0.0
 40
0.0
 40
0.0
 40
0.0
 40
0.0
 40
1.0
 40
1.0
 40
1.0
 40
2.0
 40
2.0
 40
2.0
 40
3.0
 40
3.0
 40
3.0
 40
4.0
 40
4.0
 40
4.0
 40
4.0
 10
114.5037289227223
 20
-159.1393603456861
 30
0.0
 10
114.2419662613836
 20
-159.2825901904853
 30
0.0
 10
113.8394445346641
 20
-159.0518764522075
 30
0.0
 10
113.6044944055317
 20
-158.6239525292459
 30
0.0
 10
113.3688391084172
 20
-158.1960501381311
 30
0.0
 10
113.3910653572588
 20
-157.7321464991954
 30
0.0
 10
113.6521228506153
 20
-157.5889166543962
 30
0.0
 10
113.9138801289922
 20
-157.4449762586531
 30
0.0
 10
114.3164018557118
 20
-157.6756899969309
 30
0.0
 10
114.5520571528263
 20
-158.1036139198925
 30
0.0
 10
114.7870072819586
 20
-158.5315378428541
 30
0.0
 10
114.7654862010992
 20
-158.9954414817898
 30
0.0
 10
114.5037289227223
 20
-159.1393603456861
 30
0.0
  0
SPLINE
  5
1FD
330
1F
100
AcDbEntity
  8
_U+30EC_U+30A4_U+30E4_U+30FC 1
 62
   179
420
  2234388
370
     9
100
AcDbSpline
210
0.0
220
0.0
230
1.0
 70
     8
 71
     3
 72
    11
 73
     7
 74
     0
 42
0.0000000001
 43
0.0000000001
 12
1.0
 22
0.0
 32
0.0
 13
1.0
 23
0.0
 33
0.0
 40
0.0
 40
0.0
 40
0.0
 40
0.0
 40
1.0
 40
1.0
 40
1.0
 40
2.0
 40
2.0
 40
2.0
 40
2.0
 10
118.3043797938967
 20
-158.2690000350313
 30
0.0
 10
118.4028018655409
 20
-158.0573419811562
 30
0.0
 10
118.3699927140056
 20
-157.7232538464741
 30
0.0
 10
118.1960746045791
 20
-157.4078768866463
 30
0.0
 10
117.9702970421763
 20
-156.9965324857075
 30
0.0
 10
117.5907067322804
 20
-156.7686394193582
 30
0.0
 10
117.3292993464137
 20
-156.8783657105634
 30
0.0
  0
SPLINE
  5
1FE
330
1F
100
AcDbEntity
  8
_U+30EC_U+30A4_U+30E4_U+30FC 1
 62
   179
420
  2234388
370
     9
100
AcDbSpline
210
0.0
220
0.0
230
1.0
 70
    11
 71
     3
 72
    17
 73
    13
 74
     0
 42
0.0000000001
 43
0.0000000001
 12
1.0
 22
0.0
 32
0.0
 13
1.0
 23
0.0
 33
0.0
 40
0.0
 40
0.0
 40
0.0
 40
0.0
 40
1.0
 40
1.0
 40
1.0
 40
2.0
 40
2.0
 40
2.0
 40
3.0
 40
3.0
 40
3.0
 40
4.0
 40
4.0
 40
4.0
 40
4.0
 10
118.336763691458
 20
-158.2548751435418
 30
0.0
 10
118.0750010301194
 20
-158.3984710297363
 30
0.0
 10
117.6724793033998
 20
-158.1677572914585
 30
0.0
 10
117.4368240062853
 20
-157.7398333684969
 30
0.0
 10
117.201873877153
 20
-157.3115649359868
 30
0.0
 10
117.2233949580124
 20
-156.8480058065996
 30
0.0
 10
117.485157619351
 20
-156.7040654108565
 30
0.0
 10
117.746914897728
 20
-156.5604910565088
 30
0.0
 10
118.1494366244476
 20
-156.7912047947866
 30
0.0
 10
118.3843867535799
 20
-157.2187842081997
 30
0.0
 10
118.6200420506944
 20
-157.6473971502583
 30
0.0
 10
118.598520969835
 20
-158.1109562796454
 30
0.0
 10
118.336763691458
 20
-158.2548751435418
 30
0.0
  0
SPLINE
  5
1FF
330
1F
100
AcDbEntity
  8
_U+30EC_U+30A4_U+30E4_U+30FC 1
 62
   179
420
  2234388
370
     9
100
AcDbSpline
210
0.0
220
0.0
230
1.0
 70
     8
 71
     3
 72
    11
 73
     7
 74
     0
 42
0.0000000001
 43
0.0000000001
 12
1.0
 22
0.0
 32
0.0
 13
1.0
 23
0.0
 33
0.0
 40
0.0
 40
0.0
 40
0.0
 40
0.0
 40
1.0
 40
1.0
 40
1.0
 40
2.0
 40
2.0
 40
2.0
 40
2.0
 10
118.3043797938967
 20
-161.430370375224
 30
0.0
 10
118.4028018655409
 20
-161.218712321349
 30
0.0
 10
118.3699927140056
 20
-160.8846241866669
 30
0.0
 10
118.1960746045791
 20
-160.5685366758952
 30
0.0
 10
117.9702970421763
 20
-160.1579028259002
 30
0.0
 10
117.5907067322804
 20
-159.9296652500024
 30
0.0
 10
117.3292993464137
 20
-160.0393700093608
 30
0.0
  0
SPLINE
  5
200
330
1F
100
AcDbEntity
  8
_U+30EC_U+30A4_U+30E4_U+30FC 1
 62
   179
420
  2234388
370
     9
100
AcDbSpline
210
0.0
220
0.0
230
1.0
 70
    11
 71
     3
 72
    17
 73
    13
 74
     0
 42
0.0000000001
 43
0.0000000001
 12
1.0
 22
0.0
 32
0.0
 13
1.0
 23
0.0
 33
0.0
 40
0.0
 40
0.0
 40
0.0
 40
0.0
 40
1.0
 40
1.0
 40
1.0
 40
2.0
 40
2.0
 40
2.0
 40
3.0
 40
3.0
 40
3.0
 40
4.0
 40
4.0
 40
4.0
 40
4.0
 10
118.336763691458
 20
-161.4159225060328
 30
0.0
 10
118.0750010301194
 20
-161.5598629017758
 30
0.0
 10
117.6724793033998
 20
-161.329149163498
 30
0.0
 10
117.4368240062853
 20
-160.9012252405364
 30
0.0
 10
117.201873877153
 20
-160.4726122984778
 30
0.0
 10
117.2233949580124
 20
-160.0090531690906
 30
0.0
 10
117.485157619351
 20
-159.8654788147428
 30
0.0
 10
117.746914897728
 20
-159.7215384189998
 30
0.0
 10
118.1494366244476
 20
-159.9526181986729
 30
0.0
 10
118.3843867535799
 20
-160.3801760802392
 30
0.0
 10
118.6200420506944
 20
-160.8088105541446
 30
0.0
 10
118.598520969835
 20
-161.2720036421364
 30
0.0
 10
118.336763691458
 20
-161.4159225060328
 30
0.0
  0
SPLINE
  5
201
330
1F
100
AcDbEntity
  8
_U+30EC_U+30A4_U+30E4_U+30FC 1
 62
   179
420
  2234388
370
     9
100
AcDbSpline
210
0.0
220
0.0
230
1.0
 70
     8
 71
     3
 72
    11
 73
     7
 74
     0
 42
0.0000000001
 43
0.0000000001
 12
1.0
 22
0.0
 32
0.0
 13
1.0
 23
0.0
 33
0.0
 40
0.0
 40
0.0
 40
0.0
 40
0.0
 40
1.0
 40
1.0
 40
1.0
 40
2.0
 40
2.0
 40
2.0
 40
2.0
 10
116.4205800507153
 20
-158.7445739349232
 30
0.0
 10
116.5190021223595
 20
-158.5322053301044
 30
0.0
 10
116.4861929708242
 20
-158.1981387272691
 30
0.0
 10
116.3122748613977
 20
-157.8823957260459
 30
0.0
 10
116.087202466977
 20
-157.4717618760509
 30
0.0
 10
115.706906989099
 20
-157.2438688097016
 30
0.0
 10
115.4454996032323
 20
-157.3532290595115
 30
0.0
  0
SPLINE
  5
202
330
1F
100
AcDbEntity
  8
_U+30EC_U+30A4_U+30E4_U+30FC 1
 62
   179
420
  2234388
370
     9
100
AcDbSpline
210
0.0
220
0.0
230
1.0
 70
    11
 71
     3
 72
    17
 73
    13
 74
     0
 42
0.0000000001
 43
0.0000000001
 12
1.0
 22
0.0
 32
0.0
 13
1.0
 23
0.0
 33
0.0
 40
0.0
 40
0.0
 40
0.0
 40
0.0
 40
1.0
 40
1.0
 40
1.0
 40
2.0
 40
2.0
 40
2.0
 40
3.0
 40
3.0
 40
3.0
 40
4.0
 40
4.0
 40
4.0
 40
4.0
 10
116.4529693312383
 20
-158.7301045338852
 30
0.0
 10
116.1912066698997
 20
-158.8733343786845
 30
0.0
 10
115.7886849431801
 20
-158.6426206404066
 30
0.0
 10
115.5537348140478
 20
-158.214696717445
 30
0.0
 10
115.3180795169333
 20
-157.7867943263302
 30
0.0
 10
115.3396005977927
 20
-157.3228906873945
 30
0.0
 10
115.6013632591313
 20
-157.1792948012
 30
0.0
 10
115.8631205375083
 20
-157.0357204468522
 30
0.0
 10
116.2656422642279
 20
-157.2660896755815
 30
0.0
 10
116.5012975613423
 20
-157.6943581080916
 30
0.0
 10
116.7362476904747
 20
-158.1226265406017
 30
0.0
 10
116.7147266096153
 20
-158.5861856699889
 30
0.0
 10
116.4529693312383
 20
-158.7301045338852
 30
0.0
  0
SPLINE
  5
203
330
1F
100
AcDbEntity
  8
_U+30EC_U+30A4_U+30E4_U+30FC 1
 62
   179
420
  2234388
370
     9
100
AcDbSpline
210
0.0
220
0.0
230
1.0
 70
     8
 71
     3
 72
    11
 73
     7
 74
     0
 42
0.0000000001
 43
0.0000000001
 12
1.0
 22
0.0
 32
0.0
 13
1.0
 23
0.0
 33
0.0
 40
0.0
 40
0.0
 40
0.0
 40
0.0
 40
1.0
 40
1.0
 40
1.0
 40
2.0
 40
2.0
 40
2.0
 40
2.0
 10
121.9734118686494
 20
-160.4554083528983
 30
0.0
 10
122.0718339402937
 20
-160.2437502990233
 30
0.0
 10
122.0383196207762
 20
-159.9096621643412
 30
0.0
 10
121.8651066793319
 20
-159.5942852045133
 30
0.0
 10
121.639329116929
 20
-159.1836513545183
 30
0.0
 10
121.2597388070332
 20
-158.9554137786205
 30
0.0
 10
120.9976262531843
 20
-159.0651185379789
 30
0.0
  0
SPLINE
  5
204
330
1F
100
AcDbEntity
  8
_U+30EC_U+30A4_U+30E4_U+30FC 1
 62
   179
420
  2234388
370
     9
100
AcDbSpline
210
0.0
220
0.0
230
1.0
 70
    11
 71
     3
 72
    17
 73
    13
 74
     0
 42
0.0000000001
 43
0.0000000001
 12
1.0
 22
0.0
 32
0.0
 13
1.0
 23
0.0
 33
0.0
 40
0.0
 40
0.0
 40
0.0
 40
0.0
 40
1.0
 40
1.0
 40
1.0
 40
2.0
 40
2.0
 40
2.0
 40
3.0
 40
3.0
 40
3.0
 40
4.0
 40
4.0
 40
4.0
 40
4.0
 10
122.0057957662108
 20
-160.4416064391105
 30
0.0
 10
121.7440331048722
 20
-160.5848362839098
 30
0.0
 10
121.3408062101704
 20
-160.354122545632
 30
0.0
 10
121.1058560810381
 20
-159.9261986226704
 30
0.0
 10
120.8709059519058
 20
-159.4982962315555
 30
0.0
 10
120.8924270327652
 20
-159.0347371021684
 30
0.0
 10
121.1541896941038
 20
-158.8907967064253
 30
0.0
 10
121.4152418044986
 20
-158.7472223520775
 30
0.0
 10
121.8184686992003
 20
-158.9775915808068
 30
0.0
 10
122.0534188283327
 20
-159.405860013317
 30
0.0
 10
122.2890741254472
 20
-159.8337839362785
 30
0.0
 10
122.2675530445877
 20
-160.2976875752142
 30
0.0
 10
122.0057957662108
 20
-160.4416064391105
 30
0.0
  0
SPLINE
  5
205
330
1F
100
AcDbEntity
  8
_U+30EC_U+30A4_U+30E4_U+30FC 1
 62
   179
420
  2234388
370
     9
100
AcDbSpline
210
0.0
220
0.0
230
1.0
 70
     8
 71
     3
 72
    11
 73
     7
 74
     0
 42
0.0000000001
 43
0.0000000001
 12
1.0
 22
0.0
 32
0.0
 13
1.0
 23
0.0
 33
0.0
 40
0.0
 40
0.0
 40
0.0
 40
0.0
 40
1.0
 40
1.0
 40
1.0
 40
2.0
 40
2.0
 40
2.0
 40
2.0
 10
121.9734118686494
 20
-163.6166064383168
 30
0.0
 10
122.0718339402937
 20
-163.4049483844418
 30
0.0
 10
122.0383196207762
 20
-163.0708602497596
 30
0.0
 10
121.8651066793319
 20
-162.7554832899318
 30
0.0
 10
121.639329116929
 20
-162.344138888993
 30
0.0
 10
121.2597388070332
 20
-162.116611864039
 30
0.0
 10
120.9976262531843
 20
-162.2263166233974
 30
0.0
  0
SPLINE
  5
206
330
1F
100
AcDbEntity
  8
_U+30EC_U+30A4_U+30E4_U+30FC 1
 62
   179
420
  2234388
370
     9
100
AcDbSpline
210
0.0
220
0.0
230
1.0
 70
    11
 71
     3
 72
    17
 73
    13
 74
     0
 42
0.0000000001
 43
0.0000000001
 12
1.0
 22
0.0
 32
0.0
 13
1.0
 23
0.0
 33
0.0
 40
0.0
 40
0.0
 40
0.0
 40
0.0
 40
1.0
 40
1.0
 40
1.0
 40
2.0
 40
2.0
 40
2.0
 40
3.0
 40
3.0
 40
3.0
 40
4.0
 40
4.0
 40
4.0
 40
4.0
 10
122.0057957662108
 20
-163.6028475882226
 30
0.0
 10
121.7440331048722
 20
-163.7460774330218
 30
0.0
 10
121.3408062101704
 20
-163.515363694744
 30
0.0
 10
121.1058560810381
 20
-163.0874397717824
 30
0.0
 10
120.8709059519058
 20
-162.6595373806676
 30
0.0
 10
120.8924270327652
 20
-162.1959782512805
 30
0.0
 10
121.1541896941038
 20
-162.0520378555373
 30
0.0
 10
121.4152418044986
 20
-161.9084635011895
 30
0.0
 10
121.8184686992003
 20
-162.1388327299188
 30
0.0
 10
122.0534188283327
 20
-162.567101162429
 30
0.0
 10
122.2890741254472
 20
-162.9950250853906
 30
0.0
 10
122.2675530445877
 20
-163.4589287243263
 30
0.0
 10
122.0057957662108
 20
-163.6028475882226
 30
0.0
  0
SPLINE
  5
207
330
1F
100
AcDbEntity
  8
_U+30EC_U+30A4_U+30E4_U+30FC 1
 62
   179
420
  2234388
370
     9
100
AcDbSpline
210
0.0
220
0.0
230
1.0
 70
     8
 71
     3
 72
    11
 73
     7
 74
     0
 42
0.0000000001
 43
0.0000000001
 12
1.0
 22
0.0
 32
0.0
 13
1.0
 23
0.0
 33
0.0
 40
0.0
 40
0.0
 40
0.0
 40
0.0
 40
1.0
 40
1.0
 40
1.0
 40
2.0
 40
2.0
 40
2.0
 40
2.0
 10
120.0896121254681
 20
-160.9308530617096
 30
0.0
 10
120.1880341971123
 20
-160.7191950078345
 30
0.0
 10
120.155225045577
 20
-160.3851068731524
 30
0.0
 10
119.9813069361505
 20
-160.0690193623807
 30
0.0
 10
119.7555293737476
 20
-159.6583855123858
 30
0.0
 10
119.3759390638518
 20
-159.430147936488
 30
0.0
 10
119.114531677985
 20
-159.5398526958464
 30
0.0
  0
SPLINE
  5
208
330
1F
100
AcDbEntity
  8
_U+30EC_U+30A4_U+30E4_U+30FC 1
 62
   179
420
  2234388
370
     9
100
AcDbSpline
210
0.0
220
0.0
230
1.0
 70
    11
 71
     3
 72
    17
 73
    13
 74
     0
 42
0.0000000001
 43
0.0000000001
 12
1.0
 22
0.0
 32
0.0
 13
1.0
 23
0.0
 33
0.0
 40
0.0
 40
0.0
 40
0.0
 40
0.0
 40
1.0
 40
1.0
 40
1.0
 40
2.0
 40
2.0
 40
2.0
 40
3.0
 40
3.0
 40
3.0
 40
4.0
 40
4.0
 40
4.0
 40
4.0
 10
120.1219960230294
 20
-160.916340596978
 30
0.0
 10
119.8602333616908
 20
-161.0602809927211
 30
0.0
 10
119.4577116349712
 20
-160.8295672544432
 30
0.0
 10
119.2220563378567
 20
-160.4016433314816
 30
0.0
 10
118.9871062087244
 20
-159.973030389423
 30
0.0
 10
119.0086272895838
 20
-159.5094712600358
 30
0.0
 10
119.2703899509224
 20
-159.3658969056881
 30
0.0
 10
119.5321472292994
 20
-159.221956509945
 30
0.0
 10
119.9346689560189
 20
-159.4530362896181
 30
0.0
 10
120.1703242531334
 20
-159.8805941711844
 30
0.0
 10
120.4052743822658
 20
-160.3092286450898
 30
0.0
 10
120.3837533014063
 20
-160.7724217330816
 30
0.0
 10
120.1219960230294
 20
-160.916340596978
 30
0.0
  0
SPLINE
  5
209
330
1F
100
AcDbEntity
  8
_U+30EC_U+30A4_U+30E4_U+30FC 1
 62
   179
420
  2234388
370
     9
100
AcDbSpline
210
0.0
220
0.0
230
1.0
 70
     8
 71
     3
 72
    11
 73
     7
 74
     0
 42
0.0000000001
 43
0.0000000001
 12
1.0
 22
0.0
 32
0.0
 13
1.0
 23
0.0
 33
0.0
 40
0.0
 40
0.0
 40
0.0
 40
0.0
 40
1.0
 40
1.0
 40
1.0
 40
2.0
 40
2.0
 40
2.0
 40
2.0
 10
125.6747901602317
 20
-162.5686083917038
 30
0.0
 10
125.7732122318759
 20
-162.3569503378287
 30
0.0
 10
125.7404030803406
 20
-162.0221731840496
 30
0.0
 10
125.5664849709142
 20
-161.7074852433188
 30
0.0
 10
125.3407074085113
 20
-161.29614084238
 30
0.0
 10
124.9611170986154
 20
-161.0679032664822
 30
0.0
 10
124.6997097127487
 20
-161.1776080258406
 30
0.0
  0
SPLINE
  5
20A
330
1F
100
AcDbEntity
  8
_U+30EC_U+30A4_U+30E4_U+30FC 1
 62
   179
420
  2234388
370
     9
100
AcDbSpline
210
0.0
220
0.0
230
1.0
 70
    11
 71
     3
 72
    17
 73
    13
 74
     0
 42
0.0000000001
 43
0.0000000001
 12
1.0
 22
0.0
 32
0.0
 13
1.0
 23
0.0
 33
0.0
 40
0.0
 40
0.0
 40
0.0
 40
0.0
 40
1.0
 40
1.0
 40
1.0
 40
2.0
 40
2.0
 40
2.0
 40
3.0
 40
3.0
 40
3.0
 40
4.0
 40
4.0
 40
4.0
 40
4.0
 10
125.7071740577931
 20
-162.5541605225125
 30
0.0
 10
125.4454113964544
 20
-162.6981009182556
 30
0.0
 10
125.0428896697348
 20
-162.4673871799778
 30
0.0
 10
124.8079395406025
 20
-162.0394632570162
 30
0.0
 10
124.572284243488
 20
-161.6115393340546
 30
0.0
 10
124.5938053243474
 20
-161.1480017365142
 30
0.0
 10
124.8555679856861
 20
-161.0037168312226
 30
0.0
 10
125.117325264063
 20
-160.8604869864234
 30
0.0
 10
125.5198469907826
 20
-161.0908562151526
 30
0.0
 10
125.7547971199149
 20
-161.5184140967189
 30
0.0
 10
125.9904524170294
 20
-161.9470485706244
 30
0.0
 10
125.96893133617
 20
-162.41095220956
 30
0.0
 10
125.7071740577931
 20
-162.5541605225125
 30
0.0
  0
SPLINE
  5
20B
330
1F
100
AcDbEntity
  8
_U+30EC_U+30A4_U+30E4_U+30FC 1
 62
   179
420
  2234388
370
     9
100
AcDbSpline
210
0.0
220
0.0
230
1.0
 70
     8
 71
     3
 72
    11
 73
     7
 74
     0
 42
0.0000000001
 43
0.0000000001
 12
1.0
 22
0.0
 32
0.0
 13
1.0
 23
0.0
 33
0.0
 40
0.0
 40
0.0
 40
0.0
 40
0.0
 40
1.0
 40
1.0
 40
1.0
 40
2.0
 40
2.0
 40
2.0
 40
2.0
 10
125.6747901602317
 20
-165.7298495408158
 30
0.0
 10
125.7732122318759
 20
-165.5181914869408
 30
0.0
 10
125.7404030803406
 20
-165.1834143331616
 30
0.0
 10
125.5664849709142
 20
-164.8687263924308
 30
0.0
 10
125.3407074085113
 20
-164.457381991492
 30
0.0
 10
124.9611170986154
 20
-164.2291444155942
 30
0.0
 10
124.6997097127487
 20
-164.3388491749526
 30
0.0
  0
SPLINE
  5
20C
330
1F
100
AcDbEntity
  8
_U+30EC_U+30A4_U+30E4_U+30FC 1
 62
   179
420
  2234388
370
     9
100
AcDbSpline
210
0.0
220
0.0
230
1.0
 70
    11
 71
     3
 72
    17
 73
    13
 74
     0
 42
0.0000000001
 43
0.0000000001
 12
1.0
 22
0.0
 32
0.0
 13
1.0
 23
0.0
 33
0.0
 40
0.0
 40
0.0
 40
0.0
 40
0.0
 40
1.0
 40
1.0
 40
1.0
 40
2.0
 40
2.0
 40
2.0
 40
3.0
 40
3.0
 40
3.0
 40
4.0
 40
4.0
 40
4.0
 40
4.0
 10
125.7071740577931
 20
-165.7154016716245
 30
0.0
 10
125.4454113964544
 20
-165.8593420673676
 30
0.0
 10
125.0428896697348
 20
-165.6286283290898
 30
0.0
 10
124.8079395406025
 20
-165.2007044061282
 30
0.0
 10
124.572284243488
 20
-164.7727804831666
 30
0.0
 10
124.5938053243474
 20
-164.3085323346824
 30
0.0
 10
124.8555679856861
 20
-164.1649579803346
 30
0.0
 10
125.117325264063
 20
-164.0210175845915
 30
0.0
 10
125.5198469907826
 20
-164.2520973642647
 30
0.0
 10
125.7547971199149
 20
-164.679655245831
 30
0.0
 10
125.9904524170294
 20
-165.1082897197364
 30
0.0
 10
125.96893133617
 20
-165.5714828077282
 30
0.0
 10
125.7071740577931
 20
-165.7154016716245
 30
0.0
  0
SPLINE
  5
20D
330
1F
100
AcDbEntity
  8
_U+30EC_U+30A4_U+30E4_U+30FC 1
 62
   179
420
  2234388
370
     9
100
AcDbSpline
210
0.0
220
0.0
230
1.0
 70
     8
 71
     3
 72
    11
 73
     7
 74
     0
 42
0.0000000001
 43
0.0000000001
 12
1.0
 22
0.0
 32
0.0
 13
1.0
 23
0.0
 33
0.0
 40
0.0
 40
0.0
 40
0.0
 40
0.0
 40
1.0
 40
1.0
 40
1.0
 40
2.0
 40
2.0
 40
2.0
 40
2.0
 10
123.7910280977822
 20
-163.0433425495712
 30
0.0
 10
123.8894501694264
 20
-162.8316844956962
 30
0.0
 10
123.8566410178911
 20
-162.4975963610141
 30
0.0
 10
123.6834280764468
 20
-162.1822194011862
 30
0.0
 10
123.4576505140439
 20
-161.7708750002474
 30
0.0
 10
123.078060204148
 20
-161.5433479752934
 30
0.0
 10
122.8159476502992
 20
-161.6530527346519
 30
0.0
  0
SPLINE
  5
20E
330
1F
100
AcDbEntity
  8
_U+30EC_U+30A4_U+30E4_U+30FC 1
 62
   179
420
  2234388
370
     9
100
AcDbSpline
210
0.0
220
0.0
230
1.0
 70
    11
 71
     3
 72
    17
 73
    13
 74
     0
 42
0.0000000001
 43
0.0000000001
 12
1.0
 22
0.0
 32
0.0
 13
1.0
 23
0.0
 33
0.0
 40
0.0
 40
0.0
 40
0.0
 40
0.0
 40
1.0
 40
1.0
 40
1.0
 40
2.0
 40
2.0
 40
2.0
 40
3.0
 40
3.0
 40
3.0
 40
4.0
 40
4.0
 40
4.0
 40
4.0
 10
123.8234119953435
 20
-163.0288946803799
 30
0.0
 10
123.562354501987
 20
-163.172835076123
 30
0.0
 10
123.1591276072853
 20
-162.9421213378452
 30
0.0
 10
122.924177478153
 20
-162.5141974148836
 30
0.0
 10
122.6885221810385
 20
-162.086273491922
 30
0.0
 10
122.71074842988
 20
-161.6227358943817
 30
0.0
 10
122.9718059232365
 20
-161.47845098909
 30
0.0
 10
123.2335632016135
 20
-161.3352211442908
 30
0.0
 10
123.6367900963152
 20
-161.5655903730201
 30
0.0
 10
123.8717402254475
 20
-161.9938588055302
 30
0.0
 10
124.1066903545799
 20
-162.4217827284918
 30
0.0
 10
124.0851692737205
 20
-162.8856863674275
 30
0.0
 10
123.8234119953435
 20
-163.0288946803799
 30
0.0
  0
SPLINE
  5
20F
330
1F
100
AcDbEntity
  8
_U+30EC_U+30A4_U+30E4_U+30FC 1
 62
   179
420
  2234388
370
     9
100
AcDbSpline
210
0.0
220
0.0
230
1.0
 70
     8
 71
     3
 72
    11
 73
     7
 74
     0
 42
0.0000000001
 43
0.0000000001
 12
1.0
 22
0.0
 32
0.0
 13
1.0
 23
0.0
 33
0.0
 40
0.0
 40
0.0
 40
0.0
 40
0.0
 40
1.0
 40
1.0
 40
1.0
 40
2.0
 40
2.0
 40
2.0
 40
2.0
 10
117.5464372552949
 20
-151.9227250461122
 30
0.0
 10
117.6448593269392
 20
-152.1559149467701
 30
0.0
 10
117.9902301493355
 20
-152.3280835936454
 30
0.0
 10
118.4022743352947
 20
-152.3280835936454
 30
0.0
 10
118.814318521254
 20
-152.3280835936454
 30
0.0
 10
119.1593340681784
 20
-152.1559149467701
 30
0.0
 10
119.2581114152945
 20
-151.9227250461122
 30
0.0
  0
SPLINE
  5
210
330
1F
100
AcDbEntity
  8
_U+30EC_U+30A4_U+30E4_U+30FC 1
 62
   179
420
  2234388
370
     9
100
AcDbSpline
210
0.0
220
0.0
230
1.0
 70
    11
 71
     3
 72
    17
 73
    13
 74
     0
 42
0.0000000001
 43
0.0000000001
 12
1.0
 22
0.0
 32
0.0
 13
1.0
 23
0.0
 33
0.0
 40
0.0
 40
0.0
 40
0.0
 40
0.0
 40
1.0
 40
1.0
 40
1.0
 40
2.0
 40
2.0
 40
2.0
 40
3.0
 40
3.0
 40
3.0
 40
4.0
 40
4.0
 40
4.0
 40
4.0
 10
119.2868994944431
 20
-152.0581603623761
 30
0.0
 10
119.2868994944431
 20
-152.3566132906327
 30
0.0
 10
118.8907296625245
 20
-152.5982652070761
 30
0.0
 10
118.4021289953289
 20
-152.5982652070761
 30
0.0
 10
117.9135337110951
 20
-152.5982652070761
 30
0.0
 10
117.5173638791764
 20
-152.3566132906327
 30
0.0
 10
117.5173638791764
 20
-152.0581603623761
 30
0.0
 10
117.5173638791764
 20
-151.759362924571
 30
0.0
 10
117.9135337110951
 20
-151.517366498579
 30
0.0
 10
118.4021289953289
 20
-151.517366498579
 30
0.0
 10
118.8907296625245
 20
-151.517366498579
 30
0.0
 10
119.2868994944431
 20
-151.759362924571
 30
0.0
 10
119.2868994944431
 20
-152.0581603623761
 30
0.0
  0
SPLINE
  5
211
330
1F
100
AcDbEntity
  8
_U+30EC_U+30A4_U+30E4_U+30FC 1
 62
   179
420
  2234388
370
     9
100
AcDbSpline
210
0.0
220
0.0
230
1.0
 70
     8
 71
     3
 72
    11
 73
     7
 74
     0
 42
0.0000000001
 43
0.0000000001
 12
1.0
 22
0.0
 32
0.0
 13
1.0
 23
0.0
 33
0.0
 40
0.0
 40
0.0
 40
0.0
 40
0.0
 40
1.0
 40
1.0
 40
1.0
 40
2.0
 40
2.0
 40
2.0
 40
2.0
 10
121.3629301827398
 20
-152.4143617037041
 30
0.0
 10
121.461352254384
 20
-152.6472070948135
 30
0.0
 10
121.8067230767803
 20
-152.819354209842
 30
0.0
 10
122.2187672627396
 20
-152.819354209842
 30
0.0
 10
122.6308114486989
 20
-152.819354209842
 30
0.0
 10
122.9758269956232
 20
-152.6472070948135
 30
0.0
 10
123.0738991747572
 20
-152.4143617037041
 30
0.0
  0
SPLINE
  5
212
330
1F
100
AcDbEntity
  8
_U+30EC_U+30A4_U+30E4_U+30FC 1
 62
   179
420
  2234388
370
     9
100
AcDbSpline
210
0.0
220
0.0
230
1.0
 70
    11
 71
     3
 72
    17
 73
    13
 74
     0
 42
0.0000000001
 43
0.0000000001
 12
1.0
 22
0.0
 32
0.0
 13
1.0
 23
0.0
 33
0.0
 40
0.0
 40
0.0
 40
0.0
 40
0.0
 40
1.0
 40
1.0
 40
1.0
 40
2.0
 40
2.0
 40
2.0
 40
3.0
 40
3.0
 40
3.0
 40
4.0
 40
4.0
 40
4.0
 40
4.0
 10
123.1026872539059
 20
-152.5494525104195
 30
0.0
 10
123.1026872539059
 20
-152.8479054386761
 30
0.0
 10
122.7072225899694
 20
-153.0899233965148
 30
0.0
 10
122.2186219227738
 20
-153.0899233965148
 30
0.0
 10
121.7300266385399
 20
-153.0899233965148
 30
0.0
 10
121.3338568066213
 20
-152.8479054386761
 30
0.0
 10
121.3338568066213
 20
-152.5494525104195
 30
0.0
 10
121.3338568066213
 20
-152.2506550726144
 30
0.0
 10
121.7300266385399
 20
-152.0086586466224
 30
0.0
 10
122.2186219227738
 20
-152.0086586466224
 30
0.0
 10
122.7072225899694
 20
-152.0086586466224
 30
0.0
 10
123.1026872539059
 20
-152.2506550726144
 30
0.0
 10
123.1026872539059
 20
-152.5494525104195
 30
0.0
  0
SPLINE
  5
213
330
1F
100
AcDbEntity
  8
_U+30EC_U+30A4_U+30E4_U+30FC 1
 62
   179
420
  2234388
370
     9
100
AcDbSpline
210
0.0
220
0.0
230
1.0
 70
     8
 71
     3
 72
    11
 73
     7
 74
     0
 42
0.0000000001
 43
0.0000000001
 12
1.0
 22
0.0
 32
0.0
 13
1.0
 23
0.0
 33
0.0
 40
0.0
 40
0.0
 40
0.0
 40
0.0
 40
1.0
 40
1.0
 40
1.0
 40
2.0
 40
2.0
 40
2.0
 40
2.0
 10
130.0438710205489
 20
-157.4917649617121
 30
0.0
 10
130.1422930921932
 20
-157.7246103528215
 30
0.0
 10
130.4876639145895
 20
-157.89675746785
 30
0.0
 10
130.8997081005487
 20
-157.89675746785
 30
0.0
 10
131.311752286508
 20
-157.89675746785
 30
0.0
 10
131.6567678334324
 20
-157.7246103528215
 30
0.0
 10
131.7555451805485
 20
-157.4917649617121
 30
0.0
  0
SPLINE
  5
214
330
1F
100
AcDbEntity
  8
_U+30EC_U+30A4_U+30E4_U+30FC 1
 62
   179
420
  2234388
370
     9
100
AcDbSpline
210
0.0
220
0.0
230
1.0
 70
    11
 71
     3
 72
    17
 73
    13
 74
     0
 42
0.0000000001
 43
0.0000000001
 12
1.0
 22
0.0
 32
0.0
 13
1.0
 23
0.0
 33
0.0
 40
0.0
 40
0.0
 40
0.0
 40
0.0
 40
1.0
 40
1.0
 40
1.0
 40
2.0
 40
2.0
 40
2.0
 40
3.0
 40
3.0
 40
3.0
 40
4.0
 40
4.0
 40
4.0
 40
4.0
 10
131.7836657724469
 20
-157.6267911728872
 30
0.0
 10
131.7836657724469
 20
-157.925610142539
 30
0.0
 10
131.3882011085104
 20
-158.1672620589825
 30
0.0
 10
130.8996004413148
 20
-158.1672620589825
 30
0.0
 10
130.411005157081
 20
-158.1672620589825
 30
0.0
 10
130.0148353251623
 20
-157.925610142539
 30
0.0
 10
130.0148353251623
 20
-157.6267911728872
 30
0.0
 10
130.0148353251623
 20
-157.3283597764774
 30
0.0
 10
130.411005157081
 20
-157.0867078600339
 30
0.0
 10
130.8996004413148
 20
-157.0867078600339
 30
0.0
 10
131.3882011085104
 20
-157.0867078600339
 30
0.0
 10
131.7836657724469
 20
-157.3283597764774
 30
0.0
 10
131.7836657724469
 20
-157.6267911728872
 30
0.0
  0
SPLINE
  5
215
330
1F
100
AcDbEntity
  8
_U+30EC_U+30A4_U+30E4_U+30FC 1
 62
   179
420
  2234388
370
     9
100
AcDbSpline
210
0.0
220
0.0
230
1.0
 70
     8
 71
     3
 72
    11
 73
     7
 74
     0
 42
0.0000000001
 43
0.0000000001
 12
1.0
 22
0.0
 32
0.0
 13
1.0
 23
0.0
 33
0.0
 40
0.0
 40
0.0
 40
0.0
 40
0.0
 40
1.0
 40
1.0
 40
1.0
 40
2.0
 40
2.0
 40
2.0
 40
2.0
 10
120.5443808784061
 20
-150.1785377974706
 30
0.0
 10
120.6420977820682
 20
-150.4113831885799
 30
0.0
 10
120.9874686044645
 20
-150.5838963450038
 30
0.0
 10
121.3995127904238
 20
-150.5838963450038
 30
0.0
 10
121.8115569763831
 20
-150.5838963450038
 30
0.0
 10
122.1565725233074
 20
-150.4113831885799
 30
0.0
 10
122.2553498704236
 20
-150.1785377974706
 30
0.0
  0
SPLINE
  5
216
330
1F
100
AcDbEntity
  8
_U+30EC_U+30A4_U+30E4_U+30FC 1
 62
   179
420
  2234388
370
     9
100
AcDbSpline
210
0.0
220
0.0
230
1.0
 70
    11
 71
     3
 72
    17
 73
    13
 74
     0
 42
0.0000000001
 43
0.0000000001
 12
1.0
 22
0.0
 32
0.0
 13
1.0
 23
0.0
 33
0.0
 40
0.0
 40
0.0
 40
0.0
 40
0.0
 40
1.0
 40
1.0
 40
1.0
 40
2.0
 40
2.0
 40
2.0
 40
3.0
 40
3.0
 40
3.0
 40
4.0
 40
4.0
 40
4.0
 40
4.0
 10
122.2841379495722
 20
-150.3135640086456
 30
0.0
 10
122.2841379495722
 20
-150.6120169369021
 30
0.0
 10
121.8879681176536
 20
-150.8540348947409
 30
0.0
 10
121.399367450458
 20
-150.8540348947409
 30
0.0
 10
120.9107721662241
 20
-150.8540348947409
 30
0.0
 10
120.5153075022876
 20
-150.6120169369021
 30
0.0
 10
120.5153075022876
 20
-150.3135640086456
 30
0.0
 10
120.5153075022876
 20
-150.0151326122358
 30
0.0
 10
120.9107721662241
 20
-149.773114654397
 30
0.0
 10
121.399367450458
 20
-149.773114654397
 30
0.0
 10
121.8879681176536
 20
-149.773114654397
 30
0.0
 10
122.2841379495722
 20
-150.0151326122358
 30
0.0
 10
122.2841379495722
 20
-150.3135640086456
 30
0.0
  0
SPLINE
  5
217
330
1F
100
AcDbEntity
  8
_U+30EC_U+30A4_U+30E4_U+30FC 1
 62
   179
420
  2234388
370
     9
100
AcDbSpline
210
0.0
220
0.0
230
1.0
 70
     8
 71
     3
 72
    11
 73
     7
 74
     0
 42
0.0000000001
 43
0.0000000001
 12
1.0
 22
0.0
 32
0.0
 13
1.0
 23
0.0
 33
0.0
 40
0.0
 40
0.0
 40
0.0
 40
0.0
 40
1.0
 40
1.0
 40
1.0
 40
2.0
 40
2.0
 40
2.0
 40
2.0
 10
122.0671076999248
 20
-154.5927386427212
 30
0.0
 10
122.1655297715691
 20
-154.8255840338305
 30
0.0
 10
122.5109005939654
 20
-154.9980971902544
 30
0.0
 10
122.9229447799246
 20
-154.9980971902544
 30
0.0
 10
123.3349889658839
 20
-154.9980971902544
 30
0.0
 10
123.6800045128083
 20
-154.8255840338305
 30
0.0
 10
123.7780766919423
 20
-154.5927386427212
 30
0.0
  0
SPLINE
  5
218
330
1F
100
AcDbEntity
  8
_U+30EC_U+30A4_U+30E4_U+30FC 1
 62
   179
420
  2234388
370
     9
100
AcDbSpline
210
0.0
220
0.0
230
1.0
 70
    11
 71
     3
 72
    17
 73
    13
 74
     0
 42
0.0000000001
 43
0.0000000001
 12
1.0
 22
0.0
 32
0.0
 13
1.0
 23
0.0
 33
0.0
 40
0.0
 40
0.0
 40
0.0
 40
0.0
 40
1.0
 40
1.0
 40
1.0
 40
2.0
 40
2.0
 40
2.0
 40
3.0
 40
3.0
 40
3.0
 40
4.0
 40
4.0
 40
4.0
 40
4.0
 10
123.8068647710909
 20
-154.727786385743
 30
0.0
 10
123.8068647710909
 20
-155.0266053553948
 30
0.0
 10
123.4114001071544
 20
-155.2682572718383
 30
0.0
 10
122.9227994399589
 20
-155.2682572718383
 30
0.0
 10
122.434204155725
 20
-155.2682572718383
 30
0.0
 10
122.0380343238064
 20
-155.0266053553948
 30
0.0
 10
122.0380343238064
 20
-154.727786385743
 30
0.0
 10
122.0380343238064
 20
-154.4289889479379
 30
0.0
 10
122.434204155725
 20
-154.1873370314944
 30
0.0
 10
122.9227994399589
 20
-154.1873370314944
 30
0.0
 10
123.4114001071544
 20
-154.1873370314944
 30
0.0
 10
123.8068647710909
 20
-154.4289889479379
 30
0.0
 10
123.8068647710909
 20
-154.727786385743
 30
0.0
  0
SPLINE
  5
219
330
1F
100
AcDbEntity
  8
_U+30EC_U+30A4_U+30E4_U+30FC 1
 62
   179
420
  2234388
370
     9
100
AcDbSpline
210
0.0
220
0.0
230
1.0
 70
     8
 71
     3
 72
    11
 73
     7
 74
     0
 42
0.0000000001
 43
0.0000000001
 12
1.0
 22
0.0
 32
0.0
 13
1.0
 23
0.0
 33
0.0
 40
0.0
 40
0.0
 40
0.0
 40
0.0
 40
1.0
 40
1.0
 40
1.0
 40
2.0
 40
2.0
 40
2.0
 40
2.0
 10
125.0643461550539
 20
-152.8484867985392
 30
0.0
 10
125.1627682266981
 20
-153.0813321896485
 30
0.0
 10
125.5081390490944
 20
-153.2534793046771
 30
0.0
 10
125.9201832350537
 20
-153.2534793046771
 30
0.0
 10
126.332227421013
 20
-153.2534793046771
 30
0.0
 10
126.6772429679374
 20
-153.0813321896485
 30
0.0
 10
126.7760203150535
 20
-152.8484867985392
 30
0.0
  0
SPLINE
  5
21A
330
1F
100
AcDbEntity
  8
_U+30EC_U+30A4_U+30E4_U+30FC 1
 62
   179
420
  2234388
370
     9
100
AcDbSpline
210
0.0
220
0.0
230
1.0
 70
    11
 71
     3
 72
    17
 73
    13
 74
     0
 42
0.0000000001
 43
0.0000000001
 12
1.0
 22
0.0
 32
0.0
 13
1.0
 23
0.0
 33
0.0
 40
0.0
 40
0.0
 40
0.0
 40
0.0
 40
1.0
 40
1.0
 40
1.0
 40
2.0
 40
2.0
 40
2.0
 40
3.0
 40
3.0
 40
3.0
 40
4.0
 40
4.0
 40
4.0
 40
4.0
 10
126.8048083942021
 20
-152.983534541561
 30
0.0
 10
126.8048083942021
 20
-153.2819874698175
 30
0.0
 10
126.4086385622835
 20
-153.523639386261
 30
0.0
 10
125.9200378950879
 20
-153.523639386261
 30
0.0
 10
125.4314426108541
 20
-153.523639386261
 30
0.0
 10
125.0359779469176
 20
-153.2819874698175
 30
0.0
 10
125.0359779469176
 20
-152.983534541561
 30
0.0
 10
125.0359779469176
 20
-152.6847371037559
 30
0.0
 10
125.4314426108541
 20
-152.4430851873124
 30
0.0
 10
125.9200378950879
 20
-152.4430851873124
 30
0.0
 10
126.4086385622835
 20
-152.4430851873124
 30
0.0
 10
126.8048083942021
 20
-152.6847371037559
 30
0.0
 10
126.8048083942021
 20
-152.983534541561
 30
0.0
  0
SPLINE
  5
21B
330
1F
100
AcDbEntity
  8
_U+30EC_U+30A4_U+30E4_U+30FC 1
 62
   179
420
  2234388
370
     9
100
AcDbSpline
210
0.0
220
0.0
230
1.0
 70
     8
 71
     3
 72
    11
 73
     7
 74
     0
 42
0.0000000001
 43
0.0000000001
 12
1.0
 22
0.0
 32
0.0
 13
1.0
 23
0.0
 33
0.0
 40
0.0
 40
0.0
 40
0.0
 40
0.0
 40
1.0
 40
1.0
 40
1.0
 40
2.0
 40
2.0
 40
2.0
 40
2.0
 10
125.7361397746776
 20
-155.010628725082
 30
0.0
 10
125.8345618463219
 20
-155.2434741161913
 30
0.0
 10
126.1799326687182
 20
-155.4156212312199
 30
0.0
 10
126.5919768546774
 20
-155.4156212312199
 30
0.0
 10
127.0040210406367
 20
-155.4156212312199
 30
0.0
 10
127.3490365875611
 20
-155.2434741161913
 30
0.0
 10
127.4471087666951
 20
-155.010628725082
 30
0.0
  0
SPLINE
  5
21C
330
1F
100
AcDbEntity
  8
_U+30EC_U+30A4_U+30E4_U+30FC 1
 62
   179
420
  2234388
370
     9
100
AcDbSpline
210
0.0
220
0.0
230
1.0
 70
    11
 71
     3
 72
    17
 73
    13
 74
     0
 42
0.0000000001
 43
0.0000000001
 12
1.0
 22
0.0
 32
0.0
 13
1.0
 23
0.0
 33
0.0
 40
0.0
 40
0.0
 40
0.0
 40
0.0
 40
1.0
 40
1.0
 40
1.0
 40
2.0
 40
2.0
 40
2.0
 40
3.0
 40
3.0
 40
3.0
 40
4.0
 40
4.0
 40
4.0
 40
4.0
 10
127.4758968458437
 20
-155.1456334044102
 30
0.0
 10
127.4758968458437
 20
-155.4440863326668
 30
0.0
 10
127.0804321819072
 20
-155.6857382491102
 30
0.0
 10
126.5918315147116
 20
-155.6857382491102
 30
0.0
 10
126.1032362304778
 20
-155.6857382491102
 30
0.0
 10
125.7070663985591
 20
-155.4440863326668
 30
0.0
 10
125.7070663985591
 20
-155.1456334044102
 30
0.0
 10
125.7070663985591
 20
-154.8468359666051
 30
0.0
 10
126.1032362304778
 20
-154.6048395406131
 30
0.0
 10
126.5918315147116
 20
-154.6048395406131
 30
0.0
 10
127.0804321819072
 20
-154.6048395406131
 30
0.0
 10
127.4758968458437
 20
-154.8468359666051
 30
0.0
 10
127.4758968458437
 20
-155.1456334044102
 30
0.0
  0
SPLINE
  5
21D
330
1F
100
AcDbEntity
  8
_U+30EC_U+30A4_U+30E4_U+30FC 1
 62
   179
420
  2234388
370
     9
100
AcDbSpline
210
0.0
220
0.0
230
1.0
 70
     8
 71
     3
 72
    11
 73
     7
 74
     0
 42
0.0000000001
 43
0.0000000001
 12
1.0
 22
0.0
 32
0.0
 13
1.0
 23
0.0
 33
0.0
 40
0.0
 40
0.0
 40
0.0
 40
0.0
 40
1.0
 40
1.0
 40
1.0
 40
2.0
 40
2.0
 40
2.0
 40
2.0
 10
126.4403172918627
 20
-157.1886180908569
 30
0.0
 10
126.5387393635069
 20
-157.4214634819662
 30
0.0
 10
126.8841101859032
 20
-157.5939766383901
 30
0.0
 10
127.2961543718625
 20
-157.5939766383901
 30
0.0
 10
127.7081985578218
 20
-157.5939766383901
 30
0.0
 10
128.0532141047461
 20
-157.4214634819662
 30
0.0
 10
128.1512862838802
 20
-157.1886180908569
 30
0.0
  0
SPLINE
  5
21E
330
1F
100
AcDbEntity
  8
_U+30EC_U+30A4_U+30E4_U+30FC 1
 62
   179
420
  2234388
370
     9
100
AcDbSpline
210
0.0
220
0.0
230
1.0
 70
    11
 71
     3
 72
    17
 73
    13
 74
     0
 42
0.0000000001
 43
0.0000000001
 12
1.0
 22
0.0
 32
0.0
 13
1.0
 23
0.0
 33
0.0
 40
0.0
 40
0.0
 40
0.0
 40
0.0
 40
1.0
 40
1.0
 40
1.0
 40
2.0
 40
2.0
 40
2.0
 40
3.0
 40
3.0
 40
3.0
 40
4.0
 40
4.0
 40
4.0
 40
4.0
 10
128.1800743630288
 20
-157.3236658338787
 30
0.0
 10
128.1800743630288
 20
-157.6224848035306
 30
0.0
 10
127.7846096990923
 20
-157.8644812295226
 30
0.0
 10
127.2960090318967
 20
-157.8644812295226
 30
0.0
 10
126.8074137476628
 20
-157.8644812295226
 30
0.0
 10
126.4112439157442
 20
-157.6224848035306
 30
0.0
 10
126.4112439157442
 20
-157.3236658338787
 30
0.0
 10
126.4112439157442
 20
-157.025234437469
 30
0.0
 10
126.8074137476628
 20
-156.7835825210255
 30
0.0
 10
127.2960090318967
 20
-156.7835825210255
 30
0.0
 10
127.7846096990923
 20
-156.7835825210255
 30
0.0
 10
128.1800743630288
 20
-157.025234437469
 30
0.0
 10
128.1800743630288
 20
-157.3236658338787
 30
0.0
  0
SPLINE
  5
21F
330
1F
100
AcDbEntity
  8
_U+30EC_U+30A4_U+30E4_U+30FC 1
 62
   179
420
  2234388
370
     9
100
AcDbSpline
210
0.0
220
0.0
230
1.0
 70
     8
 71
     3
 72
    11
 73
     7
 74
     0
 42
0.0000000001
 43
0.0000000001
 12
1.0
 22
0.0
 32
0.0
 13
1.0
 23
0.0
 33
0.0
 40
0.0
 40
0.0
 40
0.0
 40
0.0
 40
1.0
 40
1.0
 40
1.0
 40
2.0
 40
2.0
 40
2.0
 40
2.0
 10
129.4375557469917
 20
-155.4446892243767
 30
0.0
 10
129.535977818636
 20
-155.677534615486
 30
0.0
 10
129.8813486410323
 20
-155.8496817305146
 30
0.0
 10
130.2933928269915
 20
-155.8496817305146
 30
0.0
 10
130.7054370129508
 20
-155.8496817305146
 30
0.0
 10
131.0504525598752
 20
-155.677534615486
 30
0.0
 10
131.1492299069913
 20
-155.4446892243767
 30
0.0
  0
SPLINE
  5
220
330
1F
100
AcDbEntity
  8
_U+30EC_U+30A4_U+30E4_U+30FC 1
 62
   179
420
  2234388
370
     9
100
AcDbSpline
210
0.0
220
0.0
230
1.0
 70
    11
 71
     3
 72
    17
 73
    13
 74
     0
 42
0.0000000001
 43
0.0000000001
 12
1.0
 22
0.0
 32
0.0
 13
1.0
 23
0.0
 33
0.0
 40
0.0
 40
0.0
 40
0.0
 40
0.0
 40
1.0
 40
1.0
 40
1.0
 40
2.0
 40
2.0
 40
2.0
 40
3.0
 40
3.0
 40
3.0
 40
4.0
 40
4.0
 40
4.0
 40
4.0
 10
131.17801798614
 20
-155.5796939037049
 30
0.0
 10
131.17801798614
 20
-155.8781468319615
 30
0.0
 10
130.7818481542213
 20
-156.1197987484049
 30
0.0
 10
130.2932474870258
 20
-156.1197987484049
 30
0.0
 10
129.8046522027919
 20
-156.1197987484049
 30
0.0
 10
129.4091875388554
 20
-155.8781468319615
 30
0.0
 10
129.4091875388554
 20
-155.5796939037049
 30
0.0
 10
129.4091875388554
 20
-155.2808964658998
 30
0.0
 10
129.8046522027919
 20
-155.0389000399078
 30
0.0
 10
130.2932474870258
 20
-155.0389000399078
 30
0.0
 10
130.7818481542213
 20
-155.0389000399078
 30
0.0
 10
131.17801798614
 20
-155.2808964658998
 30
0.0
 10
131.17801798614
 20
-155.5796939037049
 30
0.0
  0
ENDSEC
  0
SECTION
  2
OBJECTS
  0
DICTIONARY
  5
C
330
0
100
AcDbDictionary
281
     1
  3
ACAD_GROUP
350
D
  3
ACAD_LAYOUT
350
1A
  3
ACAD_MATERIAL
350
3B
  3
ACAD_MLEADERSTYLE
350
222
  3
ACAD_MLINESTYLE
350
17
  3
ACAD_PLOTSETTINGS
350
19
  3
ACAD_PLOTSTYLENAME
350
E
  3
ACAD_TABLESTYLE
350
221
  3
ACAD_VISUALSTYLE
350
2A
  0
SUN
  5
3F
330
29
100
AcDbSun
 90
        1
290
     0
 63
     7
421
 16777215
 40
1.0
291
     1
 91
  2455826
 92
 54000000
292
     0
 70
     2
 71
   256
280
     1
  0
DICTIONARY
  5
D
102
{ACAD_REACTORS
330
C
102
}
330
C
100
AcDbDictionary
281
     1
  0
DICTIONARY
  5
1A
102
{ACAD_REACTORS
330
C
102
}
330
C
100
AcDbDictionary
281
     1
  3
Layout1
350
1E
  3
Layout2
350
26
  3
Model
350
22
  0
DICTIONARY
  5
3B
102
{ACAD_REACTORS
330
C
102
}
330
C
100
AcDbDictionary
281
     1
  3
ByBlock
350
3D
  3
ByLayer
350
3C
  3
Global
350
3E
  0
DICTIONARY
  5
222
102
{ACAD_REACTORS
330
C
102
}
330
C
100
AcDbDictionary
281
     1
  0
DICTIONARY
  5
17
102
{ACAD_REACTORS
330
C
102
}
330
C
100
AcDbDictionary
281
     1
  3
Standard
350
18
  0
DICTIONARY
  5
19
102
{ACAD_REACTORS
330
C
102
}
330
C
100
AcDbDictionary
281
     1
  0
ACDBDICTIONARYWDFLT
  5
E
102
{ACAD_REACTORS
330
C
102
}
330
C
100
AcDbDictionary
281
     1
  3
Normal
350
F
100
AcDbDictionaryWithDefault
340
F
  0
DICTIONARY
  5
221
102
{ACAD_REACTORS
330
C
102
}
330
C
100
AcDbDictionary
281
     1
  0
DICTIONARY
  5
2A
102
{ACAD_REACTORS
330
C
102
}
330
C
100
AcDbDictionary
281
     1
  3
2dWireframe
350
2F
  3
3D Hidden
350
31
  3
3dWireframe
350
30
  3
Basic
350
32
  3
Brighten
350
36
  3
ColorChange
350
3A
  3
Conceptual
350
34
  3
Dim
350
35
  3
Facepattern
350
39
  3
Flat
350
2B
  3
FlatWithEdges
350
2C
  3
Gouraud
350
2D
  3
GouraudWithEdges
350
2E
  3
Linepattern
350
38
  3
Realistic
350
33
  3
Thicken
350
37
  0
LAYOUT
  5
1E
102
{ACAD_REACTORS
330
1A
102
}
330
1A
100
AcDbPlotSettings
  1

  2
none_device
  4

  6

 40
0.0
 41
0.0
 42
0.0
 43
0.0
 44
0.0
 45
0.0
 46
0.0
 47
0.0
 48
0.0
 49
0.0
140
0.0
141
0.0
142
1.0
143
1.0
 70
   688
 72
     0
 73
     0
 74
     5
  7

 75
    16
 76
     0
 77
     2
 78
   300
147
1.0
148
0.0
149
0.0
100
AcDbLayout
  1
Layout1
 70
     1
 71
     1
 10
0.0
 20
0.0
 11
12.0
 21
9.0
 12
0.0
 22
0.0
 32
0.0
 14
1.000000000000000E+20
 24
1.000000000000000E+20
 34
1.000000000000000E+20
 15
-1.000000000000000E+20
 25
-1.000000000000000E+20
 35
-1.000000000000000E+20
146
0.0
 13
0.0
 23
0.0
 33
0.0
 16
1.0
 26
0.0
 36
0.0
 17
0.0
 27
1.0
 37
0.0
 76
     0
330
1B
  0
LAYOUT
  5
26
102
{ACAD_REACTORS
330
1A
102
}
330
1A
100
AcDbPlotSettings
  1

  2
none_device
  4

  6

 40
0.0
 41
0.0
 42
0.0
 43
0.0
 44
0.0
 45
0.0
 46
0.0
 47
0.0
 48
0.0
 49
0.0
140
0.0
141
0.0
142
1.0
143
1.0
 70
   688
 72
     0
 73
     0
 74
     5
  7

 75
    16
 76
     0
 77
     2
 78
   300
147
1.0
148
0.0
149
0.0
100
AcDbLayout
  1
Layout2
 70
     1
 71
     2
 10
0.0
 20
0.0
 11
0.0
 21
0.0
 12
0.0
 22
0.0
 32
0.0
 14
0.0
 24
0.0
 34
0.0
 15
0.0
 25
0.0
 35
0.0
146
0.0
 13
0.0
 23
0.0
 33
0.0
 16
1.0
 26
0.0
 36
0.0
 17
0.0
 27
1.0
 37
0.0
 76
     0
330
23
  0
LAYOUT
  5
22
102
{ACAD_REACTORS
330
1A
102
}
330
1A
100
AcDbPlotSettings
  1

  2
none_device
  4

  6

 40
0.0
 41
0.0
 42
0.0
 43
0.0
 44
0.0
 45
0.0
 46
0.0
 47
0.0
 48
0.0
 49
0.0
140
0.0
141
0.0
142
1.0
143
1.0
 70
  1712
 72
     0
 73
     0
 74
     0
  7

 75
     0
 76
     0
 77
     2
 78
   300
147
1.0
148
0.0
149
0.0
100
AcDbLayout
  1
Model
 70
     1
 71
     0
 10
0.0
 20
0.0
 11
12.0
 21
9.0
 12
0.0
 22
0.0
 32
0.0
 14
1.000000000000000E+20
 24
1.000000000000000E+20
 34
1.000000000000000E+20
 15
-1.000000000000000E+20
 25
-1.000000000000000E+20
 35
-1.000000000000000E+20
146
0.0
 13
0.0
 23
0.0
 33
0.0
 16
1.0
 26
0.0
 36
0.0
 17
0.0
 27
1.0
 37
0.0
 76
     0
330
1F
331
29
  0
MATERIAL
  5
3D
102
{ACAD_REACTORS
330
3B
102
}
330
3B
100
AcDbMaterial
  1
ByBlock
 72
     1
 94
      127
  0
MATERIAL
  5
3C
102
{ACAD_REACTORS
330
3B
102
}
330
3B
100
AcDbMaterial
  1
ByLayer
 72
     1
 94
      127
  0
MATERIAL
  5
3E
102
{ACAD_REACTORS
330
3B
102
}
330
3B
100
AcDbMaterial
  1
Global
 72
     1
 94
      127
  0
MLINESTYLE
  5
18
102
{ACAD_REACTORS
330
17
102
}
330
17
100
AcDbMlineStyle
  2
Standard
 70
     0
  3

 62
   256
 51
90.0
 52
90.0
 71
     2
 49
0.5
 62
   256
  6
BYLAYER
 49
-0.5
 62
   256
  6
BYLAYER
  0
ACDBPLACEHOLDER
  5
F
102
{ACAD_REACTORS
330
E
102
}
330
E
  0
VISUALSTYLE
  5
2F
102
{ACAD_REACTORS
330
2A
102
}
330
2A
100
AcDbVisualStyle
  2
2dWireframe
 70
     4
177
     2
291
     0
 71
     0
176
     1
 72
     2
176
     1
 73
     0
176
     1
 90
        0
176
     1
 40
-0.6
176
     1
 41
-30.0
176
     1
 62
     5
 63
     7
421
 16777215
176
     1
 74
     1
176
     1
 91
        4
176
     1
 64
     7
176
     1
 65
   257
176
     1
 75
     1
176
     1
175
     1
176
     1
 42
1.0
176
     1
 92
        0
176
     1
 66
   257
176
     1
 43
1.0
176
     1
 76
     1
176
     1
 77
     6
176
     1
 78
     2
176
     1
 67
     7
176
     1
 79
     5
176
     1
170
     0
176
     1
171
     0
176
     1
290
     0
176
     1
 93
        1
176
     1
 44
0.0
176
     1
173
     0
176
     1
  0
VISUALSTYLE
  5
31
102
{ACAD_REACTORS
330
2A
102
}
330
2A
100
AcDbVisualStyle
  2
3D Hidden
 70
     6
177
     2
291
     0
 71
     1
176
     1
 72
     2
176
     1
 73
     2
176
     1
 90
        0
176
     1
 40
-0.6
176
     1
 41
-30.0
176
     1
 62
     5
 63
     7
421
 16777215
176
     1
 74
     2
176
     1
 91
        2
176
     1
 64
     7
176
     1
 65
   257
176
     1
 75
     2
176
     1
175
     1
176
     1
 42
40.0
176
     1
 92
        0
176
     1
 66
   257
176
     1
 43
1.0
176
     1
 76
     1
176
     1
 77
     6
176
     1
 78
     2
176
     1
 67
     7
176
     1
 79
     3
176
     1
170
     0
176
     1
171
     0
176
     1
290
     0
176
     1
 93
        1
176
     1
 44
0.0
176
     1
173
     0
176
     1
  0
VISUALSTYLE
  5
30
102
{ACAD_REACTORS
330
2A
102
}
330
2A
100
AcDbVisualStyle
  2
3dWireframe
 70
     5
177
     2
291
     0
 71
     0
176
     1
 72
     2
176
     1
 73
     0
176
     1
 90
        0
176
     1
 40
-0.6
176
     1
 41
-30.0
176
     1
 62
     5
 63
     7
421
 16777215
176
     1
 74
     1
176
     1
 91
        4
176
     1
 64
     7
176
     1
 65
   257
176
     1
 75
     1
176
     1
175
     1
176
     1
 42
1.0
176
     1
 92
        0
176
     1
 66
   257
176
     1
 43
1.0
176
     1
 76
     1
176
     1
 77
     6
176
     1
 78
     2
176
     1
 67
     7
176
     1
 79
     5
176
     1
170
     0
176
     1
171
     0
176
     1
290
     0
176
     1
 93
        1
176
     1
 44
0.0
176
     1
173
     0
176
     1
  0
VISUALSTYLE
  5
32
102
{ACAD_REACTORS
330
2A
102
}
330
2A
100
AcDbVisualStyle
  2
Basic
 70
     7
177
     2
291
     1
 71
     1
176
     1
 72
     0
176
     1
 73
     1
176
     1
 90
        0
176
     1
 40
-0.6
176
     1
 41
-30.0
176
     1
 62
     5
 63
     7
421
 16777215
176
     1
 74
     0
176
     1
 91
        4
176
     1
 64
     7
176
     1
 65
   257
176
     1
 75
     1
176
     1
175
     1
176
     1
 42
1.0
176
     1
 92
        8
176
     1
 66
     7
176
     1
 43
1.0
176
     1
 76
     1
176
     1
 77
     6
176
     1
 78
     2
176
     1
 67
     7
176
     1
 79
     5
176
     1
170
     0
176
     1
171
     0
176
     1
290
     0
176
     1
 93
        1
176
     1
 44
0.0
176
     1
173
     0
176
     1
  0
VISUALSTYLE
  5
36
102
{ACAD_REACTORS
330
2A
102
}
330
2A
100
AcDbVisualStyle
  2
Brighten
 70
    12
177
     2
291
     1
 71
     2
176
     1
 72
     2
176
     1
 73
     0
176
     1
 90
        0
176
     1
 40
-0.6
176
     1
 41
-30.0
176
     1
 62
     5
 63
     7
421
 16777215
176
     1
 74
     1
176
     1
 91
        4
176
     1
 64
     7
176
     1
 65
   257
176
     1
 75
     1
176
     1
175
     1
176
     1
 42
1.0
176
     1
 92
        8
176
     1
 66
     7
176
     1
 43
1.0
176
     1
 76
     1
176
     1
 77
     6
176
     1
 78
     2
176
     1
 67
     7
176
     1
 79
     5
176
     1
170
     0
176
     1
171
     0
176
     1
290
     0
176
     1
 93
        1
176
     1
 44
50.0
176
     1
173
     0
176
     1
  0
VISUALSTYLE
  5
3A
102
{ACAD_REACTORS
330
2A
102
}
330
2A
100
AcDbVisualStyle
  2
ColorChange
 70
    16
177
     2
291
     1
 71
     2
176
     1
 72
     2
176
     1
 73
     3
176
     1
 90
        0
176
     1
 40
-0.6
176
     1
 41
-30.0
176
     1
 62
     5
 63
     8
421
  8421504
176
     1
 74
     1
176
     1
 91
        4
176
     1
 64
     7
176
     1
 65
   257
176
     1
 75
     1
176
     1
175
     1
176
     1
 42
1.0
176
     1
 92
        8
176
     1
 66
     8
424
  8421504
176
     1
 43
1.0
176
     1
 76
     1
176
     1
 77
     6
176
     1
 78
     2
176
     1
 67
     7
176
     1
 79
     5
176
     1
170
     0
176
     1
171
     0
176
     1
290
     0
176
     1
 93
        1
176
     1
 44
0.0
176
     1
173
     0
176
     1
  0
VISUALSTYLE
  5
34
102
{ACAD_REACTORS
330
2A
102
}
330
2A
100
AcDbVisualStyle
  2
Conceptual
 70
     9
177
     2
291
     0
 71
     3
176
     1
 72
     2
176
     1
 73
     0
176
     1
 90
        0
176
     1
 40
-0.6
176
     1
 41
-30.0
176
     1
 62
     5
 63
     7
421
 16777215
176
     1
 74
     2
176
     1
 91
        2
176
     1
 64
     7
176
     1
 65
   257
176
     1
 75
     1
176
     1
175
     1
176
     1
 42
40.0
176
     1
 92
        8
176
     1
 66
     7
176
     1
 43
1.0
176
     1
 76
     1
176
     1
 77
     6
176
     1
 78
     2
176
     1
 67
     7
176
     1
 79
     3
176
     1
170
     0
176
     1
171
     0
176
     1
290
     0
176
     1
 93
        1
176
     1
 44
0.0
176
     1
173
     0
176
     1
  0
VISUALSTYLE
  5
35
102
{ACAD_REACTORS
330
2A
102
}
330
2A
100
AcDbVisualStyle
  2
Dim
 70
    11
177
     2
291
     1
 71
     2
176
     1
 72
     2
176
     1
 73
     0
176
     1
 90
        0
176
     1
 40
-0.6
176
     1
 41
-30.0
176
     1
 62
     5
 63
     7
421
 16777215
176
     1
 74
     1
176
     1
 91
        4
176
     1
 64
     7
176
     1
 65
   257
176
     1
 75
     1
176
     1
175
     1
176
     1
 42
1.0
176
     1
 92
        8
176
     1
 66
     7
176
     1
 43
1.0
176
     1
 76
     1
176
     1
 77
     6
176
     1
 78
     2
176
     1
 67
     7
176
     1
 79
     5
176
     1
170
     0
176
     1
171
     0
176
     1
290
     0
176
     1
 93
        1
176
     1
 44
-50.0
176
     1
173
     0
176
     1
  0
VISUALSTYLE
  5
39
102
{ACAD_REACTORS
330
2A
102
}
330
2A
100
AcDbVisualStyle
  2
Facepattern
 70
    15
177
     2
291
     1
 71
     2
176
     1
 72
     2
176
     1
 73
     0
176
     1
 90
        0
176
     1
 40
-0.6
176
     1
 41
-30.0
176
     1
 62
     5
 63
     7
421
 16777215
176
     1
 74
     1
176
     1
 91
        4
176
     1
 64
     7
176
     1
 65
   257
176
     1
 75
     1
176
     1
175
     1
176
     1
 42
1.0
176
     1
 92
        8
176
     1
 66
     7
176
     1
 43
1.0
176
     1
 76
     1
176
     1
 77
     6
176
     1
 78
     2
176
     1
 67
     7
176
     1
 79
     5
176
     1
170
     0
176
     1
171
     0
176
     1
290
     0
176
     1
 93
        1
176
     1
 44
0.0
176
     1
173
     0
176
     1
  0
VISUALSTYLE
  5
2B
102
{ACAD_REACTORS
330
2A
102
}
330
2A
100
AcDbVisualStyle
  2
Flat
 70
     0
177
     2
291
     1
 71
     2
176
     1
 72
     1
176
     1
 73
     1
176
     1
 90
        2
176
     1
 40
-0.6
176
     1
 41
30.0
176
     1
 62
     5
 63
     7
421
 16777215
176
     1
 74
     0
176
     1
 91
        4
176
     1
 64
     7
176
     1
 65
   257
176
     1
 75
     1
176
     1
175
     1
176
     1
 42
1.0
176
     1
 92
        8
176
     1
 66
     7
176
     1
 43
1.0
176
     1
 76
     1
176
     1
 77
     6
176
     1
 78
     2
176
     1
 67
     7
176
     1
 79
     5
176
     1
170
     0
176
     1
171
     0
176
     1
290
     0
176
     1
 93
       13
176
     1
 44
0.0
176
     1
173
     0
176
     1
  0
VISUALSTYLE
  5
2C
102
{ACAD_REACTORS
330
2A
102
}
330
2A
100
AcDbVisualStyle
  2
FlatWithEdges
 70
     1
177
     2
291
     1
 71
     2
176
     1
 72
     1
176
     1
 73
     1
176
     1
 90
        2
176
     1
 40
-0.6
176
     1
 41
30.0
176
     1
 62
     5
 63
     7
421
 16777215
176
     1
 74
     1
176
     1
 91
        4
176
     1
 64
     7
176
     1
 65
   257
176
     1
 75
     1
176
     1
175
     1
176
     1
 42
1.0
176
     1
 92
        0
176
     1
 66
   257
176
     1
 43
1.0
176
     1
 76
     1
176
     1
 77
     6
176
     1
 78
     2
176
     1
 67
     7
176
     1
 79
     5
176
     1
170
     0
176
     1
171
     0
176
     1
290
     0
176
     1
 93
       13
176
     1
 44
0.0
176
     1
173
     0
176
     1
  0
VISUALSTYLE
  5
2D
102
{ACAD_REACTORS
330
2A
102
}
330
2A
100
AcDbVisualStyle
  2
Gouraud
 70
     2
177
     2
291
     1
 71
     2
176
     1
 72
     2
176
     1
 73
     1
176
     1
 90
        2
176
     1
 40
-0.6
176
     1
 41
30.0
176
     1
 62
     5
 63
     7
421
 16777215
176
     1
 74
     0
176
     1
 91
        4
176
     1
 64
     7
176
     1
 65
   257
176
     1
 75
     1
176
     1
175
     1
176
     1
 42
1.0
176
     1
 92
        0
176
     1
 66
     7
176
     1
 43
1.0
176
     1
 76
     1
176
     1
 77
     6
176
     1
 78
     2
176
     1
 67
     7
176
     1
 79
     5
176
     1
170
     0
176
     1
171
     0
176
     1
290
     0
176
     1
 93
       13
176
     1
 44
0.0
176
     1
173
     0
176
     1
  0
VISUALSTYLE
  5
2E
102
{ACAD_REACTORS
330
2A
102
}
330
2A
100
AcDbVisualStyle
  2
GouraudWithEdges
 70
     3
177
     2
291
     1
 71
     2
176
     1
 72
     2
176
     1
 73
     1
176
     1
 90
        2
176
     1
 40
-0.6
176
     1
 41
30.0
176
     1
 62
     5
 63
     7
421
 16777215
176
     1
 74
     1
176
     1
 91
        4
176
     1
 64
     7
176
     1
 65
   257
176
     1
 75
     1
176
     1
175
     1
176
     1
 42
1.0
176
     1
 92
        0
176
     1
 66
   257
176
     1
 43
1.0
176
     1
 76
     1
176
     1
 77
     6
176
     1
 78
     2
176
     1
 67
     7
176
     1
 79
     5
176
     1
170
     0
176
     1
171
     0
176
     1
290
     0
176
     1
 93
       13
176
     1
 44
0.0
176
     1
173
     0
176
     1
  0
VISUALSTYLE
  5
38
102
{ACAD_REACTORS
330
2A
102
}
330
2A
100
AcDbVisualStyle
  2
Linepattern
 70
    14
177
     2
291
     1
 71
     2
176
     1
 72
     2
176
     1
 73
     0
176
     1
 90
        0
176
     1
 40
-0.6
176
     1
 41
-30.0
176
     1
 62
     5
 63
     7
421
 16777215
176
     1
 74
     1
176
     1
 91
        4
176
     1
 64
     7
176
     1
 65
   257
176
     1
 75
     7
176
     1
175
     7
176
     1
 42
1.0
176
     1
 92
        8
176
     1
 66
     7
176
     1
 43
1.0
176
     1
 76
     1
176
     1
 77
     6
176
     1
 78
     2
176
     1
 67
     7
176
     1
 79
     5
176
     1
170
     0
176
     1
171
     0
176
     1
290
     0
176
     1
 93
        1
176
     1
 44
0.0
176
     1
173
     0
176
     1
  0
VISUALSTYLE
  5
33
102
{ACAD_REACTORS
330
2A
102
}
330
2A
100
AcDbVisualStyle
  2
Realistic
 70
     8
177
     2
291
     0
 71
     2
176
     1
 72
     2
176
     1
 73
     0
176
     1
 90
        0
176
     1
 40
-0.6
176
     1
 41
-30.0
176
     1
 62
     5
 63
     7
421
 16777215
176
     1
 74
     1
176
     1
 91
        0
176
     1
 64
     7
176
     1
 65
   257
176
     1
 75
     1
176
     1
175
     1
176
     1
 42
1.0
176
     1
 92
        8
176
     1
 66
     8
424
  7895160
176
     1
 43
1.0
176
     1
 76
     1
176
     1
 77
     6
176
     1
 78
     2
176
     1
 67
     7
176
     1
 79
     5
176
     1
170
     0
176
     1
171
     0
176
     1
290
     0
176
     1
 93
       13
176
     1
 44
0.0
176
     1
173
     0
176
     1
  0
VISUALSTYLE
  5
37
102
{ACAD_REACTORS
330
2A
102
}
330
2A
100
AcDbVisualStyle
  2
Thicken
 70
    13
177
     2
291
     1
 71
     2
176
     1
 72
     2
176
     1
 73
     0
176
     1
 90
        0
176
     1
 40
-0.6
176
     1
 41
-30.0
176
     1
 62
     5
 63
     7
421
 16777215
176
     1
 74
     1
176
     1
 91
        4
176
     1
 64
     7
176
     1
 65
   257
176
     1
 75
     1
176
     1
175
     1
176
     1
 42
1.0
176
     1
 92
       12
176
     1
 66
     7
176
     1
 43
1.0
176
     1
 76
     1
176
     1
 77
     6
176
     1
 78
     2
176
     1
 67
     7
176
     1
 79
     5
176
     1
170
     0
176
     1
171
     0
176
     1
290
     0
176
     1
 93
        1
176
     1
 44
0.0
176
     1
173
     0
176
     1
  0
ENDSEC
  0
EOF
